  0
SECTION
  2
HEADER
  9
$ACADVER
  1
AC1015
  9
$ACADMAINTVER
 70
     6
  9
$DWGCODEPAGE
  3
ANSI_932
  9
$INSBASE
 10
0.0
 20
0.0
 30
0.0
  9
$EXTMIN
 10
1.000000E+20
 20
1.000000E+20
 30
1.000000E+20
  9
$EXTMAX
 10
-1.000000E+20
 20
-1.000000E+20
 30
-1.000000E+20
  9
$LIMMIN
 10
0.0
 20
0.0
  9
$LIMMAX
 10
0.0
 20
0.0
  9
$ORTHOMODE
 70
     0
  9
$REGENMODE
 70
     1
  9
$FILLMODE
 70
     1
  9
$QTEXTMODE
 70
     0
  9
$MIRRTEXT
 70
     1
  9
$LTSCALE
 40
1.0
  9
$ATTMODE
 70
     1
  9
$TEXTSIZE
 40
7.0
  9
$TRACEWID
 40
0.05
  9
$TEXTSTYLE
  7
Standard
  9
$CLAYER
  8
0
  9
$CELTYPE
  6
Continuous
  9
$CECOLOR
 62
   256
  9
$CELTSCALE
 40
1.0
  9
$DISPSILH
 70
     0
  9
$DIMSCALE
 40
1.0
  9
$DIMASZ
 40
1.931852
  9
$DIMEXO
 40
1.0
  9
$DIMDLI
 40
0.38
  9
$DIMRND
 40
0.0
  9
$DIMDLE
 40
0.0
  9
$DIMEXE
 40
2.0
  9
$DIMTP
 40
0.0
  9
$DIMTM
 40
0.0
  9
$DIMTXT
 40
2.8
  9
$DIMCEN
 40
0.09
  9
$DIMTSZ
 40
0.0
  9
$DIMTOL
 70
     0
  9
$DIMLIM
 70
     0
  9
$DIMTIH
 70
     1
  9
$DIMTOH
 70
     1
  9
$DIMSE1
 70
     0
  9
$DIMSE2
 70
     0
  9
$DIMTAD
 70
     1
  9
$DIMZIN
 70
     0
  9
$DIMBLK
  1

  9
$DIMASO
 70
     1
  9
$DIMSHO
 70
     1
  9
$DIMPOST
  1

  9
$DIMAPOST
  1

  9
$DIMALT
 70
     0
  9
$DIMALTD
 70
     2
  9
$DIMALTF
 40
25.4
  9
$DIMLFAC
 40
1.0
  9
$DIMTOFL
 70
     0
  9
$DIMTVP
 40
0.0
  9
$DIMTIX
 70
     0
  9
$DIMSOXD
 70
     0
  9
$DIMSAH
 70
     0
  9
$DIMBLK1
  1

  9
$DIMBLK2
  1

  9
$DIMSTYLE
  2
Standard
  9
$DIMCLRD
 70
     0
  9
$DIMCLRE
 70
     0
  9
$DIMCLRT
 70
     0
  9
$DIMTFAC
 40
0.714286
  9
$DIMGAP
 40
0.09
  9
$DIMJUST
 70
     0
  9
$DIMSD1
 70
     0
  9
$DIMSD2
 70
     0
  9
$DIMTOLJ
 70
     1
  9
$DIMTZIN
 70
     0
  9
$DIMALTZ
 70
     0
  9
$DIMALTTZ
 70
     0
  9
$DIMUPT
 70
     0
  9
$DIMDEC
 70
     4
  9
$DIMTDEC
 70
     4
  9
$DIMALTU
 70
     2
  9
$DIMALTTD
 70
     2
  9
$DIMTXSTY
  7
Standard
  9
$DIMAUNIT
 70
     0
  9
$DIMADEC
 70
     0
  9
$DIMALTRND
 40
0.0
  9
$DIMAZIN
 70
     0
  9
$DIMDSEP
 70
     0
  9
$DIMATFIT
 70
     3
  9
$DIMFRAC
 70
     0
  9
$DIMLDRBLK
  1

  9
$DIMLUNIT
 70
     2
  9
$DIMLWD
 70
     0
  9
$DIMLWE
 70
     0
  9
$DIMTMOVE
 70
     0
  9
$LUNITS
 70
     2
  9
$LUPREC
 70
     3
  9
$SKETCHINC
 40
0.1
  9
$FILLETRAD
 40
0.0
  9
$AUNITS
 70
     0
  9
$AUPREC
 70
     0
  9
$MENU
  1
acad
  9
$ELEVATION
 40
0.0
  9
$PELEVATION
 40
0.0
  9
$THICKNESS
 40
0.0
  9
$LIMCHECK
 70
     0
  9
$CHAMFERA
 40
0.0
  9
$CHAMFERB
 40
0.0
  9
$CHAMFERC
 40
0.0
  9
$CHAMFERD
 40
0.0
  9
$SKPOLY
 70
     0
  9
$TDCREATE
 40
0.000000000
  9
$TDUCREATE
 40
0.000000000
  9
$TDUPDATE
 40
0.000000000
  9
$TDUUPDATE
 40
0.000000000
  9
$TDINDWG
 40
0.0000000000
  9
$TDUSRTIMER
 40
0.0000000000
  9
$USRTIMER
 70
     1
  9
$ANGBASE
 50
0.0
  9
$ANGDIR
 70
     0
  9
$PDMODE
 70
     0
  9
$PDSIZE
 40
0.0
  9
$PLINEWID
 40
0.0
  9
$SPLFRAME
 70
     0
  9
$SPLINETYPE
 70
     6
  9
$SPLINESEGS
 70
     8
  9
$HANDSEED
  5
57B
  9
$SURFTAB1
 70
     6
  9
$SURFTAB2
 70
     6
  9
$SURFTYPE
 70
     6
  9
$SURFU
 70
     6
  9
$SURFV
 70
     6
  9
$UCSBASE
  2

  9
$UCSNAME
  2

  9
$UCSORG
 10
0.0
 20
0.0
 30
0.0
  9
$UCSXDIR
 10
1.0
 20
0.0
 30
0.0
  9
$UCSYDIR
 10
0.0
 20
1.0
 30
0.0
  9
$UCSORTHOREF
  2

  9
$UCSORTHOVIEW
 70
     0
  9
$UCSORGTOP
 10
0.0
 20
0.0
 30
0.0
  9
$UCSORGBOTTOM
 10
0.0
 20
0.0
 30
0.0
  9
$UCSORGLEFT
 10
0.0
 20
0.0
 30
0.0
  9
$UCSORGRIGHT
 10
0.0
 20
0.0
 30
0.0
  9
$UCSORGFRONT
 10
0.0
 20
0.0
 30
0.0
  9
$UCSORGBACK
 10
0.0
 20
0.0
 30
0.0
  9
$PUCSBASE
  2

  9
$PUCSNAME
  2

  9
$PUCSORG
 10
0.0
 20
0.0
 30
0.0
  9
$PUCSXDIR
 10
1.0
 20
0.0
 30
0.0
  9
$PUCSYDIR
 10
0.0
 20
1.0
 30
0.0
  9
$PUCSORTHOREF
  2

  9
$PUCSORTHOVIEW
 70
     0
  9
$PUCSORGTOP
 10
0.0
 20
0.0
 30
0.0
  9
$PUCSORGBOTTOM
 10
0.0
 20
0.0
 30
0.0
  9
$PUCSORGLEFT
 10
0.0
 20
0.0
 30
0.0
  9
$PUCSORGRIGHT
 10
0.0
 20
0.0
 30
0.0
  9
$PUCSORGFRONT
 10
0.0
 20
0.0
 30
0.0
  9
$PUCSORGBACK
 10
0.0
 20
0.0
 30
0.0
  9
$USERI1
 70
     0
  9
$USERI2
 70
     0
  9
$USERI3
 70
     0
  9
$USERI4
 70
     0
  9
$USERI5
 70
     0
  9
$USERR1
 40
0.0
  9
$USERR2
 40
0.0
  9
$USERR3
 40
0.0
  9
$USERR4
 40
0.0
  9
$USERR5
 40
0.0
  9
$WORLDVIEW
 70
     1
  9
$SHADEDGE
 70
     3
  9
$SHADEDIF
 70
    70
  9
$TILEMODE
 70
     1
  9
$MAXACTVP
 70
    16
  9
$PINSBASE
 10
0.0
 20
0.0
 30
0.0
  9
$PLIMCHECK
 70
     0
  9
$PEXTMIN
 10
1.000000E+20
 20
1.000000E+20
 30
1.000000E+20
  9
$PEXTMAX
 10
-1.000000E+20
 20
-1.000000E+20
 30
-1.000000E+20
  9
$PLIMMIN
 10
0.0
 20
0.0
  9
$PLIMMAX
 10
12.0
 20
9.0
  9
$UNITMODE
 70
     0
  9
$VISRETAIN
 70
     0
  9
$PLINEGEN
 70
     1
  9
$PSLTSCALE
 70
     0
  9
$TREEDEPTH
 70
  3020
  9
$CMLSTYLE
  2
Standard
  9
$CMLJUST
 70
     0
  9
$CMLSCALE
 40
1.0
  9
$PROXYGRAPHICS
 70
     0
  9
$MEASUREMENT
 70
     0
  9
$CELWEIGHT
370
     0
  9
$ENDCAPS
280
     0
  9
$JOINSTYLE
280
     0
  9
$LWDISPLAY
290
     0
  9
$INSUNITS
 70
     0
  9
$HYPERLINKBASE
  1

  9
$STYLESHEET
  1

  9
$XEDIT
290
     1
  9
$CEPSNTYPE
380
     0
  9
$PSTYLEMODE
290
     1
  9
$FINGERPRINTGUID
  2

  9
$VERSIONGUID
  2

  9
$EXTNAMES
290
     1
  9
$PSVPSCALE
 40
0.0
  0
ENDSEC
  0
SECTION
  2
CLASSES
  0
CLASS
  1
LWPOLYLINE
  2
AcDbPolyline
  3
AutoCAD 2000
 90
    32768
280
     0
281
     1
  0
CLASS
  1
IMAGE
  2
AcDbRasterImage
  3
ISM
 90
    32895
280
     0
281
     1
  0
CLASS
  1
OLE2FRAME
  2
AcDbOle2Frame
  3
AutoCAD 2000
 90
    32768
280
     0
281
     1
  0
CLASS
  1
HATCH
  2
AcDbHatch
  3
AutoCAD 2000
 90
    32768
280
     0
281
     1
  0
CLASS
  1
DICTIONARYVAR
  2
AcDbDictionaryVar
  3
AutoCAD 2000
 90
    32768
280
     0
281
     0
  0
CLASS
  1
RASTERVARIABLES
  2
AcDbRasterVariables
  3
ISM
 90
    32768
280
     0
281
     0
  0
CLASS
  1
IMAGEDEF
  2
AcDbRasterImageDef
  3
ISM
 90
    32768
280
     0
281
     0
  0
CLASS
  1
IMAGEDEF_REACTOR
  2
AcDbRasterImageDefReactor
  3
ISM
 90
    32769
280
     0
281
     0
  0
CLASS
  1
IDBUFFER
  2
AcDbIdBuffer
  3
AutoCAD 2000
 90
    32768
280
     0
281
     0
  0
CLASS
  1
SPATIAL_FILTER
  2
AcDbSpatialFilter
  3
AutoCAD 2000
 90
    32768
280
     0
281
     0
  0
CLASS
  1
XRECORD
  2
AcDbXrecord
  3
AutoCAD 2000
 90
        0
280
     0
281
     0
  0
CLASS
  1
SORTENTSTABLE
  2
AcDbSortentsTable
  3
AutoCAD 2000
 90
    32768
280
     0
281
     0
  0
CLASS
  1
LAYER_INDEX
  2
AcDbLayerIndex
  3
AutoCAD 2000
 90
    32768
280
     0
281
     0
  0
CLASS
  1
SPATIAL_INDEX
  2
AcDbSpatialIndex
  3
AutoCAD 2000
 90
    32768
280
     0
281
     0
  0
CLASS
  1
OBJECT_PTR
  2
CAseDLPNTableRecord
  3
"ASE-LPNTableRecord"
 90
    32769
280
     0
281
     0
  0
CLASS
  1
LAYOUT
  2
AcDbLayout
  3
AutoCAD 2000
 90
        0
280
     0
281
     0
  0
CLASS
  1
PLOTSETTINGS
  2
AcDbPlotSettings
  3
AutoCAD 2000
 90
    32768
280
     0
281
     0
  0
CLASS
  1
ACDBDICTIONARYWDFLT
  2
AcDbDictionaryWithDefault
  3
AutoCAD 2000
 90
        0
280
     0
281
     0
  0
CLASS
  1
ACDBPLACEHOLDER
  2
AcDbPlaceHolder
  3
AutoCAD 2000
 90
        0
280
     0
281
     0
  0
CLASS
  1
VBA_PROJECT
  2
AcDbVbaProject
  3
acadvba
 90
    32768
280
     0
281
     0
  0
CLASS
  1
WIPEOUT
  2
AcDbWipeout
  3
WipeOut|AutoCAD Express Tool|expresstools@autodesk.com
 90
    32895
280
     0
281
     1
  0
CLASS
  1
WIPEOUTVARIABLES
  2
AcDbWipeoutVariables
  3
WipeOut|AutoCAD Express Tool|expresstools@autodesk.com
 90
        0
280
     0
281
     0
  0
CLASS
  1
RTEXT
  2
RText
  3
RText|AutoCAD Express Tool|expresstools@autodesk.com
 90
    32768
280
     0
281
     1
  0
CLASS
  1
ARCALIGNEDTEXT
  2
AcDbArcAlignedText
  3
ATEXT|AutoCAD Express Tool|expresstools@autodesk.com
 90
    32768
280
     0
281
     1
  0
ENDSEC
  0
SECTION
  2
TABLES
  0
TABLE
  2
VPORT
  5
7
100
AcDbSymbolTable
 70
     1
  0
VPORT
  5
15
100
AcDbSymbolTableRecord
100
AcDbViewportTableRecord
  2
*ACTIVE
 70
     0
 10
0.0
 20
0.0
 11
1.0
 21
1.0
 12
0.0
 22
0.0
 13
0.0
 23
0.0
 14
1.0
 24
1.0
 15
0.0
 25
0.0
 16
0.0
 26
0.0
 36
1.0
 17
0.0
 27
0.0
 37
0.0
 40
100.0
 41
1.0
 42
50.0
 43
0.0
 44
0.0
 50
0.0
 51
0.0
 71
     0
 72
   100
 73
     1
 74
     1
 75
     0
 76
     0
 77
     0
 78
     0
281
     0
 65
     0
110
0.0
120
0.0
130
0.0
111
1.0
121
0.0
131
0.0
112
0.0
122
1.0
132
0.0
345
0
346
0
 79
     0
146
0.0
  0
ENDTAB
  0
TABLE
  2
LTYPE
  5
4
100
AcDbSymbolTable
 70
     7
  0
LTYPE
  5
11
100
AcDbSymbolTableRecord
100
AcDbLinetypeTableRecord
  2
ByBlock
 70
    64
  3

 72
    65
 73
     0
 40
0.0
  0
LTYPE
  5
12
100
AcDbSymbolTableRecord
100
AcDbLinetypeTableRecord
  2
ByLayer
 70
    64
  3

 72
    65
 73
     0
 40
0.0
  0
LTYPE
  5
13
100
AcDbSymbolTableRecord
100
AcDbLinetypeTableRecord
  2
Continuous
 70
    64
  3
Solid line
 72
    65
 73
     0
 40
0.0
  0
LTYPE
  5
24
100
AcDbSymbolTableRecord
100
AcDbLinetypeTableRecord
  2
DASHED
 70
    64
  3
Dashed __ __ __ __ __ __ __ __ __ __ __ __ __ _
 72
    65
 73
     2
 40
0.75
 49
0.5
 74
     0
 49
-0.25
 74
     0
  0
LTYPE
  5
25
100
AcDbSymbolTableRecord
100
AcDbLinetypeTableRecord
  2
CENTER
 70
    64
  3
Center ____ _ ____ _ ____ _ ____ _ ____ _ ____
 72
    65
 73
     4
 40
1.0
 49
0.5
 74
     0
 49
-0.25
 74
     0
 49
0.0
 74
     0
 49
-0.25
 74
     0
  0
LTYPE
  5
26
100
AcDbSymbolTableRecord
100
AcDbLinetypeTableRecord
  2
DIVIDE
 70
    64
  3
Divide ____ . . ____ . . ____ . . ____ . . ____
 72
    65
 73
     6
 40
1.25
 49
0.5
 74
     0
 49
-0.25
 74
     0
 49
0.0
 74
     0
 49
-0.25
 74
     0
 49
0.0
 74
     0
 49
-0.25
 74
     0
  0
LTYPE
  5
27
100
AcDbSymbolTableRecord
100
AcDbLinetypeTableRecord
  2
PHANTOM
 70
    64
  3
Phantom ______  __  __  ______  __  __  ______
 72
    65
 73
     6
 40
9.0
 49
4.3
 74
     0
 49
-0.7
 74
     0
 49
1.3
 74
     0
 49
-0.7
 74
     0
 49
1.3
 74
     0
 49
-0.7
 74
     0
  0
ENDTAB
  0
TABLE
  2
LAYER
  5
2
100
AcDbSymbolTable
 70
     3
  0
LAYER
  5
14
100
AcDbSymbolTableRecord
100
AcDbLayerTableRecord
  2
0
 70
    64
 62
    53
  6
Continuous
290
     1
370
    -3
390
1D
  0
LAYER
  5
28
100
AcDbSymbolTableRecord
100
AcDbLayerTableRecord
  2
3
 70
    64
 62
     4
  6
Continuous
290
     1
370
    -3
390
1D
  0
LAYER
  5
29
100
AcDbSymbolTableRecord
100
AcDbLayerTableRecord
  2
5
 70
    64
 62
   191
  6
Continuous
290
     1
370
    -3
390
1D
  0
ENDTAB
  0
TABLE
  2
STYLE
  5
3
100
AcDbSymbolTable
 70
     2
  0
STYLE
  5
17
100
AcDbSymbolTableRecord
100
AcDbTextStyleTableRecord
  2
Standard
 70
     0
 40
0.0
 41
1.0
 50
0.0
 71
     0
 42
0.0
  3
txt
  4

  0
STYLE
  5
188
100
AcDbSymbolTableRecord
100
AcDbTextStyleTableRecord
  2
ZU_SHPTB00001
 70
     0
 40
0.0
 41
1.0
 50
0.0
 71
     0
 42
0.0
  3
monotxt
  4
bigfont
  0
ENDTAB
  0
TABLE
  2
VIEW
  5
5
100
AcDbSymbolTable
 70
     0
  0
ENDTAB
  0
TABLE
  2
UCS
  5
6
100
AcDbSymbolTable
 70
     0
  0
ENDTAB
  0
TABLE
  2
APPID
  5
8
100
AcDbSymbolTable
 70
     1
  0
APPID
  5
16
100
AcDbSymbolTableRecord
100
AcDbRegAppTableRecord
  2
ACAD
 70
     0
  0
ENDTAB
  0
TABLE
  2
DIMSTYLE
  5
9
100
AcDbSymbolTable
 70
     1
100
AcDbDimStyleTable
 71
     0
  0
DIMSTYLE
105
18
100
AcDbSymbolTableRecord
100
AcDbDimStyleTableRecord
  2
Standard
 70
     0
  3

  4

 40
1.0
 41
0.18
 42
0.0625
 43
0.38
 44
0.18
 45
0.0
 46
0.0
 47
0.0
 48
0.0
 71
     0
 72
     0
 73
     1
 74
     1
 75
     0
 76
     0
 77
     0
 78
     0
 79
     0
140
0.18
141
0.09
142
0.0
143
25.4
144
1.0
145
0.0
146
1.0
147
0.09
148
0.0
170
     0
171
     2
172
     0
173
     0
174
     0
175
     0
176
     0
177
     0
178
     0
179
     0
271
     4
272
     4
273
     2
274
     2
275
     0
276
     0
277
     2
278
    46
279
     0
280
     0
281
     0
282
     0
283
     1
284
     0
285
     0
286
     0
288
     0
340
17
341
0
342
0
343
0
344
0
371
    -2
372
    -2
  0
ENDTAB
  0
TABLE
  2
BLOCK_RECORD
  5
1
100
AcDbSymbolTable
 70
    15
  0
BLOCK_RECORD
  5
A
100
AcDbSymbolTableRecord
100
AcDbBlockTableRecord
  2
*MODEL_SPACE
340
20
  0
BLOCK_RECORD
  5
B
100
AcDbSymbolTableRecord
100
AcDbBlockTableRecord
  2
*PAPER_SPACE
340
21
  0
BLOCK_RECORD
  5
44
100
AcDbSymbolTableRecord
100
AcDbBlockTableRecord
  2
ZU_SYM_K__CAD_SYM_POO_SYM_N20_-1
340
0
102
{BLKREFS
331
4F
102
}
  0
BLOCK_RECORD
  5
50
100
AcDbSymbolTableRecord
100
AcDbBlockTableRecord
  2
ZU_SYM_K__CAD_SYM_POO_SYM_N20_00001-1
340
0
102
{BLKREFS
331
5B
102
}
  0
BLOCK_RECORD
  5
64
100
AcDbSymbolTableRecord
100
AcDbBlockTableRecord
  2
ZU_SYM_C__ZUOU_AC_BLOCK_ZU_SYM__USERS_HOME_SYMBOL_STD_SYM_B01_-1_-1
340
0
102
{BLKREFS
331
76
102
}
  0
BLOCK_RECORD
  5
77
100
AcDbSymbolTableRecord
100
AcDbBlockTableRecord
  2
ZU_SYM_C__ZUOU_AC_BLOCK_ZU_SYM__USERS_HOME_SYMBOL_STD_SYM_B01_00001-1_-1
340
0
102
{BLKREFS
331
89
102
}
  0
BLOCK_RECORD
  5
154
100
AcDbSymbolTableRecord
100
AcDbBlockTableRecord
  2
ZU_SYM_C__ZUOU_AC_BLOCK_ZU_SYM__USERS_HOME_SYMBOL_STD_SYM_B01_00006-1_-1
340
0
102
{BLKREFS
331
166
102
}
  0
BLOCK_RECORD
  5
167
100
AcDbSymbolTableRecord
100
AcDbBlockTableRecord
  2
ZU_SYM_C__ZUOU_AC_BLOCK_ZU_SYM__USERS_HOME_SYMBOL_STD_SYM_B01_00007-1_-1
340
0
102
{BLKREFS
331
179
102
}
  0
BLOCK_RECORD
  5
17A
100
AcDbSymbolTableRecord
100
AcDbBlockTableRecord
  2
ZU_SYM_K__CAD_SYM_POO_SYM_P28_-1
340
0
102
{BLKREFS
331
187
102
}
  0
BLOCK_RECORD
  5
24B
100
AcDbSymbolTableRecord
100
AcDbBlockTableRecord
  2
ZU_SYM__USERS_HOME_SYMBOL_STD_SYM_B01_-1
340
0
102
{BLKREFS
331
25A
102
}
  0
BLOCK_RECORD
  5
25B
100
AcDbSymbolTableRecord
100
AcDbBlockTableRecord
  2
ZU_SYM__USERS_HOME_SYMBOL_STD_SYM_B01_00002-1
340
0
102
{BLKREFS
331
26A
102
}
  0
BLOCK_RECORD
  5
280
100
AcDbSymbolTableRecord
100
AcDbBlockTableRecord
  2
ZU_SYM__USERS_HOME_SYMBOL_STD_SYM_B01_00003-1
340
0
102
{BLKREFS
331
28F
102
}
  0
BLOCK_RECORD
  5
2D8
100
AcDbSymbolTableRecord
100
AcDbBlockTableRecord
  2
ZU_SYM__USERS_HOME_SYMBOL_STD_SYM_B01_00004-1
340
0
102
{BLKREFS
331
2E7
102
}
  0
BLOCK_RECORD
  5
393
100
AcDbSymbolTableRecord
100
AcDbBlockTableRecord
  2
ZU_SYM__USERS_HOME_SYMBOL_STD_SYM_B01_00005-1
340
0
102
{BLKREFS
331
39E
102
}
  0
BLOCK_RECORD
  5
39F
100
AcDbSymbolTableRecord
100
AcDbBlockTableRecord
  2
ZU_SYM__USERS_HOME_SYMBOL_STD_SYM_B01_00006-1
340
0
102
{BLKREFS
331
3AA
102
}
  0
BLOCK_RECORD
  5
3AB
100
AcDbSymbolTableRecord
100
AcDbBlockTableRecord
  2
ZU_SYM__USERS_HOME_SYMBOL_STD_SYM_B01_00007-1
340
0
102
{BLKREFS
331
3B6
102
}
  0
BLOCK_RECORD
  5
3B7
100
AcDbSymbolTableRecord
100
AcDbBlockTableRecord
  2
ZU_SYM__USERS_HOME_SYMBOL_STD_SYM_B01_00008-1
340
0
102
{BLKREFS
331
3C2
102
}
  0
ENDTAB
  0
ENDSEC
  0
SECTION
  2
BLOCKS
  0
BLOCK
  5
D
100
AcDbEntity
  8
0
100
AcDbBlockBegin
  2
*MODEL_SPACE
 70
     0
 10
0.0
 20
0.0
 30
0.0
  3
*MODEL_SPACE
  1

  0
ENDBLK
  5
E
100
AcDbEntity
  8
0
100
AcDbBlockEnd
  0
BLOCK
  5
F
100
AcDbEntity
 67
     1
  8
0
100
AcDbBlockBegin
  2
*PAPER_SPACE
 70
     0
 10
0.0
 20
0.0
 30
0.0
  3
*PAPER_SPACE
  1

  0
ENDBLK
  5
10
100
AcDbEntity
 67
     1
  8
0
100
AcDbBlockEnd
  0
BLOCK
  5
45
100
AcDbEntity
  8
0
100
AcDbBlockBegin
  2
ZU_SYM_K__CAD_SYM_POO_SYM_N20_-1
 70
    64
 10
0.0
 20
0.0
 30
0.0
  3
ZU_SYM_K__CAD_SYM_POO_SYM_N20_-1
  1

  0
CIRCLE
  5
46
100
AcDbEntity
  8
0
370
    -3
  6
Continuous
100
AcDbCircle
 10
0.0
 20
0.0
 30
0.0
 40
4.0
  0
LINE
  5
47
100
AcDbEntity
  8
0
370
    -3
  6
Continuous
100
AcDbLine
 10
2.299999
 20
-4.0
 30
0.0
 11
-2.299999
 21
-4.0
 31
0.0
  0
LINE
  5
48
100
AcDbEntity
  8
0
370
    -3
  6
Continuous
100
AcDbLine
 10
4.6
 20
-0.000001
 30
0.0
 11
2.300001
 21
-4.0
 31
0.0
  0
LINE
  5
49
100
AcDbEntity
  8
0
370
    -3
  6
Continuous
100
AcDbLine
 10
2.300001
 20
4.0
 30
0.0
 11
4.6
 21
0.000001
 31
0.0
  0
LINE
  5
4A
100
AcDbEntity
  8
0
370
    -3
  6
Continuous
100
AcDbLine
 10
-2.299999
 20
4.0
 30
0.0
 11
2.299999
 21
4.0
 31
0.0
  0
LINE
  5
4B
100
AcDbEntity
  8
0
370
    -3
  6
Continuous
100
AcDbLine
 10
-4.6
 20
0.000001
 30
0.0
 11
-2.300001
 21
4.0
 31
0.0
  0
LINE
  5
4C
100
AcDbEntity
  8
0
370
    -3
  6
Continuous
100
AcDbLine
 10
-2.300001
 20
-4.0
 30
0.0
 11
-4.6
 21
-0.000001
 31
0.0
  0
POINT
  5
4D
100
AcDbEntity
  8
0
370
    -3
  6
Continuous
100
AcDbPoint
 10
0.0
 20
0.0
 30
0.0
  0
ENDBLK
  5
4E
100
AcDbEntity
  8
0
100
AcDbBlockEnd
  0
BLOCK
  5
51
100
AcDbEntity
  8
0
100
AcDbBlockBegin
  2
ZU_SYM_K__CAD_SYM_POO_SYM_N20_00001-1
 70
    64
 10
0.0
 20
0.0
 30
0.0
  3
ZU_SYM_K__CAD_SYM_POO_SYM_N20_00001-1
  1

  0
CIRCLE
  5
52
100
AcDbEntity
  8
0
370
    -3
  6
Continuous
100
AcDbCircle
 10
0.0
 20
0.0
 30
0.0
 40
4.0
  0
LINE
  5
53
100
AcDbEntity
  8
0
370
    -3
  6
Continuous
100
AcDbLine
 10
2.299999
 20
-4.0
 30
0.0
 11
-2.299999
 21
-4.0
 31
0.0
  0
LINE
  5
54
100
AcDbEntity
  8
0
370
    -3
  6
Continuous
100
AcDbLine
 10
4.6
 20
-0.000001
 30
0.0
 11
2.300001
 21
-4.0
 31
0.0
  0
LINE
  5
55
100
AcDbEntity
  8
0
370
    -3
  6
Continuous
100
AcDbLine
 10
2.300001
 20
4.0
 30
0.0
 11
4.6
 21
0.000001
 31
0.0
  0
LINE
  5
56
100
AcDbEntity
  8
0
370
    -3
  6
Continuous
100
AcDbLine
 10
-2.299999
 20
4.0
 30
0.0
 11
2.299999
 21
4.0
 31
0.0
  0
LINE
  5
57
100
AcDbEntity
  8
0
370
    -3
  6
Continuous
100
AcDbLine
 10
-4.6
 20
0.000001
 30
0.0
 11
-2.300001
 21
4.0
 31
0.0
  0
LINE
  5
58
100
AcDbEntity
  8
0
370
    -3
  6
Continuous
100
AcDbLine
 10
-2.300001
 20
-4.0
 30
0.0
 11
-4.6
 21
-0.000001
 31
0.0
  0
POINT
  5
59
100
AcDbEntity
  8
0
370
    -3
  6
Continuous
100
AcDbPoint
 10
0.0
 20
0.0
 30
0.0
  0
ENDBLK
  5
5A
100
AcDbEntity
  8
0
100
AcDbBlockEnd
  0
BLOCK
  5
65
100
AcDbEntity
  8
0
100
AcDbBlockBegin
  2
ZU_SYM_C__ZUOU_AC_BLOCK_ZU_SYM__USERS_HOME_SYMBOL_STD_SYM_B01_-1_-1
 70
    64
 10
0.0
 20
0.0
 30
0.0
  3
ZU_SYM_C__ZUOU_AC_BLOCK_ZU_SYM__USERS_HOME_SYMBOL_STD_SYM_B01_-1_-1
  1

  0
LINE
  5
66
100
AcDbEntity
  8
0
370
    -3
  6
Continuous
100
AcDbLine
 10
-1.299999
 20
0.300007
 30
0.0
 11
-0.000001
 21
0.600002
 31
0.0
  0
LINE
  5
67
100
AcDbEntity
  8
0
370
    -3
  6
Continuous
100
AcDbLine
 10
-1.3
 20
-0.299995
 30
0.0
 11
-0.000004
 21
-0.000001
 31
0.0
  0
LINE
  5
68
100
AcDbEntity
  8
0
370
    -3
  6
Continuous
100
AcDbLine
 10
-1.300018
 20
-4.599993
 30
0.0
 11
-1.299981
 21
4.600004
 31
0.0
  0
ARC
  5
69
100
AcDbEntity
  8
0
370
    -3
  6
Continuous
100
AcDbCircle
 10
0.740001
 20
-0.000003
 30
0.0
 40
5.539999
100
AcDbArc
 50
155.470187
 51
204.52925
  0
ARC
  5
6A
100
AcDbEntity
  8
0
370
    -3
  6
Continuous
100
AcDbCircle
 10
-3.229986
 20
3.450012
 30
0.0
 40
1.57
100
AcDbArc
 50
179.999745
 51
227.099746
  0
ARC
  5
6B
100
AcDbEntity
  8
0
370
    -3
  6
Continuous
100
AcDbCircle
 10
-3.230014
 20
-3.449986
 30
0.0
 40
1.57
100
AcDbArc
 50
132.899744
 51
179.999745
  0
LINE
  5
6C
100
AcDbEntity
  8
0
370
    -3
  6
Continuous
100
AcDbLine
 10
-4.299987
 20
2.300014
 30
0.0
 11
-1.29999
 21
2.300004
 31
0.0
  0
LINE
  5
6D
100
AcDbEntity
  8
0
370
    -3
  6
Continuous
100
AcDbLine
 10
-4.300006
 20
-2.29998
 30
0.0
 11
-1.300007
 21
-2.299992
 31
0.0
  0
LINE
  5
6E
100
AcDbEntity
  8
0
370
    -3
  6
Continuous
100
AcDbLine
 10
0.000016
 20
4.599992
 30
0.0
 11
-0.000021
 21
-4.599992
 31
0.0
  0
LINE
  5
6F
100
AcDbEntity
  8
0
370
    -3
  6
Continuous
100
AcDbLine
 10
-4.299978
 20
4.600015
 30
0.0
 11
0.000013
 21
4.599998
 31
0.0
  0
LINE
  5
70
100
AcDbEntity
  8
0
370
    -3
  6
Continuous
100
AcDbLine
 10
-4.799962
 20
3.900001
 30
0.0
 11
-4.299962
 21
4.599999
 31
0.0
  0
LINE
  5
71
100
AcDbEntity
  8
0
370
    -3
  6
Continuous
100
AcDbLine
 10
-4.80001
 20
-3.899973
 30
0.0
 11
-4.799979
 21
3.900012
 31
0.0
  0
LINE
  5
72
100
AcDbEntity
  8
0
370
    -3
  6
Continuous
100
AcDbLine
 10
-4.299996
 20
-4.599962
 30
0.0
 11
-4.79999
 21
-3.899959
 31
0.0
  0
LINE
  5
73
100
AcDbEntity
  8
0
370
    -3
  6
Continuous
100
AcDbLine
 10
-0.000025
 20
-4.599994
 30
0.0
 11
-4.300015
 21
-4.599977
 31
0.0
  0
POINT
  5
74
100
AcDbEntity
  8
0
370
    -3
  6
Continuous
100
AcDbPoint
 10
0.0
 20
0.0
 30
0.0
  0
ENDBLK
  5
75
100
AcDbEntity
  8
0
100
AcDbBlockEnd
  0
BLOCK
  5
78
100
AcDbEntity
  8
0
100
AcDbBlockBegin
  2
ZU_SYM_C__ZUOU_AC_BLOCK_ZU_SYM__USERS_HOME_SYMBOL_STD_SYM_B01_00001-1_-1
 70
    64
 10
0.0
 20
0.0
 30
0.0
  3
ZU_SYM_C__ZUOU_AC_BLOCK_ZU_SYM__USERS_HOME_SYMBOL_STD_SYM_B01_00001-1_-1
  1

  0
LINE
  5
79
100
AcDbEntity
  8
0
370
    -3
  6
Continuous
100
AcDbLine
 10
-1.299999
 20
0.300007
 30
0.0
 11
-0.000001
 21
0.600002
 31
0.0
  0
LINE
  5
7A
100
AcDbEntity
  8
0
370
    -3
  6
Continuous
100
AcDbLine
 10
-1.3
 20
-0.299995
 30
0.0
 11
-0.000004
 21
-0.000001
 31
0.0
  0
LINE
  5
7B
100
AcDbEntity
  8
0
370
    -3
  6
Continuous
100
AcDbLine
 10
-1.300018
 20
-4.599993
 30
0.0
 11
-1.299981
 21
4.600004
 31
0.0
  0
ARC
  5
7C
100
AcDbEntity
  8
0
370
    -3
  6
Continuous
100
AcDbCircle
 10
0.740001
 20
-0.000003
 30
0.0
 40
5.539999
100
AcDbArc
 50
155.470187
 51
204.52925
  0
ARC
  5
7D
100
AcDbEntity
  8
0
370
    -3
  6
Continuous
100
AcDbCircle
 10
-3.229986
 20
3.450012
 30
0.0
 40
1.57
100
AcDbArc
 50
179.999745
 51
227.099746
  0
ARC
  5
7E
100
AcDbEntity
  8
0
370
    -3
  6
Continuous
100
AcDbCircle
 10
-3.230014
 20
-3.449986
 30
0.0
 40
1.57
100
AcDbArc
 50
132.899744
 51
179.999745
  0
LINE
  5
7F
100
AcDbEntity
  8
0
370
    -3
  6
Continuous
100
AcDbLine
 10
-4.299987
 20
2.300014
 30
0.0
 11
-1.29999
 21
2.300004
 31
0.0
  0
LINE
  5
80
100
AcDbEntity
  8
0
370
    -3
  6
Continuous
100
AcDbLine
 10
-4.300006
 20
-2.29998
 30
0.0
 11
-1.300007
 21
-2.299992
 31
0.0
  0
LINE
  5
81
100
AcDbEntity
  8
0
370
    -3
  6
Continuous
100
AcDbLine
 10
0.000016
 20
4.599992
 30
0.0
 11
-0.000021
 21
-4.599992
 31
0.0
  0
LINE
  5
82
100
AcDbEntity
  8
0
370
    -3
  6
Continuous
100
AcDbLine
 10
-4.299978
 20
4.600015
 30
0.0
 11
0.000013
 21
4.599998
 31
0.0
  0
LINE
  5
83
100
AcDbEntity
  8
0
370
    -3
  6
Continuous
100
AcDbLine
 10
-4.799962
 20
3.900001
 30
0.0
 11
-4.299962
 21
4.599999
 31
0.0
  0
LINE
  5
84
100
AcDbEntity
  8
0
370
    -3
  6
Continuous
100
AcDbLine
 10
-4.80001
 20
-3.899973
 30
0.0
 11
-4.799979
 21
3.900012
 31
0.0
  0
LINE
  5
85
100
AcDbEntity
  8
0
370
    -3
  6
Continuous
100
AcDbLine
 10
-4.299996
 20
-4.599962
 30
0.0
 11
-4.79999
 21
-3.899959
 31
0.0
  0
LINE
  5
86
100
AcDbEntity
  8
0
370
    -3
  6
Continuous
100
AcDbLine
 10
-0.000025
 20
-4.599994
 30
0.0
 11
-4.300015
 21
-4.599977
 31
0.0
  0
POINT
  5
87
100
AcDbEntity
  8
0
370
    -3
  6
Continuous
100
AcDbPoint
 10
0.0
 20
0.0
 30
0.0
  0
ENDBLK
  5
88
100
AcDbEntity
  8
0
100
AcDbBlockEnd
  0
BLOCK
  5
155
100
AcDbEntity
  8
0
100
AcDbBlockBegin
  2
ZU_SYM_C__ZUOU_AC_BLOCK_ZU_SYM__USERS_HOME_SYMBOL_STD_SYM_B01_00006-1_-1
 70
    64
 10
0.0
 20
0.0
 30
0.0
  3
ZU_SYM_C__ZUOU_AC_BLOCK_ZU_SYM__USERS_HOME_SYMBOL_STD_SYM_B01_00006-1_-1
  1

  0
LINE
  5
156
100
AcDbEntity
  8
0
370
    -3
  6
Continuous
100
AcDbLine
 10
-1.299999
 20
0.300007
 30
0.0
 11
-0.000001
 21
0.600002
 31
0.0
  0
LINE
  5
157
100
AcDbEntity
  8
0
370
    -3
  6
Continuous
100
AcDbLine
 10
-1.3
 20
-0.299995
 30
0.0
 11
-0.000004
 21
-0.000001
 31
0.0
  0
LINE
  5
158
100
AcDbEntity
  8
0
370
    -3
  6
Continuous
100
AcDbLine
 10
-1.300018
 20
-4.599993
 30
0.0
 11
-1.299981
 21
4.600004
 31
0.0
  0
ARC
  5
159
100
AcDbEntity
  8
0
370
    -3
  6
Continuous
100
AcDbCircle
 10
0.740001
 20
-0.000003
 30
0.0
 40
5.539999
100
AcDbArc
 50
155.470187
 51
204.52925
  0
ARC
  5
15A
100
AcDbEntity
  8
0
370
    -3
  6
Continuous
100
AcDbCircle
 10
-3.229986
 20
3.450012
 30
0.0
 40
1.57
100
AcDbArc
 50
179.999745
 51
227.099746
  0
ARC
  5
15B
100
AcDbEntity
  8
0
370
    -3
  6
Continuous
100
AcDbCircle
 10
-3.230014
 20
-3.449986
 30
0.0
 40
1.57
100
AcDbArc
 50
132.899744
 51
179.999745
  0
LINE
  5
15C
100
AcDbEntity
  8
0
370
    -3
  6
Continuous
100
AcDbLine
 10
-4.299987
 20
2.300014
 30
0.0
 11
-1.29999
 21
2.300004
 31
0.0
  0
LINE
  5
15D
100
AcDbEntity
  8
0
370
    -3
  6
Continuous
100
AcDbLine
 10
-4.300006
 20
-2.29998
 30
0.0
 11
-1.300007
 21
-2.299992
 31
0.0
  0
LINE
  5
15E
100
AcDbEntity
  8
0
370
    -3
  6
Continuous
100
AcDbLine
 10
0.000016
 20
4.599992
 30
0.0
 11
-0.000021
 21
-4.599992
 31
0.0
  0
LINE
  5
15F
100
AcDbEntity
  8
0
370
    -3
  6
Continuous
100
AcDbLine
 10
-4.299978
 20
4.600015
 30
0.0
 11
0.000013
 21
4.599998
 31
0.0
  0
LINE
  5
160
100
AcDbEntity
  8
0
370
    -3
  6
Continuous
100
AcDbLine
 10
-4.799962
 20
3.900001
 30
0.0
 11
-4.299962
 21
4.599999
 31
0.0
  0
LINE
  5
161
100
AcDbEntity
  8
0
370
    -3
  6
Continuous
100
AcDbLine
 10
-4.80001
 20
-3.899973
 30
0.0
 11
-4.799979
 21
3.900012
 31
0.0
  0
LINE
  5
162
100
AcDbEntity
  8
0
370
    -3
  6
Continuous
100
AcDbLine
 10
-4.299996
 20
-4.599962
 30
0.0
 11
-4.79999
 21
-3.899959
 31
0.0
  0
LINE
  5
163
100
AcDbEntity
  8
0
370
    -3
  6
Continuous
100
AcDbLine
 10
-0.000025
 20
-4.599994
 30
0.0
 11
-4.300015
 21
-4.599977
 31
0.0
  0
POINT
  5
164
100
AcDbEntity
  8
0
370
    -3
  6
Continuous
100
AcDbPoint
 10
0.0
 20
0.0
 30
0.0
  0
ENDBLK
  5
165
100
AcDbEntity
  8
0
100
AcDbBlockEnd
  0
BLOCK
  5
168
100
AcDbEntity
  8
0
100
AcDbBlockBegin
  2
ZU_SYM_C__ZUOU_AC_BLOCK_ZU_SYM__USERS_HOME_SYMBOL_STD_SYM_B01_00007-1_-1
 70
    64
 10
0.0
 20
0.0
 30
0.0
  3
ZU_SYM_C__ZUOU_AC_BLOCK_ZU_SYM__USERS_HOME_SYMBOL_STD_SYM_B01_00007-1_-1
  1

  0
LINE
  5
169
100
AcDbEntity
  8
0
370
    -3
  6
Continuous
100
AcDbLine
 10
-1.299999
 20
0.300007
 30
0.0
 11
-0.000001
 21
0.600002
 31
0.0
  0
LINE
  5
16A
100
AcDbEntity
  8
0
370
    -3
  6
Continuous
100
AcDbLine
 10
-1.3
 20
-0.299995
 30
0.0
 11
-0.000004
 21
-0.000001
 31
0.0
  0
LINE
  5
16B
100
AcDbEntity
  8
0
370
    -3
  6
Continuous
100
AcDbLine
 10
-1.300018
 20
-4.599993
 30
0.0
 11
-1.299981
 21
4.600004
 31
0.0
  0
ARC
  5
16C
100
AcDbEntity
  8
0
370
    -3
  6
Continuous
100
AcDbCircle
 10
0.740001
 20
-0.000003
 30
0.0
 40
5.539999
100
AcDbArc
 50
155.470187
 51
204.52925
  0
ARC
  5
16D
100
AcDbEntity
  8
0
370
    -3
  6
Continuous
100
AcDbCircle
 10
-3.229986
 20
3.450012
 30
0.0
 40
1.57
100
AcDbArc
 50
179.999745
 51
227.099746
  0
ARC
  5
16E
100
AcDbEntity
  8
0
370
    -3
  6
Continuous
100
AcDbCircle
 10
-3.230014
 20
-3.449986
 30
0.0
 40
1.57
100
AcDbArc
 50
132.899744
 51
179.999745
  0
LINE
  5
16F
100
AcDbEntity
  8
0
370
    -3
  6
Continuous
100
AcDbLine
 10
-4.299987
 20
2.300014
 30
0.0
 11
-1.29999
 21
2.300004
 31
0.0
  0
LINE
  5
170
100
AcDbEntity
  8
0
370
    -3
  6
Continuous
100
AcDbLine
 10
-4.300006
 20
-2.29998
 30
0.0
 11
-1.300007
 21
-2.299992
 31
0.0
  0
LINE
  5
171
100
AcDbEntity
  8
0
370
    -3
  6
Continuous
100
AcDbLine
 10
0.000016
 20
4.599992
 30
0.0
 11
-0.000021
 21
-4.599992
 31
0.0
  0
LINE
  5
172
100
AcDbEntity
  8
0
370
    -3
  6
Continuous
100
AcDbLine
 10
-4.299978
 20
4.600015
 30
0.0
 11
0.000013
 21
4.599998
 31
0.0
  0
LINE
  5
173
100
AcDbEntity
  8
0
370
    -3
  6
Continuous
100
AcDbLine
 10
-4.799962
 20
3.900001
 30
0.0
 11
-4.299962
 21
4.599999
 31
0.0
  0
LINE
  5
174
100
AcDbEntity
  8
0
370
    -3
  6
Continuous
100
AcDbLine
 10
-4.80001
 20
-3.899973
 30
0.0
 11
-4.799979
 21
3.900012
 31
0.0
  0
LINE
  5
175
100
AcDbEntity
  8
0
370
    -3
  6
Continuous
100
AcDbLine
 10
-4.299996
 20
-4.599962
 30
0.0
 11
-4.79999
 21
-3.899959
 31
0.0
  0
LINE
  5
176
100
AcDbEntity
  8
0
370
    -3
  6
Continuous
100
AcDbLine
 10
-0.000025
 20
-4.599994
 30
0.0
 11
-4.300015
 21
-4.599977
 31
0.0
  0
POINT
  5
177
100
AcDbEntity
  8
0
370
    -3
  6
Continuous
100
AcDbPoint
 10
0.0
 20
0.0
 30
0.0
  0
ENDBLK
  5
178
100
AcDbEntity
  8
0
100
AcDbBlockEnd
  0
BLOCK
  5
17B
100
AcDbEntity
  8
0
100
AcDbBlockBegin
  2
ZU_SYM_K__CAD_SYM_POO_SYM_P28_-1
 70
    64
 10
0.0
 20
0.0
 30
0.0
  3
ZU_SYM_K__CAD_SYM_POO_SYM_P28_-1
  1

  0
CIRCLE
  5
17C
100
AcDbEntity
  8
0
370
    -3
  6
Continuous
100
AcDbCircle
 10
0.0
 20
0.0
 30
0.0
 40
8.5
  0
POINT
  5
17D
100
AcDbEntity
  8
0
370
    -3
  6
Continuous
100
AcDbPoint
 10
0.0
 20
0.0
 30
0.0
  0
LINE
  5
17E
100
AcDbEntity
  8
0
370
    -3
  6
Continuous
100
AcDbLine
 10
0.000001
 20
-4.6
 30
0.0
 11
3.983717
 21
-2.300002
 31
0.0
  0
LINE
  5
17F
100
AcDbEntity
  8
0
370
    -3
  6
Continuous
100
AcDbLine
 10
0.000001
 20
4.6
 30
0.0
 11
3.983717
 21
2.300002
 31
0.0
  0
LINE
  5
180
100
AcDbEntity
  8
0
370
    -3
  6
Continuous
100
AcDbLine
 10
0.000001
 20
-4.6
 30
0.0
 11
-3.983717
 21
-2.300001
 31
0.0
  0
LINE
  5
181
100
AcDbEntity
  8
0
370
    -3
  6
Continuous
100
AcDbLine
 10
0.0
 20
4.6
 30
0.0
 11
-3.983716
 21
2.300001
 31
0.0
  0
LINE
  5
182
100
AcDbEntity
  8
0
370
    -3
  6
Continuous
100
AcDbLine
 10
3.983717
 20
-2.300002
 30
0.0
 11
3.983717
 21
0.0
 31
0.0
  0
LINE
  5
183
100
AcDbEntity
  8
0
370
    -3
  6
Continuous
100
AcDbLine
 10
3.983717
 20
2.300002
 30
0.0
 11
3.983717
 21
0.0
 31
0.0
  0
LINE
  5
184
100
AcDbEntity
  8
0
370
    -3
  6
Continuous
100
AcDbLine
 10
-3.983716
 20
-2.300001
 30
0.0
 11
-3.983716
 21
0.0
 31
0.0
  0
LINE
  5
185
100
AcDbEntity
  8
0
370
    -3
  6
Continuous
100
AcDbLine
 10
-3.983716
 20
2.300001
 30
0.0
 11
-3.983716
 21
0.0
 31
0.0
  0
ENDBLK
  5
186
100
AcDbEntity
  8
0
100
AcDbBlockEnd
  0
BLOCK
  5
24C
100
AcDbEntity
  8
0
100
AcDbBlockBegin
  2
ZU_SYM__USERS_HOME_SYMBOL_STD_SYM_B01_-1
 70
    64
 10
0.0
 20
0.0
 30
0.0
  3
ZU_SYM__USERS_HOME_SYMBOL_STD_SYM_B01_-1
  1

  0
ARC
  5
24D
100
AcDbEntity
  8
0
370
    -3
  6
Continuous
100
AcDbCircle
 10
2.040001
 20
-0.000008
 30
0.0
 40
5.539999
100
AcDbArc
 50
155.470187
 51
204.52925
  0
ARC
  5
24E
100
AcDbEntity
  8
0
370
    -3
  6
Continuous
100
AcDbCircle
 10
-1.929986
 20
3.450007
 30
0.0
 40
1.57
100
AcDbArc
 50
179.999745
 51
227.099746
  0
ARC
  5
24F
100
AcDbEntity
  8
0
370
    -3
  6
Continuous
100
AcDbCircle
 10
-1.930014
 20
-3.449991
 30
0.0
 40
1.57
100
AcDbArc
 50
132.899744
 51
179.999745
  0
LINE
  5
250
100
AcDbEntity
  8
0
370
    -3
  6
Continuous
100
AcDbLine
 10
-2.999989
 20
2.300011
 30
0.0
 11
0.000009
 21
2.3
 31
0.0
  0
LINE
  5
251
100
AcDbEntity
  8
0
370
    -3
  6
Continuous
100
AcDbLine
 10
-3.000008
 20
-2.299986
 30
0.0
 11
-0.000008
 21
-2.299998
 31
0.0
  0
LINE
  5
252
100
AcDbEntity
  8
0
370
    -3
  6
Continuous
100
AcDbLine
 10
0.000019
 20
4.6
 30
0.0
 11
-0.000019
 21
-4.6
 31
0.0
  0
LINE
  5
253
100
AcDbEntity
  8
0
370
    -3
  6
Continuous
100
AcDbLine
 10
-2.999979
 20
4.600012
 30
0.0
 11
0.000019
 21
4.600001
 31
0.0
  0
LINE
  5
254
100
AcDbEntity
  8
0
370
    -3
  6
Continuous
100
AcDbLine
 10
-3.499965
 20
3.9
 30
0.0
 11
-2.999964
 21
4.599998
 31
0.0
  0
LINE
  5
255
100
AcDbEntity
  8
0
370
    -3
  6
Continuous
100
AcDbLine
 10
-3.500012
 20
-3.89998
 30
0.0
 11
-3.49998
 21
3.90001
 31
0.0
  0
LINE
  5
256
100
AcDbEntity
  8
0
370
    -3
  6
Continuous
100
AcDbLine
 10
-2.999996
 20
-4.59997
 30
0.0
 11
-3.499991
 21
-3.899967
 31
0.0
  0
LINE
  5
257
100
AcDbEntity
  8
0
370
    -3
  6
Continuous
100
AcDbLine
 10
-0.000018
 20
-4.599998
 30
0.0
 11
-3.000017
 21
-4.599986
 31
0.0
  0
POINT
  5
258
100
AcDbEntity
  8
0
370
    -3
  6
Continuous
100
AcDbPoint
 10
0.0
 20
0.0
 30
0.0
  0
ENDBLK
  5
259
100
AcDbEntity
  8
0
100
AcDbBlockEnd
  0
BLOCK
  5
25C
100
AcDbEntity
  8
0
100
AcDbBlockBegin
  2
ZU_SYM__USERS_HOME_SYMBOL_STD_SYM_B01_00002-1
 70
    64
 10
0.0
 20
0.0
 30
0.0
  3
ZU_SYM__USERS_HOME_SYMBOL_STD_SYM_B01_00002-1
  1

  0
ARC
  5
25D
100
AcDbEntity
  8
0
370
    -3
  6
Continuous
100
AcDbCircle
 10
2.040001
 20
-0.000008
 30
0.0
 40
5.539999
100
AcDbArc
 50
155.470187
 51
204.52925
  0
ARC
  5
25E
100
AcDbEntity
  8
0
370
    -3
  6
Continuous
100
AcDbCircle
 10
-1.929986
 20
3.450007
 30
0.0
 40
1.57
100
AcDbArc
 50
179.999745
 51
227.099746
  0
ARC
  5
25F
100
AcDbEntity
  8
0
370
    -3
  6
Continuous
100
AcDbCircle
 10
-1.930014
 20
-3.449991
 30
0.0
 40
1.57
100
AcDbArc
 50
132.899744
 51
179.999745
  0
LINE
  5
260
100
AcDbEntity
  8
0
370
    -3
  6
Continuous
100
AcDbLine
 10
-2.999989
 20
2.300011
 30
0.0
 11
0.000009
 21
2.3
 31
0.0
  0
LINE
  5
261
100
AcDbEntity
  8
0
370
    -3
  6
Continuous
100
AcDbLine
 10
-3.000008
 20
-2.299986
 30
0.0
 11
-0.000008
 21
-2.299998
 31
0.0
  0
LINE
  5
262
100
AcDbEntity
  8
0
370
    -3
  6
Continuous
100
AcDbLine
 10
0.000019
 20
4.6
 30
0.0
 11
-0.000019
 21
-4.6
 31
0.0
  0
LINE
  5
263
100
AcDbEntity
  8
0
370
    -3
  6
Continuous
100
AcDbLine
 10
-2.999979
 20
4.600012
 30
0.0
 11
0.000019
 21
4.600001
 31
0.0
  0
LINE
  5
264
100
AcDbEntity
  8
0
370
    -3
  6
Continuous
100
AcDbLine
 10
-3.499965
 20
3.9
 30
0.0
 11
-2.999964
 21
4.599998
 31
0.0
  0
LINE
  5
265
100
AcDbEntity
  8
0
370
    -3
  6
Continuous
100
AcDbLine
 10
-3.500012
 20
-3.89998
 30
0.0
 11
-3.49998
 21
3.90001
 31
0.0
  0
LINE
  5
266
100
AcDbEntity
  8
0
370
    -3
  6
Continuous
100
AcDbLine
 10
-2.999996
 20
-4.59997
 30
0.0
 11
-3.499991
 21
-3.899967
 31
0.0
  0
LINE
  5
267
100
AcDbEntity
  8
0
370
    -3
  6
Continuous
100
AcDbLine
 10
-0.000018
 20
-4.599998
 30
0.0
 11
-3.000017
 21
-4.599986
 31
0.0
  0
POINT
  5
268
100
AcDbEntity
  8
0
370
    -3
  6
Continuous
100
AcDbPoint
 10
0.0
 20
0.0
 30
0.0
  0
ENDBLK
  5
269
100
AcDbEntity
  8
0
100
AcDbBlockEnd
  0
BLOCK
  5
281
100
AcDbEntity
  8
0
100
AcDbBlockBegin
  2
ZU_SYM__USERS_HOME_SYMBOL_STD_SYM_B01_00003-1
 70
    64
 10
0.0
 20
0.0
 30
0.0
  3
ZU_SYM__USERS_HOME_SYMBOL_STD_SYM_B01_00003-1
  1

  0
POINT
  5
282
100
AcDbEntity
  8
0
370
    -3
  6
Continuous
100
AcDbPoint
 10
0.0
 20
0.0
 30
0.0
  0
LINE
  5
283
100
AcDbEntity
  8
0
370
    -3
  6
Continuous
100
AcDbLine
 10
-0.000018
 20
-4.599998
 30
0.0
 11
-3.000017
 21
-4.599986
 31
0.0
  0
LINE
  5
284
100
AcDbEntity
  8
0
370
    -3
  6
Continuous
100
AcDbLine
 10
-2.999996
 20
-4.59997
 30
0.0
 11
-3.499991
 21
-3.899967
 31
0.0
  0
LINE
  5
285
100
AcDbEntity
  8
0
370
    -3
  6
Continuous
100
AcDbLine
 10
-3.500012
 20
-3.89998
 30
0.0
 11
-3.49998
 21
3.90001
 31
0.0
  0
LINE
  5
286
100
AcDbEntity
  8
0
370
    -3
  6
Continuous
100
AcDbLine
 10
-3.499965
 20
3.9
 30
0.0
 11
-2.999964
 21
4.599998
 31
0.0
  0
LINE
  5
287
100
AcDbEntity
  8
0
370
    -3
  6
Continuous
100
AcDbLine
 10
-2.999979
 20
4.600012
 30
0.0
 11
0.000019
 21
4.600001
 31
0.0
  0
LINE
  5
288
100
AcDbEntity
  8
0
370
    -3
  6
Continuous
100
AcDbLine
 10
0.000019
 20
4.6
 30
0.0
 11
-0.000019
 21
-4.6
 31
0.0
  0
LINE
  5
289
100
AcDbEntity
  8
0
370
    -3
  6
Continuous
100
AcDbLine
 10
-3.000008
 20
-2.299986
 30
0.0
 11
-0.000008
 21
-2.299998
 31
0.0
  0
LINE
  5
28A
100
AcDbEntity
  8
0
370
    -3
  6
Continuous
100
AcDbLine
 10
-2.999989
 20
2.300011
 30
0.0
 11
0.000009
 21
2.3
 31
0.0
  0
ARC
  5
28B
100
AcDbEntity
  8
0
370
    -3
  6
Continuous
100
AcDbCircle
 10
-1.930014
 20
-3.449991
 30
0.0
 40
1.57
100
AcDbArc
 50
132.899744
 51
179.999745
  0
ARC
  5
28C
100
AcDbEntity
  8
0
370
    -3
  6
Continuous
100
AcDbCircle
 10
-1.929986
 20
3.450007
 30
0.0
 40
1.57
100
AcDbArc
 50
179.999745
 51
227.099746
  0
ARC
  5
28D
100
AcDbEntity
  8
0
370
    -3
  6
Continuous
100
AcDbCircle
 10
2.040001
 20
-0.000008
 30
0.0
 40
5.539999
100
AcDbArc
 50
155.470187
 51
204.52925
  0
ENDBLK
  5
28E
100
AcDbEntity
  8
0
100
AcDbBlockEnd
  0
BLOCK
  5
2D9
100
AcDbEntity
  8
0
100
AcDbBlockBegin
  2
ZU_SYM__USERS_HOME_SYMBOL_STD_SYM_B01_00004-1
 70
    64
 10
0.0
 20
0.0
 30
0.0
  3
ZU_SYM__USERS_HOME_SYMBOL_STD_SYM_B01_00004-1
  1

  0
POINT
  5
2DA
100
AcDbEntity
  8
0
370
    -3
  6
Continuous
100
AcDbPoint
 10
0.0
 20
0.0
 30
0.0
  0
LINE
  5
2DB
100
AcDbEntity
  8
0
370
    -3
  6
Continuous
100
AcDbLine
 10
-0.000018
 20
-4.599998
 30
0.0
 11
-3.000017
 21
-4.599986
 31
0.0
  0
LINE
  5
2DC
100
AcDbEntity
  8
0
370
    -3
  6
Continuous
100
AcDbLine
 10
-2.999996
 20
-4.59997
 30
0.0
 11
-3.499991
 21
-3.899967
 31
0.0
  0
LINE
  5
2DD
100
AcDbEntity
  8
0
370
    -3
  6
Continuous
100
AcDbLine
 10
-3.500012
 20
-3.89998
 30
0.0
 11
-3.49998
 21
3.90001
 31
0.0
  0
LINE
  5
2DE
100
AcDbEntity
  8
0
370
    -3
  6
Continuous
100
AcDbLine
 10
-3.499965
 20
3.9
 30
0.0
 11
-2.999964
 21
4.599998
 31
0.0
  0
LINE
  5
2DF
100
AcDbEntity
  8
0
370
    -3
  6
Continuous
100
AcDbLine
 10
-2.999979
 20
4.600012
 30
0.0
 11
0.000019
 21
4.600001
 31
0.0
  0
LINE
  5
2E0
100
AcDbEntity
  8
0
370
    -3
  6
Continuous
100
AcDbLine
 10
0.000019
 20
4.6
 30
0.0
 11
-0.000019
 21
-4.6
 31
0.0
  0
LINE
  5
2E1
100
AcDbEntity
  8
0
370
    -3
  6
Continuous
100
AcDbLine
 10
-3.000008
 20
-2.299986
 30
0.0
 11
-0.000008
 21
-2.299998
 31
0.0
  0
LINE
  5
2E2
100
AcDbEntity
  8
0
370
    -3
  6
Continuous
100
AcDbLine
 10
-2.999989
 20
2.300011
 30
0.0
 11
0.000009
 21
2.3
 31
0.0
  0
ARC
  5
2E3
100
AcDbEntity
  8
0
370
    -3
  6
Continuous
100
AcDbCircle
 10
-1.930014
 20
-3.449991
 30
0.0
 40
1.57
100
AcDbArc
 50
132.899744
 51
179.999745
  0
ARC
  5
2E4
100
AcDbEntity
  8
0
370
    -3
  6
Continuous
100
AcDbCircle
 10
-1.929986
 20
3.450007
 30
0.0
 40
1.57
100
AcDbArc
 50
179.999745
 51
227.099746
  0
ARC
  5
2E5
100
AcDbEntity
  8
0
370
    -3
  6
Continuous
100
AcDbCircle
 10
2.040001
 20
-0.000008
 30
0.0
 40
5.539999
100
AcDbArc
 50
155.470187
 51
204.52925
  0
ENDBLK
  5
2E6
100
AcDbEntity
  8
0
100
AcDbBlockEnd
  0
BLOCK
  5
394
100
AcDbEntity
  8
0
100
AcDbBlockBegin
  2
ZU_SYM__USERS_HOME_SYMBOL_STD_SYM_B01_00005-1
 70
    64
 10
0.0
 20
0.0
 30
0.0
  3
ZU_SYM__USERS_HOME_SYMBOL_STD_SYM_B01_00005-1
  1

  0
CIRCLE
  5
395
100
AcDbEntity
  8
0
370
    -3
  6
Continuous
100
AcDbCircle
 10
0.0
 20
0.0
 30
0.0
 40
4.0
  0
LINE
  5
396
100
AcDbEntity
  8
0
370
    -3
  6
Continuous
100
AcDbLine
 10
2.299999
 20
-4.0
 30
0.0
 11
-2.299999
 21
-4.0
 31
0.0
  0
LINE
  5
397
100
AcDbEntity
  8
0
370
    -3
  6
Continuous
100
AcDbLine
 10
4.6
 20
-0.000001
 30
0.0
 11
2.300001
 21
-4.0
 31
0.0
  0
LINE
  5
398
100
AcDbEntity
  8
0
370
    -3
  6
Continuous
100
AcDbLine
 10
2.300001
 20
4.0
 30
0.0
 11
4.6
 21
0.000001
 31
0.0
  0
LINE
  5
399
100
AcDbEntity
  8
0
370
    -3
  6
Continuous
100
AcDbLine
 10
-2.299999
 20
4.0
 30
0.0
 11
2.299999
 21
4.0
 31
0.0
  0
LINE
  5
39A
100
AcDbEntity
  8
0
370
    -3
  6
Continuous
100
AcDbLine
 10
-4.6
 20
0.000001
 30
0.0
 11
-2.300001
 21
4.0
 31
0.0
  0
LINE
  5
39B
100
AcDbEntity
  8
0
370
    -3
  6
Continuous
100
AcDbLine
 10
-2.300001
 20
-4.0
 30
0.0
 11
-4.6
 21
-0.000001
 31
0.0
  0
POINT
  5
39C
100
AcDbEntity
  8
0
370
    -3
  6
Continuous
100
AcDbPoint
 10
0.0
 20
0.0
 30
0.0
  0
ENDBLK
  5
39D
100
AcDbEntity
  8
0
100
AcDbBlockEnd
  0
BLOCK
  5
3A0
100
AcDbEntity
  8
0
100
AcDbBlockBegin
  2
ZU_SYM__USERS_HOME_SYMBOL_STD_SYM_B01_00006-1
 70
    64
 10
0.0
 20
0.0
 30
0.0
  3
ZU_SYM__USERS_HOME_SYMBOL_STD_SYM_B01_00006-1
  1

  0
CIRCLE
  5
3A1
100
AcDbEntity
  8
0
370
    -3
  6
Continuous
100
AcDbCircle
 10
0.0
 20
0.0
 30
0.0
 40
4.0
  0
LINE
  5
3A2
100
AcDbEntity
  8
0
370
    -3
  6
Continuous
100
AcDbLine
 10
2.299999
 20
-4.0
 30
0.0
 11
-2.299999
 21
-4.0
 31
0.0
  0
LINE
  5
3A3
100
AcDbEntity
  8
0
370
    -3
  6
Continuous
100
AcDbLine
 10
4.6
 20
-0.000001
 30
0.0
 11
2.300001
 21
-4.0
 31
0.0
  0
LINE
  5
3A4
100
AcDbEntity
  8
0
370
    -3
  6
Continuous
100
AcDbLine
 10
2.300001
 20
4.0
 30
0.0
 11
4.6
 21
0.000001
 31
0.0
  0
LINE
  5
3A5
100
AcDbEntity
  8
0
370
    -3
  6
Continuous
100
AcDbLine
 10
-2.299999
 20
4.0
 30
0.0
 11
2.299999
 21
4.0
 31
0.0
  0
LINE
  5
3A6
100
AcDbEntity
  8
0
370
    -3
  6
Continuous
100
AcDbLine
 10
-4.6
 20
0.000001
 30
0.0
 11
-2.300001
 21
4.0
 31
0.0
  0
LINE
  5
3A7
100
AcDbEntity
  8
0
370
    -3
  6
Continuous
100
AcDbLine
 10
-2.300001
 20
-4.0
 30
0.0
 11
-4.6
 21
-0.000001
 31
0.0
  0
POINT
  5
3A8
100
AcDbEntity
  8
0
370
    -3
  6
Continuous
100
AcDbPoint
 10
0.0
 20
0.0
 30
0.0
  0
ENDBLK
  5
3A9
100
AcDbEntity
  8
0
100
AcDbBlockEnd
  0
BLOCK
  5
3AC
100
AcDbEntity
  8
0
100
AcDbBlockBegin
  2
ZU_SYM__USERS_HOME_SYMBOL_STD_SYM_B01_00007-1
 70
    64
 10
0.0
 20
0.0
 30
0.0
  3
ZU_SYM__USERS_HOME_SYMBOL_STD_SYM_B01_00007-1
  1

  0
CIRCLE
  5
3AD
100
AcDbEntity
  8
0
370
    -3
  6
Continuous
100
AcDbCircle
 10
0.0
 20
0.0
 30
0.0
 40
4.0
  0
LINE
  5
3AE
100
AcDbEntity
  8
0
370
    -3
  6
Continuous
100
AcDbLine
 10
2.299999
 20
-4.0
 30
0.0
 11
-2.299999
 21
-4.0
 31
0.0
  0
LINE
  5
3AF
100
AcDbEntity
  8
0
370
    -3
  6
Continuous
100
AcDbLine
 10
4.6
 20
-0.000001
 30
0.0
 11
2.300001
 21
-4.0
 31
0.0
  0
LINE
  5
3B0
100
AcDbEntity
  8
0
370
    -3
  6
Continuous
100
AcDbLine
 10
2.300001
 20
4.0
 30
0.0
 11
4.6
 21
0.000001
 31
0.0
  0
LINE
  5
3B1
100
AcDbEntity
  8
0
370
    -3
  6
Continuous
100
AcDbLine
 10
-2.299999
 20
4.0
 30
0.0
 11
2.299999
 21
4.0
 31
0.0
  0
LINE
  5
3B2
100
AcDbEntity
  8
0
370
    -3
  6
Continuous
100
AcDbLine
 10
-4.6
 20
0.000001
 30
0.0
 11
-2.300001
 21
4.0
 31
0.0
  0
LINE
  5
3B3
100
AcDbEntity
  8
0
370
    -3
  6
Continuous
100
AcDbLine
 10
-2.300001
 20
-4.0
 30
0.0
 11
-4.6
 21
-0.000001
 31
0.0
  0
POINT
  5
3B4
100
AcDbEntity
  8
0
370
    -3
  6
Continuous
100
AcDbPoint
 10
0.0
 20
0.0
 30
0.0
  0
ENDBLK
  5
3B5
100
AcDbEntity
  8
0
100
AcDbBlockEnd
  0
BLOCK
  5
3B8
100
AcDbEntity
  8
0
100
AcDbBlockBegin
  2
ZU_SYM__USERS_HOME_SYMBOL_STD_SYM_B01_00008-1
 70
    64
 10
0.0
 20
0.0
 30
0.0
  3
ZU_SYM__USERS_HOME_SYMBOL_STD_SYM_B01_00008-1
  1

  0
CIRCLE
  5
3B9
100
AcDbEntity
  8
0
370
    -3
  6
Continuous
100
AcDbCircle
 10
0.0
 20
0.0
 30
0.0
 40
4.0
  0
LINE
  5
3BA
100
AcDbEntity
  8
0
370
    -3
  6
Continuous
100
AcDbLine
 10
2.299999
 20
-4.0
 30
0.0
 11
-2.299999
 21
-4.0
 31
0.0
  0
LINE
  5
3BB
100
AcDbEntity
  8
0
370
    -3
  6
Continuous
100
AcDbLine
 10
4.6
 20
-0.000001
 30
0.0
 11
2.300001
 21
-4.0
 31
0.0
  0
LINE
  5
3BC
100
AcDbEntity
  8
0
370
    -3
  6
Continuous
100
AcDbLine
 10
2.300001
 20
4.0
 30
0.0
 11
4.6
 21
0.000001
 31
0.0
  0
LINE
  5
3BD
100
AcDbEntity
  8
0
370
    -3
  6
Continuous
100
AcDbLine
 10
-2.299999
 20
4.0
 30
0.0
 11
2.299999
 21
4.0
 31
0.0
  0
LINE
  5
3BE
100
AcDbEntity
  8
0
370
    -3
  6
Continuous
100
AcDbLine
 10
-4.6
 20
0.000001
 30
0.0
 11
-2.300001
 21
4.0
 31
0.0
  0
LINE
  5
3BF
100
AcDbEntity
  8
0
370
    -3
  6
Continuous
100
AcDbLine
 10
-2.300001
 20
-4.0
 30
0.0
 11
-4.6
 21
-0.000001
 31
0.0
  0
POINT
  5
3C0
100
AcDbEntity
  8
0
370
    -3
  6
Continuous
100
AcDbPoint
 10
0.0
 20
0.0
 30
0.0
  0
ENDBLK
  5
3C1
100
AcDbEntity
  8
0
100
AcDbBlockEnd
  0
ENDSEC
  0
SECTION
  2
ENTITIES
  0
LINE
  5
2A
100
AcDbEntity
  8
0
370
    -3
  6
CENTER
100
AcDbLine
 10
158.494736
 20
-67.807448
 30
0.0
 11
217.98319
 21
-67.807448
 31
0.0
  0
LINE
  5
2B
100
AcDbEntity
  8
0
370
    -3
  6
Continuous
100
AcDbLine
 10
510.041019
 20
38.991695
 30
0.0
 11
493.98873
 21
38.711501
 31
0.0
  0
LINE
  5
2C
100
AcDbEntity
  8
0
370
    -3
  6
Continuous
100
AcDbLine
 10
585.041019
 20
40.300825
 30
0.0
 11
570.041019
 21
40.038999
 31
0.0
  0
ARC
  5
2D
100
AcDbEntity
  8
0
370
    -3
  6
Continuous
100
AcDbCircle
 10
560.541019
 20
16.192552
 30
0.0
 40
0.5
100
AcDbArc
 50
180.0
 51
270.0
  0
LINE
  5
2E
100
AcDbEntity
  8
0
370
    -3
  6
Continuous
100
AcDbLine
 10
560.541019
 20
15.692552
 30
0.0
 11
560.541019
 21
16.992552
 31
0.0
  0
LINE
  5
2F
100
AcDbEntity
  8
0
370
    -3
  6
Continuous
100
AcDbLine
 10
558.791019
 20
17.192552
 30
0.0
 11
558.791019
 21
16.692552
 31
0.0
  0
ARC
  5
30
100
AcDbEntity
  8
0
370
    -3
  6
Continuous
100
AcDbCircle
 10
560.341019
 20
16.992552
 30
0.0
 40
0.2
100
AcDbArc
 50
0.0
 51
90.0
  0
LINE
  5
31
100
AcDbEntity
  8
0
370
    -3
  6
Continuous
100
AcDbLine
 10
521.291019
 20
17.192552
 30
0.0
 11
521.291019
 21
16.692552
 31
0.0
  0
LINE
  5
32
100
AcDbEntity
  8
0
370
    -3
  6
Continuous
100
AcDbLine
 10
519.541019
 20
15.692552
 30
0.0
 11
519.541019
 21
16.992552
 31
0.0
  0
ARC
  5
33
100
AcDbEntity
  8
0
370
    -3
  6
Continuous
100
AcDbCircle
 10
519.741019
 20
16.992552
 30
0.0
 40
0.2
100
AcDbArc
 50
90.0
 51
180.0
  0
LINE
  5
34
100
AcDbEntity
  8
0
370
    -3
  6
Continuous
100
AcDbLine
 10
560.341019
 20
17.192552
 30
0.0
 11
519.741019
 21
17.192552
 31
0.0
  0
ARC
  5
35
100
AcDbEntity
  8
0
370
    -3
  6
Continuous
100
AcDbCircle
 10
560.041019
 20
-384.307448
 30
0.0
 40
400.0
100
AcDbArc
 50
88.568016
 51
89.92847
  0
LINE
  5
36
100
AcDbEntity
  8
0
370
    -3
  6
Continuous
100
AcDbLine
 10
560.541019
 20
15.692552
 30
0.0
 11
571.541019
 21
15.692552
 31
0.0
  0
ARC
  5
37
100
AcDbEntity
  8
0
370
    -3
  6
Continuous
100
AcDbCircle
 10
520.041019
 20
-384.307448
 30
0.0
 40
400.0
100
AcDbArc
 50
90.07153
 51
91.431984
  0
LINE
  5
38
100
AcDbEntity
  8
0
370
    -3
  6
Continuous
100
AcDbLine
 10
519.541019
 20
15.692552
 30
0.0
 11
508.541019
 21
15.692552
 31
0.0
  0
LINE
  5
39
100
AcDbEntity
  8
0
370
    -3
  6
Continuous
100
AcDbLine
 10
510.041019
 20
20.692552
 30
0.0
 11
510.041019
 21
44.131321
 31
0.0
  0
LINE
  5
3A
100
AcDbEntity
  8
0
370
    -3
  6
Continuous
100
AcDbLine
 10
508.541019
 20
15.692552
 30
0.0
 11
508.541019
 21
20.692552
 31
0.0
  0
ARC
  5
3B
100
AcDbEntity
  8
0
370
    -3
  6
Continuous
100
AcDbCircle
 10
515.041019
 20
44.131321
 30
0.0
 40
5.0
100
AcDbArc
 50
94.861405
 51
180.0
  0
LINE
  5
3C
100
AcDbEntity
  8
0
370
    -3
  6
Continuous
100
AcDbLine
 10
570.041019
 20
20.692552
 30
0.0
 11
570.041019
 21
44.131321
 31
0.0
  0
LINE
  5
3D
100
AcDbEntity
  8
0
370
    -3
  6
Continuous
100
AcDbLine
 10
571.541019
 20
20.692552
 30
0.0
 11
508.541019
 21
20.692552
 31
0.0
  0
LINE
  5
3E
100
AcDbEntity
  8
0
370
    -3
  6
Continuous
100
AcDbLine
 10
571.541019
 20
15.692552
 30
0.0
 11
571.541019
 21
20.692552
 31
0.0
  0
ARC
  5
3F
100
AcDbEntity
  8
0
370
    -3
  6
Continuous
100
AcDbCircle
 10
565.041019
 20
44.131321
 30
0.0
 40
5.0
100
AcDbArc
 50
0.0
 51
85.138595
  0
LINE
  5
40
100
AcDbEntity
  8
0
370
    -3
  6
Continuous
100
AcDbLine
 10
542.541019
 20
50.182135
 30
0.0
 11
542.541019
 21
50.692552
 31
0.0
  0
ARC
  5
41
100
AcDbEntity
  8
0
370
    -3
  6
Continuous
100
AcDbCircle
 10
540.041019
 20
-249.807448
 30
0.0
 40
300.0
100
AcDbArc
 50
85.138595
 51
94.861405
  0
LINE
  5
42
100
AcDbEntity
  8
0
370
    -3
  6
Continuous
100
AcDbLine
 10
537.541019
 20
50.182135
 30
0.0
 11
537.541019
 21
50.692552
 31
0.0
  0
LINE
  5
43
100
AcDbEntity
  8
0
370
    -3
  6
Continuous
100
AcDbLine
 10
542.541019
 20
50.692552
 30
0.0
 11
537.541019
 21
50.692552
 31
0.0
  0
INSERT
  5
4F
100
AcDbEntity
  8
0
100
AcDbBlockReference
  2
ZU_SYM_K__CAD_SYM_POO_SYM_N20_-1
 10
584.235192
 20
-112.001622
 30
0.0
  0
INSERT
  5
5B
100
AcDbEntity
  8
0
100
AcDbBlockReference
  2
ZU_SYM_K__CAD_SYM_POO_SYM_N20_00001-1
 10
495.846845
 20
-112.001622
 30
0.0
 41
-1.0
  0
LINE
  5
5C
100
AcDbEntity
  8
0
370
    -3
  6
Continuous
100
AcDbLine
 10
-287.958563
 20
40.038999
 30
0.0
 11
-287.958563
 21
44.131321
 31
0.0
  0
ARC
  5
5D
100
AcDbEntity
  8
0
370
    -3
  6
Continuous
100
AcDbCircle
 10
-232.958563
 20
44.131321
 30
0.0
 40
5.0
100
AcDbArc
 50
0.0
 51
85.138595
  0
LINE
  5
5E
100
AcDbEntity
  8
0
370
    -3
  6
Continuous
100
AcDbLine
 10
-227.958563
 20
38.991695
 30
0.0
 11
-227.958563
 21
44.131321
 31
0.0
  0
LINE
  5
5F
100
AcDbEntity
  8
0
370
    -3
  6
Continuous
100
AcDbLine
 10
-255.458563
 20
50.182135
 30
0.0
 11
-255.458563
 21
50.692552
 31
0.0
  0
ARC
  5
60
100
AcDbEntity
  8
0
370
    -3
  6
Continuous
100
AcDbCircle
 10
-282.958563
 20
44.131321
 30
0.0
 40
5.0
100
AcDbArc
 50
94.861405
 51
180.0
  0
ARC
  5
61
100
AcDbEntity
  8
0
370
    -3
  6
Continuous
100
AcDbCircle
 10
-257.958563
 20
-249.807448
 30
0.0
 40
300.0
100
AcDbArc
 50
85.138595
 51
94.861405
  0
LINE
  5
62
100
AcDbEntity
  8
0
370
    -3
  6
Continuous
100
AcDbLine
 10
-260.458563
 20
50.182135
 30
0.0
 11
-260.458563
 21
50.692552
 31
0.0
  0
LINE
  5
63
100
AcDbEntity
  8
0
370
    -3
  6
Continuous
100
AcDbLine
 10
-255.458563
 20
50.692552
 30
0.0
 11
-260.458563
 21
50.692552
 31
0.0
  0
INSERT
  5
76
100
AcDbEntity
  8
0
100
AcDbBlockReference
  2
ZU_SYM_C__ZUOU_AC_BLOCK_ZU_SYM__USERS_HOME_SYMBOL_STD_SYM_B01_-1_-1
 10
344.04123
 20
2.790532
 30
0.0
 41
-1.0
  0
INSERT
  5
89
100
AcDbEntity
  8
0
100
AcDbBlockReference
  2
ZU_SYM_C__ZUOU_AC_BLOCK_ZU_SYM__USERS_HOME_SYMBOL_STD_SYM_B01_00001-1_-1
 10
344.04123
 20
-76.405428
 30
0.0
 50
180.0
  0
LINE
  5
8A
100
AcDbEntity
  8
0
370
    -3
  6
Continuous
100
AcDbLine
 10
265.041232
 20
50.692552
 30
0.0
 11
273.041232
 21
50.692552
 31
0.0
  0
LINE
  5
8B
100
AcDbEntity
  8
0
370
    -3
  6
Continuous
100
AcDbLine
 10
339.041232
 20
-36.807448
 30
0.0
 11
339.041232
 21
16.692552
 31
0.0
  0
LINE
  5
8C
100
AcDbEntity
  8
0
370
    -3
  6
Continuous
100
AcDbLine
 10
257.041232
 20
15.692552
 30
0.0
 11
332.041232
 21
15.692552
 31
0.0
  0
LINE
  5
8D
100
AcDbEntity
  8
0
370
    -3
  6
Continuous
100
AcDbLine
 10
332.041232
 20
20.692552
 30
0.0
 11
257.041232
 21
20.692552
 31
0.0
  0
LINE
  5
8E
100
AcDbEntity
  8
0
370
    -3
  6
Continuous
100
AcDbLine
 10
332.041232
 20
20.692552
 30
0.0
 11
332.041232
 21
15.692552
 31
0.0
  0
LINE
  5
8F
100
AcDbEntity
  8
0
370
    -3
  6
Continuous
100
AcDbLine
 10
257.041232
 20
20.692552
 30
0.0
 11
257.041232
 21
15.692552
 31
0.0
  0
LINE
  5
90
100
AcDbEntity
  8
0
370
    -3
  6
Continuous
100
AcDbLine
 10
259.041232
 20
50.192552
 30
0.0
 11
330.041232
 21
50.192552
 31
0.0
  0
LINE
  5
91
100
AcDbEntity
  8
0
370
    -3
  6
Continuous
100
AcDbLine
 10
258.041232
 20
49.192552
 30
0.0
 11
258.041232
 21
20.692552
 31
0.0
  0
LINE
  5
92
100
AcDbEntity
  8
0
370
    -3
  6
Continuous
100
AcDbLine
 10
331.041232
 20
49.192552
 30
0.0
 11
331.041232
 21
20.692552
 31
0.0
  0
ARC
  5
93
100
AcDbEntity
  8
0
370
    -3
  6
Continuous
100
AcDbCircle
 10
330.041232
 20
49.192552
 30
0.0
 40
1.0
100
AcDbArc
 50
0.0
 51
90.0
  0
ARC
  5
94
100
AcDbEntity
  8
0
370
    -3
  6
Continuous
100
AcDbCircle
 10
259.041232
 20
49.192552
 30
0.0
 40
1.0
100
AcDbArc
 50
90.0
 51
180.0
  0
LINE
  5
95
100
AcDbEntity
  8
0
370
    -3
  6
Continuous
100
AcDbLine
 10
265.041232
 20
50.692552
 30
0.0
 11
265.041232
 21
50.192552
 31
0.0
  0
LINE
  5
96
100
AcDbEntity
  8
0
370
    -3
  6
Continuous
100
AcDbLine
 10
273.041232
 20
50.692552
 30
0.0
 11
273.041232
 21
50.192552
 31
0.0
  0
LINE
  5
97
100
AcDbEntity
  8
0
370
    -3
  6
Continuous
100
AcDbLine
 10
240.041232
 20
16.692552
 30
0.0
 11
257.041232
 21
16.692552
 31
0.0
  0
LINE
  5
98
100
AcDbEntity
  8
0
370
    -3
  6
Continuous
100
AcDbLine
 10
332.041232
 20
16.692552
 30
0.0
 11
339.041232
 21
16.692552
 31
0.0
  0
LINE
  5
99
100
AcDbEntity
  8
0
370
    -3
  6
Continuous
100
AcDbLine
 10
339.041232
 20
-22.807448
 30
0.0
 11
240.041232
 21
-22.807448
 31
0.0
  0
LINE
  5
9A
100
AcDbEntity
  8
0
370
    -3
  6
Continuous
100
AcDbLine
 10
339.041232
 20
-18.421333
 30
0.0
 11
240.041232
 21
-18.421333
 31
0.0
  0
LINE
  5
9B
100
AcDbEntity
  8
0
370
    -3
  6
Continuous
100
AcDbLine
 10
339.041232
 20
-17.179413
 30
0.0
 11
240.041232
 21
-17.179413
 31
0.0
  0
LINE
  5
9C
100
AcDbEntity
  8
0
370
    -3
  6
Continuous
100
AcDbLine
 10
339.041232
 20
-13.969208
 30
0.0
 11
240.041232
 21
-13.969208
 31
0.0
  0
LINE
  5
9D
100
AcDbEntity
  8
0
370
    -3
  6
Continuous
100
AcDbLine
 10
339.041232
 20
-12.622807
 30
0.0
 11
240.041232
 21
-12.622807
 31
0.0
  0
LINE
  5
9E
100
AcDbEntity
  8
0
370
    -3
  6
Continuous
100
AcDbLine
 10
339.041232
 20
-9.530076
 30
0.0
 11
240.041232
 21
-9.530076
 31
0.0
  0
LINE
  5
9F
100
AcDbEntity
  8
0
370
    -3
  6
Continuous
100
AcDbLine
 10
339.041232
 20
-8.051053
 30
0.0
 11
240.041232
 21
-8.051053
 31
0.0
  0
LINE
  5
A0
100
AcDbEntity
  8
0
370
    -3
  6
Continuous
100
AcDbLine
 10
339.041232
 20
-5.093057
 30
0.0
 11
240.041232
 21
-5.093057
 31
0.0
  0
LINE
  5
A1
100
AcDbEntity
  8
0
370
    -3
  6
Continuous
100
AcDbLine
 10
339.041232
 20
-3.503847
 30
0.0
 11
240.041232
 21
-3.503847
 31
0.0
  0
LINE
  5
A2
100
AcDbEntity
  8
0
370
    -3
  6
Continuous
100
AcDbLine
 10
339.041232
 20
4.234466
 30
0.0
 11
240.041232
 21
4.234466
 31
0.0
  0
LINE
  5
A3
100
AcDbEntity
  8
0
370
    -3
  6
Continuous
100
AcDbLine
 10
339.041232
 20
9.325635
 30
0.0
 11
240.041232
 21
9.325635
 31
0.0
  0
LINE
  5
A4
100
AcDbEntity
  8
0
370
    -3
  6
Continuous
100
AcDbLine
 10
339.041232
 20
13.692552
 30
0.0
 11
240.041232
 21
13.692552
 31
0.0
  0
LINE
  5
A5
100
AcDbEntity
  8
0
370
    -3
  6
Continuous
100
AcDbLine
 10
339.041232
 20
14.192552
 30
0.0
 11
240.041232
 21
14.192552
 31
0.0
  0
LINE
  5
A6
100
AcDbEntity
  8
0
370
    -3
  6
Continuous
100
AcDbLine
 10
339.041232
 20
16.692552
 30
0.0
 11
341.638747
 21
16.692552
 31
0.0
  0
ARC
  5
A7
100
AcDbEntity
  8
0
370
    -3
  6
Continuous
100
AcDbCircle
 10
341.638747
 20
14.692552
 30
0.0
 40
2.0
100
AcDbArc
 50
4.231256
 51
90.0
  0
ARC
  5
A8
100
AcDbEntity
  8
0
370
    -3
  6
Continuous
100
AcDbCircle
 10
-354.458768
 20
-36.807448
 30
0.0
 40
700.0
100
AcDbArc
 50
3.620062
 51
4.231256
  0
ARC
  5
A9
100
AcDbEntity
  8
0
370
    -3
  6
Continuous
100
AcDbCircle
 10
-354.458768
 20
-36.807448
 30
0.0
 40
700.0
100
AcDbArc
 50
1.652907
 51
2.865819
  0
LINE
  5
AA
100
AcDbEntity
  8
0
370
    -3
  6
CENTER
100
AcDbLine
 10
335.983831
 20
2.790532
 30
0.0
 11
350.614996
 21
2.790532
 31
0.0
  0
ARC
  5
AB
100
AcDbEntity
  8
0
370
    -3
  6
Continuous
100
AcDbCircle
 10
345.041232
 20
-7.608807
 30
0.0
 40
1.0
100
AcDbArc
 50
180.0
 51
238.640964
  0
ARC
  5
AC
100
AcDbEntity
  8
0
370
    -3
  6
Continuous
100
AcDbCircle
 10
354.041232
 20
9.320092
 30
0.0
 40
10.0
100
AcDbArc
 50
180.0
 51
183.725037
  0
ARC
  5
AD
100
AcDbEntity
  8
0
370
    -3
  6
Continuous
100
AcDbCircle
 10
344.000434
 20
-9.316653
 30
0.0
 40
1.0
100
AcDbArc
 50
2.253953
 51
58.640964
  0
LINE
  5
AE
100
AcDbEntity
  8
0
370
    -3
  6
Continuous
100
AcDbLine
 10
344.041232
 20
7.790532
 30
0.0
 11
344.041232
 21
-7.608807
 31
0.0
  0
ARC
  5
AF
100
AcDbEntity
  8
0
370
    -3
  6
Continuous
100
AcDbCircle
 10
343.541232
 20
7.790532
 30
0.0
 40
0.5
100
AcDbArc
 50
0.0
 51
90.0
  0
LINE
  5
B0
100
AcDbEntity
  8
0
370
    -3
  6
Continuous
100
AcDbLine
 10
339.541232
 20
8.290532
 30
0.0
 11
343.541232
 21
8.290532
 31
0.0
  0
ARC
  5
B1
100
AcDbEntity
  8
0
370
    -3
  6
Continuous
100
AcDbCircle
 10
345.749759
 20
-16.601764
 30
0.0
 40
0.5
100
AcDbArc
 50
181.652907
 51
224.884862
  0
ARC
  5
B2
100
AcDbEntity
  8
0
370
    -3
  6
Continuous
100
AcDbCircle
 10
345.041232
 20
-17.307448
 30
0.0
 40
0.5
100
AcDbArc
 50
0.0
 51
44.884862
  0
LINE
  5
B3
100
AcDbEntity
  8
0
370
    -3
  6
Continuous
100
AcDbLine
 10
345.541232
 20
-36.807448
 30
0.0
 11
345.541232
 21
-17.307448
 31
0.0
  0
LINE
  5
B4
100
AcDbEntity
  8
0
370
    -3
  6
Continuous
100
AcDbLine
 10
339.541232
 20
6.531951
 30
0.0
 11
339.041232
 21
6.531951
 31
0.0
  0
LINE
  5
B5
100
AcDbEntity
  8
0
370
    -3
  6
Continuous
100
AcDbLine
 10
339.041232
 20
-0.559049
 30
0.0
 11
339.541232
 21
-0.559049
 31
0.0
  0
LINE
  5
B6
100
AcDbEntity
  8
0
370
    -3
  6
Continuous
100
AcDbLine
 10
339.541232
 20
8.290532
 30
0.0
 11
339.541232
 21
-0.559049
 31
0.0
  0
LINE
  5
B7
100
AcDbEntity
  8
0
370
    -3
  6
Continuous
100
AcDbLine
 10
339.041232
 20
-36.807448
 30
0.0
 11
339.041232
 21
-90.307448
 31
0.0
  0
LINE
  5
B8
100
AcDbEntity
  8
0
370
    -3
  6
Continuous
100
AcDbLine
 10
339.041232
 20
-90.307448
 30
0.0
 11
341.638747
 21
-90.307448
 31
0.0
  0
ARC
  5
B9
100
AcDbEntity
  8
0
370
    -3
  6
Continuous
100
AcDbCircle
 10
341.638747
 20
-88.307448
 30
0.0
 40
2.0
100
AcDbArc
 50
270.0
 51
355.768744
  0
ARC
  5
BA
100
AcDbEntity
  8
0
370
    -3
  6
Continuous
100
AcDbCircle
 10
-354.458768
 20
-36.807448
 30
0.0
 40
700.0
100
AcDbArc
 50
355.768744
 51
356.379938
  0
ARC
  5
BB
100
AcDbEntity
  8
0
370
    -3
  6
Continuous
100
AcDbCircle
 10
-354.458768
 20
-36.807448
 30
0.0
 40
700.0
100
AcDbArc
 50
357.134181
 51
358.347093
  0
LINE
  5
BC
100
AcDbEntity
  8
0
370
    -3
  6
CENTER
100
AcDbLine
 10
335.983831
 20
-76.405428
 30
0.0
 11
350.614996
 21
-76.405428
 31
0.0
  0
ARC
  5
BD
100
AcDbEntity
  8
0
370
    -3
  6
Continuous
100
AcDbCircle
 10
345.041232
 20
-66.00609
 30
0.0
 40
1.0
100
AcDbArc
 50
121.359036
 51
180.0
  0
ARC
  5
BE
100
AcDbEntity
  8
0
370
    -3
  6
Continuous
100
AcDbCircle
 10
354.041232
 20
-82.934989
 30
0.0
 40
10.0
100
AcDbArc
 50
176.274963
 51
180.0
  0
ARC
  5
BF
100
AcDbEntity
  8
0
370
    -3
  6
Continuous
100
AcDbCircle
 10
344.000434
 20
-64.298243
 30
0.0
 40
1.0
100
AcDbArc
 50
301.359036
 51
357.746047
  0
LINE
  5
C0
100
AcDbEntity
  8
0
370
    -3
  6
Continuous
100
AcDbLine
 10
344.041232
 20
-81.405428
 30
0.0
 11
344.041232
 21
-66.00609
 31
0.0
  0
ARC
  5
C1
100
AcDbEntity
  8
0
370
    -3
  6
Continuous
100
AcDbCircle
 10
343.541232
 20
-81.405428
 30
0.0
 40
0.5
100
AcDbArc
 50
270.0
 51
0.0
  0
LINE
  5
C2
100
AcDbEntity
  8
0
370
    -3
  6
Continuous
100
AcDbLine
 10
339.541232
 20
-81.905428
 30
0.0
 11
343.541232
 21
-81.905428
 31
0.0
  0
ARC
  5
C3
100
AcDbEntity
  8
0
370
    -3
  6
Continuous
100
AcDbCircle
 10
345.749759
 20
-57.013132
 30
0.0
 40
0.5
100
AcDbArc
 50
135.115138
 51
178.347093
  0
ARC
  5
C4
100
AcDbEntity
  8
0
370
    -3
  6
Continuous
100
AcDbCircle
 10
345.041232
 20
-56.307448
 30
0.0
 40
0.5
100
AcDbArc
 50
315.115138
 51
0.0
  0
LINE
  5
C5
100
AcDbEntity
  8
0
370
    -3
  6
Continuous
100
AcDbLine
 10
345.541232
 20
-36.807448
 30
0.0
 11
345.541232
 21
-56.307448
 31
0.0
  0
LINE
  5
C6
100
AcDbEntity
  8
0
370
    -3
  6
Continuous
100
AcDbLine
 10
339.541232
 20
-80.146848
 30
0.0
 11
339.041232
 21
-80.146848
 31
0.0
  0
LINE
  5
C7
100
AcDbEntity
  8
0
370
    -3
  6
Continuous
100
AcDbLine
 10
339.041232
 20
-73.055847
 30
0.0
 11
339.541232
 21
-73.055847
 31
0.0
  0
LINE
  5
C8
100
AcDbEntity
  8
0
370
    -3
  6
Continuous
100
AcDbLine
 10
339.541232
 20
-81.905428
 30
0.0
 11
339.541232
 21
-73.055847
 31
0.0
  0
LINE
  5
C9
100
AcDbEntity
  8
0
370
    -3
  6
Continuous
100
AcDbLine
 10
339.041232
 20
-87.807448
 30
0.0
 11
240.041232
 21
-87.807448
 31
0.0
  0
LINE
  5
CA
100
AcDbEntity
  8
0
370
    -3
  6
Continuous
100
AcDbLine
 10
339.041232
 20
-87.307448
 30
0.0
 11
240.041232
 21
-87.307448
 31
0.0
  0
LINE
  5
CB
100
AcDbEntity
  8
0
370
    -3
  6
Continuous
100
AcDbLine
 10
339.041232
 20
-82.940531
 30
0.0
 11
240.041232
 21
-82.940531
 31
0.0
  0
LINE
  5
CC
100
AcDbEntity
  8
0
370
    -3
  6
Continuous
100
AcDbLine
 10
339.041232
 20
-77.849362
 30
0.0
 11
240.041232
 21
-77.849362
 31
0.0
  0
LINE
  5
CD
100
AcDbEntity
  8
0
370
    -3
  6
Continuous
100
AcDbLine
 10
339.041232
 20
-70.111049
 30
0.0
 11
240.041232
 21
-70.111049
 31
0.0
  0
LINE
  5
CE
100
AcDbEntity
  8
0
370
    -3
  6
Continuous
100
AcDbLine
 10
339.041232
 20
-68.521839
 30
0.0
 11
240.041232
 21
-68.521839
 31
0.0
  0
LINE
  5
CF
100
AcDbEntity
  8
0
370
    -3
  6
Continuous
100
AcDbLine
 10
339.041232
 20
-65.563844
 30
0.0
 11
240.041232
 21
-65.563844
 31
0.0
  0
LINE
  5
D0
100
AcDbEntity
  8
0
370
    -3
  6
Continuous
100
AcDbLine
 10
339.041232
 20
-64.08482
 30
0.0
 11
240.041232
 21
-64.08482
 31
0.0
  0
LINE
  5
D1
100
AcDbEntity
  8
0
370
    -3
  6
Continuous
100
AcDbLine
 10
339.041232
 20
-60.992089
 30
0.0
 11
240.041232
 21
-60.992089
 31
0.0
  0
LINE
  5
D2
100
AcDbEntity
  8
0
370
    -3
  6
Continuous
100
AcDbLine
 10
339.041232
 20
-59.645688
 30
0.0
 11
240.041232
 21
-59.645688
 31
0.0
  0
LINE
  5
D3
100
AcDbEntity
  8
0
370
    -3
  6
Continuous
100
AcDbLine
 10
339.041232
 20
-55.193563
 30
0.0
 11
240.041232
 21
-55.193563
 31
0.0
  0
LINE
  5
D4
100
AcDbEntity
  8
0
370
    -3
  6
Continuous
100
AcDbLine
 10
339.041232
 20
-56.435483
 30
0.0
 11
240.041232
 21
-56.435483
 31
0.0
  0
LINE
  5
D5
100
AcDbEntity
  8
0
370
    -3
  6
Continuous
100
AcDbLine
 10
339.041232
 20
-50.807448
 30
0.0
 11
240.041232
 21
-50.807448
 31
0.0
  0
LINE
  5
D6
100
AcDbEntity
  8
0
370
    -3
  6
Continuous
100
AcDbLine
 10
240.041232
 20
-90.307448
 30
0.0
 11
339.041232
 21
-90.307448
 31
0.0
  0
LINE
  5
D7
100
AcDbEntity
  8
0
370
    -3
  6
CENTER
100
AcDbLine
 10
319.541232
 20
17.9087
 30
0.0
 11
319.541232
 21
45.88805
 31
0.0
  0
LINE
  5
D8
100
AcDbEntity
  8
0
370
    -3
  6
DASHED
100
AcDbLine
 10
312.541232
 20
20.692552
 30
0.0
 11
312.541232
 21
35.192552
 31
0.0
  0
LINE
  5
D9
100
AcDbEntity
  8
0
370
    -3
  6
DASHED
100
AcDbLine
 10
326.541232
 20
20.692552
 30
0.0
 11
326.541232
 21
35.192552
 31
0.0
  0
ARC
  5
DA
100
AcDbEntity
  8
0
370
    -3
  6
DASHED
100
AcDbCircle
 10
319.541232
 20
35.192552
 30
0.0
 40
7.0
100
AcDbArc
 50
0.0
 51
180.0
  0
LINE
  5
DB
100
AcDbEntity
  8
0
370
    -3
  6
CENTER
100
AcDbLine
 10
309.130934
 20
35.192552
 30
0.0
 11
329.505115
 21
35.192552
 31
0.0
  0
CIRCLE
  5
DC
100
AcDbEntity
  8
0
370
    -3
  6
DASHED
100
AcDbCircle
 10
269.541232
 20
35.192552
 30
0.0
 40
6.0
  0
ARC
  5
DD
100
AcDbEntity
  8
0
370
    -3
  6
DASHED
100
AcDbCircle
 10
269.541232
 20
35.192552
 30
0.0
 40
7.0
100
AcDbArc
 50
0.0
 51
180.0
  0
LINE
  5
DE
100
AcDbEntity
  8
0
370
    -3
  6
DASHED
100
AcDbLine
 10
262.541232
 20
20.692552
 30
0.0
 11
262.541232
 21
35.192552
 31
0.0
  0
LINE
  5
DF
100
AcDbEntity
  8
0
370
    -3
  6
DASHED
100
AcDbLine
 10
276.541232
 20
20.692552
 30
0.0
 11
276.541232
 21
35.192552
 31
0.0
  0
LINE
  5
E0
100
AcDbEntity
  8
0
370
    -3
  6
CENTER
100
AcDbLine
 10
260.232898
 20
35.192552
 30
0.0
 11
279.421938
 21
35.192552
 31
0.0
  0
LINE
  5
E1
100
AcDbEntity
  8
0
370
    -3
  6
CENTER
100
AcDbLine
 10
269.541232
 20
17.9087
 30
0.0
 11
269.541232
 21
45.88805
 31
0.0
  0
ARC
  5
E2
100
AcDbEntity
  8
0
370
    -3
  6
Continuous
100
AcDbCircle
 10
259.041232
 20
311.102646
 30
0.0
 40
1.0
100
AcDbArc
 50
90.0
 51
180.0
  0
ARC
  5
E3
100
AcDbEntity
  8
0
370
    -3
  6
Continuous
100
AcDbCircle
 10
259.041232
 20
253.102646
 30
0.0
 40
1.0
100
AcDbArc
 50
180.0
 51
270.0
  0
ARC
  5
E4
100
AcDbEntity
  8
0
370
    -3
  6
Continuous
100
AcDbCircle
 10
330.041232
 20
253.102646
 30
0.0
 40
1.0
100
AcDbArc
 50
270.0
 51
0.0
  0
ARC
  5
E5
100
AcDbEntity
  8
0
370
    -3
  6
Continuous
100
AcDbCircle
 10
330.041232
 20
311.102646
 30
0.0
 40
1.0
100
AcDbArc
 50
0.0
 51
90.0
  0
LINE
  5
E6
100
AcDbEntity
  8
0
370
    -3
  6
Continuous
100
AcDbLine
 10
258.041232
 20
311.102646
 30
0.0
 11
258.041232
 21
253.102646
 31
0.0
  0
LINE
  5
E7
100
AcDbEntity
  8
0
370
    -3
  6
Continuous
100
AcDbLine
 10
331.041232
 20
253.102646
 30
0.0
 11
331.041232
 21
311.102646
 31
0.0
  0
LINE
  5
E8
100
AcDbEntity
  8
0
370
    -3
  6
Continuous
100
AcDbLine
 10
259.041232
 20
252.102646
 30
0.0
 11
330.041232
 21
252.102646
 31
0.0
  0
LINE
  5
E9
100
AcDbEntity
  8
0
370
    -3
  6
Continuous
100
AcDbLine
 10
259.041232
 20
312.102646
 30
0.0
 11
330.041232
 21
312.102646
 31
0.0
  0
LINE
  5
EA
100
AcDbEntity
  8
0
370
    -3
  6
Continuous
100
AcDbLine
 10
345.541232
 20
282.102646
 30
0.0
 11
345.541232
 21
262.602646
 31
0.0
  0
ARC
  5
EB
100
AcDbEntity
  8
0
370
    -3
  6
Continuous
100
AcDbCircle
 10
345.041232
 20
262.602646
 30
0.0
 40
0.5
100
AcDbArc
 50
315.115138
 51
0.0
  0
ARC
  5
EC
100
AcDbEntity
  8
0
370
    -3
  6
Continuous
100
AcDbCircle
 10
345.749759
 20
261.896961
 30
0.0
 40
0.5
100
AcDbArc
 50
135.115138
 51
178.347093
  0
LINE
  5
ED
100
AcDbEntity
  8
0
370
    -3
  6
Continuous
100
AcDbLine
 10
339.541232
 20
237.004666
 30
0.0
 11
343.541232
 21
237.004666
 31
0.0
  0
ARC
  5
EE
100
AcDbEntity
  8
0
370
    -3
  6
Continuous
100
AcDbCircle
 10
343.541232
 20
237.504666
 30
0.0
 40
0.5
100
AcDbArc
 50
270.0
 51
0.0
  0
LINE
  5
EF
100
AcDbEntity
  8
0
370
    -3
  6
Continuous
100
AcDbLine
 10
344.041232
 20
237.504666
 30
0.0
 11
344.041232
 21
252.904004
 31
0.0
  0
ARC
  5
F0
100
AcDbEntity
  8
0
370
    -3
  6
Continuous
100
AcDbCircle
 10
344.000434
 20
254.611851
 30
0.0
 40
1.0
100
AcDbArc
 50
301.359036
 51
357.746047
  0
ARC
  5
F1
100
AcDbEntity
  8
0
370
    -3
  6
Continuous
100
AcDbCircle
 10
354.041232
 20
235.975105
 30
0.0
 40
10.0
100
AcDbArc
 50
176.274963
 51
180.0
  0
ARC
  5
F2
100
AcDbEntity
  8
0
370
    -3
  6
Continuous
100
AcDbCircle
 10
345.041232
 20
252.904004
 30
0.0
 40
1.0
100
AcDbArc
 50
121.359036
 51
180.0
  0
LINE
  5
F3
100
AcDbEntity
  8
0
370
    -3
  6
Continuous
100
AcDbLine
 10
339.041232
 20
229.602646
 30
0.0
 11
341.712009
 21
229.602646
 31
0.0
  0
ARC
  5
F4
100
AcDbEntity
  8
0
370
    -3
  6
Continuous
100
AcDbCircle
 10
341.712009
 20
231.602646
 30
0.0
 40
2.0
100
AcDbArc
 50
270.0
 51
355.85105
  0
LINE
  5
F5
100
AcDbEntity
  8
0
370
    -3
  6
Continuous
100
AcDbLine
 10
339.541232
 20
237.004666
 30
0.0
 11
339.541232
 21
245.854246
 31
0.0
  0
LINE
  5
F6
100
AcDbEntity
  8
0
370
    -3
  6
Continuous
100
AcDbLine
 10
339.041232
 20
245.854246
 30
0.0
 11
339.541232
 21
245.854246
 31
0.0
  0
LINE
  5
F7
100
AcDbEntity
  8
0
370
    -3
  6
Continuous
100
AcDbLine
 10
339.541232
 20
238.763246
 30
0.0
 11
339.041232
 21
238.763246
 31
0.0
  0
ARC
  5
F8
100
AcDbEntity
  8
0
370
    -3
  6
Continuous
100
AcDbCircle
 10
330.041232
 20
252.602646
 30
0.0
 40
2.0
100
AcDbArc
 50
270.0
 51
0.0
  0
LINE
  5
F9
100
AcDbEntity
  8
0
370
    -3
  6
CENTER
100
AcDbLine
 10
335.983831
 20
242.504666
 30
0.0
 11
350.614996
 21
242.504666
 31
0.0
  0
ARC
  5
FA
100
AcDbEntity
  8
0
370
    -3
  6
Continuous
100
AcDbCircle
 10
259.041232
 20
252.602646
 30
0.0
 40
2.0
100
AcDbArc
 50
180.0
 51
270.0
  0
LINE
  5
FB
100
AcDbEntity
  8
0
370
    -3
  6
Continuous
100
AcDbLine
 10
259.041232
 20
250.602646
 30
0.0
 11
330.041232
 21
250.602646
 31
0.0
  0
LINE
  5
FC
100
AcDbEntity
  8
0
370
    -3
  6
Continuous
100
AcDbLine
 10
240.041232
 20
229.602646
 30
0.0
 11
339.041232
 21
229.602646
 31
0.0
  0
ARC
  5
FD
100
AcDbEntity
  8
0
370
    -3
  6
Continuous
100
AcDbCircle
 10
-354.458768
 20
282.102646
 30
0.0
 40
700.0
100
AcDbArc
 50
355.85105
 51
356.379938
  0
ARC
  5
FE
100
AcDbEntity
  8
0
370
    -3
  6
Continuous
100
AcDbCircle
 10
-354.458768
 20
282.102646
 30
0.0
 40
700.0
100
AcDbArc
 50
357.134181
 51
358.347093
  0
ARC
  5
FF
100
AcDbEntity
  8
0
370
    -3
  6
Continuous
100
AcDbCircle
 10
341.854201
 20
233.602646
 30
0.0
 40
2.0
100
AcDbArc
 50
270.0
 51
356.015636
  0
ARC
  5
100
100
AcDbEntity
  8
0
370
    -3
  6
Continuous
100
AcDbCircle
 10
341.819194
 20
233.102646
 30
0.0
 40
2.0
100
AcDbArc
 50
270.0
 51
355.974492
  0
LINE
  5
101
100
AcDbEntity
  8
0
370
    -3
  6
Continuous
100
AcDbLine
 10
339.041232
 20
231.602646
 30
0.0
 11
341.854201
 21
231.602646
 31
0.0
  0
LINE
  5
102
100
AcDbEntity
  8
0
370
    -3
  6
Continuous
100
AcDbLine
 10
339.041232
 20
231.102646
 30
0.0
 11
341.819194
 21
231.102646
 31
0.0
  0
LINE
  5
103
100
AcDbEntity
  8
0
370
    -3
  6
Continuous
100
AcDbLine
 10
339.041232
 20
231.602646
 30
0.0
 11
240.041232
 21
231.602646
 31
0.0
  0
LINE
  5
104
100
AcDbEntity
  8
0
370
    -3
  6
Continuous
100
AcDbLine
 10
339.041232
 20
231.102646
 30
0.0
 11
240.041232
 21
231.102646
 31
0.0
  0
LINE
  5
105
100
AcDbEntity
  8
0
370
    -3
  6
Continuous
100
AcDbLine
 10
339.041232
 20
237.59799
 30
0.0
 11
240.041232
 21
237.59799
 31
0.0
  0
LINE
  5
106
100
AcDbEntity
  8
0
370
    -3
  6
Continuous
100
AcDbLine
 10
339.041232
 20
235.969563
 30
0.0
 11
240.041232
 21
235.969563
 31
0.0
  0
LINE
  5
107
100
AcDbEntity
  8
0
370
    -3
  6
Continuous
100
AcDbLine
 10
339.041232
 20
241.060732
 30
0.0
 11
240.041232
 21
241.060732
 31
0.0
  0
LINE
  5
108
100
AcDbEntity
  8
0
370
    -3
  6
Continuous
100
AcDbLine
 10
339.041232
 20
242.06221
 30
0.0
 11
240.041232
 21
242.06221
 31
0.0
  0
LINE
  5
109
100
AcDbEntity
  8
0
370
    -3
  6
Continuous
100
AcDbLine
 10
339.041232
 20
248.799045
 30
0.0
 11
240.041232
 21
248.799045
 31
0.0
  0
LINE
  5
10A
100
AcDbEntity
  8
0
370
    -3
  6
Continuous
100
AcDbLine
 10
339.041232
 20
250.388255
 30
0.0
 11
240.041232
 21
250.388255
 31
0.0
  0
LINE
  5
10B
100
AcDbEntity
  8
0
370
    -3
  6
Continuous
100
AcDbLine
 10
339.041232
 20
262.102646
 30
0.0
 11
332.041232
 21
262.102646
 31
0.0
  0
LINE
  5
10C
100
AcDbEntity
  8
0
370
    -3
  6
Continuous
100
AcDbLine
 10
257.041232
 20
262.102646
 30
0.0
 11
240.041232
 21
262.102646
 31
0.0
  0
LINE
  5
10D
100
AcDbEntity
  8
0
370
    -3
  6
Continuous
100
AcDbLine
 10
339.041232
 20
259.264406
 30
0.0
 11
332.041232
 21
259.264406
 31
0.0
  0
LINE
  5
10E
100
AcDbEntity
  8
0
370
    -3
  6
Continuous
100
AcDbLine
 10
257.041232
 20
259.264406
 30
0.0
 11
240.041232
 21
259.264406
 31
0.0
  0
LINE
  5
10F
100
AcDbEntity
  8
0
370
    -3
  6
Continuous
100
AcDbLine
 10
339.041232
 20
257.918004
 30
0.0
 11
332.041232
 21
257.918004
 31
0.0
  0
LINE
  5
110
100
AcDbEntity
  8
0
370
    -3
  6
Continuous
100
AcDbLine
 10
257.041232
 20
257.918004
 30
0.0
 11
240.041232
 21
257.918004
 31
0.0
  0
LINE
  5
111
100
AcDbEntity
  8
0
370
    -3
  6
Continuous
100
AcDbLine
 10
339.041232
 20
254.825273
 30
0.0
 11
332.041232
 21
254.825273
 31
0.0
  0
LINE
  5
112
100
AcDbEntity
  8
0
370
    -3
  6
Continuous
100
AcDbLine
 10
257.041232
 20
254.825273
 30
0.0
 11
240.041232
 21
254.825273
 31
0.0
  0
LINE
  5
113
100
AcDbEntity
  8
0
370
    -3
  6
Continuous
100
AcDbLine
 10
339.041232
 20
253.34625
 30
0.0
 11
332.041232
 21
253.34625
 31
0.0
  0
LINE
  5
114
100
AcDbEntity
  8
0
370
    -3
  6
Continuous
100
AcDbLine
 10
257.041232
 20
253.34625
 30
0.0
 11
240.041232
 21
253.34625
 31
0.0
  0
LINE
  5
115
100
AcDbEntity
  8
0
370
    -3
  6
Continuous
100
AcDbLine
 10
344.041232
 20
248.278898
 30
0.0
 11
339.041232
 21
248.278898
 31
0.0
  0
LINE
  5
116
100
AcDbEntity
  8
0
370
    -3
  6
Continuous
100
AcDbLine
 10
344.041232
 20
250.887161
 30
0.0
 11
339.041232
 21
250.887161
 31
0.0
  0
LINE
  5
117
100
AcDbEntity
  8
0
370
    -3
  6
Continuous
100
AcDbLine
 10
344.041232
 20
252.788477
 30
0.0
 11
339.041232
 21
252.788477
 31
0.0
  0
LINE
  5
118
100
AcDbEntity
  8
0
370
    -3
  6
Continuous
100
AcDbLine
 10
345.026834
 20
255.271831
 30
0.0
 11
339.041232
 21
255.271831
 31
0.0
  0
LINE
  5
119
100
AcDbEntity
  8
0
370
    -3
  6
Continuous
100
AcDbLine
 10
345.106577
 20
257.43833
 30
0.0
 11
339.041232
 21
257.43833
 31
0.0
  0
LINE
  5
11A
100
AcDbEntity
  8
0
370
    -3
  6
Continuous
100
AcDbLine
 10
345.181324
 20
259.658453
 30
0.0
 11
339.041232
 21
259.658453
 31
0.0
  0
LINE
  5
11B
100
AcDbEntity
  8
0
370
    -3
  6
Continuous
100
AcDbLine
 10
345.294024
 20
262.102646
 30
0.0
 11
339.041232
 21
262.102646
 31
0.0
  0
LINE
  5
11C
100
AcDbEntity
  8
0
370
    -3
  6
Continuous
100
AcDbLine
 10
257.041232
 20
282.102646
 30
0.0
 11
257.041232
 21
252.602646
 31
0.0
  0
LINE
  5
11D
100
AcDbEntity
  8
0
370
    -3
  6
Continuous
100
AcDbLine
 10
332.041232
 20
282.102646
 30
0.0
 11
332.041232
 21
252.602646
 31
0.0
  0
LINE
  5
11E
100
AcDbEntity
  8
0
370
    -3
  6
Continuous
100
AcDbLine
 10
339.041232
 20
229.602646
 30
0.0
 11
339.041232
 21
282.102646
 31
0.0
  0
LINE
  5
11F
100
AcDbEntity
  8
0
370
    -3
  6
Continuous
100
AcDbLine
 10
345.294024
 20
302.102646
 30
0.0
 11
339.041232
 21
302.102646
 31
0.0
  0
LINE
  5
120
100
AcDbEntity
  8
0
370
    -3
  6
Continuous
100
AcDbLine
 10
345.181324
 20
304.546838
 30
0.0
 11
339.041232
 21
304.546838
 31
0.0
  0
LINE
  5
121
100
AcDbEntity
  8
0
370
    -3
  6
Continuous
100
AcDbLine
 10
345.106577
 20
306.766962
 30
0.0
 11
339.041232
 21
306.766962
 31
0.0
  0
LINE
  5
122
100
AcDbEntity
  8
0
370
    -3
  6
Continuous
100
AcDbLine
 10
345.026834
 20
308.933461
 30
0.0
 11
339.041232
 21
308.933461
 31
0.0
  0
LINE
  5
123
100
AcDbEntity
  8
0
370
    -3
  6
Continuous
100
AcDbLine
 10
344.041232
 20
311.416814
 30
0.0
 11
339.041232
 21
311.416814
 31
0.0
  0
LINE
  5
124
100
AcDbEntity
  8
0
370
    -3
  6
Continuous
100
AcDbLine
 10
344.041232
 20
313.318131
 30
0.0
 11
339.041232
 21
313.318131
 31
0.0
  0
LINE
  5
125
100
AcDbEntity
  8
0
370
    -3
  6
Continuous
100
AcDbLine
 10
344.041232
 20
315.926394
 30
0.0
 11
339.041232
 21
315.926394
 31
0.0
  0
LINE
  5
126
100
AcDbEntity
  8
0
370
    -3
  6
Continuous
100
AcDbLine
 10
257.041232
 20
310.859041
 30
0.0
 11
240.041232
 21
310.859041
 31
0.0
  0
LINE
  5
127
100
AcDbEntity
  8
0
370
    -3
  6
Continuous
100
AcDbLine
 10
257.041232
 20
309.380018
 30
0.0
 11
240.041232
 21
309.380018
 31
0.0
  0
LINE
  5
128
100
AcDbEntity
  8
0
370
    -3
  6
Continuous
100
AcDbLine
 10
257.041232
 20
306.287287
 30
0.0
 11
240.041232
 21
306.287287
 31
0.0
  0
LINE
  5
129
100
AcDbEntity
  8
0
370
    -3
  6
Continuous
100
AcDbLine
 10
257.041232
 20
304.940886
 30
0.0
 11
240.041232
 21
304.940886
 31
0.0
  0
LINE
  5
12A
100
AcDbEntity
  8
0
370
    -3
  6
Continuous
100
AcDbLine
 10
257.041232
 20
302.102646
 30
0.0
 11
240.041232
 21
302.102646
 31
0.0
  0
LINE
  5
12B
100
AcDbEntity
  8
0
370
    -3
  6
Continuous
100
AcDbLine
 10
339.041232
 20
322.143081
 30
0.0
 11
240.041232
 21
322.143081
 31
0.0
  0
LINE
  5
12C
100
AcDbEntity
  8
0
370
    -3
  6
Continuous
100
AcDbLine
 10
339.041232
 20
326.607301
 30
0.0
 11
240.041232
 21
326.607301
 31
0.0
  0
LINE
  5
12D
100
AcDbEntity
  8
0
370
    -3
  6
Continuous
100
AcDbLine
 10
339.041232
 20
304.940886
 30
0.0
 11
332.041232
 21
304.940886
 31
0.0
  0
LINE
  5
12E
100
AcDbEntity
  8
0
370
    -3
  6
Continuous
100
AcDbLine
 10
339.041232
 20
306.287287
 30
0.0
 11
332.041232
 21
306.287287
 31
0.0
  0
LINE
  5
12F
100
AcDbEntity
  8
0
370
    -3
  6
Continuous
100
AcDbLine
 10
339.041232
 20
309.380018
 30
0.0
 11
332.041232
 21
309.380018
 31
0.0
  0
LINE
  5
130
100
AcDbEntity
  8
0
370
    -3
  6
Continuous
100
AcDbLine
 10
339.041232
 20
310.859041
 30
0.0
 11
332.041232
 21
310.859041
 31
0.0
  0
LINE
  5
131
100
AcDbEntity
  8
0
370
    -3
  6
Continuous
100
AcDbLine
 10
339.041232
 20
313.817037
 30
0.0
 11
240.041232
 21
313.817037
 31
0.0
  0
LINE
  5
132
100
AcDbEntity
  8
0
370
    -3
  6
Continuous
100
AcDbLine
 10
339.041232
 20
315.406247
 30
0.0
 11
240.041232
 21
315.406247
 31
0.0
  0
LINE
  5
133
100
AcDbEntity
  8
0
370
    -3
  6
Continuous
100
AcDbLine
 10
339.041232
 20
302.102646
 30
0.0
 11
332.041232
 21
302.102646
 31
0.0
  0
LINE
  5
134
100
AcDbEntity
  8
0
370
    -3
  6
Continuous
100
AcDbLine
 10
339.041232
 20
323.14456
 30
0.0
 11
240.041232
 21
323.14456
 31
0.0
  0
LINE
  5
135
100
AcDbEntity
  8
0
370
    -3
  6
Continuous
100
AcDbLine
 10
339.041232
 20
328.235728
 30
0.0
 11
240.041232
 21
328.235728
 31
0.0
  0
LINE
  5
136
100
AcDbEntity
  8
0
370
    -3
  6
Continuous
100
AcDbLine
 10
339.041232
 20
333.102646
 30
0.0
 11
240.041232
 21
333.102646
 31
0.0
  0
LINE
  5
137
100
AcDbEntity
  8
0
370
    -3
  6
Continuous
100
AcDbLine
 10
339.041232
 20
332.602646
 30
0.0
 11
240.041232
 21
332.602646
 31
0.0
  0
ARC
  5
138
100
AcDbEntity
  8
0
370
    -3
  6
Continuous
100
AcDbCircle
 10
341.819194
 20
331.102646
 30
0.0
 40
2.0
100
AcDbArc
 50
4.025508
 51
90.0
  0
ARC
  5
139
100
AcDbEntity
  8
0
370
    -3
  6
Continuous
100
AcDbCircle
 10
341.854201
 20
330.602646
 30
0.0
 40
2.0
100
AcDbArc
 50
3.984364
 51
90.0
  0
LINE
  5
13A
100
AcDbEntity
  8
0
370
    -3
  6
Continuous
100
AcDbLine
 10
339.041232
 20
333.102646
 30
0.0
 11
341.819194
 21
333.102646
 31
0.0
  0
LINE
  5
13B
100
AcDbEntity
  8
0
370
    -3
  6
Continuous
100
AcDbLine
 10
339.041232
 20
332.602646
 30
0.0
 11
341.854201
 21
332.602646
 31
0.0
  0
LINE
  5
13C
100
AcDbEntity
  8
0
370
    -3
  6
Continuous
100
AcDbLine
 10
345.541232
 20
282.102646
 30
0.0
 11
345.541232
 21
301.602646
 31
0.0
  0
ARC
  5
13D
100
AcDbEntity
  8
0
370
    -3
  6
Continuous
100
AcDbCircle
 10
345.041232
 20
301.602646
 30
0.0
 40
0.5
100
AcDbArc
 50
0.0
 51
44.884862
  0
ARC
  5
13E
100
AcDbEntity
  8
0
370
    -3
  6
Continuous
100
AcDbCircle
 10
345.749759
 20
302.30833
 30
0.0
 40
0.5
100
AcDbArc
 50
181.652907
 51
224.884862
  0
LINE
  5
13F
100
AcDbEntity
  8
0
370
    -3
  6
Continuous
100
AcDbLine
 10
339.541232
 20
327.200626
 30
0.0
 11
343.541232
 21
327.200626
 31
0.0
  0
ARC
  5
140
100
AcDbEntity
  8
0
370
    -3
  6
Continuous
100
AcDbCircle
 10
343.541232
 20
326.700626
 30
0.0
 40
0.5
100
AcDbArc
 50
0.0
 51
90.0
  0
LINE
  5
141
100
AcDbEntity
  8
0
370
    -3
  6
Continuous
100
AcDbLine
 10
344.041232
 20
326.700626
 30
0.0
 11
344.041232
 21
311.301287
 31
0.0
  0
ARC
  5
142
100
AcDbEntity
  8
0
370
    -3
  6
Continuous
100
AcDbCircle
 10
344.000434
 20
309.593441
 30
0.0
 40
1.0
100
AcDbArc
 50
2.253953
 51
58.640964
  0
ARC
  5
143
100
AcDbEntity
  8
0
370
    -3
  6
Continuous
100
AcDbCircle
 10
354.041232
 20
328.230186
 30
0.0
 40
10.0
100
AcDbArc
 50
180.0
 51
183.725037
  0
ARC
  5
144
100
AcDbEntity
  8
0
370
    -3
  6
Continuous
100
AcDbCircle
 10
345.041232
 20
311.301287
 30
0.0
 40
1.0
100
AcDbArc
 50
180.0
 51
238.640964
  0
LINE
  5
145
100
AcDbEntity
  8
0
370
    -3
  6
Continuous
100
AcDbLine
 10
339.041232
 20
334.602646
 30
0.0
 11
341.712009
 21
334.602646
 31
0.0
  0
ARC
  5
146
100
AcDbEntity
  8
0
370
    -3
  6
Continuous
100
AcDbCircle
 10
341.712009
 20
332.602646
 30
0.0
 40
2.0
100
AcDbArc
 50
4.14895
 51
90.0
  0
LINE
  5
147
100
AcDbEntity
  8
0
370
    -3
  6
Continuous
100
AcDbLine
 10
339.541232
 20
327.200626
 30
0.0
 11
339.541232
 21
318.351045
 31
0.0
  0
LINE
  5
148
100
AcDbEntity
  8
0
370
    -3
  6
Continuous
100
AcDbLine
 10
339.041232
 20
318.351045
 30
0.0
 11
339.541232
 21
318.351045
 31
0.0
  0
LINE
  5
149
100
AcDbEntity
  8
0
370
    -3
  6
Continuous
100
AcDbLine
 10
339.541232
 20
325.442045
 30
0.0
 11
339.041232
 21
325.442045
 31
0.0
  0
ARC
  5
14A
100
AcDbEntity
  8
0
370
    -3
  6
Continuous
100
AcDbCircle
 10
330.041232
 20
311.602646
 30
0.0
 40
2.0
100
AcDbArc
 50
0.0
 51
90.0
  0
LINE
  5
14B
100
AcDbEntity
  8
0
370
    -3
  6
CENTER
100
AcDbLine
 10
335.983831
 20
321.700626
 30
0.0
 11
350.614996
 21
321.700626
 31
0.0
  0
LINE
  5
14C
100
AcDbEntity
  8
0
370
    -3
  6
Continuous
100
AcDbLine
 10
339.041232
 20
334.602646
 30
0.0
 11
339.041232
 21
282.102646
 31
0.0
  0
ARC
  5
14D
100
AcDbEntity
  8
0
370
    -3
  6
Continuous
100
AcDbCircle
 10
259.041232
 20
311.602646
 30
0.0
 40
2.0
100
AcDbArc
 50
90.0
 51
180.0
  0
LINE
  5
14E
100
AcDbEntity
  8
0
370
    -3
  6
Continuous
100
AcDbLine
 10
259.041232
 20
313.602646
 30
0.0
 11
330.041232
 21
313.602646
 31
0.0
  0
LINE
  5
14F
100
AcDbEntity
  8
0
370
    -3
  6
Continuous
100
AcDbLine
 10
257.041232
 20
282.102646
 30
0.0
 11
257.041232
 21
311.602646
 31
0.0
  0
LINE
  5
150
100
AcDbEntity
  8
0
370
    -3
  6
Continuous
100
AcDbLine
 10
332.041232
 20
282.102646
 30
0.0
 11
332.041232
 21
311.602646
 31
0.0
  0
LINE
  5
151
100
AcDbEntity
  8
0
370
    -3
  6
Continuous
100
AcDbLine
 10
240.041232
 20
334.602646
 30
0.0
 11
339.041232
 21
334.602646
 31
0.0
  0
ARC
  5
152
100
AcDbEntity
  8
0
370
    -3
  6
Continuous
100
AcDbCircle
 10
-354.458768
 20
282.102646
 30
0.0
 40
700.0
100
AcDbArc
 50
3.620062
 51
4.14895
  0
ARC
  5
153
100
AcDbEntity
  8
0
370
    -3
  6
Continuous
100
AcDbCircle
 10
-354.458768
 20
282.102646
 30
0.0
 40
700.0
100
AcDbArc
 50
1.652907
 51
2.865819
  0
INSERT
  5
166
100
AcDbEntity
  8
0
100
AcDbBlockReference
  2
ZU_SYM_C__ZUOU_AC_BLOCK_ZU_SYM__USERS_HOME_SYMBOL_STD_SYM_B01_00006-1_-1
 10
344.04123
 20
242.504666
 30
0.0
 50
180.0
  0
INSERT
  5
179
100
AcDbEntity
  8
0
100
AcDbBlockReference
  2
ZU_SYM_C__ZUOU_AC_BLOCK_ZU_SYM__USERS_HOME_SYMBOL_STD_SYM_B01_00007-1_-1
 10
344.04123
 20
321.700626
 30
0.0
 41
-1.0
  0
INSERT
  5
187
100
AcDbEntity
  8
0
100
AcDbBlockReference
  2
ZU_SYM_K__CAD_SYM_POO_SYM_P28_-1
 10
214.041232
 20
282.102646
 30
0.0
  0
MTEXT
  5
189
100
AcDbEntity
  8
0
370
    -3
  6
Continuous
100
AcDbMText
 10
669.212708
 20
-128.391144
 30
0.0
 40
6.6
 41
0.0
 71
     7
 72
     1
  1
\W0.82;GM-SHY-RL
  7
ZU_SHPTB00001
 11
1.0
 21
0.0
 31
0.0
 73
     1
 44
1.0
  0
MTEXT
  5
18A
100
AcDbEntity
  8
0
370
    -3
  6
Continuous
100
AcDbMText
 10
669.212708
 20
-139.391144
 30
0.0
 40
6.6
 41
0.0
 71
     7
 72
     1
  1
\W0.82;0.1kW
  7
ZU_SHPTB00001
 11
1.0
 21
0.0
 31
0.0
 73
     1
 44
1.0
  0
MTEXT
  5
18B
100
AcDbEntity
  8
0
370
    -3
  6
Continuous
100
AcDbMText
 10
669.212708
 20
-150.391144
 30
0.0
 40
6.6
 41
0.0
 71
     7
 72
     1
  1
\W0.82;1/1200-1/1440
  7
ZU_SHPTB00001
 11
1.0
 21
0.0
 31
0.0
 73
     1
 44
1.0
  0
MTEXT
  5
18C
100
AcDbEntity
  8
0
370
    -3
  6
Continuous
100
AcDbMText
 10
669.212708
 20
-161.391144
 30
0.0
 40
6.6
 41
0.0
 71
     7
 72
     1
  1
\W0.82;SCALE\W1.36; \W0.82;1/1
  7
ZU_SHPTB00001
 11
1.0
 21
0.0
 31
0.0
 73
     1
 44
1.0
  0
LINE
  5
18D
100
AcDbEntity
  8
0
370
    -3
  6
Continuous
100
AcDbLine
 10
488.041087
 20
-153.690448
 30
0.0
 11
459.434836
 21
-153.690448
 31
0.0
  0
LINE
  5
18E
100
AcDbEntity
  8
0
370
    -3
  6
Continuous
100
AcDbLine
 10
-205.958631
 20
-153.690448
 30
0.0
 11
-177.35238
 21
-153.690448
 31
0.0
  0
LINE
  5
18F
100
AcDbEntity
  8
0
370
    -3
  6
Continuous
100
AcDbLine
 10
173.541232
 20
331.102248
 30
0.0
 11
173.541232
 21
327.102248
 31
0.0
  0
LINE
  5
190
100
AcDbEntity
  8
0
370
    -3
  6
Continuous
100
AcDbLine
 10
172.541232
 20
332.102248
 30
0.0
 11
173.541232
 21
331.102248
 31
0.0
  0
LINE
  5
191
100
AcDbEntity
  8
0
370
    -3
  6
Continuous
100
AcDbLine
 10
97.541232
 20
332.102248
 30
0.0
 11
172.541232
 21
332.102248
 31
0.0
  0
LINE
  5
192
100
AcDbEntity
  8
0
370
    -3
  6
Continuous
100
AcDbLine
 10
15.041232
 20
331.102248
 30
0.0
 11
15.041232
 21
327.102248
 31
0.0
  0
LINE
  5
193
100
AcDbEntity
  8
0
370
    -3
  6
Continuous
100
AcDbLine
 10
16.041232
 20
332.102248
 30
0.0
 11
15.041232
 21
331.102248
 31
0.0
  0
LINE
  5
194
100
AcDbEntity
  8
0
370
    -3
  6
Continuous
100
AcDbLine
 10
97.541232
 20
332.102248
 30
0.0
 11
16.041232
 21
332.102248
 31
0.0
  0
LINE
  5
195
100
AcDbEntity
  8
0
370
    -3
  6
Continuous
100
AcDbLine
 10
15.041232
 20
327.102248
 30
0.0
 11
173.541232
 21
327.102248
 31
0.0
  0
LINE
  5
196
100
AcDbEntity
  8
0
370
    -3
  6
CENTER
100
AcDbLine
 10
352.223756
 20
282.102646
 30
0.0
 11
-3.361689
 21
282.102646
 31
0.0
  0
ARC
  5
197
100
AcDbEntity
  8
0
370
    -3
  6
Continuous
100
AcDbCircle
 10
97.541232
 20
181.102851
 30
0.0
 40
5.0
100
AcDbArc
 50
0.0
 51
180.0
  0
LINE
  5
198
100
AcDbEntity
  8
0
370
    -3
  6
Continuous
100
AcDbLine
 10
102.541232
 20
141.102851
 30
0.0
 11
102.541232
 21
181.102851
 31
0.0
  0
LINE
  5
199
100
AcDbEntity
  8
0
370
    -3
  6
Continuous
100
AcDbLine
 10
102.541232
 20
181.102851
 30
0.0
 11
92.541232
 21
181.102851
 31
0.0
  0
LINE
  5
19A
100
AcDbEntity
  8
0
370
    -3
  6
Continuous
100
AcDbLine
 10
92.541232
 20
141.102851
 30
0.0
 11
92.541232
 21
181.102851
 31
0.0
  0
ARC
  5
19B
100
AcDbEntity
  8
0
370
    -3
  6
Continuous
100
AcDbCircle
 10
82.34163
 20
141.902851
 30
0.0
 40
0.8
100
AcDbArc
 50
180.0
 51
270.0
  0
LINE
  5
19C
100
AcDbEntity
  8
0
370
    -3
  6
Continuous
100
AcDbLine
 10
81.54163
 20
195.702783
 30
0.0
 11
81.54163
 21
141.902851
 31
0.0
  0
ARC
  5
19D
100
AcDbEntity
  8
0
370
    -3
  6
Continuous
100
AcDbCircle
 10
81.14163
 20
195.702783
 30
0.0
 40
0.4
100
AcDbArc
 50
0.0
 51
90.0
  0
ARC
  5
19E
100
AcDbEntity
  8
0
370
    -3
  6
Continuous
100
AcDbCircle
 10
80.44163
 20
196.502783
 30
0.0
 40
0.4
100
AcDbArc
 50
180.0
 51
270.0
  0
LINE
  5
19F
100
AcDbEntity
  8
0
370
    -3
  6
Continuous
100
AcDbLine
 10
113.54163
 20
141.102851
 30
0.0
 11
82.34163
 21
141.102851
 31
0.0
  0
ARC
  5
1A0
100
AcDbEntity
  8
0
370
    -3
  6
Continuous
100
AcDbCircle
 10
112.74163
 20
141.902851
 30
0.0
 40
0.8
100
AcDbArc
 50
270.0
 51
0.0
  0
LINE
  5
1A1
100
AcDbEntity
  8
0
370
    -3
  6
Continuous
100
AcDbLine
 10
114.64163
 20
196.102783
 30
0.0
 11
80.44163
 21
196.102783
 31
0.0
  0
LINE
  5
1A2
100
AcDbEntity
  8
0
370
    -3
  6
Continuous
100
AcDbLine
 10
113.54163
 20
195.702783
 30
0.0
 11
113.54163
 21
141.902851
 31
0.0
  0
ARC
  5
1A3
100
AcDbEntity
  8
0
370
    -3
  6
Continuous
100
AcDbCircle
 10
113.94163
 20
195.702783
 30
0.0
 40
0.4
100
AcDbArc
 50
90.0
 51
180.0
  0
ARC
  5
1A4
100
AcDbEntity
  8
0
370
    -3
  6
Continuous
100
AcDbCircle
 10
114.64163
 20
196.502783
 30
0.0
 40
0.4
100
AcDbArc
 50
270.0
 51
0.0
  0
LINE
  5
1A5
100
AcDbEntity
  8
0
370
    -3
  6
CENTER
100
AcDbLine
 10
97.541232
 20
371.683561
 30
0.0
 11
97.541232
 21
139.154707
 31
0.0
  0
LINE
  5
1A6
100
AcDbEntity
  8
0
370
    -3
  6
Continuous
100
AcDbLine
 10
80.04163
 20
198.102646
 30
0.0
 11
80.04163
 21
196.502783
 31
0.0
  0
LINE
  5
1A7
100
AcDbEntity
  8
0
370
    -3
  6
Continuous
100
AcDbLine
 10
115.04163
 20
198.102646
 30
0.0
 11
115.04163
 21
196.502783
 31
0.0
  0
LINE
  5
1A8
100
AcDbEntity
  8
0
370
    -3
  6
Continuous
100
AcDbLine
 10
126.541232
 20
199.102578
 30
0.0
 11
54.841036
 21
199.102578
 31
0.0
  0
LINE
  5
1A9
100
AcDbEntity
  8
0
370
    -3
  6
Continuous
100
AcDbLine
 10
175.032506
 20
233.102646
 30
0.0
 11
36.541232
 21
233.102646
 31
0.0
  0
LINE
  5
1AA
100
AcDbEntity
  8
0
370
    -3
  6
Continuous
100
AcDbLine
 10
155.814232
 20
225.602578
 30
0.0
 11
46.527596
 21
225.602578
 31
0.0
  0
LINE
  5
1AB
100
AcDbEntity
  8
0
370
    -3
  6
Continuous
100
AcDbLine
 10
42.541232
 20
338.602248
 30
0.0
 11
148.554869
 21
338.602248
 31
0.0
  0
LINE
  5
1AC
100
AcDbEntity
  8
0
370
    -3
  6
Continuous
100
AcDbLine
 10
173.532505
 20
327.102248
 30
0.0
 11
171.891736
 21
233.102646
 31
0.0
  0
LINE
  5
1AD
100
AcDbEntity
  8
0
370
    -3
  6
Continuous
100
AcDbLine
 10
15.041232
 20
327.602248
 30
0.0
 11
16.639278
 21
236.050289
 31
0.0
  0
LINE
  5
1AE
100
AcDbEntity
  8
0
370
    -3
  6
Continuous
100
AcDbLine
 10
171.891736
 20
233.102646
 30
0.0
 11
171.33226
 21
201.050289
 31
0.0
  0
LINE
  5
1AF
100
AcDbEntity
  8
0
370
    -3
  6
CENTER
100
AcDbLine
 10
15.471537
 20
213.102646
 30
0.0
 11
49.018796
 21
213.102646
 31
0.0
  0
LINE
  5
1B0
100
AcDbEntity
  8
0
370
    -3
  6
CENTER
100
AcDbLine
 10
141.939379
 20
213.102646
 30
0.0
 11
172.557909
 21
213.102646
 31
0.0
  0
LINE
  5
1B1
100
AcDbEntity
  8
0
370
    -3
  6
Continuous
100
AcDbLine
 10
126.541232
 20
199.102578
 30
0.0
 11
126.541232
 21
198.402578
 31
0.0
  0
LINE
  5
1B2
100
AcDbEntity
  8
0
370
    -3
  6
Continuous
100
AcDbLine
 10
68.541232
 20
199.102578
 30
0.0
 11
68.541232
 21
198.402578
 31
0.0
  0
LINE
  5
1B3
100
AcDbEntity
  8
0
370
    -3
  6
Continuous
100
AcDbLine
 10
140.241428
 20
199.102578
 30
0.0
 11
126.541232
 21
199.102578
 31
0.0
  0
LINE
  5
1B4
100
AcDbEntity
  8
0
370
    -3
  6
Continuous
100
AcDbLine
 10
15.041232
 20
327.102248
 30
0.0
 11
173.541232
 21
327.102248
 31
0.0
  0
LINE
  5
1B5
100
AcDbEntity
  8
0
370
    -3
  6
Continuous
100
AcDbLine
 10
141.80203
 20
362.623193
 30
0.0
 11
145.600446
 21
341.081304
 31
0.0
  0
LINE
  5
1B6
100
AcDbEntity
  8
0
370
    -3
  6
Continuous
100
AcDbLine
 10
152.541232
 20
338.602248
 30
0.0
 11
148.554869
 21
338.602248
 31
0.0
  0
LINE
  5
1B7
100
AcDbEntity
  8
0
370
    -3
  6
Continuous
100
AcDbLine
 10
155.541232
 20
335.602248
 30
0.0
 11
155.541232
 21
335.102248
 31
0.0
  0
ARC
  5
1B8
100
AcDbEntity
  8
0
370
    -3
  6
Continuous
100
AcDbCircle
 10
152.541232
 20
335.602248
 30
0.0
 40
3.0
100
AcDbArc
 50
0.0
 51
90.0
  0
ARC
  5
1B9
100
AcDbEntity
  8
0
370
    -3
  6
Continuous
100
AcDbCircle
 10
158.541232
 20
335.102248
 30
0.0
 40
3.0
100
AcDbArc
 50
180.0
 51
270.0
  0
ARC
  5
1BA
100
AcDbEntity
  8
0
370
    -3
  6
Continuous
100
AcDbCircle
 10
148.554869
 20
341.602248
 30
0.0
 40
3.0
100
AcDbArc
 50
190.0
 51
270.0
  0
ARC
  5
1BB
100
AcDbEntity
  8
0
370
    -3
  6
Continuous
100
AcDbCircle
 10
148.554869
 20
341.602248
 30
0.0
 40
3.0
100
AcDbArc
 50
190.0
 51
270.0
  0
LINE
  5
1BC
100
AcDbEntity
  8
0
370
    -3
  6
Continuous
100
AcDbLine
 10
68.541232
 20
365.702248
 30
0.0
 11
68.541232
 21
365.102248
 31
0.0
  0
LINE
  5
1BD
100
AcDbEntity
  8
0
370
    -3
  6
Continuous
100
AcDbLine
 10
126.541232
 20
365.702248
 30
0.0
 11
126.541232
 21
365.102248
 31
0.0
  0
LINE
  5
1BE
100
AcDbEntity
  8
0
370
    -3
  6
Continuous
100
AcDbLine
 10
138.847607
 20
365.102248
 30
0.0
 11
126.541232
 21
365.102248
 31
0.0
  0
LINE
  5
1BF
100
AcDbEntity
  8
0
370
    -3
  6
Continuous
100
AcDbLine
 10
56.234858
 20
365.102248
 30
0.0
 11
126.541232
 21
365.102248
 31
0.0
  0
ARC
  5
1C0
100
AcDbEntity
  8
0
370
    -3
  6
Continuous
100
AcDbCircle
 10
138.847607
 20
362.102248
 30
0.0
 40
3.0
100
AcDbArc
 50
10.0
 51
90.0
  0
ARC
  5
1C1
100
AcDbEntity
  8
0
370
    -3
  6
Continuous
100
AcDbCircle
 10
56.234858
 20
362.102248
 30
0.0
 40
3.0
100
AcDbArc
 50
90.0
 51
170.0
  0
LINE
  5
1C2
100
AcDbEntity
  8
0
370
    -3
  6
Continuous
100
AcDbLine
 10
39.541232
 20
335.602248
 30
0.0
 11
39.541232
 21
335.102248
 31
0.0
  0
LINE
  5
1C3
100
AcDbEntity
  8
0
370
    -3
  6
Continuous
100
AcDbLine
 10
126.141232
 20
366.102248
 30
0.0
 11
97.541232
 21
366.102248
 31
0.0
  0
LINE
  5
1C4
100
AcDbEntity
  8
0
370
    -3
  6
Continuous
100
AcDbLine
 10
68.941232
 20
366.102248
 30
0.0
 11
97.541232
 21
366.102248
 31
0.0
  0
LINE
  5
1C5
100
AcDbEntity
  8
0
370
    -3
  6
Continuous
100
AcDbLine
 10
126.141232
 20
366.102248
 30
0.0
 11
126.541232
 21
365.702248
 31
0.0
  0
LINE
  5
1C6
100
AcDbEntity
  8
0
370
    -3
  6
Continuous
100
AcDbLine
 10
68.941232
 20
366.102248
 30
0.0
 11
68.541232
 21
365.702248
 31
0.0
  0
ARC
  5
1C7
100
AcDbEntity
  8
0
370
    -3
  6
Continuous
100
AcDbCircle
 10
42.541232
 20
335.602248
 30
0.0
 40
3.0
100
AcDbArc
 50
90.0
 51
180.0
  0
ARC
  5
1C8
100
AcDbEntity
  8
0
370
    -3
  6
Continuous
100
AcDbCircle
 10
36.541232
 20
335.102248
 30
0.0
 40
3.0
100
AcDbArc
 50
270.0
 51
0.0
  0
ARC
  5
1C9
100
AcDbEntity
  8
0
370
    -3
  6
Continuous
100
AcDbCircle
 10
46.527596
 20
341.602248
 30
0.0
 40
3.0
100
AcDbArc
 50
270.0
 51
350.0
  0
LINE
  5
1CA
100
AcDbEntity
  8
0
370
    -3
  6
Continuous
100
AcDbLine
 10
53.280435
 20
362.623193
 30
0.0
 11
49.482019
 21
341.081304
 31
0.0
  0
ARC
  5
1CB
100
AcDbEntity
  8
0
370
    -3
  6
Continuous
100
AcDbCircle
 10
46.527596
 20
341.602248
 30
0.0
 40
3.0
100
AcDbArc
 50
270.0
 51
350.0
  0
LINE
  5
1CC
100
AcDbEntity
  8
0
370
    -3
  6
Continuous
100
AcDbLine
 10
126.241232
 20
198.102578
 30
0.0
 11
68.841232
 21
198.102578
 31
0.0
  0
LINE
  5
1CD
100
AcDbEntity
  8
0
370
    -3
  6
Continuous
100
AcDbLine
 10
42.541232
 20
225.602578
 30
0.0
 11
46.527596
 21
225.602578
 31
0.0
  0
ARC
  5
1CE
100
AcDbEntity
  8
0
370
    -3
  6
Continuous
100
AcDbCircle
 10
161.814232
 20
230.102646
 30
0.0
 40
3.0
100
AcDbArc
 50
90.0
 51
180.0
  0
ARC
  5
1CF
100
AcDbEntity
  8
0
370
    -3
  6
Continuous
100
AcDbCircle
 10
155.814232
 20
228.602578
 30
0.0
 40
3.0
100
AcDbArc
 50
270.0
 51
0.0
  0
LINE
  5
1D0
100
AcDbEntity
  8
0
370
    -3
  6
Continuous
100
AcDbLine
 10
158.814232
 20
228.602578
 30
0.0
 11
158.814232
 21
230.102646
 31
0.0
  0
ARC
  5
1D1
100
AcDbEntity
  8
0
370
    -3
  6
Continuous
100
AcDbCircle
 10
148.554869
 20
222.602578
 30
0.0
 40
3.0
100
AcDbArc
 50
90.0
 51
170.0
  0
ARC
  5
1D2
100
AcDbEntity
  8
0
370
    -3
  6
Continuous
100
AcDbCircle
 10
46.527596
 20
222.602578
 30
0.0
 40
3.0
100
AcDbArc
 50
10.0
 51
90.0
  0
LINE
  5
1D3
100
AcDbEntity
  8
0
370
    -3
  6
Continuous
100
AcDbLine
 10
53.544926
 20
201.081633
 30
0.0
 11
49.482019
 21
223.123522
 31
0.0
  0
LINE
  5
1D4
100
AcDbEntity
  8
0
370
    -3
  6
Continuous
100
AcDbLine
 10
141.537539
 20
201.081633
 30
0.0
 11
145.600446
 21
223.123522
 31
0.0
  0
LINE
  5
1D5
100
AcDbEntity
  8
0
370
    -3
  6
Continuous
100
AcDbLine
 10
16.639278
 20
236.050289
 30
0.0
 11
17.250205
 21
201.050289
 31
0.0
  0
LINE
  5
1D6
100
AcDbEntity
  8
0
370
    -3
  6
Continuous
100
AcDbLine
 10
36.541232
 20
233.102646
 30
0.0
 11
19.638821
 21
233.102646
 31
0.0
  0
ARC
  5
1D7
100
AcDbEntity
  8
0
370
    -3
  6
Continuous
100
AcDbCircle
 10
19.638821
 20
236.102646
 30
0.0
 40
3.0
100
AcDbArc
 50
181.0
 51
270.0
  0
LINE
  5
1D8
100
AcDbEntity
  8
0
370
    -3
  6
Continuous
100
AcDbLine
 10
39.541232
 20
228.602578
 30
0.0
 11
39.541232
 21
230.102646
 31
0.0
  0
ARC
  5
1D9
100
AcDbEntity
  8
0
370
    -3
  6
Continuous
100
AcDbCircle
 10
42.541232
 20
228.602578
 30
0.0
 40
3.0
100
AcDbArc
 50
180.0
 51
270.0
  0
ARC
  5
1DA
100
AcDbEntity
  8
0
370
    -3
  6
Continuous
100
AcDbCircle
 10
36.541232
 20
230.102646
 30
0.0
 40
3.0
100
AcDbArc
 50
0.0
 51
90.0
  0
LINE
  5
1DB
100
AcDbEntity
  8
0
370
    -3
  6
CENTER
100
AcDbLine
 10
31.541232
 20
368.124796
 30
0.0
 11
31.541232
 21
330.62251
 31
0.0
  0
LINE
  5
1DC
100
AcDbEntity
  8
0
370
    -3
  6
CENTER
100
AcDbLine
 10
157.541232
 20
368.124796
 30
0.0
 11
157.541232
 21
330.356262
 31
0.0
  0
LINE
  5
1DD
100
AcDbEntity
  8
0
370
    -3
  6
CENTER
100
AcDbLine
 10
12.319132
 20
351.102646
 30
0.0
 11
49.285044
 21
351.102646
 31
0.0
  0
CIRCLE
  5
1DE
100
AcDbEntity
  8
0
370
    -3
  6
Continuous
100
AcDbCircle
 10
31.541232
 20
351.102646
 30
0.0
 40
7.0
  0
CIRCLE
  5
1DF
100
AcDbEntity
  8
0
370
    -3
  6
Continuous
100
AcDbCircle
 10
31.541232
 20
213.102646
 30
0.0
 40
7.0
  0
CIRCLE
  5
1E0
100
AcDbEntity
  8
0
370
    -3
  6
Continuous
100
AcDbCircle
 10
157.541232
 20
213.102646
 30
0.0
 40
7.0
  0
CIRCLE
  5
1E1
100
AcDbEntity
  8
0
370
    -3
  6
Continuous
100
AcDbCircle
 10
157.541232
 20
351.102646
 30
0.0
 40
7.0
  0
LINE
  5
1E2
100
AcDbEntity
  8
0
370
    -3
  6
Continuous
100
AcDbLine
 10
18.661351
 20
366.102646
 30
0.0
 11
169.921114
 21
366.102646
 31
0.0
  0
LINE
  5
1E3
100
AcDbEntity
  8
0
370
    -3
  6
Continuous
100
AcDbLine
 10
20.249748
 20
198.102646
 30
0.0
 11
68.841164
 21
198.102646
 31
0.0
  0
ARC
  5
1E4
100
AcDbEntity
  8
0
370
    -3
  6
Continuous
100
AcDbCircle
 10
20.249748
 20
201.102646
 30
0.0
 40
3.0
100
AcDbArc
 50
181.0
 51
270.0
  0
LINE
  5
1E5
100
AcDbEntity
  8
0
370
    -3
  6
Continuous
100
AcDbLine
 10
15.041232
 20
327.602248
 30
0.0
 11
15.661808
 21
363.155003
 31
0.0
  0
ARC
  5
1E6
100
AcDbEntity
  8
0
370
    -3
  6
Continuous
100
AcDbCircle
 10
18.661351
 20
363.102646
 30
0.0
 40
3.0
100
AcDbArc
 50
90.0
 51
179.0
  0
ARC
  5
1E7
100
AcDbEntity
  8
0
370
    -3
  6
Continuous
100
AcDbCircle
 10
168.332717
 20
201.102646
 30
0.0
 40
3.0
100
AcDbArc
 50
270.0
 51
359.0
  0
LINE
  5
1E8
100
AcDbEntity
  8
0
370
    -3
  6
Continuous
100
AcDbLine
 10
173.541232
 20
327.602248
 30
0.0
 11
172.920657
 21
363.155003
 31
0.0
  0
ARC
  5
1E9
100
AcDbEntity
  8
0
370
    -3
  6
Continuous
100
AcDbCircle
 10
169.921114
 20
363.102646
 30
0.0
 40
3.0
100
AcDbArc
 50
1.0
 51
90.0
  0
ARC
  5
1EA
100
AcDbEntity
  8
0
370
    -3
  6
Continuous
100
AcDbCircle
 10
175.53281
 20
327.102248
 30
0.0
 40
2.0
100
AcDbArc
 50
179.0
 51
270.0
  0
LINE
  5
1EB
100
AcDbEntity
  8
0
370
    -3
  6
Continuous
100
AcDbLine
 10
173.541232
 20
327.602248
 30
0.0
 11
173.541232
 21
327.137153
 31
0.0
  0
LINE
  5
1EC
100
AcDbEntity
  8
0
370
    -3
  6
Continuous
100
AcDbLine
 10
126.241301
 20
198.102646
 30
0.0
 11
168.332717
 21
198.102646
 31
0.0
  0
CIRCLE
  5
1ED
100
AcDbEntity
  8
0
370
    -3
  6
CENTER
100
AcDbCircle
 10
31.541232
 20
351.102646
 30
0.0
 40
11.5
  0
CIRCLE
  5
1EE
100
AcDbEntity
  8
0
370
    -3
  6
CENTER
100
AcDbCircle
 10
31.541232
 20
213.102646
 30
0.0
 40
11.5
  0
CIRCLE
  5
1EF
100
AcDbEntity
  8
0
370
    -3
  6
CENTER
100
AcDbCircle
 10
157.541232
 20
213.102646
 30
0.0
 40
11.5
  0
CIRCLE
  5
1F0
100
AcDbEntity
  8
0
370
    -3
  6
CENTER
100
AcDbCircle
 10
157.541232
 20
351.102646
 30
0.0
 40
11.5
  0
LINE
  5
1F1
100
AcDbEntity
  8
0
370
    -3
  6
Continuous
100
AcDbLine
 10
68.541232
 20
198.402578
 30
0.0
 11
68.841232
 21
198.102578
 31
0.0
  0
ARC
  5
1F2
100
AcDbEntity
  8
0
370
    -3
  6
Continuous
100
AcDbCircle
 10
56.499349
 20
201.602578
 30
0.0
 40
3.0
100
AcDbArc
 50
190.0
 51
236.44269
  0
LINE
  5
1F3
100
AcDbEntity
  8
0
370
    -3
  6
Continuous
100
AcDbLine
 10
126.541232
 20
198.402578
 30
0.0
 11
126.241232
 21
198.102578
 31
0.0
  0
ARC
  5
1F4
100
AcDbEntity
  8
0
370
    -3
  6
Continuous
100
AcDbCircle
 10
138.583116
 20
201.602578
 30
0.0
 40
3.0
100
AcDbArc
 50
303.55731
 51
350.0
  0
LINE
  5
1F5
100
AcDbEntity
  8
0
370
    -3
  6
CENTER
100
AcDbLine
 10
31.541232
 20
234.773198
 30
0.0
 11
31.541232
 21
196.196656
 31
0.0
  0
LINE
  5
1F6
100
AcDbEntity
  8
0
370
    -3
  6
CENTER
100
AcDbLine
 10
157.541232
 20
234.773198
 30
0.0
 11
157.541232
 21
195.982282
 31
0.0
  0
LINE
  5
1F7
100
AcDbEntity
  8
0
370
    -3
  6
CENTER
100
AcDbLine
 10
142.471875
 20
351.102646
 30
0.0
 11
175.457928
 21
351.102646
 31
0.0
  0
LINE
  5
1F8
100
AcDbEntity
  8
0
370
    -3
  6
Continuous
100
AcDbLine
 10
175.53281
 20
325.102248
 30
0.0
 11
176.032506
 21
325.102248
 31
0.0
  0
ARC
  5
1F9
100
AcDbEntity
  8
0
370
    -3
  6
Continuous
100
AcDbCircle
 10
176.032506
 20
327.102248
 30
0.0
 40
2.0
100
AcDbArc
 50
270.0
 51
0.0
  0
ARC
  5
1FA
100
AcDbEntity
  8
0
370
    -3
  6
Continuous
100
AcDbCircle
 10
175.032506
 20
230.102646
 30
0.0
 40
3.0
100
AcDbArc
 50
0.0
 51
90.0
  0
LINE
  5
1FB
100
AcDbEntity
  8
0
370
    -3
  6
Continuous
100
AcDbLine
 10
240.041232
 20
228.602646
 30
0.0
 11
240.041232
 21
282.102646
 31
0.0
  0
LINE
  5
1FC
100
AcDbEntity
  8
0
370
    -3
  6
Continuous
100
AcDbLine
 10
240.041232
 20
335.602646
 30
0.0
 11
240.041232
 21
282.102646
 31
0.0
  0
ARC
  5
1FD
100
AcDbEntity
  8
0
370
    -3
  6
Continuous
100
AcDbCircle
 10
189.041232
 20
318.103913
 30
0.0
 40
3.0
100
AcDbArc
 50
0.0
 51
90.0
  0
ARC
  5
1FE
100
AcDbEntity
  8
0
370
    -3
  6
Continuous
100
AcDbCircle
 10
189.041232
 20
337.198953
 30
0.0
 40
3.0
100
AcDbArc
 50
270.0
 51
0.0
  0
ARC
  5
1FF
100
AcDbEntity
  8
0
370
    -3
  6
Continuous
100
AcDbCircle
 10
189.041232
 20
324.287377
 30
0.0
 40
3.0
100
AcDbArc
 50
0.0
 51
90.0
  0
LINE
  5
200
100
AcDbEntity
  8
0
370
    -3
  6
Continuous
100
AcDbLine
 10
192.041232
 20
324.287377
 30
0.0
 11
192.041232
 21
282.102646
 31
0.0
  0
LINE
  5
201
100
AcDbEntity
  8
0
370
    -3
  6
Continuous
100
AcDbLine
 10
189.041232
 20
321.103913
 30
0.0
 11
184.041232
 21
321.103913
 31
0.0
  0
LINE
  5
202
100
AcDbEntity
  8
0
370
    -3
  6
Continuous
100
AcDbLine
 10
189.041232
 20
327.287377
 30
0.0
 11
183.041232
 21
327.287377
 31
0.0
  0
LINE
  5
203
100
AcDbEntity
  8
0
370
    -3
  6
Continuous
100
AcDbLine
 10
189.041232
 20
334.198953
 30
0.0
 11
183.041232
 21
334.198953
 31
0.0
  0
ARC
  5
204
100
AcDbEntity
  8
0
370
    -3
  6
Continuous
100
AcDbCircle
 10
183.041232
 20
322.287377
 30
0.0
 40
5.0
100
AcDbArc
 50
90.0
 51
180.0
  0
ARC
  5
205
100
AcDbEntity
  8
0
370
    -3
  6
Continuous
100
AcDbCircle
 10
183.041232
 20
329.198953
 30
0.0
 40
5.0
100
AcDbArc
 50
90.0
 51
180.0
  0
LINE
  5
206
100
AcDbEntity
  8
0
370
    -3
  6
Continuous
100
AcDbLine
 10
192.041232
 20
302.102646
 30
0.0
 11
198.041232
 21
302.102646
 31
0.0
  0
ARC
  5
207
100
AcDbEntity
  8
0
370
    -3
  6
Continuous
100
AcDbCircle
 10
195.041232
 20
338.602646
 30
0.0
 40
3.0
100
AcDbArc
 50
90.0
 51
180.0
  0
LINE
  5
208
100
AcDbEntity
  8
0
370
    -3
  6
Continuous
100
AcDbLine
 10
192.041232
 20
337.602646
 30
0.0
 11
192.041232
 21
337.198953
 31
0.0
  0
LINE
  5
209
100
AcDbEntity
  8
0
370
    -3
  6
Continuous
100
AcDbLine
 10
192.041232
 20
337.602646
 30
0.0
 11
192.041232
 21
337.198953
 31
0.0
  0
LINE
  5
20A
100
AcDbEntity
  8
0
370
    -3
  6
Continuous
100
AcDbLine
 10
192.041232
 20
337.602646
 30
0.0
 11
192.041232
 21
338.602646
 31
0.0
  0
ARC
  5
20B
100
AcDbEntity
  8
0
370
    -3
  6
Continuous
100
AcDbCircle
 10
181.041232
 20
338.602646
 30
0.0
 40
3.0
100
AcDbArc
 50
90.0
 51
180.0
  0
ARC
  5
20C
100
AcDbEntity
  8
0
370
    -3
  6
Continuous
100
AcDbCircle
 10
181.041232
 20
225.602646
 30
0.0
 40
3.0
100
AcDbArc
 50
180.0
 51
270.0
  0
ARC
  5
20D
100
AcDbEntity
  8
0
370
    -3
  6
Continuous
100
AcDbCircle
 10
189.041232
 20
246.101379
 30
0.0
 40
3.0
100
AcDbArc
 50
270.0
 51
0.0
  0
ARC
  5
20E
100
AcDbEntity
  8
0
370
    -3
  6
Continuous
100
AcDbCircle
 10
189.041232
 20
239.917915
 30
0.0
 40
3.0
100
AcDbArc
 50
270.0
 51
0.0
  0
ARC
  5
20F
100
AcDbEntity
  8
0
370
    -3
  6
Continuous
100
AcDbCircle
 10
189.041232
 20
227.006339
 30
0.0
 40
3.0
100
AcDbArc
 50
0.0
 51
90.0
  0
LINE
  5
210
100
AcDbEntity
  8
0
370
    -3
  6
Continuous
100
AcDbLine
 10
189.041232
 20
243.101379
 30
0.0
 11
184.041232
 21
243.101379
 31
0.0
  0
LINE
  5
211
100
AcDbEntity
  8
0
370
    -3
  6
Continuous
100
AcDbLine
 10
189.041232
 20
230.006339
 30
0.0
 11
183.041232
 21
230.006339
 31
0.0
  0
LINE
  5
212
100
AcDbEntity
  8
0
370
    -3
  6
Continuous
100
AcDbLine
 10
189.041232
 20
236.917915
 30
0.0
 11
183.041232
 21
236.917915
 31
0.0
  0
LINE
  5
213
100
AcDbEntity
  8
0
370
    -3
  6
Continuous
100
AcDbLine
 10
192.041232
 20
262.102646
 30
0.0
 11
198.041232
 21
262.102646
 31
0.0
  0
ARC
  5
214
100
AcDbEntity
  8
0
370
    -3
  6
Continuous
100
AcDbCircle
 10
183.041232
 20
235.006339
 30
0.0
 40
5.0
100
AcDbArc
 50
180.0
 51
270.0
  0
ARC
  5
215
100
AcDbEntity
  8
0
370
    -3
  6
Continuous
100
AcDbCircle
 10
183.041232
 20
241.917915
 30
0.0
 40
5.0
100
AcDbArc
 50
180.0
 51
270.0
  0
LINE
  5
216
100
AcDbEntity
  8
0
370
    -3
  6
Continuous
100
AcDbLine
 10
192.041232
 20
226.602646
 30
0.0
 11
192.041232
 21
227.006339
 31
0.0
  0
LINE
  5
217
100
AcDbEntity
  8
0
370
    -3
  6
Continuous
100
AcDbLine
 10
192.041232
 20
226.602646
 30
0.0
 11
192.041232
 21
225.602646
 31
0.0
  0
ARC
  5
218
100
AcDbEntity
  8
0
370
    -3
  6
Continuous
100
AcDbCircle
 10
195.041232
 20
225.602646
 30
0.0
 40
3.0
100
AcDbArc
 50
180.0
 51
270.0
  0
LINE
  5
219
100
AcDbEntity
  8
0
370
    -3
  6
Continuous
100
AcDbLine
 10
198.032506
 20
222.602646
 30
0.0
 11
181.032506
 21
222.602646
 31
0.0
  0
LINE
  5
21A
100
AcDbEntity
  8
0
370
    -3
  6
Continuous
100
AcDbLine
 10
181.032506
 20
341.602646
 30
0.0
 11
198.032506
 21
341.602646
 31
0.0
  0
ARC
  5
21B
100
AcDbEntity
  8
0
370
    -3
  6
Continuous
100
AcDbCircle
 10
181.032506
 20
225.602646
 30
0.0
 40
3.0
100
AcDbArc
 50
180.0
 51
270.0
  0
ARC
  5
21C
100
AcDbEntity
  8
0
370
    -3
  6
Continuous
100
AcDbCircle
 10
181.032506
 20
338.602646
 30
0.0
 40
3.0
100
AcDbArc
 50
90.0
 51
180.0
  0
LINE
  5
21D
100
AcDbEntity
  8
0
370
    -3
  6
Continuous
100
AcDbLine
 10
178.041232
 20
338.602646
 30
0.0
 11
178.041232
 21
225.602646
 31
0.0
  0
LINE
  5
21E
100
AcDbEntity
  8
0
370
    -3
  6
Continuous
100
AcDbLine
 10
198.041232
 20
340.602646
 30
0.0
 11
198.041232
 21
223.602646
 31
0.0
  0
LINE
  5
21F
100
AcDbEntity
  8
0
370
    -3
  6
Continuous
100
AcDbLine
 10
198.041232
 20
223.602646
 30
0.0
 11
198.041232
 21
282.102646
 31
0.0
  0
LINE
  5
220
100
AcDbEntity
  8
0
370
    -3
  6
Continuous
100
AcDbLine
 10
198.041232
 20
340.602646
 30
0.0
 11
198.041232
 21
282.102646
 31
0.0
  0
LINE
  5
221
100
AcDbEntity
  8
0
370
    -3
  6
Continuous
100
AcDbLine
 10
198.041232
 20
341.602646
 30
0.0
 11
198.041232
 21
282.102646
 31
0.0
  0
LINE
  5
222
100
AcDbEntity
  8
0
370
    -3
  6
Continuous
100
AcDbLine
 10
198.041232
 20
222.602646
 30
0.0
 11
198.041232
 21
282.102646
 31
0.0
  0
LINE
  5
223
100
AcDbEntity
  8
0
370
    -3
  6
Continuous
100
AcDbLine
 10
192.041232
 20
239.917915
 30
0.0
 11
192.041232
 21
282.102646
 31
0.0
  0
LINE
  5
224
100
AcDbEntity
  8
0
370
    -3
  6
Continuous
100
AcDbLine
 10
225.041232
 20
233.602646
 30
0.0
 11
225.041232
 21
266.102646
 31
0.0
  0
ARC
  5
225
100
AcDbEntity
  8
0
370
    -3
  6
Continuous
100
AcDbCircle
 10
202.041232
 20
224.815022
 30
0.0
 40
2.0
100
AcDbArc
 50
273.0
 51
0.0
  0
LINE
  5
226
100
AcDbEntity
  8
0
370
    -3
  6
Continuous
100
AcDbLine
 10
204.041232
 20
224.815022
 30
0.0
 11
204.041232
 21
249.67207
 31
0.0
  0
LINE
  5
227
100
AcDbEntity
  8
0
370
    -3
  6
CENTER
100
AcDbLine
 10
214.041232
 20
272.401867
 30
0.0
 11
214.041232
 21
293.262136
 31
0.0
  0
LINE
  5
228
100
AcDbEntity
  8
0
370
    -3
  6
Continuous
100
AcDbLine
 10
198.041232
 20
222.602646
 30
0.0
 11
205.19824
 21
222.977729
 31
0.0
  0
ARC
  5
229
100
AcDbEntity
  8
0
370
    -3
  6
Continuous
100
AcDbCircle
 10
205.041232
 20
225.973618
 30
0.0
 40
3.0
100
AcDbArc
 50
273.0
 51
0.0
  0
ARC
  5
22A
100
AcDbEntity
  8
0
370
    -3
  6
Continuous
100
AcDbCircle
 10
206.041232
 20
249.67207
 30
0.0
 40
2.0
100
AcDbArc
 50
90.0
 51
180.0
  0
ARC
  5
22B
100
AcDbEntity
  8
0
370
    -3
  6
Continuous
100
AcDbCircle
 10
206.041232
 20
253.67207
 30
0.0
 40
2.0
100
AcDbArc
 50
270.0
 51
0.0
  0
LINE
  5
22C
100
AcDbEntity
  8
0
370
    -3
  6
Continuous
100
AcDbLine
 10
240.041232
 20
228.602646
 30
0.0
 11
211.041232
 21
228.602646
 31
0.0
  0
ARC
  5
22D
100
AcDbEntity
  8
0
370
    -3
  6
Continuous
100
AcDbCircle
 10
230.041232
 20
233.602646
 30
0.0
 40
5.0
100
AcDbArc
 50
180.0
 51
270.0
  0
LINE
  5
22E
100
AcDbEntity
  8
0
370
    -3
  6
Continuous
100
AcDbLine
 10
240.041232
 20
231.102646
 30
0.0
 11
230.041232
 21
231.102646
 31
0.0
  0
ARC
  5
22F
100
AcDbEntity
  8
0
370
    -3
  6
Continuous
100
AcDbCircle
 10
230.041232
 20
236.102646
 30
0.0
 40
5.0
100
AcDbArc
 50
180.0
 51
270.0
  0
ARC
  5
230
100
AcDbEntity
  8
0
370
    -3
  6
Continuous
100
AcDbCircle
 10
211.041232
 20
225.602646
 30
0.0
 40
3.0
100
AcDbArc
 50
90.0
 51
180.0
  0
LINE
  5
231
100
AcDbEntity
  8
0
370
    -3
  6
Continuous
100
AcDbLine
 10
240.041232
 20
269.102646
 30
0.0
 11
203.041232
 21
269.102646
 31
0.0
  0
ARC
  5
232
100
AcDbEntity
  8
0
370
    -3
  6
Continuous
100
AcDbCircle
 10
222.041232
 20
266.102646
 30
0.0
 40
3.0
100
AcDbArc
 50
0.0
 51
90.0
  0
ARC
  5
233
100
AcDbEntity
  8
0
370
    -3
  6
Continuous
100
AcDbCircle
 10
222.041232
 20
248.67207
 30
0.0
 40
3.0
100
AcDbArc
 50
0.0
 51
90.0
  0
LINE
  5
234
100
AcDbEntity
  8
0
370
    -3
  6
Continuous
100
AcDbLine
 10
208.041232
 20
251.67207
 30
0.0
 11
222.041232
 21
251.67207
 31
0.0
  0
LINE
  5
235
100
AcDbEntity
  8
0
370
    -3
  6
Continuous
100
AcDbLine
 10
208.041232
 20
225.602646
 30
0.0
 11
208.041232
 21
269.102646
 31
0.0
  0
LINE
  5
236
100
AcDbEntity
  8
0
370
    -3
  6
Continuous
100
AcDbLine
 10
225.041232
 20
330.602646
 30
0.0
 11
225.041232
 21
298.102646
 31
0.0
  0
ARC
  5
237
100
AcDbEntity
  8
0
370
    -3
  6
Continuous
100
AcDbCircle
 10
202.041232
 20
339.390271
 30
0.0
 40
2.0
100
AcDbArc
 50
0.0
 51
87.0
  0
LINE
  5
238
100
AcDbEntity
  8
0
370
    -3
  6
Continuous
100
AcDbLine
 10
204.041232
 20
339.390271
 30
0.0
 11
204.041232
 21
314.533223
 31
0.0
  0
LINE
  5
239
100
AcDbEntity
  8
0
370
    -3
  6
Continuous
100
AcDbLine
 10
198.041232
 20
341.602646
 30
0.0
 11
205.19824
 21
341.227564
 31
0.0
  0
ARC
  5
23A
100
AcDbEntity
  8
0
370
    -3
  6
Continuous
100
AcDbCircle
 10
205.041232
 20
338.231675
 30
0.0
 40
3.0
100
AcDbArc
 50
0.0
 51
87.0
  0
ARC
  5
23B
100
AcDbEntity
  8
0
370
    -3
  6
Continuous
100
AcDbCircle
 10
206.041232
 20
314.533223
 30
0.0
 40
2.0
100
AcDbArc
 50
180.0
 51
270.0
  0
ARC
  5
23C
100
AcDbEntity
  8
0
370
    -3
  6
Continuous
100
AcDbCircle
 10
206.041232
 20
310.533223
 30
0.0
 40
2.0
100
AcDbArc
 50
0.0
 51
90.0
  0
LINE
  5
23D
100
AcDbEntity
  8
0
370
    -3
  6
Continuous
100
AcDbLine
 10
240.041232
 20
335.602646
 30
0.0
 11
211.041232
 21
335.602646
 31
0.0
  0
ARC
  5
23E
100
AcDbEntity
  8
0
370
    -3
  6
Continuous
100
AcDbCircle
 10
230.041232
 20
330.602646
 30
0.0
 40
5.0
100
AcDbArc
 50
90.0
 51
180.0
  0
LINE
  5
23F
100
AcDbEntity
  8
0
370
    -3
  6
Continuous
100
AcDbLine
 10
240.041232
 20
333.102646
 30
0.0
 11
230.041232
 21
333.102646
 31
0.0
  0
ARC
  5
240
100
AcDbEntity
  8
0
370
    -3
  6
Continuous
100
AcDbCircle
 10
230.041232
 20
328.102646
 30
0.0
 40
5.0
100
AcDbArc
 50
90.0
 51
180.0
  0
ARC
  5
241
100
AcDbEntity
  8
0
370
    -3
  6
Continuous
100
AcDbCircle
 10
211.041232
 20
338.602646
 30
0.0
 40
3.0
100
AcDbArc
 50
180.0
 51
270.0
  0
LINE
  5
242
100
AcDbEntity
  8
0
370
    -3
  6
Continuous
100
AcDbLine
 10
240.041232
 20
295.102646
 30
0.0
 11
203.041232
 21
295.102646
 31
0.0
  0
ARC
  5
243
100
AcDbEntity
  8
0
370
    -3
  6
Continuous
100
AcDbCircle
 10
222.041232
 20
298.102646
 30
0.0
 40
3.0
100
AcDbArc
 50
270.0
 51
0.0
  0
ARC
  5
244
100
AcDbEntity
  8
0
370
    -3
  6
Continuous
100
AcDbCircle
 10
222.041232
 20
315.533223
 30
0.0
 40
3.0
100
AcDbArc
 50
270.0
 51
0.0
  0
LINE
  5
245
100
AcDbEntity
  8
0
370
    -3
  6
Continuous
100
AcDbLine
 10
208.041232
 20
312.533223
 30
0.0
 11
222.041232
 21
312.533223
 31
0.0
  0
LINE
  5
246
100
AcDbEntity
  8
0
370
    -3
  6
Continuous
100
AcDbLine
 10
208.041232
 20
338.602646
 30
0.0
 11
208.041232
 21
295.102646
 31
0.0
  0
ARC
  5
247
100
AcDbEntity
  8
0
370
    -3
  6
Continuous
100
AcDbCircle
 10
203.041232
 20
292.102646
 30
0.0
 40
3.0
100
AcDbArc
 50
90.0
 51
180.0
  0
ARC
  5
248
100
AcDbEntity
  8
0
370
    -3
  6
Continuous
100
AcDbCircle
 10
203.041232
 20
272.102646
 30
0.0
 40
3.0
100
AcDbArc
 50
180.0
 51
270.0
  0
LINE
  5
249
100
AcDbEntity
  8
0
370
    -3
  6
Continuous
100
AcDbLine
 10
200.041232
 20
292.102646
 30
0.0
 11
200.041232
 21
272.102646
 31
0.0
  0
LINE
  5
24A
100
AcDbEntity
  8
0
370
    -3
  6
Continuous
100
AcDbLine
 10
198.041232
 20
222.602646
 30
0.0
 11
198.041232
 21
341.602646
 31
0.0
  0
INSERT
  5
25A
100
AcDbEntity
  8
0
100
AcDbBlockReference
  2
ZU_SYM__USERS_HOME_SYMBOL_STD_SYM_B01_-1
 10
204.04124
 20
237.908473
 30
0.0
 41
-1.0
  0
INSERT
  5
26A
100
AcDbEntity
  8
0
100
AcDbBlockReference
  2
ZU_SYM__USERS_HOME_SYMBOL_STD_SYM_B01_00002-1
 10
204.04124
 20
326.29682
 30
0.0
 50
180.0
  0
LINE
  5
26B
100
AcDbEntity
  8
0
370
    -3
  6
Continuous
100
AcDbLine
 10
230.21573
 20
16.035667
 30
0.0
 11
240.041248
 21
15.692552
 31
0.0
  0
ARC
  5
26C
100
AcDbEntity
  8
0
370
    -3
  6
Continuous
100
AcDbCircle
 10
230.041232
 20
11.038713
 30
0.0
 40
5.0
100
AcDbArc
 50
88.0
 51
180.0
  0
LINE
  5
26D
100
AcDbEntity
  8
0
370
    -3
  6
Continuous
100
AcDbLine
 10
240.041232
 20
-36.807448
 30
0.0
 11
240.041232
 21
15.692552
 31
0.0
  0
LINE
  5
26E
100
AcDbEntity
  8
0
370
    -3
  6
Continuous
100
AcDbLine
 10
225.45397
 20
-89.570797
 30
0.0
 11
240.041232
 21
-89.316175
 31
0.0
  0
LINE
  5
26F
100
AcDbEntity
  8
0
370
    -3
  6
Continuous
100
AcDbLine
 10
240.041232
 20
-56.807448
 30
0.0
 11
211.041232
 21
-56.807448
 31
0.0
  0
LINE
  5
270
100
AcDbEntity
  8
0
370
    -3
  6
Continuous
100
AcDbLine
 10
198.041232
 20
-126.307448
 30
0.0
 11
198.041232
 21
-9.307448
 31
0.0
  0
ARC
  5
271
100
AcDbEntity
  8
0
370
    -3
  6
Continuous
100
AcDbCircle
 10
217.541232
 20
-98.805457
 30
0.0
 40
3.0
100
AcDbArc
 50
273.0
 51
0.0
  0
LINE
  5
272
100
AcDbEntity
  8
0
370
    -3
  6
Continuous
100
AcDbLine
 10
217.69824
 20
-101.801346
 30
0.0
 11
212.779553
 21
-102.059123
 31
0.0
  0
LINE
  5
273
100
AcDbEntity
  8
0
370
    -3
  6
Continuous
100
AcDbLine
 10
220.541232
 20
-98.805457
 30
0.0
 11
220.541232
 21
-94.570036
 31
0.0
  0
ARC
  5
274
100
AcDbEntity
  8
0
370
    -3
  6
Continuous
100
AcDbCircle
 10
213.041232
 20
-107.052271
 30
0.0
 40
5.0
100
AcDbArc
 50
93.0
 51
180.0
  0
ARC
  5
275
100
AcDbEntity
  8
0
370
    -3
  6
Continuous
100
AcDbCircle
 10
225.541232
 20
-94.570036
 30
0.0
 40
5.0
100
AcDbArc
 50
91.0
 51
180.0
  0
LINE
  5
276
100
AcDbEntity
  8
0
370
    -3
  6
Continuous
100
AcDbLine
 10
217.194518
 20
-103.073869
 30
0.0
 11
208.041232
 21
-123.307448
 31
0.0
  0
ARC
  5
277
100
AcDbEntity
  8
0
370
    -3
  6
Continuous
100
AcDbCircle
 10
211.040741
 20
-123.955543
 30
0.0
 40
3.0
100
AcDbArc
 50
155.65891
 51
179.196663
  0
ARC
  5
278
100
AcDbEntity
  8
0
370
    -3
  6
Continuous
100
AcDbCircle
 10
219.927842
 20
-104.310373
 30
0.0
 40
3.0
100
AcDbArc
 50
113.438735
 51
155.65891
  0
ARC
  5
279
100
AcDbEntity
  8
0
370
    -3
  6
Continuous
100
AcDbCircle
 10
211.041232
 20
-59.807448
 30
0.0
 40
3.0
100
AcDbArc
 50
90.0
 51
180.0
  0
LINE
  5
27A
100
AcDbEntity
  8
0
370
    -3
  6
Continuous
100
AcDbLine
 10
208.041232
 20
-87.807448
 30
0.0
 11
198.041232
 21
-87.807448
 31
0.0
  0
LINE
  5
27B
100
AcDbEntity
  8
0
370
    -3
  6
Continuous
100
AcDbLine
 10
208.041232
 20
-123.885441
 30
0.0
 11
208.041232
 21
-37.40634
 31
0.0
  0
ARC
  5
27C
100
AcDbEntity
  8
0
370
    -3
  6
Continuous
100
AcDbCircle
 10
207.041232
 20
-104.001622
 30
0.0
 40
1.0
100
AcDbArc
 50
270.0
 51
0.0
  0
LINE
  5
27D
100
AcDbEntity
  8
0
370
    -3
  6
Continuous
100
AcDbLine
 10
207.041232
 20
-105.001622
 30
0.0
 11
205.041232
 21
-105.001622
 31
0.0
  0
ARC
  5
27E
100
AcDbEntity
  8
0
370
    -3
  6
Continuous
100
AcDbCircle
 10
205.041232
 20
-106.001622
 30
0.0
 40
1.0
100
AcDbArc
 50
90.0
 51
180.0
  0
LINE
  5
27F
100
AcDbEntity
  8
0
370
    -3
  6
Continuous
100
AcDbLine
 10
204.041232
 20
-124.095072
 30
0.0
 11
204.041232
 21
-106.001622
 31
0.0
  0
INSERT
  5
28F
100
AcDbEntity
  8
0
100
AcDbBlockReference
  2
ZU_SYM__USERS_HOME_SYMBOL_STD_SYM_B01_00003-1
 10
204.041232
 20
-112.001622
 30
0.0
 41
-1.0
  0
LINE
  5
290
100
AcDbEntity
  8
0
370
    -3
  6
Continuous
100
AcDbLine
 10
198.041232
 20
-8.307448
 30
0.0
 11
198.041232
 21
-67.807448
 31
0.0
  0
LINE
  5
291
100
AcDbEntity
  8
0
370
    -3
  6
Continuous
100
AcDbLine
 10
198.041232
 20
-127.307448
 30
0.0
 11
198.041232
 21
-67.807448
 31
0.0
  0
LINE
  5
292
100
AcDbEntity
  8
0
370
    -3
  6
Continuous
100
AcDbLine
 10
192.041232
 20
-87.807448
 30
0.0
 11
198.041232
 21
-87.807448
 31
0.0
  0
LINE
  5
293
100
AcDbEntity
  8
0
370
    -3
  6
Continuous
100
AcDbLine
 10
198.041232
 20
-9.359856
 30
0.0
 11
198.041232
 21
-126.25504
 31
0.0
  0
LINE
  5
294
100
AcDbEntity
  8
0
370
    -3
  6
Continuous
100
AcDbLine
 10
198.041232
 20
-9.309886
 30
0.0
 11
198.041232
 21
-126.307448
 31
0.0
  0
LINE
  5
295
100
AcDbEntity
  8
0
370
    -3
  6
Continuous
100
AcDbLine
 10
198.041232
 20
-9.316175
 30
0.0
 11
198.041232
 21
-67.807448
 31
0.0
  0
LINE
  5
296
100
AcDbEntity
  8
0
370
    -3
  6
Continuous
100
AcDbLine
 10
198.041232
 20
-126.29872
 30
0.0
 11
198.041232
 21
-67.807448
 31
0.0
  0
LINE
  5
297
100
AcDbEntity
  8
0
370
    -3
  6
Continuous
100
AcDbLine
 10
198.041232
 20
-127.307448
 30
0.0
 11
198.041232
 21
-67.807448
 31
0.0
  0
LINE
  5
298
100
AcDbEntity
  8
0
370
    -3
  6
Continuous
100
AcDbLine
 10
198.041232
 20
-8.307448
 30
0.0
 11
198.041232
 21
-67.807448
 31
0.0
  0
LINE
  5
299
100
AcDbEntity
  8
0
370
    -3
  6
Continuous
100
AcDbLine
 10
198.041232
 20
-67.807448
 30
0.0
 11
198.041232
 21
-8.333634
 31
0.0
  0
LINE
  5
29A
100
AcDbEntity
  8
0
370
    -3
  6
Continuous
100
AcDbLine
 10
198.041232
 20
-67.807448
 30
0.0
 11
198.041232
 21
-127.281262
 31
0.0
  0
LINE
  5
29B
100
AcDbEntity
  8
0
370
    -3
  6
Continuous
100
AcDbLine
 10
198.041232
 20
-67.807448
 30
0.0
 11
198.041232
 21
-8.307448
 31
0.0
  0
LINE
  5
29C
100
AcDbEntity
  8
0
370
    -3
  6
Continuous
100
AcDbLine
 10
198.041232
 20
-67.807448
 30
0.0
 11
198.041232
 21
-127.307448
 31
0.0
  0
LINE
  5
29D
100
AcDbEntity
  8
0
370
    -3
  6
Continuous
100
AcDbLine
 10
198.041232
 20
-127.307448
 30
0.0
 11
198.041232
 21
-67.807448
 31
0.0
  0
LINE
  5
29E
100
AcDbEntity
  8
0
370
    -3
  6
Continuous
100
AcDbLine
 10
198.041232
 20
-8.307448
 30
0.0
 11
198.041232
 21
-67.807448
 31
0.0
  0
LINE
  5
29F
100
AcDbEntity
  8
0
370
    -3
  6
Continuous
100
AcDbLine
 10
198.041232
 20
-126.307448
 30
0.0
 11
198.041232
 21
-9.307448
 31
0.0
  0
LINE
  5
2A0
100
AcDbEntity
  8
0
370
    -3
  6
Continuous
100
AcDbLine
 10
198.041232
 20
-67.807448
 30
0.0
 11
198.041232
 21
-9.307448
 31
0.0
  0
LINE
  5
2A1
100
AcDbEntity
  8
0
370
    -3
  6
Continuous
100
AcDbLine
 10
198.041232
 20
-8.307448
 30
0.0
 11
198.041232
 21
-67.807448
 31
0.0
  0
LINE
  5
2A2
100
AcDbEntity
  8
0
370
    -3
  6
Continuous
100
AcDbLine
 10
198.041232
 20
-127.307448
 30
0.0
 11
198.041232
 21
-67.807448
 31
0.0
  0
LINE
  5
2A3
100
AcDbEntity
  8
0
370
    -3
  6
Continuous
100
AcDbLine
 10
198.041232
 20
-9.359856
 30
0.0
 11
198.041232
 21
-126.25504
 31
0.0
  0
LINE
  5
2A4
100
AcDbEntity
  8
0
370
    -3
  6
Continuous
100
AcDbLine
 10
198.041232
 20
-9.309886
 30
0.0
 11
198.041232
 21
-126.307448
 31
0.0
  0
LINE
  5
2A5
100
AcDbEntity
  8
0
370
    -3
  6
Continuous
100
AcDbLine
 10
198.041232
 20
-9.316175
 30
0.0
 11
198.041232
 21
-67.807448
 31
0.0
  0
LINE
  5
2A6
100
AcDbEntity
  8
0
370
    -3
  6
Continuous
100
AcDbLine
 10
198.041232
 20
-126.29872
 30
0.0
 11
198.041232
 21
-67.807448
 31
0.0
  0
LINE
  5
2A7
100
AcDbEntity
  8
0
370
    -3
  6
Continuous
100
AcDbLine
 10
198.041232
 20
-127.307448
 30
0.0
 11
198.041232
 21
-67.807448
 31
0.0
  0
LINE
  5
2A8
100
AcDbEntity
  8
0
370
    -3
  6
Continuous
100
AcDbLine
 10
198.041232
 20
-8.307448
 30
0.0
 11
198.041232
 21
-67.807448
 31
0.0
  0
LINE
  5
2A9
100
AcDbEntity
  8
0
370
    -3
  6
Continuous
100
AcDbLine
 10
198.041232
 20
-67.807448
 30
0.0
 11
198.041232
 21
-8.333634
 31
0.0
  0
LINE
  5
2AA
100
AcDbEntity
  8
0
370
    -3
  6
Continuous
100
AcDbLine
 10
198.041232
 20
-67.807448
 30
0.0
 11
198.041232
 21
-127.281262
 31
0.0
  0
LINE
  5
2AB
100
AcDbEntity
  8
0
370
    -3
  6
Continuous
100
AcDbLine
 10
198.041232
 20
-126.307448
 30
0.0
 11
198.041232
 21
-9.307448
 31
0.0
  0
LINE
  5
2AC
100
AcDbEntity
  8
0
370
    -3
  6
Continuous
100
AcDbLine
 10
198.041232
 20
-67.807448
 30
0.0
 11
198.041232
 21
-9.307448
 31
0.0
  0
LINE
  5
2AD
100
AcDbEntity
  8
0
370
    -3
  6
Continuous
100
AcDbLine
 10
198.041232
 20
-67.807448
 30
0.0
 11
198.041232
 21
-8.307448
 31
0.0
  0
LINE
  5
2AE
100
AcDbEntity
  8
0
370
    -3
  6
Continuous
100
AcDbLine
 10
198.041232
 20
-67.807448
 30
0.0
 11
198.041232
 21
-127.307448
 31
0.0
  0
LINE
  5
2AF
100
AcDbEntity
  8
0
370
    -3
  6
Continuous
100
AcDbLine
 10
198.041232
 20
-127.307448
 30
0.0
 11
198.041232
 21
-67.807448
 31
0.0
  0
LINE
  5
2B0
100
AcDbEntity
  8
0
370
    -3
  6
Continuous
100
AcDbLine
 10
198.041232
 20
-8.307448
 30
0.0
 11
198.041232
 21
-67.807448
 31
0.0
  0
LINE
  5
2B1
100
AcDbEntity
  8
0
370
    -3
  6
Continuous
100
AcDbLine
 10
198.041232
 20
-126.307448
 30
0.0
 11
198.041232
 21
-9.307448
 31
0.0
  0
LINE
  5
2B2
100
AcDbEntity
  8
0
370
    -3
  6
Continuous
100
AcDbLine
 10
198.041232
 20
-67.807448
 30
0.0
 11
198.041232
 21
-9.307448
 31
0.0
  0
LINE
  5
2B3
100
AcDbEntity
  8
0
370
    -3
  6
Continuous
100
AcDbLine
 10
198.041232
 20
-8.307448
 30
0.0
 11
198.041232
 21
-67.807448
 31
0.0
  0
LINE
  5
2B4
100
AcDbEntity
  8
0
370
    -3
  6
Continuous
100
AcDbLine
 10
198.041232
 20
-127.307448
 30
0.0
 11
198.041232
 21
-67.807448
 31
0.0
  0
LINE
  5
2B5
100
AcDbEntity
  8
0
370
    -3
  6
Continuous
100
AcDbLine
 10
198.041232
 20
-9.359856
 30
0.0
 11
198.041232
 21
-126.25504
 31
0.0
  0
LINE
  5
2B6
100
AcDbEntity
  8
0
370
    -3
  6
Continuous
100
AcDbLine
 10
198.041232
 20
-9.309886
 30
0.0
 11
198.041232
 21
-126.307448
 31
0.0
  0
LINE
  5
2B7
100
AcDbEntity
  8
0
370
    -3
  6
Continuous
100
AcDbLine
 10
198.041232
 20
-9.316175
 30
0.0
 11
198.041232
 21
-67.807448
 31
0.0
  0
LINE
  5
2B8
100
AcDbEntity
  8
0
370
    -3
  6
Continuous
100
AcDbLine
 10
198.041232
 20
-126.29872
 30
0.0
 11
198.041232
 21
-67.807448
 31
0.0
  0
LINE
  5
2B9
100
AcDbEntity
  8
0
370
    -3
  6
Continuous
100
AcDbLine
 10
198.041232
 20
-127.307448
 30
0.0
 11
198.041232
 21
-67.807448
 31
0.0
  0
LINE
  5
2BA
100
AcDbEntity
  8
0
370
    -3
  6
Continuous
100
AcDbLine
 10
198.041232
 20
-8.307448
 30
0.0
 11
198.041232
 21
-67.807448
 31
0.0
  0
LINE
  5
2BB
100
AcDbEntity
  8
0
370
    -3
  6
Continuous
100
AcDbLine
 10
198.041232
 20
-67.807448
 30
0.0
 11
198.041232
 21
-8.333634
 31
0.0
  0
LINE
  5
2BC
100
AcDbEntity
  8
0
370
    -3
  6
Continuous
100
AcDbLine
 10
198.041232
 20
-67.807448
 30
0.0
 11
198.041232
 21
-127.281262
 31
0.0
  0
LINE
  5
2BD
100
AcDbEntity
  8
0
370
    -3
  6
Continuous
100
AcDbLine
 10
240.041232
 20
-36.807448
 30
0.0
 11
240.041232
 21
-89.307448
 31
0.0
  0
LINE
  5
2BE
100
AcDbEntity
  8
0
370
    -3
  6
Continuous
100
AcDbLine
 10
240.041232
 20
-36.807448
 30
0.0
 11
240.041232
 21
-89.307448
 31
0.0
  0
LINE
  5
2BF
100
AcDbEntity
  8
0
370
    -3
  6
Continuous
100
AcDbLine
 10
240.041232
 20
-36.807448
 30
0.0
 11
240.041232
 21
-89.307448
 31
0.0
  0
LINE
  5
2C0
100
AcDbEntity
  8
0
370
    -3
  6
Continuous
100
AcDbLine
 10
240.041232
 20
-90.307448
 30
0.0
 11
240.041232
 21
-36.807448
 31
0.0
  0
LINE
  5
2C1
100
AcDbEntity
  8
0
370
    -3
  6
Continuous
100
AcDbLine
 10
240.041232
 20
-36.807448
 30
0.0
 11
240.041232
 21
-89.307448
 31
0.0
  0
LINE
  5
2C2
100
AcDbEntity
  8
0
370
    -3
  6
CENTER
100
AcDbLine
 10
229.002946
 20
-36.807448
 30
0.0
 11
342.5
 21
-36.807448
 31
0.0
  0
ARC
  5
2C3
100
AcDbEntity
  8
0
370
    -3
  6
Continuous
100
AcDbCircle
 10
202.041232
 20
-124.095072
 30
0.0
 40
2.0
100
AcDbArc
 50
273.0
 51
0.0
  0
LINE
  5
2C4
100
AcDbEntity
  8
0
370
    -3
  6
Continuous
100
AcDbLine
 10
240.041232
 20
-16.807448
 30
0.0
 11
225.041232
 21
-16.807448
 31
0.0
  0
LINE
  5
2C5
100
AcDbEntity
  8
0
370
    -3
  6
Continuous
100
AcDbLine
 10
204.041232
 20
-31.749486
 30
0.0
 11
204.041232
 21
-11.100562
 31
0.0
  0
LINE
  5
2C6
100
AcDbEntity
  8
0
370
    -3
  6
Continuous
100
AcDbLine
 10
209.041232
 20
-36.749486
 30
0.0
 11
220.041232
 21
-36.749486
 31
0.0
  0
ARC
  5
2C7
100
AcDbEntity
  8
0
370
    -3
  6
Continuous
100
AcDbCircle
 10
202.041232
 20
-11.100562
 30
0.0
 40
2.0
100
AcDbArc
 50
0.0
 51
93.0
  0
ARC
  5
2C8
100
AcDbEntity
  8
0
370
    -3
  6
Continuous
100
AcDbCircle
 10
220.041232
 20
-31.749486
 30
0.0
 40
5.0
100
AcDbArc
 50
270.0
 51
0.0
  0
LINE
  5
2C9
100
AcDbEntity
  8
0
370
    -3
  6
Continuous
100
AcDbLine
 10
225.041232
 20
-31.749486
 30
0.0
 11
225.041232
 21
11.038713
 31
0.0
  0
LINE
  5
2CA
100
AcDbEntity
  8
0
370
    -3
  6
Continuous
100
AcDbLine
 10
198.041232
 20
-9.307448
 30
0.0
 11
220.302912
 21
-8.140763
 31
0.0
  0
LINE
  5
2CB
100
AcDbEntity
  8
0
370
    -3
  6
Continuous
100
AcDbLine
 10
198.041232
 20
-126.307448
 30
0.0
 11
206.145904
 21
-125.8827
 31
0.0
  0
LINE
  5
2CC
100
AcDbEntity
  8
0
370
    -3
  6
Continuous
100
AcDbLine
 10
202.884225
 20
5.341547
 30
0.0
 11
220.302912
 21
6.254422
 31
0.0
  0
ARC
  5
2CD
100
AcDbEntity
  8
0
370
    -3
  6
Continuous
100
AcDbCircle
 10
203.041232
 20
2.345658
 30
0.0
 40
3.0
100
AcDbArc
 50
93.0
 51
180.0
  0
LINE
  5
2CE
100
AcDbEntity
  8
0
370
    -3
  6
Continuous
100
AcDbLine
 10
200.041232
 20
-7.307448
 30
0.0
 11
200.041232
 21
2.345658
 31
0.0
  0
LINE
  5
2CF
100
AcDbEntity
  8
0
370
    -3
  6
Continuous
100
AcDbLine
 10
224.541261
 20
-6.307448
 30
0.0
 11
224.541262
 21
-6.307448
 31
0.0
  0
ARC
  5
2D0
100
AcDbEntity
  8
0
370
    -3
  6
Continuous
100
AcDbCircle
 10
198.041232
 20
-7.307448
 30
0.0
 40
2.0
100
AcDbArc
 50
270.0
 51
0.0
  0
ARC
  5
2D1
100
AcDbEntity
  8
0
370
    -3
  6
Continuous
100
AcDbCircle
 10
206.041232
 20
-123.885441
 30
0.0
 40
2.0
100
AcDbArc
 50
273.0
 51
0.0
  0
ARC
  5
2D2
100
AcDbEntity
  8
0
370
    -3
  6
Continuous
100
AcDbCircle
 10
220.041232
 20
-3.147615
 30
0.0
 40
5.0
100
AcDbArc
 50
273.0
 51
0.0
  0
ARC
  5
2D3
100
AcDbEntity
  8
0
370
    -3
  6
Continuous
100
AcDbCircle
 10
220.041232
 20
11.247569
 30
0.0
 40
5.0
100
AcDbArc
 50
273.0
 51
0.0
  0
LINE
  5
2D4
100
AcDbEntity
  8
0
370
    -3
  6
CENTER
100
AcDbLine
 10
214.041232
 20
-16.334599
 30
0.0
 11
214.041232
 21
7.756672
 31
0.0
  0
LINE
  5
2D5
100
AcDbEntity
  8
0
370
    -3
  6
Continuous
100
AcDbLine
 10
208.041232
 20
-47.807448
 30
0.0
 11
198.041232
 21
-47.807448
 31
0.0
  0
ARC
  5
2D6
100
AcDbEntity
  8
0
370
    -3
  6
Continuous
100
AcDbCircle
 10
209.041232
 20
-31.749486
 30
0.0
 40
5.0
100
AcDbArc
 50
180.0
 51
270.0
  0
ARC
  5
2D7
100
AcDbEntity
  8
0
370
    -3
  6
Continuous
100
AcDbCircle
 10
207.041232
 20
-37.40634
 30
0.0
 40
1.0
100
AcDbArc
 50
0.0
 51
70.528779
  0
INSERT
  5
2E7
100
AcDbEntity
  8
0
100
AcDbBlockReference
  2
ZU_SYM__USERS_HOME_SYMBOL_STD_SYM_B01_00004-1
 10
204.041232
 20
-23.613274
 30
0.0
 41
-1.0
  0
LINE
  5
2E8
100
AcDbEntity
  8
0
370
    -3
  6
Continuous
100
AcDbLine
 10
15.041232
 20
-171.690448
 30
0.0
 11
173.541232
 21
-171.690448
 31
0.0
  0
ARC
  5
2E9
100
AcDbEntity
  8
0
370
    -3
  6
Continuous
100
AcDbCircle
 10
189.041232
 20
-31.806181
 30
0.0
 40
3.0
100
AcDbArc
 50
0.0
 51
90.0
  0
ARC
  5
2EA
100
AcDbEntity
  8
0
370
    -3
  6
Continuous
100
AcDbCircle
 10
189.041232
 20
-25.622717
 30
0.0
 40
3.0
100
AcDbArc
 50
360.0
 51
90.0
  0
ARC
  5
2EB
100
AcDbEntity
  8
0
370
    -3
  6
Continuous
100
AcDbCircle
 10
189.041232
 20
-12.711141
 30
0.0
 40
3.0
100
AcDbArc
 50
270.0
 51
360.0
  0
LINE
  5
2EC
100
AcDbEntity
  8
0
370
    -3
  6
Continuous
100
AcDbLine
 10
192.041232
 20
-12.307448
 30
0.0
 11
192.041232
 21
-12.711141
 31
0.0
  0
LINE
  5
2ED
100
AcDbEntity
  8
0
370
    -3
  6
Continuous
100
AcDbLine
 10
192.041232
 20
-25.622717
 30
0.0
 11
192.041232
 21
-67.807448
 31
0.0
  0
LINE
  5
2EE
100
AcDbEntity
  8
0
370
    -3
  6
Continuous
100
AcDbLine
 10
192.041232
 20
-12.307448
 30
0.0
 11
192.041232
 21
-11.307448
 31
0.0
  0
ARC
  5
2EF
100
AcDbEntity
  8
0
370
    -3
  6
Continuous
100
AcDbCircle
 10
195.041232
 20
-11.307448
 30
0.0
 40
3.0
100
AcDbArc
 50
90.0
 51
180.0
  0
ARC
  5
2F0
100
AcDbEntity
  8
0
370
    -3
  6
Continuous
100
AcDbCircle
 10
189.041232
 20
-103.808715
 30
0.0
 40
3.0
100
AcDbArc
 50
270.0
 51
0.0
  0
ARC
  5
2F1
100
AcDbEntity
  8
0
370
    -3
  6
Continuous
100
AcDbCircle
 10
189.041232
 20
-122.903755
 30
0.0
 40
3.0
100
AcDbArc
 50
0.0
 51
90.0
  0
ARC
  5
2F2
100
AcDbEntity
  8
0
370
    -3
  6
Continuous
100
AcDbCircle
 10
189.041232
 20
-109.992179
 30
0.0
 40
3.0
100
AcDbArc
 50
270.0
 51
0.0
  0
ARC
  5
2F3
100
AcDbEntity
  8
0
370
    -3
  6
Continuous
100
AcDbCircle
 10
195.041232
 20
-124.307448
 30
0.0
 40
3.0
100
AcDbArc
 50
180.0
 51
270.0
  0
LINE
  5
2F4
100
AcDbEntity
  8
0
370
    -3
  6
Continuous
100
AcDbLine
 10
192.041232
 20
-109.992179
 30
0.0
 11
192.041232
 21
-67.807448
 31
0.0
  0
LINE
  5
2F5
100
AcDbEntity
  8
0
370
    -3
  6
Continuous
100
AcDbLine
 10
192.041232
 20
-123.307448
 30
0.0
 11
192.041232
 21
-122.903755
 31
0.0
  0
LINE
  5
2F6
100
AcDbEntity
  8
0
370
    -3
  6
Continuous
100
AcDbLine
 10
192.041232
 20
-123.307448
 30
0.0
 11
192.041232
 21
-122.903755
 31
0.0
  0
LINE
  5
2F7
100
AcDbEntity
  8
0
370
    -3
  6
Continuous
100
AcDbLine
 10
192.041232
 20
-123.307448
 30
0.0
 11
192.041232
 21
-124.307448
 31
0.0
  0
LINE
  5
2F8
100
AcDbEntity
  8
0
370
    -3
  6
Continuous
100
AcDbLine
 10
192.041232
 20
-47.807448
 30
0.0
 11
198.041232
 21
-47.807448
 31
0.0
  0
LINE
  5
2F9
100
AcDbEntity
  8
0
370
    -3
  6
Continuous
100
AcDbLine
 10
198.141232
 20
-9.307448
 30
0.0
 11
198.141232
 21
-9.307448
 31
0.0
  0
LINE
  5
2FA
100
AcDbEntity
  8
0
370
    -3
  6
Continuous
100
AcDbLine
 10
198.041232
 20
-126.307451
 30
0.0
 11
198.041232
 21
-124.057451
 31
0.0
  0
LINE
  5
2FB
100
AcDbEntity
  8
0
370
    -3
  6
Continuous
100
AcDbLine
 10
198.041738
 20
-124.057448
 30
0.0
 11
198.041738
 21
-126.225409
 31
0.0
  0
LINE
  5
2FC
100
AcDbEntity
  8
0
370
    -3
  6
Continuous
100
AcDbLine
 10
198.041738
 20
-126.307448
 30
0.0
 11
198.041738
 21
-124.057448
 31
0.0
  0
LINE
  5
2FD
100
AcDbEntity
  8
0
370
    -3
  6
Continuous
100
AcDbLine
 10
198.041738
 20
-9.307448
 30
0.0
 11
198.041738
 21
-11.557448
 31
0.0
  0
ARC
  5
2FE
100
AcDbEntity
  8
0
370
    -3
  6
Continuous
100
AcDbCircle
 10
170.541232
 20
-156.690448
 30
0.0
 40
3.0
100
AcDbArc
 50
0.0
 51
90.0
  0
LINE
  5
2FF
100
AcDbEntity
  8
0
370
    -3
  6
Continuous
100
AcDbLine
 10
173.541232
 20
-171.690448
 30
0.0
 11
173.541232
 21
-129.822821
 31
0.0
  0
LINE
  5
300
100
AcDbEntity
  8
0
370
    -3
  6
Continuous
100
AcDbLine
 10
18.041232
 20
-153.690448
 30
0.0
 11
170.541232
 21
-153.690448
 31
0.0
  0
LINE
  5
301
100
AcDbEntity
  8
0
370
    -3
  6
Continuous
100
AcDbLine
 10
171.720232
 20
3.694552
 30
0.0
 11
171.720304
 21
3.694552
 31
0.0
  0
LINE
  5
302
100
AcDbEntity
  8
0
370
    -3
  6
Continuous
100
AcDbLine
 10
171.720232
 20
3.692959
 30
0.0
 11
171.720304
 21
3.692959
 31
0.0
  0
LINE
  5
303
100
AcDbEntity
  8
0
370
    -3
  6
Continuous
100
AcDbLine
 10
176.541232
 20
-127.307448
 30
0.0
 11
198.041232
 21
-127.307448
 31
0.0
  0
LINE
  5
304
100
AcDbEntity
  8
0
370
    -3
  6
Continuous
100
AcDbLine
 10
176.541232
 20
-8.307448
 30
0.0
 11
198.041232
 21
-8.307448
 31
0.0
  0
ARC
  5
305
100
AcDbEntity
  8
0
370
    -3
  6
Continuous
100
AcDbCircle
 10
176.541232
 20
-5.307448
 30
0.0
 40
3.0
100
AcDbArc
 50
180.0
 51
270.0
  0
ARC
  5
306
100
AcDbEntity
  8
0
370
    -3
  6
Continuous
100
AcDbCircle
 10
176.541232
 20
-130.307448
 30
0.0
 40
3.0
100
AcDbArc
 50
90.0
 51
180.0
  0
ARC
  5
307
100
AcDbEntity
  8
0
370
    -3
  6
Continuous
100
AcDbCircle
 10
181.041232
 20
-124.307448
 30
0.0
 40
3.0
100
AcDbArc
 50
180.0
 51
270.0
  0
ARC
  5
308
100
AcDbEntity
  8
0
370
    -3
  6
Continuous
100
AcDbCircle
 10
181.041232
 20
-11.307448
 30
0.0
 40
3.0
100
AcDbArc
 50
90.0
 51
180.0
  0
ARC
  5
309
100
AcDbEntity
  8
0
370
    -3
  6
Continuous
100
AcDbCircle
 10
183.041232
 20
-114.903755
 30
0.0
 40
5.0
100
AcDbArc
 50
180.0
 51
270.0
  0
ARC
  5
30A
100
AcDbEntity
  8
0
370
    -3
  6
Continuous
100
AcDbCircle
 10
183.041232
 20
-107.992179
 30
0.0
 40
5.0
100
AcDbArc
 50
180.0
 51
270.0
  0
LINE
  5
30B
100
AcDbEntity
  8
0
370
    -3
  6
Continuous
100
AcDbLine
 10
189.041232
 20
-119.903755
 30
0.0
 11
183.041232
 21
-119.903755
 31
0.0
  0
LINE
  5
30C
100
AcDbEntity
  8
0
370
    -3
  6
Continuous
100
AcDbLine
 10
189.041232
 20
-112.992179
 30
0.0
 11
183.041232
 21
-112.992179
 31
0.0
  0
LINE
  5
30D
100
AcDbEntity
  8
0
370
    -3
  6
Continuous
100
AcDbLine
 10
189.041232
 20
-106.808715
 30
0.0
 11
184.041232
 21
-106.808715
 31
0.0
  0
LINE
  5
30E
100
AcDbEntity
  8
0
370
    -3
  6
Continuous
100
AcDbLine
 10
189.041232
 20
-22.622717
 30
0.0
 11
183.041232
 21
-22.622717
 31
0.0
  0
LINE
  5
30F
100
AcDbEntity
  8
0
370
    -3
  6
Continuous
100
AcDbLine
 10
189.041232
 20
-15.711141
 30
0.0
 11
183.041232
 21
-15.711141
 31
0.0
  0
LINE
  5
310
100
AcDbEntity
  8
0
370
    -3
  6
Continuous
100
AcDbLine
 10
189.041232
 20
-28.806181
 30
0.0
 11
184.041232
 21
-28.806181
 31
0.0
  0
LINE
  5
311
100
AcDbEntity
  8
0
370
    -3
  6
Continuous
100
AcDbLine
 10
178.041232
 20
-124.307448
 30
0.0
 11
178.041232
 21
-11.307448
 31
0.0
  0
ARC
  5
312
100
AcDbEntity
  8
0
370
    -3
  6
Continuous
100
AcDbCircle
 10
183.041232
 20
-27.622717
 30
0.0
 40
5.0
100
AcDbArc
 50
90.0
 51
180.0
  0
ARC
  5
313
100
AcDbEntity
  8
0
370
    -3
  6
Continuous
100
AcDbCircle
 10
183.041232
 20
-20.711141
 30
0.0
 40
5.0
100
AcDbArc
 50
90.0
 51
180.0
  0
LINE
  5
314
100
AcDbEntity
  8
0
370
    -3
  6
Continuous
100
AcDbLine
 10
173.541232
 20
-139.690448
 30
0.0
 11
173.541232
 21
-128.822821
 31
0.0
  0
LINE
  5
315
100
AcDbEntity
  8
0
370
    -3
  6
Continuous
100
AcDbLine
 10
173.541232
 20
5.309552
 30
0.0
 11
173.541232
 21
-129.773589
 31
0.0
  0
ARC
  5
316
100
AcDbEntity
  8
0
370
    -3
  6
Continuous
100
AcDbCircle
 10
138.541232
 20
5.309552
 30
0.0
 40
35.0
100
AcDbArc
 50
0.0
 51
90.0
  0
LINE
  5
317
100
AcDbEntity
  8
0
370
    -3
  6
Continuous
100
AcDbLine
 10
171.720232
 20
3.694552
 30
0.0
 11
171.720304
 21
3.694552
 31
0.0
  0
LINE
  5
318
100
AcDbEntity
  8
0
370
    -3
  6
Continuous
100
AcDbLine
 10
171.720232
 20
3.692959
 30
0.0
 11
171.720304
 21
3.692959
 31
0.0
  0
LINE
  5
319
100
AcDbEntity
  8
0
370
    -3
  6
CENTER
100
AcDbLine
 10
9.107705
 20
-31.690448
 30
0.0
 11
209.901868
 21
-31.690448
 31
0.0
  0
LINE
  5
31A
100
AcDbEntity
  8
0
370
    -3
  6
Continuous
100
AcDbLine
 10
198.041232
 20
-124.107448
 30
0.0
 11
198.041232
 21
-126.307448
 31
0.0
  0
LINE
  5
31B
100
AcDbEntity
  8
0
370
    -3
  6
Continuous
100
AcDbLine
 10
198.141232
 20
-9.307448
 30
0.0
 11
198.141232
 21
-9.307448
 31
0.0
  0
LINE
  5
31C
100
AcDbEntity
  8
0
370
    -3
  6
Continuous
100
AcDbLine
 10
198.041232
 20
-126.307451
 30
0.0
 11
198.041232
 21
-124.057451
 31
0.0
  0
LINE
  5
31D
100
AcDbEntity
  8
0
370
    -3
  6
Continuous
100
AcDbLine
 10
198.041738
 20
-124.057448
 30
0.0
 11
198.041738
 21
-126.225409
 31
0.0
  0
LINE
  5
31E
100
AcDbEntity
  8
0
370
    -3
  6
Continuous
100
AcDbLine
 10
198.041738
 20
-126.307448
 30
0.0
 11
198.041738
 21
-124.057448
 31
0.0
  0
LINE
  5
31F
100
AcDbEntity
  8
0
370
    -3
  6
Continuous
100
AcDbLine
 10
198.041738
 20
-9.307448
 30
0.0
 11
198.041738
 21
-11.557448
 31
0.0
  0
LINE
  5
320
100
AcDbEntity
  8
0
370
    -3
  6
Continuous
100
AcDbLine
 10
198.041232
 20
-124.107448
 30
0.0
 11
198.041232
 21
-126.307448
 31
0.0
  0
LINE
  5
321
100
AcDbEntity
  8
0
370
    -3
  6
Continuous
100
AcDbLine
 10
198.041232
 20
-124.107448
 30
0.0
 11
198.041232
 21
-126.307448
 31
0.0
  0
LINE
  5
322
100
AcDbEntity
  8
0
370
    -3
  6
Continuous
100
AcDbLine
 10
198.141232
 20
-9.307448
 30
0.0
 11
198.141232
 21
-9.307448
 31
0.0
  0
LINE
  5
323
100
AcDbEntity
  8
0
370
    -3
  6
Continuous
100
AcDbLine
 10
198.041232
 20
-126.307451
 30
0.0
 11
198.041232
 21
-124.057451
 31
0.0
  0
LINE
  5
324
100
AcDbEntity
  8
0
370
    -3
  6
Continuous
100
AcDbLine
 10
198.041738
 20
-124.057448
 30
0.0
 11
198.041738
 21
-126.225409
 31
0.0
  0
LINE
  5
325
100
AcDbEntity
  8
0
370
    -3
  6
Continuous
100
AcDbLine
 10
198.041738
 20
-126.307448
 30
0.0
 11
198.041738
 21
-124.057448
 31
0.0
  0
LINE
  5
326
100
AcDbEntity
  8
0
370
    -3
  6
Continuous
100
AcDbLine
 10
198.041738
 20
-9.307448
 30
0.0
 11
198.041738
 21
-11.557448
 31
0.0
  0
LINE
  5
327
100
AcDbEntity
  8
0
370
    -3
  6
Continuous
100
AcDbLine
 10
240.041232
 20
16.692552
 30
0.0
 11
240.041232
 21
-36.807448
 31
0.0
  0
ARC
  5
328
100
AcDbEntity
  8
0
370
    -3
  6
Continuous
100
AcDbCircle
 10
125.541232
 20
-100.190448
 30
0.0
 40
30.0
100
AcDbArc
 50
270.0
 51
0.0
  0
ARC
  5
329
100
AcDbEntity
  8
0
370
    -3
  6
Continuous
100
AcDbCircle
 10
69.541232
 20
-100.190448
 30
0.0
 40
30.0
100
AcDbArc
 50
180.0
 51
270.0
  0
LINE
  5
32A
100
AcDbEntity
  8
0
370
    -3
  6
Continuous
100
AcDbLine
 10
69.541232
 20
-130.190448
 30
0.0
 11
125.541232
 21
-130.190448
 31
0.0
  0
LINE
  5
32B
100
AcDbEntity
  8
0
370
    -3
  6
Continuous
100
AcDbLine
 10
39.541232
 20
-31.690448
 30
0.0
 11
39.541232
 21
-100.190448
 31
0.0
  0
LINE
  5
32C
100
AcDbEntity
  8
0
370
    -3
  6
Continuous
100
AcDbLine
 10
155.541232
 20
-100.190448
 30
0.0
 11
155.541232
 21
-31.690448
 31
0.0
  0
ARC
  5
32D
100
AcDbEntity
  8
0
370
    -3
  6
Continuous
100
AcDbCircle
 10
97.541232
 20
-31.690448
 30
0.0
 40
58.0
100
AcDbArc
 50
0.0
 51
180.0
  0
LINE
  5
32E
100
AcDbEntity
  8
0
370
    -3
  6
CENTER
100
AcDbLine
 10
31.541232
 20
-149.130403
 30
0.0
 11
31.541232
 21
-179.89057
 31
0.0
  0
LINE
  5
32F
100
AcDbEntity
  8
0
370
    -3
  6
CENTER
100
AcDbLine
 10
157.541232
 20
-150.998122
 30
0.0
 11
157.541232
 21
-178.650151
 31
0.0
  0
ARC
  5
330
100
AcDbEntity
  8
0
370
    -3
  6
Continuous
100
AcDbCircle
 10
18.041232
 20
-156.690448
 30
0.0
 40
3.0
100
AcDbArc
 50
90.0
 51
180.0
  0
CIRCLE
  5
331
100
AcDbEntity
  8
0
370
    -3
  6
Continuous
100
AcDbCircle
 10
97.541232
 20
-31.690448
 30
0.0
 40
44.0
  0
POINT
  5
332
100
AcDbEntity
  8
0
370
    -3
  6
Continuous
100
AcDbPoint
 10
97.541232
 20
-31.690448
 30
0.0
  0
CIRCLE
  5
333
100
AcDbEntity
  8
0
370
    -3
  6
Continuous
100
AcDbCircle
 10
97.541232
 20
-31.690448
 30
0.0
 40
48.496338
  0
CIRCLE
  5
334
100
AcDbEntity
  8
0
370
    -3
  6
Continuous
100
AcDbCircle
 10
97.475584
 20
-31.888186
 30
0.0
 40
29.0
  0
CIRCLE
  5
335
100
AcDbEntity
  8
0
370
    -3
  6
Continuous
100
AcDbCircle
 10
97.475584
 20
-31.888186
 30
0.0
 40
32.0
  0
CIRCLE
  5
336
100
AcDbEntity
  8
0
370
    -3
  6
Continuous
100
AcDbCircle
 10
97.541232
 20
-31.690448
 30
0.0
 40
26.0
  0
LINE
  5
337
100
AcDbEntity
  8
0
370
    -3
  6
Continuous
100
AcDbLine
 10
15.041232
 20
5.309552
 30
0.0
 11
15.041232
 21
-171.690448
 31
0.0
  0
ARC
  5
338
100
AcDbEntity
  8
0
370
    -3
  6
Continuous
100
AcDbCircle
 10
50.041232
 20
5.309552
 30
0.0
 40
35.0
100
AcDbArc
 50
90.0
 51
180.0
  0
LINE
  5
339
100
AcDbEntity
  8
0
370
    -3
  6
Continuous
100
AcDbLine
 10
102.541232
 20
-12.690448
 30
0.0
 11
102.541232
 21
-20.690448
 31
0.0
  0
LINE
  5
33A
100
AcDbEntity
  8
0
370
    -3
  6
Continuous
100
AcDbLine
 10
102.541232
 20
-12.690448
 30
0.0
 11
92.541232
 21
-12.690448
 31
0.0
  0
LINE
  5
33B
100
AcDbEntity
  8
0
370
    -3
  6
Continuous
100
AcDbLine
 10
92.541232
 20
-20.690448
 30
0.0
 11
102.541232
 21
-20.690448
 31
0.0
  0
ARC
  5
33C
100
AcDbEntity
  8
0
370
    -3
  6
Continuous
100
AcDbCircle
 10
97.541232
 20
-31.690448
 30
0.0
 40
16.0
100
AcDbArc
 50
108.209957
 51
71.790043
  0
LINE
  5
33D
100
AcDbEntity
  8
0
370
    -3
  6
Continuous
100
AcDbLine
 10
92.541232
 20
-12.690448
 30
0.0
 11
92.541232
 21
-20.690448
 31
0.0
  0
CIRCLE
  5
33E
100
AcDbEntity
  8
0
370
    -3
  6
Continuous
100
AcDbCircle
 10
97.541232
 20
-31.690448
 30
0.0
 40
4.0
  0
CIRCLE
  5
33F
100
AcDbEntity
  8
0
370
    -3
  6
Continuous
100
AcDbCircle
 10
97.541232
 20
-31.690448
 30
0.0
 40
3.5
  0
LINE
  5
340
100
AcDbEntity
  8
0
370
    -3
  6
CENTER
100
AcDbLine
 10
97.541232
 20
44.076831
 30
0.0
 11
97.541232
 21
-181.979069
 31
0.0
  0
LINE
  5
341
100
AcDbEntity
  8
0
370
    -3
  6
Continuous
100
AcDbLine
 10
138.541232
 20
40.309552
 30
0.0
 11
50.041232
 21
40.309552
 31
0.0
  0
LINE
  5
342
100
AcDbEntity
  8
0
370
    -3
  6
Continuous
100
AcDbLine
 10
240.041232
 20
-36.807448
 30
0.0
 11
240.041232
 21
15.692552
 31
0.0
  0
LINE
  5
343
100
AcDbEntity
  8
0
370
    -3
  6
Continuous
100
AcDbLine
 10
589.04123
 20
-151.717872
 30
0.0
 11
590.041019
 21
-150.697304
 31
0.0
  0
LINE
  5
344
100
AcDbEntity
  8
0
370
    -3
  6
CENTER
100
AcDbLine
 10
609.041019
 20
-145.075615
 30
0.0
 11
609.041019
 21
-178.303447
 31
0.0
  0
LINE
  5
345
100
AcDbEntity
  8
0
370
    -3
  6
CENTER
100
AcDbLine
 10
471.041019
 20
-145.075615
 30
0.0
 11
471.041019
 21
-178.303447
 31
0.0
  0
LINE
  5
346
100
AcDbEntity
  8
0
370
    -3
  6
CENTER
100
AcDbLine
 10
509.983676
 20
-36.807448
 30
0.0
 11
568.581672
 21
-36.807448
 31
0.0
  0
LINE
  5
347
100
AcDbEntity
  8
0
370
    -3
  6
CENTER
100
AcDbLine
 10
634.304357
 20
-31.690448
 30
0.0
 11
389.935627
 21
-31.690448
 31
0.0
  0
LINE
  5
348
100
AcDbEntity
  8
0
370
    -3
  6
Continuous
100
AcDbLine
 10
456.04095
 20
-48.690448
 30
0.0
 11
454.441087
 21
-48.690448
 31
0.0
  0
LINE
  5
349
100
AcDbEntity
  8
0
370
    -3
  6
Continuous
100
AcDbLine
 10
453.641155
 20
-47.690448
 30
0.0
 11
399.841224
 21
-47.690448
 31
0.0
  0
ARC
  5
34A
100
AcDbEntity
  8
0
370
    -3
  6
Continuous
100
AcDbCircle
 10
453.641155
 20
-48.090448
 30
0.0
 40
0.4
100
AcDbArc
 50
0.0
 51
90.0
  0
ARC
  5
34B
100
AcDbEntity
  8
0
370
    -3
  6
Continuous
100
AcDbCircle
 10
454.441087
 20
-48.290448
 30
0.0
 40
0.4
100
AcDbArc
 50
180.0
 51
270.0
  0
LINE
  5
34C
100
AcDbEntity
  8
0
370
    -3
  6
Continuous
100
AcDbLine
 10
454.041155
 20
-15.083054
 30
0.0
 11
454.041155
 21
-48.297842
 31
0.0
  0
ARC
  5
34D
100
AcDbEntity
  8
0
370
    -3
  6
Continuous
100
AcDbCircle
 10
478.541019
 20
-84.362364
 30
0.0
 40
5.0
100
AcDbArc
 50
66.421822
 51
79.319199
  0
LINE
  5
34E
100
AcDbEntity
  8
0
370
    -3
  6
Continuous
100
AcDbLine
 10
459.520006
 20
-75.686755
 30
0.0
 11
479.467705
 21
-79.44899
 31
0.0
  0
LINE
  5
34F
100
AcDbEntity
  8
0
370
    -3
  6
Continuous
100
AcDbLine
 10
483.541019
 20
23.73255
 30
0.0
 11
483.541019
 21
-39.300525
 31
0.0
  0
LINE
  5
350
100
AcDbEntity
  8
0
370
    -3
  6
Continuous
100
AcDbLine
 10
596.541019
 20
-127.115844
 30
0.0
 11
596.541019
 21
-96.314371
 31
0.0
  0
LINE
  5
351
100
AcDbEntity
  8
0
370
    -3
  6
Continuous
100
AcDbLine
 10
590.041019
 20
-133.127876
 30
0.0
 11
590.041019
 21
-113.266863
 31
0.0
  0
LINE
  5
352
100
AcDbEntity
  8
0
370
    -3
  6
Continuous
100
AcDbLine
 10
620.561963
 20
-75.951245
 30
0.0
 11
599.541019
 21
-79.657805
 31
0.0
  0
LINE
  5
353
100
AcDbEntity
  8
0
370
    -3
  6
Continuous
100
AcDbLine
 10
585.041019
 20
40.309552
 30
0.0
 11
585.041019
 21
8.546123
 31
0.0
  0
LINE
  5
354
100
AcDbEntity
  8
0
370
    -3
  6
Continuous
100
AcDbLine
 10
585.041019
 20
-118.266863
 30
0.0
 11
585.041019
 21
-152.690448
 31
0.0
  0
LINE
  5
355
100
AcDbEntity
  8
0
370
    -3
  6
Continuous
100
AcDbLine
 10
623.641019
 20
-60.690448
 30
0.0
 11
623.041019
 21
-60.690448
 31
0.0
  0
LINE
  5
356
100
AcDbEntity
  8
0
370
    -3
  6
Continuous
100
AcDbLine
 10
623.041019
 20
-72.996822
 30
0.0
 11
623.041019
 21
-60.690448
 31
0.0
  0
LINE
  5
357
100
AcDbEntity
  8
0
370
    -3
  6
Continuous
100
AcDbLine
 10
623.041019
 20
9.615926
 30
0.0
 11
623.041019
 21
-60.690448
 31
0.0
  0
ARC
  5
358
100
AcDbEntity
  8
0
370
    -3
  6
Continuous
100
AcDbCircle
 10
593.041019
 20
-133.127876
 30
0.0
 40
3.0
100
AcDbArc
 50
91.222153
 51
180.0
  0
LINE
  5
359
100
AcDbEntity
  8
0
370
    -3
  6
Continuous
100
AcDbLine
 10
592.977032
 20
-130.128559
 30
0.0
 11
593.605006
 21
-130.115161
 31
0.0
  0
ARC
  5
35A
100
AcDbEntity
  8
0
370
    -3
  6
Continuous
100
AcDbCircle
 10
593.541019
 20
-127.115844
 30
0.0
 40
3.0
100
AcDbArc
 50
271.222153
 51
0.0
  0
LINE
  5
35B
100
AcDbEntity
  8
0
370
    -3
  6
Continuous
100
AcDbLine
 10
590.041019
 20
-150.697304
 30
0.0
 11
590.041019
 21
-133.127876
 31
0.0
  0
LINE
  5
35C
100
AcDbEntity
  8
0
370
    -3
  6
Continuous
100
AcDbLine
 10
585.041019
 20
-151.800164
 30
0.0
 11
589.04123
 21
-151.717872
 31
0.0
  0
ARC
  5
35D
100
AcDbEntity
  8
0
370
    -3
  6
Continuous
100
AcDbCircle
 10
620.041019
 20
-72.996822
 30
0.0
 40
3.0
100
AcDbArc
 50
280.0
 51
360.0
  0
LINE
  5
35E
100
AcDbEntity
  8
0
370
    -3
  6
Continuous
100
AcDbLine
 10
624.041019
 20
-60.290448
 30
0.0
 11
624.041019
 21
-31.690448
 31
0.0
  0
LINE
  5
35F
100
AcDbEntity
  8
0
370
    -3
  6
Continuous
100
AcDbLine
 10
624.041019
 20
-3.090448
 30
0.0
 11
624.041019
 21
-31.690448
 31
0.0
  0
LINE
  5
360
100
AcDbEntity
  8
0
370
    -3
  6
Continuous
100
AcDbLine
 10
624.041019
 20
-60.290448
 30
0.0
 11
623.641019
 21
-60.690448
 31
0.0
  0
LINE
  5
361
100
AcDbEntity
  8
0
370
    -3
  6
Continuous
100
AcDbLine
 10
457.04095
 20
-31.690448
 30
0.0
 11
457.04095
 21
9.351436
 31
0.0
  0
LINE
  5
362
100
AcDbEntity
  8
0
370
    -3
  6
Continuous
100
AcDbLine
 10
456.44095
 20
-60.690448
 30
0.0
 11
456.04095
 21
-60.290448
 31
0.0
  0
LINE
  5
363
100
AcDbEntity
  8
0
370
    -3
  6
Continuous
100
AcDbLine
 10
457.04095
 20
-72.732332
 30
0.0
 11
457.04095
 21
-31.690448
 31
0.0
  0
ARC
  5
364
100
AcDbEntity
  8
0
370
    -3
  6
Continuous
100
AcDbCircle
 10
586.041019
 20
-152.690448
 30
0.0
 40
1.0
100
AcDbArc
 50
180.0
 51
270.0
  0
LINE
  5
365
100
AcDbEntity
  8
0
370
    -3
  6
Continuous
100
AcDbLine
 10
624.028346
 20
-171.690448
 30
0.0
 11
456.053691
 21
-171.690448
 31
0.0
  0
LINE
  5
366
100
AcDbEntity
  8
0
370
    -3
  6
Continuous
100
AcDbLine
 10
456.04095
 20
-60.290448
 30
0.0
 11
456.04095
 21
-3.090448
 31
0.0
  0
ARC
  5
367
100
AcDbEntity
  8
0
370
    -3
  6
Continuous
100
AcDbCircle
 10
460.04095
 20
-72.732332
 30
0.0
 40
3.0
100
AcDbArc
 50
180.0
 51
260.0
  0
LINE
  5
368
100
AcDbEntity
  8
0
370
    -3
  6
Continuous
100
AcDbLine
 10
457.04095
 20
-60.690448
 30
0.0
 11
456.44095
 21
-60.690448
 31
0.0
  0
LINE
  5
369
100
AcDbEntity
  8
0
370
    -3
  6
Continuous
100
AcDbLine
 10
491.041087
 20
-150.690448
 30
0.0
 11
491.041087
 21
-114.249665
 31
0.0
  0
LINE
  5
36A
100
AcDbEntity
  8
0
370
    -3
  6
Continuous
100
AcDbLine
 10
483.541019
 20
-127.092448
 30
0.0
 11
483.541019
 21
-96.022772
 31
0.0
  0
LINE
  5
36B
100
AcDbEntity
  8
0
370
    -3
  6
Continuous
100
AcDbLine
 10
620.647201
 20
-153.690448
 30
0.0
 11
586.041019
 21
-153.690448
 31
0.0
  0
LINE
  5
36C
100
AcDbEntity
  8
0
370
    -3
  6
Continuous
100
AcDbLine
 10
486.541019
 20
-130.092448
 30
0.0
 11
488.041087
 21
-130.092448
 31
0.0
  0
ARC
  5
36D
100
AcDbEntity
  8
0
370
    -3
  6
Continuous
100
AcDbCircle
 10
486.541019
 20
-127.092448
 30
0.0
 40
3.0
100
AcDbArc
 50
180.0
 51
270.0
  0
ARC
  5
36E
100
AcDbEntity
  8
0
370
    -3
  6
Continuous
100
AcDbCircle
 10
488.041087
 20
-133.092448
 30
0.0
 40
3.0
100
AcDbArc
 50
0.0
 51
90.0
  0
LINE
  5
36F
100
AcDbEntity
  8
0
370
    -3
  6
Continuous
100
AcDbLine
 10
623.646173
 20
-156.611917
 30
0.0
 11
624.028346
 21
-171.690448
 31
0.0
  0
ARC
  5
370
100
AcDbEntity
  8
0
370
    -3
  6
Continuous
100
AcDbCircle
 10
620.647201
 20
-156.690448
 30
0.0
 40
3.0
100
AcDbArc
 50
1.5
 51
90.0
  0
ARC
  5
371
100
AcDbEntity
  8
0
370
    -3
  6
Continuous
100
AcDbCircle
 10
459.434836
 20
-156.690448
 30
0.0
 40
3.0
100
AcDbArc
 50
90.0
 51
178.5
  0
LINE
  5
372
100
AcDbEntity
  8
0
370
    -3
  6
Continuous
100
AcDbLine
 10
456.435864
 20
-156.611917
 30
0.0
 11
456.053691
 21
-171.690448
 31
0.0
  0
ARC
  5
373
100
AcDbEntity
  8
0
370
    -3
  6
Continuous
100
AcDbCircle
 10
488.041087
 20
-150.690448
 30
0.0
 40
3.0
100
AcDbArc
 50
270.0
 51
0.0
  0
LINE
  5
374
100
AcDbEntity
  8
0
370
    -3
  6
CENTER
100
AcDbLine
 10
540.041019
 20
56.163664
 30
0.0
 11
540.041019
 21
-178.303447
 31
0.0
  0
ARC
  5
375
100
AcDbEntity
  8
0
370
    -3
  6
Continuous
100
AcDbCircle
 10
399.841224
 20
-46.890448
 30
0.0
 40
0.8
100
AcDbArc
 50
180.0
 51
270.0
  0
LINE
  5
376
100
AcDbEntity
  8
0
370
    -3
  6
Continuous
100
AcDbLine
 10
399.041224
 20
-12.690448
 30
0.0
 11
399.041224
 21
-46.890448
 31
0.0
  0
ARC
  5
377
100
AcDbEntity
  8
0
370
    -3
  6
Continuous
100
AcDbCircle
 10
399.841224
 20
-16.490448
 30
0.0
 40
0.8
100
AcDbArc
 50
90.0
 51
180.0
  0
LINE
  5
378
100
AcDbEntity
  8
0
370
    -3
  6
Continuous
100
AcDbLine
 10
456.04095
 20
-14.690448
 30
0.0
 11
454.441087
 21
-14.690448
 31
0.0
  0
LINE
  5
379
100
AcDbEntity
  8
0
370
    -3
  6
Continuous
100
AcDbLine
 10
453.641155
 20
-15.690448
 30
0.0
 11
399.841224
 21
-15.690448
 31
0.0
  0
LINE
  5
37A
100
AcDbEntity
  8
0
370
    -3
  6
Continuous
100
AcDbLine
 10
439.041224
 20
-12.690448
 30
0.0
 11
399.041224
 21
-12.690448
 31
0.0
  0
LINE
  5
37B
100
AcDbEntity
  8
0
370
    -3
  6
Continuous
100
AcDbLine
 10
439.041224
 20
-12.690448
 30
0.0
 11
439.041224
 21
-15.690448
 31
0.0
  0
ARC
  5
37C
100
AcDbEntity
  8
0
370
    -3
  6
Continuous
100
AcDbCircle
 10
453.641155
 20
-15.290448
 30
0.0
 40
0.4
100
AcDbArc
 50
270.0
 51
0.0
  0
ARC
  5
37D
100
AcDbEntity
  8
0
370
    -3
  6
Continuous
100
AcDbCircle
 10
454.441087
 20
-15.090448
 30
0.0
 40
0.4
100
AcDbArc
 50
90.0
 51
180.0
  0
LINE
  5
37E
100
AcDbEntity
  8
0
370
    -3
  6
Continuous
100
AcDbLine
 10
623.641019
 20
-2.690448
 30
0.0
 11
623.041019
 21
-2.690448
 31
0.0
  0
ARC
  5
37F
100
AcDbEntity
  8
0
370
    -3
  6
Continuous
100
AcDbCircle
 10
620.041019
 20
9.615926
 30
0.0
 40
3.0
100
AcDbArc
 50
0.0
 51
80.0
  0
LINE
  5
380
100
AcDbEntity
  8
0
370
    -3
  6
Continuous
100
AcDbLine
 10
593.541019
 20
26.309552
 30
0.0
 11
593.041019
 21
26.309552
 31
0.0
  0
LINE
  5
381
100
AcDbEntity
  8
0
370
    -3
  6
Continuous
100
AcDbLine
 10
624.041019
 20
-3.090448
 30
0.0
 11
623.641019
 21
-2.690448
 31
0.0
  0
ARC
  5
382
100
AcDbEntity
  8
0
370
    -3
  6
Continuous
100
AcDbCircle
 10
593.541019
 20
23.309552
 30
0.0
 40
3.0
100
AcDbArc
 50
0.0
 51
90.0
  0
ARC
  5
383
100
AcDbEntity
  8
0
370
    -3
  6
Continuous
100
AcDbCircle
 10
593.041019
 20
29.309552
 30
0.0
 40
3.0
100
AcDbArc
 50
180.0
 51
270.0
  0
LINE
  5
384
100
AcDbEntity
  8
0
370
    -3
  6
Continuous
100
AcDbLine
 10
590.041019
 20
39.309552
 30
0.0
 11
589.041019
 21
40.309552
 31
0.0
  0
LINE
  5
385
100
AcDbEntity
  8
0
370
    -3
  6
Continuous
100
AcDbLine
 10
589.041019
 20
40.309552
 30
0.0
 11
585.041019
 21
40.309552
 31
0.0
  0
ARC
  5
386
100
AcDbEntity
  8
0
370
    -3
  6
Continuous
100
AcDbCircle
 10
599.541019
 20
19.323189
 30
0.0
 40
3.0
100
AcDbArc
 50
180.0
 51
260.0
  0
LINE
  5
387
100
AcDbEntity
  8
0
370
    -3
  6
Continuous
100
AcDbLine
 10
620.561963
 20
12.570349
 30
0.0
 11
599.020074
 21
16.368766
 31
0.0
  0
ARC
  5
388
100
AcDbEntity
  8
0
370
    -3
  6
Continuous
100
AcDbCircle
 10
599.541019
 20
19.323189
 30
0.0
 40
3.0
100
AcDbArc
 50
180.0
 51
260.0
  0
LINE
  5
389
100
AcDbEntity
  8
0
370
    -3
  6
Continuous
100
AcDbLine
 10
596.541019
 20
23.309552
 30
0.0
 11
596.541019
 21
19.323189
 31
0.0
  0
LINE
  5
38A
100
AcDbEntity
  8
0
370
    -3
  6
Continuous
100
AcDbLine
 10
456.44095
 20
-2.690448
 30
0.0
 11
456.04095
 21
-3.090448
 31
0.0
  0
LINE
  5
38B
100
AcDbEntity
  8
0
370
    -3
  6
Continuous
100
AcDbLine
 10
459.520006
 20
12.305859
 30
0.0
 11
479.467705
 21
16.068094
 31
0.0
  0
ARC
  5
38C
100
AcDbEntity
  8
0
370
    -3
  6
Continuous
100
AcDbCircle
 10
460.04095
 20
9.351436
 30
0.0
 40
3.0
100
AcDbArc
 50
100.0
 51
180.0
  0
LINE
  5
38D
100
AcDbEntity
  8
0
370
    -3
  6
Continuous
100
AcDbLine
 10
457.04095
 20
-2.690448
 30
0.0
 11
456.44095
 21
-2.690448
 31
0.0
  0
ARC
  5
38E
100
AcDbEntity
  8
0
370
    -3
  6
Continuous
100
AcDbCircle
 10
488.041087
 20
29.309552
 30
0.0
 40
3.0
100
AcDbArc
 50
270.0
 51
360.0
  0
LINE
  5
38F
100
AcDbEntity
  8
0
370
    -3
  6
Continuous
100
AcDbLine
 10
486.511048
 20
26.309552
 30
0.0
 11
488.041087
 21
26.309552
 31
0.0
  0
ARC
  5
390
100
AcDbEntity
  8
0
370
    -3
  6
Continuous
100
AcDbCircle
 10
494.041087
 20
35.711958
 30
0.0
 40
3.0
100
AcDbArc
 50
91.0
 51
180.0
  0
ARC
  5
391
100
AcDbEntity
  8
0
370
    -3
  6
Continuous
100
AcDbCircle
 10
478.541019
 20
21.001388
 30
0.0
 40
5.0
100
AcDbArc
 50
280.0
 51
355.038892
  0
ARC
  5
392
100
AcDbEntity
  8
0
370
    -3
  6
Continuous
100
AcDbCircle
 10
486.511048
 20
23.309552
 30
0.0
 40
3.0
100
AcDbArc
 50
90.0
 51
171.894317
  0
INSERT
  5
39E
100
AcDbEntity
  8
0
100
AcDbBlockReference
  2
ZU_SYM__USERS_HOME_SYMBOL_STD_SYM_B01_00005-1
 10
579.638998
 20
2.790532
 30
0.0
 41
-1.0
 50
270.0
  0
INSERT
  5
3AA
100
AcDbEntity
  8
0
100
AcDbBlockReference
  2
ZU_SYM__USERS_HOME_SYMBOL_STD_SYM_B01_00006-1
 10
579.638998
 20
-76.405428
 30
0.0
 50
270.0
  0
INSERT
  5
3B6
100
AcDbEntity
  8
0
100
AcDbBlockReference
  2
ZU_SYM__USERS_HOME_SYMBOL_STD_SYM_B01_00007-1
 10
500.443039
 20
2.790532
 30
0.0
 50
90.0
  0
INSERT
  5
3C2
100
AcDbEntity
  8
0
100
AcDbBlockReference
  2
ZU_SYM__USERS_HOME_SYMBOL_STD_SYM_B01_00008-1
 10
500.443039
 20
-76.405428
 30
0.0
 41
-1.0
 50
90.0
  0
ARC
  5
3C3
100
AcDbEntity
  8
0
370
    -3
  6
Continuous
100
AcDbCircle
 10
493.097827
 20
-62.470393
 30
0.0
 40
1.0
100
AcDbArc
 50
28.664584
 51
87.0
  0
LINE
  5
3C4
100
AcDbEntity
  8
0
370
    -3
  6
Continuous
100
AcDbLine
 10
568.23966
 20
-72.898813
 30
0.0
 11
579.382132
 21
-82.93154
 31
0.0
  0
LINE
  5
3C5
100
AcDbEntity
  8
0
370
    -3
  6
Continuous
100
AcDbLine
 10
576.132383
 20
-65.006089
 30
0.0
 11
586.16511
 21
-76.148562
 31
0.0
  0
ARC
  5
3C6
100
AcDbEntity
  8
0
370
    -3
  6
Continuous
100
AcDbCircle
 10
540.041019
 20
-36.807448
 30
0.0
 40
52.5
100
AcDbArc
 50
336.336295
 51
336.863111
  0
ARC
  5
3C7
100
AcDbEntity
  8
0
370
    -3
  6
Continuous
100
AcDbCircle
 10
584.124851
 20
-67.120246
 30
0.0
 40
1.0
100
AcDbArc
 50
93.0
 51
142.214197
  0
ARC
  5
3C8
100
AcDbEntity
  8
0
370
    -3
  6
Continuous
100
AcDbCircle
 10
584.190669
 20
-67.024303
 30
0.0
 40
1.0
100
AcDbArc
 50
148.884247
 51
267.0
  0
ARC
  5
3C9
100
AcDbEntity
  8
0
370
    -3
  6
Continuous
100
AcDbCircle
 10
591.018955
 20
-51.307448
 30
0.0
 40
0.5
100
AcDbArc
 50
90.0
 51
164.122298
  0
LINE
  5
3CA
100
AcDbEntity
  8
0
370
    -3
  6
Continuous
100
AcDbLine
 10
591.120935
 20
-50.807448
 30
0.0
 11
591.018955
 21
-50.807448
 31
0.0
  0
ARC
  5
3CB
100
AcDbEntity
  8
0
370
    -3
  6
Continuous
100
AcDbCircle
 10
591.120935
 20
-50.307448
 30
0.0
 40
0.5
100
AcDbArc
 50
270.0
 51
352.20215
  0
ARC
  5
3CC
100
AcDbEntity
  8
0
370
    -3
  6
Continuous
100
AcDbCircle
 10
492.541019
 20
-36.807448
 30
0.0
 40
100.0
100
AcDbArc
 50
352.20215
 51
0.0
  0
ARC
  5
3CD
100
AcDbEntity
  8
0
370
    -3
  6
Continuous
100
AcDbCircle
 10
540.041019
 20
-36.807448
 30
0.0
 40
52.5
100
AcDbArc
 50
341.335429
 51
344.122298
  0
ARC
  5
3CE
100
AcDbEntity
  8
0
370
    -3
  6
Continuous
100
AcDbCircle
 10
540.041019
 20
-36.807448
 30
0.0
 40
52.5
100
AcDbArc
 50
331.026551
 51
331.437166
  0
ARC
  5
3CF
100
AcDbEntity
  8
0
370
    -3
  6
Continuous
100
AcDbCircle
 10
590.041019
 20
-60.307448
 30
0.0
 40
1.0
100
AcDbArc
 50
273.0
 51
87.0
  0
ARC
  5
3D0
100
AcDbEntity
  8
0
370
    -3
  6
Continuous
100
AcDbCircle
 10
586.891293
 20
-62.639633
 30
0.0
 40
1.0
100
AcDbArc
 50
151.128648
 51
267.0
  0
LINE
  5
3D1
100
AcDbEntity
  8
0
370
    -3
  6
Continuous
100
AcDbLine
 10
586.931874
 20
-61.471764
 30
0.0
 11
590.093355
 21
-61.306077
 31
0.0
  0
ARC
  5
3D2
100
AcDbEntity
  8
0
370
    -3
  6
Continuous
100
AcDbCircle
 10
586.98421
 20
-62.470393
 30
0.0
 40
1.0
100
AcDbArc
 50
93.0
 51
151.335416
  0
ARC
  5
3D3
100
AcDbEntity
  8
0
370
    -3
  6
Continuous
100
AcDbCircle
 10
589.054668
 20
-58.253011
 30
0.0
 40
1.0
100
AcDbArc
 50
156.36857
 51
267.0
  0
ARC
  5
3D4
100
AcDbEntity
  8
0
370
    -3
  6
Continuous
100
AcDbCircle
 10
590.727365
 20
-53.928904
 30
0.0
 40
1.0
100
AcDbArc
 50
161.335429
 51
249.929668
  0
ARC
  5
3D5
100
AcDbEntity
  8
0
370
    -3
  6
Continuous
100
AcDbCircle
 10
589.227833
 20
-57.85281
 30
0.0
 40
1.0
100
AcDbArc
 50
93.0
 51
156.835568
  0
LINE
  5
3D6
100
AcDbEntity
  8
0
370
    -3
  6
Continuous
100
AcDbLine
 10
589.175497
 20
-56.85418
 30
0.0
 11
590.093355
 21
-56.806077
 31
0.0
  0
ARC
  5
3D7
100
AcDbEntity
  8
0
370
    -3
  6
Continuous
100
AcDbCircle
 10
590.041019
 20
-55.807448
 30
0.0
 40
1.0
100
AcDbArc
 50
273.0
 51
69.929668
  0
LINE
  5
3D8
100
AcDbEntity
  8
0
370
    -3
  6
Continuous
100
AcDbLine
 10
589.002332
 20
-59.25164
 30
0.0
 11
590.093355
 21
-59.308818
 31
0.0
  0
ARC
  5
3D9
100
AcDbEntity
  8
0
370
    -3
  6
Continuous
100
AcDbCircle
 10
590.041019
 20
-64.807448
 30
0.0
 40
1.0
100
AcDbArc
 50
273.0
 51
87.0
  0
LINE
  5
3DA
100
AcDbEntity
  8
0
370
    -3
  6
Continuous
100
AcDbLine
 10
586.838957
 20
-63.638263
 30
0.0
 11
590.093355
 21
-63.808818
 31
0.0
  0
ARC
  5
3DB
100
AcDbEntity
  8
0
370
    -3
  6
Continuous
100
AcDbCircle
 10
589.541019
 20
-69.307448
 30
0.0
 40
1.0
100
AcDbArc
 50
273.0
 51
87.0
  0
LINE
  5
3DC
100
AcDbEntity
  8
0
370
    -3
  6
Continuous
100
AcDbLine
 10
584.138333
 20
-68.022933
 30
0.0
 11
589.593355
 21
-68.308818
 31
0.0
  0
LINE
  5
3DD
100
AcDbEntity
  8
0
370
    -3
  6
Continuous
100
AcDbLine
 10
584.072515
 20
-66.121616
 30
0.0
 11
590.093355
 21
-65.806077
 31
0.0
  0
LINE
  5
3DE
100
AcDbEntity
  8
0
370
    -3
  6
Continuous
100
AcDbLine
 10
559.341019
 20
-90.307448
 30
0.0
 11
540.041019
 21
-90.307448
 31
0.0
  0
ARC
  5
3DF
100
AcDbEntity
  8
0
370
    -3
  6
Continuous
100
AcDbCircle
 10
559.341019
 20
-89.607448
 30
0.0
 40
0.7
100
AcDbArc
 50
270.0
 51
0.0
  0
LINE
  5
3E0
100
AcDbEntity
  8
0
370
    -3
  6
Continuous
100
AcDbLine
 10
560.041019
 20
-89.607448
 30
0.0
 11
560.041019
 21
-86.013647
 31
0.0
  0
ARC
  5
3E1
100
AcDbEntity
  8
0
370
    -3
  6
Continuous
100
AcDbCircle
 10
540.041019
 20
-36.807448
 30
0.0
 40
52.5
100
AcDbArc
 50
293.111602
 51
293.695081
  0
ARC
  5
3E2
100
AcDbEntity
  8
0
370
    -3
  6
Continuous
100
AcDbCircle
 10
561.041019
 20
-86.013647
 30
0.0
 40
1.0
100
AcDbArc
 50
113.111602
 51
180.0
  0
ARC
  5
3E3
100
AcDbEntity
  8
0
370
    -3
  6
Continuous
100
AcDbCircle
 10
540.041019
 20
-36.807448
 30
0.0
 40
52.5
100
AcDbArc
 50
293.111602
 51
293.663705
  0
ARC
  5
3E4
100
AcDbEntity
  8
0
370
    -3
  6
Continuous
100
AcDbCircle
 10
540.041019
 20
-36.807448
 30
0.0
 40
52.5
100
AcDbArc
 50
298.562834
 51
298.973449
  0
ARC
  5
3E5
100
AcDbEntity
  8
0
370
    -3
  6
Continuous
100
AcDbCircle
 10
540.041019
 20
-36.807448
 30
0.0
 40
52.5
100
AcDbArc
 50
298.562834
 51
298.973449
  0
ARC
  5
3E6
100
AcDbEntity
  8
0
370
    -3
  6
Continuous
100
AcDbCircle
 10
572.541019
 20
-86.307448
 30
0.0
 40
1.0
100
AcDbArc
 50
183.0
 51
357.0
  0
ARC
  5
3E7
100
AcDbEntity
  8
0
370
    -3
  6
Continuous
100
AcDbCircle
 10
568.041019
 20
-86.807448
 30
0.0
 40
1.0
100
AcDbArc
 50
183.0
 51
357.0
  0
LINE
  5
3E8
100
AcDbEntity
  8
0
370
    -3
  6
Continuous
100
AcDbLine
 10
571.256504
 20
-80.904763
 30
0.0
 11
571.542389
 21
-86.359784
 31
0.0
  0
LINE
  5
3E9
100
AcDbEntity
  8
0
370
    -3
  6
Continuous
100
AcDbLine
 10
569.355187
 20
-80.838944
 30
0.0
 11
569.039648
 21
-86.859784
 31
0.0
  0
LINE
  5
3EA
100
AcDbEntity
  8
0
370
    -3
  6
Continuous
100
AcDbLine
 10
566.871833
 20
-83.605386
 30
0.0
 11
567.042389
 21
-86.859784
 31
0.0
  0
ARC
  5
3EB
100
AcDbEntity
  8
0
370
    -3
  6
Continuous
100
AcDbCircle
 10
565.873204
 20
-83.657722
 30
0.0
 40
1.0
100
AcDbArc
 50
3.0
 51
118.871352
  0
LINE
  5
3EC
100
AcDbEntity
  8
0
370
    -3
  6
Continuous
100
AcDbLine
 10
564.705334
 20
-83.698304
 30
0.0
 11
564.539648
 21
-86.859784
 31
0.0
  0
ARC
  5
3ED
100
AcDbEntity
  8
0
370
    -3
  6
Continuous
100
AcDbCircle
 10
565.703964
 20
-83.75064
 30
0.0
 40
1.0
100
AcDbArc
 50
118.664584
 51
177.0
  0
ARC
  5
3EE
100
AcDbEntity
  8
0
370
    -3
  6
Continuous
100
AcDbCircle
 10
563.541019
 20
-86.807448
 30
0.0
 40
1.0
100
AcDbArc
 50
183.0
 51
357.0
  0
ARC
  5
3EF
100
AcDbEntity
  8
0
370
    -3
  6
Continuous
100
AcDbCircle
 10
561.486581
 20
-85.821097
 30
0.0
 40
1.0
100
AcDbArc
 50
3.0
 51
113.63143
  0
LINE
  5
3F0
100
AcDbEntity
  8
0
370
    -3
  6
Continuous
100
AcDbLine
 10
562.485211
 20
-85.768761
 30
0.0
 11
562.542389
 21
-86.859784
 31
0.0
  0
ARC
  5
3F1
100
AcDbEntity
  8
0
370
    -3
  6
Continuous
100
AcDbCircle
 10
570.257874
 20
-80.957099
 30
0.0
 40
1.0
100
AcDbArc
 50
3.0
 51
124.388476
  0
ARC
  5
3F2
100
AcDbEntity
  8
0
370
    -3
  6
Continuous
100
AcDbCircle
 10
570.353816
 20
-80.89128
 30
0.0
 40
1.0
100
AcDbArc
 50
124.513079
 51
177.0
  0
ARC
  5
3F3
100
AcDbEntity
  8
0
370
    -3
  6
Continuous
100
AcDbCircle
 10
585.421966
 20
-76.817692
 30
0.0
 40
1.0
100
AcDbArc
 50
318.598894
 51
42.0
  0
LINE
  5
3F4
100
AcDbEntity
  8
0
370
    -3
  6
Continuous
100
AcDbLine
 10
583.389719
 20
-70.631196
 30
0.0
 11
589.593355
 21
-70.306077
 31
0.0
  0
ARC
  5
3F5
100
AcDbEntity
  8
0
370
    -3
  6
Continuous
100
AcDbCircle
 10
583.442055
 20
-71.629826
 30
0.0
 40
1.0
100
AcDbArc
 50
93.0
 51
222.0
  0
ARC
  5
3F6
100
AcDbEntity
  8
0
370
    -3
  6
Continuous
100
AcDbCircle
 10
580.051263
 20
-82.188395
 30
0.0
 40
1.0
100
AcDbArc
 50
228.0
 51
311.401106
  0
ARC
  5
3F7
100
AcDbEntity
  8
0
370
    -3
  6
Continuous
100
AcDbCircle
 10
540.041019
 20
-36.807448
 30
0.0
 40
61.5
100
AcDbArc
 50
311.401106
 51
318.598894
  0
LINE
  5
3F8
100
AcDbEntity
  8
0
370
    -3
  6
Continuous
100
AcDbLine
 10
573.864767
 20
-80.156149
 30
0.0
 11
573.539648
 21
-86.359784
 31
0.0
  0
ARC
  5
3F9
100
AcDbEntity
  8
0
370
    -3
  6
Continuous
100
AcDbCircle
 10
574.863396
 20
-80.208485
 30
0.0
 40
1.0
100
AcDbArc
 50
48.0
 51
177.0
  0
LINE
  5
3FA
100
AcDbEntity
  8
0
370
    -3
  6
Continuous
100
AcDbLine
 10
511.842377
 20
-72.898813
 30
0.0
 11
500.699905
 21
-82.93154
 31
0.0
  0
LINE
  5
3FB
100
AcDbEntity
  8
0
370
    -3
  6
Continuous
100
AcDbLine
 10
503.949654
 20
-65.006089
 30
0.0
 11
493.916927
 21
-76.148562
 31
0.0
  0
ARC
  5
3FC
100
AcDbEntity
  8
0
370
    -3
  6
Continuous
100
AcDbCircle
 10
540.041019
 20
-36.807448
 30
0.0
 40
52.5
100
AcDbArc
 50
203.136889
 51
203.663705
  0
ARC
  5
3FD
100
AcDbEntity
  8
0
370
    -3
  6
Continuous
100
AcDbCircle
 10
495.957186
 20
-67.120246
 30
0.0
 40
1.0
100
AcDbArc
 50
37.785803
 51
87.0
  0
ARC
  5
3FE
100
AcDbEntity
  8
0
370
    -3
  6
Continuous
100
AcDbCircle
 10
495.891368
 20
-67.024303
 30
0.0
 40
1.0
100
AcDbArc
 50
273.0
 51
31.115753
  0
ARC
  5
3FF
100
AcDbEntity
  8
0
370
    -3
  6
Continuous
100
AcDbCircle
 10
489.063082
 20
-51.307448
 30
0.0
 40
0.5
100
AcDbArc
 50
15.877702
 51
90.0
  0
LINE
  5
400
100
AcDbEntity
  8
0
370
    -3
  6
Continuous
100
AcDbLine
 10
488.961102
 20
-50.807448
 30
0.0
 11
489.063082
 21
-50.807448
 31
0.0
  0
ARC
  5
401
100
AcDbEntity
  8
0
370
    -3
  6
Continuous
100
AcDbCircle
 10
488.961102
 20
-50.307448
 30
0.0
 40
0.5
100
AcDbArc
 50
187.79785
 51
270.0
  0
ARC
  5
402
100
AcDbEntity
  8
0
370
    -3
  6
Continuous
100
AcDbCircle
 10
587.541019
 20
-36.807448
 30
0.0
 40
100.0
100
AcDbArc
 50
180.0
 51
187.79785
  0
ARC
  5
403
100
AcDbEntity
  8
0
370
    -3
  6
Continuous
100
AcDbCircle
 10
540.041019
 20
-36.807448
 30
0.0
 40
52.5
100
AcDbArc
 50
195.877702
 51
198.664571
  0
ARC
  5
404
100
AcDbEntity
  8
0
370
    -3
  6
Continuous
100
AcDbCircle
 10
540.041019
 20
-36.807448
 30
0.0
 40
52.5
100
AcDbArc
 50
208.562834
 51
208.973449
  0
ARC
  5
405
100
AcDbEntity
  8
0
370
    -3
  6
Continuous
100
AcDbCircle
 10
490.041019
 20
-60.307448
 30
0.0
 40
1.0
100
AcDbArc
 50
93.0
 51
267.0
  0
ARC
  5
406
100
AcDbEntity
  8
0
370
    -3
  6
Continuous
100
AcDbCircle
 10
493.190744
 20
-62.639633
 30
0.0
 40
1.0
100
AcDbArc
 50
273.0
 51
28.871352
  0
LINE
  5
407
100
AcDbEntity
  8
0
370
    -3
  6
Continuous
100
AcDbLine
 10
493.150163
 20
-61.471764
 30
0.0
 11
489.988683
 21
-61.306077
 31
0.0
  0
ARC
  5
408
100
AcDbEntity
  8
0
370
    -3
  6
Continuous
100
AcDbCircle
 10
493.097827
 20
-11.144503
 30
0.0
 40
1.0
100
AcDbArc
 50
273.0
 51
331.335416
  0
ARC
  5
409
100
AcDbEntity
  8
0
370
    -3
  6
Continuous
100
AcDbCircle
 10
491.027369
 20
-58.253011
 30
0.0
 40
1.0
100
AcDbArc
 50
273.0
 51
23.63143
  0
ARC
  5
40A
100
AcDbEntity
  8
0
370
    -3
  6
Continuous
100
AcDbCircle
 10
489.354672
 20
-53.928904
 30
0.0
 40
1.0
100
AcDbArc
 50
290.070332
 51
18.664571
  0
ARC
  5
40B
100
AcDbEntity
  8
0
370
    -3
  6
Continuous
100
AcDbCircle
 10
490.854204
 20
-57.85281
 30
0.0
 40
1.0
100
AcDbArc
 50
23.164432
 51
87.0
  0
LINE
  5
40C
100
AcDbEntity
  8
0
370
    -3
  6
Continuous
100
AcDbLine
 10
490.90654
 20
-56.85418
 30
0.0
 11
489.988683
 21
-56.806077
 31
0.0
  0
ARC
  5
40D
100
AcDbEntity
  8
0
370
    -3
  6
Continuous
100
AcDbCircle
 10
490.041019
 20
-55.807448
 30
0.0
 40
1.0
100
AcDbArc
 50
110.070332
 51
267.0
  0
LINE
  5
40E
100
AcDbEntity
  8
0
370
    -3
  6
Continuous
100
AcDbLine
 10
491.079705
 20
-59.25164
 30
0.0
 11
489.988683
 21
-59.308818
 31
0.0
  0
ARC
  5
40F
100
AcDbEntity
  8
0
370
    -3
  6
Continuous
100
AcDbCircle
 10
490.041019
 20
-64.807448
 30
0.0
 40
1.0
100
AcDbArc
 50
93.0
 51
267.0
  0
LINE
  5
410
100
AcDbEntity
  8
0
370
    -3
  6
Continuous
100
AcDbLine
 10
493.24308
 20
-63.638263
 30
0.0
 11
489.988683
 21
-63.808818
 31
0.0
  0
ARC
  5
411
100
AcDbEntity
  8
0
370
    -3
  6
Continuous
100
AcDbCircle
 10
490.541019
 20
-69.307448
 30
0.0
 40
1.0
100
AcDbArc
 50
93.0
 51
267.0
  0
LINE
  5
412
100
AcDbEntity
  8
0
370
    -3
  6
Continuous
100
AcDbLine
 10
495.943704
 20
-68.022933
 30
0.0
 11
490.488683
 21
-68.308818
 31
0.0
  0
LINE
  5
413
100
AcDbEntity
  8
0
370
    -3
  6
Continuous
100
AcDbLine
 10
496.009522
 20
-66.121616
 30
0.0
 11
489.988683
 21
-65.806077
 31
0.0
  0
LINE
  5
414
100
AcDbEntity
  8
0
370
    -3
  6
Continuous
100
AcDbLine
 10
520.741019
 20
-90.307448
 30
0.0
 11
540.041019
 21
-90.307448
 31
0.0
  0
ARC
  5
415
100
AcDbEntity
  8
0
370
    -3
  6
Continuous
100
AcDbCircle
 10
520.741019
 20
-89.607448
 30
0.0
 40
0.7
100
AcDbArc
 50
180.0
 51
270.0
  0
LINE
  5
416
100
AcDbEntity
  8
0
370
    -3
  6
Continuous
100
AcDbLine
 10
520.041019
 20
-89.607448
 30
0.0
 11
520.041019
 21
-86.013647
 31
0.0
  0
ARC
  5
417
100
AcDbEntity
  8
0
370
    -3
  6
Continuous
100
AcDbCircle
 10
540.041019
 20
-36.807448
 30
0.0
 40
52.5
100
AcDbArc
 50
246.304919
 51
246.888398
  0
ARC
  5
418
100
AcDbEntity
  8
0
370
    -3
  6
Continuous
100
AcDbCircle
 10
519.041019
 20
-86.013647
 30
0.0
 40
1.0
100
AcDbArc
 50
0.0
 51
66.888398
  0
ARC
  5
419
100
AcDbEntity
  8
0
370
    -3
  6
Continuous
100
AcDbCircle
 10
540.041019
 20
-36.807448
 30
0.0
 40
52.5
100
AcDbArc
 50
246.336295
 51
246.888398
  0
ARC
  5
41A
100
AcDbEntity
  8
0
370
    -3
  6
Continuous
100
AcDbCircle
 10
540.041019
 20
-36.807448
 30
0.0
 40
52.5
100
AcDbArc
 50
241.026551
 51
241.437166
  0
ARC
  5
41B
100
AcDbEntity
  8
0
370
    -3
  6
Continuous
100
AcDbCircle
 10
540.041019
 20
-36.807448
 30
0.0
 40
52.5
100
AcDbArc
 50
241.026551
 51
241.437166
  0
ARC
  5
41C
100
AcDbEntity
  8
0
370
    -3
  6
Continuous
100
AcDbCircle
 10
507.541019
 20
-86.307448
 30
0.0
 40
1.0
100
AcDbArc
 50
183.0
 51
357.0
  0
ARC
  5
41D
100
AcDbEntity
  8
0
370
    -3
  6
Continuous
100
AcDbCircle
 10
512.041019
 20
-86.807448
 30
0.0
 40
1.0
100
AcDbArc
 50
183.0
 51
357.0
  0
LINE
  5
41E
100
AcDbEntity
  8
0
370
    -3
  6
Continuous
100
AcDbLine
 10
508.825534
 20
-80.904763
 30
0.0
 11
508.539648
 21
-86.359784
 31
0.0
  0
LINE
  5
41F
100
AcDbEntity
  8
0
370
    -3
  6
Continuous
100
AcDbLine
 10
510.72685
 20
-80.838944
 30
0.0
 11
511.042389
 21
-86.859784
 31
0.0
  0
LINE
  5
420
100
AcDbEntity
  8
0
370
    -3
  6
Continuous
100
AcDbLine
 10
513.210204
 20
-83.605386
 30
0.0
 11
513.039648
 21
-86.859784
 31
0.0
  0
ARC
  5
421
100
AcDbEntity
  8
0
370
    -3
  6
Continuous
100
AcDbCircle
 10
514.208833
 20
-83.657722
 30
0.0
 40
1.0
100
AcDbArc
 50
61.128648
 51
177.0
  0
LINE
  5
422
100
AcDbEntity
  8
0
370
    -3
  6
Continuous
100
AcDbLine
 10
515.376703
 20
-83.698304
 30
0.0
 11
515.542389
 21
-86.859784
 31
0.0
  0
ARC
  5
423
100
AcDbEntity
  8
0
370
    -3
  6
Continuous
100
AcDbCircle
 10
514.378073
 20
-83.75064
 30
0.0
 40
1.0
100
AcDbArc
 50
3.0
 51
61.335416
  0
ARC
  5
424
100
AcDbEntity
  8
0
370
    -3
  6
Continuous
100
AcDbCircle
 10
516.541019
 20
-86.807448
 30
0.0
 40
1.0
100
AcDbArc
 50
183.0
 51
357.0
  0
ARC
  5
425
100
AcDbEntity
  8
0
370
    -3
  6
Continuous
100
AcDbCircle
 10
518.595456
 20
-85.821097
 30
0.0
 40
1.0
100
AcDbArc
 50
66.36857
 51
177.0
  0
LINE
  5
426
100
AcDbEntity
  8
0
370
    -3
  6
Continuous
100
AcDbLine
 10
517.596826
 20
-85.768761
 30
0.0
 11
517.539648
 21
-86.859784
 31
0.0
  0
ARC
  5
427
100
AcDbEntity
  8
0
370
    -3
  6
Continuous
100
AcDbCircle
 10
509.824163
 20
-80.957099
 30
0.0
 40
1.0
100
AcDbArc
 50
55.611524
 51
177.0
  0
ARC
  5
428
100
AcDbEntity
  8
0
370
    -3
  6
Continuous
100
AcDbCircle
 10
509.728221
 20
-80.89128
 30
0.0
 40
1.0
100
AcDbArc
 50
3.0
 51
55.486921
  0
ARC
  5
429
100
AcDbEntity
  8
0
370
    -3
  6
Continuous
100
AcDbCircle
 10
494.660072
 20
-76.817692
 30
0.0
 40
1.0
100
AcDbArc
 50
138.0
 51
221.401106
  0
LINE
  5
42A
100
AcDbEntity
  8
0
370
    -3
  6
Continuous
100
AcDbLine
 10
496.692318
 20
-70.631196
 30
0.0
 11
490.488683
 21
-70.306077
 31
0.0
  0
ARC
  5
42B
100
AcDbEntity
  8
0
370
    -3
  6
Continuous
100
AcDbCircle
 10
496.639982
 20
-71.629826
 30
0.0
 40
1.0
100
AcDbArc
 50
318.0
 51
87.0
  0
ARC
  5
42C
100
AcDbEntity
  8
0
370
    -3
  6
Continuous
100
AcDbCircle
 10
500.030774
 20
-82.188395
 30
0.0
 40
1.0
100
AcDbArc
 50
228.598894
 51
312.0
  0
ARC
  5
42D
100
AcDbEntity
  8
0
370
    -3
  6
Continuous
100
AcDbCircle
 10
540.041019
 20
-36.807448
 30
0.0
 40
61.5
100
AcDbArc
 50
221.401106
 51
228.598894
  0
LINE
  5
42E
100
AcDbEntity
  8
0
370
    -3
  6
Continuous
100
AcDbLine
 10
506.21727
 20
-80.156149
 30
0.0
 11
506.542389
 21
-86.359784
 31
0.0
  0
ARC
  5
42F
100
AcDbEntity
  8
0
370
    -3
  6
Continuous
100
AcDbCircle
 10
505.218641
 20
-80.208485
 30
0.0
 40
1.0
100
AcDbArc
 50
3.0
 51
132.0
  0
ARC
  5
430
100
AcDbEntity
  8
0
370
    -3
  6
Continuous
100
AcDbCircle
 10
587.541019
 20
-36.807448
 30
0.0
 40
100.0
100
AcDbArc
 50
172.20215
 51
180.0
  0
ARC
  5
431
100
AcDbEntity
  8
0
370
    -3
  6
Continuous
100
AcDbCircle
 10
492.541019
 20
-36.807448
 30
0.0
 40
100.0
100
AcDbArc
 50
0.0
 51
7.79785
  0
LINE
  5
432
100
AcDbEntity
  8
0
370
    -3
  6
Continuous
100
AcDbLine
 10
511.842377
 20
-0.716083
 30
0.0
 11
500.699905
 21
9.316644
 31
0.0
  0
LINE
  5
433
100
AcDbEntity
  8
0
370
    -3
  6
Continuous
100
AcDbLine
 10
503.949654
 20
-8.608806
 30
0.0
 11
493.916927
 21
2.533666
 31
0.0
  0
ARC
  5
434
100
AcDbEntity
  8
0
370
    -3
  6
Continuous
100
AcDbCircle
 10
540.041019
 20
-36.807448
 30
0.0
 40
52.5
100
AcDbArc
 50
156.336295
 51
156.863111
  0
ARC
  5
435
100
AcDbEntity
  8
0
370
    -3
  6
Continuous
100
AcDbCircle
 10
495.957186
 20
-6.49465
 30
0.0
 40
1.0
100
AcDbArc
 50
273.0
 51
322.214197
  0
ARC
  5
436
100
AcDbEntity
  8
0
370
    -3
  6
Continuous
100
AcDbCircle
 10
495.891368
 20
-6.590593
 30
0.0
 40
1.0
100
AcDbArc
 50
328.884247
 51
87.0
  0
ARC
  5
437
100
AcDbEntity
  8
0
370
    -3
  6
Continuous
100
AcDbCircle
 10
489.063082
 20
-22.307448
 30
0.0
 40
0.5
100
AcDbArc
 50
270.0
 51
344.122298
  0
LINE
  5
438
100
AcDbEntity
  8
0
370
    -3
  6
Continuous
100
AcDbLine
 10
488.961102
 20
-22.807448
 30
0.0
 11
489.063082
 21
-22.807448
 31
0.0
  0
ARC
  5
439
100
AcDbEntity
  8
0
370
    -3
  6
Continuous
100
AcDbCircle
 10
488.961102
 20
-23.307448
 30
0.0
 40
0.5
100
AcDbArc
 50
90.0
 51
172.20215
  0
ARC
  5
43A
100
AcDbEntity
  8
0
370
    -3
  6
Continuous
100
AcDbCircle
 10
540.041019
 20
-36.807448
 30
0.0
 40
52.5
100
AcDbArc
 50
161.335429
 51
164.122298
  0
ARC
  5
43B
100
AcDbEntity
  8
0
370
    -3
  6
Continuous
100
AcDbCircle
 10
540.041019
 20
-36.807448
 30
0.0
 40
52.5
100
AcDbArc
 50
151.026551
 51
151.437166
  0
ARC
  5
43C
100
AcDbEntity
  8
0
370
    -3
  6
Continuous
100
AcDbCircle
 10
490.041019
 20
-13.307448
 30
0.0
 40
1.0
100
AcDbArc
 50
93.0
 51
267.0
  0
ARC
  5
43D
100
AcDbEntity
  8
0
370
    -3
  6
Continuous
100
AcDbCircle
 10
493.190744
 20
-10.975263
 30
0.0
 40
1.0
100
AcDbArc
 50
331.128648
 51
87.0
  0
LINE
  5
43E
100
AcDbEntity
  8
0
370
    -3
  6
Continuous
100
AcDbLine
 10
493.150163
 20
-12.143132
 30
0.0
 11
489.988683
 21
-12.308818
 31
0.0
  0
ARC
  5
43F
100
AcDbEntity
  8
0
370
    -3
  6
Continuous
100
AcDbCircle
 10
491.027369
 20
-15.361885
 30
0.0
 40
1.0
100
AcDbArc
 50
336.36857
 51
87.0
  0
ARC
  5
440
100
AcDbEntity
  8
0
370
    -3
  6
Continuous
100
AcDbCircle
 10
489.354672
 20
-19.685992
 30
0.0
 40
1.0
100
AcDbArc
 50
341.335429
 51
69.929668
  0
ARC
  5
441
100
AcDbEntity
  8
0
370
    -3
  6
Continuous
100
AcDbCircle
 10
490.854204
 20
-15.762086
 30
0.0
 40
1.0
100
AcDbArc
 50
273.0
 51
336.835568
  0
LINE
  5
442
100
AcDbEntity
  8
0
370
    -3
  6
Continuous
100
AcDbLine
 10
490.90654
 20
-16.760716
 30
0.0
 11
489.988683
 21
-16.808818
 31
0.0
  0
ARC
  5
443
100
AcDbEntity
  8
0
370
    -3
  6
Continuous
100
AcDbCircle
 10
490.041019
 20
-17.807448
 30
0.0
 40
1.0
100
AcDbArc
 50
93.0
 51
249.929668
  0
LINE
  5
444
100
AcDbEntity
  8
0
370
    -3
  6
Continuous
100
AcDbLine
 10
491.079705
 20
-14.363256
 30
0.0
 11
489.988683
 21
-14.306077
 31
0.0
  0
ARC
  5
445
100
AcDbEntity
  8
0
370
    -3
  6
Continuous
100
AcDbCircle
 10
490.041019
 20
-8.807448
 30
0.0
 40
1.0
100
AcDbArc
 50
93.0
 51
267.0
  0
LINE
  5
446
100
AcDbEntity
  8
0
370
    -3
  6
Continuous
100
AcDbLine
 10
493.24308
 20
-9.976633
 30
0.0
 11
489.988683
 21
-9.806077
 31
0.0
  0
ARC
  5
447
100
AcDbEntity
  8
0
370
    -3
  6
Continuous
100
AcDbCircle
 10
490.541019
 20
-4.307448
 30
0.0
 40
1.0
100
AcDbArc
 50
93.0
 51
267.0
  0
LINE
  5
448
100
AcDbEntity
  8
0
370
    -3
  6
Continuous
100
AcDbLine
 10
495.943704
 20
-5.591963
 30
0.0
 11
490.488683
 21
-5.306077
 31
0.0
  0
LINE
  5
449
100
AcDbEntity
  8
0
370
    -3
  6
Continuous
100
AcDbLine
 10
496.009522
 20
-7.49328
 30
0.0
 11
489.988683
 21
-7.808818
 31
0.0
  0
ARC
  5
44A
100
AcDbEntity
  8
0
370
    -3
  6
Continuous
100
AcDbCircle
 10
540.041019
 20
-36.807448
 30
0.0
 40
52.5
100
AcDbArc
 50
118.562834
 51
118.973449
  0
ARC
  5
44B
100
AcDbEntity
  8
0
370
    -3
  6
Continuous
100
AcDbCircle
 10
540.041019
 20
-36.807448
 30
0.0
 40
52.5
100
AcDbArc
 50
118.562834
 51
118.973449
  0
LINE
  5
44C
100
AcDbEntity
  8
0
370
    -3
  6
Continuous
100
AcDbLine
 10
508.825534
 20
7.289867
 30
0.0
 11
508.539648
 21
12.744888
 31
0.0
  0
LINE
  5
44D
100
AcDbEntity
  8
0
370
    -3
  6
Continuous
100
AcDbLine
 10
510.72685
 20
7.224049
 30
0.0
 11
511.042389
 21
13.244888
 31
0.0
  0
ARC
  5
44E
100
AcDbEntity
  8
0
370
    -3
  6
Continuous
100
AcDbCircle
 10
514.208833
 20
10.042826
 30
0.0
 40
1.0
100
AcDbArc
 50
183.0
 51
298.871352
  0
ARC
  5
44F
100
AcDbEntity
  8
0
370
    -3
  6
Continuous
100
AcDbCircle
 10
514.378073
 20
10.135744
 30
0.0
 40
1.0
100
AcDbArc
 50
298.664584
 51
357.0
  0
ARC
  5
450
100
AcDbEntity
  8
0
370
    -3
  6
Continuous
100
AcDbCircle
 10
509.824163
 20
7.342203
 30
0.0
 40
1.0
100
AcDbArc
 50
183.0
 51
304.388476
  0
ARC
  5
451
100
AcDbEntity
  8
0
370
    -3
  6
Continuous
100
AcDbCircle
 10
509.728221
 20
7.276385
 30
0.0
 40
1.0
100
AcDbArc
 50
304.513079
 51
357.0
  0
ARC
  5
452
100
AcDbEntity
  8
0
370
    -3
  6
Continuous
100
AcDbCircle
 10
494.660072
 20
3.202796
 30
0.0
 40
1.0
100
AcDbArc
 50
138.598894
 51
222.0
  0
LINE
  5
453
100
AcDbEntity
  8
0
370
    -3
  6
Continuous
100
AcDbLine
 10
496.692318
 20
-2.9837
 30
0.0
 11
490.488683
 21
-3.308818
 31
0.0
  0
ARC
  5
454
100
AcDbEntity
  8
0
370
    -3
  6
Continuous
100
AcDbCircle
 10
496.639982
 20
-1.98507
 30
0.0
 40
1.0
100
AcDbArc
 50
273.0
 51
42.0
  0
ARC
  5
455
100
AcDbEntity
  8
0
370
    -3
  6
Continuous
100
AcDbCircle
 10
500.030774
 20
8.573499
 30
0.0
 40
1.0
100
AcDbArc
 50
48.0
 51
131.401106
  0
ARC
  5
456
100
AcDbEntity
  8
0
370
    -3
  6
Continuous
100
AcDbCircle
 10
540.041019
 20
-36.807448
 30
0.0
 40
61.5
100
AcDbArc
 50
131.401106
 51
138.598894
  0
LINE
  5
457
100
AcDbEntity
  8
0
370
    -3
  6
Continuous
100
AcDbLine
 10
506.21727
 20
6.541253
 30
0.0
 11
506.542389
 21
12.744888
 31
0.0
  0
ARC
  5
458
100
AcDbEntity
  8
0
370
    -3
  6
Continuous
100
AcDbCircle
 10
505.218641
 20
6.593589
 30
0.0
 40
1.0
100
AcDbArc
 50
228.0
 51
357.0
  0
LINE
  5
459
100
AcDbEntity
  8
0
370
    -3
  6
Continuous
100
AcDbLine
 10
568.23966
 20
-0.716083
 30
0.0
 11
579.382132
 21
9.316644
 31
0.0
  0
LINE
  5
45A
100
AcDbEntity
  8
0
370
    -3
  6
Continuous
100
AcDbLine
 10
576.132383
 20
-8.608806
 30
0.0
 11
586.16511
 21
2.533666
 31
0.0
  0
ARC
  5
45B
100
AcDbEntity
  8
0
370
    -3
  6
Continuous
100
AcDbCircle
 10
540.041019
 20
-36.807448
 30
0.0
 40
52.5
100
AcDbArc
 50
23.136889
 51
23.663705
  0
ARC
  5
45C
100
AcDbEntity
  8
0
370
    -3
  6
Continuous
100
AcDbCircle
 10
584.124851
 20
-6.49465
 30
0.0
 40
1.0
100
AcDbArc
 50
217.785803
 51
267.0
  0
ARC
  5
45D
100
AcDbEntity
  8
0
370
    -3
  6
Continuous
100
AcDbCircle
 10
584.190669
 20
-6.590593
 30
0.0
 40
1.0
100
AcDbArc
 50
93.0
 51
211.115753
  0
ARC
  5
45E
100
AcDbEntity
  8
0
370
    -3
  6
Continuous
100
AcDbCircle
 10
591.018955
 20
-22.307448
 30
0.0
 40
0.5
100
AcDbArc
 50
195.877702
 51
270.0
  0
LINE
  5
45F
100
AcDbEntity
  8
0
370
    -3
  6
Continuous
100
AcDbLine
 10
591.120935
 20
-22.807448
 30
0.0
 11
591.018955
 21
-22.807448
 31
0.0
  0
ARC
  5
460
100
AcDbEntity
  8
0
370
    -3
  6
Continuous
100
AcDbCircle
 10
591.120935
 20
-23.307448
 30
0.0
 40
0.5
100
AcDbArc
 50
7.79785
 51
90.0
  0
ARC
  5
461
100
AcDbEntity
  8
0
370
    -3
  6
Continuous
100
AcDbCircle
 10
540.041019
 20
-36.807448
 30
0.0
 40
52.5
100
AcDbArc
 50
15.877702
 51
18.664571
  0
ARC
  5
462
100
AcDbEntity
  8
0
370
    -3
  6
Continuous
100
AcDbCircle
 10
540.041019
 20
-36.807448
 30
0.0
 40
52.5
100
AcDbArc
 50
28.562834
 51
28.973449
  0
ARC
  5
463
100
AcDbEntity
  8
0
370
    -3
  6
Continuous
100
AcDbCircle
 10
590.041019
 20
-13.307448
 30
0.0
 40
1.0
100
AcDbArc
 50
273.0
 51
87.0
  0
ARC
  5
464
100
AcDbEntity
  8
0
370
    -3
  6
Continuous
100
AcDbCircle
 10
586.891293
 20
-10.975263
 30
0.0
 40
1.0
100
AcDbArc
 50
93.0
 51
208.871352
  0
LINE
  5
465
100
AcDbEntity
  8
0
370
    -3
  6
Continuous
100
AcDbLine
 10
586.931874
 20
-12.143132
 30
0.0
 11
590.093355
 21
-12.308818
 31
0.0
  0
ARC
  5
466
100
AcDbEntity
  8
0
370
    -3
  6
Continuous
100
AcDbCircle
 10
586.98421
 20
-11.144503
 30
0.0
 40
1.0
100
AcDbArc
 50
208.664584
 51
267.0
  0
ARC
  5
467
100
AcDbEntity
  8
0
370
    -3
  6
Continuous
100
AcDbCircle
 10
589.054668
 20
-15.361885
 30
0.0
 40
1.0
100
AcDbArc
 50
93.0
 51
203.63143
  0
ARC
  5
468
100
AcDbEntity
  8
0
370
    -3
  6
Continuous
100
AcDbCircle
 10
590.727365
 20
-19.685992
 30
0.0
 40
1.0
100
AcDbArc
 50
110.070332
 51
198.664571
  0
ARC
  5
469
100
AcDbEntity
  8
0
370
    -3
  6
Continuous
100
AcDbCircle
 10
589.227833
 20
-15.762086
 30
0.0
 40
1.0
100
AcDbArc
 50
203.164432
 51
267.0
  0
LINE
  5
46A
100
AcDbEntity
  8
0
370
    -3
  6
Continuous
100
AcDbLine
 10
589.175497
 20
-16.760716
 30
0.0
 11
590.093355
 21
-16.808818
 31
0.0
  0
ARC
  5
46B
100
AcDbEntity
  8
0
370
    -3
  6
Continuous
100
AcDbCircle
 10
590.041019
 20
-17.807448
 30
0.0
 40
1.0
100
AcDbArc
 50
290.070332
 51
87.0
  0
LINE
  5
46C
100
AcDbEntity
  8
0
370
    -3
  6
Continuous
100
AcDbLine
 10
589.002332
 20
-14.363256
 30
0.0
 11
590.093355
 21
-14.306077
 31
0.0
  0
ARC
  5
46D
100
AcDbEntity
  8
0
370
    -3
  6
Continuous
100
AcDbCircle
 10
590.041019
 20
-8.807448
 30
0.0
 40
1.0
100
AcDbArc
 50
273.0
 51
87.0
  0
LINE
  5
46E
100
AcDbEntity
  8
0
370
    -3
  6
Continuous
100
AcDbLine
 10
586.838957
 20
-9.976633
 30
0.0
 11
590.093355
 21
-9.806077
 31
0.0
  0
ARC
  5
46F
100
AcDbEntity
  8
0
370
    -3
  6
Continuous
100
AcDbCircle
 10
589.541019
 20
-4.307448
 30
0.0
 40
1.0
100
AcDbArc
 50
273.0
 51
87.0
  0
LINE
  5
470
100
AcDbEntity
  8
0
370
    -3
  6
Continuous
100
AcDbLine
 10
584.138333
 20
-5.591963
 30
0.0
 11
589.593355
 21
-5.306077
 31
0.0
  0
LINE
  5
471
100
AcDbEntity
  8
0
370
    -3
  6
Continuous
100
AcDbLine
 10
584.072515
 20
-7.49328
 30
0.0
 11
590.093355
 21
-7.808818
 31
0.0
  0
ARC
  5
472
100
AcDbEntity
  8
0
370
    -3
  6
Continuous
100
AcDbCircle
 10
540.041019
 20
-36.807448
 30
0.0
 40
52.5
100
AcDbArc
 50
61.026551
 51
61.437166
  0
ARC
  5
473
100
AcDbEntity
  8
0
370
    -3
  6
Continuous
100
AcDbCircle
 10
540.041019
 20
-36.807448
 30
0.0
 40
52.5
100
AcDbArc
 50
61.026551
 51
61.437166
  0
LINE
  5
474
100
AcDbEntity
  8
0
370
    -3
  6
Continuous
100
AcDbLine
 10
571.256504
 20
7.289867
 30
0.0
 11
571.542389
 21
12.744888
 31
0.0
  0
LINE
  5
475
100
AcDbEntity
  8
0
370
    -3
  6
Continuous
100
AcDbLine
 10
569.355187
 20
7.224049
 30
0.0
 11
569.039648
 21
13.244888
 31
0.0
  0
ARC
  5
476
100
AcDbEntity
  8
0
370
    -3
  6
Continuous
100
AcDbCircle
 10
565.873204
 20
10.042826
 30
0.0
 40
1.0
100
AcDbArc
 50
241.128648
 51
357.0
  0
ARC
  5
477
100
AcDbEntity
  8
0
370
    -3
  6
Continuous
100
AcDbCircle
 10
565.703964
 20
10.135744
 30
0.0
 40
1.0
100
AcDbArc
 50
183.0
 51
241.335416
  0
ARC
  5
478
100
AcDbEntity
  8
0
370
    -3
  6
Continuous
100
AcDbCircle
 10
570.257874
 20
7.342203
 30
0.0
 40
1.0
100
AcDbArc
 50
235.611524
 51
357.0
  0
ARC
  5
479
100
AcDbEntity
  8
0
370
    -3
  6
Continuous
100
AcDbCircle
 10
570.353816
 20
7.276385
 30
0.0
 40
1.0
100
AcDbArc
 50
183.0
 51
235.486921
  0
ARC
  5
47A
100
AcDbEntity
  8
0
370
    -3
  6
Continuous
100
AcDbCircle
 10
585.421966
 20
3.202796
 30
0.0
 40
1.0
100
AcDbArc
 50
318.0
 51
41.401106
  0
LINE
  5
47B
100
AcDbEntity
  8
0
370
    -3
  6
Continuous
100
AcDbLine
 10
583.389719
 20
-2.9837
 30
0.0
 11
589.593355
 21
-3.308818
 31
0.0
  0
ARC
  5
47C
100
AcDbEntity
  8
0
370
    -3
  6
Continuous
100
AcDbCircle
 10
583.442055
 20
-1.98507
 30
0.0
 40
1.0
100
AcDbArc
 50
138.0
 51
267.0
  0
ARC
  5
47D
100
AcDbEntity
  8
0
370
    -3
  6
Continuous
100
AcDbCircle
 10
580.051263
 20
8.573499
 30
0.0
 40
1.0
100
AcDbArc
 50
48.598894
 51
132.0
  0
ARC
  5
47E
100
AcDbEntity
  8
0
370
    -3
  6
Continuous
100
AcDbCircle
 10
540.041019
 20
-36.807448
 30
0.0
 40
61.5
100
AcDbArc
 50
41.401106
 51
48.598894
  0
LINE
  5
47F
100
AcDbEntity
  8
0
370
    -3
  6
Continuous
100
AcDbLine
 10
573.864767
 20
6.541253
 30
0.0
 11
573.539648
 21
12.744888
 31
0.0
  0
ARC
  5
480
100
AcDbEntity
  8
0
370
    -3
  6
Continuous
100
AcDbCircle
 10
574.863396
 20
6.593589
 30
0.0
 40
1.0
100
AcDbArc
 50
183.0
 51
312.0
  0
LINE
  5
481
100
AcDbEntity
  8
0
370
    -3
  6
Continuous
100
AcDbLine
 10
520.741019
 20
16.692552
 30
0.0
 11
540.041019
 21
16.692552
 31
0.0
  0
ARC
  5
482
100
AcDbEntity
  8
0
370
    -3
  6
Continuous
100
AcDbCircle
 10
520.741019
 20
15.992552
 30
0.0
 40
0.7
100
AcDbArc
 50
90.0
 51
180.0
  0
LINE
  5
483
100
AcDbEntity
  8
0
370
    -3
  6
Continuous
100
AcDbLine
 10
520.041019
 20
15.992552
 30
0.0
 11
520.041019
 21
12.398751
 31
0.0
  0
ARC
  5
484
100
AcDbEntity
  8
0
370
    -3
  6
Continuous
100
AcDbCircle
 10
540.041019
 20
-36.807448
 30
0.0
 40
52.5
100
AcDbArc
 50
113.111602
 51
113.695081
  0
ARC
  5
485
100
AcDbEntity
  8
0
370
    -3
  6
Continuous
100
AcDbCircle
 10
519.041019
 20
12.398751
 30
0.0
 40
1.0
100
AcDbArc
 50
293.111602
 51
0.0
  0
ARC
  5
486
100
AcDbEntity
  8
0
370
    -3
  6
Continuous
100
AcDbCircle
 10
540.041019
 20
-36.807448
 30
0.0
 40
52.5
100
AcDbArc
 50
113.111602
 51
113.663705
  0
ARC
  5
487
100
AcDbEntity
  8
0
370
    -3
  6
Continuous
100
AcDbCircle
 10
507.541019
 20
12.692552
 30
0.0
 40
1.0
100
AcDbArc
 50
3.0
 51
177.0
  0
ARC
  5
488
100
AcDbEntity
  8
0
370
    -3
  6
Continuous
100
AcDbCircle
 10
512.041019
 20
13.192552
 30
0.0
 40
1.0
100
AcDbArc
 50
3.0
 51
177.0
  0
LINE
  5
489
100
AcDbEntity
  8
0
370
    -3
  6
Continuous
100
AcDbLine
 10
513.210204
 20
9.99049
 30
0.0
 11
513.039648
 21
13.244888
 31
0.0
  0
LINE
  5
48A
100
AcDbEntity
  8
0
370
    -3
  6
Continuous
100
AcDbLine
 10
515.376703
 20
10.083408
 30
0.0
 11
515.542389
 21
13.244888
 31
0.0
  0
ARC
  5
48B
100
AcDbEntity
  8
0
370
    -3
  6
Continuous
100
AcDbCircle
 10
516.541019
 20
13.192552
 30
0.0
 40
1.0
100
AcDbArc
 50
3.0
 51
177.0
  0
ARC
  5
48C
100
AcDbEntity
  8
0
370
    -3
  6
Continuous
100
AcDbCircle
 10
518.595456
 20
12.206202
 30
0.0
 40
1.0
100
AcDbArc
 50
183.0
 51
293.63143
  0
LINE
  5
48D
100
AcDbEntity
  8
0
370
    -3
  6
Continuous
100
AcDbLine
 10
517.596826
 20
12.153866
 30
0.0
 11
517.539648
 21
13.244888
 31
0.0
  0
LINE
  5
48E
100
AcDbEntity
  8
0
370
    -3
  6
Continuous
100
AcDbLine
 10
559.341019
 20
16.692552
 30
0.0
 11
540.041019
 21
16.692552
 31
0.0
  0
ARC
  5
48F
100
AcDbEntity
  8
0
370
    -3
  6
Continuous
100
AcDbCircle
 10
559.341019
 20
15.992552
 30
0.0
 40
0.7
100
AcDbArc
 50
0.0
 51
90.0
  0
LINE
  5
490
100
AcDbEntity
  8
0
370
    -3
  6
Continuous
100
AcDbLine
 10
560.041019
 20
15.992552
 30
0.0
 11
560.041019
 21
12.398751
 31
0.0
  0
ARC
  5
491
100
AcDbEntity
  8
0
370
    -3
  6
Continuous
100
AcDbCircle
 10
540.041019
 20
-36.807448
 30
0.0
 40
52.5
100
AcDbArc
 50
66.304919
 51
66.888398
  0
ARC
  5
492
100
AcDbEntity
  8
0
370
    -3
  6
Continuous
100
AcDbCircle
 10
561.041019
 20
12.398751
 30
0.0
 40
1.0
100
AcDbArc
 50
180.0
 51
246.888398
  0
ARC
  5
493
100
AcDbEntity
  8
0
370
    -3
  6
Continuous
100
AcDbCircle
 10
540.041019
 20
-36.807448
 30
0.0
 40
52.5
100
AcDbArc
 50
66.336295
 51
66.888398
  0
ARC
  5
494
100
AcDbEntity
  8
0
370
    -3
  6
Continuous
100
AcDbCircle
 10
572.541019
 20
12.692552
 30
0.0
 40
1.0
100
AcDbArc
 50
3.0
 51
177.0
  0
ARC
  5
495
100
AcDbEntity
  8
0
370
    -3
  6
Continuous
100
AcDbCircle
 10
568.041019
 20
13.192552
 30
0.0
 40
1.0
100
AcDbArc
 50
3.0
 51
177.0
  0
LINE
  5
496
100
AcDbEntity
  8
0
370
    -3
  6
Continuous
100
AcDbLine
 10
566.871833
 20
9.99049
 30
0.0
 11
567.042389
 21
13.244888
 31
0.0
  0
LINE
  5
497
100
AcDbEntity
  8
0
370
    -3
  6
Continuous
100
AcDbLine
 10
564.705334
 20
10.083408
 30
0.0
 11
564.539648
 21
13.244888
 31
0.0
  0
ARC
  5
498
100
AcDbEntity
  8
0
370
    -3
  6
Continuous
100
AcDbCircle
 10
563.541019
 20
13.192552
 30
0.0
 40
1.0
100
AcDbArc
 50
3.0
 51
177.0
  0
ARC
  5
499
100
AcDbEntity
  8
0
370
    -3
  6
Continuous
100
AcDbCircle
 10
561.486581
 20
12.206202
 30
0.0
 40
1.0
100
AcDbArc
 50
246.36857
 51
357.0
  0
LINE
  5
49A
100
AcDbEntity
  8
0
370
    -3
  6
Continuous
100
AcDbLine
 10
562.485211
 20
12.153866
 30
0.0
 11
562.542389
 21
13.244888
 31
0.0
  0
LINE
  5
49B
100
AcDbEntity
  8
0
370
    -3
  6
Continuous
100
AcDbLine
 10
521.291019
 20
-90.307448
 30
0.0
 11
558.791019
 21
-90.307448
 31
0.0
  0
LINE
  5
49C
100
AcDbEntity
  8
0
370
    -3
  6
Continuous
100
AcDbLine
 10
520.541019
 20
16.692552
 30
0.0
 11
559.541019
 21
16.692552
 31
0.0
  0
ARC
  5
49D
100
AcDbEntity
  8
0
370
    -3
  6
Continuous
100
AcDbCircle
 10
512.541019
 20
-9.307448
 30
0.0
 40
25.0
100
AcDbArc
 50
95.730175
 51
174.269825
  0
ARC
  5
49E
100
AcDbEntity
  8
0
370
    -3
  6
Continuous
100
AcDbCircle
 10
520.041019
 20
-384.307448
 30
0.0
 40
400.0
100
AcDbArc
 50
90.07153
 51
91.431984
  0
ARC
  5
49F
100
AcDbEntity
  8
0
370
    -3
  6
Continuous
100
AcDbCircle
 10
519.541019
 20
16.192552
 30
0.0
 40
0.5
100
AcDbArc
 50
270.0
 51
0.0
  0
ARC
  5
4A0
100
AcDbEntity
  8
0
370
    -3
  6
Continuous
100
AcDbCircle
 10
520.541019
 20
16.192552
 30
0.0
 40
0.5
100
AcDbArc
 50
90.0
 51
180.0
  0
ARC
  5
4A1
100
AcDbEntity
  8
0
370
    -3
  6
Continuous
100
AcDbCircle
 10
560.041019
 20
-384.307448
 30
0.0
 40
400.0
100
AcDbArc
 50
88.568016
 51
89.92847
  0
ARC
  5
4A2
100
AcDbEntity
  8
0
370
    -3
  6
Continuous
100
AcDbCircle
 10
559.541019
 20
16.192552
 30
0.0
 40
0.5
100
AcDbArc
 50
0.0
 51
90.0
  0
ARC
  5
4A3
100
AcDbEntity
  8
0
370
    -3
  6
Continuous
100
AcDbCircle
 10
560.541019
 20
16.192552
 30
0.0
 40
0.5
100
AcDbArc
 50
180.0
 51
270.0
  0
ARC
  5
4A4
100
AcDbEntity
  8
0
370
    -3
  6
Continuous
100
AcDbCircle
 10
567.541019
 20
-9.307448
 30
0.0
 40
25.0
100
AcDbArc
 50
5.730175
 51
84.269825
  0
ARC
  5
4A5
100
AcDbEntity
  8
0
370
    -3
  6
Continuous
100
AcDbCircle
 10
593.041019
 20
-16.307448
 30
0.0
 40
0.5
100
AcDbArc
 50
180.0
 51
270.0
  0
ARC
  5
4A6
100
AcDbEntity
  8
0
370
    -3
  6
Continuous
100
AcDbCircle
 10
593.041019
 20
-17.307448
 30
0.0
 40
0.5
100
AcDbArc
 50
0.0
 51
90.0
  0
LINE
  5
4A7
100
AcDbEntity
  8
0
370
    -3
  6
Continuous
100
AcDbLine
 10
593.541019
 20
-17.307448
 30
0.0
 11
593.541019
 21
-56.307448
 31
0.0
  0
ARC
  5
4A8
100
AcDbEntity
  8
0
370
    -3
  6
Continuous
100
AcDbCircle
 10
192.541019
 20
-16.807448
 30
0.0
 40
400.0
100
AcDbArc
 50
0.07153
 51
1.431984
  0
ARC
  5
4A9
100
AcDbEntity
  8
0
370
    -3
  6
Continuous
100
AcDbCircle
 10
192.541019
 20
-56.807448
 30
0.0
 40
400.0
100
AcDbArc
 50
359.140459
 51
359.92847
  0
ARC
  5
4AA
100
AcDbEntity
  8
0
370
    -3
  6
Continuous
100
AcDbCircle
 10
593.041019
 20
-57.307448
 30
0.0
 40
0.5
100
AcDbArc
 50
90.0
 51
180.0
  0
ARC
  5
4AB
100
AcDbEntity
  8
0
370
    -3
  6
Continuous
100
AcDbCircle
 10
593.041019
 20
-56.307448
 30
0.0
 40
0.5
100
AcDbArc
 50
270.0
 51
0.0
  0
ARC
  5
4AC
100
AcDbEntity
  8
0
370
    -3
  6
Continuous
100
AcDbCircle
 10
567.541019
 20
-64.307448
 30
0.0
 40
25.0
100
AcDbArc
 50
275.730175
 51
3.43865
  0
LINE
  5
4AD
100
AcDbEntity
  8
0
370
    -3
  6
Continuous
100
AcDbLine
 10
559.541019
 20
-90.307448
 30
0.0
 11
520.541019
 21
-90.307448
 31
0.0
  0
ARC
  5
4AE
100
AcDbEntity
  8
0
370
    -3
  6
Continuous
100
AcDbCircle
 10
559.541019
 20
-89.807448
 30
0.0
 40
0.5
100
AcDbArc
 50
270.0
 51
0.0
  0
ARC
  5
4AF
100
AcDbEntity
  8
0
370
    -3
  6
Continuous
100
AcDbCircle
 10
560.541019
 20
-89.807448
 30
0.0
 40
0.5
100
AcDbArc
 50
90.0
 51
180.0
  0
ARC
  5
4B0
100
AcDbEntity
  8
0
370
    -3
  6
Continuous
100
AcDbCircle
 10
560.041019
 20
310.692552
 30
0.0
 40
400.0
100
AcDbArc
 50
270.07153
 51
271.431984
  0
ARC
  5
4B1
100
AcDbEntity
  8
0
370
    -3
  6
Continuous
100
AcDbCircle
 10
520.041019
 20
310.692552
 30
0.0
 40
400.0
100
AcDbArc
 50
269.140459
 51
269.92847
  0
ARC
  5
4B2
100
AcDbEntity
  8
0
370
    -3
  6
Continuous
100
AcDbCircle
 10
520.541019
 20
-89.807448
 30
0.0
 40
0.5
100
AcDbArc
 50
180.0
 51
270.0
  0
ARC
  5
4B3
100
AcDbEntity
  8
0
370
    -3
  6
Continuous
100
AcDbCircle
 10
519.541019
 20
-89.807448
 30
0.0
 40
0.5
100
AcDbArc
 50
0.0
 51
90.0
  0
ARC
  5
4B4
100
AcDbEntity
  8
0
370
    -3
  6
Continuous
100
AcDbCircle
 10
512.541019
 20
-64.307448
 30
0.0
 40
25.0
100
AcDbArc
 50
185.730175
 51
273.43865
  0
ARC
  5
4B5
100
AcDbEntity
  8
0
370
    -3
  6
Continuous
100
AcDbCircle
 10
887.541019
 20
-56.807448
 30
0.0
 40
400.0
100
AcDbArc
 50
180.07153
 51
181.431984
  0
LINE
  5
4B6
100
AcDbEntity
  8
0
370
    -3
  6
Continuous
100
AcDbLine
 10
486.541019
 20
-56.307448
 30
0.0
 11
486.541019
 21
-17.307448
 31
0.0
  0
ARC
  5
4B7
100
AcDbEntity
  8
0
370
    -3
  6
Continuous
100
AcDbCircle
 10
487.041019
 20
-57.307448
 30
0.0
 40
0.5
100
AcDbArc
 50
0.0
 51
90.0
  0
ARC
  5
4B8
100
AcDbEntity
  8
0
370
    -3
  6
Continuous
100
AcDbCircle
 10
487.041019
 20
-56.307448
 30
0.0
 40
0.5
100
AcDbArc
 50
180.0
 51
270.0
  0
ARC
  5
4B9
100
AcDbEntity
  8
0
370
    -3
  6
Continuous
100
AcDbCircle
 10
887.541019
 20
-16.807448
 30
0.0
 40
400.0
100
AcDbArc
 50
178.568016
 51
179.947
  0
ARC
  5
4BA
100
AcDbEntity
  8
0
370
    -3
  6
Continuous
100
AcDbCircle
 10
487.041019
 20
-16.307448
 30
0.0
 40
0.5
100
AcDbArc
 50
270.0
 51
0.0
  0
ARC
  5
4BB
100
AcDbEntity
  8
0
370
    -3
  6
Continuous
100
AcDbCircle
 10
487.041019
 20
-17.307448
 30
0.0
 40
0.5
100
AcDbArc
 50
90.0
 51
180.0
  0
LINE
  5
4BC
100
AcDbEntity
  8
0
370
    -3
  6
Continuous
100
AcDbLine
 10
491.041087
 20
3.450018
 30
0.0
 11
491.041087
 21
35.711958
 31
0.0
  0
LINE
  5
4BD
100
AcDbEntity
  8
0
370
    -3
  6
Continuous
100
AcDbLine
 10
590.041019
 20
1.589799
 30
0.0
 11
590.041019
 21
39.309552
 31
0.0
  0
CIRCLE
  5
4BE
100
AcDbEntity
  8
0
370
    -3
  6
Continuous
100
AcDbCircle
 10
-50.958768
 20
-31.690448
 30
0.0
 40
3.5
  0
CIRCLE
  5
4BF
100
AcDbEntity
  8
0
370
    -3
  6
Continuous
100
AcDbCircle
 10
-50.958768
 20
-31.690448
 30
0.0
 40
4.0
  0
ARC
  5
4C0
100
AcDbEntity
  8
0
370
    -3
  6
Continuous
100
AcDbCircle
 10
-50.958768
 20
-31.690448
 30
0.0
 40
16.0
100
AcDbArc
 50
108.209957
 51
71.790043
  0
LINE
  5
4C1
100
AcDbEntity
  8
0
370
    -3
  6
Continuous
100
AcDbLine
 10
-55.958768
 20
-20.690448
 30
0.0
 11
-45.958768
 21
-20.690448
 31
0.0
  0
LINE
  5
4C2
100
AcDbEntity
  8
0
370
    -3
  6
Continuous
100
AcDbLine
 10
-55.958768
 20
-12.690448
 30
0.0
 11
-55.958768
 21
-20.690448
 31
0.0
  0
LINE
  5
4C3
100
AcDbEntity
  8
0
370
    -3
  6
Continuous
100
AcDbLine
 10
-45.958768
 20
-12.690448
 30
0.0
 11
-55.958768
 21
-12.690448
 31
0.0
  0
LINE
  5
4C4
100
AcDbEntity
  8
0
370
    -3
  6
Continuous
100
AcDbLine
 10
-45.958768
 20
-12.690448
 30
0.0
 11
-45.958768
 21
-20.690448
 31
0.0
  0
LINE
  5
4C5
100
AcDbEntity
  8
0
370
    -3
  6
CENTER
100
AcDbLine
 10
-50.958768
 20
-8.192435
 30
0.0
 11
-50.958768
 21
-52.71394
 31
0.0
  0
LINE
  5
4C6
100
AcDbEntity
  8
0
370
    -3
  6
CENTER
100
AcDbLine
 10
-72.178587
 20
-31.690448
 30
0.0
 11
-31.081813
 21
-31.690448
 31
0.0
  0
LINE
  5
4C7
100
AcDbEntity
  8
0
370
    -3
  6
Continuous
100
AcDbLine
 10
-306.958774
 20
-151.717872
 30
0.0
 11
-307.958563
 21
-150.697304
 31
0.0
  0
LINE
  5
4C8
100
AcDbEntity
  8
0
370
    -3
  6
CENTER
100
AcDbLine
 10
-326.958563
 20
-145.075615
 30
0.0
 11
-326.958563
 21
-178.303447
 31
0.0
  0
LINE
  5
4C9
100
AcDbEntity
  8
0
370
    -3
  6
CENTER
100
AcDbLine
 10
-188.958563
 20
-145.075615
 30
0.0
 11
-188.958563
 21
-178.303447
 31
0.0
  0
LINE
  5
4CA
100
AcDbEntity
  8
0
370
    -3
  6
CENTER
100
AcDbLine
 10
-227.90122
 20
-36.807448
 30
0.0
 11
-286.499216
 21
-36.807448
 31
0.0
  0
ARC
  5
4CB
100
AcDbEntity
  8
0
370
    -3
  6
DASHED
100
AcDbCircle
 10
-310.958563
 20
-17.307448
 30
0.0
 40
0.5
100
AcDbArc
 50
90.0
 51
180.0
  0
ARC
  5
4CC
100
AcDbEntity
  8
0
370
    -3
  6
DASHED
100
AcDbCircle
 10
-310.958563
 20
-16.307448
 30
0.0
 40
0.5
100
AcDbArc
 50
270.0
 51
0.0
  0
ARC
  5
4CD
100
AcDbEntity
  8
0
370
    -3
  6
DASHED
100
AcDbCircle
 10
89.541437
 20
-16.807448
 30
0.0
 40
400.0
100
AcDbArc
 50
178.568016
 51
179.947
  0
ARC
  5
4CE
100
AcDbEntity
  8
0
370
    -3
  6
DASHED
100
AcDbCircle
 10
-310.958563
 20
-56.307448
 30
0.0
 40
0.5
100
AcDbArc
 50
180.0
 51
270.0
  0
ARC
  5
4CF
100
AcDbEntity
  8
0
370
    -3
  6
DASHED
100
AcDbCircle
 10
-310.958563
 20
-57.307448
 30
0.0
 40
0.5
100
AcDbArc
 50
0.0
 51
90.0
  0
LINE
  5
4D0
100
AcDbEntity
  8
0
370
    -3
  6
DASHED
100
AcDbLine
 10
-311.458563
 20
-56.307448
 30
0.0
 11
-311.458563
 21
-17.307448
 31
0.0
  0
ARC
  5
4D1
100
AcDbEntity
  8
0
370
    -3
  6
DASHED
100
AcDbCircle
 10
89.541437
 20
-56.807448
 30
0.0
 40
400.0
100
AcDbArc
 50
180.07153
 51
181.431984
  0
ARC
  5
4D2
100
AcDbEntity
  8
0
370
    -3
  6
DASHED
100
AcDbCircle
 10
-285.458563
 20
-64.307448
 30
0.0
 40
25.0
100
AcDbArc
 50
185.730175
 51
273.43865
  0
ARC
  5
4D3
100
AcDbEntity
  8
0
370
    -3
  6
DASHED
100
AcDbCircle
 10
-278.458563
 20
-89.807448
 30
0.0
 40
0.5
100
AcDbArc
 50
0.0
 51
90.0
  0
ARC
  5
4D4
100
AcDbEntity
  8
0
370
    -3
  6
DASHED
100
AcDbCircle
 10
-277.458563
 20
-89.807448
 30
0.0
 40
0.5
100
AcDbArc
 50
180.0
 51
270.0
  0
ARC
  5
4D5
100
AcDbEntity
  8
0
370
    -3
  6
DASHED
100
AcDbCircle
 10
-277.958563
 20
310.692552
 30
0.0
 40
400.0
100
AcDbArc
 50
269.140459
 51
269.92847
  0
ARC
  5
4D6
100
AcDbEntity
  8
0
370
    -3
  6
DASHED
100
AcDbCircle
 10
-237.958563
 20
310.692552
 30
0.0
 40
400.0
100
AcDbArc
 50
270.07153
 51
271.431984
  0
ARC
  5
4D7
100
AcDbEntity
  8
0
370
    -3
  6
DASHED
100
AcDbCircle
 10
-237.458563
 20
-89.807448
 30
0.0
 40
0.5
100
AcDbArc
 50
90.0
 51
180.0
  0
ARC
  5
4D8
100
AcDbEntity
  8
0
370
    -3
  6
DASHED
100
AcDbCircle
 10
-238.458563
 20
-89.807448
 30
0.0
 40
0.5
100
AcDbArc
 50
270.0
 51
0.0
  0
LINE
  5
4D9
100
AcDbEntity
  8
0
370
    -3
  6
DASHED
100
AcDbLine
 10
-238.458563
 20
-90.307448
 30
0.0
 11
-277.458563
 21
-90.307448
 31
0.0
  0
ARC
  5
4DA
100
AcDbEntity
  8
0
370
    -3
  6
DASHED
100
AcDbCircle
 10
-230.458563
 20
-64.307448
 30
0.0
 40
25.0
100
AcDbArc
 50
275.730175
 51
3.43865
  0
ARC
  5
4DB
100
AcDbEntity
  8
0
370
    -3
  6
DASHED
100
AcDbCircle
 10
-204.958563
 20
-56.307448
 30
0.0
 40
0.5
100
AcDbArc
 50
270.0
 51
0.0
  0
ARC
  5
4DC
100
AcDbEntity
  8
0
370
    -3
  6
DASHED
100
AcDbCircle
 10
-204.958563
 20
-57.307448
 30
0.0
 40
0.5
100
AcDbArc
 50
90.0
 51
180.0
  0
ARC
  5
4DD
100
AcDbEntity
  8
0
370
    -3
  6
DASHED
100
AcDbCircle
 10
-605.458563
 20
-56.807448
 30
0.0
 40
400.0
100
AcDbArc
 50
359.140459
 51
359.92847
  0
ARC
  5
4DE
100
AcDbEntity
  8
0
370
    -3
  6
DASHED
100
AcDbCircle
 10
-605.458563
 20
-16.807448
 30
0.0
 40
400.0
100
AcDbArc
 50
0.07153
 51
1.431984
  0
LINE
  5
4DF
100
AcDbEntity
  8
0
370
    -3
  6
DASHED
100
AcDbLine
 10
-204.458563
 20
-17.307448
 30
0.0
 11
-204.458563
 21
-56.307448
 31
0.0
  0
ARC
  5
4E0
100
AcDbEntity
  8
0
370
    -3
  6
DASHED
100
AcDbCircle
 10
-204.958563
 20
-17.307448
 30
0.0
 40
0.5
100
AcDbArc
 50
0.0
 51
90.0
  0
ARC
  5
4E1
100
AcDbEntity
  8
0
370
    -3
  6
DASHED
100
AcDbCircle
 10
-204.958563
 20
-16.307448
 30
0.0
 40
0.5
100
AcDbArc
 50
180.0
 51
270.0
  0
ARC
  5
4E2
100
AcDbEntity
  8
0
370
    -3
  6
DASHED
100
AcDbCircle
 10
-230.458563
 20
-9.307448
 30
0.0
 40
25.0
100
AcDbArc
 50
5.730175
 51
84.269825
  0
ARC
  5
4E3
100
AcDbEntity
  8
0
370
    -3
  6
DASHED
100
AcDbCircle
 10
-285.458563
 20
-9.307448
 30
0.0
 40
25.0
100
AcDbArc
 50
95.730175
 51
174.269825
  0
LINE
  5
4E4
100
AcDbEntity
  8
0
370
    -3
  6
CENTER
100
AcDbLine
 10
-352.221901
 20
-31.690448
 30
0.0
 11
-107.853171
 21
-31.690448
 31
0.0
  0
LINE
  5
4E5
100
AcDbEntity
  8
0
370
    -3
  6
Continuous
100
AcDbLine
 10
-173.958494
 20
-48.690448
 30
0.0
 11
-172.358631
 21
-48.690448
 31
0.0
  0
LINE
  5
4E6
100
AcDbEntity
  8
0
370
    -3
  6
Continuous
100
AcDbLine
 10
-171.558699
 20
-47.690448
 30
0.0
 11
-117.758768
 21
-47.690448
 31
0.0
  0
ARC
  5
4E7
100
AcDbEntity
  8
0
370
    -3
  6
Continuous
100
AcDbCircle
 10
-171.558699
 20
-48.090448
 30
0.0
 40
0.4
100
AcDbArc
 50
90.0
 51
180.0
  0
ARC
  5
4E8
100
AcDbEntity
  8
0
370
    -3
  6
Continuous
100
AcDbCircle
 10
-172.358631
 20
-48.290448
 30
0.0
 40
0.4
100
AcDbArc
 50
270.0
 51
0.0
  0
LINE
  5
4E9
100
AcDbEntity
  8
0
370
    -3
  6
Continuous
100
AcDbLine
 10
-171.958699
 20
-15.083054
 30
0.0
 11
-171.958699
 21
-48.297842
 31
0.0
  0
LINE
  5
4EA
100
AcDbEntity
  8
0
370
    -3
  6
Continuous
100
AcDbLine
 10
-173.958494
 20
-14.690448
 30
0.0
 11
-172.358631
 21
-14.690448
 31
0.0
  0
LINE
  5
4EB
100
AcDbEntity
  8
0
370
    -3
  6
Continuous
100
AcDbLine
 10
-171.558699
 20
-15.690448
 30
0.0
 11
-117.758768
 21
-15.690448
 31
0.0
  0
LINE
  5
4EC
100
AcDbEntity
  8
0
370
    -3
  6
Continuous
100
AcDbLine
 10
-156.958768
 20
-12.690448
 30
0.0
 11
-116.958768
 21
-12.690448
 31
0.0
  0
LINE
  5
4ED
100
AcDbEntity
  8
0
370
    -3
  6
Continuous
100
AcDbLine
 10
-156.958768
 20
-12.690448
 30
0.0
 11
-156.958768
 21
-15.690448
 31
0.0
  0
ARC
  5
4EE
100
AcDbEntity
  8
0
370
    -3
  6
Continuous
100
AcDbCircle
 10
-171.558699
 20
-15.290448
 30
0.0
 40
0.4
100
AcDbArc
 50
180.0
 51
270.0
  0
ARC
  5
4EF
100
AcDbEntity
  8
0
370
    -3
  6
Continuous
100
AcDbCircle
 10
-172.358631
 20
-15.090448
 30
0.0
 40
0.4
100
AcDbArc
 50
0.0
 51
90.0
  0
ARC
  5
4F0
100
AcDbEntity
  8
0
370
    -3
  6
Continuous
100
AcDbCircle
 10
-196.458563
 20
-84.362364
 30
0.0
 40
5.0
100
AcDbArc
 50
100.680801
 51
180.0
  0
LINE
  5
4F1
100
AcDbEntity
  8
0
370
    -3
  6
Continuous
100
AcDbLine
 10
-177.43755
 20
-75.686755
 30
0.0
 11
-197.385249
 21
-79.44899
 31
0.0
  0
LINE
  5
4F2
100
AcDbEntity
  8
0
370
    -3
  6
Continuous
100
AcDbLine
 10
-201.458563
 20
23.309552
 30
0.0
 11
-201.458563
 21
-96.022772
 31
0.0
  0
LINE
  5
4F3
100
AcDbEntity
  8
0
370
    -3
  6
Continuous
100
AcDbLine
 10
-314.458563
 20
-127.115844
 30
0.0
 11
-314.458563
 21
19.323189
 31
0.0
  0
LINE
  5
4F4
100
AcDbEntity
  8
0
370
    -3
  6
Continuous
100
AcDbLine
 10
-307.958563
 20
-133.127876
 30
0.0
 11
-307.958563
 21
39.309552
 31
0.0
  0
ARC
  5
4F5
100
AcDbEntity
  8
0
370
    -3
  6
Continuous
100
AcDbCircle
 10
-317.458563
 20
-82.704085
 30
0.0
 40
3.0
100
AcDbArc
 50
360.0
 51
80.0
  0
LINE
  5
4F6
100
AcDbEntity
  8
0
370
    -3
  6
Continuous
100
AcDbLine
 10
-338.479507
 20
-75.951245
 30
0.0
 11
-316.937618
 21
-79.749662
 31
0.0
  0
LINE
  5
4F7
100
AcDbEntity
  8
0
370
    -3
  6
Continuous
100
AcDbLine
 10
-302.958563
 20
40.300825
 30
0.0
 11
-302.958563
 21
-118.00695
 31
0.0
  0
LINE
  5
4F8
100
AcDbEntity
  8
0
370
    -3
  6
Continuous
100
AcDbLine
 10
-208.958631
 20
-114.249665
 30
0.0
 11
-208.958631
 21
35.711958
 31
0.0
  0
LINE
  5
4F9
100
AcDbEntity
  8
0
370
    -3
  6
Continuous
100
AcDbLine
 10
-302.958563
 20
-118.00695
 30
0.0
 11
-302.958563
 21
-152.690448
 31
0.0
  0
LINE
  5
4FA
100
AcDbEntity
  8
0
370
    -3
  6
Continuous
100
AcDbLine
 10
-341.558563
 20
-2.690448
 30
0.0
 11
-340.958563
 21
-2.690448
 31
0.0
  0
LINE
  5
4FB
100
AcDbEntity
  8
0
370
    -3
  6
Continuous
100
AcDbLine
 10
-341.558563
 20
-60.690448
 30
0.0
 11
-340.958563
 21
-60.690448
 31
0.0
  0
LINE
  5
4FC
100
AcDbEntity
  8
0
370
    -3
  6
Continuous
100
AcDbLine
 10
-340.958563
 20
-72.996822
 30
0.0
 11
-340.958563
 21
-60.690448
 31
0.0
  0
LINE
  5
4FD
100
AcDbEntity
  8
0
370
    -3
  6
Continuous
100
AcDbLine
 10
-340.958563
 20
9.615926
 30
0.0
 11
-340.958563
 21
-60.690448
 31
0.0
  0
ARC
  5
4FE
100
AcDbEntity
  8
0
370
    -3
  6
Continuous
100
AcDbCircle
 10
-310.958563
 20
-133.127876
 30
0.0
 40
3.0
100
AcDbArc
 50
0.0
 51
88.777847
  0
LINE
  5
4FF
100
AcDbEntity
  8
0
370
    -3
  6
Continuous
100
AcDbLine
 10
-310.894576
 20
-130.128559
 30
0.0
 11
-311.522549
 21
-130.115161
 31
0.0
  0
ARC
  5
500
100
AcDbEntity
  8
0
370
    -3
  6
Continuous
100
AcDbCircle
 10
-311.458563
 20
-127.115844
 30
0.0
 40
3.0
100
AcDbArc
 50
180.0
 51
268.777847
  0
LINE
  5
501
100
AcDbEntity
  8
0
370
    -3
  6
Continuous
100
AcDbLine
 10
-307.958563
 20
-150.697304
 30
0.0
 11
-307.958563
 21
-133.127876
 31
0.0
  0
LINE
  5
502
100
AcDbEntity
  8
0
370
    -3
  6
Continuous
100
AcDbLine
 10
-302.958563
 20
-151.800164
 30
0.0
 11
-306.958774
 21
-151.717872
 31
0.0
  0
ARC
  5
503
100
AcDbEntity
  8
0
370
    -3
  6
Continuous
100
AcDbCircle
 10
-337.958563
 20
-72.996822
 30
0.0
 40
3.0
100
AcDbArc
 50
180.0
 51
260.0
  0
ARC
  5
504
100
AcDbEntity
  8
0
370
    -3
  6
Continuous
100
AcDbCircle
 10
-337.958563
 20
9.615926
 30
0.0
 40
3.0
100
AcDbArc
 50
100.0
 51
180.0
  0
LINE
  5
505
100
AcDbEntity
  8
0
370
    -3
  6
Continuous
100
AcDbLine
 10
-341.958563
 20
-60.290448
 30
0.0
 11
-341.958563
 21
-31.690448
 31
0.0
  0
LINE
  5
506
100
AcDbEntity
  8
0
370
    -3
  6
Continuous
100
AcDbLine
 10
-341.958563
 20
-3.090448
 30
0.0
 11
-341.958563
 21
-31.690448
 31
0.0
  0
LINE
  5
507
100
AcDbEntity
  8
0
370
    -3
  6
Continuous
100
AcDbLine
 10
-341.958563
 20
-60.290448
 30
0.0
 11
-341.558563
 21
-60.690448
 31
0.0
  0
LINE
  5
508
100
AcDbEntity
  8
0
370
    -3
  6
Continuous
100
AcDbLine
 10
-341.958563
 20
-3.090448
 30
0.0
 11
-341.558563
 21
-2.690448
 31
0.0
  0
LINE
  5
509
100
AcDbEntity
  8
0
370
    -3
  6
Continuous
100
AcDbLine
 10
-338.479507
 20
12.570349
 30
0.0
 11
-316.937618
 21
16.368766
 31
0.0
  0
LINE
  5
50A
100
AcDbEntity
  8
0
370
    -3
  6
Continuous
100
AcDbLine
 10
-174.358494
 20
-2.690448
 30
0.0
 11
-173.958494
 21
-3.090448
 31
0.0
  0
LINE
  5
50B
100
AcDbEntity
  8
0
370
    -3
  6
Continuous
100
AcDbLine
 10
-174.958494
 20
-31.690448
 30
0.0
 11
-174.958494
 21
9.351436
 31
0.0
  0
LINE
  5
50C
100
AcDbEntity
  8
0
370
    -3
  6
Continuous
100
AcDbLine
 10
-174.358494
 20
-60.690448
 30
0.0
 11
-173.958494
 21
-60.290448
 31
0.0
  0
LINE
  5
50D
100
AcDbEntity
  8
0
370
    -3
  6
Continuous
100
AcDbLine
 10
-174.958494
 20
-72.732332
 30
0.0
 11
-174.958494
 21
-31.690448
 31
0.0
  0
ARC
  5
50E
100
AcDbEntity
  8
0
370
    -3
  6
Continuous
100
AcDbCircle
 10
-303.958563
 20
-152.690448
 30
0.0
 40
1.0
100
AcDbArc
 50
270.0
 51
0.0
  0
LINE
  5
50F
100
AcDbEntity
  8
0
370
    -3
  6
Continuous
100
AcDbLine
 10
-341.94589
 20
-171.690448
 30
0.0
 11
-173.971235
 21
-171.690448
 31
0.0
  0
LINE
  5
510
100
AcDbEntity
  8
0
370
    -3
  6
Continuous
100
AcDbLine
 10
-177.43755
 20
12.305859
 30
0.0
 11
-197.385249
 21
16.068094
 31
0.0
  0
ARC
  5
511
100
AcDbEntity
  8
0
370
    -3
  6
Continuous
100
AcDbCircle
 10
-177.958494
 20
9.351436
 30
0.0
 40
3.0
100
AcDbArc
 50
360.0
 51
80.0
  0
LINE
  5
512
100
AcDbEntity
  8
0
370
    -3
  6
Continuous
100
AcDbLine
 10
-174.958494
 20
-2.690448
 30
0.0
 11
-174.358494
 21
-2.690448
 31
0.0
  0
LINE
  5
513
100
AcDbEntity
  8
0
370
    -3
  6
Continuous
100
AcDbLine
 10
-173.958494
 20
-60.290448
 30
0.0
 11
-173.958494
 21
-3.090448
 31
0.0
  0
ARC
  5
514
100
AcDbEntity
  8
0
370
    -3
  6
Continuous
100
AcDbCircle
 10
-177.958494
 20
-72.732332
 30
0.0
 40
3.0
100
AcDbArc
 50
280.0
 51
360.0
  0
LINE
  5
515
100
AcDbEntity
  8
0
370
    -3
  6
Continuous
100
AcDbLine
 10
-174.958494
 20
-60.690448
 30
0.0
 11
-174.358494
 21
-60.690448
 31
0.0
  0
LINE
  5
516
100
AcDbEntity
  8
0
370
    -3
  6
Continuous
100
AcDbLine
 10
-208.958631
 20
-150.690448
 30
0.0
 11
-208.958631
 21
-114.249665
 31
0.0
  0
LINE
  5
517
100
AcDbEntity
  8
0
370
    -3
  6
Continuous
100
AcDbLine
 10
-201.458563
 20
-127.092448
 30
0.0
 11
-201.458563
 21
-96.022772
 31
0.0
  0
LINE
  5
518
100
AcDbEntity
  8
0
370
    -3
  6
Continuous
100
AcDbLine
 10
-338.564745
 20
-153.690448
 30
0.0
 11
-303.958563
 21
-153.690448
 31
0.0
  0
LINE
  5
519
100
AcDbEntity
  8
0
370
    -3
  6
Continuous
100
AcDbLine
 10
-204.458563
 20
-130.092448
 30
0.0
 11
-205.958631
 21
-130.092448
 31
0.0
  0
ARC
  5
51A
100
AcDbEntity
  8
0
370
    -3
  6
Continuous
100
AcDbCircle
 10
-204.458563
 20
-127.092448
 30
0.0
 40
3.0
100
AcDbArc
 50
270.0
 51
0.0
  0
ARC
  5
51B
100
AcDbEntity
  8
0
370
    -3
  6
Continuous
100
AcDbCircle
 10
-205.958631
 20
-133.092448
 30
0.0
 40
3.0
100
AcDbArc
 50
90.0
 51
180.0
  0
LINE
  5
51C
100
AcDbEntity
  8
0
370
    -3
  6
Continuous
100
AcDbLine
 10
-341.563717
 20
-156.611917
 30
0.0
 11
-341.94589
 21
-171.690448
 31
0.0
  0
ARC
  5
51D
100
AcDbEntity
  8
0
370
    -3
  6
Continuous
100
AcDbCircle
 10
-338.564745
 20
-156.690448
 30
0.0
 40
3.0
100
AcDbArc
 50
90.0
 51
178.5
  0
ARC
  5
51E
100
AcDbEntity
  8
0
370
    -3
  6
Continuous
100
AcDbCircle
 10
-177.35238
 20
-156.690448
 30
0.0
 40
3.0
100
AcDbArc
 50
1.5
 51
90.0
  0
LINE
  5
51F
100
AcDbEntity
  8
0
370
    -3
  6
Continuous
100
AcDbLine
 10
-174.353408
 20
-156.611917
 30
0.0
 11
-173.971235
 21
-171.690448
 31
0.0
  0
ARC
  5
520
100
AcDbEntity
  8
0
370
    -3
  6
Continuous
100
AcDbCircle
 10
-205.958631
 20
-150.690448
 30
0.0
 40
3.0
100
AcDbArc
 50
180.0
 51
270.0
  0
LINE
  5
521
100
AcDbEntity
  8
0
370
    -3
  6
CENTER
100
AcDbLine
 10
-257.958563
 20
58.344274
 30
0.0
 11
-257.958563
 21
-178.303447
 31
0.0
  0
ARC
  5
522
100
AcDbEntity
  8
0
370
    -3
  6
DASHED
100
AcDbCircle
 10
-237.458563
 20
16.192552
 30
0.0
 40
0.5
100
AcDbArc
 50
180.0
 51
270.0
  0
ARC
  5
523
100
AcDbEntity
  8
0
370
    -3
  6
DASHED
100
AcDbCircle
 10
-238.458563
 20
16.192552
 30
0.0
 40
0.5
100
AcDbArc
 50
0.0
 51
90.0
  0
ARC
  5
524
100
AcDbEntity
  8
0
370
    -3
  6
DASHED
100
AcDbCircle
 10
-237.958563
 20
-384.307448
 30
0.0
 40
400.0
100
AcDbArc
 50
88.568016
 51
89.92847
  0
ARC
  5
525
100
AcDbEntity
  8
0
370
    -3
  6
DASHED
100
AcDbCircle
 10
-277.458563
 20
16.192552
 30
0.0
 40
0.5
100
AcDbArc
 50
90.0
 51
180.0
  0
ARC
  5
526
100
AcDbEntity
  8
0
370
    -3
  6
DASHED
100
AcDbCircle
 10
-278.458563
 20
16.192552
 30
0.0
 40
0.5
100
AcDbArc
 50
270.0
 51
0.0
  0
ARC
  5
527
100
AcDbEntity
  8
0
370
    -3
  6
DASHED
100
AcDbCircle
 10
-277.958563
 20
-384.307448
 30
0.0
 40
400.0
100
AcDbArc
 50
90.07153
 51
91.431984
  0
LINE
  5
528
100
AcDbEntity
  8
0
370
    -3
  6
DASHED
100
AcDbLine
 10
-277.458563
 20
16.692552
 30
0.0
 11
-238.458563
 21
16.692552
 31
0.0
  0
ARC
  5
529
100
AcDbEntity
  8
0
370
    -3
  6
Continuous
100
AcDbCircle
 10
-117.758768
 20
-46.890448
 30
0.0
 40
0.8
100
AcDbArc
 50
270.0
 51
0.0
  0
LINE
  5
52A
100
AcDbEntity
  8
0
370
    -3
  6
Continuous
100
AcDbLine
 10
-116.958768
 20
-12.690448
 30
0.0
 11
-116.958768
 21
-46.890448
 31
0.0
  0
ARC
  5
52B
100
AcDbEntity
  8
0
370
    -3
  6
Continuous
100
AcDbCircle
 10
-117.758768
 20
-16.490448
 30
0.0
 40
0.8
100
AcDbArc
 50
0.0
 51
90.0
  0
LINE
  5
52C
100
AcDbEntity
  8
0
370
    -3
  6
Continuous
100
AcDbLine
 10
-311.458563
 20
26.309552
 30
0.0
 11
-310.958563
 21
26.309552
 31
0.0
  0
ARC
  5
52D
100
AcDbEntity
  8
0
370
    -3
  6
Continuous
100
AcDbCircle
 10
-311.458563
 20
23.309552
 30
0.0
 40
3.0
100
AcDbArc
 50
90.0
 51
180.0
  0
ARC
  5
52E
100
AcDbEntity
  8
0
370
    -3
  6
Continuous
100
AcDbCircle
 10
-310.958563
 20
29.309552
 30
0.0
 40
3.0
100
AcDbArc
 50
270.0
 51
0.0
  0
LINE
  5
52F
100
AcDbEntity
  8
0
370
    -3
  6
Continuous
100
AcDbLine
 10
-307.958563
 20
39.309552
 30
0.0
 11
-306.958563
 21
40.309552
 31
0.0
  0
LINE
  5
530
100
AcDbEntity
  8
0
370
    -3
  6
Continuous
100
AcDbLine
 10
-306.958563
 20
40.309552
 30
0.0
 11
-302.958563
 21
40.309552
 31
0.0
  0
ARC
  5
531
100
AcDbEntity
  8
0
370
    -3
  6
Continuous
100
AcDbCircle
 10
-317.458563
 20
19.323189
 30
0.0
 40
3.0
100
AcDbArc
 50
280.0
 51
360.0
  0
ARC
  5
532
100
AcDbEntity
  8
0
370
    -3
  6
Continuous
100
AcDbCircle
 10
-317.458563
 20
19.323189
 30
0.0
 40
3.0
100
AcDbArc
 50
280.0
 51
360.0
  0
LINE
  5
533
100
AcDbEntity
  8
0
370
    -3
  6
Continuous
100
AcDbLine
 10
-314.458563
 20
23.309552
 30
0.0
 11
-314.458563
 21
19.323189
 31
0.0
  0
ARC
  5
534
100
AcDbEntity
  8
0
370
    -3
  6
Continuous
100
AcDbCircle
 10
-205.958631
 20
29.309552
 30
0.0
 40
3.0
100
AcDbArc
 50
180.0
 51
270.0
  0
LINE
  5
535
100
AcDbEntity
  8
0
370
    -3
  6
Continuous
100
AcDbLine
 10
-204.428592
 20
26.309552
 30
0.0
 11
-205.958631
 21
26.309552
 31
0.0
  0
LINE
  5
536
100
AcDbEntity
  8
0
370
    -3
  6
Continuous
100
AcDbLine
 10
-302.958563
 20
40.300825
 30
0.0
 11
-211.906274
 21
38.711501
 31
0.0
  0
ARC
  5
537
100
AcDbEntity
  8
0
370
    -3
  6
Continuous
100
AcDbCircle
 10
-211.958631
 20
35.711958
 30
0.0
 40
3.0
100
AcDbArc
 50
0.0
 51
89.0
  0
ARC
  5
538
100
AcDbEntity
  8
0
370
    -3
  6
Continuous
100
AcDbCircle
 10
-196.458563
 20
21.001388
 30
0.0
 40
5.0
100
AcDbArc
 50
184.961108
 51
260.0
  0
ARC
  5
539
100
AcDbEntity
  8
0
370
    -3
  6
Continuous
100
AcDbCircle
 10
-204.428592
 20
23.309552
 30
0.0
 40
3.0
100
AcDbArc
 50
4.961108
 51
90.0
  0
ARC
  5
53A
100
AcDbEntity
  8
0
370
    -3
  6
Continuous
100
AcDbCircle
 10
499.729476
 20
-33.872779
 30
0.0
 40
15.0
100
AcDbArc
 50
151.549677
 51
170.0
  0
ARC
  5
53B
100
AcDbEntity
  8
0
370
    -3
  6
Continuous
100
AcDbCircle
 10
487.203222
 20
-35.807448
 30
0.0
 40
3.0
100
AcDbArc
 50
102.752179
 51
170.0
  0
LINE
  5
53C
100
AcDbEntity
  8
0
370
    -3
  6
Continuous
100
AcDbLine
 10
482.18146
 20
-47.010966
 30
0.0
 11
484.95736
 21
-31.268056
 31
0.0
  0
ARC
  5
53D
100
AcDbEntity
  8
0
370
    -3
  6
Continuous
100
AcDbCircle
 10
592.878815
 20
-35.807448
 30
0.0
 40
3.0
100
AcDbArc
 50
10.0
 51
77.247821
  0
LINE
  5
53E
100
AcDbEntity
  8
0
370
    -3
  6
Continuous
100
AcDbLine
 10
597.900577
 20
-47.010966
 30
0.0
 11
595.124678
 21
-31.268056
 31
0.0
  0
ARC
  5
53F
100
AcDbEntity
  8
0
370
    -3
  6
Continuous
100
AcDbCircle
 10
580.352561
 20
-33.872779
 30
0.0
 40
15.0
100
AcDbArc
 50
10.0
 51
28.450323
  0
ARC
  5
540
100
AcDbEntity
  8
0
370
    -3
  6
Continuous
100
AcDbCircle
 10
598.885385
 20
-46.837318
 30
0.0
 40
1.0
100
AcDbArc
 50
190.0
 51
260.085217
  0
ARC
  5
541
100
AcDbEntity
  8
0
370
    -3
  6
Continuous
100
AcDbCircle
 10
598.541019
 20
-48.807448
 30
0.0
 40
1.0
100
AcDbArc
 50
0.0
 51
80.085217
  0
LINE
  5
542
100
AcDbEntity
  8
0
370
    -3
  6
Continuous
100
AcDbLine
 10
599.541019
 20
-67.807448
 30
0.0
 11
599.541019
 21
-48.807448
 31
0.0
  0
ARC
  5
543
100
AcDbEntity
  8
0
370
    -3
  6
Continuous
100
AcDbCircle
 10
598.885385
 20
-88.777578
 30
0.0
 40
1.0
100
AcDbArc
 50
99.914783
 51
170.0
  0
ARC
  5
544
100
AcDbEntity
  8
0
370
    -3
  6
Continuous
100
AcDbCircle
 10
598.541019
 20
-86.807448
 30
0.0
 40
1.0
100
AcDbArc
 50
279.914783
 51
0.0
  0
LINE
  5
545
100
AcDbEntity
  8
0
370
    -3
  6
Continuous
100
AcDbLine
 10
599.541019
 20
-67.807448
 30
0.0
 11
599.541019
 21
-86.807448
 31
0.0
  0
LINE
  5
546
100
AcDbEntity
  8
0
370
    -3
  6
Continuous
100
AcDbLine
 10
597.900577
 20
-88.60393
 30
0.0
 11
595.124678
 21
-104.34684
 31
0.0
  0
ARC
  5
547
100
AcDbEntity
  8
0
370
    -3
  6
Continuous
100
AcDbCircle
 10
586.425957
 20
-107.807448
 30
0.0
 40
5.0
100
AcDbArc
 50
90.0
 51
139.227195
  0
LINE
  5
548
100
AcDbEntity
  8
0
370
    -3
  6
Continuous
100
AcDbLine
 10
591.200616
 20
-102.807448
 30
0.0
 11
586.425957
 21
-102.807448
 31
0.0
  0
ARC
  5
549
100
AcDbEntity
  8
0
370
    -3
  6
Continuous
100
AcDbCircle
 10
591.200616
 20
-97.807448
 30
0.0
 40
5.0
100
AcDbArc
 50
270.0
 51
350.0
  0
ARC
  5
54A
100
AcDbEntity
  8
0
370
    -3
  6
Continuous
100
AcDbCircle
 10
580.352561
 20
-101.742117
 30
0.0
 40
15.0
100
AcDbArc
 50
315.0
 51
350.0
  0
LINE
  5
54B
100
AcDbEntity
  8
0
370
    -3
  6
Continuous
100
AcDbLine
 10
590.959163
 20
-112.348719
 30
0.0
 11
584.749113
 21
-118.558769
 31
0.0
  0
ARC
  5
54C
100
AcDbEntity
  8
0
370
    -3
  6
Continuous
100
AcDbCircle
 10
574.142511
 20
-107.952168
 30
0.0
 40
15.0
100
AcDbArc
 50
280.304846
 51
315.0
  0
LINE
  5
54D
100
AcDbEntity
  8
0
370
    -3
  6
Continuous
100
AcDbLine
 10
576.825792
 20
-122.710216
 30
0.0
 11
558.371751
 21
-126.065497
 31
0.0
  0
ARC
  5
54E
100
AcDbEntity
  8
0
370
    -3
  6
Continuous
100
AcDbCircle
 10
540.041019
 20
-67.807448
 30
0.0
 40
56.25
100
AcDbArc
 50
294.602882
 51
319.227195
  0
ARC
  5
54F
100
AcDbEntity
  8
0
370
    -3
  6
Continuous
100
AcDbCircle
 10
565.541019
 20
-123.496877
 30
0.0
 40
5.0
100
AcDbArc
 50
114.602882
 51
180.0
  0
LINE
  5
550
100
AcDbEntity
  8
0
370
    -3
  6
Continuous
100
AcDbLine
 10
553.37331
 20
-126.307448
 30
0.0
 11
555.688469
 21
-126.307448
 31
0.0
  0
ARC
  5
551
100
AcDbEntity
  8
0
370
    -3
  6
Continuous
100
AcDbCircle
 10
555.688469
 20
-111.307448
 30
0.0
 40
15.0
100
AcDbArc
 50
270.0
 51
280.304846
  0
ARC
  5
552
100
AcDbEntity
  8
0
370
    -3
  6
Continuous
100
AcDbCircle
 10
553.541019
 20
-122.307448
 30
0.0
 40
3.0
100
AcDbArc
 50
270.0
 51
0.0
  0
ARC
  5
553
100
AcDbEntity
  8
0
370
    -3
  6
Continuous
100
AcDbCircle
 10
540.041019
 20
-67.807448
 30
0.0
 40
60.0
100
AcDbArc
 50
257.161432
 51
282.838568
  0
LINE
  5
554
100
AcDbEntity
  8
0
370
    -3
  6
Continuous
100
AcDbLine
 10
556.541019
 20
-103.328568
 30
0.0
 11
556.541019
 21
-122.307448
 31
0.0
  0
LINE
  5
555
100
AcDbEntity
  8
0
370
    -3
  6
Continuous
100
AcDbLine
 10
560.541019
 20
-97.669631
 30
0.0
 11
560.541019
 21
-125.671084
 31
0.0
  0
ARC
  5
556
100
AcDbEntity
  8
0
370
    -3
  6
Continuous
100
AcDbCircle
 10
563.541019
 20
-97.669631
 30
0.0
 40
3.0
100
AcDbArc
 50
128.200923
 51
180.0
  0
ARC
  5
557
100
AcDbEntity
  8
0
370
    -3
  6
Continuous
100
AcDbCircle
 10
540.041019
 20
-67.807448
 30
0.0
 40
35.0
100
AcDbArc
 50
270.0
 51
322.252579
  0
ARC
  5
558
100
AcDbEntity
  8
0
370
    -3
  6
Continuous
100
AcDbCircle
 10
553.541019
 20
-103.328568
 30
0.0
 40
3.0
100
AcDbArc
 50
0.0
 51
110.809574
  0
ARC
  5
559
100
AcDbEntity
  8
0
370
    -3
  6
Continuous
100
AcDbCircle
 10
516.541019
 20
-97.669631
 30
0.0
 40
3.0
100
AcDbArc
 50
0.0
 51
51.799077
  0
ARC
  5
55A
100
AcDbEntity
  8
0
370
    -3
  6
Continuous
100
AcDbCircle
 10
526.541019
 20
-103.328568
 30
0.0
 40
3.0
100
AcDbArc
 50
69.190426
 51
180.0
  0
ARC
  5
55B
100
AcDbEntity
  8
0
370
    -3
  6
Continuous
100
AcDbCircle
 10
540.041019
 20
-67.807448
 30
0.0
 40
35.0
100
AcDbArc
 50
217.899458
 51
270.0
  0
LINE
  5
55C
100
AcDbEntity
  8
0
370
    -3
  6
Continuous
100
AcDbLine
 10
523.541019
 20
-103.328568
 30
0.0
 11
523.541019
 21
-122.307448
 31
0.0
  0
LINE
  5
55D
100
AcDbEntity
  8
0
370
    -3
  6
Continuous
100
AcDbLine
 10
519.541019
 20
-97.669631
 30
0.0
 11
519.541019
 21
-125.671084
 31
0.0
  0
ARC
  5
55E
100
AcDbEntity
  8
0
370
    -3
  6
Continuous
100
AcDbCircle
 10
514.541019
 20
-123.496877
 30
0.0
 40
5.0
100
AcDbArc
 50
0.0
 51
65.397118
  0
LINE
  5
55F
100
AcDbEntity
  8
0
370
    -3
  6
Continuous
100
AcDbLine
 10
526.708727
 20
-126.307448
 30
0.0
 11
524.393568
 21
-126.307448
 31
0.0
  0
ARC
  5
560
100
AcDbEntity
  8
0
370
    -3
  6
Continuous
100
AcDbCircle
 10
524.393568
 20
-111.307448
 30
0.0
 40
15.0
100
AcDbArc
 50
259.695154
 51
270.0
  0
ARC
  5
561
100
AcDbEntity
  8
0
370
    -3
  6
Continuous
100
AcDbCircle
 10
526.541019
 20
-122.307448
 30
0.0
 40
3.0
100
AcDbArc
 50
180.0
 51
270.0
  0
ARC
  5
562
100
AcDbEntity
  8
0
370
    -3
  6
Continuous
100
AcDbCircle
 10
540.041019
 20
-67.807448
 30
0.0
 40
56.25
100
AcDbArc
 50
220.772805
 51
245.397118
  0
LINE
  5
563
100
AcDbEntity
  8
0
370
    -3
  6
Continuous
100
AcDbLine
 10
503.256245
 20
-122.710216
 30
0.0
 11
521.710286
 21
-126.065497
 31
0.0
  0
ARC
  5
564
100
AcDbEntity
  8
0
370
    -3
  6
Continuous
100
AcDbCircle
 10
505.939526
 20
-107.952168
 30
0.0
 40
15.0
100
AcDbArc
 50
225.0
 51
259.695154
  0
LINE
  5
565
100
AcDbEntity
  8
0
370
    -3
  6
Continuous
100
AcDbLine
 10
489.122874
 20
-112.348719
 30
0.0
 11
495.332925
 21
-118.558769
 31
0.0
  0
ARC
  5
566
100
AcDbEntity
  8
0
370
    -3
  6
Continuous
100
AcDbCircle
 10
493.65608
 20
-107.807448
 30
0.0
 40
5.0
100
AcDbArc
 50
40.772805
 51
90.0
  0
ARC
  5
567
100
AcDbEntity
  8
0
370
    -3
  6
Continuous
100
AcDbCircle
 10
488.881421
 20
-97.807448
 30
0.0
 40
5.0
100
AcDbArc
 50
190.0
 51
270.0
  0
ARC
  5
568
100
AcDbEntity
  8
0
370
    -3
  6
Continuous
100
AcDbCircle
 10
499.729476
 20
-101.742117
 30
0.0
 40
15.0
100
AcDbArc
 50
190.0
 51
225.0
  0
LINE
  5
569
100
AcDbEntity
  8
0
370
    -3
  6
Continuous
100
AcDbLine
 10
482.18146
 20
-88.60393
 30
0.0
 11
484.95736
 21
-104.34684
 31
0.0
  0
LINE
  5
56A
100
AcDbEntity
  8
0
370
    -3
  6
Continuous
100
AcDbLine
 10
488.881421
 20
-102.807448
 30
0.0
 11
493.65608
 21
-102.807448
 31
0.0
  0
ARC
  5
56B
100
AcDbEntity
  8
0
370
    -3
  6
Continuous
100
AcDbCircle
 10
481.196652
 20
-88.777578
 30
0.0
 40
1.0
100
AcDbArc
 50
10.0
 51
80.085217
  0
ARC
  5
56C
100
AcDbEntity
  8
0
370
    -3
  6
Continuous
100
AcDbCircle
 10
481.541019
 20
-86.807448
 30
0.0
 40
1.0
100
AcDbArc
 50
180.0
 51
260.085217
  0
LINE
  5
56D
100
AcDbEntity
  8
0
370
    -3
  6
Continuous
100
AcDbLine
 10
480.541019
 20
-67.807448
 30
0.0
 11
480.541019
 21
-86.807448
 31
0.0
  0
ARC
  5
56E
100
AcDbEntity
  8
0
370
    -3
  6
Continuous
100
AcDbCircle
 10
481.196652
 20
-46.837318
 30
0.0
 40
1.0
100
AcDbArc
 50
279.914783
 51
350.0
  0
ARC
  5
56F
100
AcDbEntity
  8
0
370
    -3
  6
Continuous
100
AcDbCircle
 10
481.541019
 20
-48.807448
 30
0.0
 40
1.0
100
AcDbArc
 50
99.914783
 51
180.0
  0
LINE
  5
570
100
AcDbEntity
  8
0
370
    -3
  6
Continuous
100
AcDbLine
 10
480.541019
 20
-67.807448
 30
0.0
 11
480.541019
 21
-48.807448
 31
0.0
  0
LINE
  5
571
100
AcDbEntity
  8
0
370
    -3
  6
Continuous
100
AcDbLine
 10
596.541019
 20
-39.300525
 30
0.0
 11
596.541019
 21
19.323189
 31
0.0
  0
ARC
  5
572
100
AcDbEntity
  8
0
370
    -3
  6
Continuous
100
AcDbCircle
 10
-199.114196
 20
-88.777578
 30
0.0
 40
1.0
100
AcDbArc
 50
99.914783
 51
170.0
  0
ARC
  5
573
100
AcDbEntity
  8
0
370
    -3
  6
Continuous
100
AcDbCircle
 10
-199.458563
 20
-86.807448
 30
0.0
 40
1.0
100
AcDbArc
 50
279.914783
 51
0.0
  0
LINE
  5
574
100
AcDbEntity
  8
0
370
    -3
  6
Continuous
100
AcDbLine
 10
-198.458563
 20
-79.779789
 30
0.0
 11
-198.458563
 21
-86.807448
 31
0.0
  0
LINE
  5
575
100
AcDbEntity
  8
0
370
    -3
  6
Continuous
100
AcDbLine
 10
-200.099004
 20
-88.60393
 30
0.0
 11
-201.458563
 21
-96.314371
 31
0.0
  0
LINE
  5
576
100
AcDbEntity
  8
0
370
    -3
  6
Continuous
100
AcDbLine
 10
-315.818121
 20
-88.60393
 30
0.0
 11
-314.458563
 21
-96.314371
 31
0.0
  0
ARC
  5
577
100
AcDbEntity
  8
0
370
    -3
  6
Continuous
100
AcDbCircle
 10
-316.802929
 20
-88.777578
 30
0.0
 40
1.0
100
AcDbArc
 50
10.0
 51
80.085217
  0
ARC
  5
578
100
AcDbEntity
  8
0
370
    -3
  6
Continuous
100
AcDbCircle
 10
-316.458563
 20
-86.807448
 30
0.0
 40
1.0
100
AcDbArc
 50
180.0
 51
260.085217
  0
LINE
  5
579
100
AcDbEntity
  8
0
370
    -3
  6
Continuous
100
AcDbLine
 10
-317.458563
 20
-79.704085
 30
0.0
 11
-317.458563
 21
-86.807448
 31
0.0
  0
ENDSEC
  0
SECTION
  2
OBJECTS
  0
DICTIONARY
  5
19
100
AcDbDictionary
280
     0
281
     1
  3
ACAD_GROUP
350
1A
  3
ACAD_MLINESTYLE
350
1B
  3
ACAD_LAYOUT
350
1E
  3
ACAD_PLOTSETTINGS
350
22
  3
ACAD_PLOTSTYLENAME
350
1F
  3
ACAD_WIPEOUT_VARS
350
23
  3
DWGPROPS
350
57A
  0
DICTIONARY
  5
1A
102
{ACAD_REACTORS
330
19
102
}
100
AcDbDictionary
280
     0
281
     1
  0
DICTIONARY
  5
1B
102
{ACAD_REACTORS
330
19
102
}
100
AcDbDictionary
280
     0
281
     1
  3
Standard
350
1C
  0
MLINESTYLE
  5
1C
102
{ACAD_REACTORS
330
1B
102
}
100
AcDbMlineStyle
  2
Standard
 70
     0
  3

 62
     0
 51
90.0
 52
90.0
 71
     2
 49
0.5
 62
   256
  6
ByLayer
 49
-0.5
 62
   256
  6
ByLayer
  0
ACDBDICTIONARYWDFLT
  5
1F
102
{ACAD_REACTORS
330
19
102
}
100
AcDbDictionary
281
     1
  3
Normal
350
1D
100
AcDbDictionaryWithDefault
340
1D
  0
ACDBPLACEHOLDER
  5
1D
102
{ACAD_REACTORS
330
1F
102
}
  0
LAYOUT
  5
20
102
{ACAD_REACTORS
330
1E
102
}
100
AcDbPlotSettings
  1

  2

  4

  6

 40
0.0
 41
0.0
 42
0.0
 43
0.0
 44
0.0
 45
0.0
 46
0.0
 47
0.0
 48
0.0
 49
0.0
140
0.0
141
0.0
142
1.0
143
1.0
 70
  1024
 72
     0
 73
     0
 74
     0
  7

 75
     0
147
1.0
148
0.0
149
0.0
100
AcDbLayout
  1
Model
 70
     0
 71
     0
 10
0.0
 20
0.0
 11
0.0
 21
0.0
 12
0.0
 22
0.0
 32
0.0
 14
0.0
 24
0.0
 34
0.0
 15
0.0
 25
0.0
 35
0.0
146
0.0
 13
0.0
 23
0.0
 33
0.0
 16
0.0
 26
0.0
 36
0.0
 17
0.0
 27
0.0
 37
0.0
 76
     0
330
A
331
0
345
0
346
0
  0
LAYOUT
  5
21
102
{ACAD_REACTORS
330
1E
102
}
100
AcDbPlotSettings
  1

  2

  4

  6

 40
0.0
 41
0.0
 42
0.0
 43
0.0
 44
0.0
 45
0.0
 46
0.0
 47
0.0
 48
0.0
 49
0.0
140
0.0
141
0.0
142
1.0
143
1.0
 70
     0
 72
     0
 73
     0
 74
     0
  7

 75
     0
147
1.0
148
0.0
149
0.0
100
AcDbLayout
  1
Layout1
 70
     0
 71
     0
 10
0.0
 20
0.0
 11
0.0
 21
0.0
 12
0.0
 22
0.0
 32
0.0
 14
0.0
 24
0.0
 34
0.0
 15
0.0
 25
0.0
 35
0.0
146
0.0
 13
0.0
 23
0.0
 33
0.0
 16
0.0
 26
0.0
 36
0.0
 17
0.0
 27
0.0
 37
0.0
 76
     0
330
B
331
0
345
0
346
0
  0
DICTIONARY
  5
1E
102
{ACAD_REACTORS
330
19
102
}
100
AcDbDictionary
280
     0
281
     1
  3
Layout1
350
21
  3
Model
350
20
  0
DICTIONARY
  5
22
102
{ACAD_REACTORS
330
19
102
}
100
AcDbDictionary
280
     0
281
     1
  0
WIPEOUTVARIABLES
  5
23
100
AcDbWipeoutVariables
 70
     1
  0
XRECORD
  5
57A
100
AcDbXrecord
280
     1
  1
DWGPROPS COOKIE
  2

  3

  4

  6

  7

  8
TB24944
  9

300
=
301
=
302
=
303
=
304
=
305
=
306
=
307
=
308
=
309
=
 40
0.0
 41
2455965.592025
 42
2455965.592025
  1

 90
        0
  0
ENDSEC
  0
EOF
