  0
SECTION
  2
HEADER
  9
$ACADVER
  1
AC1015
  9
$ACADMAINTVER
 70
     6
  9
$DWGCODEPAGE
  3
ANSI_932
  9
$INSBASE
 10
0.0
 20
0.0
 30
0.0
  9
$EXTMIN
 10
1.000000E+20
 20
1.000000E+20
 30
1.000000E+20
  9
$EXTMAX
 10
-1.000000E+20
 20
-1.000000E+20
 30
-1.000000E+20
  9
$LIMMIN
 10
0.0
 20
0.0
  9
$LIMMAX
 10
0.0
 20
0.0
  9
$ORTHOMODE
 70
     0
  9
$REGENMODE
 70
     1
  9
$FILLMODE
 70
     1
  9
$QTEXTMODE
 70
     0
  9
$MIRRTEXT
 70
     1
  9
$LTSCALE
 40
1.0
  9
$ATTMODE
 70
     1
  9
$TEXTSIZE
 40
7.0
  9
$TRACEWID
 40
0.05
  9
$TEXTSTYLE
  7
Standard
  9
$CLAYER
  8
0
  9
$CELTYPE
  6
Continuous
  9
$CECOLOR
 62
   256
  9
$CELTSCALE
 40
1.0
  9
$DISPSILH
 70
     0
  9
$DIMSCALE
 40
1.0
  9
$DIMASZ
 40
1.931852
  9
$DIMEXO
 40
1.0
  9
$DIMDLI
 40
0.38
  9
$DIMRND
 40
0.0
  9
$DIMDLE
 40
0.0
  9
$DIMEXE
 40
2.0
  9
$DIMTP
 40
0.0
  9
$DIMTM
 40
0.0
  9
$DIMTXT
 40
10.0
  9
$DIMCEN
 40
0.09
  9
$DIMTSZ
 40
0.0
  9
$DIMTOL
 70
     0
  9
$DIMLIM
 70
     0
  9
$DIMTIH
 70
     1
  9
$DIMTOH
 70
     1
  9
$DIMSE1
 70
     0
  9
$DIMSE2
 70
     0
  9
$DIMTAD
 70
     1
  9
$DIMZIN
 70
     0
  9
$DIMBLK
  1

  9
$DIMASO
 70
     1
  9
$DIMSHO
 70
     1
  9
$DIMPOST
  1

  9
$DIMAPOST
  1

  9
$DIMALT
 70
     0
  9
$DIMALTD
 70
     2
  9
$DIMALTF
 40
25.4
  9
$DIMLFAC
 40
1.0
  9
$DIMTOFL
 70
     0
  9
$DIMTVP
 40
0.0
  9
$DIMTIX
 70
     0
  9
$DIMSOXD
 70
     0
  9
$DIMSAH
 70
     0
  9
$DIMBLK1
  1

  9
$DIMBLK2
  1

  9
$DIMSTYLE
  2
Standard
  9
$DIMCLRD
 70
     0
  9
$DIMCLRE
 70
     0
  9
$DIMCLRT
 70
     0
  9
$DIMTFAC
 40
0.714286
  9
$DIMGAP
 40
0.09
  9
$DIMJUST
 70
     0
  9
$DIMSD1
 70
     0
  9
$DIMSD2
 70
     0
  9
$DIMTOLJ
 70
     1
  9
$DIMTZIN
 70
     0
  9
$DIMALTZ
 70
     0
  9
$DIMALTTZ
 70
     0
  9
$DIMUPT
 70
     0
  9
$DIMDEC
 70
     4
  9
$DIMTDEC
 70
     4
  9
$DIMALTU
 70
     2
  9
$DIMALTTD
 70
     2
  9
$DIMTXSTY
  7
Standard
  9
$DIMAUNIT
 70
     0
  9
$DIMADEC
 70
     0
  9
$DIMALTRND
 40
0.0
  9
$DIMAZIN
 70
     0
  9
$DIMDSEP
 70
     0
  9
$DIMATFIT
 70
     3
  9
$DIMFRAC
 70
     0
  9
$DIMLDRBLK
  1

  9
$DIMLUNIT
 70
     2
  9
$DIMLWD
 70
     0
  9
$DIMLWE
 70
     0
  9
$DIMTMOVE
 70
     0
  9
$LUNITS
 70
     2
  9
$LUPREC
 70
     3
  9
$SKETCHINC
 40
0.1
  9
$FILLETRAD
 40
0.0
  9
$AUNITS
 70
     0
  9
$AUPREC
 70
     0
  9
$MENU
  1
acad
  9
$ELEVATION
 40
0.0
  9
$PELEVATION
 40
0.0
  9
$THICKNESS
 40
0.0
  9
$LIMCHECK
 70
     0
  9
$CHAMFERA
 40
0.0
  9
$CHAMFERB
 40
0.0
  9
$CHAMFERC
 40
0.0
  9
$CHAMFERD
 40
0.0
  9
$SKPOLY
 70
     0
  9
$TDCREATE
 40
0.000000000
  9
$TDUCREATE
 40
0.000000000
  9
$TDUPDATE
 40
0.000000000
  9
$TDUUPDATE
 40
0.000000000
  9
$TDINDWG
 40
0.0000000000
  9
$TDUSRTIMER
 40
0.0000000000
  9
$USRTIMER
 70
     1
  9
$ANGBASE
 50
0.0
  9
$ANGDIR
 70
     0
  9
$PDMODE
 70
     0
  9
$PDSIZE
 40
0.0
  9
$PLINEWID
 40
0.0
  9
$SPLFRAME
 70
     0
  9
$SPLINETYPE
 70
     6
  9
$SPLINESEGS
 70
     8
  9
$HANDSEED
  5
4CE
  9
$SURFTAB1
 70
     6
  9
$SURFTAB2
 70
     6
  9
$SURFTYPE
 70
     6
  9
$SURFU
 70
     6
  9
$SURFV
 70
     6
  9
$UCSBASE
  2

  9
$UCSNAME
  2

  9
$UCSORG
 10
0.0
 20
0.0
 30
0.0
  9
$UCSXDIR
 10
1.0
 20
0.0
 30
0.0
  9
$UCSYDIR
 10
0.0
 20
1.0
 30
0.0
  9
$UCSORTHOREF
  2

  9
$UCSORTHOVIEW
 70
     0
  9
$UCSORGTOP
 10
0.0
 20
0.0
 30
0.0
  9
$UCSORGBOTTOM
 10
0.0
 20
0.0
 30
0.0
  9
$UCSORGLEFT
 10
0.0
 20
0.0
 30
0.0
  9
$UCSORGRIGHT
 10
0.0
 20
0.0
 30
0.0
  9
$UCSORGFRONT
 10
0.0
 20
0.0
 30
0.0
  9
$UCSORGBACK
 10
0.0
 20
0.0
 30
0.0
  9
$PUCSBASE
  2

  9
$PUCSNAME
  2

  9
$PUCSORG
 10
0.0
 20
0.0
 30
0.0
  9
$PUCSXDIR
 10
1.0
 20
0.0
 30
0.0
  9
$PUCSYDIR
 10
0.0
 20
1.0
 30
0.0
  9
$PUCSORTHOREF
  2

  9
$PUCSORTHOVIEW
 70
     0
  9
$PUCSORGTOP
 10
0.0
 20
0.0
 30
0.0
  9
$PUCSORGBOTTOM
 10
0.0
 20
0.0
 30
0.0
  9
$PUCSORGLEFT
 10
0.0
 20
0.0
 30
0.0
  9
$PUCSORGRIGHT
 10
0.0
 20
0.0
 30
0.0
  9
$PUCSORGFRONT
 10
0.0
 20
0.0
 30
0.0
  9
$PUCSORGBACK
 10
0.0
 20
0.0
 30
0.0
  9
$USERI1
 70
     0
  9
$USERI2
 70
     0
  9
$USERI3
 70
     0
  9
$USERI4
 70
     0
  9
$USERI5
 70
     0
  9
$USERR1
 40
0.0
  9
$USERR2
 40
0.0
  9
$USERR3
 40
0.0
  9
$USERR4
 40
0.0
  9
$USERR5
 40
0.0
  9
$WORLDVIEW
 70
     1
  9
$SHADEDGE
 70
     3
  9
$SHADEDIF
 70
    70
  9
$TILEMODE
 70
     1
  9
$MAXACTVP
 70
    16
  9
$PINSBASE
 10
0.0
 20
0.0
 30
0.0
  9
$PLIMCHECK
 70
     0
  9
$PEXTMIN
 10
1.000000E+20
 20
1.000000E+20
 30
1.000000E+20
  9
$PEXTMAX
 10
-1.000000E+20
 20
-1.000000E+20
 30
-1.000000E+20
  9
$PLIMMIN
 10
0.0
 20
0.0
  9
$PLIMMAX
 10
12.0
 20
9.0
  9
$UNITMODE
 70
     0
  9
$VISRETAIN
 70
     0
  9
$PLINEGEN
 70
     1
  9
$PSLTSCALE
 70
     0
  9
$TREEDEPTH
 70
  3020
  9
$CMLSTYLE
  2
Standard
  9
$CMLJUST
 70
     0
  9
$CMLSCALE
 40
1.0
  9
$PROXYGRAPHICS
 70
     0
  9
$MEASUREMENT
 70
     0
  9
$CELWEIGHT
370
     0
  9
$ENDCAPS
280
     0
  9
$JOINSTYLE
280
     0
  9
$LWDISPLAY
290
     0
  9
$INSUNITS
 70
     0
  9
$HYPERLINKBASE
  1

  9
$STYLESHEET
  1

  9
$XEDIT
290
     1
  9
$CEPSNTYPE
380
     0
  9
$PSTYLEMODE
290
     1
  9
$FINGERPRINTGUID
  2

  9
$VERSIONGUID
  2

  9
$EXTNAMES
290
     1
  9
$PSVPSCALE
 40
0.0
  0
ENDSEC
  0
SECTION
  2
CLASSES
  0
CLASS
  1
LWPOLYLINE
  2
AcDbPolyline
  3
AutoCAD 2000
 90
    32768
280
     0
281
     1
  0
CLASS
  1
IMAGE
  2
AcDbRasterImage
  3
ISM
 90
    32895
280
     0
281
     1
  0
CLASS
  1
OLE2FRAME
  2
AcDbOle2Frame
  3
AutoCAD 2000
 90
    32768
280
     0
281
     1
  0
CLASS
  1
HATCH
  2
AcDbHatch
  3
AutoCAD 2000
 90
    32768
280
     0
281
     1
  0
CLASS
  1
DICTIONARYVAR
  2
AcDbDictionaryVar
  3
AutoCAD 2000
 90
    32768
280
     0
281
     0
  0
CLASS
  1
RASTERVARIABLES
  2
AcDbRasterVariables
  3
ISM
 90
    32768
280
     0
281
     0
  0
CLASS
  1
IMAGEDEF
  2
AcDbRasterImageDef
  3
ISM
 90
    32768
280
     0
281
     0
  0
CLASS
  1
IMAGEDEF_REACTOR
  2
AcDbRasterImageDefReactor
  3
ISM
 90
    32769
280
     0
281
     0
  0
CLASS
  1
IDBUFFER
  2
AcDbIdBuffer
  3
AutoCAD 2000
 90
    32768
280
     0
281
     0
  0
CLASS
  1
SPATIAL_FILTER
  2
AcDbSpatialFilter
  3
AutoCAD 2000
 90
    32768
280
     0
281
     0
  0
CLASS
  1
XRECORD
  2
AcDbXrecord
  3
AutoCAD 2000
 90
        0
280
     0
281
     0
  0
CLASS
  1
SORTENTSTABLE
  2
AcDbSortentsTable
  3
AutoCAD 2000
 90
    32768
280
     0
281
     0
  0
CLASS
  1
LAYER_INDEX
  2
AcDbLayerIndex
  3
AutoCAD 2000
 90
    32768
280
     0
281
     0
  0
CLASS
  1
SPATIAL_INDEX
  2
AcDbSpatialIndex
  3
AutoCAD 2000
 90
    32768
280
     0
281
     0
  0
CLASS
  1
OBJECT_PTR
  2
CAseDLPNTableRecord
  3
"ASE-LPNTableRecord"
 90
    32769
280
     0
281
     0
  0
CLASS
  1
LAYOUT
  2
AcDbLayout
  3
AutoCAD 2000
 90
        0
280
     0
281
     0
  0
CLASS
  1
PLOTSETTINGS
  2
AcDbPlotSettings
  3
AutoCAD 2000
 90
    32768
280
     0
281
     0
  0
CLASS
  1
ACDBDICTIONARYWDFLT
  2
AcDbDictionaryWithDefault
  3
AutoCAD 2000
 90
        0
280
     0
281
     0
  0
CLASS
  1
ACDBPLACEHOLDER
  2
AcDbPlaceHolder
  3
AutoCAD 2000
 90
        0
280
     0
281
     0
  0
CLASS
  1
VBA_PROJECT
  2
AcDbVbaProject
  3
acadvba
 90
    32768
280
     0
281
     0
  0
CLASS
  1
WIPEOUT
  2
AcDbWipeout
  3
WipeOut|AutoCAD Express Tool|expresstools@autodesk.com
 90
    32895
280
     0
281
     1
  0
CLASS
  1
WIPEOUTVARIABLES
  2
AcDbWipeoutVariables
  3
WipeOut|AutoCAD Express Tool|expresstools@autodesk.com
 90
        0
280
     0
281
     0
  0
CLASS
  1
RTEXT
  2
RText
  3
RText|AutoCAD Express Tool|expresstools@autodesk.com
 90
    32768
280
     0
281
     1
  0
CLASS
  1
ARCALIGNEDTEXT
  2
AcDbArcAlignedText
  3
ATEXT|AutoCAD Express Tool|expresstools@autodesk.com
 90
    32768
280
     0
281
     1
  0
ENDSEC
  0
SECTION
  2
TABLES
  0
TABLE
  2
VPORT
  5
7
100
AcDbSymbolTable
 70
     1
  0
VPORT
  5
15
100
AcDbSymbolTableRecord
100
AcDbViewportTableRecord
  2
*ACTIVE
 70
     0
 10
0.0
 20
0.0
 11
1.0
 21
1.0
 12
0.0
 22
0.0
 13
0.0
 23
0.0
 14
1.0
 24
1.0
 15
0.0
 25
0.0
 16
0.0
 26
0.0
 36
1.0
 17
0.0
 27
0.0
 37
0.0
 40
100.0
 41
1.0
 42
50.0
 43
0.0
 44
0.0
 50
0.0
 51
0.0
 71
     0
 72
   100
 73
     1
 74
     1
 75
     0
 76
     0
 77
     0
 78
     0
281
     0
 65
     0
110
0.0
120
0.0
130
0.0
111
1.0
121
0.0
131
0.0
112
0.0
122
1.0
132
0.0
345
0
346
0
 79
     0
146
0.0
  0
ENDTAB
  0
TABLE
  2
LTYPE
  5
4
100
AcDbSymbolTable
 70
     7
  0
LTYPE
  5
11
100
AcDbSymbolTableRecord
100
AcDbLinetypeTableRecord
  2
ByBlock
 70
    64
  3

 72
    65
 73
     0
 40
0.0
  0
LTYPE
  5
12
100
AcDbSymbolTableRecord
100
AcDbLinetypeTableRecord
  2
ByLayer
 70
    64
  3

 72
    65
 73
     0
 40
0.0
  0
LTYPE
  5
13
100
AcDbSymbolTableRecord
100
AcDbLinetypeTableRecord
  2
Continuous
 70
    64
  3
Solid line
 72
    65
 73
     0
 40
0.0
  0
LTYPE
  5
24
100
AcDbSymbolTableRecord
100
AcDbLinetypeTableRecord
  2
DASHED
 70
    64
  3
Dashed __ __ __ __ __ __ __ __ __ __ __ __ __ _
 72
    65
 73
     2
 40
0.75
 49
0.5
 74
     0
 49
-0.25
 74
     0
  0
LTYPE
  5
25
100
AcDbSymbolTableRecord
100
AcDbLinetypeTableRecord
  2
CENTER
 70
    64
  3
Center ____ _ ____ _ ____ _ ____ _ ____ _ ____
 72
    65
 73
     4
 40
1.0
 49
0.5
 74
     0
 49
-0.25
 74
     0
 49
0.0
 74
     0
 49
-0.25
 74
     0
  0
LTYPE
  5
26
100
AcDbSymbolTableRecord
100
AcDbLinetypeTableRecord
  2
DIVIDE
 70
    64
  3
Divide ____ . . ____ . . ____ . . ____ . . ____
 72
    65
 73
     6
 40
1.25
 49
0.5
 74
     0
 49
-0.25
 74
     0
 49
0.0
 74
     0
 49
-0.25
 74
     0
 49
0.0
 74
     0
 49
-0.25
 74
     0
  0
LTYPE
  5
27
100
AcDbSymbolTableRecord
100
AcDbLinetypeTableRecord
  2
PHANTOM
 70
    64
  3
Phantom ______  __  __  ______  __  __  ______
 72
    65
 73
     6
 40
9.0
 49
4.3
 74
     0
 49
-0.7
 74
     0
 49
1.3
 74
     0
 49
-0.7
 74
     0
 49
1.3
 74
     0
 49
-0.7
 74
     0
  0
ENDTAB
  0
TABLE
  2
LAYER
  5
2
100
AcDbSymbolTable
 70
     4
  0
LAYER
  5
14
100
AcDbSymbolTableRecord
100
AcDbLayerTableRecord
  2
0
 70
    64
 62
    53
  6
Continuous
290
     1
370
    -3
390
1D
  0
LAYER
  5
28
100
AcDbSymbolTableRecord
100
AcDbLayerTableRecord
  2
1
 70
    64
 62
   102
  6
Continuous
290
     1
370
    -3
390
1D
  0
LAYER
  5
29
100
AcDbSymbolTableRecord
100
AcDbLayerTableRecord
  2
3
 70
    64
 62
     4
  6
Continuous
290
     1
370
    -3
390
1D
  0
LAYER
  5
2A
100
AcDbSymbolTableRecord
100
AcDbLayerTableRecord
  2
5
 70
    64
 62
   191
  6
Continuous
290
     1
370
    -3
390
1D
  0
ENDTAB
  0
TABLE
  2
STYLE
  5
3
100
AcDbSymbolTable
 70
     2
  0
STYLE
  5
17
100
AcDbSymbolTableRecord
100
AcDbTextStyleTableRecord
  2
Standard
 70
     0
 40
0.0
 41
1.0
 50
0.0
 71
     0
 42
0.0
  3
txt
  4

  0
STYLE
  5
293
100
AcDbSymbolTableRecord
100
AcDbTextStyleTableRecord
  2
ZU_SHPTB00001
 70
     0
 40
0.0
 41
1.0
 50
0.0
 71
     0
 42
0.0
  3
monotxt
  4
bigfont
  0
ENDTAB
  0
TABLE
  2
VIEW
  5
5
100
AcDbSymbolTable
 70
     0
  0
ENDTAB
  0
TABLE
  2
UCS
  5
6
100
AcDbSymbolTable
 70
     0
  0
ENDTAB
  0
TABLE
  2
APPID
  5
8
100
AcDbSymbolTable
 70
     1
  0
APPID
  5
16
100
AcDbSymbolTableRecord
100
AcDbRegAppTableRecord
  2
ACAD
 70
     0
  0
ENDTAB
  0
TABLE
  2
DIMSTYLE
  5
9
100
AcDbSymbolTable
 70
     1
100
AcDbDimStyleTable
 71
     0
  0
DIMSTYLE
105
18
100
AcDbSymbolTableRecord
100
AcDbDimStyleTableRecord
  2
Standard
 70
     0
  3

  4

 40
1.0
 41
0.18
 42
0.0625
 43
0.38
 44
0.18
 45
0.0
 46
0.0
 47
0.0
 48
0.0
 71
     0
 72
     0
 73
     1
 74
     1
 75
     0
 76
     0
 77
     0
 78
     0
 79
     0
140
0.18
141
0.09
142
0.0
143
25.4
144
1.0
145
0.0
146
1.0
147
0.09
148
0.0
170
     0
171
     2
172
     0
173
     0
174
     0
175
     0
176
     0
177
     0
178
     0
179
     0
271
     4
272
     4
273
     2
274
     2
275
     0
276
     0
277
     2
278
    46
279
     0
280
     0
281
     0
282
     0
283
     1
284
     0
285
     0
286
     0
288
     0
340
17
341
0
342
0
343
0
344
0
371
    -2
372
    -2
  0
ENDTAB
  0
TABLE
  2
BLOCK_RECORD
  5
1
100
AcDbSymbolTable
 70
     9
  0
BLOCK_RECORD
  5
A
100
AcDbSymbolTableRecord
100
AcDbBlockTableRecord
  2
*MODEL_SPACE
340
20
  0
BLOCK_RECORD
  5
B
100
AcDbSymbolTableRecord
100
AcDbBlockTableRecord
  2
*PAPER_SPACE
340
21
  0
BLOCK_RECORD
  5
2D
100
AcDbSymbolTableRecord
100
AcDbBlockTableRecord
  2
ZU_SYM__USERS_HOME_SYMBOL_STD_SYM_B01_-1
340
0
102
{BLKREFS
331
3C
102
}
  0
BLOCK_RECORD
  5
3D
100
AcDbSymbolTableRecord
100
AcDbBlockTableRecord
  2
ZU_SYM__USERS_HOME_SYMBOL_STD_SYM_B01_00001-1
340
0
102
{BLKREFS
331
4C
102
}
  0
BLOCK_RECORD
  5
1B5
100
AcDbSymbolTableRecord
100
AcDbBlockTableRecord
  2
ZU_SYM_K__CAD_SYM_POO_SYM_N20_-1
340
0
102
{BLKREFS
331
1C0
102
}
  0
BLOCK_RECORD
  5
1C1
100
AcDbSymbolTableRecord
100
AcDbBlockTableRecord
  2
ZU_SYM_K__CAD_SYM_POO_SYM_N20_00002-1
340
0
102
{BLKREFS
331
1CC
102
}
  0
BLOCK_RECORD
  5
21B
100
AcDbSymbolTableRecord
100
AcDbBlockTableRecord
  2
ZU_SYM__USERS_HOME_SYMBOL_STD_SYM_B01_00003-1
340
0
102
{BLKREFS
331
22A
102
}
  0
BLOCK_RECORD
  5
22B
100
AcDbSymbolTableRecord
100
AcDbBlockTableRecord
  2
ZU_SYM__USERS_HOME_SYMBOL_STD_SYM_B01_00004-1
340
0
102
{BLKREFS
331
23A
102
}
  0
BLOCK_RECORD
  5
368
100
AcDbSymbolTableRecord
100
AcDbBlockTableRecord
  2
ZU_SYM_C__ZUOU_AC_BLOCK_ZU_SYM_C__ZUOU_AC_BLOCK_ZU_SYM__USR_MELCAD_MD_SYM_SYM_SYM1_-1_-1_-1
340
0
102
{BLKREFS
331
373
102
}
  0
BLOCK_RECORD
  5
376
100
AcDbSymbolTableRecord
100
AcDbBlockTableRecord
  2
ZU_SYM_C__ZUOU_AC_BLOCK_ZU_SYM_C__ZUOU_AC_BLOCK_ZU_SYM__USR_MELCAD_MD_SYM_SYM_SYM1_00009-1_-1_-1
340
0
102
{BLKREFS
331
381
102
}
  0
BLOCK_RECORD
  5
3FB
100
AcDbSymbolTableRecord
100
AcDbBlockTableRecord
  2
ZU_SYM__USERS_HOME_SYMBOL_POO_SYM_B20_-1
340
0
102
{BLKREFS
331
406
102
}
  0
ENDTAB
  0
ENDSEC
  0
SECTION
  2
BLOCKS
  0
BLOCK
  5
D
100
AcDbEntity
  8
0
100
AcDbBlockBegin
  2
*MODEL_SPACE
 70
     0
 10
0.0
 20
0.0
 30
0.0
  3
*MODEL_SPACE
  1

  0
ENDBLK
  5
E
100
AcDbEntity
  8
0
100
AcDbBlockEnd
  0
BLOCK
  5
F
100
AcDbEntity
 67
     1
  8
0
100
AcDbBlockBegin
  2
*PAPER_SPACE
 70
     0
 10
0.0
 20
0.0
 30
0.0
  3
*PAPER_SPACE
  1

  0
ENDBLK
  5
10
100
AcDbEntity
 67
     1
  8
0
100
AcDbBlockEnd
  0
BLOCK
  5
2E
100
AcDbEntity
  8
0
100
AcDbBlockBegin
  2
ZU_SYM__USERS_HOME_SYMBOL_STD_SYM_B01_-1
 70
    64
 10
0.0
 20
0.0
 30
0.0
  3
ZU_SYM__USERS_HOME_SYMBOL_STD_SYM_B01_-1
  1

  0
ARC
  5
2F
100
AcDbEntity
  8
0
370
    -3
  6
Continuous
100
AcDbCircle
 10
2.040001
 20
-0.000008
 30
0.0
 40
5.539999
100
AcDbArc
 50
155.470187
 51
204.52925
  0
ARC
  5
30
100
AcDbEntity
  8
0
370
    -3
  6
Continuous
100
AcDbCircle
 10
-1.929986
 20
3.450007
 30
0.0
 40
1.57
100
AcDbArc
 50
179.999745
 51
227.099746
  0
ARC
  5
31
100
AcDbEntity
  8
0
370
    -3
  6
Continuous
100
AcDbCircle
 10
-1.930014
 20
-3.449991
 30
0.0
 40
1.57
100
AcDbArc
 50
132.899744
 51
179.999745
  0
LINE
  5
32
100
AcDbEntity
  8
0
370
    -3
  6
Continuous
100
AcDbLine
 10
-2.999989
 20
2.300011
 30
0.0
 11
0.000009
 21
2.3
 31
0.0
  0
LINE
  5
33
100
AcDbEntity
  8
0
370
    -3
  6
Continuous
100
AcDbLine
 10
-3.000008
 20
-2.299986
 30
0.0
 11
-0.000008
 21
-2.299998
 31
0.0
  0
LINE
  5
34
100
AcDbEntity
  8
0
370
    -3
  6
Continuous
100
AcDbLine
 10
0.000019
 20
4.6
 30
0.0
 11
-0.000019
 21
-4.6
 31
0.0
  0
LINE
  5
35
100
AcDbEntity
  8
0
370
    -3
  6
Continuous
100
AcDbLine
 10
-2.999979
 20
4.600012
 30
0.0
 11
0.000019
 21
4.600001
 31
0.0
  0
LINE
  5
36
100
AcDbEntity
  8
0
370
    -3
  6
Continuous
100
AcDbLine
 10
-3.499965
 20
3.9
 30
0.0
 11
-2.999964
 21
4.599998
 31
0.0
  0
LINE
  5
37
100
AcDbEntity
  8
0
370
    -3
  6
Continuous
100
AcDbLine
 10
-3.500012
 20
-3.89998
 30
0.0
 11
-3.49998
 21
3.90001
 31
0.0
  0
LINE
  5
38
100
AcDbEntity
  8
0
370
    -3
  6
Continuous
100
AcDbLine
 10
-2.999996
 20
-4.59997
 30
0.0
 11
-3.499991
 21
-3.899967
 31
0.0
  0
LINE
  5
39
100
AcDbEntity
  8
0
370
    -3
  6
Continuous
100
AcDbLine
 10
-0.000018
 20
-4.599998
 30
0.0
 11
-3.000017
 21
-4.599986
 31
0.0
  0
POINT
  5
3A
100
AcDbEntity
  8
0
370
    -3
  6
Continuous
100
AcDbPoint
 10
0.0
 20
0.0
 30
0.0
  0
ENDBLK
  5
3B
100
AcDbEntity
  8
0
100
AcDbBlockEnd
  0
BLOCK
  5
3E
100
AcDbEntity
  8
0
100
AcDbBlockBegin
  2
ZU_SYM__USERS_HOME_SYMBOL_STD_SYM_B01_00001-1
 70
    64
 10
0.0
 20
0.0
 30
0.0
  3
ZU_SYM__USERS_HOME_SYMBOL_STD_SYM_B01_00001-1
  1

  0
ARC
  5
3F
100
AcDbEntity
  8
0
370
    -3
  6
Continuous
100
AcDbCircle
 10
2.040001
 20
-0.000008
 30
0.0
 40
5.539999
100
AcDbArc
 50
155.470187
 51
204.52925
  0
ARC
  5
40
100
AcDbEntity
  8
0
370
    -3
  6
Continuous
100
AcDbCircle
 10
-1.929986
 20
3.450007
 30
0.0
 40
1.57
100
AcDbArc
 50
179.999745
 51
227.099746
  0
ARC
  5
41
100
AcDbEntity
  8
0
370
    -3
  6
Continuous
100
AcDbCircle
 10
-1.930014
 20
-3.449991
 30
0.0
 40
1.57
100
AcDbArc
 50
132.899744
 51
179.999745
  0
LINE
  5
42
100
AcDbEntity
  8
0
370
    -3
  6
Continuous
100
AcDbLine
 10
-2.999989
 20
2.300011
 30
0.0
 11
0.000009
 21
2.3
 31
0.0
  0
LINE
  5
43
100
AcDbEntity
  8
0
370
    -3
  6
Continuous
100
AcDbLine
 10
-3.000008
 20
-2.299986
 30
0.0
 11
-0.000008
 21
-2.299998
 31
0.0
  0
LINE
  5
44
100
AcDbEntity
  8
0
370
    -3
  6
Continuous
100
AcDbLine
 10
0.000019
 20
4.6
 30
0.0
 11
-0.000019
 21
-4.6
 31
0.0
  0
LINE
  5
45
100
AcDbEntity
  8
0
370
    -3
  6
Continuous
100
AcDbLine
 10
-2.999979
 20
4.600012
 30
0.0
 11
0.000019
 21
4.600001
 31
0.0
  0
LINE
  5
46
100
AcDbEntity
  8
0
370
    -3
  6
Continuous
100
AcDbLine
 10
-3.499965
 20
3.9
 30
0.0
 11
-2.999964
 21
4.599998
 31
0.0
  0
LINE
  5
47
100
AcDbEntity
  8
0
370
    -3
  6
Continuous
100
AcDbLine
 10
-3.500012
 20
-3.89998
 30
0.0
 11
-3.49998
 21
3.90001
 31
0.0
  0
LINE
  5
48
100
AcDbEntity
  8
0
370
    -3
  6
Continuous
100
AcDbLine
 10
-2.999996
 20
-4.59997
 30
0.0
 11
-3.499991
 21
-3.899967
 31
0.0
  0
LINE
  5
49
100
AcDbEntity
  8
0
370
    -3
  6
Continuous
100
AcDbLine
 10
-0.000018
 20
-4.599998
 30
0.0
 11
-3.000017
 21
-4.599986
 31
0.0
  0
POINT
  5
4A
100
AcDbEntity
  8
0
370
    -3
  6
Continuous
100
AcDbPoint
 10
0.0
 20
0.0
 30
0.0
  0
ENDBLK
  5
4B
100
AcDbEntity
  8
0
100
AcDbBlockEnd
  0
BLOCK
  5
1B6
100
AcDbEntity
  8
0
100
AcDbBlockBegin
  2
ZU_SYM_K__CAD_SYM_POO_SYM_N20_-1
 70
    64
 10
0.0
 20
0.0
 30
0.0
  3
ZU_SYM_K__CAD_SYM_POO_SYM_N20_-1
  1

  0
CIRCLE
  5
1B7
100
AcDbEntity
  8
0
370
    -3
  6
Continuous
100
AcDbCircle
 10
0.0
 20
0.0
 30
0.0
 40
4.0
  0
LINE
  5
1B8
100
AcDbEntity
  8
0
370
    -3
  6
Continuous
100
AcDbLine
 10
2.299999
 20
-4.0
 30
0.0
 11
-2.299999
 21
-4.0
 31
0.0
  0
LINE
  5
1B9
100
AcDbEntity
  8
0
370
    -3
  6
Continuous
100
AcDbLine
 10
4.6
 20
-0.000001
 30
0.0
 11
2.300001
 21
-4.0
 31
0.0
  0
LINE
  5
1BA
100
AcDbEntity
  8
0
370
    -3
  6
Continuous
100
AcDbLine
 10
2.300001
 20
4.0
 30
0.0
 11
4.6
 21
0.000001
 31
0.0
  0
LINE
  5
1BB
100
AcDbEntity
  8
0
370
    -3
  6
Continuous
100
AcDbLine
 10
-2.299999
 20
4.0
 30
0.0
 11
2.299999
 21
4.0
 31
0.0
  0
LINE
  5
1BC
100
AcDbEntity
  8
0
370
    -3
  6
Continuous
100
AcDbLine
 10
-4.6
 20
0.000001
 30
0.0
 11
-2.300001
 21
4.0
 31
0.0
  0
LINE
  5
1BD
100
AcDbEntity
  8
0
370
    -3
  6
Continuous
100
AcDbLine
 10
-2.300001
 20
-4.0
 30
0.0
 11
-4.6
 21
-0.000001
 31
0.0
  0
POINT
  5
1BE
100
AcDbEntity
  8
0
370
    -3
  6
Continuous
100
AcDbPoint
 10
0.0
 20
0.0
 30
0.0
  0
ENDBLK
  5
1BF
100
AcDbEntity
  8
0
100
AcDbBlockEnd
  0
BLOCK
  5
1C2
100
AcDbEntity
  8
0
100
AcDbBlockBegin
  2
ZU_SYM_K__CAD_SYM_POO_SYM_N20_00002-1
 70
    64
 10
0.0
 20
0.0
 30
0.0
  3
ZU_SYM_K__CAD_SYM_POO_SYM_N20_00002-1
  1

  0
CIRCLE
  5
1C3
100
AcDbEntity
  8
0
370
    -3
  6
Continuous
100
AcDbCircle
 10
0.0
 20
0.0
 30
0.0
 40
4.0
  0
LINE
  5
1C4
100
AcDbEntity
  8
0
370
    -3
  6
Continuous
100
AcDbLine
 10
2.299999
 20
-4.0
 30
0.0
 11
-2.299999
 21
-4.0
 31
0.0
  0
LINE
  5
1C5
100
AcDbEntity
  8
0
370
    -3
  6
Continuous
100
AcDbLine
 10
4.6
 20
-0.000001
 30
0.0
 11
2.300001
 21
-4.0
 31
0.0
  0
LINE
  5
1C6
100
AcDbEntity
  8
0
370
    -3
  6
Continuous
100
AcDbLine
 10
2.300001
 20
4.0
 30
0.0
 11
4.6
 21
0.000001
 31
0.0
  0
LINE
  5
1C7
100
AcDbEntity
  8
0
370
    -3
  6
Continuous
100
AcDbLine
 10
-2.299999
 20
4.0
 30
0.0
 11
2.299999
 21
4.0
 31
0.0
  0
LINE
  5
1C8
100
AcDbEntity
  8
0
370
    -3
  6
Continuous
100
AcDbLine
 10
-4.6
 20
0.000001
 30
0.0
 11
-2.300001
 21
4.0
 31
0.0
  0
LINE
  5
1C9
100
AcDbEntity
  8
0
370
    -3
  6
Continuous
100
AcDbLine
 10
-2.300001
 20
-4.0
 30
0.0
 11
-4.6
 21
-0.000001
 31
0.0
  0
POINT
  5
1CA
100
AcDbEntity
  8
0
370
    -3
  6
Continuous
100
AcDbPoint
 10
0.0
 20
0.0
 30
0.0
  0
ENDBLK
  5
1CB
100
AcDbEntity
  8
0
100
AcDbBlockEnd
  0
BLOCK
  5
21C
100
AcDbEntity
  8
0
100
AcDbBlockBegin
  2
ZU_SYM__USERS_HOME_SYMBOL_STD_SYM_B01_00003-1
 70
    64
 10
0.0
 20
0.0
 30
0.0
  3
ZU_SYM__USERS_HOME_SYMBOL_STD_SYM_B01_00003-1
  1

  0
POINT
  5
21D
100
AcDbEntity
  8
0
370
    -3
  6
Continuous
100
AcDbPoint
 10
0.0
 20
0.0
 30
0.0
  0
LINE
  5
21E
100
AcDbEntity
  8
0
370
    -3
  6
Continuous
100
AcDbLine
 10
-0.000018
 20
-4.599998
 30
0.0
 11
-3.000017
 21
-4.599986
 31
0.0
  0
LINE
  5
21F
100
AcDbEntity
  8
0
370
    -3
  6
Continuous
100
AcDbLine
 10
-2.999996
 20
-4.59997
 30
0.0
 11
-3.499991
 21
-3.899967
 31
0.0
  0
LINE
  5
220
100
AcDbEntity
  8
0
370
    -3
  6
Continuous
100
AcDbLine
 10
-3.500012
 20
-3.89998
 30
0.0
 11
-3.49998
 21
3.90001
 31
0.0
  0
LINE
  5
221
100
AcDbEntity
  8
0
370
    -3
  6
Continuous
100
AcDbLine
 10
-3.499965
 20
3.9
 30
0.0
 11
-2.999964
 21
4.599998
 31
0.0
  0
LINE
  5
222
100
AcDbEntity
  8
0
370
    -3
  6
Continuous
100
AcDbLine
 10
-2.999979
 20
4.600012
 30
0.0
 11
0.000019
 21
4.600001
 31
0.0
  0
LINE
  5
223
100
AcDbEntity
  8
0
370
    -3
  6
Continuous
100
AcDbLine
 10
0.000019
 20
4.6
 30
0.0
 11
-0.000019
 21
-4.6
 31
0.0
  0
LINE
  5
224
100
AcDbEntity
  8
0
370
    -3
  6
Continuous
100
AcDbLine
 10
-3.000008
 20
-2.299986
 30
0.0
 11
-0.000008
 21
-2.299998
 31
0.0
  0
LINE
  5
225
100
AcDbEntity
  8
0
370
    -3
  6
Continuous
100
AcDbLine
 10
-2.999989
 20
2.300011
 30
0.0
 11
0.000009
 21
2.3
 31
0.0
  0
ARC
  5
226
100
AcDbEntity
  8
0
370
    -3
  6
Continuous
100
AcDbCircle
 10
-1.930014
 20
-3.449991
 30
0.0
 40
1.57
100
AcDbArc
 50
132.899744
 51
179.999745
  0
ARC
  5
227
100
AcDbEntity
  8
0
370
    -3
  6
Continuous
100
AcDbCircle
 10
-1.929986
 20
3.450007
 30
0.0
 40
1.57
100
AcDbArc
 50
179.999745
 51
227.099746
  0
ARC
  5
228
100
AcDbEntity
  8
0
370
    -3
  6
Continuous
100
AcDbCircle
 10
2.040001
 20
-0.000008
 30
0.0
 40
5.539999
100
AcDbArc
 50
155.470187
 51
204.52925
  0
ENDBLK
  5
229
100
AcDbEntity
  8
0
100
AcDbBlockEnd
  0
BLOCK
  5
22C
100
AcDbEntity
  8
0
100
AcDbBlockBegin
  2
ZU_SYM__USERS_HOME_SYMBOL_STD_SYM_B01_00004-1
 70
    64
 10
0.0
 20
0.0
 30
0.0
  3
ZU_SYM__USERS_HOME_SYMBOL_STD_SYM_B01_00004-1
  1

  0
POINT
  5
22D
100
AcDbEntity
  8
0
370
    -3
  6
Continuous
100
AcDbPoint
 10
0.0
 20
0.0
 30
0.0
  0
LINE
  5
22E
100
AcDbEntity
  8
0
370
    -3
  6
Continuous
100
AcDbLine
 10
-0.000018
 20
-4.599998
 30
0.0
 11
-3.000017
 21
-4.599986
 31
0.0
  0
LINE
  5
22F
100
AcDbEntity
  8
0
370
    -3
  6
Continuous
100
AcDbLine
 10
-2.999996
 20
-4.59997
 30
0.0
 11
-3.499991
 21
-3.899967
 31
0.0
  0
LINE
  5
230
100
AcDbEntity
  8
0
370
    -3
  6
Continuous
100
AcDbLine
 10
-3.500012
 20
-3.89998
 30
0.0
 11
-3.49998
 21
3.90001
 31
0.0
  0
LINE
  5
231
100
AcDbEntity
  8
0
370
    -3
  6
Continuous
100
AcDbLine
 10
-3.499965
 20
3.9
 30
0.0
 11
-2.999964
 21
4.599998
 31
0.0
  0
LINE
  5
232
100
AcDbEntity
  8
0
370
    -3
  6
Continuous
100
AcDbLine
 10
-2.999979
 20
4.600012
 30
0.0
 11
0.000019
 21
4.600001
 31
0.0
  0
LINE
  5
233
100
AcDbEntity
  8
0
370
    -3
  6
Continuous
100
AcDbLine
 10
0.000019
 20
4.6
 30
0.0
 11
-0.000019
 21
-4.6
 31
0.0
  0
LINE
  5
234
100
AcDbEntity
  8
0
370
    -3
  6
Continuous
100
AcDbLine
 10
-3.000008
 20
-2.299986
 30
0.0
 11
-0.000008
 21
-2.299998
 31
0.0
  0
LINE
  5
235
100
AcDbEntity
  8
0
370
    -3
  6
Continuous
100
AcDbLine
 10
-2.999989
 20
2.300011
 30
0.0
 11
0.000009
 21
2.3
 31
0.0
  0
ARC
  5
236
100
AcDbEntity
  8
0
370
    -3
  6
Continuous
100
AcDbCircle
 10
-1.930014
 20
-3.449991
 30
0.0
 40
1.57
100
AcDbArc
 50
132.899744
 51
179.999745
  0
ARC
  5
237
100
AcDbEntity
  8
0
370
    -3
  6
Continuous
100
AcDbCircle
 10
-1.929986
 20
3.450007
 30
0.0
 40
1.57
100
AcDbArc
 50
179.999745
 51
227.099746
  0
ARC
  5
238
100
AcDbEntity
  8
0
370
    -3
  6
Continuous
100
AcDbCircle
 10
2.040001
 20
-0.000008
 30
0.0
 40
5.539999
100
AcDbArc
 50
155.470187
 51
204.52925
  0
ENDBLK
  5
239
100
AcDbEntity
  8
0
100
AcDbBlockEnd
  0
BLOCK
  5
369
100
AcDbEntity
  8
0
100
AcDbBlockBegin
  2
ZU_SYM_C__ZUOU_AC_BLOCK_ZU_SYM_C__ZUOU_AC_BLOCK_ZU_SYM__USR_MELCAD_MD_SYM_SYM_SYM1_-1_-1_-1
 70
    64
 10
0.0
 20
0.0
 30
0.0
  3
ZU_SYM_C__ZUOU_AC_BLOCK_ZU_SYM_C__ZUOU_AC_BLOCK_ZU_SYM__USR_MELCAD_MD_SYM_SYM_SYM1_-1_-1_-1
  1

  0
LINE
  5
36A
100
AcDbEntity
  8
0
370
    -3
  6
Continuous
100
AcDbLine
 10
-7.499999
 20
6.5
 30
0.0
 11
-7.499999
 21
-6.5
 31
0.0
  0
LINE
  5
36B
100
AcDbEntity
  8
0
370
    -3
  6
Continuous
100
AcDbLine
 10
-7.499998
 20
-6.499999
 30
0.0
 11
-7.999999
 21
-5.63407
 31
0.0
  0
LINE
  5
36C
100
AcDbEntity
  8
0
370
    -3
  6
Continuous
100
AcDbLine
 10
-7.499999
 20
6.5
 30
0.0
 11
-7.999999
 21
5.633876
 31
0.0
  0
LINE
  5
36D
100
AcDbEntity
  8
0
370
    -3
  6
Continuous
100
AcDbLine
 10
0.0
 20
-6.5
 30
0.0
 11
-7.499998
 21
-6.5
 31
0.0
  0
LINE
  5
36E
100
AcDbEntity
  8
0
370
    -3
  6
Continuous
100
AcDbLine
 10
0.0
 20
6.5
 30
0.0
 11
-7.499999
 21
6.5
 31
0.0
  0
LINE
  5
36F
100
AcDbEntity
  8
0
370
    -3
  6
Continuous
100
AcDbLine
 10
-7.999999
 20
5.633876
 30
0.0
 11
-7.999999
 21
-5.63407
 31
0.0
  0
LINE
  5
370
100
AcDbEntity
  8
0
370
    -3
  6
Continuous
100
AcDbLine
 10
0.0
 20
-6.5
 30
0.0
 11
0.0
 21
6.5
 31
0.0
  0
POINT
  5
371
100
AcDbEntity
  8
0
370
    -3
  6
Continuous
100
AcDbPoint
 10
0.0
 20
0.0
 30
0.0
  0
ENDBLK
  5
372
100
AcDbEntity
  8
0
100
AcDbBlockEnd
  0
BLOCK
  5
377
100
AcDbEntity
  8
0
100
AcDbBlockBegin
  2
ZU_SYM_C__ZUOU_AC_BLOCK_ZU_SYM_C__ZUOU_AC_BLOCK_ZU_SYM__USR_MELCAD_MD_SYM_SYM_SYM1_00009-1_-1_-1
 70
    64
 10
0.0
 20
0.0
 30
0.0
  3
ZU_SYM_C__ZUOU_AC_BLOCK_ZU_SYM_C__ZUOU_AC_BLOCK_ZU_SYM__USR_MELCAD_MD_SYM_SYM_SYM1_00009-1_-1_-1
  1

  0
LINE
  5
378
100
AcDbEntity
  8
0
370
    -3
  6
Continuous
100
AcDbLine
 10
-7.499999
 20
6.5
 30
0.0
 11
-7.499999
 21
-6.5
 31
0.0
  0
LINE
  5
379
100
AcDbEntity
  8
0
370
    -3
  6
Continuous
100
AcDbLine
 10
-7.499998
 20
-6.499999
 30
0.0
 11
-7.999999
 21
-5.63407
 31
0.0
  0
LINE
  5
37A
100
AcDbEntity
  8
0
370
    -3
  6
Continuous
100
AcDbLine
 10
-7.499999
 20
6.5
 30
0.0
 11
-7.999999
 21
5.633876
 31
0.0
  0
LINE
  5
37B
100
AcDbEntity
  8
0
370
    -3
  6
Continuous
100
AcDbLine
 10
0.0
 20
-6.5
 30
0.0
 11
-7.499998
 21
-6.5
 31
0.0
  0
LINE
  5
37C
100
AcDbEntity
  8
0
370
    -3
  6
Continuous
100
AcDbLine
 10
0.0
 20
6.5
 30
0.0
 11
-7.499999
 21
6.5
 31
0.0
  0
LINE
  5
37D
100
AcDbEntity
  8
0
370
    -3
  6
Continuous
100
AcDbLine
 10
-7.999999
 20
5.633876
 30
0.0
 11
-7.999999
 21
-5.63407
 31
0.0
  0
LINE
  5
37E
100
AcDbEntity
  8
0
370
    -3
  6
Continuous
100
AcDbLine
 10
0.0
 20
-6.5
 30
0.0
 11
0.0
 21
6.5
 31
0.0
  0
POINT
  5
37F
100
AcDbEntity
  8
0
370
    -3
  6
Continuous
100
AcDbPoint
 10
0.0
 20
0.0
 30
0.0
  0
ENDBLK
  5
380
100
AcDbEntity
  8
0
100
AcDbBlockEnd
  0
BLOCK
  5
3FC
100
AcDbEntity
  8
0
100
AcDbBlockBegin
  2
ZU_SYM__USERS_HOME_SYMBOL_POO_SYM_B20_-1
 70
    64
 10
0.0
 20
0.0
 30
0.0
  3
ZU_SYM__USERS_HOME_SYMBOL_POO_SYM_B20_-1
  1

  0
LINE
  5
3FD
100
AcDbEntity
  8
0
370
    -3
  6
Continuous
100
AcDbLine
 10
-7.499999
 20
6.5
 30
0.0
 11
-7.499999
 21
-6.5
 31
0.0
  0
LINE
  5
3FE
100
AcDbEntity
  8
0
370
    -3
  6
Continuous
100
AcDbLine
 10
-7.499998
 20
-6.499999
 30
0.0
 11
-7.999999
 21
-5.63407
 31
0.0
  0
LINE
  5
3FF
100
AcDbEntity
  8
0
370
    -3
  6
Continuous
100
AcDbLine
 10
-7.499999
 20
6.5
 30
0.0
 11
-7.999999
 21
5.633876
 31
0.0
  0
LINE
  5
400
100
AcDbEntity
  8
0
370
    -3
  6
Continuous
100
AcDbLine
 10
0.0
 20
-6.5
 30
0.0
 11
-7.499998
 21
-6.5
 31
0.0
  0
LINE
  5
401
100
AcDbEntity
  8
0
370
    -3
  6
Continuous
100
AcDbLine
 10
0.0
 20
6.5
 30
0.0
 11
-7.499999
 21
6.5
 31
0.0
  0
LINE
  5
402
100
AcDbEntity
  8
0
370
    -3
  6
Continuous
100
AcDbLine
 10
-7.999999
 20
5.633876
 30
0.0
 11
-7.999999
 21
-5.63407
 31
0.0
  0
LINE
  5
403
100
AcDbEntity
  8
0
370
    -3
  6
Continuous
100
AcDbLine
 10
0.0
 20
-6.5
 30
0.0
 11
0.0
 21
6.5
 31
0.0
  0
POINT
  5
404
100
AcDbEntity
  8
0
370
    -3
  6
Continuous
100
AcDbPoint
 10
0.0
 20
0.0
 30
0.0
  0
ENDBLK
  5
405
100
AcDbEntity
  8
0
100
AcDbBlockEnd
  0
ENDSEC
  0
SECTION
  2
ENTITIES
  0
ARC
  5
2B
100
AcDbEntity
  8
0
370
    -3
  6
Continuous
100
AcDbCircle
 10
-269.936283
 20
-68.26206
 30
0.0
 40
1.0
100
AcDbArc
 50
90.0
 51
185.284733
  0
ARC
  5
2C
100
AcDbEntity
  8
0
370
    -3
  6
Continuous
100
AcDbCircle
 10
-269.936283
 20
-61.26206
 30
0.0
 40
1.0
100
AcDbArc
 50
174.715267
 51
270.0
  0
INSERT
  5
3C
100
AcDbEntity
  8
0
100
AcDbBlockReference
  2
ZU_SYM__USERS_HOME_SYMBOL_STD_SYM_B01_-1
 10
186.402212
 20
243.969517
 30
0.0
 50
360.0
  0
INSERT
  5
4C
100
AcDbEntity
  8
0
100
AcDbBlockReference
  2
ZU_SYM__USERS_HOME_SYMBOL_STD_SYM_B01_00001-1
 10
186.402212
 20
340.843146
 30
0.0
 50
360.0
  0
LINE
  5
4D
100
AcDbEntity
  8
0
370
    -3
  6
DASHED
100
AcDbLine
 10
716.900561
 20
22.227523
 30
0.0
 11
716.900561
 21
22.73794
 31
0.0
  0
ARC
  5
4E
100
AcDbEntity
  8
0
370
    -3
  6
DASHED
100
AcDbCircle
 10
719.400561
 20
-277.76206
 30
0.0
 40
300.0
100
AcDbArc
 50
85.138595
 51
94.861405
  0
LINE
  5
4F
100
AcDbEntity
  8
0
370
    -3
  6
DASHED
100
AcDbLine
 10
721.900561
 20
22.73794
 30
0.0
 11
716.900561
 21
22.73794
 31
0.0
  0
LINE
  5
50
100
AcDbEntity
  8
0
370
    -3
  6
DASHED
100
AcDbLine
 10
721.900561
 20
22.227523
 30
0.0
 11
721.900561
 21
22.73794
 31
0.0
  0
ARC
  5
51
100
AcDbEntity
  8
0
370
    -3
  6
DASHED
100
AcDbCircle
 10
694.400561
 20
16.176709
 30
0.0
 40
5.0
100
AcDbArc
 50
94.861405
 51
180.0
  0
LINE
  5
52
100
AcDbEntity
  8
0
370
    -3
  6
DASHED
100
AcDbLine
 10
689.400561
 20
-7.26206
 30
0.0
 11
689.400561
 21
16.176709
 31
0.0
  0
ARC
  5
53
100
AcDbEntity
  8
0
370
    -3
  6
DASHED
100
AcDbCircle
 10
744.400561
 20
16.176709
 30
0.0
 40
5.0
100
AcDbArc
 50
0.0
 51
85.138595
  0
LINE
  5
54
100
AcDbEntity
  8
0
370
    -3
  6
DASHED
100
AcDbLine
 10
749.400561
 20
-7.26206
 30
0.0
 11
749.400561
 21
16.176709
 31
0.0
  0
ARC
  5
55
100
AcDbEntity
  8
0
370
    -3
  6
DASHED
100
AcDbCircle
 10
719.400561
 20
-406.86206
 30
0.0
 40
400.6
100
AcDbArc
 50
90.0
 51
92.529361
  0
ARC
  5
56
100
AcDbEntity
  8
0
370
    -3
  6
DASHED
100
AcDbCircle
 10
703.508489
 20
-47.213006
 30
0.0
 40
40.6
100
AcDbArc
 50
92.530124
 51
135.0
  0
LINE
  5
57
100
AcDbEntity
  8
0
370
    -3
  6
DASHED
100
AcDbLine
 10
687.900561
 20
-9.732977
 30
0.0
 11
687.900561
 21
-7.26206
 31
0.0
  0
LINE
  5
58
100
AcDbEntity
  8
0
370
    -3
  6
DASHED
100
AcDbLine
 10
696.277866
 20
-7.26206
 30
0.0
 11
687.900561
 21
-7.26206
 31
0.0
  0
ARC
  5
59
100
AcDbEntity
  8
0
370
    -3
  6
DASHED
100
AcDbCircle
 10
719.400561
 20
-406.86206
 30
0.0
 40
400.6
100
AcDbArc
 50
87.470639
 51
90.0
  0
ARC
  5
5A
100
AcDbEntity
  8
0
370
    -3
  6
DASHED
100
AcDbCircle
 10
735.292632
 20
-47.213006
 30
0.0
 40
40.6
100
AcDbArc
 50
45.0
 51
87.469876
  0
LINE
  5
5B
100
AcDbEntity
  8
0
370
    -3
  6
DASHED
100
AcDbLine
 10
750.900561
 20
-7.26206
 30
0.0
 11
742.523256
 21
-7.26206
 31
0.0
  0
LINE
  5
5C
100
AcDbEntity
  8
0
370
    -3
  6
DASHED
100
AcDbLine
 10
750.900561
 20
-9.732977
 30
0.0
 11
750.900561
 21
-7.26206
 31
0.0
  0
ARC
  5
5D
100
AcDbEntity
  8
0
370
    -3
  6
DASHED
100
AcDbCircle
 10
687.187608
 20
-35.249616
 30
0.0
 40
20.6
100
AcDbArc
 50
135.0
 51
175.470055
  0
LINE
  5
5E
100
AcDbEntity
  8
0
370
    -3
  6
DASHED
100
AcDbLine
 10
674.799954
 20
-18.504471
 30
0.0
 11
672.621208
 21
-20.683216
 31
0.0
  0
ARC
  5
5F
100
AcDbEntity
  8
0
370
    -3
  6
DASHED
100
AcDbCircle
 10
1066.000561
 20
-65.26206
 30
0.0
 40
400.6
100
AcDbArc
 50
175.470807
 51
180.0
  0
LINE
  5
60
100
AcDbEntity
  8
0
370
    -3
  6
DASHED
100
AcDbLine
 10
764.001168
 20
-18.504471
 30
0.0
 11
766.179913
 21
-20.683216
 31
0.0
  0
ARC
  5
61
100
AcDbEntity
  8
0
370
    -3
  6
DASHED
100
AcDbCircle
 10
751.613514
 20
-35.249616
 30
0.0
 40
20.6
100
AcDbArc
 50
4.529945
 51
45.0
  0
ARC
  5
62
100
AcDbEntity
  8
0
370
    -3
  6
DASHED
100
AcDbCircle
 10
372.800561
 20
-65.26206
 30
0.0
 40
400.6
100
AcDbArc
 50
0.0
 51
4.529193
  0
ARC
  5
63
100
AcDbEntity
  8
0
370
    -3
  6
DASHED
100
AcDbCircle
 10
372.800561
 20
-65.26206
 30
0.0
 40
400.6
100
AcDbArc
 50
355.470807
 51
360.0
  0
ARC
  5
64
100
AcDbEntity
  8
0
370
    -3
  6
DASHED
100
AcDbCircle
 10
1066.000561
 20
-65.26206
 30
0.0
 40
400.6
100
AcDbArc
 50
180.0
 51
184.529193
  0
ARC
  5
65
100
AcDbEntity
  8
0
370
    -3
  6
DASHED
100
AcDbCircle
 10
687.187608
 20
-95.274504
 30
0.0
 40
20.6
100
AcDbArc
 50
184.529945
 51
225.0
  0
LINE
  5
66
100
AcDbEntity
  8
0
370
    -3
  6
DASHED
100
AcDbLine
 10
674.799954
 20
-112.019649
 30
0.0
 11
672.621208
 21
-109.840904
 31
0.0
  0
ARC
  5
67
100
AcDbEntity
  8
0
370
    -3
  6
DASHED
100
AcDbCircle
 10
703.508489
 20
-83.311114
 30
0.0
 40
40.6
100
AcDbArc
 50
225.0
 51
267.469876
  0
ARC
  5
68
100
AcDbEntity
  8
0
370
    -3
  6
DASHED
100
AcDbCircle
 10
719.400561
 20
276.33794
 30
0.0
 40
400.6
100
AcDbArc
 50
267.470639
 51
270.0
  0
ARC
  5
69
100
AcDbEntity
  8
0
370
    -3
  6
DASHED
100
AcDbCircle
 10
735.292632
 20
-83.311114
 30
0.0
 40
40.6
100
AcDbArc
 50
272.530124
 51
317.540508
  0
ARC
  5
6A
100
AcDbEntity
  8
0
370
    -3
  6
DASHED
100
AcDbCircle
 10
719.400561
 20
276.33794
 30
0.0
 40
400.6
100
AcDbArc
 50
270.0
 51
272.529361
  0
ARC
  5
6B
100
AcDbEntity
  8
0
370
    -3
  6
DASHED
100
AcDbCircle
 10
751.613514
 20
-95.274504
 30
0.0
 40
20.6
100
AcDbArc
 50
311.433153
 51
355.470055
  0
LINE
  5
6C
100
AcDbEntity
  8
0
370
    -3
  6
Continuous
100
AcDbLine
 10
-252.59781
 20
36.53899
 30
0.0
 11
-296.650167
 21
35.770053
 31
0.0
  0
LINE
  5
6D
100
AcDbEntity
  8
0
370
    -3
  6
Continuous
100
AcDbLine
 10
-174.09781
 20
37.909212
 30
0.0
 11
-211.59781
 21
37.254647
 31
0.0
  0
ARC
  5
6E
100
AcDbEntity
  8
0
370
    -3
  6
Continuous
100
AcDbCircle
 10
-221.59777
 20
24.737514
 30
0.0
 40
6.5
100
AcDbArc
 50
180.0
 51
202.940505
  0
LINE
  5
6F
100
AcDbEntity
  8
0
370
    -3
  6
Continuous
100
AcDbLine
 10
-223.329817
 20
27.73751
 30
0.0
 11
-219.865719
 21
27.737511
 31
0.0
  0
LINE
  5
70
100
AcDbEntity
  8
0
370
    -3
  6
Continuous
100
AcDbLine
 10
-223.329817
 20
27.73751
 30
0.0
 11
-219.865719
 21
27.737511
 31
0.0
  0
LINE
  5
71
100
AcDbEntity
  8
0
370
    -3
  6
Continuous
100
AcDbLine
 10
-225.061871
 20
24.737514
 30
0.0
 11
-223.329817
 21
27.737511
 31
0.0
  0
LINE
  5
72
100
AcDbEntity
  8
0
370
    -3
  6
Continuous
100
AcDbLine
 10
-219.865719
 20
27.737512
 30
0.0
 11
-218.133674
 21
24.737514
 31
0.0
  0
ARC
  5
73
100
AcDbEntity
  8
0
370
    -3
  6
Continuous
100
AcDbCircle
 10
-221.59777
 20
24.737514
 30
0.0
 40
5.633955
100
AcDbArc
 50
0.0
 51
180.0
  0
ARC
  5
74
100
AcDbEntity
  8
0
370
    -3
  6
Continuous
100
AcDbCircle
 10
-221.59777
 20
24.737514
 30
0.0
 40
6.5
100
AcDbArc
 50
0.0
 51
180.0
  0
POINT
  5
75
100
AcDbEntity
  8
0
370
    -3
  6
Continuous
100
AcDbPoint
 10
-221.59777
 20
24.737514
 30
0.0
  0
POINT
  5
76
100
AcDbEntity
  8
0
370
    -3
  6
Continuous
100
AcDbPoint
 10
-221.59777
 20
24.737514
 30
0.0
  0
LINE
  5
77
100
AcDbEntity
  8
0
370
    -3
  6
Continuous
100
AcDbLine
 10
-225.061871
 20
24.737514
 30
0.0
 11
-223.548389
 21
22.116094
 31
0.0
  0
ARC
  5
78
100
AcDbEntity
  8
0
370
    -3
  6
Continuous
100
AcDbCircle
 10
-221.59777
 20
24.737514
 30
0.0
 40
5.633955
100
AcDbArc
 50
180.0
 51
206.906368
  0
LINE
  5
79
100
AcDbEntity
  8
0
370
    -3
  6
Continuous
100
AcDbLine
 10
-219.724188
 20
21.982654
 30
0.0
 11
-218.133674
 21
24.737514
 31
0.0
  0
ARC
  5
7A
100
AcDbEntity
  8
0
370
    -3
  6
Continuous
100
AcDbCircle
 10
-221.59777
 20
24.737514
 30
0.0
 40
5.633955
100
AcDbArc
 50
329.117649
 51
0.0
  0
ARC
  5
7B
100
AcDbEntity
  8
0
370
    -3
  6
Continuous
100
AcDbCircle
 10
-221.59777
 20
24.737514
 30
0.0
 40
6.5
100
AcDbArc
 50
333.083513
 51
0.0
  0
ARC
  5
7C
100
AcDbEntity
  8
0
370
    -3
  6
Continuous
100
AcDbCircle
 10
-242.59785
 20
24.737514
 30
0.0
 40
6.5
100
AcDbArc
 50
180.0
 51
206.916487
  0
LINE
  5
7D
100
AcDbEntity
  8
0
370
    -3
  6
CENTER
100
AcDbLine
 10
-212.926745
 20
24.737514
 30
0.0
 11
-250.913439
 21
24.737514
 31
0.0
  0
POINT
  5
7E
100
AcDbEntity
  8
0
370
    -3
  6
Continuous
100
AcDbPoint
 10
-242.59777
 20
24.737514
 30
0.0
  0
POINT
  5
7F
100
AcDbEntity
  8
0
370
    -3
  6
Continuous
100
AcDbPoint
 10
-242.59777
 20
24.737514
 30
0.0
  0
ARC
  5
80
100
AcDbEntity
  8
0
370
    -3
  6
Continuous
100
AcDbCircle
 10
-242.59785
 20
24.737514
 30
0.0
 40
5.633955
100
AcDbArc
 50
180.0
 51
210.882351
  0
ARC
  5
81
100
AcDbEntity
  8
0
370
    -3
  6
Continuous
100
AcDbCircle
 10
-242.59785
 20
24.737514
 30
0.0
 40
5.633955
100
AcDbArc
 50
333.093632
 51
0.0
  0
LINE
  5
82
100
AcDbEntity
  8
0
370
    -3
  6
Continuous
100
AcDbLine
 10
-239.13375
 20
24.737514
 30
0.0
 11
-240.647231
 21
22.116094
 31
0.0
  0
LINE
  5
83
100
AcDbEntity
  8
0
370
    -3
  6
Continuous
100
AcDbLine
 10
-244.471432
 20
21.982654
 30
0.0
 11
-246.061946
 21
24.737514
 31
0.0
  0
ARC
  5
84
100
AcDbEntity
  8
0
370
    -3
  6
Continuous
100
AcDbCircle
 10
-242.59785
 20
24.737514
 30
0.0
 40
6.5
100
AcDbArc
 50
337.059495
 51
180.0
  0
ARC
  5
85
100
AcDbEntity
  8
0
370
    -3
  6
Continuous
100
AcDbCircle
 10
-242.59785
 20
24.737514
 30
0.0
 40
5.633955
100
AcDbArc
 50
0.0
 51
180.0
  0
LINE
  5
86
100
AcDbEntity
  8
0
370
    -3
  6
Continuous
100
AcDbLine
 10
-239.13375
 20
24.737514
 30
0.0
 11
-240.865803
 21
27.737511
 31
0.0
  0
LINE
  5
87
100
AcDbEntity
  8
0
370
    -3
  6
Continuous
100
AcDbLine
 10
-244.329902
 20
27.737512
 30
0.0
 11
-246.061946
 21
24.737514
 31
0.0
  0
LINE
  5
88
100
AcDbEntity
  8
0
370
    -3
  6
Continuous
100
AcDbLine
 10
-240.865803
 20
27.73751
 30
0.0
 11
-244.329901
 21
27.737511
 31
0.0
  0
LINE
  5
89
100
AcDbEntity
  8
0
370
    -3
  6
Continuous
100
AcDbLine
 10
-240.865803
 20
27.73751
 30
0.0
 11
-244.329901
 21
27.737511
 31
0.0
  0
POINT
  5
8A
100
AcDbEntity
  8
0
370
    -3
  6
Continuous
100
AcDbPoint
 10
-242.59785
 20
24.737514
 30
0.0
  0
POINT
  5
8B
100
AcDbEntity
  8
0
370
    -3
  6
Continuous
100
AcDbPoint
 10
-242.59785
 20
24.737514
 30
0.0
  0
CIRCLE
  5
8C
100
AcDbEntity
  8
0
370
    -3
  6
Continuous
100
AcDbCircle
 10
-232.09781
 20
49.737514
 30
0.0
 40
10.0
  0
LINE
  5
8D
100
AcDbEntity
  8
0
370
    -3
  6
CENTER
100
AcDbLine
 10
-221.598099
 20
33.097608
 30
0.0
 11
-221.59808
 21
17.436683
 31
0.0
  0
LINE
  5
8E
100
AcDbEntity
  8
0
370
    -3
  6
CENTER
100
AcDbLine
 10
-212.926745
 20
24.737514
 30
0.0
 11
-250.913439
 21
24.737514
 31
0.0
  0
LINE
  5
8F
100
AcDbEntity
  8
0
370
    -3
  6
CENTER
100
AcDbLine
 10
-242.597521
 20
33.097608
 30
0.0
 11
-242.597538
 21
18.987613
 31
0.0
  0
ARC
  5
90
100
AcDbEntity
  8
0
370
    -3
  6
Continuous
100
AcDbCircle
 10
-578.69781
 20
-64.76206
 30
0.0
 40
400.6
100
AcDbArc
 50
355.470055
 51
0.0
  0
LINE
  5
91
100
AcDbEntity
  8
0
370
    -3
  6
Continuous
100
AcDbLine
 10
-189.742114
 20
-113.76456
 30
0.0
 11
-189.25531
 21
-114.251363
 31
0.0
  0
LINE
  5
92
100
AcDbEntity
  8
0
370
    -3
  6
Continuous
100
AcDbLine
 10
-183.09531
 20
-107.117756
 30
0.0
 11
-182.608507
 21
-107.60456
 31
0.0
  0
LINE
  5
93
100
AcDbEntity
  8
0
370
    -3
  6
Continuous
100
AcDbLine
 10
-189.489567
 20
-114.077698
 30
0.0
 11
-182.812468
 21
-107.400599
 31
0.0
  0
LINE
  5
94
100
AcDbEntity
  8
0
370
    -3
  6
Continuous
100
AcDbLine
 10
-189.742114
 20
-113.76456
 30
0.0
 11
-183.09531
 21
-107.117756
 31
0.0
  0
ARC
  5
95
100
AcDbEntity
  8
0
370
    -3
  6
Continuous
100
AcDbCircle
 10
-188.681454
 20
-108.178417
 30
0.0
 40
6.099999
100
AcDbArc
 50
264.601911
 51
5.398072
  0
LINE
  5
96
100
AcDbEntity
  8
0
370
    -3
  6
Continuous
100
AcDbLine
 10
-187.497203
 20
-111.519649
 30
0.0
 11
-185.318458
 21
-109.340904
 31
0.0
  0
ARC
  5
97
100
AcDbEntity
  8
0
370
    -3
  6
Continuous
100
AcDbCircle
 10
-199.884857
 20
-94.774504
 30
0.0
 40
20.6
100
AcDbArc
 50
315.0
 51
355.470055
  0
ARC
  5
98
100
AcDbEntity
  8
0
370
    -3
  6
Continuous
100
AcDbCircle
 10
-199.884857
 20
-94.774504
 30
0.0
 40
20.6
100
AcDbArc
 50
315.0
 51
355.470055
  0
LINE
  5
99
100
AcDbEntity
  8
0
370
    -3
  6
Continuous
100
AcDbLine
 10
-187.497203
 20
-111.519649
 30
0.0
 11
-185.318458
 21
-109.340904
 31
0.0
  0
ARC
  5
9A
100
AcDbEntity
  8
0
370
    -3
  6
Continuous
100
AcDbCircle
 10
-188.681454
 20
-108.178417
 30
0.0
 40
6.099999
100
AcDbArc
 50
264.601911
 51
5.398072
  0
LINE
  5
9B
100
AcDbEntity
  8
0
370
    -3
  6
Continuous
100
AcDbLine
 10
-189.742114
 20
-113.76456
 30
0.0
 11
-183.09531
 21
-107.117756
 31
0.0
  0
LINE
  5
9C
100
AcDbEntity
  8
0
370
    -3
  6
Continuous
100
AcDbLine
 10
-189.489567
 20
-114.077698
 30
0.0
 11
-182.812468
 21
-107.400599
 31
0.0
  0
LINE
  5
9D
100
AcDbEntity
  8
0
370
    -3
  6
Continuous
100
AcDbLine
 10
-183.09531
 20
-107.117756
 30
0.0
 11
-182.608507
 21
-107.60456
 31
0.0
  0
LINE
  5
9E
100
AcDbEntity
  8
0
370
    -3
  6
Continuous
100
AcDbLine
 10
-189.742114
 20
-113.76456
 30
0.0
 11
-189.25531
 21
-114.251363
 31
0.0
  0
ARC
  5
9F
100
AcDbEntity
  8
0
370
    -3
  6
Continuous
100
AcDbCircle
 10
-216.205739
 20
-82.811114
 30
0.0
 40
40.6
100
AcDbArc
 50
272.530124
 51
315.0
  0
ARC
  5
A0
100
AcDbEntity
  8
0
370
    -3
  6
Continuous
100
AcDbCircle
 10
-204.034053
 20
-101.752127
 30
0.0
 40
10.797
100
AcDbArc
 50
275.752283
 51
315.0
  0
ARC
  5
A1
100
AcDbEntity
  8
0
370
    -3
  6
Continuous
100
AcDbCircle
 10
-232.09781
 20
276.83794
 30
0.0
 40
400.6
100
AcDbArc
 50
267.470639
 51
270.0
  0
ARC
  5
A2
100
AcDbEntity
  8
0
370
    -3
  6
Continuous
100
AcDbCircle
 10
-232.09781
 20
276.83794
 30
0.0
 40
400.6
100
AcDbArc
 50
270.0
 51
272.529361
  0
ARC
  5
A3
100
AcDbEntity
  8
0
370
    -3
  6
Continuous
100
AcDbCircle
 10
-232.09781
 20
176.83794
 30
0.0
 40
290.797
100
AcDbArc
 50
270.0
 51
275.752283
  0
ARC
  5
A4
100
AcDbEntity
  8
0
370
    -3
  6
Continuous
100
AcDbCircle
 10
114.50219
 20
-64.76206
 30
0.0
 40
400.6
100
AcDbArc
 50
180.0
 51
184.529945
  0
LINE
  5
A5
100
AcDbEntity
  8
0
370
    -3
  6
Continuous
100
AcDbLine
 10
-274.453506
 20
-113.76456
 30
0.0
 11
-274.94031
 21
-114.251363
 31
0.0
  0
LINE
  5
A6
100
AcDbEntity
  8
0
370
    -3
  6
Continuous
100
AcDbLine
 10
-281.10031
 20
-107.117756
 30
0.0
 11
-281.587113
 21
-107.60456
 31
0.0
  0
LINE
  5
A7
100
AcDbEntity
  8
0
370
    -3
  6
Continuous
100
AcDbLine
 10
-274.706053
 20
-114.077698
 30
0.0
 11
-281.383153
 21
-107.400599
 31
0.0
  0
LINE
  5
A8
100
AcDbEntity
  8
0
370
    -3
  6
Continuous
100
AcDbLine
 10
-274.453506
 20
-113.76456
 30
0.0
 11
-281.10031
 21
-107.117756
 31
0.0
  0
ARC
  5
A9
100
AcDbEntity
  8
0
370
    -3
  6
Continuous
100
AcDbCircle
 10
-275.514167
 20
-108.178417
 30
0.0
 40
6.099999
100
AcDbArc
 50
174.601928
 51
275.398089
  0
LINE
  5
AA
100
AcDbEntity
  8
0
370
    -3
  6
Continuous
100
AcDbLine
 10
-276.698417
 20
-111.519649
 30
0.0
 11
-278.877163
 21
-109.340904
 31
0.0
  0
ARC
  5
AB
100
AcDbEntity
  8
0
370
    -3
  6
Continuous
100
AcDbCircle
 10
-264.310763
 20
-94.774504
 30
0.0
 40
20.6
100
AcDbArc
 50
184.529945
 51
225.0
  0
ARC
  5
AC
100
AcDbEntity
  8
0
370
    -3
  6
Continuous
100
AcDbCircle
 10
-264.310763
 20
-94.774504
 30
0.0
 40
20.6
100
AcDbArc
 50
184.529945
 51
225.0
  0
LINE
  5
AD
100
AcDbEntity
  8
0
370
    -3
  6
Continuous
100
AcDbLine
 10
-276.698417
 20
-111.519649
 30
0.0
 11
-278.877163
 21
-109.340904
 31
0.0
  0
ARC
  5
AE
100
AcDbEntity
  8
0
370
    -3
  6
Continuous
100
AcDbCircle
 10
-275.514167
 20
-108.178417
 30
0.0
 40
6.099999
100
AcDbArc
 50
174.601928
 51
275.398089
  0
LINE
  5
AF
100
AcDbEntity
  8
0
370
    -3
  6
Continuous
100
AcDbLine
 10
-274.453506
 20
-113.76456
 30
0.0
 11
-281.10031
 21
-107.117756
 31
0.0
  0
LINE
  5
B0
100
AcDbEntity
  8
0
370
    -3
  6
Continuous
100
AcDbLine
 10
-274.706053
 20
-114.077698
 30
0.0
 11
-281.383153
 21
-107.400599
 31
0.0
  0
LINE
  5
B1
100
AcDbEntity
  8
0
370
    -3
  6
Continuous
100
AcDbLine
 10
-281.10031
 20
-107.117756
 30
0.0
 11
-281.587113
 21
-107.60456
 31
0.0
  0
LINE
  5
B2
100
AcDbEntity
  8
0
370
    -3
  6
Continuous
100
AcDbLine
 10
-274.453506
 20
-113.76456
 30
0.0
 11
-274.94031
 21
-114.251363
 31
0.0
  0
ARC
  5
B3
100
AcDbEntity
  8
0
370
    -3
  6
Continuous
100
AcDbCircle
 10
-247.989882
 20
-82.811114
 30
0.0
 40
40.6
100
AcDbArc
 50
225.0
 51
267.469876
  0
ARC
  5
B4
100
AcDbEntity
  8
0
370
    -3
  6
Continuous
100
AcDbCircle
 10
-232.09781
 20
176.83794
 30
0.0
 40
290.797
100
AcDbArc
 50
264.99835
 51
270.0
  0
ARC
  5
B5
100
AcDbEntity
  8
0
370
    -3
  6
Continuous
100
AcDbCircle
 10
-578.69781
 20
-64.76206
 30
0.0
 40
390.797
100
AcDbArc
 50
354.582036
 51
0.0
  0
LINE
  5
B6
100
AcDbEntity
  8
0
370
    -3
  6
Continuous
100
AcDbLine
 10
-196.399421
 20
-109.386759
 30
0.0
 11
-190.512007
 21
-103.499345
 31
0.0
  0
ARC
  5
B7
100
AcDbEntity
  8
0
370
    -3
  6
Continuous
100
AcDbCircle
 10
-192.633328
 20
-101.378025
 30
0.0
 40
3.0
100
AcDbArc
 50
315.0
 51
354.582036
  0
ARC
  5
B8
100
AcDbEntity
  8
0
370
    -3
  6
Continuous
100
AcDbCircle
 10
114.50219
 20
-64.76206
 30
0.0
 40
390.797
100
AcDbArc
 50
180.0
 51
185.417964
  0
ARC
  5
B9
100
AcDbEntity
  8
0
370
    -3
  6
Continuous
100
AcDbCircle
 10
-271.562292
 20
-101.378025
 30
0.0
 40
3.0
100
AcDbArc
 50
185.417964
 51
225.0
  0
LINE
  5
BA
100
AcDbEntity
  8
0
370
    -3
  6
Continuous
100
AcDbLine
 10
-270.343307
 20
-106.839651
 30
0.0
 11
-273.683612
 21
-103.499345
 31
0.0
  0
ARC
  5
BB
100
AcDbEntity
  8
0
370
    -3
  6
Continuous
100
AcDbCircle
 10
-255.637607
 20
-92.133951
 30
0.0
 40
20.797
100
AcDbArc
 50
225.0
 51
264.99835
  0
ARC
  5
BC
100
AcDbEntity
  8
0
370
    -3
  6
Continuous
100
AcDbCircle
 10
-232.09781
 20
-64.76206
 30
0.0
 40
34.0
100
AcDbArc
 50
65.73917
 51
114.26083
  0
ARC
  5
BD
100
AcDbEntity
  8
0
370
    -3
  6
Continuous
100
AcDbCircle
 10
-232.09781
 20
-64.76206
 30
0.0
 40
30.5
100
AcDbArc
 50
66.813854
 51
113.186146
  0
ARC
  5
BE
100
AcDbEntity
  8
0
370
    -3
  6
Continuous
100
AcDbCircle
 10
-217.716618
 20
-32.853106
 30
0.0
 40
1.0
100
AcDbArc
 50
245.73917
 51
330.0
  0
LINE
  5
BF
100
AcDbEntity
  8
0
370
    -3
  6
Continuous
100
AcDbLine
 10
-215.343637
 20
-30.742982
 30
0.0
 11
-216.850593
 21
-33.353106
 31
0.0
  0
ARC
  5
C0
100
AcDbEntity
  8
0
370
    -3
  6
Continuous
100
AcDbCircle
 10
-216.209662
 20
-30.242982
 30
0.0
 40
1.0
100
AcDbArc
 50
330.0
 51
65.284733
  0
ARC
  5
C1
100
AcDbEntity
  8
0
370
    -3
  6
Continuous
100
AcDbCircle
 10
-220.48308
 20
-37.644758
 30
0.0
 40
1.0
100
AcDbArc
 50
330.0
 51
66.813854
  0
ARC
  5
C2
100
AcDbEntity
  8
0
370
    -3
  6
Continuous
100
AcDbCircle
 10
-211.654441
 20
-36.353106
 30
0.0
 40
1.0
100
AcDbArc
 50
150.0
 51
234.26083
  0
LINE
  5
C3
100
AcDbEntity
  8
0
370
    -3
  6
Continuous
100
AcDbLine
 10
-211.01351
 20
-33.242982
 30
0.0
 11
-212.520466
 21
-35.853106
 31
0.0
  0
ARC
  5
C4
100
AcDbEntity
  8
0
370
    -3
  6
Continuous
100
AcDbCircle
 10
-210.147485
 20
-33.742982
 30
0.0
 40
1.0
100
AcDbArc
 50
54.715267
 51
150.0
  0
LINE
  5
C5
100
AcDbEntity
  8
0
370
    -3
  6
Continuous
100
AcDbLine
 10
-253.182109
 20
-33.242982
 30
0.0
 11
-251.675153
 21
-35.853106
 31
0.0
  0
ARC
  5
C6
100
AcDbEntity
  8
0
370
    -3
  6
Continuous
100
AcDbCircle
 10
-252.541179
 20
-36.353106
 30
0.0
 40
1.0
100
AcDbArc
 50
305.73917
 51
30.0
  0
ARC
  5
C7
100
AcDbEntity
  8
0
370
    -3
  6
Continuous
100
AcDbCircle
 10
-254.048135
 20
-33.742982
 30
0.0
 40
1.0
100
AcDbArc
 50
30.0
 51
125.284733
  0
ARC
  5
C8
100
AcDbEntity
  8
0
370
    -3
  6
Continuous
100
AcDbCircle
 10
-247.985957
 20
-30.242982
 30
0.0
 40
1.0
100
AcDbArc
 50
114.715267
 51
210.0
  0
LINE
  5
C9
100
AcDbEntity
  8
0
370
    -3
  6
Continuous
100
AcDbLine
 10
-248.851982
 20
-30.742982
 30
0.0
 11
-247.345026
 21
-33.353106
 31
0.0
  0
ARC
  5
CA
100
AcDbEntity
  8
0
370
    -3
  6
Continuous
100
AcDbCircle
 10
-243.712539
 20
-37.644758
 30
0.0
 40
1.0
100
AcDbArc
 50
113.186146
 51
210.0
  0
ARC
  5
CB
100
AcDbEntity
  8
0
370
    -3
  6
Continuous
100
AcDbCircle
 10
-246.479001
 20
-32.853106
 30
0.0
 40
1.0
100
AcDbArc
 50
210.0
 51
294.26083
  0
ARC
  5
CC
100
AcDbEntity
  8
0
370
    -3
  6
Continuous
100
AcDbCircle
 10
-205.829959
 20
-68.26206
 30
0.0
 40
1.0
100
AcDbArc
 50
90.0
 51
172.410458
  0
LINE
  5
CD
100
AcDbEntity
  8
0
370
    -3
  6
Continuous
100
AcDbLine
 10
-202.806173
 20
-67.26206
 30
0.0
 11
-205.829959
 21
-67.26206
 31
0.0
  0
ARC
  5
CE
100
AcDbEntity
  8
0
370
    -3
  6
Continuous
100
AcDbCircle
 10
-202.806173
 20
-68.26206
 30
0.0
 40
1.0
100
AcDbArc
 50
353.186146
 51
90.0
  0
ARC
  5
CF
100
AcDbEntity
  8
0
370
    -3
  6
Continuous
100
AcDbCircle
 10
-197.273249
 20
-68.26206
 30
0.0
 40
1.0
100
AcDbArc
 50
90.0
 51
174.26083
  0
LINE
  5
D0
100
AcDbEntity
  8
0
370
    -3
  6
Continuous
100
AcDbLine
 10
-194.259337
 20
-67.26206
 30
0.0
 11
-197.273249
 21
-67.26206
 31
0.0
  0
ARC
  5
D1
100
AcDbEntity
  8
0
370
    -3
  6
Continuous
100
AcDbCircle
 10
-194.259337
 20
-68.26206
 30
0.0
 40
1.0
100
AcDbArc
 50
354.715267
 51
90.0
  0
ARC
  5
D2
100
AcDbEntity
  8
0
370
    -3
  6
Continuous
100
AcDbCircle
 10
-232.09781
 20
-64.76206
 30
0.0
 40
30.5
100
AcDbArc
 50
306.813854
 51
353.186146
  0
ARC
  5
D3
100
AcDbEntity
  8
0
370
    -3
  6
Continuous
100
AcDbCircle
 10
-232.09781
 20
-64.76206
 30
0.0
 40
25.5
100
AcDbArc
 50
307.589542
 51
352.410458
  0
ARC
  5
D4
100
AcDbEntity
  8
0
370
    -3
  6
Continuous
100
AcDbCircle
 10
-232.09781
 20
-64.76206
 30
0.0
 40
34.0
100
AcDbArc
 50
305.73917
 51
354.26083
  0
ARC
  5
D5
100
AcDbEntity
  8
0
370
    -3
  6
Continuous
100
AcDbCircle
 10
-232.09781
 20
-64.76206
 30
0.0
 40
39.0
100
AcDbArc
 50
305.284733
 51
354.715267
  0
ARC
  5
D6
100
AcDbEntity
  8
0
370
    -3
  6
Continuous
100
AcDbCircle
 10
-232.09781
 20
-64.76206
 30
0.0
 40
39.0
100
AcDbArc
 50
5.284733
 51
54.715267
  0
ARC
  5
D7
100
AcDbEntity
  8
0
370
    -3
  6
Continuous
100
AcDbCircle
 10
-232.09781
 20
-64.76206
 30
0.0
 40
34.0
100
AcDbArc
 50
5.73917
 51
54.26083
  0
ARC
  5
D8
100
AcDbEntity
  8
0
370
    -3
  6
Continuous
100
AcDbCircle
 10
-232.09781
 20
-64.76206
 30
0.0
 40
25.5
100
AcDbArc
 50
7.589542
 51
52.410458
  0
ARC
  5
D9
100
AcDbEntity
  8
0
370
    -3
  6
Continuous
100
AcDbCircle
 10
-232.09781
 20
-64.76206
 30
0.0
 40
30.5
100
AcDbArc
 50
6.813854
 51
53.186146
  0
ARC
  5
DA
100
AcDbEntity
  8
0
370
    -3
  6
Continuous
100
AcDbCircle
 10
-194.259337
 20
-61.26206
 30
0.0
 40
1.0
100
AcDbArc
 50
270.0
 51
5.284733
  0
LINE
  5
DB
100
AcDbEntity
  8
0
370
    -3
  6
Continuous
100
AcDbLine
 10
-194.259337
 20
-62.26206
 30
0.0
 11
-197.273249
 21
-62.26206
 31
0.0
  0
ARC
  5
DC
100
AcDbEntity
  8
0
370
    -3
  6
Continuous
100
AcDbCircle
 10
-197.273249
 20
-61.26206
 30
0.0
 40
1.0
100
AcDbArc
 50
185.73917
 51
270.0
  0
ARC
  5
DD
100
AcDbEntity
  8
0
370
    -3
  6
Continuous
100
AcDbCircle
 10
-202.806173
 20
-61.26206
 30
0.0
 40
1.0
100
AcDbArc
 50
270.0
 51
6.813854
  0
LINE
  5
DE
100
AcDbEntity
  8
0
370
    -3
  6
Continuous
100
AcDbLine
 10
-202.806173
 20
-62.26206
 30
0.0
 11
-205.829959
 21
-62.26206
 31
0.0
  0
ARC
  5
DF
100
AcDbEntity
  8
0
370
    -3
  6
Continuous
100
AcDbCircle
 10
-205.829959
 20
-61.26206
 30
0.0
 40
1.0
100
AcDbArc
 50
187.589542
 51
270.0
  0
ARC
  5
E0
100
AcDbEntity
  8
0
370
    -3
  6
Continuous
100
AcDbCircle
 10
-214.441366
 20
-68.26206
 30
0.0
 40
1.0
100
AcDbArc
 50
90.0
 51
168.787729
  0
LINE
  5
E1
100
AcDbEntity
  8
0
370
    -3
  6
Continuous
100
AcDbLine
 10
-211.39153
 20
-67.26206
 30
0.0
 11
-214.441366
 21
-67.26206
 31
0.0
  0
ARC
  5
E2
100
AcDbEntity
  8
0
370
    -3
  6
Continuous
100
AcDbCircle
 10
-211.39153
 20
-68.26206
 30
0.0
 40
1.0
100
AcDbArc
 50
350.405932
 51
90.0
  0
ARC
  5
E3
100
AcDbEntity
  8
0
370
    -3
  6
Continuous
100
AcDbCircle
 10
-214.420902
 20
-88.379362
 30
0.0
 40
1.0
100
AcDbArc
 50
210.0
 51
306.813854
  0
LINE
  5
E4
100
AcDbEntity
  8
0
370
    -3
  6
Continuous
100
AcDbLine
 10
-215.286928
 20
-88.879362
 30
0.0
 11
-216.798821
 21
-86.260687
 31
0.0
  0
ARC
  5
E5
100
AcDbEntity
  8
0
370
    -3
  6
Continuous
100
AcDbCircle
 10
-215.932795
 20
-85.760687
 30
0.0
 40
1.0
100
AcDbArc
 50
127.589542
 51
210.0
  0
ARC
  5
E6
100
AcDbEntity
  8
0
370
    -3
  6
Continuous
100
AcDbCircle
 10
-210.147485
 20
-95.781139
 30
0.0
 40
1.0
100
AcDbArc
 50
210.0
 51
305.284733
  0
LINE
  5
E7
100
AcDbEntity
  8
0
370
    -3
  6
Continuous
100
AcDbLine
 10
-211.01351
 20
-96.281139
 30
0.0
 11
-212.520466
 21
-93.671014
 31
0.0
  0
ARC
  5
E8
100
AcDbEntity
  8
0
370
    -3
  6
Continuous
100
AcDbCircle
 10
-211.654441
 20
-93.171014
 30
0.0
 40
1.0
100
AcDbArc
 50
125.73917
 51
210.0
  0
ARC
  5
E9
100
AcDbEntity
  8
0
370
    -3
  6
Continuous
100
AcDbCircle
 10
-224.65084
 20
-70.660589
 30
0.0
 40
1.0
100
AcDbArc
 50
141.618272
 51
210.0
  0
LINE
  5
EA
100
AcDbEntity
  8
0
370
    -3
  6
Continuous
100
AcDbLine
 10
-223.932746
 20
-73.904365
 30
0.0
 11
-225.516866
 21
-71.160589
 31
0.0
  0
ARC
  5
EB
100
AcDbEntity
  8
0
370
    -3
  6
Continuous
100
AcDbCircle
 10
-220.238499
 20
-78.302989
 30
0.0
 40
1.0
100
AcDbArc
 50
131.212271
 51
210.0
  0
LINE
  5
EC
100
AcDbEntity
  8
0
370
    -3
  6
Continuous
100
AcDbLine
 10
-219.579607
 20
-81.444224
 30
0.0
 11
-221.104524
 21
-78.802989
 31
0.0
  0
ARC
  5
ED
100
AcDbEntity
  8
0
370
    -3
  6
Continuous
100
AcDbCircle
 10
-218.713581
 20
-80.944224
 30
0.0
 40
1.0
100
AcDbArc
 50
210.0
 51
309.594068
  0
ARC
  5
EE
100
AcDbEntity
  8
0
370
    -3
  6
Continuous
100
AcDbCircle
 10
-223.266049
 20
-68.26206
 30
0.0
 40
1.0
100
AcDbArc
 50
90.0
 51
158.381728
  0
ARC
  5
EF
100
AcDbEntity
  8
0
370
    -3
  6
Continuous
100
AcDbCircle
 10
-232.09781
 20
-64.76206
 30
0.0
 40
8.5
100
AcDbArc
 50
321.618272
 51
338.381728
  0
ARC
  5
F0
100
AcDbEntity
  8
0
370
    -3
  6
Continuous
100
AcDbCircle
 10
-223.066721
 20
-73.404365
 30
0.0
 40
1.0
100
AcDbArc
 50
210.0
 51
316.260205
  0
LINE
  5
F1
100
AcDbEntity
  8
0
370
    -3
  6
Continuous
100
AcDbLine
 10
-220.09781
 20
-67.26206
 30
0.0
 11
-223.266049
 21
-67.26206
 31
0.0
  0
ARC
  5
F2
100
AcDbEntity
  8
0
370
    -3
  6
Continuous
100
AcDbCircle
 10
-220.09781
 20
-68.26206
 30
0.0
 40
1.0
100
AcDbArc
 50
343.739795
 51
90.0
  0
ARC
  5
F3
100
AcDbEntity
  8
0
370
    -3
  6
Continuous
100
AcDbCircle
 10
-232.09781
 20
-64.76206
 30
0.0
 40
13.5
100
AcDbArc
 50
316.260205
 51
343.739795
  0
ARC
  5
F4
100
AcDbEntity
  8
0
370
    -3
  6
Continuous
100
AcDbCircle
 10
-232.09781
 20
-64.76206
 30
0.0
 40
17.0
100
AcDbArc
 50
311.212271
 51
348.787729
  0
ARC
  5
F5
100
AcDbEntity
  8
0
370
    -3
  6
Continuous
100
AcDbCircle
 10
-232.09781
 20
-64.76206
 30
0.0
 40
22.0
100
AcDbArc
 50
309.594068
 51
350.405932
  0
ARC
  5
F6
100
AcDbEntity
  8
0
370
    -3
  6
Continuous
100
AcDbCircle
 10
-220.48308
 20
-91.879362
 30
0.0
 40
1.0
100
AcDbArc
 50
293.186146
 51
30.0
  0
LINE
  5
F7
100
AcDbEntity
  8
0
370
    -3
  6
Continuous
100
AcDbLine
 10
-219.617055
 20
-91.379362
 30
0.0
 11
-221.128948
 21
-88.760687
 31
0.0
  0
ARC
  5
F8
100
AcDbEntity
  8
0
370
    -3
  6
Continuous
100
AcDbCircle
 10
-221.994973
 20
-89.260687
 30
0.0
 40
1.0
100
AcDbArc
 50
30.0
 51
112.410458
  0
ARC
  5
F9
100
AcDbEntity
  8
0
370
    -3
  6
Continuous
100
AcDbCircle
 10
-216.209662
 20
-99.281139
 30
0.0
 40
1.0
100
AcDbArc
 50
294.715267
 51
30.0
  0
LINE
  5
FA
100
AcDbEntity
  8
0
370
    -3
  6
Continuous
100
AcDbLine
 10
-215.343637
 20
-98.781139
 30
0.0
 11
-216.850593
 21
-96.171014
 31
0.0
  0
ARC
  5
FB
100
AcDbEntity
  8
0
370
    -3
  6
Continuous
100
AcDbCircle
 10
-217.716618
 20
-96.671014
 30
0.0
 40
1.0
100
AcDbArc
 50
30.0
 51
114.26083
  0
ARC
  5
FC
100
AcDbEntity
  8
0
370
    -3
  6
Continuous
100
AcDbCircle
 10
-230.713018
 20
-74.160589
 30
0.0
 40
1.0
100
AcDbArc
 50
30.0
 51
98.381728
  0
LINE
  5
FD
100
AcDbEntity
  8
0
370
    -3
  6
Continuous
100
AcDbLine
 10
-228.262873
 20
-76.404365
 30
0.0
 11
-229.846993
 21
-73.660589
 31
0.0
  0
ARC
  5
FE
100
AcDbEntity
  8
0
370
    -3
  6
Continuous
100
AcDbCircle
 10
-226.300677
 20
-81.802989
 30
0.0
 40
1.0
100
AcDbArc
 50
30.0
 51
108.787729
  0
LINE
  5
FF
100
AcDbEntity
  8
0
370
    -3
  6
Continuous
100
AcDbLine
 10
-223.909734
 20
-83.944224
 30
0.0
 11
-225.434651
 21
-81.302989
 31
0.0
  0
ARC
  5
100
100
AcDbEntity
  8
0
370
    -3
  6
Continuous
100
AcDbCircle
 10
-224.775759
 20
-84.444224
 30
0.0
 40
1.0
100
AcDbArc
 50
290.405932
 51
30.0
  0
ARC
  5
101
100
AcDbEntity
  8
0
370
    -3
  6
Continuous
100
AcDbCircle
 10
-233.482601
 20
-74.160589
 30
0.0
 40
1.0
100
AcDbArc
 50
81.618272
 51
150.0
  0
ARC
  5
102
100
AcDbEntity
  8
0
370
    -3
  6
Continuous
100
AcDbCircle
 10
-232.09781
 20
-64.76206
 30
0.0
 40
8.5
100
AcDbArc
 50
261.618272
 51
278.381728
  0
ARC
  5
103
100
AcDbEntity
  8
0
370
    -3
  6
Continuous
100
AcDbCircle
 10
-229.128899
 20
-76.904365
 30
0.0
 40
1.0
100
AcDbArc
 50
283.739795
 51
30.0
  0
LINE
  5
104
100
AcDbEntity
  8
0
370
    -3
  6
Continuous
100
AcDbLine
 10
-235.932746
 20
-76.404365
 30
0.0
 11
-234.348627
 21
-73.660589
 31
0.0
  0
ARC
  5
105
100
AcDbEntity
  8
0
370
    -3
  6
Continuous
100
AcDbCircle
 10
-235.066721
 20
-76.904365
 30
0.0
 40
1.0
100
AcDbArc
 50
150.0
 51
256.260205
  0
ARC
  5
106
100
AcDbEntity
  8
0
370
    -3
  6
Continuous
100
AcDbCircle
 10
-232.09781
 20
-64.76206
 30
0.0
 40
13.5
100
AcDbArc
 50
256.260205
 51
283.739795
  0
ARC
  5
107
100
AcDbEntity
  8
0
370
    -3
  6
Continuous
100
AcDbCircle
 10
-237.894943
 20
-81.802989
 30
0.0
 40
1.0
100
AcDbArc
 50
71.212271
 51
150.0
  0
LINE
  5
108
100
AcDbEntity
  8
0
370
    -3
  6
Continuous
100
AcDbLine
 10
-240.285886
 20
-83.944224
 30
0.0
 11
-238.760968
 21
-81.302989
 31
0.0
  0
ARC
  5
109
100
AcDbEntity
  8
0
370
    -3
  6
Continuous
100
AcDbCircle
 10
-232.09781
 20
-64.76206
 30
0.0
 40
17.0
100
AcDbArc
 50
251.212271
 51
288.787729
  0
ARC
  5
10A
100
AcDbEntity
  8
0
370
    -3
  6
Continuous
100
AcDbCircle
 10
-239.41986
 20
-84.444224
 30
0.0
 40
1.0
100
AcDbArc
 50
150.0
 51
249.594068
  0
ARC
  5
10B
100
AcDbEntity
  8
0
370
    -3
  6
Continuous
100
AcDbCircle
 10
-242.200646
 20
-89.260687
 30
0.0
 40
1.0
100
AcDbArc
 50
67.589542
 51
150.0
  0
ARC
  5
10C
100
AcDbEntity
  8
0
370
    -3
  6
Continuous
100
AcDbCircle
 10
-246.479001
 20
-96.671014
 30
0.0
 40
1.0
100
AcDbArc
 50
65.73917
 51
150.0
  0
ARC
  5
10D
100
AcDbEntity
  8
0
370
    -3
  6
Continuous
100
AcDbCircle
 10
-232.09781
 20
-64.76206
 30
0.0
 40
22.0
100
AcDbArc
 50
249.594068
 51
290.405932
  0
LINE
  5
10E
100
AcDbEntity
  8
0
370
    -3
  6
Continuous
100
AcDbLine
 10
-244.578565
 20
-91.379362
 30
0.0
 11
-243.066672
 21
-88.760687
 31
0.0
  0
ARC
  5
10F
100
AcDbEntity
  8
0
370
    -3
  6
Continuous
100
AcDbCircle
 10
-243.712539
 20
-91.879362
 30
0.0
 40
1.0
100
AcDbArc
 50
150.0
 51
246.813854
  0
ARC
  5
110
100
AcDbEntity
  8
0
370
    -3
  6
Continuous
100
AcDbCircle
 10
-232.09781
 20
-64.76206
 30
0.0
 40
30.5
100
AcDbArc
 50
246.813854
 51
293.186146
  0
ARC
  5
111
100
AcDbEntity
  8
0
370
    -3
  6
Continuous
100
AcDbCircle
 10
-232.09781
 20
-64.76206
 30
0.0
 40
25.5
100
AcDbArc
 50
247.589542
 51
292.410458
  0
ARC
  5
112
100
AcDbEntity
  8
0
370
    -3
  6
Continuous
100
AcDbCircle
 10
-232.09781
 20
-64.76206
 30
0.0
 40
34.0
100
AcDbArc
 50
245.73917
 51
294.26083
  0
ARC
  5
113
100
AcDbEntity
  8
0
370
    -3
  6
Continuous
100
AcDbCircle
 10
-232.09781
 20
-64.76206
 30
0.0
 40
39.0
100
AcDbArc
 50
245.284733
 51
294.715267
  0
LINE
  5
114
100
AcDbEntity
  8
0
370
    -3
  6
Continuous
100
AcDbLine
 10
-248.851982
 20
-98.781139
 30
0.0
 11
-247.345026
 21
-96.171014
 31
0.0
  0
ARC
  5
115
100
AcDbEntity
  8
0
370
    -3
  6
Continuous
100
AcDbCircle
 10
-247.985957
 20
-99.281139
 30
0.0
 40
1.0
100
AcDbArc
 50
150.0
 51
245.284733
  0
CIRCLE
  5
116
100
AcDbEntity
  8
0
370
    -3
  6
Continuous
100
AcDbCircle
 10
-232.09781
 20
-64.76206
 30
0.0
 40
5.0
  0
ARC
  5
117
100
AcDbEntity
  8
0
370
    -3
  6
Continuous
100
AcDbCircle
 10
-254.048135
 20
-95.781139
 30
0.0
 40
1.0
100
AcDbArc
 50
234.715267
 51
330.0
  0
ARC
  5
118
100
AcDbEntity
  8
0
370
    -3
  6
Continuous
100
AcDbCircle
 10
-252.541179
 20
-93.171014
 30
0.0
 40
1.0
100
AcDbArc
 50
330.0
 51
54.26083
  0
ARC
  5
119
100
AcDbEntity
  8
0
370
    -3
  6
Continuous
100
AcDbCircle
 10
-266.92237
 20
-68.26206
 30
0.0
 40
1.0
100
AcDbArc
 50
5.73917
 51
90.0
  0
ARC
  5
11A
100
AcDbEntity
  8
0
370
    -3
  6
Continuous
100
AcDbCircle
 10
-258.365661
 20
-68.26206
 30
0.0
 40
1.0
100
AcDbArc
 50
7.589542
 51
90.0
  0
ARC
  5
11B
100
AcDbEntity
  8
0
370
    -3
  6
Continuous
100
AcDbCircle
 10
-249.774717
 20
-88.379362
 30
0.0
 40
1.0
100
AcDbArc
 50
233.186146
 51
330.0
  0
ARC
  5
11C
100
AcDbEntity
  8
0
370
    -3
  6
Continuous
100
AcDbCircle
 10
-248.262824
 20
-85.760687
 30
0.0
 40
1.0
100
AcDbArc
 50
330.0
 51
52.410458
  0
ARC
  5
11D
100
AcDbEntity
  8
0
370
    -3
  6
Continuous
100
AcDbCircle
 10
-261.389447
 20
-68.26206
 30
0.0
 40
1.0
100
AcDbArc
 50
90.0
 51
186.813854
  0
ARC
  5
11E
100
AcDbEntity
  8
0
370
    -3
  6
Continuous
100
AcDbCircle
 10
-252.804089
 20
-68.26206
 30
0.0
 40
1.0
100
AcDbArc
 50
90.0
 51
189.594068
  0
ARC
  5
11F
100
AcDbEntity
  8
0
370
    -3
  6
Continuous
100
AcDbCircle
 10
-249.754253
 20
-68.26206
 30
0.0
 40
1.0
100
AcDbArc
 50
11.212271
 51
90.0
  0
ARC
  5
120
100
AcDbEntity
  8
0
370
    -3
  6
Continuous
100
AcDbCircle
 10
-245.482038
 20
-80.944224
 30
0.0
 40
1.0
100
AcDbArc
 50
230.405932
 51
330.0
  0
ARC
  5
121
100
AcDbEntity
  8
0
370
    -3
  6
Continuous
100
AcDbCircle
 10
-243.95712
 20
-78.302989
 30
0.0
 40
1.0
100
AcDbArc
 50
330.0
 51
48.787729
  0
ARC
  5
122
100
AcDbEntity
  8
0
370
    -3
  6
Continuous
100
AcDbCircle
 10
-241.128899
 20
-73.404365
 30
0.0
 40
1.0
100
AcDbArc
 50
223.739795
 51
330.0
  0
ARC
  5
123
100
AcDbEntity
  8
0
370
    -3
  6
Continuous
100
AcDbCircle
 10
-244.09781
 20
-68.26206
 30
0.0
 40
1.0
100
AcDbArc
 50
90.0
 51
196.260205
  0
ARC
  5
124
100
AcDbEntity
  8
0
370
    -3
  6
Continuous
100
AcDbCircle
 10
-240.929571
 20
-68.26206
 30
0.0
 40
1.0
100
AcDbArc
 50
21.618272
 51
90.0
  0
ARC
  5
125
100
AcDbEntity
  8
0
370
    -3
  6
Continuous
100
AcDbCircle
 10
-239.544779
 20
-70.660589
 30
0.0
 40
1.0
100
AcDbArc
 50
330.0
 51
38.381728
  0
ARC
  5
126
100
AcDbEntity
  8
0
370
    -3
  6
Continuous
100
AcDbCircle
 10
-232.09781
 20
-64.76206
 30
0.0
 40
39.0
100
AcDbArc
 50
185.284733
 51
234.715267
  0
ARC
  5
127
100
AcDbEntity
  8
0
370
    -3
  6
Continuous
100
AcDbCircle
 10
-232.09781
 20
-64.76206
 30
0.0
 40
30.5
100
AcDbArc
 50
186.813854
 51
233.186146
  0
ARC
  5
128
100
AcDbEntity
  8
0
370
    -3
  6
Continuous
100
AcDbCircle
 10
-232.09781
 20
-64.76206
 30
0.0
 40
34.0
100
AcDbArc
 50
185.73917
 51
234.26083
  0
ARC
  5
129
100
AcDbEntity
  8
0
370
    -3
  6
Continuous
100
AcDbCircle
 10
-232.09781
 20
-64.76206
 30
0.0
 40
25.5
100
AcDbArc
 50
187.589542
 51
232.410458
  0
ARC
  5
12A
100
AcDbEntity
  8
0
370
    -3
  6
Continuous
100
AcDbCircle
 10
-232.09781
 20
-64.76206
 30
0.0
 40
22.0
100
AcDbArc
 50
189.594068
 51
230.405932
  0
ARC
  5
12B
100
AcDbEntity
  8
0
370
    -3
  6
Continuous
100
AcDbCircle
 10
-232.09781
 20
-64.76206
 30
0.0
 40
17.0
100
AcDbArc
 50
191.212271
 51
228.787729
  0
ARC
  5
12C
100
AcDbEntity
  8
0
370
    -3
  6
Continuous
100
AcDbCircle
 10
-232.09781
 20
-64.76206
 30
0.0
 40
13.5
100
AcDbArc
 50
196.260205
 51
223.739795
  0
ARC
  5
12D
100
AcDbEntity
  8
0
370
    -3
  6
Continuous
100
AcDbCircle
 10
-232.09781
 20
-64.76206
 30
0.0
 40
8.5
100
AcDbArc
 50
201.618272
 51
218.381728
  0
LINE
  5
12E
100
AcDbEntity
  8
0
370
    -3
  6
Continuous
100
AcDbLine
 10
-248.908692
 20
-88.879362
 30
0.0
 11
-247.396799
 21
-86.260687
 31
0.0
  0
LINE
  5
12F
100
AcDbEntity
  8
0
370
    -3
  6
Continuous
100
AcDbLine
 10
-269.936282
 20
-67.26206
 30
0.0
 11
-266.92237
 21
-67.26206
 31
0.0
  0
LINE
  5
130
100
AcDbEntity
  8
0
370
    -3
  6
Continuous
100
AcDbLine
 10
-253.182109
 20
-96.281139
 30
0.0
 11
-251.675153
 21
-93.671014
 31
0.0
  0
LINE
  5
131
100
AcDbEntity
  8
0
370
    -3
  6
Continuous
100
AcDbLine
 10
-244.616013
 20
-81.444224
 30
0.0
 11
-243.091095
 21
-78.802989
 31
0.0
  0
LINE
  5
132
100
AcDbEntity
  8
0
370
    -3
  6
Continuous
100
AcDbLine
 10
-240.262873
 20
-73.904365
 30
0.0
 11
-238.678754
 21
-71.160589
 31
0.0
  0
LINE
  5
133
100
AcDbEntity
  8
0
370
    -3
  6
Continuous
100
AcDbLine
 10
-244.09781
 20
-67.26206
 30
0.0
 11
-240.929571
 21
-67.26206
 31
0.0
  0
LINE
  5
134
100
AcDbEntity
  8
0
370
    -3
  6
Continuous
100
AcDbLine
 10
-252.804089
 20
-67.26206
 30
0.0
 11
-249.754253
 21
-67.26206
 31
0.0
  0
LINE
  5
135
100
AcDbEntity
  8
0
370
    -3
  6
Continuous
100
AcDbLine
 10
-261.389447
 20
-67.26206
 30
0.0
 11
-258.365661
 21
-67.26206
 31
0.0
  0
ARC
  5
136
100
AcDbEntity
  8
0
370
    -3
  6
Continuous
100
AcDbCircle
 10
-232.09781
 20
-64.76206
 30
0.0
 40
25.5
100
AcDbArc
 50
67.589542
 51
112.410458
  0
ARC
  5
137
100
AcDbEntity
  8
0
370
    -3
  6
Continuous
100
AcDbCircle
 10
-232.09781
 20
-64.76206
 30
0.0
 40
22.0
100
AcDbArc
 50
69.594068
 51
110.405932
  0
ARC
  5
138
100
AcDbEntity
  8
0
370
    -3
  6
Continuous
100
AcDbCircle
 10
-232.09781
 20
-64.76206
 30
0.0
 40
17.0
100
AcDbArc
 50
71.212271
 51
108.787729
  0
ARC
  5
139
100
AcDbEntity
  8
0
370
    -3
  6
Continuous
100
AcDbCircle
 10
-232.09781
 20
-64.76206
 30
0.0
 40
13.5
100
AcDbArc
 50
76.260205
 51
103.739795
  0
ARC
  5
13A
100
AcDbEntity
  8
0
370
    -3
  6
Continuous
100
AcDbCircle
 10
-229.128899
 20
-52.619755
 30
0.0
 40
1.0
100
AcDbArc
 50
330.0
 51
76.260205
  0
ARC
  5
13B
100
AcDbEntity
  8
0
370
    -3
  6
Continuous
100
AcDbCircle
 10
-224.775759
 20
-45.079896
 30
0.0
 40
1.0
100
AcDbArc
 50
330.0
 51
69.594068
  0
LINE
  5
13C
100
AcDbEntity
  8
0
370
    -3
  6
Continuous
100
AcDbLine
 10
-223.909734
 20
-45.579896
 30
0.0
 11
-225.434651
 21
-48.221132
 31
0.0
  0
ARC
  5
13D
100
AcDbEntity
  8
0
370
    -3
  6
Continuous
100
AcDbCircle
 10
-226.300677
 20
-47.721132
 30
0.0
 40
1.0
100
AcDbArc
 50
251.212271
 51
330.0
  0
LINE
  5
13E
100
AcDbEntity
  8
0
370
    -3
  6
Continuous
100
AcDbLine
 10
-228.262873
 20
-53.119755
 30
0.0
 11
-229.846993
 21
-55.863531
 31
0.0
  0
ARC
  5
13F
100
AcDbEntity
  8
0
370
    -3
  6
Continuous
100
AcDbCircle
 10
-230.713018
 20
-55.363531
 30
0.0
 40
1.0
100
AcDbArc
 50
261.618272
 51
330.0
  0
ARC
  5
140
100
AcDbEntity
  8
0
370
    -3
  6
Continuous
100
AcDbCircle
 10
-221.994973
 20
-40.263434
 30
0.0
 40
1.0
100
AcDbArc
 50
247.589542
 51
330.0
  0
LINE
  5
141
100
AcDbEntity
  8
0
370
    -3
  6
Continuous
100
AcDbLine
 10
-219.617055
 20
-38.144758
 30
0.0
 11
-221.128948
 21
-40.763434
 31
0.0
  0
ARC
  5
142
100
AcDbEntity
  8
0
370
    -3
  6
Continuous
100
AcDbCircle
 10
-232.09781
 20
-64.76206
 30
0.0
 40
22.0
100
AcDbArc
 50
9.594068
 51
50.405932
  0
ARC
  5
143
100
AcDbEntity
  8
0
370
    -3
  6
Continuous
100
AcDbCircle
 10
-232.09781
 20
-64.76206
 30
0.0
 40
17.0
100
AcDbArc
 50
11.212271
 51
48.787729
  0
ARC
  5
144
100
AcDbEntity
  8
0
370
    -3
  6
Continuous
100
AcDbCircle
 10
-232.09781
 20
-64.76206
 30
0.0
 40
13.5
100
AcDbArc
 50
16.260205
 51
43.739795
  0
ARC
  5
145
100
AcDbEntity
  8
0
370
    -3
  6
Continuous
100
AcDbCircle
 10
-220.09781
 20
-61.26206
 30
0.0
 40
1.0
100
AcDbArc
 50
270.0
 51
16.260205
  0
LINE
  5
146
100
AcDbEntity
  8
0
370
    -3
  6
Continuous
100
AcDbLine
 10
-220.09781
 20
-62.26206
 30
0.0
 11
-223.266049
 21
-62.26206
 31
0.0
  0
ARC
  5
147
100
AcDbEntity
  8
0
370
    -3
  6
Continuous
100
AcDbCircle
 10
-223.066721
 20
-56.119755
 30
0.0
 40
1.0
100
AcDbArc
 50
43.739795
 51
150.0
  0
ARC
  5
148
100
AcDbEntity
  8
0
370
    -3
  6
Continuous
100
AcDbCircle
 10
-232.09781
 20
-64.76206
 30
0.0
 40
8.5
100
AcDbArc
 50
21.618272
 51
38.381728
  0
ARC
  5
149
100
AcDbEntity
  8
0
370
    -3
  6
Continuous
100
AcDbCircle
 10
-223.266049
 20
-61.26206
 30
0.0
 40
1.0
100
AcDbArc
 50
201.618272
 51
270.0
  0
ARC
  5
14A
100
AcDbEntity
  8
0
370
    -3
  6
Continuous
100
AcDbCircle
 10
-218.713581
 20
-48.579896
 30
0.0
 40
1.0
100
AcDbArc
 50
50.405932
 51
150.0
  0
LINE
  5
14B
100
AcDbEntity
  8
0
370
    -3
  6
Continuous
100
AcDbLine
 10
-219.579607
 20
-48.079896
 30
0.0
 11
-221.104524
 21
-50.721132
 31
0.0
  0
ARC
  5
14C
100
AcDbEntity
  8
0
370
    -3
  6
Continuous
100
AcDbCircle
 10
-220.238499
 20
-51.221132
 30
0.0
 40
1.0
100
AcDbArc
 50
150.0
 51
228.787729
  0
LINE
  5
14D
100
AcDbEntity
  8
0
370
    -3
  6
Continuous
100
AcDbLine
 10
-223.932746
 20
-55.619755
 30
0.0
 11
-225.516866
 21
-58.363531
 31
0.0
  0
ARC
  5
14E
100
AcDbEntity
  8
0
370
    -3
  6
Continuous
100
AcDbCircle
 10
-224.65084
 20
-58.863531
 30
0.0
 40
1.0
100
AcDbArc
 50
150.0
 51
218.381728
  0
ARC
  5
14F
100
AcDbEntity
  8
0
370
    -3
  6
Continuous
100
AcDbCircle
 10
-215.932795
 20
-43.763434
 30
0.0
 40
1.0
100
AcDbArc
 50
150.0
 51
232.410458
  0
LINE
  5
150
100
AcDbEntity
  8
0
370
    -3
  6
Continuous
100
AcDbLine
 10
-215.286928
 20
-40.644758
 30
0.0
 11
-216.798821
 21
-43.263434
 31
0.0
  0
ARC
  5
151
100
AcDbEntity
  8
0
370
    -3
  6
Continuous
100
AcDbCircle
 10
-214.420902
 20
-41.144758
 30
0.0
 40
1.0
100
AcDbArc
 50
53.186146
 51
150.0
  0
ARC
  5
152
100
AcDbEntity
  8
0
370
    -3
  6
Continuous
100
AcDbCircle
 10
-211.39153
 20
-61.26206
 30
0.0
 40
1.0
100
AcDbArc
 50
270.0
 51
9.594068
  0
LINE
  5
153
100
AcDbEntity
  8
0
370
    -3
  6
Continuous
100
AcDbLine
 10
-211.39153
 20
-62.26206
 30
0.0
 11
-214.441366
 21
-62.26206
 31
0.0
  0
ARC
  5
154
100
AcDbEntity
  8
0
370
    -3
  6
Continuous
100
AcDbCircle
 10
-214.441366
 20
-61.26206
 30
0.0
 40
1.0
100
AcDbArc
 50
191.212271
 51
270.0
  0
ARC
  5
155
100
AcDbEntity
  8
0
370
    -3
  6
Continuous
100
AcDbCircle
 10
-235.066721
 20
-52.619755
 30
0.0
 40
1.0
100
AcDbArc
 50
103.739795
 51
210.0
  0
LINE
  5
156
100
AcDbEntity
  8
0
370
    -3
  6
Continuous
100
AcDbLine
 10
-235.932746
 20
-53.119755
 30
0.0
 11
-234.348627
 21
-55.863531
 31
0.0
  0
ARC
  5
157
100
AcDbEntity
  8
0
370
    -3
  6
Continuous
100
AcDbCircle
 10
-232.09781
 20
-64.76206
 30
0.0
 40
8.5
100
AcDbArc
 50
81.618272
 51
98.381728
  0
ARC
  5
158
100
AcDbEntity
  8
0
370
    -3
  6
Continuous
100
AcDbCircle
 10
-233.482601
 20
-55.363531
 30
0.0
 40
1.0
100
AcDbArc
 50
210.0
 51
278.381728
  0
LINE
  5
159
100
AcDbEntity
  8
0
370
    -3
  6
Continuous
100
AcDbLine
 10
-261.389447
 20
-62.26206
 30
0.0
 11
-258.365661
 21
-62.26206
 31
0.0
  0
LINE
  5
15A
100
AcDbEntity
  8
0
370
    -3
  6
Continuous
100
AcDbLine
 10
-252.804089
 20
-62.26206
 30
0.0
 11
-249.754253
 21
-62.26206
 31
0.0
  0
LINE
  5
15B
100
AcDbEntity
  8
0
370
    -3
  6
Continuous
100
AcDbLine
 10
-244.09781
 20
-62.26206
 30
0.0
 11
-240.929571
 21
-62.26206
 31
0.0
  0
LINE
  5
15C
100
AcDbEntity
  8
0
370
    -3
  6
Continuous
100
AcDbLine
 10
-240.262873
 20
-55.619755
 30
0.0
 11
-238.678754
 21
-58.363531
 31
0.0
  0
LINE
  5
15D
100
AcDbEntity
  8
0
370
    -3
  6
Continuous
100
AcDbLine
 10
-244.616013
 20
-48.079896
 30
0.0
 11
-243.091095
 21
-50.721132
 31
0.0
  0
LINE
  5
15E
100
AcDbEntity
  8
0
370
    -3
  6
Continuous
100
AcDbLine
 10
-248.908692
 20
-40.644758
 30
0.0
 11
-247.396799
 21
-43.263434
 31
0.0
  0
ARC
  5
15F
100
AcDbEntity
  8
0
370
    -3
  6
Continuous
100
AcDbCircle
 10
-232.09781
 20
-64.76206
 30
0.0
 40
8.5
100
AcDbArc
 50
141.618272
 51
158.381728
  0
ARC
  5
160
100
AcDbEntity
  8
0
370
    -3
  6
Continuous
100
AcDbCircle
 10
-232.09781
 20
-64.76206
 30
0.0
 40
13.5
100
AcDbArc
 50
136.260205
 51
163.739795
  0
ARC
  5
161
100
AcDbEntity
  8
0
370
    -3
  6
Continuous
100
AcDbCircle
 10
-232.09781
 20
-64.76206
 30
0.0
 40
17.0
100
AcDbArc
 50
131.212271
 51
168.787729
  0
ARC
  5
162
100
AcDbEntity
  8
0
370
    -3
  6
Continuous
100
AcDbCircle
 10
-232.09781
 20
-64.76206
 30
0.0
 40
22.0
100
AcDbArc
 50
129.594068
 51
170.405932
  0
ARC
  5
163
100
AcDbEntity
  8
0
370
    -3
  6
Continuous
100
AcDbCircle
 10
-232.09781
 20
-64.76206
 30
0.0
 40
25.5
100
AcDbArc
 50
127.589542
 51
172.410458
  0
ARC
  5
164
100
AcDbEntity
  8
0
370
    -3
  6
Continuous
100
AcDbCircle
 10
-232.09781
 20
-64.76206
 30
0.0
 40
34.0
100
AcDbArc
 50
125.73917
 51
174.26083
  0
ARC
  5
165
100
AcDbEntity
  8
0
370
    -3
  6
Continuous
100
AcDbCircle
 10
-232.09781
 20
-64.76206
 30
0.0
 40
30.5
100
AcDbArc
 50
126.813854
 51
173.186146
  0
ARC
  5
166
100
AcDbEntity
  8
0
370
    -3
  6
Continuous
100
AcDbCircle
 10
-232.09781
 20
-64.76206
 30
0.0
 40
39.0
100
AcDbArc
 50
125.284733
 51
174.715267
  0
ARC
  5
167
100
AcDbEntity
  8
0
370
    -3
  6
Continuous
100
AcDbCircle
 10
-239.544779
 20
-58.863531
 30
0.0
 40
1.0
100
AcDbArc
 50
321.618272
 51
30.0
  0
ARC
  5
168
100
AcDbEntity
  8
0
370
    -3
  6
Continuous
100
AcDbCircle
 10
-240.929571
 20
-61.26206
 30
0.0
 40
1.0
100
AcDbArc
 50
270.0
 51
338.381728
  0
ARC
  5
169
100
AcDbEntity
  8
0
370
    -3
  6
Continuous
100
AcDbCircle
 10
-244.09781
 20
-61.26206
 30
0.0
 40
1.0
100
AcDbArc
 50
163.739795
 51
270.0
  0
ARC
  5
16A
100
AcDbEntity
  8
0
370
    -3
  6
Continuous
100
AcDbCircle
 10
-241.128899
 20
-56.119755
 30
0.0
 40
1.0
100
AcDbArc
 50
30.0
 51
136.260205
  0
ARC
  5
16B
100
AcDbEntity
  8
0
370
    -3
  6
Continuous
100
AcDbCircle
 10
-243.95712
 20
-51.221132
 30
0.0
 40
1.0
100
AcDbArc
 50
311.212271
 51
30.0
  0
ARC
  5
16C
100
AcDbEntity
  8
0
370
    -3
  6
Continuous
100
AcDbCircle
 10
-245.482038
 20
-48.579896
 30
0.0
 40
1.0
100
AcDbArc
 50
30.0
 51
129.594068
  0
ARC
  5
16D
100
AcDbEntity
  8
0
370
    -3
  6
Continuous
100
AcDbCircle
 10
-249.754253
 20
-61.26206
 30
0.0
 40
1.0
100
AcDbArc
 50
270.0
 51
348.787729
  0
ARC
  5
16E
100
AcDbEntity
  8
0
370
    -3
  6
Continuous
100
AcDbCircle
 10
-252.804089
 20
-61.26206
 30
0.0
 40
1.0
100
AcDbArc
 50
170.405932
 51
270.0
  0
ARC
  5
16F
100
AcDbEntity
  8
0
370
    -3
  6
Continuous
100
AcDbCircle
 10
-248.262824
 20
-43.763434
 30
0.0
 40
1.0
100
AcDbArc
 50
307.589542
 51
30.0
  0
ARC
  5
170
100
AcDbEntity
  8
0
370
    -3
  6
Continuous
100
AcDbCircle
 10
-249.774717
 20
-41.144758
 30
0.0
 40
1.0
100
AcDbArc
 50
30.0
 51
126.813854
  0
ARC
  5
171
100
AcDbEntity
  8
0
370
    -3
  6
Continuous
100
AcDbCircle
 10
-258.365661
 20
-61.26206
 30
0.0
 40
1.0
100
AcDbArc
 50
270.0
 51
352.410458
  0
LINE
  5
172
100
AcDbEntity
  8
0
370
    -3
  6
Continuous
100
AcDbLine
 10
-244.578565
 20
-38.144758
 30
0.0
 11
-243.066672
 21
-40.763434
 31
0.0
  0
ARC
  5
173
100
AcDbEntity
  8
0
370
    -3
  6
Continuous
100
AcDbCircle
 10
-242.200646
 20
-40.263434
 30
0.0
 40
1.0
100
AcDbArc
 50
210.0
 51
292.410458
  0
ARC
  5
174
100
AcDbEntity
  8
0
370
    -3
  6
Continuous
100
AcDbCircle
 10
-239.41986
 20
-45.079896
 30
0.0
 40
1.0
100
AcDbArc
 50
110.405932
 51
210.0
  0
LINE
  5
175
100
AcDbEntity
  8
0
370
    -3
  6
Continuous
100
AcDbLine
 10
-240.285886
 20
-45.579896
 30
0.0
 11
-238.760968
 21
-48.221132
 31
0.0
  0
ARC
  5
176
100
AcDbEntity
  8
0
370
    -3
  6
Continuous
100
AcDbCircle
 10
-237.894943
 20
-47.721132
 30
0.0
 40
1.0
100
AcDbArc
 50
210.0
 51
288.787729
  0
LINE
  5
177
100
AcDbEntity
  8
0
370
    -3
  6
Continuous
100
AcDbLine
 10
-269.936282
 20
-62.26206
 30
0.0
 11
-266.92237
 21
-62.26206
 31
0.0
  0
ARC
  5
178
100
AcDbEntity
  8
0
370
    -3
  6
Continuous
100
AcDbCircle
 10
-261.389447
 20
-61.26206
 30
0.0
 40
1.0
100
AcDbArc
 50
173.186146
 51
270.0
  0
ARC
  5
179
100
AcDbEntity
  8
0
370
    -3
  6
Continuous
100
AcDbCircle
 10
-266.92237
 20
-61.26206
 30
0.0
 40
1.0
100
AcDbArc
 50
270.0
 51
354.26083
  0
ARC
  5
17A
100
AcDbEntity
  8
0
370
    -3
  6
Continuous
100
AcDbCircle
 10
-578.69781
 20
-64.76206
 30
0.0
 40
400.6
100
AcDbArc
 50
0.0
 51
4.529945
  0
ARC
  5
17B
100
AcDbEntity
  8
0
370
    -3
  6
Continuous
100
AcDbCircle
 10
114.50219
 20
-64.76206
 30
0.0
 40
390.797
100
AcDbArc
 50
174.582036
 51
180.0
  0
ARC
  5
17C
100
AcDbEntity
  8
0
370
    -3
  6
Continuous
100
AcDbCircle
 10
114.50219
 20
-64.76206
 30
0.0
 40
400.6
100
AcDbArc
 50
175.470055
 51
180.0
  0
ARC
  5
17D
100
AcDbEntity
  8
0
370
    -3
  6
Continuous
100
AcDbCircle
 10
-232.09781
 20
-406.36206
 30
0.0
 40
400.6
100
AcDbArc
 50
90.0
 51
92.529361
  0
ARC
  5
17E
100
AcDbEntity
  8
0
370
    -3
  6
Continuous
100
AcDbCircle
 10
-199.884857
 20
-34.749616
 30
0.0
 40
20.6
100
AcDbArc
 50
4.529945
 51
45.0
  0
ARC
  5
17F
100
AcDbEntity
  8
0
370
    -3
  6
Continuous
100
AcDbCircle
 10
-199.884857
 20
-34.749616
 30
0.0
 40
20.6
100
AcDbArc
 50
4.529945
 51
45.0
  0
LINE
  5
180
100
AcDbEntity
  8
0
370
    -3
  6
Continuous
100
AcDbLine
 10
-189.742114
 20
-15.75956
 30
0.0
 11
-183.09531
 21
-22.406364
 31
0.0
  0
LINE
  5
181
100
AcDbEntity
  8
0
370
    -3
  6
Continuous
100
AcDbLine
 10
-187.497203
 20
-18.004471
 30
0.0
 11
-185.318458
 21
-20.183216
 31
0.0
  0
LINE
  5
182
100
AcDbEntity
  8
0
370
    -3
  6
Continuous
100
AcDbLine
 10
-189.742114
 20
-15.75956
 30
0.0
 11
-189.25531
 21
-15.272757
 31
0.0
  0
LINE
  5
183
100
AcDbEntity
  8
0
370
    -3
  6
Continuous
100
AcDbLine
 10
-189.489567
 20
-15.446422
 30
0.0
 11
-182.812468
 21
-22.123521
 31
0.0
  0
POINT
  5
184
100
AcDbEntity
  8
0
370
    -3
  6
Continuous
100
AcDbPoint
 10
-186.418712
 20
-19.082962
 30
0.0
  0
ARC
  5
185
100
AcDbEntity
  8
0
370
    -3
  6
Continuous
100
AcDbCircle
 10
-188.681454
 20
-21.345704
 30
0.0
 40
6.099999
100
AcDbArc
 50
354.601928
 51
95.398089
  0
LINE
  5
186
100
AcDbEntity
  8
0
370
    -3
  6
Continuous
100
AcDbLine
 10
-187.497203
 20
-18.004471
 30
0.0
 11
-185.318458
 21
-20.183216
 31
0.0
  0
LINE
  5
187
100
AcDbEntity
  8
0
370
    -3
  6
Continuous
100
AcDbLine
 10
-187.497203
 20
-18.004471
 30
0.0
 11
-185.318458
 21
-20.183216
 31
0.0
  0
ARC
  5
188
100
AcDbEntity
  8
0
370
    -3
  6
Continuous
100
AcDbCircle
 10
-188.681454
 20
-21.345704
 30
0.0
 40
6.099999
100
AcDbArc
 50
354.601928
 51
95.398089
  0
POINT
  5
189
100
AcDbEntity
  8
0
370
    -3
  6
Continuous
100
AcDbPoint
 10
-186.418712
 20
-19.082962
 30
0.0
  0
LINE
  5
18A
100
AcDbEntity
  8
0
370
    -3
  6
Continuous
100
AcDbLine
 10
-189.489567
 20
-15.446422
 30
0.0
 11
-182.812468
 21
-22.123521
 31
0.0
  0
LINE
  5
18B
100
AcDbEntity
  8
0
370
    -3
  6
Continuous
100
AcDbLine
 10
-189.742114
 20
-15.75956
 30
0.0
 11
-189.25531
 21
-15.272757
 31
0.0
  0
LINE
  5
18C
100
AcDbEntity
  8
0
370
    -3
  6
Continuous
100
AcDbLine
 10
-187.497203
 20
-18.004471
 30
0.0
 11
-185.318458
 21
-20.183216
 31
0.0
  0
LINE
  5
18D
100
AcDbEntity
  8
0
370
    -3
  6
Continuous
100
AcDbLine
 10
-189.742114
 20
-15.75956
 30
0.0
 11
-183.09531
 21
-22.406364
 31
0.0
  0
ARC
  5
18E
100
AcDbEntity
  8
0
370
    -3
  6
Continuous
100
AcDbCircle
 10
-216.205739
 20
-46.713006
 30
0.0
 40
40.6
100
AcDbArc
 50
45.0
 51
87.469876
  0
ARC
  5
18F
100
AcDbEntity
  8
0
370
    -3
  6
Continuous
100
AcDbCircle
 10
-216.205739
 20
-46.713006
 30
0.0
 40
40.6
100
AcDbArc
 50
45.0
 51
87.469876
  0
ARC
  5
190
100
AcDbEntity
  8
0
370
    -3
  6
Continuous
100
AcDbCircle
 10
-208.558012
 20
-37.39017
 30
0.0
 40
20.797
100
AcDbArc
 50
45.0
 51
84.99835
  0
LINE
  5
191
100
AcDbEntity
  8
0
370
    -3
  6
Continuous
100
AcDbLine
 10
-193.852312
 20
-22.68447
 30
0.0
 11
-190.512007
 21
-26.024775
 31
0.0
  0
ARC
  5
192
100
AcDbEntity
  8
0
370
    -3
  6
Continuous
100
AcDbCircle
 10
-232.09781
 20
-306.36206
 30
0.0
 40
290.797
100
AcDbArc
 50
84.99835
 51
90.0
  0
ARC
  5
193
100
AcDbEntity
  8
0
370
    -3
  6
Continuous
100
AcDbCircle
 10
-232.09781
 20
-406.36206
 30
0.0
 40
400.6
100
AcDbArc
 50
87.470639
 51
90.0
  0
ARC
  5
194
100
AcDbEntity
  8
0
370
    -3
  6
Continuous
100
AcDbCircle
 10
-192.633328
 20
-28.146095
 30
0.0
 40
3.0
100
AcDbArc
 50
5.417964
 51
45.0
  0
ARC
  5
195
100
AcDbEntity
  8
0
370
    -3
  6
Continuous
100
AcDbCircle
 10
-578.69781
 20
-64.76206
 30
0.0
 40
390.797
100
AcDbArc
 50
0.0
 51
5.417964
  0
ARC
  5
196
100
AcDbEntity
  8
0
370
    -3
  6
Continuous
100
AcDbCircle
 10
-232.09781
 20
-64.76206
 30
0.0
 40
39.0
100
AcDbArc
 50
65.284733
 51
114.715267
  0
LINE
  5
197
100
AcDbEntity
  8
0
370
    -3
  6
Continuous
100
AcDbLine
 10
-200.59781
 20
-7.26206
 30
0.0
 11
-206.614969
 21
-7.26206
 31
0.0
  0
LINE
  5
198
100
AcDbEntity
  8
0
370
    -3
  6
Continuous
100
AcDbLine
 10
-200.59781
 20
-9.232977
 30
0.0
 11
-200.59781
 21
-7.26206
 31
0.0
  0
ARC
  5
199
100
AcDbEntity
  8
0
370
    -3
  6
Continuous
100
AcDbCircle
 10
-264.310763
 20
-34.749616
 30
0.0
 40
20.6
100
AcDbArc
 50
135.0
 51
175.470055
  0
ARC
  5
19A
100
AcDbEntity
  8
0
370
    -3
  6
Continuous
100
AcDbCircle
 10
-264.310763
 20
-34.749616
 30
0.0
 40
20.6
100
AcDbArc
 50
135.0
 51
175.470055
  0
LINE
  5
19B
100
AcDbEntity
  8
0
370
    -3
  6
Continuous
100
AcDbLine
 10
-274.453506
 20
-15.75956
 30
0.0
 11
-281.10031
 21
-22.406364
 31
0.0
  0
LINE
  5
19C
100
AcDbEntity
  8
0
370
    -3
  6
Continuous
100
AcDbLine
 10
-274.706053
 20
-15.446422
 30
0.0
 11
-281.383153
 21
-22.123521
 31
0.0
  0
ARC
  5
19D
100
AcDbEntity
  8
0
370
    -3
  6
Continuous
100
AcDbCircle
 10
-275.514167
 20
-21.345704
 30
0.0
 40
6.099999
100
AcDbArc
 50
84.601911
 51
185.398072
  0
ARC
  5
19E
100
AcDbEntity
  8
0
370
    -3
  6
Continuous
100
AcDbCircle
 10
-275.514167
 20
-21.345704
 30
0.0
 40
6.099999
100
AcDbArc
 50
84.601911
 51
185.398072
  0
LINE
  5
19F
100
AcDbEntity
  8
0
370
    -3
  6
Continuous
100
AcDbLine
 10
-274.706053
 20
-15.446422
 30
0.0
 11
-281.383153
 21
-22.123521
 31
0.0
  0
LINE
  5
1A0
100
AcDbEntity
  8
0
370
    -3
  6
Continuous
100
AcDbLine
 10
-274.453506
 20
-15.75956
 30
0.0
 11
-281.10031
 21
-22.406364
 31
0.0
  0
LINE
  5
1A1
100
AcDbEntity
  8
0
370
    -3
  6
Continuous
100
AcDbLine
 10
-274.453506
 20
-15.75956
 30
0.0
 11
-274.94031
 21
-15.272757
 31
0.0
  0
LINE
  5
1A2
100
AcDbEntity
  8
0
370
    -3
  6
Continuous
100
AcDbLine
 10
-276.698417
 20
-18.004471
 30
0.0
 11
-278.877163
 21
-20.183216
 31
0.0
  0
ARC
  5
1A3
100
AcDbEntity
  8
0
370
    -3
  6
Continuous
100
AcDbCircle
 10
-247.989882
 20
-46.713006
 30
0.0
 40
40.6
100
AcDbArc
 50
92.530124
 51
135.0
  0
ARC
  5
1A4
100
AcDbEntity
  8
0
370
    -3
  6
Continuous
100
AcDbCircle
 10
-247.989882
 20
-46.713006
 30
0.0
 40
40.6
100
AcDbArc
 50
92.530124
 51
135.0
  0
LINE
  5
1A5
100
AcDbEntity
  8
0
370
    -3
  6
Continuous
100
AcDbLine
 10
-276.698417
 20
-18.004471
 30
0.0
 11
-278.877163
 21
-20.183216
 31
0.0
  0
LINE
  5
1A6
100
AcDbEntity
  8
0
370
    -3
  6
Continuous
100
AcDbLine
 10
-274.453506
 20
-15.75956
 30
0.0
 11
-274.94031
 21
-15.272757
 31
0.0
  0
ARC
  5
1A7
100
AcDbEntity
  8
0
370
    -3
  6
Continuous
100
AcDbCircle
 10
-255.637607
 20
-37.39017
 30
0.0
 40
20.797
100
AcDbArc
 50
95.00165
 51
135.0
  0
ARC
  5
1A8
100
AcDbEntity
  8
0
370
    -3
  6
Continuous
100
AcDbCircle
 10
-271.562292
 20
-28.146095
 30
0.0
 40
3.0
100
AcDbArc
 50
135.0
 51
174.582036
  0
LINE
  5
1A9
100
AcDbEntity
  8
0
370
    -3
  6
Continuous
100
AcDbLine
 10
-270.343307
 20
-22.68447
 30
0.0
 11
-273.683612
 21
-26.024775
 31
0.0
  0
ARC
  5
1AA
100
AcDbEntity
  8
0
370
    -3
  6
Continuous
100
AcDbCircle
 10
-232.09781
 20
-306.36206
 30
0.0
 40
290.797
100
AcDbArc
 50
90.0
 51
95.00165
  0
LINE
  5
1AB
100
AcDbEntity
  8
0
370
    -3
  6
Continuous
100
AcDbLine
 10
-263.59781
 20
-9.232977
 30
0.0
 11
-263.59781
 21
-7.26206
 31
0.0
  0
LINE
  5
1AC
100
AcDbEntity
  8
0
370
    -3
  6
Continuous
100
AcDbLine
 10
-257.580651
 20
-7.26206
 30
0.0
 11
-263.59781
 21
-7.26206
 31
0.0
  0
LINE
  5
1AD
100
AcDbEntity
  8
0
370
    -3
  6
Continuous
100
AcDbLine
 10
-229.59781
 20
22.227523
 30
0.0
 11
-229.59781
 21
22.73794
 31
0.0
  0
LINE
  5
1AE
100
AcDbEntity
  8
0
370
    -3
  6
Continuous
100
AcDbLine
 10
-234.59781
 20
22.227523
 30
0.0
 11
-234.59781
 21
22.73794
 31
0.0
  0
LINE
  5
1AF
100
AcDbEntity
  8
0
370
    -3
  6
Continuous
100
AcDbLine
 10
-229.59781
 20
22.73794
 30
0.0
 11
-234.59781
 21
22.73794
 31
0.0
  0
ARC
  5
1B0
100
AcDbEntity
  8
0
370
    -3
  6
Continuous
100
AcDbCircle
 10
-207.09781
 20
16.176709
 30
0.0
 40
5.0
100
AcDbArc
 50
0.0
 51
85.138595
  0
LINE
  5
1B1
100
AcDbEntity
  8
0
370
    -3
  6
Continuous
100
AcDbLine
 10
-202.09781
 20
-7.26206
 30
0.0
 11
-202.09781
 21
16.176709
 31
0.0
  0
ARC
  5
1B2
100
AcDbEntity
  8
0
370
    -3
  6
Continuous
100
AcDbCircle
 10
-257.09781
 20
16.176709
 30
0.0
 40
5.0
100
AcDbArc
 50
94.861405
 51
180.0
  0
LINE
  5
1B3
100
AcDbEntity
  8
0
370
    -3
  6
Continuous
100
AcDbLine
 10
-262.09781
 20
-7.26206
 30
0.0
 11
-262.09781
 21
16.176709
 31
0.0
  0
ARC
  5
1B4
100
AcDbEntity
  8
0
370
    -3
  6
Continuous
100
AcDbCircle
 10
-232.09781
 20
-277.76206
 30
0.0
 40
300.0
100
AcDbArc
 50
85.138595
 51
94.861405
  0
INSERT
  5
1C0
100
AcDbEntity
  8
0
100
AcDbBlockReference
  2
ZU_SYM_K__CAD_SYM_POO_SYM_N20_-1
 10
-280.534625
 20
-137.699303
 30
0.0
  0
INSERT
  5
1CC
100
AcDbEntity
  8
0
100
AcDbBlockReference
  2
ZU_SYM_K__CAD_SYM_POO_SYM_N20_00002-1
 10
-183.660996
 20
-137.699303
 30
0.0
  0
LINE
  5
1CD
100
AcDbEntity
  8
0
370
    -3
  6
Continuous
100
AcDbLine
 10
-4.097819
 20
-112.606109
 30
0.0
 11
-4.097819
 21
-64.762489
 31
0.0
  0
LINE
  5
1CE
100
AcDbEntity
  8
0
370
    -3
  6
Continuous
100
AcDbLine
 10
4.581661
 20
-120.037021
 30
0.0
 11
-2.989118
 21
-114.735905
 31
0.0
  0
ARC
  5
1CF
100
AcDbEntity
  8
0
370
    -3
  6
Continuous
100
AcDbCircle
 10
-1.497819
 20
-112.606109
 30
0.0
 40
2.6
100
AcDbArc
 50
180.0
 51
235.0
  0
ARC
  5
1D0
100
AcDbEntity
  8
0
370
    -3
  6
Continuous
100
AcDbCircle
 10
16.397336
 20
-103.162489
 30
0.0
 40
20.6
100
AcDbArc
 50
235.0
 51
270.0
  0
LINE
  5
1D1
100
AcDbEntity
  8
0
370
    -3
  6
Continuous
100
AcDbLine
 10
-4.097819
 20
-16.918869
 30
0.0
 11
-4.097819
 21
-64.762489
 31
0.0
  0
LINE
  5
1D2
100
AcDbEntity
  8
0
370
    -3
  6
Continuous
100
AcDbLine
 10
4.581661
 20
-9.487957
 30
0.0
 11
-2.989118
 21
-14.789074
 31
0.0
  0
ARC
  5
1D3
100
AcDbEntity
  8
0
370
    -3
  6
Continuous
100
AcDbCircle
 10
-1.497819
 20
-16.918869
 30
0.0
 40
2.6
100
AcDbArc
 50
125.0
 51
180.0
  0
ARC
  5
1D4
100
AcDbEntity
  8
0
370
    -3
  6
Continuous
100
AcDbCircle
 10
16.397336
 20
-26.362489
 30
0.0
 40
20.6
100
AcDbArc
 50
90.0
 51
125.0
  0
LINE
  5
1D5
100
AcDbEntity
  8
0
370
    -3
  6
Continuous
100
AcDbLine
 10
45.902181
 20
-123.762489
 30
0.0
 11
16.397336
 21
-123.762489
 31
0.0
  0
LINE
  5
1D6
100
AcDbEntity
  8
0
370
    -3
  6
Continuous
100
AcDbLine
 10
35.902181
 20
-5.762489
 30
0.0
 11
16.397336
 21
-5.762489
 31
0.0
  0
LINE
  5
1D7
100
AcDbEntity
  8
0
370
    -3
  6
Continuous
100
AcDbLine
 10
37.902181
 20
-7.262489
 30
0.0
 11
37.902181
 21
-10.25122
 31
0.0
  0
LINE
  5
1D8
100
AcDbEntity
  8
0
370
    -3
  6
Continuous
100
AcDbLine
 10
112.902181
 20
-12.262489
 30
0.0
 11
45.668712
 21
-12.262489
 31
0.0
  0
LINE
  5
1D9
100
AcDbEntity
  8
0
370
    -3
  6
Continuous
100
AcDbLine
 10
45.902181
 20
-13.762489
 30
0.0
 11
129.902181
 21
-13.762489
 31
0.0
  0
LINE
  5
1DA
100
AcDbEntity
  8
0
370
    -3
  6
Continuous
100
AcDbLine
 10
45.902181
 20
-14.262489
 30
0.0
 11
129.902181
 21
-14.262489
 31
0.0
  0
LINE
  5
1DB
100
AcDbEntity
  8
0
370
    -3
  6
Continuous
100
AcDbLine
 10
45.902181
 20
-18.629407
 30
0.0
 11
129.902181
 21
-18.629407
 31
0.0
  0
LINE
  5
1DC
100
AcDbEntity
  8
0
370
    -3
  6
Continuous
100
AcDbLine
 10
45.902181
 20
-23.720575
 30
0.0
 11
129.902181
 21
-23.720575
 31
0.0
  0
LINE
  5
1DD
100
AcDbEntity
  8
0
370
    -3
  6
Continuous
100
AcDbLine
 10
45.902181
 20
-33.048098
 30
0.0
 11
129.902181
 21
-33.048098
 31
0.0
  0
LINE
  5
1DE
100
AcDbEntity
  8
0
370
    -3
  6
Continuous
100
AcDbLine
 10
45.902181
 20
-31.458888
 30
0.0
 11
129.902181
 21
-31.458888
 31
0.0
  0
LINE
  5
1DF
100
AcDbEntity
  8
0
370
    -3
  6
Continuous
100
AcDbLine
 10
45.902181
 20
-36.006094
 30
0.0
 11
129.902181
 21
-36.006094
 31
0.0
  0
LINE
  5
1E0
100
AcDbEntity
  8
0
370
    -3
  6
Continuous
100
AcDbLine
 10
45.902181
 20
-37.485117
 30
0.0
 11
129.902181
 21
-37.485117
 31
0.0
  0
LINE
  5
1E1
100
AcDbEntity
  8
0
370
    -3
  6
Continuous
100
AcDbLine
 10
45.902181
 20
-40.577848
 30
0.0
 11
129.902181
 21
-40.577848
 31
0.0
  0
LINE
  5
1E2
100
AcDbEntity
  8
0
370
    -3
  6
Continuous
100
AcDbLine
 10
45.902181
 20
-41.924249
 30
0.0
 11
129.902181
 21
-41.924249
 31
0.0
  0
LINE
  5
1E3
100
AcDbEntity
  8
0
370
    -3
  6
Continuous
100
AcDbLine
 10
45.902181
 20
-45.134454
 30
0.0
 11
129.902181
 21
-45.134454
 31
0.0
  0
LINE
  5
1E4
100
AcDbEntity
  8
0
370
    -3
  6
Continuous
100
AcDbLine
 10
45.902181
 20
-46.376374
 30
0.0
 11
129.902181
 21
-46.376374
 31
0.0
  0
LINE
  5
1E5
100
AcDbEntity
  8
0
370
    -3
  6
Continuous
100
AcDbLine
 10
45.902181
 20
-50.762489
 30
0.0
 11
129.902181
 21
-50.762489
 31
0.0
  0
LINE
  5
1E6
100
AcDbEntity
  8
0
370
    -3
  6
Continuous
100
AcDbLine
 10
45.902181
 20
-78.762489
 30
0.0
 11
129.902181
 21
-78.762489
 31
0.0
  0
LINE
  5
1E7
100
AcDbEntity
  8
0
370
    -3
  6
Continuous
100
AcDbLine
 10
45.902181
 20
-83.148604
 30
0.0
 11
129.902181
 21
-83.148604
 31
0.0
  0
LINE
  5
1E8
100
AcDbEntity
  8
0
370
    -3
  6
Continuous
100
AcDbLine
 10
45.902181
 20
-84.390524
 30
0.0
 11
129.902181
 21
-84.390524
 31
0.0
  0
LINE
  5
1E9
100
AcDbEntity
  8
0
370
    -3
  6
Continuous
100
AcDbLine
 10
45.902181
 20
-87.600729
 30
0.0
 11
129.902181
 21
-87.600729
 31
0.0
  0
LINE
  5
1EA
100
AcDbEntity
  8
0
370
    -3
  6
Continuous
100
AcDbLine
 10
45.902181
 20
-88.947131
 30
0.0
 11
129.902181
 21
-88.947131
 31
0.0
  0
LINE
  5
1EB
100
AcDbEntity
  8
0
370
    -3
  6
Continuous
100
AcDbLine
 10
45.902181
 20
-92.039862
 30
0.0
 11
129.902181
 21
-92.039862
 31
0.0
  0
LINE
  5
1EC
100
AcDbEntity
  8
0
370
    -3
  6
Continuous
100
AcDbLine
 10
45.902181
 20
-93.518885
 30
0.0
 11
129.902181
 21
-93.518885
 31
0.0
  0
LINE
  5
1ED
100
AcDbEntity
  8
0
370
    -3
  6
Continuous
100
AcDbLine
 10
45.902181
 20
-96.47688
 30
0.0
 11
129.902181
 21
-96.47688
 31
0.0
  0
LINE
  5
1EE
100
AcDbEntity
  8
0
370
    -3
  6
Continuous
100
AcDbLine
 10
45.902181
 20
-98.06609
 30
0.0
 11
129.902181
 21
-98.06609
 31
0.0
  0
LINE
  5
1EF
100
AcDbEntity
  8
0
370
    -3
  6
Continuous
100
AcDbLine
 10
45.902181
 20
-105.804403
 30
0.0
 11
129.902181
 21
-105.804403
 31
0.0
  0
LINE
  5
1F0
100
AcDbEntity
  8
0
370
    -3
  6
Continuous
100
AcDbLine
 10
45.902181
 20
-110.895572
 30
0.0
 11
129.902181
 21
-110.895572
 31
0.0
  0
LINE
  5
1F1
100
AcDbEntity
  8
0
370
    -3
  6
Continuous
100
AcDbLine
 10
45.902181
 20
-115.262489
 30
0.0
 11
129.902181
 21
-115.262489
 31
0.0
  0
LINE
  5
1F2
100
AcDbEntity
  8
0
370
    -3
  6
Continuous
100
AcDbLine
 10
45.902181
 20
-115.762489
 30
0.0
 11
129.902181
 21
-115.762489
 31
0.0
  0
LINE
  5
1F3
100
AcDbEntity
  8
0
370
    -3
  6
Continuous
100
AcDbLine
 10
129.902181
 20
-118.262489
 30
0.0
 11
45.902181
 21
-118.262489
 31
0.0
  0
LINE
  5
1F4
100
AcDbEntity
  8
0
370
    -3
  6
Continuous
100
AcDbLine
 10
34.902181
 20
-113.90641
 30
0.0
 11
32.902181
 21
-112.253768
 31
0.0
  0
LINE
  5
1F5
100
AcDbEntity
  8
0
370
    -3
  6
Continuous
100
AcDbLine
 10
36.902181
 20
-115.082196
 30
0.0
 11
34.902181
 21
-113.90641
 31
0.0
  0
LINE
  5
1F6
100
AcDbEntity
  8
0
370
    -3
  6
Continuous
100
AcDbLine
 10
34.902181
 20
-113.90641
 30
0.0
 11
36.902181
 21
-112.253768
 31
0.0
  0
LINE
  5
1F7
100
AcDbEntity
  8
0
370
    -3
  6
Continuous
100
AcDbLine
 10
32.902181
 20
-115.082196
 30
0.0
 11
34.902181
 21
-113.90641
 31
0.0
  0
ELLIPSE
  5
1F8
100
AcDbEntity
  8
0
370
    -3
  6
Continuous
100
AcDbEllipse
 10
34.902181
 20
-112.08982
 30
0.0
 11
4.6999999999999886
 21
0.0
 31
0.0
210
0.0
220
0.0
230
1.0
 40
0.766646
 41
0.0
 42
6.2831853071795862
  0
LINE
  5
1F9
100
AcDbEntity
  8
0
370
    -3
  6
Continuous
100
AcDbLine
 10
45.902181
 20
-123.762489
 30
0.0
 11
45.902181
 21
-64.762489
 31
0.0
  0
LINE
  5
1FA
100
AcDbEntity
  8
0
370
    -3
  6
Continuous
100
AcDbLine
 10
35.902181
 20
-5.762489
 30
0.0
 11
35.902181
 21
-7.422793
 31
0.0
  0
ARC
  5
1FB
100
AcDbEntity
  8
0
370
    -3
  6
Continuous
100
AcDbCircle
 10
38.902181
 20
-7.422793
 30
0.0
 40
3.0
100
AcDbArc
 50
180.0
 51
270.0
  0
LINE
  5
1FC
100
AcDbEntity
  8
0
370
    -3
  6
Continuous
100
AcDbLine
 10
34.902181
 20
-15.618568
 30
0.0
 11
32.902181
 21
-17.27121
 31
0.0
  0
LINE
  5
1FD
100
AcDbEntity
  8
0
370
    -3
  6
Continuous
100
AcDbLine
 10
36.902181
 20
-14.442783
 30
0.0
 11
34.902181
 21
-15.618568
 31
0.0
  0
LINE
  5
1FE
100
AcDbEntity
  8
0
370
    -3
  6
Continuous
100
AcDbLine
 10
34.902181
 20
-15.618568
 30
0.0
 11
36.902181
 21
-17.27121
 31
0.0
  0
LINE
  5
1FF
100
AcDbEntity
  8
0
370
    -3
  6
Continuous
100
AcDbLine
 10
32.902181
 20
-14.442783
 30
0.0
 11
34.902181
 21
-15.618568
 31
0.0
  0
ELLIPSE
  5
200
100
AcDbEntity
  8
0
370
    -3
  6
Continuous
100
AcDbEllipse
 10
34.902181
 20
-17.435158
 30
0.0
 11
4.6999999999999886
 21
0.0
 31
0.0
210
0.0
220
0.0
230
1.0
 40
0.766646
 41
0.0
 42
6.2831853071795862
  0
LINE
  5
201
100
AcDbEntity
  8
0
370
    -3
  6
Continuous
100
AcDbLine
 10
38.902181
 20
-10.422793
 30
0.0
 11
42.902181
 21
-10.422793
 31
0.0
  0
ARC
  5
202
100
AcDbEntity
  8
0
370
    -3
  6
Continuous
100
AcDbCircle
 10
42.902181
 20
-13.422793
 30
0.0
 40
3.0
100
AcDbArc
 50
0.0
 51
90.0
  0
LINE
  5
203
100
AcDbEntity
  8
0
370
    -3
  6
Continuous
100
AcDbLine
 10
45.902181
 20
-13.422793
 30
0.0
 11
45.902181
 21
-64.762489
 31
0.0
  0
LINE
  5
204
100
AcDbEntity
  8
0
370
    -3
  6
Continuous
100
AcDbLine
 10
110.902181
 20
22.237511
 30
0.0
 11
39.902181
 21
22.237511
 31
0.0
  0
LINE
  5
205
100
AcDbEntity
  8
0
370
    -3
  6
Continuous
100
AcDbLine
 10
96.902181
 20
22.737511
 30
0.0
 11
96.902181
 21
22.237511
 31
0.0
  0
LINE
  5
206
100
AcDbEntity
  8
0
370
    -3
  6
Continuous
100
AcDbLine
 10
96.902181
 20
22.737511
 30
0.0
 11
104.902181
 21
22.737511
 31
0.0
  0
LINE
  5
207
100
AcDbEntity
  8
0
370
    -3
  6
Continuous
100
AcDbLine
 10
104.902181
 20
22.737511
 30
0.0
 11
104.902181
 21
22.237511
 31
0.0
  0
LINE
  5
208
100
AcDbEntity
  8
0
370
    -3
  6
Continuous
100
AcDbLine
 10
129.902181
 20
-11.262489
 30
0.0
 11
112.902181
 21
-11.262489
 31
0.0
  0
ARC
  5
209
100
AcDbEntity
  8
0
370
    -3
  6
Continuous
100
AcDbCircle
 10
110.902181
 20
21.237511
 30
0.0
 40
1.0
100
AcDbArc
 50
0.0
 51
90.0
  0
ARC
  5
20A
100
AcDbEntity
  8
0
370
    -3
  6
Continuous
100
AcDbCircle
 10
39.902181
 20
21.237511
 30
0.0
 40
1.0
100
AcDbArc
 50
90.0
 51
180.0
  0
LINE
  5
20B
100
AcDbEntity
  8
0
370
    -3
  6
Continuous
100
AcDbLine
 10
38.902181
 20
21.237511
 30
0.0
 11
38.902181
 21
-7.262489
 31
0.0
  0
LINE
  5
20C
100
AcDbEntity
  8
0
370
    -3
  6
Continuous
100
AcDbLine
 10
111.902181
 20
21.237511
 30
0.0
 11
111.902181
 21
-7.262489
 31
0.0
  0
LINE
  5
20D
100
AcDbEntity
  8
0
370
    -3
  6
Continuous
100
AcDbLine
 10
112.902181
 20
-7.262489
 30
0.0
 11
112.902181
 21
-12.262489
 31
0.0
  0
LINE
  5
20E
100
AcDbEntity
  8
0
370
    -3
  6
Continuous
100
AcDbLine
 10
37.902181
 20
-7.262489
 30
0.0
 11
112.902181
 21
-7.262489
 31
0.0
  0
CIRCLE
  5
20F
100
AcDbEntity
  8
0
370
    -3
  6
DASHED
100
AcDbCircle
 10
100.402181
 20
7.237511
 30
0.0
 40
6.0
  0
LINE
  5
210
100
AcDbEntity
  8
0
370
    -3
  6
DASHED
100
AcDbLine
 10
107.402181
 20
-7.262489
 30
0.0
 11
107.402181
 21
7.237511
 31
0.0
  0
ARC
  5
211
100
AcDbEntity
  8
0
370
    -3
  6
DASHED
100
AcDbCircle
 10
100.402181
 20
7.237511
 30
0.0
 40
7.0
100
AcDbArc
 50
0.0
 51
180.0
  0
LINE
  5
212
100
AcDbEntity
  8
0
370
    -3
  6
DASHED
100
AcDbLine
 10
93.402181
 20
-7.262489
 30
0.0
 11
93.402181
 21
7.237511
 31
0.0
  0
LINE
  5
213
100
AcDbEntity
  8
0
370
    -3
  6
CENTER
100
AcDbLine
 10
109.710515
 20
7.237511
 30
0.0
 11
90.521474
 21
7.237511
 31
0.0
  0
LINE
  5
214
100
AcDbEntity
  8
0
370
    -3
  6
CENTER
100
AcDbLine
 10
100.402181
 20
-10.046341
 30
0.0
 11
100.402181
 21
17.933009
 31
0.0
  0
LINE
  5
215
100
AcDbEntity
  8
0
370
    -3
  6
CENTER
100
AcDbLine
 10
60.812479
 20
7.237511
 30
0.0
 11
40.438298
 21
7.237511
 31
0.0
  0
ARC
  5
216
100
AcDbEntity
  8
0
370
    -3
  6
DASHED
100
AcDbCircle
 10
50.402181
 20
7.237511
 30
0.0
 40
7.0
100
AcDbArc
 50
0.0
 51
180.0
  0
LINE
  5
217
100
AcDbEntity
  8
0
370
    -3
  6
DASHED
100
AcDbLine
 10
43.402181
 20
-7.262489
 30
0.0
 11
43.402181
 21
7.237511
 31
0.0
  0
LINE
  5
218
100
AcDbEntity
  8
0
370
    -3
  6
DASHED
100
AcDbLine
 10
57.402181
 20
-7.262489
 30
0.0
 11
57.402181
 21
7.237511
 31
0.0
  0
LINE
  5
219
100
AcDbEntity
  8
0
370
    -3
  6
CENTER
100
AcDbLine
 10
50.402181
 20
-10.046341
 30
0.0
 11
50.402181
 21
17.933009
 31
0.0
  0
LINE
  5
21A
100
AcDbEntity
  8
0
370
    -3
  6
CENTER
100
AcDbLine
 10
207.63179
 20
-89.262486
 30
0.0
 11
166.857517
 21
-89.262486
 31
0.0
  0
INSERT
  5
22A
100
AcDbEntity
  8
0
100
AcDbBlockReference
  2
ZU_SYM__USERS_HOME_SYMBOL_STD_SYM_B01_00003-1
 10
186.402181
 20
-137.699301
 30
0.0
  0
INSERT
  5
23A
100
AcDbEntity
  8
0
100
AcDbBlockReference
  2
ZU_SYM__USERS_HOME_SYMBOL_STD_SYM_B01_00004-1
 10
186.402181
 20
-40.825672
 30
0.0
  0
LINE
  5
23B
100
AcDbEntity
  8
0
370
    -3
  6
Continuous
100
AcDbLine
 10
37.902196
 20
292.406331
 30
0.0
 11
37.902196
 21
262.906331
 31
0.0
  0
LINE
  5
23C
100
AcDbEntity
  8
0
370
    -3
  6
Continuous
100
AcDbLine
 10
112.902196
 20
292.406331
 30
0.0
 11
112.902196
 21
262.906331
 31
0.0
  0
LINE
  5
23D
100
AcDbEntity
  8
0
370
    -3
  6
Continuous
100
AcDbLine
 10
110.902196
 20
260.906331
 30
0.0
 11
39.902196
 21
260.906331
 31
0.0
  0
ARC
  5
23E
100
AcDbEntity
  8
0
370
    -3
  6
Continuous
100
AcDbCircle
 10
110.902196
 20
262.906331
 30
0.0
 40
2.0
100
AcDbArc
 50
270.0
 51
0.0
  0
ARC
  5
23F
100
AcDbEntity
  8
0
370
    -3
  6
Continuous
100
AcDbCircle
 10
39.902196
 20
262.906331
 30
0.0
 40
2.0
100
AcDbArc
 50
180.0
 51
270.0
  0
LINE
  5
240
100
AcDbEntity
  8
0
370
    -3
  6
Continuous
100
AcDbLine
 10
112.902196
 20
272.406331
 30
0.0
 11
129.902196
 21
272.406331
 31
0.0
  0
LINE
  5
241
100
AcDbEntity
  8
0
370
    -3
  6
Continuous
100
AcDbLine
 10
112.902196
 20
269.568091
 30
0.0
 11
129.902196
 21
269.568091
 31
0.0
  0
LINE
  5
242
100
AcDbEntity
  8
0
370
    -3
  6
Continuous
100
AcDbLine
 10
112.902196
 20
268.221689
 30
0.0
 11
129.902196
 21
268.221689
 31
0.0
  0
LINE
  5
243
100
AcDbEntity
  8
0
370
    -3
  6
Continuous
100
AcDbLine
 10
112.902196
 20
265.128958
 30
0.0
 11
129.902196
 21
265.128958
 31
0.0
  0
LINE
  5
244
100
AcDbEntity
  8
0
370
    -3
  6
Continuous
100
AcDbLine
 10
112.902196
 20
263.649935
 30
0.0
 11
129.902196
 21
263.649935
 31
0.0
  0
LINE
  5
245
100
AcDbEntity
  8
0
370
    -3
  6
Continuous
100
AcDbLine
 10
110.902196
 20
262.406331
 30
0.0
 11
39.902196
 21
262.406331
 31
0.0
  0
ARC
  5
246
100
AcDbEntity
  8
0
370
    -3
  6
Continuous
100
AcDbCircle
 10
39.902196
 20
263.406331
 30
0.0
 40
1.0
100
AcDbArc
 50
180.0
 51
270.0
  0
ARC
  5
247
100
AcDbEntity
  8
0
370
    -3
  6
Continuous
100
AcDbCircle
 10
110.902196
 20
263.406331
 30
0.0
 40
1.0
100
AcDbArc
 50
270.0
 51
0.0
  0
LINE
  5
248
100
AcDbEntity
  8
0
370
    -3
  6
Continuous
100
AcDbLine
 10
35.902196
 20
292.406331
 30
0.0
 11
35.902196
 21
257.406331
 31
0.0
  0
LINE
  5
249
100
AcDbEntity
  8
0
370
    -3
  6
Continuous
100
AcDbLine
 10
42.902196
 20
254.406331
 30
0.0
 11
38.902196
 21
254.406331
 31
0.0
  0
ARC
  5
24A
100
AcDbEntity
  8
0
370
    -3
  6
Continuous
100
AcDbCircle
 10
38.902196
 20
257.406331
 30
0.0
 40
3.0
100
AcDbArc
 50
180.0
 51
270.0
  0
LINE
  5
24B
100
AcDbEntity
  8
0
370
    -3
  6
Continuous
100
AcDbLine
 10
45.902196
 20
238.406331
 30
0.0
 11
45.902196
 21
251.406331
 31
0.0
  0
ARC
  5
24C
100
AcDbEntity
  8
0
370
    -3
  6
Continuous
100
AcDbCircle
 10
42.902196
 20
251.406331
 30
0.0
 40
3.0
100
AcDbArc
 50
0.0
 51
90.0
  0
ELLIPSE
  5
24D
100
AcDbEntity
  8
0
370
    -3
  6
Continuous
100
AcDbEllipse
 10
34.902196
 20
245.079
 30
0.0
 11
4.6999999999999886
 21
0.0
 31
0.0
210
0.0
220
0.0
230
1.0
 40
0.766646
 41
0.0
 42
6.2831853071795862
  0
LINE
  5
24E
100
AcDbEntity
  8
0
370
    -3
  6
Continuous
100
AcDbLine
 10
32.902196
 20
242.086624
 30
0.0
 11
34.902196
 21
243.26241
 31
0.0
  0
LINE
  5
24F
100
AcDbEntity
  8
0
370
    -3
  6
Continuous
100
AcDbLine
 10
34.902196
 20
243.26241
 30
0.0
 11
36.902196
 21
244.915051
 31
0.0
  0
LINE
  5
250
100
AcDbEntity
  8
0
370
    -3
  6
Continuous
100
AcDbLine
 10
36.902196
 20
242.086624
 30
0.0
 11
34.902196
 21
243.26241
 31
0.0
  0
LINE
  5
251
100
AcDbEntity
  8
0
370
    -3
  6
Continuous
100
AcDbLine
 10
34.902196
 20
243.26241
 30
0.0
 11
32.902196
 21
244.915051
 31
0.0
  0
LINE
  5
252
100
AcDbEntity
  8
0
370
    -3
  6
Continuous
100
AcDbLine
 10
129.902196
 20
239.906331
 30
0.0
 11
45.902196
 21
239.906331
 31
0.0
  0
LINE
  5
253
100
AcDbEntity
  8
0
370
    -3
  6
Continuous
100
AcDbLine
 10
45.902196
 20
241.906331
 30
0.0
 11
129.902196
 21
241.906331
 31
0.0
  0
LINE
  5
254
100
AcDbEntity
  8
0
370
    -3
  6
Continuous
100
AcDbLine
 10
45.902196
 20
241.406331
 30
0.0
 11
129.902196
 21
241.406331
 31
0.0
  0
LINE
  5
255
100
AcDbEntity
  8
0
370
    -3
  6
Continuous
100
AcDbLine
 10
45.902196
 20
246.273248
 30
0.0
 11
129.902196
 21
246.273248
 31
0.0
  0
LINE
  5
256
100
AcDbEntity
  8
0
370
    -3
  6
Continuous
100
AcDbLine
 10
45.902196
 20
247.901675
 30
0.0
 11
129.902196
 21
247.901675
 31
0.0
  0
LINE
  5
257
100
AcDbEntity
  8
0
370
    -3
  6
Continuous
100
AcDbLine
 10
45.902196
 20
251.364417
 30
0.0
 11
129.902196
 21
251.364417
 31
0.0
  0
LINE
  5
258
100
AcDbEntity
  8
0
370
    -3
  6
Continuous
100
AcDbLine
 10
45.744595
 20
252.365895
 30
0.0
 11
129.902196
 21
252.365895
 31
0.0
  0
LINE
  5
259
100
AcDbEntity
  8
0
370
    -3
  6
Continuous
100
AcDbLine
 10
35.902196
 20
259.10273
 30
0.0
 11
129.902196
 21
259.10273
 31
0.0
  0
LINE
  5
25A
100
AcDbEntity
  8
0
370
    -3
  6
Continuous
100
AcDbLine
 10
35.902196
 20
260.69194
 30
0.0
 11
129.902196
 21
260.69194
 31
0.0
  0
LINE
  5
25B
100
AcDbEntity
  8
0
370
    -3
  6
Continuous
100
AcDbLine
 10
35.902196
 20
263.649935
 30
0.0
 11
37.902196
 21
263.649935
 31
0.0
  0
LINE
  5
25C
100
AcDbEntity
  8
0
370
    -3
  6
Continuous
100
AcDbLine
 10
35.902196
 20
265.128958
 30
0.0
 11
37.902196
 21
265.128958
 31
0.0
  0
LINE
  5
25D
100
AcDbEntity
  8
0
370
    -3
  6
Continuous
100
AcDbLine
 10
35.902196
 20
268.221689
 30
0.0
 11
37.902196
 21
268.221689
 31
0.0
  0
LINE
  5
25E
100
AcDbEntity
  8
0
370
    -3
  6
Continuous
100
AcDbLine
 10
35.902196
 20
269.568091
 30
0.0
 11
37.902196
 21
269.568091
 31
0.0
  0
LINE
  5
25F
100
AcDbEntity
  8
0
370
    -3
  6
Continuous
100
AcDbLine
 10
35.902196
 20
272.406331
 30
0.0
 11
37.902196
 21
272.406331
 31
0.0
  0
LINE
  5
260
100
AcDbEntity
  8
0
370
    -3
  6
Continuous
100
AcDbLine
 10
45.902196
 20
238.406331
 30
0.0
 11
16.397351
 21
238.406331
 31
0.0
  0
ARC
  5
261
100
AcDbEntity
  8
0
370
    -3
  6
Continuous
100
AcDbCircle
 10
16.397351
 20
259.006331
 30
0.0
 40
20.6
100
AcDbArc
 50
235.0
 51
270.0
  0
ARC
  5
262
100
AcDbEntity
  8
0
370
    -3
  6
Continuous
100
AcDbCircle
 10
-1.497804
 20
249.562711
 30
0.0
 40
2.6
100
AcDbArc
 50
180.0
 51
235.0
  0
LINE
  5
263
100
AcDbEntity
  8
0
370
    -3
  6
Continuous
100
AcDbLine
 10
-4.097804
 20
249.562711
 30
0.0
 11
-4.097804
 21
292.406331
 31
0.0
  0
LINE
  5
264
100
AcDbEntity
  8
0
370
    -3
  6
Continuous
100
AcDbLine
 10
4.581676
 20
242.131799
 30
0.0
 11
-2.989103
 21
247.432915
 31
0.0
  0
LINE
  5
265
100
AcDbEntity
  8
0
370
    -3
  6
Continuous
100
AcDbLine
 10
38.902196
 20
292.406331
 30
0.0
 11
38.902196
 21
263.406331
 31
0.0
  0
LINE
  5
266
100
AcDbEntity
  8
0
370
    -3
  6
Continuous
100
AcDbLine
 10
111.902196
 20
263.406331
 30
0.0
 11
111.902196
 21
292.406331
 31
0.0
  0
LINE
  5
267
100
AcDbEntity
  8
0
370
    -3
  6
Continuous
100
AcDbLine
 10
35.902196
 20
292.406331
 30
0.0
 11
35.902196
 21
327.406331
 31
0.0
  0
LINE
  5
268
100
AcDbEntity
  8
0
370
    -3
  6
Continuous
100
AcDbLine
 10
42.902196
 20
330.406331
 30
0.0
 11
38.902196
 21
330.406331
 31
0.0
  0
ARC
  5
269
100
AcDbEntity
  8
0
370
    -3
  6
Continuous
100
AcDbCircle
 10
38.902196
 20
327.406331
 30
0.0
 40
3.0
100
AcDbArc
 50
90.0
 51
180.0
  0
LINE
  5
26A
100
AcDbEntity
  8
0
370
    -3
  6
Continuous
100
AcDbLine
 10
45.902196
 20
346.406331
 30
0.0
 11
45.902196
 21
333.406331
 31
0.0
  0
ARC
  5
26B
100
AcDbEntity
  8
0
370
    -3
  6
Continuous
100
AcDbCircle
 10
42.902196
 20
333.406331
 30
0.0
 40
3.0
100
AcDbArc
 50
270.0
 51
0.0
  0
ELLIPSE
  5
26C
100
AcDbEntity
  8
0
370
    -3
  6
Continuous
100
AcDbEllipse
 10
34.902196
 20
339.733662
 30
0.0
 11
4.6999999999999886
 21
0.0
 31
0.0
210
0.0
220
0.0
230
1.0
 40
0.766646
 41
0.0
 42
6.2831853071795862
  0
LINE
  5
26D
100
AcDbEntity
  8
0
370
    -3
  6
Continuous
100
AcDbLine
 10
32.902196
 20
342.726037
 30
0.0
 11
34.902196
 21
341.550252
 31
0.0
  0
LINE
  5
26E
100
AcDbEntity
  8
0
370
    -3
  6
Continuous
100
AcDbLine
 10
34.902196
 20
341.550252
 30
0.0
 11
36.902196
 21
339.89761
 31
0.0
  0
LINE
  5
26F
100
AcDbEntity
  8
0
370
    -3
  6
Continuous
100
AcDbLine
 10
36.902196
 20
342.726037
 30
0.0
 11
34.902196
 21
341.550252
 31
0.0
  0
LINE
  5
270
100
AcDbEntity
  8
0
370
    -3
  6
Continuous
100
AcDbLine
 10
34.902196
 20
341.550252
 30
0.0
 11
32.902196
 21
339.89761
 31
0.0
  0
ARC
  5
271
100
AcDbEntity
  8
0
370
    -3
  6
Continuous
100
AcDbCircle
 10
16.397351
 20
325.806331
 30
0.0
 40
20.6
100
AcDbArc
 50
90.0
 51
125.0
  0
ARC
  5
272
100
AcDbEntity
  8
0
370
    -3
  6
Continuous
100
AcDbCircle
 10
-1.497804
 20
335.249951
 30
0.0
 40
2.6
100
AcDbArc
 50
125.0
 51
180.0
  0
LINE
  5
273
100
AcDbEntity
  8
0
370
    -3
  6
Continuous
100
AcDbLine
 10
-4.097804
 20
335.249951
 30
0.0
 11
-4.097804
 21
292.406331
 31
0.0
  0
LINE
  5
274
100
AcDbEntity
  8
0
370
    -3
  6
Continuous
100
AcDbLine
 10
4.581676
 20
342.680863
 30
0.0
 11
-2.989103
 21
337.379746
 31
0.0
  0
LINE
  5
275
100
AcDbEntity
  8
0
370
    -3
  6
Continuous
100
AcDbLine
 10
45.902196
 20
346.406331
 30
0.0
 11
16.397351
 21
346.406331
 31
0.0
  0
LINE
  5
276
100
AcDbEntity
  8
0
370
    -3
  6
Continuous
100
AcDbLine
 10
129.902196
 20
344.906331
 30
0.0
 11
45.902196
 21
344.906331
 31
0.0
  0
LINE
  5
277
100
AcDbEntity
  8
0
370
    -3
  6
Continuous
100
AcDbLine
 10
37.902196
 20
292.406331
 30
0.0
 11
37.902196
 21
321.906331
 31
0.0
  0
LINE
  5
278
100
AcDbEntity
  8
0
370
    -3
  6
Continuous
100
AcDbLine
 10
112.902196
 20
292.406331
 30
0.0
 11
112.902196
 21
321.906331
 31
0.0
  0
LINE
  5
279
100
AcDbEntity
  8
0
370
    -3
  6
Continuous
100
AcDbLine
 10
110.902196
 20
323.906331
 30
0.0
 11
39.902196
 21
323.906331
 31
0.0
  0
ARC
  5
27A
100
AcDbEntity
  8
0
370
    -3
  6
Continuous
100
AcDbCircle
 10
110.902196
 20
321.906331
 30
0.0
 40
2.0
100
AcDbArc
 50
0.0
 51
90.0
  0
ARC
  5
27B
100
AcDbEntity
  8
0
370
    -3
  6
Continuous
100
AcDbCircle
 10
39.902196
 20
321.906331
 30
0.0
 40
2.0
100
AcDbArc
 50
90.0
 51
180.0
  0
LINE
  5
27C
100
AcDbEntity
  8
0
370
    -3
  6
Continuous
100
AcDbLine
 10
45.902196
 20
342.906331
 30
0.0
 11
129.902196
 21
342.906331
 31
0.0
  0
LINE
  5
27D
100
AcDbEntity
  8
0
370
    -3
  6
Continuous
100
AcDbLine
 10
45.902196
 20
343.406331
 30
0.0
 11
129.902196
 21
343.406331
 31
0.0
  0
LINE
  5
27E
100
AcDbEntity
  8
0
370
    -3
  6
Continuous
100
AcDbLine
 10
45.902196
 20
338.539413
 30
0.0
 11
129.902196
 21
338.539413
 31
0.0
  0
LINE
  5
27F
100
AcDbEntity
  8
0
370
    -3
  6
Continuous
100
AcDbLine
 10
45.902196
 20
333.448245
 30
0.0
 11
129.902196
 21
333.448245
 31
0.0
  0
LINE
  5
280
100
AcDbEntity
  8
0
370
    -3
  6
Continuous
100
AcDbLine
 10
35.902196
 20
312.406331
 30
0.0
 11
37.902196
 21
312.406331
 31
0.0
  0
LINE
  5
281
100
AcDbEntity
  8
0
370
    -3
  6
Continuous
100
AcDbLine
 10
35.902196
 20
325.709932
 30
0.0
 11
129.902196
 21
325.709932
 31
0.0
  0
LINE
  5
282
100
AcDbEntity
  8
0
370
    -3
  6
Continuous
100
AcDbLine
 10
35.902196
 20
324.120722
 30
0.0
 11
129.902196
 21
324.120722
 31
0.0
  0
LINE
  5
283
100
AcDbEntity
  8
0
370
    -3
  6
Continuous
100
AcDbLine
 10
35.902196
 20
321.162726
 30
0.0
 11
37.902196
 21
321.162726
 31
0.0
  0
LINE
  5
284
100
AcDbEntity
  8
0
370
    -3
  6
Continuous
100
AcDbLine
 10
35.902196
 20
319.683703
 30
0.0
 11
37.902196
 21
319.683703
 31
0.0
  0
LINE
  5
285
100
AcDbEntity
  8
0
370
    -3
  6
Continuous
100
AcDbLine
 10
35.902196
 20
316.590972
 30
0.0
 11
37.902196
 21
316.590972
 31
0.0
  0
LINE
  5
286
100
AcDbEntity
  8
0
370
    -3
  6
Continuous
100
AcDbLine
 10
35.902196
 20
315.24457
 30
0.0
 11
37.902196
 21
315.24457
 31
0.0
  0
LINE
  5
287
100
AcDbEntity
  8
0
370
    -3
  6
Continuous
100
AcDbLine
 10
45.902196
 20
336.910986
 30
0.0
 11
129.902196
 21
336.910986
 31
0.0
  0
LINE
  5
288
100
AcDbEntity
  8
0
370
    -3
  6
Continuous
100
AcDbLine
 10
45.744595
 20
332.446766
 30
0.0
 11
129.902196
 21
332.446766
 31
0.0
  0
LINE
  5
289
100
AcDbEntity
  8
0
370
    -3
  6
Continuous
100
AcDbLine
 10
112.902196
 20
312.406331
 30
0.0
 11
129.902196
 21
312.406331
 31
0.0
  0
LINE
  5
28A
100
AcDbEntity
  8
0
370
    -3
  6
Continuous
100
AcDbLine
 10
112.902196
 20
315.24457
 30
0.0
 11
129.902196
 21
315.24457
 31
0.0
  0
LINE
  5
28B
100
AcDbEntity
  8
0
370
    -3
  6
Continuous
100
AcDbLine
 10
112.902196
 20
316.590972
 30
0.0
 11
129.902196
 21
316.590972
 31
0.0
  0
LINE
  5
28C
100
AcDbEntity
  8
0
370
    -3
  6
Continuous
100
AcDbLine
 10
112.902196
 20
319.683703
 30
0.0
 11
129.902196
 21
319.683703
 31
0.0
  0
LINE
  5
28D
100
AcDbEntity
  8
0
370
    -3
  6
Continuous
100
AcDbLine
 10
112.902196
 20
321.162726
 30
0.0
 11
129.902196
 21
321.162726
 31
0.0
  0
LINE
  5
28E
100
AcDbEntity
  8
0
370
    -3
  6
Continuous
100
AcDbLine
 10
110.902196
 20
322.406331
 30
0.0
 11
39.902196
 21
322.406331
 31
0.0
  0
LINE
  5
28F
100
AcDbEntity
  8
0
370
    -3
  6
Continuous
100
AcDbLine
 10
38.902196
 20
292.406331
 30
0.0
 11
38.902196
 21
321.406331
 31
0.0
  0
LINE
  5
290
100
AcDbEntity
  8
0
370
    -3
  6
Continuous
100
AcDbLine
 10
111.902196
 20
321.406331
 30
0.0
 11
111.902196
 21
292.406331
 31
0.0
  0
ARC
  5
291
100
AcDbEntity
  8
0
370
    -3
  6
Continuous
100
AcDbCircle
 10
39.902196
 20
321.406331
 30
0.0
 40
1.0
100
AcDbArc
 50
90.0
 51
180.0
  0
ARC
  5
292
100
AcDbEntity
  8
0
370
    -3
  6
Continuous
100
AcDbCircle
 10
110.902196
 20
321.406331
 30
0.0
 40
1.0
100
AcDbArc
 50
0.0
 51
90.0
  0
MTEXT
  5
294
100
AcDbEntity
  8
0
370
    -3
  6
Continuous
100
AcDbMText
 10
870.960876
 20
-183.681244
 30
0.0
 40
6.6
 41
0.0
 71
     7
 72
     1
  1
\W0.82;GM-SHY-RR
  7
ZU_SHPTB00001
 11
1.0
 21
0.0
 31
0.0
 73
     1
 44
1.0
  0
MTEXT
  5
295
100
AcDbEntity
  8
0
370
    -3
  6
Continuous
100
AcDbMText
 10
870.960876
 20
-194.681244
 30
0.0
 40
6.6
 41
0.0
 71
     7
 72
     1
  1
\W0.82;0.2kW
  7
ZU_SHPTB00001
 11
1.0
 21
0.0
 31
0.0
 73
     1
 44
1.0
  0
MTEXT
  5
296
100
AcDbEntity
  8
0
370
    -3
  6
Continuous
100
AcDbMText
 10
870.960876
 20
-205.681244
 30
0.0
 40
6.6
 41
0.0
 71
     7
 72
     1
  1
\W0.82;1/300-1/900
  7
ZU_SHPTB00001
 11
1.0
 21
0.0
 31
0.0
 73
     1
 44
1.0
  0
MTEXT
  5
297
100
AcDbEntity
  8
0
370
    -3
  6
Continuous
100
AcDbMText
 10
870.960876
 20
-216.681244
 30
0.0
 40
6.6
 41
0.0
 71
     7
 72
     1
  1
\W0.82;SCALE\W1.36; \W0.82;1/1
  7
ZU_SHPTB00001
 11
1.0
 21
0.0
 31
0.0
 73
     1
 44
1.0
  0
LINE
  5
298
100
AcDbEntity
  8
0
370
    -3
  6
CENTER
100
AcDbLine
 10
-204.151129
 20
-64.76206
 30
0.0
 11
-258.931287
 21
-64.76206
 31
0.0
  0
ARC
  5
299
100
AcDbEntity
  8
0
370
    -3
  6
Continuous
100
AcDbCircle
 10
-242.59781
 20
59.737514
 30
0.0
 40
10.0
100
AcDbArc
 50
90.0
 51
180.0
  0
LINE
  5
29A
100
AcDbEntity
  8
0
370
    -3
  6
Continuous
100
AcDbLine
 10
-252.59781
 20
21.536704
 30
0.0
 11
-252.59781
 21
59.737514
 31
0.0
  0
LINE
  5
29B
100
AcDbEntity
  8
0
370
    -3
  6
CENTER
100
AcDbLine
 10
-217.158756
 20
49.737514
 30
0.0
 11
-246.144234
 21
49.737514
 31
0.0
  0
LINE
  5
29C
100
AcDbEntity
  8
0
370
    -3
  6
Continuous
100
AcDbLine
 10
-211.59781
 20
21.536704
 30
0.0
 11
-211.59781
 21
59.737514
 31
0.0
  0
ARC
  5
29D
100
AcDbEntity
  8
0
370
    -3
  6
Continuous
100
AcDbCircle
 10
-221.59781
 20
59.737514
 30
0.0
 40
10.0
100
AcDbArc
 50
0.0
 51
90.0
  0
LINE
  5
29E
100
AcDbEntity
  8
0
370
    -3
  6
Continuous
100
AcDbLine
 10
-221.59781
 20
69.737514
 30
0.0
 11
-242.59781
 21
69.737514
 31
0.0
  0
LINE
  5
29F
100
AcDbEntity
  8
0
370
    -3
  6
CENTER
100
AcDbLine
 10
-59.210386
 20
-50.08206
 30
0.0
 11
-340.501794
 21
-50.08206
 31
0.0
  0
LINE
  5
2A0
100
AcDbEntity
  8
0
370
    -3
  6
CENTER
100
AcDbLine
 10
-232.09781
 20
76.393662
 30
0.0
 11
-232.09781
 21
-232.590393
 31
0.0
  0
LINE
  5
2A1
100
AcDbEntity
  8
0
370
    -3
  6
Continuous
100
AcDbLine
 10
-134.09781
 20
-2.599359
 30
0.0
 11
-134.09781
 21
-50.08206
 31
0.0
  0
ARC
  5
2A2
100
AcDbEntity
  8
0
370
    -3
  6
Continuous
100
AcDbCircle
 10
-137.09781
 20
-2.599359
 30
0.0
 40
3.0
100
AcDbArc
 50
360.0
 51
80.0
  0
LINE
  5
2A3
100
AcDbEntity
  8
0
370
    -3
  6
Continuous
100
AcDbLine
 10
-132.49781
 20
-18.58206
 30
0.0
 11
-134.09781
 21
-18.58206
 31
0.0
  0
LINE
  5
2A4
100
AcDbEntity
  8
0
370
    -3
  6
Continuous
100
AcDbLine
 10
-134.09781
 20
-97.564761
 30
0.0
 11
-134.09781
 21
-50.08206
 31
0.0
  0
ARC
  5
2A5
100
AcDbEntity
  8
0
370
    -3
  6
Continuous
100
AcDbCircle
 10
-137.09781
 20
-97.564761
 30
0.0
 40
3.0
100
AcDbArc
 50
280.0
 51
0.0
  0
LINE
  5
2A6
100
AcDbEntity
  8
0
370
    -3
  6
Continuous
100
AcDbLine
 10
-132.49781
 20
-81.58206
 30
0.0
 11
-134.09781
 21
-81.58206
 31
0.0
  0
LINE
  5
2A7
100
AcDbEntity
  8
0
370
    -3
  6
Continuous
100
AcDbLine
 10
-132.09781
 20
-18.98206
 30
0.0
 11
-132.09781
 21
-50.08206
 31
0.0
  0
LINE
  5
2A8
100
AcDbEntity
  8
0
370
    -3
  6
Continuous
100
AcDbLine
 10
-132.49781
 20
-18.58206
 30
0.0
 11
-132.09781
 21
-18.98206
 31
0.0
  0
LINE
  5
2A9
100
AcDbEntity
  8
0
370
    -3
  6
Continuous
100
AcDbLine
 10
-132.49781
 20
-81.58206
 30
0.0
 11
-132.09781
 21
-81.18206
 31
0.0
  0
LINE
  5
2AA
100
AcDbEntity
  8
0
370
    -3
  6
Continuous
100
AcDbLine
 10
-132.09781
 20
-81.18206
 30
0.0
 11
-132.09781
 21
-50.08206
 31
0.0
  0
LINE
  5
2AB
100
AcDbEntity
  8
0
370
    -3
  6
Continuous
100
AcDbLine
 10
-136.576866
 20
0.355064
 30
0.0
 11
-160.118755
 21
4.417971
 31
0.0
  0
LINE
  5
2AC
100
AcDbEntity
  8
0
370
    -3
  6
Continuous
100
AcDbLine
 10
-136.576866
 20
-100.519184
 30
0.0
 11
-160.118755
 21
-104.582091
 31
0.0
  0
ARC
  5
2AD
100
AcDbEntity
  8
0
370
    -3
  6
Continuous
100
AcDbCircle
 10
-163.59781
 20
-181.08206
 30
0.0
 40
1.0
100
AcDbArc
 50
90.0
 51
180.0
  0
ARC
  5
2AE
100
AcDbEntity
  8
0
370
    -3
  6
Continuous
100
AcDbCircle
 10
-163.59781
 20
-179.08206
 30
0.0
 40
1.0
100
AcDbArc
 50
270.0
 51
0.0
  0
LINE
  5
2AF
100
AcDbEntity
  8
0
370
    -3
  6
Continuous
100
AcDbLine
 10
-299.59781
 20
32.77051
 30
0.0
 11
-299.59781
 21
-58.935106
 31
0.0
  0
LINE
  5
2B0
100
AcDbEntity
  8
0
370
    -3
  6
Continuous
100
AcDbLine
 10
-301.59781
 20
20.91794
 30
0.0
 11
-301.59781
 21
-63.850875
 31
0.0
  0
ARC
  5
2B1
100
AcDbEntity
  8
0
370
    -3
  6
Continuous
100
AcDbCircle
 10
-300.59781
 20
22.91794
 30
0.0
 40
1.0
100
AcDbArc
 50
270.0
 51
0.0
  0
ARC
  5
2B2
100
AcDbEntity
  8
0
370
    -3
  6
Continuous
100
AcDbCircle
 10
-300.59781
 20
20.91794
 30
0.0
 40
1.0
100
AcDbArc
 50
90.0
 51
180.0
  0
LINE
  5
2B3
100
AcDbEntity
  8
0
370
    -3
  6
Continuous
100
AcDbLine
 10
-174.09781
 20
37.91794
 30
0.0
 11
-174.09781
 21
-43.305985
 31
0.0
  0
LINE
  5
2B4
100
AcDbEntity
  8
0
370
    -3
  6
Continuous
100
AcDbLine
 10
-327.618755
 20
0.355064
 30
0.0
 11
-304.076866
 21
4.506135
 31
0.0
  0
ARC
  5
2B5
100
AcDbEntity
  8
0
370
    -3
  6
Continuous
100
AcDbCircle
 10
-304.59781
 20
7.460558
 30
0.0
 40
3.0
100
AcDbArc
 50
280.0
 51
360.0
  0
LINE
  5
2B6
100
AcDbEntity
  8
0
370
    -3
  6
Continuous
100
AcDbLine
 10
-332.09781
 20
-18.78206
 30
0.0
 11
-332.09781
 21
-50.08206
 31
0.0
  0
LINE
  5
2B7
100
AcDbEntity
  8
0
370
    -3
  6
Continuous
100
AcDbLine
 10
-330.09781
 20
-2.599359
 30
0.0
 11
-330.09781
 21
-50.08206
 31
0.0
  0
LINE
  5
2B8
100
AcDbEntity
  8
0
370
    -3
  6
Continuous
100
AcDbLine
 10
-331.89781
 20
-18.58206
 30
0.0
 11
-330.09781
 21
-18.58206
 31
0.0
  0
LINE
  5
2B9
100
AcDbEntity
  8
0
370
    -3
  6
Continuous
100
AcDbLine
 10
-332.09781
 20
-18.78206
 30
0.0
 11
-331.89781
 21
-18.58206
 31
0.0
  0
ARC
  5
2BA
100
AcDbEntity
  8
0
370
    -3
  6
Continuous
100
AcDbCircle
 10
-327.09781
 20
-2.599359
 30
0.0
 40
3.0
100
AcDbArc
 50
100.0
 51
180.0
  0
LINE
  5
2BB
100
AcDbEntity
  8
0
370
    -3
  6
Continuous
100
AcDbLine
 10
-331.89781
 20
-81.58206
 30
0.0
 11
-330.09781
 21
-81.58206
 31
0.0
  0
LINE
  5
2BC
100
AcDbEntity
  8
0
370
    -3
  6
Continuous
100
AcDbLine
 10
-330.09781
 20
-97.564761
 30
0.0
 11
-330.09781
 21
-50.08206
 31
0.0
  0
LINE
  5
2BD
100
AcDbEntity
  8
0
370
    -3
  6
Continuous
100
AcDbLine
 10
-332.09781
 20
-81.38206
 30
0.0
 11
-332.09781
 21
-50.08206
 31
0.0
  0
LINE
  5
2BE
100
AcDbEntity
  8
0
370
    -3
  6
Continuous
100
AcDbLine
 10
-332.09781
 20
-81.38206
 30
0.0
 11
-331.89781
 21
-81.58206
 31
0.0
  0
LINE
  5
2BF
100
AcDbEntity
  8
0
370
    -3
  6
Continuous
100
AcDbLine
 10
-327.618755
 20
-100.519184
 30
0.0
 11
-304.076866
 21
-104.670255
 31
0.0
  0
ARC
  5
2C0
100
AcDbEntity
  8
0
370
    -3
  6
Continuous
100
AcDbCircle
 10
-327.09781
 20
-97.564761
 30
0.0
 40
3.0
100
AcDbArc
 50
180.0
 51
260.0
  0
LINE
  5
2C1
100
AcDbEntity
  8
0
370
    -3
  6
Continuous
100
AcDbLine
 10
-299.59781
 20
-119.589867
 30
0.0
 11
-299.59781
 21
-197.08206
 31
0.0
  0
ARC
  5
2C2
100
AcDbEntity
  8
0
370
    -3
  6
Continuous
100
AcDbCircle
 10
-300.59781
 20
-181.08206
 30
0.0
 40
1.0
100
AcDbArc
 50
0.0
 51
90.0
  0
ARC
  5
2C3
100
AcDbEntity
  8
0
370
    -3
  6
Continuous
100
AcDbCircle
 10
-300.59781
 20
-179.08206
 30
0.0
 40
1.0
100
AcDbArc
 50
180.0
 51
270.0
  0
LINE
  5
2C4
100
AcDbEntity
  8
0
370
    -3
  6
Continuous
100
AcDbLine
 10
-301.59781
 20
-114.674098
 30
0.0
 11
-301.59781
 21
-179.08206
 31
0.0
  0
ARC
  5
2C5
100
AcDbEntity
  8
0
370
    -3
  6
Continuous
100
AcDbCircle
 10
-304.59781
 20
-107.624678
 30
0.0
 40
3.0
100
AcDbArc
 50
70.528779
 51
80.0
  0
ARC
  5
2C6
100
AcDbEntity
  8
0
370
    -3
  6
Continuous
100
AcDbCircle
 10
-331.09781
 20
-201.08206
 30
0.0
 40
1.0
100
AcDbArc
 50
90.0
 51
180.0
  0
ARC
  5
2C7
100
AcDbEntity
  8
0
370
    -3
  6
Continuous
100
AcDbCircle
 10
-302.59781
 20
-197.08206
 30
0.0
 40
3.0
100
AcDbArc
 50
270.0
 51
0.0
  0
LINE
  5
2C8
100
AcDbEntity
  8
0
370
    -3
  6
CENTER
100
AcDbLine
 10
-317.09781
 20
-193.001826
 30
0.0
 11
-317.09781
 21
-229.373459
 31
0.0
  0
LINE
  5
2C9
100
AcDbEntity
  8
0
370
    -3
  6
Continuous
100
AcDbLine
 10
-132.09781
 20
-220.08206
 30
0.0
 11
-332.09781
 21
-220.08206
 31
0.0
  0
LINE
  5
2CA
100
AcDbEntity
  8
0
370
    -3
  6
Continuous
100
AcDbLine
 10
-332.09781
 20
-201.08206
 30
0.0
 11
-332.09781
 21
-220.08206
 31
0.0
  0
LINE
  5
2CB
100
AcDbEntity
  8
0
370
    -3
  6
Continuous
100
AcDbLine
 10
-302.59781
 20
-200.08206
 30
0.0
 11
-331.09781
 21
-200.08206
 31
0.0
  0
ARC
  5
2CC
100
AcDbEntity
  8
0
370
    -3
  6
Continuous
100
AcDbCircle
 10
-133.09781
 20
-201.08206
 30
0.0
 40
1.0
100
AcDbArc
 50
0.0
 51
90.0
  0
LINE
  5
2CD
100
AcDbEntity
  8
0
370
    -3
  6
Continuous
100
AcDbLine
 10
-132.09781
 20
-201.08206
 30
0.0
 11
-132.09781
 21
-220.08206
 31
0.0
  0
LINE
  5
2CE
100
AcDbEntity
  8
0
370
    -3
  6
Continuous
100
AcDbLine
 10
-133.09781
 20
-200.08206
 30
0.0
 11
-171.09781
 21
-200.08206
 31
0.0
  0
LINE
  5
2CF
100
AcDbEntity
  8
0
370
    -3
  6
Continuous
100
AcDbLine
 10
-174.09781
 20
-135.21899
 30
0.0
 11
-174.09781
 21
-197.08206
 31
0.0
  0
ARC
  5
2D0
100
AcDbEntity
  8
0
370
    -3
  6
Continuous
100
AcDbCircle
 10
-171.09781
 20
-197.08206
 30
0.0
 40
3.0
100
AcDbArc
 50
180.0
 51
270.0
  0
LINE
  5
2D1
100
AcDbEntity
  8
0
370
    -3
  6
Continuous
100
AcDbLine
 10
-162.59781
 20
-50.08206
 30
0.0
 11
-162.59781
 21
-63.850877
 31
0.0
  0
ARC
  5
2D2
100
AcDbEntity
  8
0
370
    -3
  6
Continuous
100
AcDbCircle
 10
-159.59781
 20
-107.536514
 30
0.0
 40
3.0
100
AcDbArc
 50
100.0
 51
109.471221
  0
LINE
  5
2D3
100
AcDbEntity
  8
0
370
    -3
  6
Continuous
100
AcDbLine
 10
-166.59781
 20
-199.08206
 30
0.0
 11
-173.333878
 21
-199.08206
 31
0.0
  0
ARC
  5
2D4
100
AcDbEntity
  8
0
370
    -3
  6
Continuous
100
AcDbCircle
 10
-166.59781
 20
-197.08206
 30
0.0
 40
2.0
100
AcDbArc
 50
270.0
 51
0.0
  0
LINE
  5
2D5
100
AcDbEntity
  8
0
370
    -3
  6
Continuous
100
AcDbLine
 10
-164.59781
 20
35.786722
 30
0.0
 11
-164.59781
 21
-58.935109
 31
0.0
  0
LINE
  5
2D6
100
AcDbEntity
  8
0
370
    -3
  6
Continuous
100
AcDbLine
 10
-174.09781
 20
37.91794
 30
0.0
 11
-166.562905
 21
37.786418
 31
0.0
  0
LINE
  5
2D7
100
AcDbEntity
  8
0
370
    -3
  6
Continuous
100
AcDbLine
 10
-162.59781
 20
20.91794
 30
0.0
 11
-162.59781
 21
-50.08206
 31
0.0
  0
ARC
  5
2D8
100
AcDbEntity
  8
0
370
    -3
  6
Continuous
100
AcDbCircle
 10
-163.59781
 20
20.91794
 30
0.0
 40
1.0
100
AcDbArc
 50
0.0
 51
90.0
  0
ARC
  5
2D9
100
AcDbEntity
  8
0
370
    -3
  6
Continuous
100
AcDbCircle
 10
-163.59781
 20
22.91794
 30
0.0
 40
1.0
100
AcDbArc
 50
180.0
 51
270.0
  0
ARC
  5
2DA
100
AcDbEntity
  8
0
370
    -3
  6
Continuous
100
AcDbCircle
 10
-166.59781
 20
35.786722
 30
0.0
 40
2.0
100
AcDbArc
 50
0.0
 51
89.0
  0
ARC
  5
2DB
100
AcDbEntity
  8
0
370
    -3
  6
Continuous
100
AcDbCircle
 10
-159.59781
 20
7.372394
 30
0.0
 40
3.0
100
AcDbArc
 50
180.0
 51
260.0
  0
LINE
  5
2DC
100
AcDbEntity
  8
0
370
    -3
  6
Continuous
100
AcDbLine
 10
-164.59781
 20
-119.589869
 30
0.0
 11
-164.59781
 21
-197.08206
 31
0.0
  0
LINE
  5
2DD
100
AcDbEntity
  8
0
370
    -3
  6
CENTER
100
AcDbLine
 10
-147.09781
 20
-193.001826
 30
0.0
 11
-147.09781
 21
-229.373459
 31
0.0
  0
ARC
  5
2DE
100
AcDbEntity
  8
0
370
    -3
  6
Continuous
100
AcDbCircle
 10
-296.59781
 20
32.77051
 30
0.0
 40
3.0
100
AcDbArc
 50
91.0
 51
180.0
  0
LINE
  5
2DF
100
AcDbEntity
  8
0
370
    -3
  6
Continuous
100
AcDbLine
 10
-119.09781
 20
-27.08206
 30
0.0
 11
-64.09781
 21
-27.08206
 31
0.0
  0
LINE
  5
2E0
100
AcDbEntity
  8
0
370
    -3
  6
Continuous
100
AcDbLine
 10
-129.09781
 20
-30.08206
 30
0.0
 11
-64.09781
 21
-30.08206
 31
0.0
  0
LINE
  5
2E1
100
AcDbEntity
  8
0
370
    -3
  6
Continuous
100
AcDbLine
 10
-64.09781
 20
-70.08206
 30
0.0
 11
-64.09781
 21
-27.08206
 31
0.0
  0
LINE
  5
2E2
100
AcDbEntity
  8
0
370
    -3
  6
Continuous
100
AcDbLine
 10
-129.09781
 20
-70.08206
 30
0.0
 11
-64.09781
 21
-70.08206
 31
0.0
  0
LINE
  5
2E3
100
AcDbEntity
  8
0
370
    -3
  6
Continuous
100
AcDbLine
 10
-119.09781
 20
-30.08206
 30
0.0
 11
-119.09781
 21
-27.08206
 31
0.0
  0
LINE
  5
2E4
100
AcDbEntity
  8
0
370
    -3
  6
Continuous
100
AcDbLine
 10
-129.09781
 20
-29.08206
 30
0.0
 11
-129.09781
 21
-71.08206
 31
0.0
  0
LINE
  5
2E5
100
AcDbEntity
  8
0
370
    -3
  6
Continuous
100
AcDbLine
 10
-132.09781
 20
-29.08206
 30
0.0
 11
-129.09781
 21
-29.08206
 31
0.0
  0
LINE
  5
2E6
100
AcDbEntity
  8
0
370
    -3
  6
Continuous
100
AcDbLine
 10
-132.09781
 20
-71.08206
 30
0.0
 11
-129.09781
 21
-71.08206
 31
0.0
  0
LINE
  5
2E7
100
AcDbEntity
  8
0
370
    -3
  6
Continuous
100
AcDbLine
 10
328.402196
 20
189.406331
 30
0.0
 11
328.402196
 21
124.406331
 31
0.0
  0
LINE
  5
2E8
100
AcDbEntity
  8
0
370
    -3
  6
Continuous
100
AcDbLine
 10
329.402196
 20
189.406331
 30
0.0
 11
308.402196
 21
189.406331
 31
0.0
  0
LINE
  5
2E9
100
AcDbEntity
  8
0
370
    -3
  6
Continuous
100
AcDbLine
 10
329.402196
 20
192.406331
 30
0.0
 11
329.402196
 21
189.406331
 31
0.0
  0
LINE
  5
2EA
100
AcDbEntity
  8
0
370
    -3
  6
Continuous
100
AcDbLine
 10
288.402196
 20
189.406331
 30
0.0
 11
288.402196
 21
124.406331
 31
0.0
  0
LINE
  5
2EB
100
AcDbEntity
  8
0
370
    -3
  6
Continuous
100
AcDbLine
 10
287.402196
 20
189.406331
 30
0.0
 11
308.402196
 21
189.406331
 31
0.0
  0
LINE
  5
2EC
100
AcDbEntity
  8
0
370
    -3
  6
Continuous
100
AcDbLine
 10
287.402196
 20
192.406331
 30
0.0
 11
287.402196
 21
189.406331
 31
0.0
  0
LINE
  5
2ED
100
AcDbEntity
  8
0
370
    -3
  6
Continuous
100
AcDbLine
 10
328.402196
 20
124.406331
 30
0.0
 11
308.402196
 21
124.406331
 31
0.0
  0
LINE
  5
2EE
100
AcDbEntity
  8
0
370
    -3
  6
Continuous
100
AcDbLine
 10
288.402196
 20
124.406331
 30
0.0
 11
308.402196
 21
124.406331
 31
0.0
  0
LINE
  5
2EF
100
AcDbEntity
  8
0
370
    -3
  6
Continuous
100
AcDbLine
 10
406.262185
 20
234.406331
 30
0.0
 11
381.400887
 21
234.406331
 31
0.0
  0
LINE
  5
2F0
100
AcDbEntity
  8
0
370
    -3
  6
Continuous
100
AcDbLine
 10
314.402196
 20
124.406331
 30
0.0
 11
302.402196
 21
124.406331
 31
0.0
  0
LINE
  5
2F1
100
AcDbEntity
  8
0
370
    -3
  6
Continuous
100
AcDbLine
 10
302.402196
 20
179.406331
 30
0.0
 11
314.402196
 21
179.406331
 31
0.0
  0
ARC
  5
2F2
100
AcDbEntity
  8
0
370
    -3
  6
Continuous
100
AcDbCircle
 10
223.51465
 20
226.906331
 30
0.0
 40
2.0
100
AcDbArc
 50
181.0
 51
270.0
  0
ARC
  5
2F3
100
AcDbEntity
  8
0
370
    -3
  6
Continuous
100
AcDbCircle
 10
409.287125
 20
226.906331
 30
0.0
 40
2.0
100
AcDbArc
 50
270.0
 51
359.0
  0
LINE
  5
2F4
100
AcDbEntity
  8
0
370
    -3
  6
Continuous
100
AcDbLine
 10
220.872596
 20
234.406331
 30
0.0
 11
220.872596
 21
312.906331
 31
0.0
  0
LINE
  5
2F5
100
AcDbEntity
  8
0
370
    -3
  6
Continuous
100
AcDbLine
 10
222.77863
 20
313.699758
 30
0.0
 11
223.572345
 21
358.809053
 31
0.0
  0
ARC
  5
2F6
100
AcDbEntity
  8
0
370
    -3
  6
Continuous
100
AcDbCircle
 10
379.400887
 20
360.906331
 30
0.0
 40
1.0
100
AcDbArc
 50
0.0
 51
90.0
  0
ARC
  5
2F7
100
AcDbEntity
  8
0
370
    -3
  6
Continuous
100
AcDbCircle
 10
381.400887
 20
360.906331
 30
0.0
 40
1.0
100
AcDbArc
 50
180.0
 51
270.0
  0
ARC
  5
2F8
100
AcDbEntity
  8
0
370
    -3
  6
Continuous
100
AcDbCircle
 10
365.943505
 20
364.906331
 30
0.0
 40
3.0
100
AcDbArc
 50
190.0
 51
270.0
  0
LINE
  5
2F9
100
AcDbEntity
  8
0
370
    -3
  6
Continuous
100
AcDbLine
 10
365.943505
 20
361.906331
 30
0.0
 11
379.400887
 21
361.906331
 31
0.0
  0
ARC
  5
2FA
100
AcDbEntity
  8
0
370
    -3
  6
Continuous
100
AcDbCircle
 10
235.400887
 20
360.906331
 30
0.0
 40
1.0
100
AcDbArc
 50
270.0
 51
0.0
  0
ARC
  5
2FB
100
AcDbEntity
  8
0
370
    -3
  6
Continuous
100
AcDbCircle
 10
237.400887
 20
360.906331
 30
0.0
 40
1.0
100
AcDbArc
 50
90.0
 51
180.0
  0
ARC
  5
2FC
100
AcDbEntity
  8
0
370
    -3
  6
Continuous
100
AcDbCircle
 10
250.858269
 20
364.906331
 30
0.0
 40
3.0
100
AcDbArc
 50
270.0
 51
350.0
  0
LINE
  5
2FD
100
AcDbEntity
  8
0
370
    -3
  6
Continuous
100
AcDbLine
 10
365.943505
 20
361.906331
 30
0.0
 11
237.400887
 21
361.906331
 31
0.0
  0
LINE
  5
2FE
100
AcDbEntity
  8
0
370
    -3
  6
Continuous
100
AcDbLine
 10
339.900887
 20
192.806331
 30
0.0
 11
339.500887
 21
192.406331
 31
0.0
  0
LINE
  5
2FF
100
AcDbEntity
  8
0
370
    -3
  6
Continuous
100
AcDbLine
 10
358.838012
 20
387.927275
 30
0.0
 11
362.989082
 21
364.385386
 31
0.0
  0
CIRCLE
  5
300
100
AcDbEntity
  8
0
370
    -3
  6
Continuous
100
AcDbCircle
 10
394.400887
 20
207.406331
 30
0.0
 40
7.0
  0
CIRCLE
  5
301
100
AcDbEntity
  8
0
370
    -3
  6
CENTER
100
AcDbCircle
 10
394.400887
 20
207.406331
 30
0.0
 40
11.5
  0
LINE
  5
302
100
AcDbEntity
  8
0
370
    -3
  6
CENTER
100
AcDbLine
 10
394.400887
 20
189.656331
 30
0.0
 11
394.400887
 21
225.156331
 31
0.0
  0
LINE
  5
303
100
AcDbEntity
  8
0
370
    -3
  6
CENTER
100
AcDbLine
 10
412.150887
 20
207.406331
 30
0.0
 11
376.650887
 21
207.406331
 31
0.0
  0
CIRCLE
  5
304
100
AcDbEntity
  8
0
370
    -3
  6
Continuous
100
AcDbCircle
 10
238.400887
 20
207.406331
 30
0.0
 40
7.0
  0
CIRCLE
  5
305
100
AcDbEntity
  8
0
370
    -3
  6
CENTER
100
AcDbCircle
 10
238.400887
 20
207.406331
 30
0.0
 40
11.5
  0
LINE
  5
306
100
AcDbEntity
  8
0
370
    -3
  6
CENTER
100
AcDbLine
 10
238.400887
 20
189.656331
 30
0.0
 11
238.400887
 21
225.156331
 31
0.0
  0
LINE
  5
307
100
AcDbEntity
  8
0
370
    -3
  6
CENTER
100
AcDbLine
 10
256.150887
 20
207.406331
 30
0.0
 11
220.650887
 21
207.406331
 31
0.0
  0
LINE
  5
308
100
AcDbEntity
  8
0
370
    -3
  6
CENTER
100
AcDbLine
 10
256.150887
 20
377.406331
 30
0.0
 11
220.650887
 21
377.406331
 31
0.0
  0
LINE
  5
309
100
AcDbEntity
  8
0
370
    -3
  6
CENTER
100
AcDbLine
 10
238.400887
 20
395.156331
 30
0.0
 11
238.400887
 21
359.656331
 31
0.0
  0
LINE
  5
30A
100
AcDbEntity
  8
0
370
    -3
  6
CENTER
100
AcDbLine
 10
412.150887
 20
377.406331
 30
0.0
 11
376.650887
 21
377.406331
 31
0.0
  0
LINE
  5
30B
100
AcDbEntity
  8
0
370
    -3
  6
CENTER
100
AcDbLine
 10
394.400887
 20
395.156331
 30
0.0
 11
394.400887
 21
359.656331
 31
0.0
  0
ARC
  5
30C
100
AcDbEntity
  8
0
370
    -3
  6
Continuous
100
AcDbCircle
 10
225.064637
 20
195.406331
 30
0.0
 40
3.0
100
AcDbArc
 50
181.0
 51
270.0
  0
LINE
  5
30D
100
AcDbEntity
  8
0
370
    -3
  6
Continuous
100
AcDbLine
 10
221.383432
 20
234.406331
 30
0.0
 11
221.514954
 21
226.871426
 31
0.0
  0
LINE
  5
30E
100
AcDbEntity
  8
0
370
    -3
  6
Continuous
100
AcDbLine
 10
224.107336
 20
389.458688
 30
0.0
 11
223.572345
 21
358.809053
 31
0.0
  0
ARC
  5
30F
100
AcDbEntity
  8
0
370
    -3
  6
Continuous
100
AcDbCircle
 10
227.106879
 20
389.406331
 30
0.0
 40
3.0
100
AcDbArc
 50
90.0
 51
179.0
  0
CIRCLE
  5
310
100
AcDbEntity
  8
0
370
    -3
  6
CENTER
100
AcDbCircle
 10
394.400887
 20
377.406331
 30
0.0
 40
11.5
  0
CIRCLE
  5
311
100
AcDbEntity
  8
0
370
    -3
  6
CENTER
100
AcDbCircle
 10
238.400887
 20
377.406331
 30
0.0
 40
11.5
  0
CIRCLE
  5
312
100
AcDbEntity
  8
0
370
    -3
  6
Continuous
100
AcDbCircle
 10
238.400887
 20
377.406331
 30
0.0
 40
7.0
  0
CIRCLE
  5
313
100
AcDbEntity
  8
0
370
    -3
  6
Continuous
100
AcDbCircle
 10
394.400887
 20
377.406331
 30
0.0
 40
7.0
  0
ARC
  5
314
100
AcDbEntity
  8
0
370
    -3
  6
Continuous
100
AcDbCircle
 10
407.737138
 20
195.406331
 30
0.0
 40
3.0
100
AcDbArc
 50
270.0
 51
359.0
  0
LINE
  5
315
100
AcDbEntity
  8
0
370
    -3
  6
Continuous
100
AcDbLine
 10
411.409615
 20
233.906331
 30
0.0
 11
411.28682
 21
226.871426
 31
0.0
  0
ARC
  5
316
100
AcDbEntity
  8
0
370
    -3
  6
Continuous
100
AcDbCircle
 10
405.694895
 20
389.406331
 30
0.0
 40
3.0
100
AcDbArc
 50
1.0
 51
90.0
  0
LINE
  5
317
100
AcDbEntity
  8
0
370
    -3
  6
Continuous
100
AcDbLine
 10
227.106879
 20
392.406331
 30
0.0
 11
405.694895
 21
392.406331
 31
0.0
  0
LINE
  5
318
100
AcDbEntity
  8
0
370
    -3
  6
Continuous
100
AcDbLine
 10
225.064637
 20
192.406331
 30
0.0
 11
407.737138
 21
192.406331
 31
0.0
  0
ARC
  5
319
100
AcDbEntity
  8
0
370
    -3
  6
Continuous
100
AcDbCircle
 10
222.070963
 20
361.406331
 30
0.0
 40
3.0
100
AcDbArc
 50
270.0
 51
311.409622
  0
ARC
  5
31A
100
AcDbEntity
  8
0
370
    -3
  6
Continuous
100
AcDbCircle
 10
219.900735
 20
234.406331
 30
0.0
 40
1.0
100
AcDbArc
 50
359.0
 51
90.0
  0
ARC
  5
31B
100
AcDbEntity
  8
0
370
    -3
  6
Continuous
100
AcDbCircle
 10
213.402196
 20
231.406331
 30
0.0
 40
5.0
100
AcDbArc
 50
270.0
 51
0.0
  0
ARC
  5
31C
100
AcDbEntity
  8
0
370
    -3
  6
Continuous
100
AcDbCircle
 10
219.402196
 20
234.406331
 30
0.0
 40
1.0
100
AcDbArc
 50
90.0
 51
180.0
  0
LINE
  5
31D
100
AcDbEntity
  8
0
370
    -3
  6
Continuous
100
AcDbLine
 10
219.900735
 20
235.406331
 30
0.0
 11
219.402196
 21
235.406331
 31
0.0
  0
LINE
  5
31E
100
AcDbEntity
  8
0
370
    -3
  6
Continuous
100
AcDbLine
 10
218.402196
 20
358.406331
 30
0.0
 11
218.402196
 21
312.906331
 31
0.0
  0
ARC
  5
31F
100
AcDbEntity
  8
0
370
    -3
  6
Continuous
100
AcDbCircle
 10
200.902196
 20
361.906331
 30
0.0
 40
2.0
100
AcDbArc
 50
0.0
 51
90.0
  0
ARC
  5
320
100
AcDbEntity
  8
0
370
    -3
  6
Continuous
100
AcDbCircle
 10
205.902196
 20
361.406331
 30
0.0
 40
3.0
100
AcDbArc
 50
180.0
 51
270.0
  0
LINE
  5
321
100
AcDbEntity
  8
0
370
    -3
  6
Continuous
100
AcDbLine
 10
213.402196
 20
226.406331
 30
0.0
 11
205.902196
 21
226.406331
 31
0.0
  0
LINE
  5
322
100
AcDbEntity
  8
0
370
    -3
  6
Continuous
100
AcDbLine
 10
202.902196
 20
361.406331
 30
0.0
 11
202.902196
 21
361.906331
 31
0.0
  0
ARC
  5
323
100
AcDbEntity
  8
0
370
    -3
  6
Continuous
100
AcDbCircle
 10
200.902196
 20
222.906331
 30
0.0
 40
2.0
100
AcDbArc
 50
270.0
 51
0.0
  0
ARC
  5
324
100
AcDbEntity
  8
0
370
    -3
  6
Continuous
100
AcDbCircle
 10
205.902196
 20
223.406331
 30
0.0
 40
3.0
100
AcDbArc
 50
90.0
 51
180.0
  0
LINE
  5
325
100
AcDbEntity
  8
0
370
    -3
  6
Continuous
100
AcDbLine
 10
222.070963
 20
358.406331
 30
0.0
 11
205.902196
 21
358.406331
 31
0.0
  0
LINE
  5
326
100
AcDbEntity
  8
0
370
    -3
  6
Continuous
100
AcDbLine
 10
202.902196
 20
223.406331
 30
0.0
 11
202.902196
 21
222.906331
 31
0.0
  0
ARC
  5
327
100
AcDbEntity
  8
0
370
    -3
  6
Continuous
100
AcDbCircle
 10
226.03959
 20
356.906331
 30
0.0
 40
3.0
100
AcDbArc
 50
90.0
 51
131.409622
  0
LINE
  5
328
100
AcDbEntity
  8
0
370
    -3
  6
Continuous
100
AcDbLine
 10
235.400887
 20
359.906331
 30
0.0
 11
226.03959
 21
359.906331
 31
0.0
  0
LINE
  5
329
100
AcDbEntity
  8
0
370
    -3
  6
Continuous
100
AcDbLine
 10
406.262185
 20
359.906331
 30
0.0
 11
235.400887
 21
359.906331
 31
0.0
  0
LINE
  5
32A
100
AcDbEntity
  8
0
370
    -3
  6
Continuous
100
AcDbLine
 10
277.100887
 20
192.406331
 30
0.0
 11
308.400887
 21
192.406331
 31
0.0
  0
LINE
  5
32B
100
AcDbEntity
  8
0
370
    -3
  6
Continuous
100
AcDbLine
 10
260.918186
 20
390.406331
 30
0.0
 11
276.900887
 21
390.406331
 31
0.0
  0
LINE
  5
32C
100
AcDbEntity
  8
0
370
    -3
  6
Continuous
100
AcDbLine
 10
257.963763
 20
387.927275
 30
0.0
 11
253.812693
 21
364.385386
 31
0.0
  0
ARC
  5
32D
100
AcDbEntity
  8
0
370
    -3
  6
Continuous
100
AcDbCircle
 10
260.918186
 20
387.406331
 30
0.0
 40
3.0
100
AcDbArc
 50
90.0
 51
170.0
  0
LINE
  5
32E
100
AcDbEntity
  8
0
370
    -3
  6
Continuous
100
AcDbLine
 10
339.700887
 20
192.406331
 30
0.0
 11
308.400887
 21
192.406331
 31
0.0
  0
ARC
  5
32F
100
AcDbEntity
  8
0
370
    -3
  6
Continuous
100
AcDbCircle
 10
355.883588
 20
387.406331
 30
0.0
 40
3.0
100
AcDbArc
 50
10.0
 51
90.0
  0
LINE
  5
330
100
AcDbEntity
  8
0
370
    -3
  6
Continuous
100
AcDbLine
 10
355.883588
 20
390.406331
 30
0.0
 11
276.900887
 21
390.406331
 31
0.0
  0
LINE
  5
331
100
AcDbEntity
  8
0
370
    -3
  6
Continuous
100
AcDbLine
 10
276.900887
 20
192.606331
 30
0.0
 11
276.900887
 21
194.406331
 31
0.0
  0
LINE
  5
332
100
AcDbEntity
  8
0
370
    -3
  6
Continuous
100
AcDbLine
 10
339.900887
 20
192.806331
 30
0.0
 11
339.900887
 21
194.406331
 31
0.0
  0
LINE
  5
333
100
AcDbEntity
  8
0
370
    -3
  6
Continuous
100
AcDbLine
 10
276.900887
 20
192.606331
 30
0.0
 11
277.100887
 21
192.406331
 31
0.0
  0
LINE
  5
334
100
AcDbEntity
  8
0
370
    -3
  6
CENTER
100
AcDbLine
 10
-13.113969
 20
292.406331
 30
0.0
 11
419.238478
 21
292.406331
 31
0.0
  0
LINE
  5
335
100
AcDbEntity
  8
0
370
    -3
  6
Continuous
100
AcDbLine
 10
408.694438
 20
389.458688
 30
0.0
 11
411.409615
 21
233.906331
 31
0.0
  0
ARC
  5
336
100
AcDbEntity
  8
0
370
    -3
  6
Continuous
100
AcDbCircle
 10
406.262185
 20
356.906331
 30
0.0
 40
3.0
100
AcDbArc
 50
1.0
 51
90.0
  0
LINE
  5
337
100
AcDbEntity
  8
0
370
    -3
  6
Continuous
100
AcDbLine
 10
200.902196
 20
363.906331
 30
0.0
 11
196.402196
 21
363.906331
 31
0.0
  0
LINE
  5
338
100
AcDbEntity
  8
0
370
    -3
  6
Continuous
100
AcDbLine
 10
200.902196
 20
220.906331
 30
0.0
 11
196.402196
 21
220.906331
 31
0.0
  0
LINE
  5
339
100
AcDbEntity
  8
0
370
    -3
  6
Continuous
100
AcDbLine
 10
411.409615
 20
234.406331
 30
0.0
 11
220.872596
 21
234.406331
 31
0.0
  0
LINE
  5
33A
100
AcDbEntity
  8
0
370
    -3
  6
Continuous
100
AcDbLine
 10
409.287125
 20
224.906331
 30
0.0
 11
381.400887
 21
224.906331
 31
0.0
  0
LINE
  5
33B
100
AcDbEntity
  8
0
370
    -3
  6
Continuous
100
AcDbLine
 10
250.858269
 20
222.906331
 30
0.0
 11
379.400887
 21
222.906331
 31
0.0
  0
ARC
  5
33C
100
AcDbEntity
  8
0
370
    -3
  6
Continuous
100
AcDbCircle
 10
381.400887
 20
223.906331
 30
0.0
 40
1.0
100
AcDbArc
 50
90.0
 51
180.0
  0
ARC
  5
33D
100
AcDbEntity
  8
0
370
    -3
  6
Continuous
100
AcDbCircle
 10
379.400887
 20
223.906331
 30
0.0
 40
1.0
100
AcDbArc
 50
270.0
 51
0.0
  0
LINE
  5
33E
100
AcDbEntity
  8
0
370
    -3
  6
Continuous
100
AcDbLine
 10
339.900887
 20
392.406331
 30
0.0
 11
339.900887
 21
390.406331
 31
0.0
  0
LINE
  5
33F
100
AcDbEntity
  8
0
370
    -3
  6
Continuous
100
AcDbLine
 10
355.883588
 20
194.406331
 30
0.0
 11
276.900887
 21
194.406331
 31
0.0
  0
ARC
  5
340
100
AcDbEntity
  8
0
370
    -3
  6
Continuous
100
AcDbCircle
 10
355.883588
 20
197.406331
 30
0.0
 40
3.0
100
AcDbArc
 50
270.0
 51
350.0
  0
LINE
  5
341
100
AcDbEntity
  8
0
370
    -3
  6
Continuous
100
AcDbLine
 10
358.838012
 20
196.885386
 30
0.0
 11
362.989082
 21
220.427275
 31
0.0
  0
ARC
  5
342
100
AcDbEntity
  8
0
370
    -3
  6
Continuous
100
AcDbCircle
 10
365.943505
 20
219.906331
 30
0.0
 40
3.0
100
AcDbArc
 50
90.0
 51
170.0
  0
LINE
  5
343
100
AcDbEntity
  8
0
370
    -3
  6
Continuous
100
AcDbLine
 10
276.900887
 20
392.206331
 30
0.0
 11
276.900887
 21
390.406331
 31
0.0
  0
LINE
  5
344
100
AcDbEntity
  8
0
370
    -3
  6
Continuous
100
AcDbLine
 10
260.918186
 20
194.406331
 30
0.0
 11
276.900887
 21
194.406331
 31
0.0
  0
ARC
  5
345
100
AcDbEntity
  8
0
370
    -3
  6
Continuous
100
AcDbCircle
 10
260.918186
 20
197.406331
 30
0.0
 40
3.0
100
AcDbArc
 50
190.0
 51
270.0
  0
LINE
  5
346
100
AcDbEntity
  8
0
370
    -3
  6
Continuous
100
AcDbLine
 10
257.963763
 20
196.885386
 30
0.0
 11
253.812693
 21
220.427275
 31
0.0
  0
LINE
  5
347
100
AcDbEntity
  8
0
370
    -3
  6
Continuous
100
AcDbLine
 10
250.858269
 20
222.906331
 30
0.0
 11
237.400887
 21
222.906331
 31
0.0
  0
ARC
  5
348
100
AcDbEntity
  8
0
370
    -3
  6
Continuous
100
AcDbCircle
 10
250.858269
 20
219.906331
 30
0.0
 40
3.0
100
AcDbArc
 50
10.0
 51
90.0
  0
LINE
  5
349
100
AcDbEntity
  8
0
370
    -3
  6
Continuous
100
AcDbLine
 10
381.400887
 20
224.906331
 30
0.0
 11
223.51465
 21
224.906331
 31
0.0
  0
ARC
  5
34A
100
AcDbEntity
  8
0
370
    -3
  6
Continuous
100
AcDbCircle
 10
235.400887
 20
223.906331
 30
0.0
 40
1.0
100
AcDbArc
 50
0.0
 51
90.0
  0
ARC
  5
34B
100
AcDbEntity
  8
0
370
    -3
  6
Continuous
100
AcDbCircle
 10
237.400887
 20
223.906331
 30
0.0
 40
1.0
100
AcDbArc
 50
180.0
 51
270.0
  0
LINE
  5
34C
100
AcDbEntity
  8
0
370
    -3
  6
Continuous
100
AcDbLine
 10
221.514954
 20
226.871426
 30
0.0
 11
222.065094
 21
195.353973
 31
0.0
  0
LINE
  5
34D
100
AcDbEntity
  8
0
370
    -3
  6
Continuous
100
AcDbLine
 10
411.28682
 20
226.871426
 30
0.0
 11
410.736681
 21
195.353973
 31
0.0
  0
LINE
  5
34E
100
AcDbEntity
  8
0
370
    -3
  6
DASHED
100
AcDbLine
 10
202.901705
 20
334.406332
 30
0.0
 11
202.901756
 21
292.406331
 31
0.0
  0
ARC
  5
34F
100
AcDbEntity
  8
0
370
    -3
  6
Continuous
100
AcDbCircle
 10
205.902196
 20
330.438569
 30
0.0
 40
3.0
100
AcDbArc
 50
90.0
 51
180.0
  0
LINE
  5
350
100
AcDbEntity
  8
0
370
    -3
  6
Continuous
100
AcDbLine
 10
205.902196
 20
251.374093
 30
0.0
 11
215.522575
 21
251.374093
 31
0.0
  0
ARC
  5
351
100
AcDbEntity
  8
0
370
    -3
  6
Continuous
100
AcDbCircle
 10
205.902196
 20
336.136001
 30
0.0
 40
3.0
100
AcDbArc
 50
90.0
 51
180.0
  0
LINE
  5
352
100
AcDbEntity
  8
0
370
    -3
  6
Continuous
100
AcDbLine
 10
202.902196
 20
292.406331
 30
0.0
 11
202.902196
 21
336.136001
 31
0.0
  0
LINE
  5
353
100
AcDbEntity
  8
0
370
    -3
  6
Continuous
100
AcDbLine
 10
205.902196
 20
245.676661
 30
0.0
 11
214.402196
 21
245.676661
 31
0.0
  0
ARC
  5
354
100
AcDbEntity
  8
0
370
    -3
  6
Continuous
100
AcDbCircle
 10
205.902196
 20
350.406331
 30
0.0
 40
3.0
100
AcDbArc
 50
180.0
 51
270.0
  0
LINE
  5
355
100
AcDbEntity
  8
0
370
    -3
  6
Continuous
100
AcDbLine
 10
205.902196
 20
237.406331
 30
0.0
 11
214.402196
 21
237.406331
 31
0.0
  0
LINE
  5
356
100
AcDbEntity
  8
0
370
    -3
  6
Continuous
100
AcDbLine
 10
202.902196
 20
350.406331
 30
0.0
 11
202.902196
 21
361.906331
 31
0.0
  0
ARC
  5
357
100
AcDbEntity
  8
0
370
    -3
  6
Continuous
100
AcDbCircle
 10
214.402196
 20
250.676661
 30
0.0
 40
5.0
100
AcDbArc
 50
270.0
 51
323.130102
  0
ARC
  5
358
100
AcDbEntity
  8
0
370
    -3
  6
Continuous
100
AcDbCircle
 10
214.402196
 20
242.406331
 30
0.0
 40
5.0
100
AcDbArc
 50
270.0
 51
323.130102
  0
LINE
  5
359
100
AcDbEntity
  8
0
370
    -3
  6
Continuous
100
AcDbLine
 10
205.902196
 20
347.406331
 30
0.0
 11
214.402196
 21
347.406331
 31
0.0
  0
ARC
  5
35A
100
AcDbEntity
  8
0
370
    -3
  6
Continuous
100
AcDbCircle
 10
214.402196
 20
342.406331
 30
0.0
 40
5.0
100
AcDbArc
 50
36.869898
 51
90.0
  0
LINE
  5
35B
100
AcDbEntity
  8
0
370
    -3
  6
Continuous
100
AcDbLine
 10
205.902196
 20
339.136
 30
0.0
 11
214.402196
 21
339.136
 31
0.0
  0
ARC
  5
35C
100
AcDbEntity
  8
0
370
    -3
  6
Continuous
100
AcDbCircle
 10
214.402196
 20
334.136
 30
0.0
 40
5.0
100
AcDbArc
 50
36.869898
 51
90.0
  0
LINE
  5
35D
100
AcDbEntity
  8
0
370
    -3
  6
Continuous
100
AcDbLine
 10
205.902196
 20
333.438568
 30
0.0
 11
215.522575
 21
333.438568
 31
0.0
  0
LINE
  5
35E
100
AcDbEntity
  8
0
370
    -3
  6
Continuous
100
AcDbLine
 10
202.902196
 20
234.406331
 30
0.0
 11
202.902196
 21
222.906331
 31
0.0
  0
ARC
  5
35F
100
AcDbEntity
  8
0
370
    -3
  6
Continuous
100
AcDbCircle
 10
205.902196
 20
234.406331
 30
0.0
 40
3.0
100
AcDbArc
 50
90.0
 51
180.0
  0
ARC
  5
360
100
AcDbEntity
  8
0
370
    -3
  6
Continuous
100
AcDbCircle
 10
205.902196
 20
248.676662
 30
0.0
 40
3.0
100
AcDbArc
 50
180.0
 51
270.0
  0
LINE
  5
361
100
AcDbEntity
  8
0
370
    -3
  6
DASHED
100
AcDbLine
 10
202.901705
 20
250.406331
 30
0.0
 11
202.901756
 21
292.406331
 31
0.0
  0
ARC
  5
362
100
AcDbEntity
  8
0
370
    -3
  6
Continuous
100
AcDbCircle
 10
205.902196
 20
254.374094
 30
0.0
 40
3.0
100
AcDbArc
 50
180.0
 51
270.0
  0
LINE
  5
363
100
AcDbEntity
  8
0
370
    -3
  6
Continuous
100
AcDbLine
 10
202.902196
 20
292.406331
 30
0.0
 11
202.902196
 21
248.676662
 31
0.0
  0
LINE
  5
364
100
AcDbEntity
  8
0
370
    -3
  6
DASHED
100
AcDbLine
 10
202.901705
 20
250.406331
 30
0.0
 11
202.901756
 21
292.406331
 31
0.0
  0
LINE
  5
365
100
AcDbEntity
  8
0
370
    -3
  6
CENTER
100
AcDbLine
 10
207.458555
 20
281.906331
 30
0.0
 11
241.937481
 21
281.906331
 31
0.0
  0
LINE
  5
366
100
AcDbEntity
  8
0
370
    -3
  6
Continuous
100
AcDbLine
 10
216.372596
 20
271.906331
 30
0.0
 11
216.372596
 21
312.906331
 31
0.0
  0
LINE
  5
367
100
AcDbEntity
  8
0
370
    -3
  6
Continuous
100
AcDbLine
 10
216.372596
 20
271.906331
 30
0.0
 11
220.872596
 21
271.906331
 31
0.0
  0
INSERT
  5
373
100
AcDbEntity
  8
0
100
AcDbBlockReference
  2
ZU_SYM_C__ZUOU_AC_BLOCK_ZU_SYM_C__ZUOU_AC_BLOCK_ZU_SYM__USR_MELCAD_MD_SYM_SYM_SYM1_-1_-1_-1
 10
216.372596
 20
281.906331
 30
0.0
 41
-1.0
 50
180.0
  0
LINE
  5
374
100
AcDbEntity
  8
0
370
    -3
  6
Continuous
100
AcDbLine
 10
216.372596
 20
312.906331
 30
0.0
 11
220.872596
 21
312.906331
 31
0.0
  0
LINE
  5
375
100
AcDbEntity
  8
0
370
    -3
  6
CENTER
100
AcDbLine
 10
207.458555
 20
302.906331
 30
0.0
 11
241.937481
 21
302.906331
 31
0.0
  0
INSERT
  5
381
100
AcDbEntity
  8
0
100
AcDbBlockReference
  2
ZU_SYM_C__ZUOU_AC_BLOCK_ZU_SYM_C__ZUOU_AC_BLOCK_ZU_SYM__USR_MELCAD_MD_SYM_SYM_SYM1_00009-1_-1_-1
 10
216.372596
 20
302.906331
 30
0.0
 50
360.0
  0
LINE
  5
382
100
AcDbEntity
  8
0
370
    -3
  6
Continuous
100
AcDbLine
 10
223.872596
 20
313.906331
 30
0.0
 11
240.695085
 21
313.906331
 31
0.0
  0
ARC
  5
383
100
AcDbEntity
  8
0
370
    -3
  6
Continuous
100
AcDbCircle
 10
223.872596
 20
310.906331
 30
0.0
 40
3.0
100
AcDbArc
 50
90.0
 51
180.0
  0
LINE
  5
384
100
AcDbEntity
  8
0
370
    -3
  6
Continuous
100
AcDbLine
 10
218.402196
 20
271.906331
 30
0.0
 11
218.402196
 21
231.406331
 31
0.0
  0
LINE
  5
385
100
AcDbEntity
  8
0
370
    -3
  6
Continuous
100
AcDbLine
 10
302.402196
 20
124.406331
 30
0.0
 11
302.402196
 21
179.406331
 31
0.0
  0
LINE
  5
386
100
AcDbEntity
  8
0
370
    -3
  6
Continuous
100
AcDbLine
 10
314.402196
 20
124.406331
 30
0.0
 11
314.402196
 21
179.406331
 31
0.0
  0
LINE
  5
387
100
AcDbEntity
  8
0
370
    -3
  6
CENTER
100
AcDbLine
 10
308.402196
 20
118.651408
 30
0.0
 11
308.402196
 21
404.739494
 31
0.0
  0
ARC
  5
388
100
AcDbEntity
  8
0
370
    -3
  6
Continuous
100
AcDbCircle
 10
308.402196
 20
179.406331
 30
0.0
 40
6.0
100
AcDbArc
 50
0.0
 51
180.0
  0
LINE
  5
389
100
AcDbEntity
  8
0
370
    -3
  6
Continuous
100
AcDbLine
 10
196.402196
 20
355.156331
 30
0.0
 11
196.402196
 21
220.906331
 31
0.0
  0
LINE
  5
38A
100
AcDbEntity
  8
0
370
    -3
  6
Continuous
100
AcDbLine
 10
196.402196
 20
355.156331
 30
0.0
 11
196.402196
 21
363.906331
 31
0.0
  0
LINE
  5
38B
100
AcDbEntity
  8
0
370
    -3
  6
Continuous
100
AcDbLine
 10
129.902196
 20
344.906331
 30
0.0
 11
129.902196
 21
292.406331
 31
0.0
  0
LINE
  5
38C
100
AcDbEntity
  8
0
370
    -3
  6
Continuous
100
AcDbLine
 10
129.902196
 20
239.906331
 30
0.0
 11
129.902196
 21
292.406331
 31
0.0
  0
ARC
  5
38D
100
AcDbEntity
  8
0
370
    -3
  6
Continuous
100
AcDbCircle
 10
-232.09781
 20
-89.262489
 30
0.0
 40
74.0
100
AcDbArc
 50
135.837759
 51
162.497476
  0
LINE
  5
38E
100
AcDbEntity
  8
0
370
    -3
  6
Continuous
100
AcDbLine
 10
-214.59781
 20
-123.379261
 30
0.0
 11
-214.59781
 21
-152.762489
 31
0.0
  0
LINE
  5
38F
100
AcDbEntity
  8
0
370
    -3
  6
Continuous
100
AcDbLine
 10
-209.59781
 20
-122.869762
 30
0.0
 11
-209.59781
 21
-152.762489
 31
0.0
  0
LINE
  5
390
100
AcDbEntity
  8
0
370
    -3
  6
Continuous
100
AcDbLine
 10
-254.59781
 20
-122.869762
 30
0.0
 11
-254.59781
 21
-152.762489
 31
0.0
  0
LINE
  5
391
100
AcDbEntity
  8
0
370
    -3
  6
Continuous
100
AcDbLine
 10
-249.59781
 20
-123.379261
 30
0.0
 11
-249.59781
 21
-152.762489
 31
0.0
  0
ARC
  5
392
100
AcDbEntity
  8
0
370
    -3
  6
Continuous
100
AcDbCircle
 10
-283.59781
 20
-73.022107
 30
0.0
 40
20.0
100
AcDbArc
 50
162.497476
 51
180.0
  0
LINE
  5
393
100
AcDbEntity
  8
0
370
    -3
  6
Continuous
100
AcDbLine
 10
-303.59781
 20
-73.022107
 30
0.0
 11
-303.59781
 21
-105.502871
 31
0.0
  0
ARC
  5
394
100
AcDbEntity
  8
0
370
    -3
  6
Continuous
100
AcDbCircle
 10
-283.59781
 20
-105.502871
 30
0.0
 40
20.0
100
AcDbArc
 50
180.0
 51
197.502524
  0
ARC
  5
395
100
AcDbEntity
  8
0
370
    -3
  6
Continuous
100
AcDbCircle
 10
-232.09781
 20
-89.262489
 30
0.0
 40
74.0
100
AcDbArc
 50
197.502524
 51
252.497476
  0
ARC
  5
396
100
AcDbEntity
  8
0
370
    -3
  6
Continuous
100
AcDbCircle
 10
-232.09781
 20
-89.262489
 30
0.0
 40
74.0
100
AcDbArc
 50
17.502524
 51
44.162241
  0
ARC
  5
397
100
AcDbEntity
  8
0
370
    -3
  6
Continuous
100
AcDbCircle
 10
-180.59781
 20
-73.022107
 30
0.0
 40
20.0
100
AcDbArc
 50
0.0
 51
17.502524
  0
ARC
  5
398
100
AcDbEntity
  8
0
370
    -3
  6
Continuous
100
AcDbCircle
 10
-180.59781
 20
-105.502871
 30
0.0
 40
20.0
100
AcDbArc
 50
342.497476
 51
0.0
  0
LINE
  5
399
100
AcDbEntity
  8
0
370
    -3
  6
Continuous
100
AcDbLine
 10
-160.59781
 20
-73.022107
 30
0.0
 11
-160.59781
 21
-105.502871
 31
0.0
  0
ARC
  5
39A
100
AcDbEntity
  8
0
370
    -3
  6
Continuous
100
AcDbCircle
 10
-232.09781
 20
-89.262489
 30
0.0
 40
74.0
100
AcDbArc
 50
287.502524
 51
342.497476
  0
ARC
  5
39B
100
AcDbEntity
  8
0
370
    -3
  6
Continuous
100
AcDbCircle
 10
-215.857428
 20
-140.762489
 30
0.0
 40
20.0
100
AcDbArc
 50
270.0
 51
287.502524
  0
ARC
  5
39C
100
AcDbEntity
  8
0
370
    -3
  6
Continuous
100
AcDbCircle
 10
-206.59781
 20
-152.762489
 30
0.0
 40
3.0
100
AcDbArc
 50
180.0
 51
270.0
  0
ARC
  5
39D
100
AcDbEntity
  8
0
370
    -3
  6
Continuous
100
AcDbCircle
 10
-217.59781
 20
-152.762489
 30
0.0
 40
3.0
100
AcDbArc
 50
270.0
 51
0.0
  0
ARC
  5
39E
100
AcDbEntity
  8
0
370
    -3
  6
Continuous
100
AcDbCircle
 10
-248.338192
 20
-140.762489
 30
0.0
 40
20.0
100
AcDbArc
 50
252.497476
 51
270.0
  0
LINE
  5
39F
100
AcDbEntity
  8
0
370
    -3
  6
Continuous
100
AcDbLine
 10
-248.338192
 20
-160.762489
 30
0.0
 11
-215.857428
 21
-160.762489
 31
0.0
  0
ARC
  5
3A0
100
AcDbEntity
  8
0
370
    -3
  6
Continuous
100
AcDbCircle
 10
-246.59781
 20
-152.762489
 30
0.0
 40
3.0
100
AcDbArc
 50
180.0
 51
270.0
  0
ARC
  5
3A1
100
AcDbEntity
  8
0
370
    -3
  6
Continuous
100
AcDbCircle
 10
-257.59781
 20
-152.762489
 30
0.0
 40
3.0
100
AcDbArc
 50
270.0
 51
0.0
  0
LINE
  5
3A2
100
AcDbEntity
  8
0
370
    -3
  6
Continuous
100
AcDbLine
 10
-162.59781
 20
-114.6741
 30
0.0
 11
-162.59781
 21
-179.08206
 31
0.0
  0
LINE
  5
3A3
100
AcDbEntity
  8
0
370
    -3
  6
Continuous
100
AcDbLine
 10
411.401245
 20
-200.08206
 30
0.0
 11
220.901245
 21
-200.08206
 31
0.0
  0
LINE
  5
3A4
100
AcDbEntity
  8
0
370
    -3
  6
CENTER
100
AcDbLine
 10
691.45388
 20
-64.76206
 30
0.0
 11
746.234038
 21
-64.76206
 31
0.0
  0
LINE
  5
3A5
100
AcDbEntity
  8
0
370
    -3
  6
Continuous
100
AcDbLine
 10
786.900561
 20
-119.589867
 30
0.0
 11
786.900561
 21
-197.08206
 31
0.0
  0
LINE
  5
3A6
100
AcDbEntity
  8
0
370
    -3
  6
Continuous
100
AcDbLine
 10
129.902196
 20
-11.262489
 30
0.0
 11
129.902196
 21
-64.762489
 31
0.0
  0
LINE
  5
3A7
100
AcDbEntity
  8
0
370
    -3
  6
Continuous
100
AcDbLine
 10
129.902196
 20
-118.262489
 30
0.0
 11
129.902196
 21
-64.762489
 31
0.0
  0
LINE
  5
3A8
100
AcDbEntity
  8
0
370
    -3
  6
Continuous
100
AcDbLine
 10
196.402196
 20
-89.262486
 30
0.0
 11
196.402196
 21
-160.762486
 31
0.0
  0
LINE
  5
3A9
100
AcDbEntity
  8
0
370
    -3
  6
Continuous
100
AcDbLine
 10
196.402196
 20
-89.262486
 30
0.0
 11
196.402196
 21
-19.262486
 31
0.0
  0
LINE
  5
3AA
100
AcDbEntity
  8
0
370
    -3
  6
Continuous
100
AcDbLine
 10
200.902196
 20
-17.762486
 30
0.0
 11
196.402196
 21
-17.762486
 31
0.0
  0
LINE
  5
3AB
100
AcDbEntity
  8
0
370
    -3
  6
Continuous
100
AcDbLine
 10
200.902196
 20
-160.762486
 30
0.0
 11
196.402196
 21
-160.762486
 31
0.0
  0
LINE
  5
3AC
100
AcDbEntity
  8
0
370
    -3
  6
Continuous
100
AcDbLine
 10
196.402196
 20
-89.262486
 30
0.0
 11
196.402196
 21
-160.762486
 31
0.0
  0
LINE
  5
3AD
100
AcDbEntity
  8
0
370
    -3
  6
Continuous
100
AcDbLine
 10
196.402196
 20
-89.262486
 30
0.0
 11
196.402196
 21
-17.762486
 31
0.0
  0
LINE
  5
3AE
100
AcDbEntity
  8
0
370
    -3
  6
Continuous
100
AcDbLine
 10
202.902196
 20
-156.263172
 30
0.0
 11
202.902196
 21
-158.762486
 31
0.0
  0
ARC
  5
3AF
100
AcDbEntity
  8
0
370
    -3
  6
Continuous
100
AcDbCircle
 10
200.902196
 20
-158.762486
 30
0.0
 40
2.0
100
AcDbArc
 50
270.0
 51
0.0
  0
ARC
  5
3B0
100
AcDbEntity
  8
0
370
    -3
  6
Continuous
100
AcDbCircle
 10
200.902196
 20
-19.762486
 30
0.0
 40
2.0
100
AcDbArc
 50
0.0
 51
90.0
  0
ARC
  5
3B1
100
AcDbEntity
  8
0
370
    -3
  6
Continuous
100
AcDbCircle
 10
205.902196
 20
-20.262486
 30
0.0
 40
3.0
100
AcDbArc
 50
180.0
 51
270.0
  0
LINE
  5
3B2
100
AcDbEntity
  8
0
370
    -3
  6
Continuous
100
AcDbLine
 10
217.901245
 20
-23.262486
 30
0.0
 11
205.902196
 21
-23.262486
 31
0.0
  0
LINE
  5
3B3
100
AcDbEntity
  8
0
370
    -3
  6
Continuous
100
AcDbLine
 10
202.902196
 20
-31.262486
 30
0.0
 11
202.902196
 21
-19.762486
 31
0.0
  0
LINE
  5
3B4
100
AcDbEntity
  8
0
370
    -3
  6
Continuous
100
AcDbLine
 10
205.902196
 20
-34.262486
 30
0.0
 11
214.402196
 21
-34.262486
 31
0.0
  0
ARC
  5
3B5
100
AcDbEntity
  8
0
370
    -3
  6
Continuous
100
AcDbCircle
 10
205.902196
 20
-31.262486
 30
0.0
 40
3.0
100
AcDbArc
 50
180.0
 51
270.0
  0
LINE
  5
3B6
100
AcDbEntity
  8
0
370
    -3
  6
Continuous
100
AcDbLine
 10
205.902196
 20
-42.532817
 30
0.0
 11
214.402196
 21
-42.532817
 31
0.0
  0
LINE
  5
3B7
100
AcDbEntity
  8
0
370
    -3
  6
Continuous
100
AcDbLine
 10
202.902196
 20
-89.262486
 30
0.0
 11
202.902196
 21
-45.532817
 31
0.0
  0
ARC
  5
3B8
100
AcDbEntity
  8
0
370
    -3
  6
Continuous
100
AcDbCircle
 10
205.902196
 20
-45.532817
 30
0.0
 40
3.0
100
AcDbArc
 50
90.0
 51
180.0
  0
LINE
  5
3B9
100
AcDbEntity
  8
0
370
    -3
  6
Continuous
100
AcDbLine
 10
205.902196
 20
-48.230249
 30
0.0
 11
215.522576
 21
-48.230249
 31
0.0
  0
ARC
  5
3BA
100
AcDbEntity
  8
0
370
    -3
  6
Continuous
100
AcDbCircle
 10
205.902196
 20
-51.230249
 30
0.0
 40
3.0
100
AcDbArc
 50
90.0
 51
180.0
  0
LINE
  5
3BB
100
AcDbEntity
  8
0
370
    -3
  6
DASHED
100
AcDbLine
 10
202.901706
 20
-131.262487
 30
0.0
 11
202.901757
 21
-89.262486
 31
0.0
  0
LINE
  5
3BC
100
AcDbEntity
  8
0
370
    -3
  6
DASHED
100
AcDbLine
 10
202.901706
 20
-47.262485
 30
0.0
 11
202.901757
 21
-89.262486
 31
0.0
  0
LINE
  5
3BD
100
AcDbEntity
  8
0
370
    -3
  6
Continuous
100
AcDbLine
 10
202.902196
 20
-89.262486
 30
0.0
 11
202.902196
 21
-132.992155
 31
0.0
  0
ARC
  5
3BE
100
AcDbEntity
  8
0
370
    -3
  6
Continuous
100
AcDbCircle
 10
205.902196
 20
-127.294723
 30
0.0
 40
3.0
100
AcDbArc
 50
180.0
 51
270.0
  0
LINE
  5
3BF
100
AcDbEntity
  8
0
370
    -3
  6
DASHED
100
AcDbLine
 10
202.901706
 20
-131.262487
 30
0.0
 11
202.901757
 21
-89.262486
 31
0.0
  0
ARC
  5
3C0
100
AcDbEntity
  8
0
370
    -3
  6
Continuous
100
AcDbCircle
 10
205.902196
 20
-132.992155
 30
0.0
 40
3.0
100
AcDbArc
 50
180.0
 51
270.0
  0
LINE
  5
3C1
100
AcDbEntity
  8
0
370
    -3
  6
Continuous
100
AcDbLine
 10
205.902196
 20
-130.294723
 30
0.0
 11
215.522576
 21
-130.294723
 31
0.0
  0
LINE
  5
3C2
100
AcDbEntity
  8
0
370
    -3
  6
Continuous
100
AcDbLine
 10
205.902196
 20
-135.992155
 30
0.0
 11
214.402196
 21
-135.992155
 31
0.0
  0
LINE
  5
3C3
100
AcDbEntity
  8
0
370
    -3
  6
Continuous
100
AcDbLine
 10
205.902196
 20
-144.262486
 30
0.0
 11
214.402196
 21
-144.262486
 31
0.0
  0
ARC
  5
3C4
100
AcDbEntity
  8
0
370
    -3
  6
Continuous
100
AcDbCircle
 10
205.902196
 20
-147.262486
 30
0.0
 40
3.0
100
AcDbArc
 50
90.0
 51
180.0
  0
LINE
  5
3C5
100
AcDbEntity
  8
0
370
    -3
  6
Continuous
100
AcDbLine
 10
202.902196
 20
-147.262486
 30
0.0
 11
202.902196
 21
-158.762486
 31
0.0
  0
ARC
  5
3C6
100
AcDbEntity
  8
0
370
    -3
  6
Continuous
100
AcDbCircle
 10
205.902196
 20
-158.262486
 30
0.0
 40
3.0
100
AcDbArc
 50
90.0
 51
180.0
  0
LINE
  5
3C7
100
AcDbEntity
  8
0
370
    -3
  6
Continuous
100
AcDbLine
 10
217.901245
 20
-155.262486
 30
0.0
 11
205.902196
 21
-155.262486
 31
0.0
  0
LINE
  5
3C8
100
AcDbEntity
  8
0
370
    -3
  6
Continuous
100
AcDbLine
 10
129.902196
 20
-64.762486
 30
0.0
 11
129.902196
 21
-12.262486
 31
0.0
  0
LINE
  5
3C9
100
AcDbEntity
  8
0
370
    -3
  6
Continuous
100
AcDbLine
 10
129.902196
 20
-12.262486
 30
0.0
 11
129.902196
 21
-117.262486
 31
0.0
  0
LINE
  5
3CA
100
AcDbEntity
  8
0
370
    -3
  6
Continuous
100
AcDbLine
 10
196.402196
 20
-89.262486
 30
0.0
 11
196.402196
 21
-160.762486
 31
0.0
  0
LINE
  5
3CB
100
AcDbEntity
  8
0
370
    -3
  6
Continuous
100
AcDbLine
 10
196.402196
 20
-89.262486
 30
0.0
 11
196.402196
 21
-17.762486
 31
0.0
  0
LINE
  5
3CC
100
AcDbEntity
  8
0
370
    -3
  6
Continuous
100
AcDbLine
 10
196.402196
 20
-89.262486
 30
0.0
 11
196.402196
 21
-159.262486
 31
0.0
  0
LINE
  5
3CD
100
AcDbEntity
  8
0
370
    -3
  6
Continuous
100
AcDbLine
 10
196.402196
 20
-89.262486
 30
0.0
 11
196.402196
 21
-17.762486
 31
0.0
  0
LINE
  5
3CE
100
AcDbEntity
  8
0
370
    -3
  6
Continuous
100
AcDbLine
 10
129.902212
 20
-64.762489
 30
0.0
 11
129.902212
 21
-117.262489
 31
0.0
  0
LINE
  5
3CF
100
AcDbEntity
  8
0
370
    -3
  6
Continuous
100
AcDbLine
 10
129.902212
 20
-117.262489
 30
0.0
 11
129.902212
 21
-12.262489
 31
0.0
  0
ARC
  5
3D0
100
AcDbEntity
  8
0
370
    -3
  6
Continuous
100
AcDbCircle
 10
183.402196
 20
-56.762486
 30
0.0
 40
3.0
100
AcDbArc
 50
270.0
 51
0.0
  0
LINE
  5
3D1
100
AcDbEntity
  8
0
370
    -3
  6
Continuous
100
AcDbLine
 10
183.402196
 20
-59.762486
 30
0.0
 11
149.402181
 21
-59.762486
 31
0.0
  0
ARC
  5
3D2
100
AcDbEntity
  8
0
370
    -3
  6
Continuous
100
AcDbCircle
 10
149.402181
 20
-56.762486
 30
0.0
 40
3.0
100
AcDbArc
 50
180.0
 51
270.0
  0
ARC
  5
3D3
100
AcDbEntity
  8
0
370
    -3
  6
Continuous
100
AcDbCircle
 10
143.402181
 20
-47.762486
 30
0.0
 40
3.0
100
AcDbArc
 50
0.0
 51
90.0
  0
LINE
  5
3D4
100
AcDbEntity
  8
0
370
    -3
  6
Continuous
100
AcDbLine
 10
143.402181
 20
-44.762486
 30
0.0
 11
129.902181
 21
-44.762486
 31
0.0
  0
LINE
  5
3D5
100
AcDbEntity
  8
0
370
    -3
  6
Continuous
100
AcDbLine
 10
183.402196
 20
-84.762486
 30
0.0
 11
129.902181
 21
-84.762486
 31
0.0
  0
ARC
  5
3D6
100
AcDbEntity
  8
0
370
    -3
  6
Continuous
100
AcDbCircle
 10
183.402196
 20
-87.762486
 30
0.0
 40
3.0
100
AcDbArc
 50
0.0
 51
90.0
  0
LINE
  5
3D7
100
AcDbEntity
  8
0
370
    -3
  6
Continuous
100
AcDbLine
 10
196.402196
 20
-17.762486
 30
0.0
 11
180.746977
 21
-17.762486
 31
0.0
  0
ARC
  5
3D8
100
AcDbEntity
  8
0
370
    -3
  6
Continuous
100
AcDbCircle
 10
148.239578
 20
-15.762486
 30
0.0
 40
2.0
100
AcDbArc
 50
192.373625
 51
270.0
  0
LINE
  5
3D9
100
AcDbEntity
  8
0
370
    -3
  6
Continuous
100
AcDbLine
 10
196.402196
 20
-160.762486
 30
0.0
 11
189.402196
 21
-160.762486
 31
0.0
  0
LINE
  5
3DA
100
AcDbEntity
  8
0
370
    -3
  6
Continuous
100
AcDbLine
 10
185.732323
 20
-149.325953
 30
0.0
 11
170.315952
 21
-122.624014
 31
0.0
  0
ARC
  5
3DB
100
AcDbEntity
  8
0
370
    -3
  6
Continuous
100
AcDbCircle
 10
181.402196
 20
-151.825953
 30
0.0
 40
5.0
100
AcDbArc
 50
0.0
 51
30.0
  0
ARC
  5
3DC
100
AcDbEntity
  8
0
370
    -3
  6
Continuous
100
AcDbCircle
 10
165.985825
 20
-125.124014
 30
0.0
 40
5.0
100
AcDbArc
 50
30.0
 51
88.0
  0
ARC
  5
3DD
100
AcDbEntity
  8
0
370
    -3
  6
Continuous
100
AcDbCircle
 10
189.402196
 20
-157.762486
 30
0.0
 40
3.0
100
AcDbArc
 50
180.0
 51
270.0
  0
POINT
  5
3DE
100
AcDbEntity
  8
0
370
    -3
  6
Continuous
100
AcDbPoint
 10
186.402196
 20
-155.762486
 30
0.0
  0
LINE
  5
3DF
100
AcDbEntity
  8
0
370
    -3
  6
Continuous
100
AcDbLine
 10
186.402196
 20
-155.762486
 30
0.0
 11
186.402196
 21
-154.794219
 31
0.0
  0
LINE
  5
3E0
100
AcDbEntity
  8
0
370
    -3
  6
Continuous
100
AcDbLine
 10
184.573208
 20
-154.26936
 30
0.0
 11
140.572394
 21
-118.348541
 31
0.0
  0
ARC
  5
3E1
100
AcDbEntity
  8
0
370
    -3
  6
Continuous
100
AcDbCircle
 10
181.411231
 20
-158.142589
 30
0.0
 40
5.0
100
AcDbArc
 50
2.723313
 51
50.772929
  0
ARC
  5
3E2
100
AcDbEntity
  8
0
370
    -3
  6
Continuous
100
AcDbCircle
 10
184.402196
 20
-26.512486
 30
0.0
 40
2.0
100
AcDbArc
 50
270.0
 51
0.0
  0
LINE
  5
3E3
100
AcDbEntity
  8
0
370
    -3
  6
Continuous
100
AcDbLine
 10
184.402196
 20
-28.512486
 30
0.0
 11
148.402181
 21
-28.512486
 31
0.0
  0
ARC
  5
3E4
100
AcDbEntity
  8
0
370
    -3
  6
Continuous
100
AcDbCircle
 10
148.402181
 20
-26.512486
 30
0.0
 40
2.0
100
AcDbArc
 50
180.0
 51
270.0
  0
LINE
  5
3E5
100
AcDbEntity
  8
0
370
    -3
  6
Continuous
100
AcDbLine
 10
196.402196
 20
-17.762486
 30
0.0
 11
148.239578
 21
-17.762486
 31
0.0
  0
ARC
  5
3E6
100
AcDbEntity
  8
0
370
    -3
  6
DASHED
100
AcDbCircle
 10
189.402196
 20
-20.762486
 30
0.0
 40
3.0
100
AcDbArc
 50
90.0
 51
180.0
  0
LINE
  5
3E7
100
AcDbEntity
  8
0
370
    -3
  6
Continuous
100
AcDbLine
 10
186.402196
 20
-20.762486
 30
0.0
 11
186.402196
 21
-89.262486
 31
0.0
  0
ARC
  5
3E8
100
AcDbEntity
  8
0
370
    -3
  6
Continuous
100
AcDbCircle
 10
141.402181
 20
-17.262486
 30
0.0
 40
5.0
100
AcDbArc
 50
0.0
 51
90.0
  0
LINE
  5
3E9
100
AcDbEntity
  8
0
370
    -3
  6
Continuous
100
AcDbLine
 10
138.454538
 20
-117.420495
 30
0.0
 11
129.902196
 21
-117.271214
 31
0.0
  0
LINE
  5
3EA
100
AcDbEntity
  8
0
370
    -3
  6
Continuous
100
AcDbLine
 10
141.402181
 20
-12.262486
 30
0.0
 11
129.902181
 21
-12.262486
 31
0.0
  0
LINE
  5
3EB
100
AcDbEntity
  8
0
370
    -3
  6
Continuous
100
AcDbLine
 10
196.402196
 20
-17.762486
 30
0.0
 11
196.402196
 21
-160.762486
 31
0.0
  0
ARC
  5
3EC
100
AcDbEntity
  8
0
370
    -3
  6
Continuous
100
AcDbCircle
 10
138.402181
 20
-120.420039
 30
0.0
 40
3.0
100
AcDbArc
 50
43.255879
 51
89.0
  0
ARC
  5
3ED
100
AcDbEntity
  8
0
370
    -3
  6
Continuous
100
AcDbCircle
 10
142.771985
 20
-116.308492
 30
0.0
 40
3.0
100
AcDbArc
 50
223.255879
 51
268.0
  0
LINE
  5
3EE
100
AcDbEntity
  8
0
370
    -3
  6
Continuous
100
AcDbLine
 10
129.902181
 20
-12.262486
 30
0.0
 11
129.902181
 21
-64.762486
 31
0.0
  0
LINE
  5
3EF
100
AcDbEntity
  8
0
370
    -3
  6
Continuous
100
AcDbLine
 10
129.902196
 20
-117.271214
 30
0.0
 11
129.902196
 21
-64.762486
 31
0.0
  0
LINE
  5
3F0
100
AcDbEntity
  8
0
370
    -3
  6
Continuous
100
AcDbLine
 10
186.402196
 20
-89.262486
 30
0.0
 11
186.402196
 21
-157.762486
 31
0.0
  0
LINE
  5
3F1
100
AcDbEntity
  8
0
370
    -3
  6
Continuous
100
AcDbLine
 10
166.160322
 20
-120.12706
 30
0.0
 11
142.667287
 21
-119.306665
 31
0.0
  0
LINE
  5
3F2
100
AcDbEntity
  8
0
370
    -3
  6
Continuous
100
AcDbLine
 10
146.402181
 20
-17.262486
 30
0.0
 11
146.402181
 21
-56.762486
 31
0.0
  0
LINE
  5
3F3
100
AcDbEntity
  8
0
370
    -3
  6
CENTER
100
AcDbLine
 10
143.360175
 20
-64.762489
 30
0.0
 11
-17.784864
 21
-64.762489
 31
0.0
  0
CIRCLE
  5
3F4
100
AcDbEntity
  8
0
370
    -3
  6
Continuous
100
AcDbCircle
 10
719.400561
 20
49.737514
 30
0.0
 40
10.0
  0
LINE
  5
3F5
100
AcDbEntity
  8
0
370
    -3
  6
CENTER
100
AcDbLine
 10
704.461508
 20
49.737514
 30
0.0
 11
733.446985
 21
49.737514
 31
0.0
  0
LINE
  5
3F6
100
AcDbEntity
  8
0
370
    -3
  6
Continuous
100
AcDbLine
 10
739.900561
 20
36.53899
 30
0.0
 11
739.900561
 21
59.737514
 31
0.0
  0
ARC
  5
3F7
100
AcDbEntity
  8
0
370
    -3
  6
Continuous
100
AcDbCircle
 10
729.900561
 20
59.737514
 30
0.0
 40
10.0
100
AcDbArc
 50
0.0
 51
90.0
  0
LINE
  5
3F8
100
AcDbEntity
  8
0
370
    -3
  6
Continuous
100
AcDbLine
 10
708.900561
 20
69.737514
 30
0.0
 11
729.900561
 21
69.737514
 31
0.0
  0
ARC
  5
3F9
100
AcDbEntity
  8
0
370
    -3
  6
Continuous
100
AcDbCircle
 10
708.900561
 20
59.737514
 30
0.0
 40
10.0
100
AcDbArc
 50
90.0
 51
180.0
  0
LINE
  5
3FA
100
AcDbEntity
  8
0
370
    -3
  6
Continuous
100
AcDbLine
 10
698.900561
 20
37.254647
 30
0.0
 11
698.900561
 21
59.737514
 31
0.0
  0
INSERT
  5
406
100
AcDbEntity
  8
0
100
AcDbBlockReference
  2
ZU_SYM__USERS_HOME_SYMBOL_POO_SYM_B20_-1
 10
216.401245
 20
24.737514
 30
0.0
  0
LINE
  5
407
100
AcDbEntity
  8
0
370
    -3
  6
Continuous
100
AcDbLine
 10
216.401245
 20
14.737514
 30
0.0
 11
220.901245
 21
14.737514
 31
0.0
  0
LINE
  5
408
100
AcDbEntity
  8
0
370
    -3
  6
CENTER
100
AcDbLine
 10
206.692569
 20
24.737514
 30
0.0
 11
226.992291
 21
24.737514
 31
0.0
  0
LINE
  5
409
100
AcDbEntity
  8
0
370
    -3
  6
Continuous
100
AcDbLine
 10
220.901245
 20
69.737514
 30
0.0
 11
220.901245
 21
14.737514
 31
0.0
  0
LINE
  5
40A
100
AcDbEntity
  8
0
370
    -3
  6
Continuous
100
AcDbLine
 10
216.401245
 20
69.737514
 30
0.0
 11
216.401245
 21
14.737514
 31
0.0
  0
LINE
  5
40B
100
AcDbEntity
  8
0
370
    -3
  6
DASHED
100
AcDbLine
 10
216.401245
 20
39.737514
 30
0.0
 11
220.901245
 21
39.737514
 31
0.0
  0
LINE
  5
40C
100
AcDbEntity
  8
0
370
    -3
  6
DASHED
100
AcDbLine
 10
216.401245
 20
59.737514
 30
0.0
 11
220.901245
 21
59.737514
 31
0.0
  0
LINE
  5
40D
100
AcDbEntity
  8
0
370
    -3
  6
CENTER
100
AcDbLine
 10
212.620222
 20
49.737514
 30
0.0
 11
225.421876
 21
49.737514
 31
0.0
  0
LINE
  5
40E
100
AcDbEntity
  8
0
370
    -3
  6
Continuous
100
AcDbLine
 10
216.401245
 20
69.737514
 30
0.0
 11
220.901245
 21
69.737514
 31
0.0
  0
LINE
  5
40F
100
AcDbEntity
  8
0
370
    -3
  6
CENTER
100
AcDbLine
 10
481.760661
 20
-23.55471
 30
0.0
 11
481.760661
 21
-73.55471
 31
0.0
  0
LINE
  5
410
100
AcDbEntity
  8
0
370
    -3
  6
CENTER
100
AcDbLine
 10
505.160016
 20
-50.08206
 30
0.0
 11
457.410016
 21
-50.08206
 31
0.0
  0
LINE
  5
411
100
AcDbEntity
  8
0
370
    -3
  6
Continuous
100
AcDbLine
 10
487.760661
 20
-27.08206
 30
0.0
 11
487.760661
 21
-35.08206
 31
0.0
  0
LINE
  5
412
100
AcDbEntity
  8
0
370
    -3
  6
Continuous
100
AcDbLine
 10
487.760661
 20
-27.08206
 30
0.0
 11
475.760661
 21
-27.08206
 31
0.0
  0
LINE
  5
413
100
AcDbEntity
  8
0
370
    -3
  6
Continuous
100
AcDbLine
 10
475.760661
 20
-27.08206
 30
0.0
 11
475.760661
 21
-35.08206
 31
0.0
  0
LINE
  5
414
100
AcDbEntity
  8
0
370
    -3
  6
Continuous
100
AcDbLine
 10
487.760661
 20
-35.08206
 30
0.0
 11
475.760661
 21
-35.08206
 31
0.0
  0
LINE
  5
415
100
AcDbEntity
  8
0
370
    -3
  6
CENTER
100
AcDbLine
 10
389.191113
 20
-50.08206
 30
0.0
 11
226.011245
 21
-50.08206
 31
0.0
  0
LINE
  5
416
100
AcDbEntity
  8
0
370
    -3
  6
CENTER
100
AcDbLine
 10
308.401245
 20
43.07029
 30
0.0
 11
308.401245
 21
-226.92971
 31
0.0
  0
CIRCLE
  5
417
100
AcDbEntity
  8
0
370
    -3
  6
Continuous
100
AcDbCircle
 10
481.760661
 20
-50.08206
 30
0.0
 40
3.5
  0
CIRCLE
  5
418
100
AcDbEntity
  8
0
370
    -3
  6
Continuous
100
AcDbCircle
 10
481.760661
 20
-50.08206
 30
0.0
 40
4.0
  0
ARC
  5
419
100
AcDbEntity
  8
0
370
    -3
  6
Continuous
100
AcDbCircle
 10
481.760661
 20
-50.08206
 30
0.0
 40
20.0
100
AcDbArc
 50
107.457603
 51
72.542397
  0
LINE
  5
41A
100
AcDbEntity
  8
0
370
    -3
  6
CENTER
100
AcDbLine
 10
546.513138
 20
-50.08206
 30
0.0
 11
827.804545
 21
-50.08206
 31
0.0
  0
LINE
  5
41B
100
AcDbEntity
  8
0
370
    -3
  6
CENTER
100
AcDbLine
 10
719.400561
 20
77.232052
 30
0.0
 11
719.400561
 21
-232.590393
 31
0.0
  0
POINT
  5
41C
100
AcDbEntity
  8
0
370
    -3
  6
DASHED
100
AcDbPoint
 10
481.760661
 20
-29.968363
 30
0.0
  0
LINE
  5
41D
100
AcDbEntity
  8
0
370
    -3
  6
Continuous
100
AcDbLine
 10
411.401245
 20
-187.08206
 30
0.0
 11
411.401245
 21
2.91794
 31
0.0
  0
ARC
  5
41E
100
AcDbEntity
  8
0
370
    -3
  6
Continuous
100
AcDbCircle
 10
399.401245
 20
-187.08206
 30
0.0
 40
12.0
100
AcDbArc
 50
270.0
 51
0.0
  0
CIRCLE
  5
41F
100
AcDbEntity
  8
0
370
    -3
  6
Continuous
100
AcDbCircle
 10
242.900844
 20
-181.082051
 30
0.0
 40
7.0
  0
CIRCLE
  5
420
100
AcDbEntity
  8
0
370
    -3
  6
Continuous
100
AcDbCircle
 10
242.900844
 20
-181.082051
 30
0.0
 40
4.4
  0
CIRCLE
  5
421
100
AcDbEntity
  8
0
370
    -3
  6
Continuous
100
AcDbCircle
 10
389.401646
 20
-181.082051
 30
0.0
 40
4.4
  0
CIRCLE
  5
422
100
AcDbEntity
  8
0
370
    -3
  6
Continuous
100
AcDbCircle
 10
389.401646
 20
-181.082051
 30
0.0
 40
7.0
  0
LINE
  5
423
100
AcDbEntity
  8
0
370
    -3
  6
CENTER
100
AcDbLine
 10
259.145127
 20
14.917912
 30
0.0
 11
235.359529
 21
14.917912
 31
0.0
  0
LINE
  5
424
100
AcDbEntity
  8
0
370
    -3
  6
Continuous
100
AcDbLine
 10
241.723734
 20
34.917912
 30
0.0
 11
220.901245
 21
34.917912
 31
0.0
  0
ARC
  5
425
100
AcDbEntity
  8
0
370
    -3
  6
Continuous
100
AcDbCircle
 10
217.901245
 20
-158.262486
 30
0.0
 40
3.0
100
AcDbArc
 50
0.0
 51
90.0
  0
LINE
  5
426
100
AcDbEntity
  8
0
370
    -3
  6
CENTER
100
AcDbLine
 10
238.401245
 20
-224.886904
 30
0.0
 11
238.401245
 21
-192.112426
 31
0.0
  0
LINE
  5
427
100
AcDbEntity
  8
0
370
    -3
  6
CENTER
100
AcDbLine
 10
394.401245
 20
-228.248389
 30
0.0
 11
394.401245
 21
-191.272055
 31
0.0
  0
ARC
  5
428
100
AcDbEntity
  8
0
370
    -3
  6
Continuous
100
AcDbCircle
 10
214.402196
 20
-139.262486
 30
0.0
 40
5.0
100
AcDbArc
 50
270.0
 51
0.0
  0
LINE
  5
429
100
AcDbEntity
  8
0
370
    -3
  6
Continuous
100
AcDbLine
 10
411.401245
 20
-220.08206
 30
0.0
 11
220.901245
 21
-220.08206
 31
0.0
  0
LINE
  5
42A
100
AcDbEntity
  8
0
370
    -3
  6
DASHED
100
AcDbLine
 10
231.151244
 20
-219.782124
 30
0.0
 11
230.847478
 21
-220.08206
 31
0.0
  0
LINE
  5
42B
100
AcDbEntity
  8
0
370
    -3
  6
Continuous
100
AcDbLine
 10
220.901245
 20
-220.08206
 30
0.0
 11
220.901245
 21
-187.08206
 31
0.0
  0
LINE
  5
42C
100
AcDbEntity
  8
0
370
    -3
  6
Continuous
100
AcDbLine
 10
411.401245
 20
-220.08206
 30
0.0
 11
411.401245
 21
-187.08206
 31
0.0
  0
ARC
  5
42D
100
AcDbEntity
  8
0
370
    -3
  6
Continuous
100
AcDbCircle
 10
214.402196
 20
-130.992155
 30
0.0
 40
5.0
100
AcDbArc
 50
270.0
 51
0.0
  0
ARC
  5
42E
100
AcDbEntity
  8
0
370
    -3
  6
Continuous
100
AcDbCircle
 10
214.402196
 20
-47.532817
 30
0.0
 40
5.0
100
AcDbArc
 50
0.0
 51
90.0
  0
ARC
  5
42F
100
AcDbEntity
  8
0
370
    -3
  6
Continuous
100
AcDbCircle
 10
214.402196
 20
-39.262486
 30
0.0
 40
5.0
100
AcDbArc
 50
0.0
 51
90.0
  0
LINE
  5
430
100
AcDbEntity
  8
0
370
    -3
  6
Continuous
100
AcDbLine
 10
220.901245
 20
2.91794
 30
0.0
 11
220.901245
 21
34.917912
 31
0.0
  0
CIRCLE
  5
431
100
AcDbEntity
  8
0
370
    -3
  6
Continuous
100
AcDbCircle
 10
381.401431
 20
14.917912
 30
0.0
 40
4.4
  0
ARC
  5
432
100
AcDbEntity
  8
0
370
    -3
  6
Continuous
100
AcDbCircle
 10
217.901245
 20
-20.262486
 30
0.0
 40
3.0
100
AcDbArc
 50
270.0
 51
0.0
  0
CIRCLE
  5
433
100
AcDbEntity
  8
0
370
    -3
  6
Continuous
100
AcDbCircle
 10
381.401431
 20
14.917912
 30
0.0
 40
7.0
  0
LINE
  5
434
100
AcDbEntity
  8
0
370
    -3
  6
CENTER
100
AcDbLine
 10
395.401431
 20
14.917912
 30
0.0
 11
365.388812
 21
14.917912
 31
0.0
  0
LINE
  5
435
100
AcDbEntity
  8
0
370
    -3
  6
CENTER
100
AcDbLine
 10
247.401059
 20
26.531818
 30
0.0
 11
247.401059
 21
0.917912
 31
0.0
  0
LINE
  5
436
100
AcDbEntity
  8
0
370
    -3
  6
CENTER
100
AcDbLine
 10
381.401431
 20
28.917912
 30
0.0
 11
381.401431
 21
0.917912
 31
0.0
  0
ARC
  5
437
100
AcDbEntity
  8
0
370
    -3
  6
Continuous
100
AcDbCircle
 10
255.901245
 20
2.91794
 30
0.0
 40
35.0
100
AcDbArc
 50
90.0
 51
180.0
  0
CIRCLE
  5
438
100
AcDbEntity
  8
0
370
    -3
  6
Continuous
100
AcDbCircle
 10
247.401059
 20
14.917912
 30
0.0
 40
4.4
  0
LINE
  5
439
100
AcDbEntity
  8
0
370
    -3
  6
CENTER
100
AcDbLine
 10
389.401646
 20
-168.316588
 30
0.0
 11
389.401646
 21
-195.082051
 31
0.0
  0
LINE
  5
43A
100
AcDbEntity
  8
0
370
    -3
  6
Continuous
100
AcDbLine
 10
376.401245
 20
37.91794
 30
0.0
 11
255.901245
 21
37.91794
 31
0.0
  0
ARC
  5
43B
100
AcDbEntity
  8
0
370
    -3
  6
Continuous
100
AcDbCircle
 10
376.401245
 20
2.91794
 30
0.0
 40
35.0
100
AcDbArc
 50
0.0
 51
90.0
  0
LINE
  5
43C
100
AcDbEntity
  8
0
370
    -3
  6
CENTER
100
AcDbLine
 10
242.900844
 20
-170.100543
 30
0.0
 11
242.900844
 21
-195.082051
 31
0.0
  0
LINE
  5
43D
100
AcDbEntity
  8
0
370
    -3
  6
CENTER
100
AcDbLine
 10
401.145714
 20
-181.082051
 30
0.0
 11
373.969722
 21
-181.082051
 31
0.0
  0
LINE
  5
43E
100
AcDbEntity
  8
0
370
    -3
  6
Continuous
100
AcDbLine
 10
380.401245
 20
-50.08206
 30
0.0
 11
380.401245
 21
-140.08206
 31
0.0
  0
CIRCLE
  5
43F
100
AcDbEntity
  8
0
370
    -3
  6
Continuous
100
AcDbCircle
 10
247.401059
 20
14.917912
 30
0.0
 40
7.0
  0
CIRCLE
  5
440
100
AcDbEntity
  8
0
370
    -3
  6
Continuous
100
AcDbCircle
 10
308.401245
 20
-50.08206
 30
0.0
 40
34.5
  0
CIRCLE
  5
441
100
AcDbEntity
  8
0
370
    -3
  6
Continuous
100
AcDbCircle
 10
308.401245
 20
-50.08206
 30
0.0
 40
31.5
  0
CIRCLE
  5
442
100
AcDbEntity
  8
0
370
    -3
  6
Continuous
100
AcDbCircle
 10
308.401245
 20
-50.08206
 30
0.0
 40
27.2
  0
CIRCLE
  5
443
100
AcDbEntity
  8
0
370
    -3
  6
Continuous
100
AcDbCircle
 10
308.401245
 20
-50.08206
 30
0.0
 40
50.0
  0
CIRCLE
  5
444
100
AcDbEntity
  8
0
370
    -3
  6
Continuous
100
AcDbCircle
 10
308.401245
 20
-50.08206
 30
0.0
 40
55.377973
  0
ARC
  5
445
100
AcDbEntity
  8
0
370
    -3
  6
Continuous
100
AcDbCircle
 10
308.401245
 20
-50.08206
 30
0.0
 40
72.0
100
AcDbArc
 50
0.0
 51
180.0
  0
LINE
  5
446
100
AcDbEntity
  8
0
370
    -3
  6
Continuous
100
AcDbLine
 10
236.401245
 20
-50.08206
 30
0.0
 11
236.401245
 21
-140.08206
 31
0.0
  0
ARC
  5
447
100
AcDbEntity
  8
0
370
    -3
  6
Continuous
100
AcDbCircle
 10
276.401245
 20
-140.08206
 30
0.0
 40
40.0
100
AcDbArc
 50
180.0
 51
270.0
  0
ARC
  5
448
100
AcDbEntity
  8
0
370
    -3
  6
Continuous
100
AcDbCircle
 10
340.401245
 20
-140.08206
 30
0.0
 40
40.0
100
AcDbArc
 50
270.0
 51
0.0
  0
LINE
  5
449
100
AcDbEntity
  8
0
370
    -3
  6
Continuous
100
AcDbLine
 10
276.401245
 20
-180.08206
 30
0.0
 11
340.401245
 21
-180.08206
 31
0.0
  0
LINE
  5
44A
100
AcDbEntity
  8
0
370
    -3
  6
Continuous
100
AcDbLine
 10
232.901245
 20
-199.08206
 30
0.0
 11
399.401245
 21
-199.08206
 31
0.0
  0
ARC
  5
44B
100
AcDbEntity
  8
0
370
    -3
  6
Continuous
100
AcDbCircle
 10
232.901245
 20
-187.08206
 30
0.0
 40
12.0
100
AcDbArc
 50
180.0
 51
270.0
  0
LINE
  5
44C
100
AcDbEntity
  8
0
370
    -3
  6
Continuous
100
AcDbLine
 10
220.901245
 20
-187.08206
 30
0.0
 11
220.901245
 21
2.91794
 31
0.0
  0
LINE
  5
44D
100
AcDbEntity
  8
0
370
    -3
  6
CENTER
100
AcDbLine
 10
254.644912
 20
-181.082051
 30
0.0
 11
230.674227
 21
-181.082051
 31
0.0
  0
CIRCLE
  5
44E
100
AcDbEntity
  8
0
370
    -3
  6
Continuous
100
AcDbCircle
 10
308.401245
 20
-50.08206
 30
0.0
 40
4.0
  0
CIRCLE
  5
44F
100
AcDbEntity
  8
0
370
    -3
  6
Continuous
100
AcDbCircle
 10
308.401245
 20
-50.08206
 30
0.0
 40
3.5
  0
ARC
  5
450
100
AcDbEntity
  8
0
370
    -3
  6
Continuous
100
AcDbCircle
 10
308.401245
 20
-50.08206
 30
0.0
 40
20.0
100
AcDbArc
 50
107.457603
 51
72.542397
  0
LINE
  5
451
100
AcDbEntity
  8
0
370
    -3
  6
Continuous
100
AcDbLine
 10
314.401245
 20
-35.08206
 30
0.0
 11
302.401245
 21
-35.08206
 31
0.0
  0
LINE
  5
452
100
AcDbEntity
  8
0
370
    -3
  6
Continuous
100
AcDbLine
 10
314.401245
 20
-27.08206
 30
0.0
 11
314.401245
 21
-35.08206
 31
0.0
  0
LINE
  5
453
100
AcDbEntity
  8
0
370
    -3
  6
Continuous
100
AcDbLine
 10
302.401245
 20
-27.08206
 30
0.0
 11
302.401245
 21
-35.08206
 31
0.0
  0
LINE
  5
454
100
AcDbEntity
  8
0
370
    -3
  6
Continuous
100
AcDbLine
 10
314.401245
 20
-27.08206
 30
0.0
 11
302.401245
 21
-27.08206
 31
0.0
  0
POINT
  5
455
100
AcDbEntity
  8
0
370
    -3
  6
DASHED
100
AcDbPoint
 10
308.401245
 20
-29.968363
 30
0.0
  0
LINE
  5
456
100
AcDbEntity
  8
0
370
    -3
  6
Continuous
100
AcDbLine
 10
551.400561
 20
-70.08206
 30
0.0
 11
551.400561
 21
-27.08206
 31
0.0
  0
LINE
  5
457
100
AcDbEntity
  8
0
370
    -3
  6
Continuous
100
AcDbLine
 10
621.400561
 20
-2.599359
 30
0.0
 11
621.400561
 21
-50.08206
 31
0.0
  0
ARC
  5
458
100
AcDbEntity
  8
0
370
    -3
  6
Continuous
100
AcDbCircle
 10
624.400561
 20
-2.599359
 30
0.0
 40
3.0
100
AcDbArc
 50
100.0
 51
180.0
  0
LINE
  5
459
100
AcDbEntity
  8
0
370
    -3
  6
Continuous
100
AcDbLine
 10
619.800561
 20
-18.58206
 30
0.0
 11
621.400561
 21
-18.58206
 31
0.0
  0
LINE
  5
45A
100
AcDbEntity
  8
0
370
    -3
  6
Continuous
100
AcDbLine
 10
621.400561
 20
-97.564761
 30
0.0
 11
621.400561
 21
-50.08206
 31
0.0
  0
ARC
  5
45B
100
AcDbEntity
  8
0
370
    -3
  6
Continuous
100
AcDbCircle
 10
624.400561
 20
-97.564761
 30
0.0
 40
3.0
100
AcDbArc
 50
180.0
 51
260.0
  0
LINE
  5
45C
100
AcDbEntity
  8
0
370
    -3
  6
Continuous
100
AcDbLine
 10
619.800561
 20
-81.58206
 30
0.0
 11
621.400561
 21
-81.58206
 31
0.0
  0
LINE
  5
45D
100
AcDbEntity
  8
0
370
    -3
  6
Continuous
100
AcDbLine
 10
619.400561
 20
-18.98206
 30
0.0
 11
619.400561
 21
-50.08206
 31
0.0
  0
LINE
  5
45E
100
AcDbEntity
  8
0
370
    -3
  6
Continuous
100
AcDbLine
 10
619.800561
 20
-18.58206
 30
0.0
 11
619.400561
 21
-18.98206
 31
0.0
  0
LINE
  5
45F
100
AcDbEntity
  8
0
370
    -3
  6
Continuous
100
AcDbLine
 10
619.800561
 20
-81.58206
 30
0.0
 11
619.400561
 21
-81.18206
 31
0.0
  0
LINE
  5
460
100
AcDbEntity
  8
0
370
    -3
  6
Continuous
100
AcDbLine
 10
619.400561
 20
-81.18206
 30
0.0
 11
619.400561
 21
-50.08206
 31
0.0
  0
LINE
  5
461
100
AcDbEntity
  8
0
370
    -3
  6
Continuous
100
AcDbLine
 10
623.879617
 20
0.355064
 30
0.0
 11
647.421506
 21
4.417971
 31
0.0
  0
LINE
  5
462
100
AcDbEntity
  8
0
370
    -3
  6
Continuous
100
AcDbLine
 10
623.879617
 20
-100.519184
 30
0.0
 11
647.421506
 21
-104.582091
 31
0.0
  0
ARC
  5
463
100
AcDbEntity
  8
0
370
    -3
  6
Continuous
100
AcDbCircle
 10
650.900561
 20
-181.08206
 30
0.0
 40
1.0
100
AcDbArc
 50
0.0
 51
90.0
  0
ARC
  5
464
100
AcDbEntity
  8
0
370
    -3
  6
Continuous
100
AcDbCircle
 10
650.900561
 20
-179.08206
 30
0.0
 40
1.0
100
AcDbArc
 50
180.0
 51
270.0
  0
LINE
  5
465
100
AcDbEntity
  8
0
370
    -3
  6
Continuous
100
AcDbLine
 10
786.900561
 20
32.77051
 30
0.0
 11
786.900561
 21
-58.935106
 31
0.0
  0
LINE
  5
466
100
AcDbEntity
  8
0
370
    -3
  6
Continuous
100
AcDbLine
 10
788.900561
 20
20.91794
 30
0.0
 11
788.900561
 21
-63.850875
 31
0.0
  0
ARC
  5
467
100
AcDbEntity
  8
0
370
    -3
  6
Continuous
100
AcDbCircle
 10
787.900561
 20
22.91794
 30
0.0
 40
1.0
100
AcDbArc
 50
180.0
 51
270.0
  0
ARC
  5
468
100
AcDbEntity
  8
0
370
    -3
  6
Continuous
100
AcDbCircle
 10
787.900561
 20
20.91794
 30
0.0
 40
1.0
100
AcDbArc
 50
0.0
 51
90.0
  0
LINE
  5
469
100
AcDbEntity
  8
0
370
    -3
  6
Continuous
100
AcDbLine
 10
661.400561
 20
37.91794
 30
0.0
 11
661.400561
 21
-43.305985
 31
0.0
  0
LINE
  5
46A
100
AcDbEntity
  8
0
370
    -3
  6
Continuous
100
AcDbLine
 10
814.921506
 20
0.355064
 30
0.0
 11
791.379617
 21
4.506135
 31
0.0
  0
ARC
  5
46B
100
AcDbEntity
  8
0
370
    -3
  6
Continuous
100
AcDbCircle
 10
791.900561
 20
7.460558
 30
0.0
 40
3.0
100
AcDbArc
 50
180.0
 51
260.0
  0
LINE
  5
46C
100
AcDbEntity
  8
0
370
    -3
  6
Continuous
100
AcDbLine
 10
819.400561
 20
-18.78206
 30
0.0
 11
819.400561
 21
-50.08206
 31
0.0
  0
LINE
  5
46D
100
AcDbEntity
  8
0
370
    -3
  6
Continuous
100
AcDbLine
 10
817.400561
 20
-2.599359
 30
0.0
 11
817.400561
 21
-50.08206
 31
0.0
  0
LINE
  5
46E
100
AcDbEntity
  8
0
370
    -3
  6
Continuous
100
AcDbLine
 10
819.200561
 20
-18.58206
 30
0.0
 11
817.400561
 21
-18.58206
 31
0.0
  0
LINE
  5
46F
100
AcDbEntity
  8
0
370
    -3
  6
Continuous
100
AcDbLine
 10
819.400561
 20
-18.78206
 30
0.0
 11
819.200561
 21
-18.58206
 31
0.0
  0
ARC
  5
470
100
AcDbEntity
  8
0
370
    -3
  6
Continuous
100
AcDbCircle
 10
814.400561
 20
-2.599359
 30
0.0
 40
3.0
100
AcDbArc
 50
0.0
 51
80.0
  0
LINE
  5
471
100
AcDbEntity
  8
0
370
    -3
  6
Continuous
100
AcDbLine
 10
819.200561
 20
-81.58206
 30
0.0
 11
817.400561
 21
-81.58206
 31
0.0
  0
LINE
  5
472
100
AcDbEntity
  8
0
370
    -3
  6
Continuous
100
AcDbLine
 10
817.400561
 20
-97.564761
 30
0.0
 11
817.400561
 21
-50.08206
 31
0.0
  0
LINE
  5
473
100
AcDbEntity
  8
0
370
    -3
  6
Continuous
100
AcDbLine
 10
819.400561
 20
-81.38206
 30
0.0
 11
819.400561
 21
-50.08206
 31
0.0
  0
LINE
  5
474
100
AcDbEntity
  8
0
370
    -3
  6
Continuous
100
AcDbLine
 10
819.400561
 20
-81.38206
 30
0.0
 11
819.200561
 21
-81.58206
 31
0.0
  0
LINE
  5
475
100
AcDbEntity
  8
0
370
    -3
  6
Continuous
100
AcDbLine
 10
814.921506
 20
-100.519184
 30
0.0
 11
791.379617
 21
-104.670255
 31
0.0
  0
ARC
  5
476
100
AcDbEntity
  8
0
370
    -3
  6
Continuous
100
AcDbCircle
 10
814.400561
 20
-97.564761
 30
0.0
 40
3.0
100
AcDbArc
 50
280.0
 51
0.0
  0
ARC
  5
477
100
AcDbEntity
  8
0
370
    -3
  6
Continuous
100
AcDbCircle
 10
787.900561
 20
-181.08206
 30
0.0
 40
1.0
100
AcDbArc
 50
90.0
 51
180.0
  0
ARC
  5
478
100
AcDbEntity
  8
0
370
    -3
  6
Continuous
100
AcDbCircle
 10
787.900561
 20
-179.08206
 30
0.0
 40
1.0
100
AcDbArc
 50
270.0
 51
0.0
  0
LINE
  5
479
100
AcDbEntity
  8
0
370
    -3
  6
Continuous
100
AcDbLine
 10
788.900561
 20
-114.674098
 30
0.0
 11
788.900561
 21
-179.08206
 31
0.0
  0
ARC
  5
47A
100
AcDbEntity
  8
0
370
    -3
  6
Continuous
100
AcDbCircle
 10
719.400561
 20
-89.262486
 30
0.0
 40
74.0
100
AcDbArc
 50
339.915834
 51
342.497476
  0
ARC
  5
47B
100
AcDbEntity
  8
0
370
    -3
  6
Continuous
100
AcDbCircle
 10
770.900561
 20
-105.502868
 30
0.0
 40
20.0
100
AcDbArc
 50
342.497476
 51
0.0
  0
LINE
  5
47C
100
AcDbEntity
  8
0
370
    -3
  6
Continuous
100
AcDbLine
 10
790.900561
 20
-104.796251
 30
0.0
 11
790.900561
 21
-105.502868
 31
0.0
  0
LINE
  5
47D
100
AcDbEntity
  8
0
370
    -3
  6
Continuous
100
AcDbLine
 10
786.900561
 20
-58.935106
 30
0.0
 11
786.900561
 21
-119.589867
 31
0.0
  0
ARC
  5
47E
100
AcDbEntity
  8
0
370
    -3
  6
Continuous
100
AcDbCircle
 10
791.900561
 20
-107.624678
 30
0.0
 40
3.0
100
AcDbArc
 50
109.471221
 51
180.0
  0
LINE
  5
47F
100
AcDbEntity
  8
0
370
    -3
  6
Continuous
100
AcDbLine
 10
788.900561
 20
-63.850875
 30
0.0
 11
788.900561
 21
-114.674098
 31
0.0
  0
ARC
  5
480
100
AcDbEntity
  8
0
370
    -3
  6
Continuous
100
AcDbCircle
 10
791.900561
 20
-107.624678
 30
0.0
 40
3.0
100
AcDbArc
 50
100.0
 51
109.471221
  0
ARC
  5
481
100
AcDbEntity
  8
0
370
    -3
  6
Continuous
100
AcDbCircle
 10
818.400561
 20
-201.08206
 30
0.0
 40
1.0
100
AcDbArc
 50
0.0
 51
90.0
  0
ARC
  5
482
100
AcDbEntity
  8
0
370
    -3
  6
Continuous
100
AcDbCircle
 10
789.900561
 20
-197.08206
 30
0.0
 40
3.0
100
AcDbArc
 50
180.0
 51
270.0
  0
LINE
  5
483
100
AcDbEntity
  8
0
370
    -3
  6
CENTER
100
AcDbLine
 10
804.400561
 20
-193.001826
 30
0.0
 11
804.400561
 21
-229.373459
 31
0.0
  0
LINE
  5
484
100
AcDbEntity
  8
0
370
    -3
  6
Continuous
100
AcDbLine
 10
619.400561
 20
-220.08206
 30
0.0
 11
819.400561
 21
-220.08206
 31
0.0
  0
LINE
  5
485
100
AcDbEntity
  8
0
370
    -3
  6
Continuous
100
AcDbLine
 10
819.400561
 20
-201.08206
 30
0.0
 11
819.400561
 21
-220.08206
 31
0.0
  0
LINE
  5
486
100
AcDbEntity
  8
0
370
    -3
  6
Continuous
100
AcDbLine
 10
789.900561
 20
-200.08206
 30
0.0
 11
818.400561
 21
-200.08206
 31
0.0
  0
ARC
  5
487
100
AcDbEntity
  8
0
370
    -3
  6
Continuous
100
AcDbCircle
 10
620.400561
 20
-201.08206
 30
0.0
 40
1.0
100
AcDbArc
 50
90.0
 51
180.0
  0
LINE
  5
488
100
AcDbEntity
  8
0
370
    -3
  6
Continuous
100
AcDbLine
 10
619.400561
 20
-201.08206
 30
0.0
 11
619.400561
 21
-220.08206
 31
0.0
  0
LINE
  5
489
100
AcDbEntity
  8
0
370
    -3
  6
Continuous
100
AcDbLine
 10
620.400561
 20
-200.08206
 30
0.0
 11
658.400561
 21
-200.08206
 31
0.0
  0
LINE
  5
48A
100
AcDbEntity
  8
0
370
    -3
  6
Continuous
100
AcDbLine
 10
661.400561
 20
-135.218987
 30
0.0
 11
661.400561
 21
-197.08206
 31
0.0
  0
ARC
  5
48B
100
AcDbEntity
  8
0
370
    -3
  6
Continuous
100
AcDbCircle
 10
658.400561
 20
-197.08206
 30
0.0
 40
3.0
100
AcDbArc
 50
270.0
 51
0.0
  0
LINE
  5
48C
100
AcDbEntity
  8
0
370
    -3
  6
Continuous
100
AcDbLine
 10
661.400561
 20
-43.944168
 30
0.0
 11
661.400561
 21
-134.580805
 31
0.0
  0
ARC
  5
48D
100
AcDbEntity
  8
0
370
    -3
  6
Continuous
100
AcDbCircle
 10
719.400561
 20
-89.262486
 30
0.0
 40
74.0
100
AcDbArc
 50
197.502524
 51
200.084166
  0
ARC
  5
48E
100
AcDbEntity
  8
0
370
    -3
  6
Continuous
100
AcDbCircle
 10
667.900561
 20
-105.502868
 30
0.0
 40
20.0
100
AcDbArc
 50
180.0
 51
197.502524
  0
LINE
  5
48F
100
AcDbEntity
  8
0
370
    -3
  6
Continuous
100
AcDbLine
 10
647.900561
 20
-104.708087
 30
0.0
 11
647.900561
 21
-105.502868
 31
0.0
  0
LINE
  5
490
100
AcDbEntity
  8
0
370
    -3
  6
Continuous
100
AcDbLine
 10
649.900561
 20
-50.08206
 30
0.0
 11
649.900561
 21
-179.08206
 31
0.0
  0
ARC
  5
491
100
AcDbEntity
  8
0
370
    -3
  6
Continuous
100
AcDbCircle
 10
646.900561
 20
-107.536514
 30
0.0
 40
3.0
100
AcDbArc
 50
0.0
 51
80.0
  0
LINE
  5
492
100
AcDbEntity
  8
0
370
    -3
  6
Continuous
100
AcDbLine
 10
653.900561
 20
-199.08206
 30
0.0
 11
660.636629
 21
-199.08206
 31
0.0
  0
ARC
  5
493
100
AcDbEntity
  8
0
370
    -3
  6
Continuous
100
AcDbCircle
 10
653.900561
 20
-197.08206
 30
0.0
 40
2.0
100
AcDbArc
 50
180.0
 51
270.0
  0
LINE
  5
494
100
AcDbEntity
  8
0
370
    -3
  6
Continuous
100
AcDbLine
 10
661.400561
 20
37.91794
 30
0.0
 11
661.400561
 21
-197.08206
 31
0.0
  0
LINE
  5
495
100
AcDbEntity
  8
0
370
    -3
  6
Continuous
100
AcDbLine
 10
651.900561
 20
35.786722
 30
0.0
 11
651.900561
 21
-50.08206
 31
0.0
  0
LINE
  5
496
100
AcDbEntity
  8
0
370
    -3
  6
Continuous
100
AcDbLine
 10
661.400561
 20
37.91794
 30
0.0
 11
653.865657
 21
37.786418
 31
0.0
  0
LINE
  5
497
100
AcDbEntity
  8
0
370
    -3
  6
Continuous
100
AcDbLine
 10
649.900561
 20
20.91794
 30
0.0
 11
649.900561
 21
-50.08206
 31
0.0
  0
ARC
  5
498
100
AcDbEntity
  8
0
370
    -3
  6
Continuous
100
AcDbCircle
 10
650.900561
 20
20.91794
 30
0.0
 40
1.0
100
AcDbArc
 50
90.0
 51
180.0
  0
ARC
  5
499
100
AcDbEntity
  8
0
370
    -3
  6
Continuous
100
AcDbCircle
 10
650.900561
 20
22.91794
 30
0.0
 40
1.0
100
AcDbArc
 50
270.0
 51
0.0
  0
ARC
  5
49A
100
AcDbEntity
  8
0
370
    -3
  6
Continuous
100
AcDbCircle
 10
653.900561
 20
35.786722
 30
0.0
 40
2.0
100
AcDbArc
 50
91.0
 51
180.0
  0
ARC
  5
49B
100
AcDbEntity
  8
0
370
    -3
  6
Continuous
100
AcDbCircle
 10
646.900561
 20
7.372394
 30
0.0
 40
3.0
100
AcDbArc
 50
280.0
 51
0.0
  0
LINE
  5
49C
100
AcDbEntity
  8
0
370
    -3
  6
Continuous
100
AcDbLine
 10
651.900561
 20
-50.08206
 30
0.0
 11
651.900561
 21
-197.08206
 31
0.0
  0
LINE
  5
49D
100
AcDbEntity
  8
0
370
    -3
  6
CENTER
100
AcDbLine
 10
634.400561
 20
-193.001826
 30
0.0
 11
634.400561
 21
-229.373459
 31
0.0
  0
LINE
  5
49E
100
AcDbEntity
  8
0
370
    -3
  6
Continuous
100
AcDbLine
 10
661.400561
 20
37.909212
 30
0.0
 11
783.952919
 21
35.770053
 31
0.0
  0
ARC
  5
49F
100
AcDbEntity
  8
0
370
    -3
  6
Continuous
100
AcDbCircle
 10
783.900561
 20
32.77051
 30
0.0
 40
3.0
100
AcDbArc
 50
0.0
 51
89.0
  0
LINE
  5
4A0
100
AcDbEntity
  8
0
370
    -3
  6
Continuous
100
AcDbLine
 10
606.400561
 20
-27.08206
 30
0.0
 11
551.400561
 21
-27.08206
 31
0.0
  0
LINE
  5
4A1
100
AcDbEntity
  8
0
370
    -3
  6
Continuous
100
AcDbLine
 10
616.400561
 20
-30.08206
 30
0.0
 11
551.400561
 21
-30.08206
 31
0.0
  0
LINE
  5
4A2
100
AcDbEntity
  8
0
370
    -3
  6
Continuous
100
AcDbLine
 10
616.400561
 20
-70.08206
 30
0.0
 11
551.400561
 21
-70.08206
 31
0.0
  0
LINE
  5
4A3
100
AcDbEntity
  8
0
370
    -3
  6
Continuous
100
AcDbLine
 10
606.400561
 20
-30.08206
 30
0.0
 11
606.400561
 21
-27.08206
 31
0.0
  0
LINE
  5
4A4
100
AcDbEntity
  8
0
370
    -3
  6
Continuous
100
AcDbLine
 10
616.400561
 20
-29.08206
 30
0.0
 11
616.400561
 21
-71.08206
 31
0.0
  0
LINE
  5
4A5
100
AcDbEntity
  8
0
370
    -3
  6
Continuous
100
AcDbLine
 10
619.400561
 20
-29.08206
 30
0.0
 11
616.400561
 21
-29.08206
 31
0.0
  0
LINE
  5
4A6
100
AcDbEntity
  8
0
370
    -3
  6
Continuous
100
AcDbLine
 10
619.400561
 20
-71.08206
 30
0.0
 11
616.400561
 21
-71.08206
 31
0.0
  0
MTEXT
  5
4A7
100
AcDbEntity
  8
0
370
    -3
  6
Continuous
100
AcDbMText
 10
587.669678
 20
-43.15625
 30
0.0
 40
2.8
 41
0.0
 71
     7
 72
     1
  1
\W0.83;　
  7
ZU_SHPTB00001
 11
1.0
 21
0.0
 31
0.0
 73
     1
 44
1.0
  0
MTEXT
  5
4A8
100
AcDbEntity
  8
0
370
    -3
  6
Continuous
100
AcDbMText
 10
674.669678
 20
-283.40625
 30
0.0
 40
2.8
 41
0.0
 71
     7
 72
     1
  1
\W0.83;　
  7
ZU_SHPTB00001
 11
1.0
 21
0.0
 31
0.0
 73
     1
 44
1.0
  0
LINE
  5
4A9
100
AcDbEntity
  8
0
370
    -3
  6
Continuous
100
AcDbLine
 10
186.402212
 20
223.906331
 30
0.0
 11
186.402212
 21
360.906331
 31
0.0
  0
LINE
  5
4AA
100
AcDbEntity
  8
0
370
    -3
  6
Continuous
100
AcDbLine
 10
129.902196
 20
345.906331
 30
0.0
 11
129.902196
 21
238.906331
 31
0.0
  0
LINE
  5
4AB
100
AcDbEntity
  8
0
370
    -3
  6
Continuous
100
AcDbLine
 10
196.402212
 20
363.906331
 30
0.0
 11
196.402212
 21
220.906331
 31
0.0
  0
LINE
  5
4AC
100
AcDbEntity
  8
0
370
    -3
  6
Continuous
100
AcDbLine
 10
181.94292
 20
238.906331
 30
0.0
 11
129.902196
 21
238.906331
 31
0.0
  0
LINE
  5
4AD
100
AcDbEntity
  8
0
370
    -3
  6
Continuous
100
AcDbLine
 10
181.94292
 20
345.906331
 30
0.0
 11
181.455609
 21
345.062284
 31
0.0
  0
ARC
  5
4AE
100
AcDbEntity
  8
0
370
    -3
  6
Continuous
100
AcDbCircle
 10
177.829453
 20
348.131862
 30
0.0
 40
4.724231
100
AcDbArc
 50
269.229376
 51
319.617734
  0
ARC
  5
4AF
100
AcDbEntity
  8
0
370
    -3
  6
Continuous
100
AcDbCircle
 10
183.402212
 20
230.378763
 30
0.0
 40
3.0
100
AcDbArc
 50
0.0
 51
30.0
  0
ARC
  5
4B0
100
AcDbEntity
  8
0
370
    -3
  6
Continuous
100
AcDbCircle
 10
183.402212
 20
354.4339
 30
0.0
 40
3.0
100
AcDbArc
 50
330.0
 51
0.0
  0
ARC
  5
4B1
100
AcDbEntity
  8
0
370
    -3
  6
Continuous
100
AcDbCircle
 10
177.860719
 20
236.741529
 30
0.0
 40
4.66603
100
AcDbArc
 50
37.079727
 51
90.927416
  0
LINE
  5
4B2
100
AcDbEntity
  8
0
370
    -3
  6
Continuous
100
AcDbLine
 10
186.000288
 20
352.9339
 30
0.0
 11
181.94292
 21
345.906331
 31
0.0
  0
LINE
  5
4B3
100
AcDbEntity
  8
0
370
    -3
  6
Continuous
100
AcDbLine
 10
181.94292
 20
238.906331
 30
0.0
 11
186.000288
 21
231.878763
 31
0.0
  0
LINE
  5
4B4
100
AcDbEntity
  8
0
370
    -3
  6
Continuous
100
AcDbLine
 10
181.483903
 20
239.701372
 30
0.0
 11
181.94292
 21
238.906331
 31
0.0
  0
ARC
  5
4B5
100
AcDbEntity
  8
0
370
    -3
  6
Continuous
100
AcDbCircle
 10
141.402212
 20
243.906331
 30
0.0
 40
5.0
100
AcDbArc
 50
270.0
 51
0.0
  0
ARC
  5
4B6
100
AcDbEntity
  8
0
370
    -3
  6
Continuous
100
AcDbCircle
 10
142.576208
 20
290.430284
 30
0.0
 40
15.324423
100
AcDbArc
 50
265.606296
 51
284.457814
  0
ARC
  5
4B7
100
AcDbEntity
  8
0
370
    -3
  6
Continuous
100
AcDbCircle
 10
142.576208
 20
294.382378
 30
0.0
 40
15.324423
100
AcDbArc
 50
75.542186
 51
94.393704
  0
ARC
  5
4B8
100
AcDbEntity
  8
0
370
    -3
  6
Continuous
100
AcDbCircle
 10
141.402212
 20
340.906331
 30
0.0
 40
5.0
100
AcDbArc
 50
0.0
 51
90.0
  0
ARC
  5
4B9
100
AcDbEntity
  8
0
370
    -3
  6
Continuous
100
AcDbCircle
 10
189.402212
 20
360.906331
 30
0.0
 40
3.0
100
AcDbArc
 50
90.0
 51
180.0
  0
ARC
  5
4BA
100
AcDbEntity
  8
0
370
    -3
  6
Continuous
100
AcDbCircle
 10
189.402212
 20
223.906331
 30
0.0
 40
3.0
100
AcDbArc
 50
180.0
 51
270.0
  0
LINE
  5
4BB
100
AcDbEntity
  8
0
370
    -3
  6
Continuous
100
AcDbLine
 10
189.402212
 20
363.906331
 30
0.0
 11
196.402212
 21
363.906331
 31
0.0
  0
LINE
  5
4BC
100
AcDbEntity
  8
0
370
    -3
  6
Continuous
100
AcDbLine
 10
189.402212
 20
220.906331
 30
0.0
 11
196.402212
 21
220.906331
 31
0.0
  0
LINE
  5
4BD
100
AcDbEntity
  8
0
370
    -3
  6
Continuous
100
AcDbLine
 10
146.402212
 20
340.906331
 30
0.0
 11
146.402212
 21
243.906331
 31
0.0
  0
LINE
  5
4BE
100
AcDbEntity
  8
0
370
    -3
  6
Continuous
100
AcDbLine
 10
181.94292
 20
345.906331
 30
0.0
 11
129.902212
 21
345.906331
 31
0.0
  0
LINE
  5
4BF
100
AcDbEntity
  8
0
370
    -3
  6
Continuous
100
AcDbLine
 10
141.402212
 20
309.661765
 30
0.0
 11
129.902212
 21
309.661765
 31
0.0
  0
LINE
  5
4C0
100
AcDbEntity
  8
0
370
    -3
  6
Continuous
100
AcDbLine
 10
141.402212
 20
275.150898
 30
0.0
 11
129.902212
 21
275.150898
 31
0.0
  0
SPLINE
  5
4C1
100
AcDbEntity
  8
0
370
    -3
  6
Continuous
100
AcDbSpline
210
0.0
220
0.0
230
1.0
 70
     0
 71
     3
 72
     8
 73
     4
 74
     0
 42
0.000001
 43
0.000001
 40
0.0
 40
0.0
 40
0.0
 40
0.0
 40
1.0
 40
1.0
 40
1.0
 40
1.0
 10
181.55825755390879
 20
345.23952690535526
 30
0.0
 10
181.5551411653928
 20
345.23422111072529
 30
0.0
 10
181.55202477687681
 20
345.22891531609531
 30
0.0
 10
181.54889451194731
 20
345.22357239669878
 30
0.0
  0
SPLINE
  5
4C2
100
AcDbEntity
  8
0
370
    -3
  6
Continuous
100
AcDbSpline
210
0.0
220
0.0
230
1.0
 70
     0
 71
     3
 72
     8
 73
     4
 74
     0
 42
0.000001
 43
0.000001
 40
0.0
 40
0.0
 40
0.0
 40
0.0
 40
1.0
 40
1.0
 40
1.0
 40
1.0
 10
181.54889451194731
 20
345.22357239669878
 30
0.0
 10
181.54576424701736
 20
345.2182294773018
 30
0.0
 10
181.54262010567345
 20
345.2128494331385
 30
0.0
 10
181.53946555624725
 20
345.20744158170538
 30
0.0
  0
SPLINE
  5
4C3
100
AcDbEntity
  8
0
370
    -3
  6
Continuous
100
AcDbSpline
210
0.0
220
0.0
230
1.0
 70
     0
 71
     3
 72
     8
 73
     4
 74
     0
 42
0.000001
 43
0.000001
 40
0.0
 40
0.0
 40
0.0
 40
0.0
 40
1.0
 40
1.0
 40
1.0
 40
1.0
 10
181.53946555624725
 20
345.20744158170538
 30
0.0
 10
181.53631100682105
 20
345.20203373027226
 30
0.0
 10
181.53314604931211
 20
345.19659807156955
 30
0.0
 10
181.5299706834121
 20
345.19113462011961
 30
0.0
  0
SPLINE
  5
4C4
100
AcDbEntity
  8
0
370
    -3
  6
Continuous
100
AcDbSpline
210
0.0
220
0.0
230
1.0
 70
     0
 71
     3
 72
     8
 73
     4
 74
     0
 42
0.000001
 43
0.000001
 40
0.0
 40
0.0
 40
0.0
 40
0.0
 40
1.0
 40
1.0
 40
1.0
 40
1.0
 10
181.5299706834121
 20
345.19113462011961
 30
0.0
 10
181.5267953175121
 20
345.18567116866967
 30
0.0
 10
181.52360954322057
 20
345.18017992447227
 30
0.0
 10
181.5204098900449
 20
345.17465167168604
 30
0.0
  0
SPLINE
  5
4C5
100
AcDbEntity
  8
0
370
    -3
  6
Continuous
100
AcDbSpline
210
0.0
220
0.0
230
1.0
 70
     0
 71
     3
 72
     8
 73
     4
 74
     0
 42
0.000001
 43
0.000001
 40
0.0
 40
0.0
 40
0.0
 40
0.0
 40
1.0
 40
1.0
 40
1.0
 40
1.0
 10
181.5204098900449
 20
345.17465167168604
 30
0.0
 10
181.51721023686878
 20
345.16912341890003
 30
0.0
 10
181.51399670480851
 20
345.16355815752496
 30
0.0
 10
181.51078317274823
 20
345.15799289614989
 30
0.0
  0
LINE
  5
4C6
100
AcDbEntity
  8
0
370
    -3
  6
Continuous
100
AcDbLine
 10
186.402212
 20
223.906331
 30
0.0
 11
186.402212
 21
224.693368
 31
0.0
  0
LINE
  5
4C7
100
AcDbEntity
  8
0
370
    -3
  6
Continuous
100
AcDbLine
 10
186.402212
 20
360.119294
 30
0.0
 11
186.402212
 21
360.906331
 31
0.0
  0
SPLINE
  5
4C8
100
AcDbEntity
  8
0
370
    -3
  6
Continuous
100
AcDbSpline
210
0.0
220
0.0
230
1.0
 70
     0
 71
     3
 72
     8
 73
     4
 74
     0
 42
0.000001
 43
0.000001
 40
0.0
 40
0.0
 40
0.0
 40
0.0
 40
1.0
 40
1.0
 40
1.0
 40
1.0
 10
181.51037220525083
 20
239.65592640782717
 30
0.0
 10
181.51165287405135
 20
239.65370461871893
 30
0.0
 10
181.51293354285232
 20
239.6514828296111
 30
0.0
 10
181.51421193090161
 20
239.64926701341398
 30
0.0
  0
SPLINE
  5
4C9
100
AcDbEntity
  8
0
370
    -3
  6
Continuous
100
AcDbSpline
210
0.0
220
0.0
230
1.0
 70
     0
 71
     3
 72
     8
 73
     4
 74
     0
 42
0.000001
 43
0.000001
 40
0.0
 40
0.0
 40
0.0
 40
0.0
 40
1.0
 40
1.0
 40
1.0
 40
1.0
 10
181.51421193090161
 20
239.64926701341398
 30
0.0
 10
181.5154903189509
 20
239.64705119721688
 30
0.0
 10
181.51676642624849
 20
239.64484135393042
 30
0.0
 10
181.51804082173655
 20
239.6426359946916
 30
0.0
  0
SPLINE
  5
4CA
100
AcDbEntity
  8
0
370
    -3
  6
Continuous
100
AcDbSpline
210
0.0
220
0.0
230
1.0
 70
     0
 71
     3
 72
     8
 73
     4
 74
     0
 42
0.000001
 43
0.000001
 40
0.0
 40
0.0
 40
0.0
 40
0.0
 40
1.0
 40
1.0
 40
1.0
 40
1.0
 10
181.51804082173655
 20
239.6426359946916
 30
0.0
 10
181.5193152172246
 20
239.64043063545304
 30
0.0
 10
181.5205879009022
 20
239.63822976026159
 30
0.0
 10
181.52185887227139
 20
239.6360333708638
 30
0.0
  0
SPLINE
  5
4CB
100
AcDbEntity
  8
0
370
    -3
  6
Continuous
100
AcDbSpline
210
0.0
220
0.0
230
1.0
 70
     0
 71
     3
 72
     8
 73
     4
 74
     0
 42
0.000001
 43
0.000001
 40
0.0
 40
0.0
 40
0.0
 40
0.0
 40
1.0
 40
1.0
 40
1.0
 40
1.0
 10
181.52185887227139
 20
239.6360333708638
 30
0.0
 10
181.52312984364104
 20
239.63383698146581
 30
0.0
 10
181.52439910270184
 20
239.63164507786115
 30
0.0
 10
181.52566607702281
 20
239.62945916113364
 30
0.0
  0
SPLINE
  5
4CC
100
AcDbEntity
  8
0
370
    -3
  6
Continuous
100
AcDbSpline
210
0.0
220
0.0
230
1.0
 70
     0
 71
     3
 72
     8
 73
     4
 74
     0
 42
0.000001
 43
0.000001
 40
0.0
 40
0.0
 40
0.0
 40
0.0
 40
1.0
 40
1.0
 40
1.0
 40
1.0
 10
181.52566607702281
 20
239.62945916113364
 30
0.0
 10
181.52693305134378
 20
239.62727324440615
 30
0.0
 10
181.52819774092538
 20
239.62509331455595
 30
0.0
 10
181.52946243050653
 20
239.62291338470556
 30
0.0
  0
ENDSEC
  0
SECTION
  2
OBJECTS
  0
DICTIONARY
  5
19
100
AcDbDictionary
280
     0
281
     1
  3
ACAD_GROUP
350
1A
  3
ACAD_MLINESTYLE
350
1B
  3
ACAD_LAYOUT
350
1E
  3
ACAD_PLOTSETTINGS
350
22
  3
ACAD_PLOTSTYLENAME
350
1F
  3
ACAD_WIPEOUT_VARS
350
23
  3
DWGPROPS
350
4CD
  0
DICTIONARY
  5
1A
102
{ACAD_REACTORS
330
19
102
}
100
AcDbDictionary
280
     0
281
     1
  0
DICTIONARY
  5
1B
102
{ACAD_REACTORS
330
19
102
}
100
AcDbDictionary
280
     0
281
     1
  3
Standard
350
1C
  0
MLINESTYLE
  5
1C
102
{ACAD_REACTORS
330
1B
102
}
100
AcDbMlineStyle
  2
Standard
 70
     0
  3

 62
     0
 51
90.0
 52
90.0
 71
     2
 49
0.5
 62
   256
  6
ByLayer
 49
-0.5
 62
   256
  6
ByLayer
  0
ACDBDICTIONARYWDFLT
  5
1F
102
{ACAD_REACTORS
330
19
102
}
100
AcDbDictionary
281
     1
  3
Normal
350
1D
100
AcDbDictionaryWithDefault
340
1D
  0
ACDBPLACEHOLDER
  5
1D
102
{ACAD_REACTORS
330
1F
102
}
  0
LAYOUT
  5
20
102
{ACAD_REACTORS
330
1E
102
}
100
AcDbPlotSettings
  1

  2

  4

  6

 40
0.0
 41
0.0
 42
0.0
 43
0.0
 44
0.0
 45
0.0
 46
0.0
 47
0.0
 48
0.0
 49
0.0
140
0.0
141
0.0
142
1.0
143
1.0
 70
  1024
 72
     0
 73
     0
 74
     0
  7

 75
     0
147
1.0
148
0.0
149
0.0
100
AcDbLayout
  1
Model
 70
     0
 71
     0
 10
0.0
 20
0.0
 11
0.0
 21
0.0
 12
0.0
 22
0.0
 32
0.0
 14
0.0
 24
0.0
 34
0.0
 15
0.0
 25
0.0
 35
0.0
146
0.0
 13
0.0
 23
0.0
 33
0.0
 16
0.0
 26
0.0
 36
0.0
 17
0.0
 27
0.0
 37
0.0
 76
     0
330
A
331
0
345
0
346
0
  0
LAYOUT
  5
21
102
{ACAD_REACTORS
330
1E
102
}
100
AcDbPlotSettings
  1

  2

  4

  6

 40
0.0
 41
0.0
 42
0.0
 43
0.0
 44
0.0
 45
0.0
 46
0.0
 47
0.0
 48
0.0
 49
0.0
140
0.0
141
0.0
142
1.0
143
1.0
 70
     0
 72
     0
 73
     0
 74
     0
  7

 75
     0
147
1.0
148
0.0
149
0.0
100
AcDbLayout
  1
Layout1
 70
     0
 71
     0
 10
0.0
 20
0.0
 11
0.0
 21
0.0
 12
0.0
 22
0.0
 32
0.0
 14
0.0
 24
0.0
 34
0.0
 15
0.0
 25
0.0
 35
0.0
146
0.0
 13
0.0
 23
0.0
 33
0.0
 16
0.0
 26
0.0
 36
0.0
 17
0.0
 27
0.0
 37
0.0
 76
     0
330
B
331
0
345
0
346
0
  0
DICTIONARY
  5
1E
102
{ACAD_REACTORS
330
19
102
}
100
AcDbDictionary
280
     0
281
     1
  3
Layout1
350
21
  3
Model
350
20
  0
DICTIONARY
  5
22
102
{ACAD_REACTORS
330
19
102
}
100
AcDbDictionary
280
     0
281
     1
  0
WIPEOUTVARIABLES
  5
23
100
AcDbWipeoutVariables
 70
     1
  0
XRECORD
  5
4CD
100
AcDbXrecord
280
     1
  1
DWGPROPS COOKIE
  2

  3

  4

  6

  7

  8
TB24944
  9

300
=
301
=
302
=
303
=
304
=
305
=
306
=
307
=
308
=
309
=
 40
0.0
 41
2455965.592072
 42
2455965.592072
  1

 90
        0
  0
ENDSEC
  0
EOF
