  0
SECTION
  2
HEADER
  9
$ACADVER
  1
AC1015
  9
$ACADMAINTVER
 70
     6
  9
$DWGCODEPAGE
  3
ANSI_932
  9
$INSBASE
 10
0.0
 20
0.0
 30
0.0
  9
$EXTMIN
 10
1.000000E+20
 20
1.000000E+20
 30
1.000000E+20
  9
$EXTMAX
 10
-1.000000E+20
 20
-1.000000E+20
 30
-1.000000E+20
  9
$LIMMIN
 10
0.0
 20
0.0
  9
$LIMMAX
 10
0.0
 20
0.0
  9
$ORTHOMODE
 70
     0
  9
$REGENMODE
 70
     1
  9
$FILLMODE
 70
     1
  9
$QTEXTMODE
 70
     0
  9
$MIRRTEXT
 70
     1
  9
$LTSCALE
 40
1.0
  9
$ATTMODE
 70
     1
  9
$TEXTSIZE
 40
7.0
  9
$TRACEWID
 40
0.05
  9
$TEXTSTYLE
  7
Standard
  9
$CLAYER
  8
0
  9
$CELTYPE
  6
Continuous
  9
$CECOLOR
 62
   256
  9
$CELTSCALE
 40
1.0
  9
$DISPSILH
 70
     0
  9
$DIMSCALE
 40
1.0
  9
$DIMASZ
 40
1.931852
  9
$DIMEXO
 40
1.0
  9
$DIMDLI
 40
0.38
  9
$DIMRND
 40
0.0
  9
$DIMDLE
 40
0.0
  9
$DIMEXE
 40
2.0
  9
$DIMTP
 40
0.0
  9
$DIMTM
 40
0.0
  9
$DIMTXT
 40
2.8
  9
$DIMCEN
 40
0.09
  9
$DIMTSZ
 40
0.0
  9
$DIMTOL
 70
     0
  9
$DIMLIM
 70
     0
  9
$DIMTIH
 70
     1
  9
$DIMTOH
 70
     1
  9
$DIMSE1
 70
     0
  9
$DIMSE2
 70
     0
  9
$DIMTAD
 70
     1
  9
$DIMZIN
 70
     0
  9
$DIMBLK
  1

  9
$DIMASO
 70
     1
  9
$DIMSHO
 70
     1
  9
$DIMPOST
  1

  9
$DIMAPOST
  1

  9
$DIMALT
 70
     0
  9
$DIMALTD
 70
     2
  9
$DIMALTF
 40
25.4
  9
$DIMLFAC
 40
1.0
  9
$DIMTOFL
 70
     0
  9
$DIMTVP
 40
0.0
  9
$DIMTIX
 70
     0
  9
$DIMSOXD
 70
     0
  9
$DIMSAH
 70
     0
  9
$DIMBLK1
  1

  9
$DIMBLK2
  1

  9
$DIMSTYLE
  2
Standard
  9
$DIMCLRD
 70
     0
  9
$DIMCLRE
 70
     0
  9
$DIMCLRT
 70
     0
  9
$DIMTFAC
 40
0.714286
  9
$DIMGAP
 40
0.09
  9
$DIMJUST
 70
     0
  9
$DIMSD1
 70
     0
  9
$DIMSD2
 70
     0
  9
$DIMTOLJ
 70
     1
  9
$DIMTZIN
 70
     0
  9
$DIMALTZ
 70
     0
  9
$DIMALTTZ
 70
     0
  9
$DIMUPT
 70
     0
  9
$DIMDEC
 70
     4
  9
$DIMTDEC
 70
     4
  9
$DIMALTU
 70
     2
  9
$DIMALTTD
 70
     2
  9
$DIMTXSTY
  7
Standard
  9
$DIMAUNIT
 70
     0
  9
$DIMADEC
 70
     0
  9
$DIMALTRND
 40
0.0
  9
$DIMAZIN
 70
     0
  9
$DIMDSEP
 70
     0
  9
$DIMATFIT
 70
     3
  9
$DIMFRAC
 70
     0
  9
$DIMLDRBLK
  1

  9
$DIMLUNIT
 70
     2
  9
$DIMLWD
 70
     0
  9
$DIMLWE
 70
     0
  9
$DIMTMOVE
 70
     0
  9
$LUNITS
 70
     2
  9
$LUPREC
 70
     3
  9
$SKETCHINC
 40
0.1
  9
$FILLETRAD
 40
0.0
  9
$AUNITS
 70
     0
  9
$AUPREC
 70
     0
  9
$MENU
  1
acad
  9
$ELEVATION
 40
0.0
  9
$PELEVATION
 40
0.0
  9
$THICKNESS
 40
0.0
  9
$LIMCHECK
 70
     0
  9
$CHAMFERA
 40
0.0
  9
$CHAMFERB
 40
0.0
  9
$CHAMFERC
 40
0.0
  9
$CHAMFERD
 40
0.0
  9
$SKPOLY
 70
     0
  9
$TDCREATE
 40
0.000000000
  9
$TDUCREATE
 40
0.000000000
  9
$TDUPDATE
 40
0.000000000
  9
$TDUUPDATE
 40
0.000000000
  9
$TDINDWG
 40
0.0000000000
  9
$TDUSRTIMER
 40
0.0000000000
  9
$USRTIMER
 70
     1
  9
$ANGBASE
 50
0.0
  9
$ANGDIR
 70
     0
  9
$PDMODE
 70
     0
  9
$PDSIZE
 40
0.0
  9
$PLINEWID
 40
0.0
  9
$SPLFRAME
 70
     0
  9
$SPLINETYPE
 70
     6
  9
$SPLINESEGS
 70
     8
  9
$HANDSEED
  5
4E0
  9
$SURFTAB1
 70
     6
  9
$SURFTAB2
 70
     6
  9
$SURFTYPE
 70
     6
  9
$SURFU
 70
     6
  9
$SURFV
 70
     6
  9
$UCSBASE
  2

  9
$UCSNAME
  2

  9
$UCSORG
 10
0.0
 20
0.0
 30
0.0
  9
$UCSXDIR
 10
1.0
 20
0.0
 30
0.0
  9
$UCSYDIR
 10
0.0
 20
1.0
 30
0.0
  9
$UCSORTHOREF
  2

  9
$UCSORTHOVIEW
 70
     0
  9
$UCSORGTOP
 10
0.0
 20
0.0
 30
0.0
  9
$UCSORGBOTTOM
 10
0.0
 20
0.0
 30
0.0
  9
$UCSORGLEFT
 10
0.0
 20
0.0
 30
0.0
  9
$UCSORGRIGHT
 10
0.0
 20
0.0
 30
0.0
  9
$UCSORGFRONT
 10
0.0
 20
0.0
 30
0.0
  9
$UCSORGBACK
 10
0.0
 20
0.0
 30
0.0
  9
$PUCSBASE
  2

  9
$PUCSNAME
  2

  9
$PUCSORG
 10
0.0
 20
0.0
 30
0.0
  9
$PUCSXDIR
 10
1.0
 20
0.0
 30
0.0
  9
$PUCSYDIR
 10
0.0
 20
1.0
 30
0.0
  9
$PUCSORTHOREF
  2

  9
$PUCSORTHOVIEW
 70
     0
  9
$PUCSORGTOP
 10
0.0
 20
0.0
 30
0.0
  9
$PUCSORGBOTTOM
 10
0.0
 20
0.0
 30
0.0
  9
$PUCSORGLEFT
 10
0.0
 20
0.0
 30
0.0
  9
$PUCSORGRIGHT
 10
0.0
 20
0.0
 30
0.0
  9
$PUCSORGFRONT
 10
0.0
 20
0.0
 30
0.0
  9
$PUCSORGBACK
 10
0.0
 20
0.0
 30
0.0
  9
$USERI1
 70
     0
  9
$USERI2
 70
     0
  9
$USERI3
 70
     0
  9
$USERI4
 70
     0
  9
$USERI5
 70
     0
  9
$USERR1
 40
0.0
  9
$USERR2
 40
0.0
  9
$USERR3
 40
0.0
  9
$USERR4
 40
0.0
  9
$USERR5
 40
0.0
  9
$WORLDVIEW
 70
     1
  9
$SHADEDGE
 70
     3
  9
$SHADEDIF
 70
    70
  9
$TILEMODE
 70
     1
  9
$MAXACTVP
 70
    16
  9
$PINSBASE
 10
0.0
 20
0.0
 30
0.0
  9
$PLIMCHECK
 70
     0
  9
$PEXTMIN
 10
1.000000E+20
 20
1.000000E+20
 30
1.000000E+20
  9
$PEXTMAX
 10
-1.000000E+20
 20
-1.000000E+20
 30
-1.000000E+20
  9
$PLIMMIN
 10
0.0
 20
0.0
  9
$PLIMMAX
 10
12.0
 20
9.0
  9
$UNITMODE
 70
     0
  9
$VISRETAIN
 70
     0
  9
$PLINEGEN
 70
     1
  9
$PSLTSCALE
 70
     0
  9
$TREEDEPTH
 70
  3020
  9
$CMLSTYLE
  2
Standard
  9
$CMLJUST
 70
     0
  9
$CMLSCALE
 40
1.0
  9
$PROXYGRAPHICS
 70
     0
  9
$MEASUREMENT
 70
     0
  9
$CELWEIGHT
370
     0
  9
$ENDCAPS
280
     0
  9
$JOINSTYLE
280
     0
  9
$LWDISPLAY
290
     0
  9
$INSUNITS
 70
     0
  9
$HYPERLINKBASE
  1

  9
$STYLESHEET
  1

  9
$XEDIT
290
     1
  9
$CEPSNTYPE
380
     0
  9
$PSTYLEMODE
290
     1
  9
$FINGERPRINTGUID
  2

  9
$VERSIONGUID
  2

  9
$EXTNAMES
290
     1
  9
$PSVPSCALE
 40
0.0
  0
ENDSEC
  0
SECTION
  2
CLASSES
  0
CLASS
  1
LWPOLYLINE
  2
AcDbPolyline
  3
AutoCAD 2000
 90
    32768
280
     0
281
     1
  0
CLASS
  1
IMAGE
  2
AcDbRasterImage
  3
ISM
 90
    32895
280
     0
281
     1
  0
CLASS
  1
OLE2FRAME
  2
AcDbOle2Frame
  3
AutoCAD 2000
 90
    32768
280
     0
281
     1
  0
CLASS
  1
HATCH
  2
AcDbHatch
  3
AutoCAD 2000
 90
    32768
280
     0
281
     1
  0
CLASS
  1
DICTIONARYVAR
  2
AcDbDictionaryVar
  3
AutoCAD 2000
 90
    32768
280
     0
281
     0
  0
CLASS
  1
RASTERVARIABLES
  2
AcDbRasterVariables
  3
ISM
 90
    32768
280
     0
281
     0
  0
CLASS
  1
IMAGEDEF
  2
AcDbRasterImageDef
  3
ISM
 90
    32768
280
     0
281
     0
  0
CLASS
  1
IMAGEDEF_REACTOR
  2
AcDbRasterImageDefReactor
  3
ISM
 90
    32769
280
     0
281
     0
  0
CLASS
  1
IDBUFFER
  2
AcDbIdBuffer
  3
AutoCAD 2000
 90
    32768
280
     0
281
     0
  0
CLASS
  1
SPATIAL_FILTER
  2
AcDbSpatialFilter
  3
AutoCAD 2000
 90
    32768
280
     0
281
     0
  0
CLASS
  1
XRECORD
  2
AcDbXrecord
  3
AutoCAD 2000
 90
        0
280
     0
281
     0
  0
CLASS
  1
SORTENTSTABLE
  2
AcDbSortentsTable
  3
AutoCAD 2000
 90
    32768
280
     0
281
     0
  0
CLASS
  1
LAYER_INDEX
  2
AcDbLayerIndex
  3
AutoCAD 2000
 90
    32768
280
     0
281
     0
  0
CLASS
  1
SPATIAL_INDEX
  2
AcDbSpatialIndex
  3
AutoCAD 2000
 90
    32768
280
     0
281
     0
  0
CLASS
  1
OBJECT_PTR
  2
CAseDLPNTableRecord
  3
"ASE-LPNTableRecord"
 90
    32769
280
     0
281
     0
  0
CLASS
  1
LAYOUT
  2
AcDbLayout
  3
AutoCAD 2000
 90
        0
280
     0
281
     0
  0
CLASS
  1
PLOTSETTINGS
  2
AcDbPlotSettings
  3
AutoCAD 2000
 90
    32768
280
     0
281
     0
  0
CLASS
  1
ACDBDICTIONARYWDFLT
  2
AcDbDictionaryWithDefault
  3
AutoCAD 2000
 90
        0
280
     0
281
     0
  0
CLASS
  1
ACDBPLACEHOLDER
  2
AcDbPlaceHolder
  3
AutoCAD 2000
 90
        0
280
     0
281
     0
  0
CLASS
  1
VBA_PROJECT
  2
AcDbVbaProject
  3
acadvba
 90
    32768
280
     0
281
     0
  0
CLASS
  1
WIPEOUT
  2
AcDbWipeout
  3
WipeOut|AutoCAD Express Tool|expresstools@autodesk.com
 90
    32895
280
     0
281
     1
  0
CLASS
  1
WIPEOUTVARIABLES
  2
AcDbWipeoutVariables
  3
WipeOut|AutoCAD Express Tool|expresstools@autodesk.com
 90
        0
280
     0
281
     0
  0
CLASS
  1
RTEXT
  2
RText
  3
RText|AutoCAD Express Tool|expresstools@autodesk.com
 90
    32768
280
     0
281
     1
  0
CLASS
  1
ARCALIGNEDTEXT
  2
AcDbArcAlignedText
  3
ATEXT|AutoCAD Express Tool|expresstools@autodesk.com
 90
    32768
280
     0
281
     1
  0
ENDSEC
  0
SECTION
  2
TABLES
  0
TABLE
  2
VPORT
  5
7
100
AcDbSymbolTable
 70
     1
  0
VPORT
  5
15
100
AcDbSymbolTableRecord
100
AcDbViewportTableRecord
  2
*ACTIVE
 70
     0
 10
0.0
 20
0.0
 11
1.0
 21
1.0
 12
0.0
 22
0.0
 13
0.0
 23
0.0
 14
1.0
 24
1.0
 15
0.0
 25
0.0
 16
0.0
 26
0.0
 36
1.0
 17
0.0
 27
0.0
 37
0.0
 40
100.0
 41
1.0
 42
50.0
 43
0.0
 44
0.0
 50
0.0
 51
0.0
 71
     0
 72
   100
 73
     1
 74
     1
 75
     0
 76
     0
 77
     0
 78
     0
281
     0
 65
     0
110
0.0
120
0.0
130
0.0
111
1.0
121
0.0
131
0.0
112
0.0
122
1.0
132
0.0
345
0
346
0
 79
     0
146
0.0
  0
ENDTAB
  0
TABLE
  2
LTYPE
  5
4
100
AcDbSymbolTable
 70
     7
  0
LTYPE
  5
11
100
AcDbSymbolTableRecord
100
AcDbLinetypeTableRecord
  2
ByBlock
 70
    64
  3

 72
    65
 73
     0
 40
0.0
  0
LTYPE
  5
12
100
AcDbSymbolTableRecord
100
AcDbLinetypeTableRecord
  2
ByLayer
 70
    64
  3

 72
    65
 73
     0
 40
0.0
  0
LTYPE
  5
13
100
AcDbSymbolTableRecord
100
AcDbLinetypeTableRecord
  2
Continuous
 70
    64
  3
Solid line
 72
    65
 73
     0
 40
0.0
  0
LTYPE
  5
24
100
AcDbSymbolTableRecord
100
AcDbLinetypeTableRecord
  2
DASHED
 70
    64
  3
Dashed __ __ __ __ __ __ __ __ __ __ __ __ __ _
 72
    65
 73
     2
 40
0.75
 49
0.5
 74
     0
 49
-0.25
 74
     0
  0
LTYPE
  5
25
100
AcDbSymbolTableRecord
100
AcDbLinetypeTableRecord
  2
CENTER
 70
    64
  3
Center ____ _ ____ _ ____ _ ____ _ ____ _ ____
 72
    65
 73
     4
 40
1.0
 49
0.5
 74
     0
 49
-0.25
 74
     0
 49
0.0
 74
     0
 49
-0.25
 74
     0
  0
LTYPE
  5
26
100
AcDbSymbolTableRecord
100
AcDbLinetypeTableRecord
  2
DIVIDE
 70
    64
  3
Divide ____ . . ____ . . ____ . . ____ . . ____
 72
    65
 73
     6
 40
1.25
 49
0.5
 74
     0
 49
-0.25
 74
     0
 49
0.0
 74
     0
 49
-0.25
 74
     0
 49
0.0
 74
     0
 49
-0.25
 74
     0
  0
LTYPE
  5
27
100
AcDbSymbolTableRecord
100
AcDbLinetypeTableRecord
  2
PHANTOM
 70
    64
  3
Phantom ______  __  __  ______  __  __  ______
 72
    65
 73
     6
 40
9.0
 49
4.3
 74
     0
 49
-0.7
 74
     0
 49
1.3
 74
     0
 49
-0.7
 74
     0
 49
1.3
 74
     0
 49
-0.7
 74
     0
  0
ENDTAB
  0
TABLE
  2
LAYER
  5
2
100
AcDbSymbolTable
 70
     4
  0
LAYER
  5
14
100
AcDbSymbolTableRecord
100
AcDbLayerTableRecord
  2
0
 70
    64
 62
    53
  6
Continuous
290
     1
370
    -3
390
1D
  0
LAYER
  5
28
100
AcDbSymbolTableRecord
100
AcDbLayerTableRecord
  2
1
 70
    64
 62
   102
  6
Continuous
290
     1
370
    -3
390
1D
  0
LAYER
  5
29
100
AcDbSymbolTableRecord
100
AcDbLayerTableRecord
  2
3
 70
    64
 62
     4
  6
Continuous
290
     1
370
    -3
390
1D
  0
LAYER
  5
2A
100
AcDbSymbolTableRecord
100
AcDbLayerTableRecord
  2
5
 70
    64
 62
   191
  6
Continuous
290
     1
370
    -3
390
1D
  0
ENDTAB
  0
TABLE
  2
STYLE
  5
3
100
AcDbSymbolTable
 70
     2
  0
STYLE
  5
17
100
AcDbSymbolTableRecord
100
AcDbTextStyleTableRecord
  2
Standard
 70
     0
 40
0.0
 41
1.0
 50
0.0
 71
     0
 42
0.0
  3
txt
  4

  0
STYLE
  5
261
100
AcDbSymbolTableRecord
100
AcDbTextStyleTableRecord
  2
ZU_SHPTB00001
 70
     0
 40
0.0
 41
1.0
 50
0.0
 71
     0
 42
0.0
  3
monotxt
  4
bigfont
  0
ENDTAB
  0
TABLE
  2
VIEW
  5
5
100
AcDbSymbolTable
 70
     0
  0
ENDTAB
  0
TABLE
  2
UCS
  5
6
100
AcDbSymbolTable
 70
     0
  0
ENDTAB
  0
TABLE
  2
APPID
  5
8
100
AcDbSymbolTable
 70
     1
  0
APPID
  5
16
100
AcDbSymbolTableRecord
100
AcDbRegAppTableRecord
  2
ACAD
 70
     0
  0
ENDTAB
  0
TABLE
  2
DIMSTYLE
  5
9
100
AcDbSymbolTable
 70
     1
100
AcDbDimStyleTable
 71
     0
  0
DIMSTYLE
105
18
100
AcDbSymbolTableRecord
100
AcDbDimStyleTableRecord
  2
Standard
 70
     0
  3

  4

 40
1.0
 41
0.18
 42
0.0625
 43
0.38
 44
0.18
 45
0.0
 46
0.0
 47
0.0
 48
0.0
 71
     0
 72
     0
 73
     1
 74
     1
 75
     0
 76
     0
 77
     0
 78
     0
 79
     0
140
0.18
141
0.09
142
0.0
143
25.4
144
1.0
145
0.0
146
1.0
147
0.09
148
0.0
170
     0
171
     2
172
     0
173
     0
174
     0
175
     0
176
     0
177
     0
178
     0
179
     0
271
     4
272
     4
273
     2
274
     2
275
     0
276
     0
277
     2
278
    46
279
     0
280
     0
281
     0
282
     0
283
     1
284
     0
285
     0
286
     0
288
     0
340
17
341
0
342
0
343
0
344
0
371
    -2
372
    -2
  0
ENDTAB
  0
TABLE
  2
BLOCK_RECORD
  5
1
100
AcDbSymbolTable
 70
     9
  0
BLOCK_RECORD
  5
A
100
AcDbSymbolTableRecord
100
AcDbBlockTableRecord
  2
*MODEL_SPACE
340
20
  0
BLOCK_RECORD
  5
B
100
AcDbSymbolTableRecord
100
AcDbBlockTableRecord
  2
*PAPER_SPACE
340
21
  0
BLOCK_RECORD
  5
141
100
AcDbSymbolTableRecord
100
AcDbBlockTableRecord
  2
ZU_SYM_K__CAD_SYM_POO_SYM_N20_-1
340
0
102
{BLKREFS
331
14C
102
}
  0
BLOCK_RECORD
  5
14D
100
AcDbSymbolTableRecord
100
AcDbBlockTableRecord
  2
ZU_SYM_K__CAD_SYM_POO_SYM_N20_00001-1
340
0
102
{BLKREFS
331
158
102
}
  0
BLOCK_RECORD
  5
17A
100
AcDbSymbolTableRecord
100
AcDbBlockTableRecord
  2
ZU_SYM__USERS_HOME_SYMBOL_STD_SYM_B01_-1
340
0
102
{BLKREFS
331
189
102
}
  0
BLOCK_RECORD
  5
18A
100
AcDbSymbolTableRecord
100
AcDbBlockTableRecord
  2
ZU_SYM__USERS_HOME_SYMBOL_STD_SYM_B01_00002-1
340
0
102
{BLKREFS
331
199
102
}
  0
BLOCK_RECORD
  5
241
100
AcDbSymbolTableRecord
100
AcDbBlockTableRecord
  2
ZU_SYM__USERS_HOME_SYMBOL_STD_SYM_B01_00003-1
340
0
102
{BLKREFS
331
250
102
}
  0
BLOCK_RECORD
  5
251
100
AcDbSymbolTableRecord
100
AcDbBlockTableRecord
  2
ZU_SYM__USERS_HOME_SYMBOL_STD_SYM_B01_00004-1
340
0
102
{BLKREFS
331
260
102
}
  0
BLOCK_RECORD
  5
2E7
100
AcDbSymbolTableRecord
100
AcDbBlockTableRecord
  2
ZU_SYM_C__ZUOU_AC_BLOCK_ZU_SYM_C__ZUOU_AC_BLOCK_ZU_SYM__USR_MELCAD_MD_SYM_SYM_SYM1_-1_-1_-1
340
0
102
{BLKREFS
331
2F2
102
}
  0
BLOCK_RECORD
  5
2F5
100
AcDbSymbolTableRecord
100
AcDbBlockTableRecord
  2
ZU_SYM_C__ZUOU_AC_BLOCK_ZU_SYM_C__ZUOU_AC_BLOCK_ZU_SYM__USR_MELCAD_MD_SYM_SYM_SYM1_00009-1_-1_-1
340
0
102
{BLKREFS
331
300
102
}
  0
BLOCK_RECORD
  5
383
100
AcDbSymbolTableRecord
100
AcDbBlockTableRecord
  2
ZU_SYM__USERS_HOME_SYMBOL_POO_SYM_B20_-1
340
0
102
{BLKREFS
331
38E
102
}
  0
ENDTAB
  0
ENDSEC
  0
SECTION
  2
BLOCKS
  0
BLOCK
  5
D
100
AcDbEntity
  8
0
100
AcDbBlockBegin
  2
*MODEL_SPACE
 70
     0
 10
0.0
 20
0.0
 30
0.0
  3
*MODEL_SPACE
  1

  0
ENDBLK
  5
E
100
AcDbEntity
  8
0
100
AcDbBlockEnd
  0
BLOCK
  5
F
100
AcDbEntity
 67
     1
  8
0
100
AcDbBlockBegin
  2
*PAPER_SPACE
 70
     0
 10
0.0
 20
0.0
 30
0.0
  3
*PAPER_SPACE
  1

  0
ENDBLK
  5
10
100
AcDbEntity
 67
     1
  8
0
100
AcDbBlockEnd
  0
BLOCK
  5
142
100
AcDbEntity
  8
0
100
AcDbBlockBegin
  2
ZU_SYM_K__CAD_SYM_POO_SYM_N20_-1
 70
    64
 10
0.0
 20
0.0
 30
0.0
  3
ZU_SYM_K__CAD_SYM_POO_SYM_N20_-1
  1

  0
CIRCLE
  5
143
100
AcDbEntity
  8
0
370
    -3
  6
Continuous
100
AcDbCircle
 10
0.0
 20
0.0
 30
0.0
 40
4.0
  0
LINE
  5
144
100
AcDbEntity
  8
0
370
    -3
  6
Continuous
100
AcDbLine
 10
2.299999
 20
-4.0
 30
0.0
 11
-2.299999
 21
-4.0
 31
0.0
  0
LINE
  5
145
100
AcDbEntity
  8
0
370
    -3
  6
Continuous
100
AcDbLine
 10
4.6
 20
-0.000001
 30
0.0
 11
2.300001
 21
-4.0
 31
0.0
  0
LINE
  5
146
100
AcDbEntity
  8
0
370
    -3
  6
Continuous
100
AcDbLine
 10
2.300001
 20
4.0
 30
0.0
 11
4.6
 21
0.000001
 31
0.0
  0
LINE
  5
147
100
AcDbEntity
  8
0
370
    -3
  6
Continuous
100
AcDbLine
 10
-2.299999
 20
4.0
 30
0.0
 11
2.299999
 21
4.0
 31
0.0
  0
LINE
  5
148
100
AcDbEntity
  8
0
370
    -3
  6
Continuous
100
AcDbLine
 10
-4.6
 20
0.000001
 30
0.0
 11
-2.300001
 21
4.0
 31
0.0
  0
LINE
  5
149
100
AcDbEntity
  8
0
370
    -3
  6
Continuous
100
AcDbLine
 10
-2.300001
 20
-4.0
 30
0.0
 11
-4.6
 21
-0.000001
 31
0.0
  0
POINT
  5
14A
100
AcDbEntity
  8
0
370
    -3
  6
Continuous
100
AcDbPoint
 10
0.0
 20
0.0
 30
0.0
  0
ENDBLK
  5
14B
100
AcDbEntity
  8
0
100
AcDbBlockEnd
  0
BLOCK
  5
14E
100
AcDbEntity
  8
0
100
AcDbBlockBegin
  2
ZU_SYM_K__CAD_SYM_POO_SYM_N20_00001-1
 70
    64
 10
0.0
 20
0.0
 30
0.0
  3
ZU_SYM_K__CAD_SYM_POO_SYM_N20_00001-1
  1

  0
CIRCLE
  5
14F
100
AcDbEntity
  8
0
370
    -3
  6
Continuous
100
AcDbCircle
 10
0.0
 20
0.0
 30
0.0
 40
4.0
  0
LINE
  5
150
100
AcDbEntity
  8
0
370
    -3
  6
Continuous
100
AcDbLine
 10
2.299999
 20
-4.0
 30
0.0
 11
-2.299999
 21
-4.0
 31
0.0
  0
LINE
  5
151
100
AcDbEntity
  8
0
370
    -3
  6
Continuous
100
AcDbLine
 10
4.6
 20
-0.000001
 30
0.0
 11
2.300001
 21
-4.0
 31
0.0
  0
LINE
  5
152
100
AcDbEntity
  8
0
370
    -3
  6
Continuous
100
AcDbLine
 10
2.300001
 20
4.0
 30
0.0
 11
4.6
 21
0.000001
 31
0.0
  0
LINE
  5
153
100
AcDbEntity
  8
0
370
    -3
  6
Continuous
100
AcDbLine
 10
-2.299999
 20
4.0
 30
0.0
 11
2.299999
 21
4.0
 31
0.0
  0
LINE
  5
154
100
AcDbEntity
  8
0
370
    -3
  6
Continuous
100
AcDbLine
 10
-4.6
 20
0.000001
 30
0.0
 11
-2.300001
 21
4.0
 31
0.0
  0
LINE
  5
155
100
AcDbEntity
  8
0
370
    -3
  6
Continuous
100
AcDbLine
 10
-2.300001
 20
-4.0
 30
0.0
 11
-4.6
 21
-0.000001
 31
0.0
  0
POINT
  5
156
100
AcDbEntity
  8
0
370
    -3
  6
Continuous
100
AcDbPoint
 10
0.0
 20
0.0
 30
0.0
  0
ENDBLK
  5
157
100
AcDbEntity
  8
0
100
AcDbBlockEnd
  0
BLOCK
  5
17B
100
AcDbEntity
  8
0
100
AcDbBlockBegin
  2
ZU_SYM__USERS_HOME_SYMBOL_STD_SYM_B01_-1
 70
    64
 10
0.0
 20
0.0
 30
0.0
  3
ZU_SYM__USERS_HOME_SYMBOL_STD_SYM_B01_-1
  1

  0
ARC
  5
17C
100
AcDbEntity
  8
0
370
    -3
  6
Continuous
100
AcDbCircle
 10
2.040001
 20
-0.000008
 30
0.0
 40
5.539999
100
AcDbArc
 50
155.470187
 51
204.52925
  0
ARC
  5
17D
100
AcDbEntity
  8
0
370
    -3
  6
Continuous
100
AcDbCircle
 10
-1.929986
 20
3.450007
 30
0.0
 40
1.57
100
AcDbArc
 50
179.999745
 51
227.099746
  0
ARC
  5
17E
100
AcDbEntity
  8
0
370
    -3
  6
Continuous
100
AcDbCircle
 10
-1.930014
 20
-3.449991
 30
0.0
 40
1.57
100
AcDbArc
 50
132.899744
 51
179.999745
  0
LINE
  5
17F
100
AcDbEntity
  8
0
370
    -3
  6
Continuous
100
AcDbLine
 10
-2.999989
 20
2.300011
 30
0.0
 11
0.000009
 21
2.3
 31
0.0
  0
LINE
  5
180
100
AcDbEntity
  8
0
370
    -3
  6
Continuous
100
AcDbLine
 10
-3.000008
 20
-2.299986
 30
0.0
 11
-0.000008
 21
-2.299998
 31
0.0
  0
LINE
  5
181
100
AcDbEntity
  8
0
370
    -3
  6
Continuous
100
AcDbLine
 10
0.000019
 20
4.6
 30
0.0
 11
-0.000019
 21
-4.6
 31
0.0
  0
LINE
  5
182
100
AcDbEntity
  8
0
370
    -3
  6
Continuous
100
AcDbLine
 10
-2.999979
 20
4.600012
 30
0.0
 11
0.000019
 21
4.600001
 31
0.0
  0
LINE
  5
183
100
AcDbEntity
  8
0
370
    -3
  6
Continuous
100
AcDbLine
 10
-3.499965
 20
3.9
 30
0.0
 11
-2.999964
 21
4.599998
 31
0.0
  0
LINE
  5
184
100
AcDbEntity
  8
0
370
    -3
  6
Continuous
100
AcDbLine
 10
-3.500012
 20
-3.89998
 30
0.0
 11
-3.49998
 21
3.90001
 31
0.0
  0
LINE
  5
185
100
AcDbEntity
  8
0
370
    -3
  6
Continuous
100
AcDbLine
 10
-2.999996
 20
-4.59997
 30
0.0
 11
-3.499991
 21
-3.899967
 31
0.0
  0
LINE
  5
186
100
AcDbEntity
  8
0
370
    -3
  6
Continuous
100
AcDbLine
 10
-0.000018
 20
-4.599998
 30
0.0
 11
-3.000017
 21
-4.599986
 31
0.0
  0
POINT
  5
187
100
AcDbEntity
  8
0
370
    -3
  6
Continuous
100
AcDbPoint
 10
0.0
 20
0.0
 30
0.0
  0
ENDBLK
  5
188
100
AcDbEntity
  8
0
100
AcDbBlockEnd
  0
BLOCK
  5
18B
100
AcDbEntity
  8
0
100
AcDbBlockBegin
  2
ZU_SYM__USERS_HOME_SYMBOL_STD_SYM_B01_00002-1
 70
    64
 10
0.0
 20
0.0
 30
0.0
  3
ZU_SYM__USERS_HOME_SYMBOL_STD_SYM_B01_00002-1
  1

  0
ARC
  5
18C
100
AcDbEntity
  8
0
370
    -3
  6
Continuous
100
AcDbCircle
 10
2.040001
 20
-0.000008
 30
0.0
 40
5.539999
100
AcDbArc
 50
155.470187
 51
204.52925
  0
ARC
  5
18D
100
AcDbEntity
  8
0
370
    -3
  6
Continuous
100
AcDbCircle
 10
-1.929986
 20
3.450007
 30
0.0
 40
1.57
100
AcDbArc
 50
179.999745
 51
227.099746
  0
ARC
  5
18E
100
AcDbEntity
  8
0
370
    -3
  6
Continuous
100
AcDbCircle
 10
-1.930014
 20
-3.449991
 30
0.0
 40
1.57
100
AcDbArc
 50
132.899744
 51
179.999745
  0
LINE
  5
18F
100
AcDbEntity
  8
0
370
    -3
  6
Continuous
100
AcDbLine
 10
-2.999989
 20
2.300011
 30
0.0
 11
0.000009
 21
2.3
 31
0.0
  0
LINE
  5
190
100
AcDbEntity
  8
0
370
    -3
  6
Continuous
100
AcDbLine
 10
-3.000008
 20
-2.299986
 30
0.0
 11
-0.000008
 21
-2.299998
 31
0.0
  0
LINE
  5
191
100
AcDbEntity
  8
0
370
    -3
  6
Continuous
100
AcDbLine
 10
0.000019
 20
4.6
 30
0.0
 11
-0.000019
 21
-4.6
 31
0.0
  0
LINE
  5
192
100
AcDbEntity
  8
0
370
    -3
  6
Continuous
100
AcDbLine
 10
-2.999979
 20
4.600012
 30
0.0
 11
0.000019
 21
4.600001
 31
0.0
  0
LINE
  5
193
100
AcDbEntity
  8
0
370
    -3
  6
Continuous
100
AcDbLine
 10
-3.499965
 20
3.9
 30
0.0
 11
-2.999964
 21
4.599998
 31
0.0
  0
LINE
  5
194
100
AcDbEntity
  8
0
370
    -3
  6
Continuous
100
AcDbLine
 10
-3.500012
 20
-3.89998
 30
0.0
 11
-3.49998
 21
3.90001
 31
0.0
  0
LINE
  5
195
100
AcDbEntity
  8
0
370
    -3
  6
Continuous
100
AcDbLine
 10
-2.999996
 20
-4.59997
 30
0.0
 11
-3.499991
 21
-3.899967
 31
0.0
  0
LINE
  5
196
100
AcDbEntity
  8
0
370
    -3
  6
Continuous
100
AcDbLine
 10
-0.000018
 20
-4.599998
 30
0.0
 11
-3.000017
 21
-4.599986
 31
0.0
  0
POINT
  5
197
100
AcDbEntity
  8
0
370
    -3
  6
Continuous
100
AcDbPoint
 10
0.0
 20
0.0
 30
0.0
  0
ENDBLK
  5
198
100
AcDbEntity
  8
0
100
AcDbBlockEnd
  0
BLOCK
  5
242
100
AcDbEntity
  8
0
100
AcDbBlockBegin
  2
ZU_SYM__USERS_HOME_SYMBOL_STD_SYM_B01_00003-1
 70
    64
 10
0.0
 20
0.0
 30
0.0
  3
ZU_SYM__USERS_HOME_SYMBOL_STD_SYM_B01_00003-1
  1

  0
ARC
  5
243
100
AcDbEntity
  8
0
370
    -3
  6
Continuous
100
AcDbCircle
 10
2.040001
 20
-0.000008
 30
0.0
 40
5.539999
100
AcDbArc
 50
155.470187
 51
204.52925
  0
ARC
  5
244
100
AcDbEntity
  8
0
370
    -3
  6
Continuous
100
AcDbCircle
 10
-1.929986
 20
3.450007
 30
0.0
 40
1.57
100
AcDbArc
 50
179.999745
 51
227.099746
  0
ARC
  5
245
100
AcDbEntity
  8
0
370
    -3
  6
Continuous
100
AcDbCircle
 10
-1.930014
 20
-3.449991
 30
0.0
 40
1.57
100
AcDbArc
 50
132.899744
 51
179.999745
  0
LINE
  5
246
100
AcDbEntity
  8
0
370
    -3
  6
Continuous
100
AcDbLine
 10
-2.999989
 20
2.300011
 30
0.0
 11
0.000009
 21
2.3
 31
0.0
  0
LINE
  5
247
100
AcDbEntity
  8
0
370
    -3
  6
Continuous
100
AcDbLine
 10
-3.000008
 20
-2.299986
 30
0.0
 11
-0.000008
 21
-2.299998
 31
0.0
  0
LINE
  5
248
100
AcDbEntity
  8
0
370
    -3
  6
Continuous
100
AcDbLine
 10
0.000019
 20
4.6
 30
0.0
 11
-0.000019
 21
-4.6
 31
0.0
  0
LINE
  5
249
100
AcDbEntity
  8
0
370
    -3
  6
Continuous
100
AcDbLine
 10
-2.999979
 20
4.600012
 30
0.0
 11
0.000019
 21
4.600001
 31
0.0
  0
LINE
  5
24A
100
AcDbEntity
  8
0
370
    -3
  6
Continuous
100
AcDbLine
 10
-3.499965
 20
3.9
 30
0.0
 11
-2.999964
 21
4.599998
 31
0.0
  0
LINE
  5
24B
100
AcDbEntity
  8
0
370
    -3
  6
Continuous
100
AcDbLine
 10
-3.500012
 20
-3.89998
 30
0.0
 11
-3.49998
 21
3.90001
 31
0.0
  0
LINE
  5
24C
100
AcDbEntity
  8
0
370
    -3
  6
Continuous
100
AcDbLine
 10
-2.999996
 20
-4.59997
 30
0.0
 11
-3.499991
 21
-3.899967
 31
0.0
  0
LINE
  5
24D
100
AcDbEntity
  8
0
370
    -3
  6
Continuous
100
AcDbLine
 10
-0.000018
 20
-4.599998
 30
0.0
 11
-3.000017
 21
-4.599986
 31
0.0
  0
POINT
  5
24E
100
AcDbEntity
  8
0
370
    -3
  6
Continuous
100
AcDbPoint
 10
0.0
 20
0.0
 30
0.0
  0
ENDBLK
  5
24F
100
AcDbEntity
  8
0
100
AcDbBlockEnd
  0
BLOCK
  5
252
100
AcDbEntity
  8
0
100
AcDbBlockBegin
  2
ZU_SYM__USERS_HOME_SYMBOL_STD_SYM_B01_00004-1
 70
    64
 10
0.0
 20
0.0
 30
0.0
  3
ZU_SYM__USERS_HOME_SYMBOL_STD_SYM_B01_00004-1
  1

  0
ARC
  5
253
100
AcDbEntity
  8
0
370
    -3
  6
Continuous
100
AcDbCircle
 10
2.040001
 20
-0.000008
 30
0.0
 40
5.539999
100
AcDbArc
 50
155.470187
 51
204.52925
  0
ARC
  5
254
100
AcDbEntity
  8
0
370
    -3
  6
Continuous
100
AcDbCircle
 10
-1.929986
 20
3.450007
 30
0.0
 40
1.57
100
AcDbArc
 50
179.999745
 51
227.099746
  0
ARC
  5
255
100
AcDbEntity
  8
0
370
    -3
  6
Continuous
100
AcDbCircle
 10
-1.930014
 20
-3.449991
 30
0.0
 40
1.57
100
AcDbArc
 50
132.899744
 51
179.999745
  0
LINE
  5
256
100
AcDbEntity
  8
0
370
    -3
  6
Continuous
100
AcDbLine
 10
-2.999989
 20
2.300011
 30
0.0
 11
0.000009
 21
2.3
 31
0.0
  0
LINE
  5
257
100
AcDbEntity
  8
0
370
    -3
  6
Continuous
100
AcDbLine
 10
-3.000008
 20
-2.299986
 30
0.0
 11
-0.000008
 21
-2.299998
 31
0.0
  0
LINE
  5
258
100
AcDbEntity
  8
0
370
    -3
  6
Continuous
100
AcDbLine
 10
0.000019
 20
4.6
 30
0.0
 11
-0.000019
 21
-4.6
 31
0.0
  0
LINE
  5
259
100
AcDbEntity
  8
0
370
    -3
  6
Continuous
100
AcDbLine
 10
-2.999979
 20
4.600012
 30
0.0
 11
0.000019
 21
4.600001
 31
0.0
  0
LINE
  5
25A
100
AcDbEntity
  8
0
370
    -3
  6
Continuous
100
AcDbLine
 10
-3.499965
 20
3.9
 30
0.0
 11
-2.999964
 21
4.599998
 31
0.0
  0
LINE
  5
25B
100
AcDbEntity
  8
0
370
    -3
  6
Continuous
100
AcDbLine
 10
-3.500012
 20
-3.89998
 30
0.0
 11
-3.49998
 21
3.90001
 31
0.0
  0
LINE
  5
25C
100
AcDbEntity
  8
0
370
    -3
  6
Continuous
100
AcDbLine
 10
-2.999996
 20
-4.59997
 30
0.0
 11
-3.499991
 21
-3.899967
 31
0.0
  0
LINE
  5
25D
100
AcDbEntity
  8
0
370
    -3
  6
Continuous
100
AcDbLine
 10
-0.000018
 20
-4.599998
 30
0.0
 11
-3.000017
 21
-4.599986
 31
0.0
  0
POINT
  5
25E
100
AcDbEntity
  8
0
370
    -3
  6
Continuous
100
AcDbPoint
 10
0.0
 20
0.0
 30
0.0
  0
ENDBLK
  5
25F
100
AcDbEntity
  8
0
100
AcDbBlockEnd
  0
BLOCK
  5
2E8
100
AcDbEntity
  8
0
100
AcDbBlockBegin
  2
ZU_SYM_C__ZUOU_AC_BLOCK_ZU_SYM_C__ZUOU_AC_BLOCK_ZU_SYM__USR_MELCAD_MD_SYM_SYM_SYM1_-1_-1_-1
 70
    64
 10
0.0
 20
0.0
 30
0.0
  3
ZU_SYM_C__ZUOU_AC_BLOCK_ZU_SYM_C__ZUOU_AC_BLOCK_ZU_SYM__USR_MELCAD_MD_SYM_SYM_SYM1_-1_-1_-1
  1

  0
LINE
  5
2E9
100
AcDbEntity
  8
0
370
    -3
  6
Continuous
100
AcDbLine
 10
-7.499999
 20
6.5
 30
0.0
 11
-7.499999
 21
-6.5
 31
0.0
  0
LINE
  5
2EA
100
AcDbEntity
  8
0
370
    -3
  6
Continuous
100
AcDbLine
 10
-7.499998
 20
-6.499999
 30
0.0
 11
-7.999999
 21
-5.63407
 31
0.0
  0
LINE
  5
2EB
100
AcDbEntity
  8
0
370
    -3
  6
Continuous
100
AcDbLine
 10
-7.499999
 20
6.5
 30
0.0
 11
-7.999999
 21
5.633876
 31
0.0
  0
LINE
  5
2EC
100
AcDbEntity
  8
0
370
    -3
  6
Continuous
100
AcDbLine
 10
0.0
 20
-6.5
 30
0.0
 11
-7.499998
 21
-6.5
 31
0.0
  0
LINE
  5
2ED
100
AcDbEntity
  8
0
370
    -3
  6
Continuous
100
AcDbLine
 10
0.0
 20
6.5
 30
0.0
 11
-7.499999
 21
6.5
 31
0.0
  0
LINE
  5
2EE
100
AcDbEntity
  8
0
370
    -3
  6
Continuous
100
AcDbLine
 10
-7.999999
 20
5.633876
 30
0.0
 11
-7.999999
 21
-5.63407
 31
0.0
  0
LINE
  5
2EF
100
AcDbEntity
  8
0
370
    -3
  6
Continuous
100
AcDbLine
 10
0.0
 20
-6.5
 30
0.0
 11
0.0
 21
6.5
 31
0.0
  0
POINT
  5
2F0
100
AcDbEntity
  8
0
370
    -3
  6
Continuous
100
AcDbPoint
 10
0.0
 20
0.0
 30
0.0
  0
ENDBLK
  5
2F1
100
AcDbEntity
  8
0
100
AcDbBlockEnd
  0
BLOCK
  5
2F6
100
AcDbEntity
  8
0
100
AcDbBlockBegin
  2
ZU_SYM_C__ZUOU_AC_BLOCK_ZU_SYM_C__ZUOU_AC_BLOCK_ZU_SYM__USR_MELCAD_MD_SYM_SYM_SYM1_00009-1_-1_-1
 70
    64
 10
0.0
 20
0.0
 30
0.0
  3
ZU_SYM_C__ZUOU_AC_BLOCK_ZU_SYM_C__ZUOU_AC_BLOCK_ZU_SYM__USR_MELCAD_MD_SYM_SYM_SYM1_00009-1_-1_-1
  1

  0
LINE
  5
2F7
100
AcDbEntity
  8
0
370
    -3
  6
Continuous
100
AcDbLine
 10
-7.499999
 20
6.5
 30
0.0
 11
-7.499999
 21
-6.5
 31
0.0
  0
LINE
  5
2F8
100
AcDbEntity
  8
0
370
    -3
  6
Continuous
100
AcDbLine
 10
-7.499998
 20
-6.499999
 30
0.0
 11
-7.999999
 21
-5.63407
 31
0.0
  0
LINE
  5
2F9
100
AcDbEntity
  8
0
370
    -3
  6
Continuous
100
AcDbLine
 10
-7.499999
 20
6.5
 30
0.0
 11
-7.999999
 21
5.633876
 31
0.0
  0
LINE
  5
2FA
100
AcDbEntity
  8
0
370
    -3
  6
Continuous
100
AcDbLine
 10
0.0
 20
-6.5
 30
0.0
 11
-7.499998
 21
-6.5
 31
0.0
  0
LINE
  5
2FB
100
AcDbEntity
  8
0
370
    -3
  6
Continuous
100
AcDbLine
 10
0.0
 20
6.5
 30
0.0
 11
-7.499999
 21
6.5
 31
0.0
  0
LINE
  5
2FC
100
AcDbEntity
  8
0
370
    -3
  6
Continuous
100
AcDbLine
 10
-7.999999
 20
5.633876
 30
0.0
 11
-7.999999
 21
-5.63407
 31
0.0
  0
LINE
  5
2FD
100
AcDbEntity
  8
0
370
    -3
  6
Continuous
100
AcDbLine
 10
0.0
 20
-6.5
 30
0.0
 11
0.0
 21
6.5
 31
0.0
  0
POINT
  5
2FE
100
AcDbEntity
  8
0
370
    -3
  6
Continuous
100
AcDbPoint
 10
0.0
 20
0.0
 30
0.0
  0
ENDBLK
  5
2FF
100
AcDbEntity
  8
0
100
AcDbBlockEnd
  0
BLOCK
  5
384
100
AcDbEntity
  8
0
100
AcDbBlockBegin
  2
ZU_SYM__USERS_HOME_SYMBOL_POO_SYM_B20_-1
 70
    64
 10
0.0
 20
0.0
 30
0.0
  3
ZU_SYM__USERS_HOME_SYMBOL_POO_SYM_B20_-1
  1

  0
LINE
  5
385
100
AcDbEntity
  8
0
370
    -3
  6
Continuous
100
AcDbLine
 10
-7.499999
 20
6.5
 30
0.0
 11
-7.499999
 21
-6.5
 31
0.0
  0
LINE
  5
386
100
AcDbEntity
  8
0
370
    -3
  6
Continuous
100
AcDbLine
 10
-7.499998
 20
-6.499999
 30
0.0
 11
-7.999999
 21
-5.63407
 31
0.0
  0
LINE
  5
387
100
AcDbEntity
  8
0
370
    -3
  6
Continuous
100
AcDbLine
 10
-7.499999
 20
6.5
 30
0.0
 11
-7.999999
 21
5.633876
 31
0.0
  0
LINE
  5
388
100
AcDbEntity
  8
0
370
    -3
  6
Continuous
100
AcDbLine
 10
0.0
 20
-6.5
 30
0.0
 11
-7.499998
 21
-6.5
 31
0.0
  0
LINE
  5
389
100
AcDbEntity
  8
0
370
    -3
  6
Continuous
100
AcDbLine
 10
0.0
 20
6.5
 30
0.0
 11
-7.499999
 21
6.5
 31
0.0
  0
LINE
  5
38A
100
AcDbEntity
  8
0
370
    -3
  6
Continuous
100
AcDbLine
 10
-7.999999
 20
5.633876
 30
0.0
 11
-7.999999
 21
-5.63407
 31
0.0
  0
LINE
  5
38B
100
AcDbEntity
  8
0
370
    -3
  6
Continuous
100
AcDbLine
 10
0.0
 20
-6.5
 30
0.0
 11
0.0
 21
6.5
 31
0.0
  0
POINT
  5
38C
100
AcDbEntity
  8
0
370
    -3
  6
Continuous
100
AcDbPoint
 10
0.0
 20
0.0
 30
0.0
  0
ENDBLK
  5
38D
100
AcDbEntity
  8
0
100
AcDbBlockEnd
  0
ENDSEC
  0
SECTION
  2
ENTITIES
  0
ARC
  5
2B
100
AcDbEntity
  8
0
370
    -3
  6
Continuous
100
AcDbCircle
 10
662.401228
 20
270.837511
 30
0.0
 40
400.6
100
AcDbArc
 50
270.0
 51
272.946011
  0
ARC
  5
2C
100
AcDbEntity
  8
0
370
    -3
  6
Continuous
100
AcDbCircle
 10
662.401228
 20
270.837511
 30
0.0
 40
400.6
100
AcDbArc
 50
267.053989
 51
270.0
  0
ARC
  5
2D
100
AcDbEntity
  8
0
370
    -3
  6
Continuous
100
AcDbCircle
 10
652.752468
 20
-56.050346
 30
0.0
 40
1.5
100
AcDbArc
 50
30.0
 51
137.920213
  0
LINE
  5
2E
100
AcDbEntity
  8
0
370
    -3
  6
Continuous
100
AcDbLine
 10
654.051506
 20
-55.300346
 30
0.0
 11
655.653589
 21
-58.075235
 31
0.0
  0
ARC
  5
2F
100
AcDbEntity
  8
0
370
    -3
  6
Continuous
100
AcDbCircle
 10
654.354551
 20
-58.825235
 30
0.0
 40
1.5
100
AcDbArc
 50
323.578178
 51
30.0
  0
ARC
  5
30
100
AcDbEntity
  8
0
370
    -3
  6
Continuous
100
AcDbCircle
 10
662.401228
 20
-64.762489
 30
0.0
 40
8.5
100
AcDbArc
 50
143.578178
 51
156.421822
  0
ARC
  5
31
100
AcDbEntity
  8
0
370
    -3
  6
Continuous
100
AcDbCircle
 10
653.236077
 20
-60.762489
 30
0.0
 40
1.5
100
AcDbArc
 50
270.0
 51
336.421822
  0
LINE
  5
32
100
AcDbEntity
  8
0
370
    -3
  6
Continuous
100
AcDbLine
 10
653.236077
 20
-62.262489
 30
0.0
 11
650.031911
 21
-62.262489
 31
0.0
  0
ARC
  5
33
100
AcDbEntity
  8
0
370
    -3
  6
Continuous
100
AcDbCircle
 10
650.031911
 20
-60.762489
 30
0.0
 40
1.5
100
AcDbArc
 50
162.079787
 51
270.0
  0
ARC
  5
34
100
AcDbEntity
  8
0
370
    -3
  6
Continuous
100
AcDbCircle
 10
662.401228
 20
-64.762489
 30
0.0
 40
14.5
100
AcDbArc
 50
137.920213
 51
162.079787
  0
ARC
  5
35
100
AcDbEntity
  8
0
370
    -3
  6
Continuous
100
AcDbCircle
 10
647.866332
 20
-47.58731
 30
0.0
 40
1.5
100
AcDbArc
 50
30.0
 51
130.240348
  0
LINE
  5
36
100
AcDbEntity
  8
0
370
    -3
  6
Continuous
100
AcDbLine
 10
649.16537
 20
-46.83731
 30
0.0
 11
650.693498
 21
-49.484104
 31
0.0
  0
ARC
  5
37
100
AcDbEntity
  8
0
370
    -3
  6
Continuous
100
AcDbCircle
 10
649.394459
 20
-50.234104
 30
0.0
 40
1.5
100
AcDbArc
 50
311.837004
 51
30.0
  0
ARC
  5
38
100
AcDbEntity
  8
0
370
    -3
  6
Continuous
100
AcDbCircle
 10
662.401228
 20
-64.762489
 30
0.0
 40
18.0
100
AcDbArc
 50
131.837004
 51
168.162996
  0
ARC
  5
39
100
AcDbEntity
  8
0
370
    -3
  6
Continuous
100
AcDbCircle
 10
643.315894
 20
-60.762489
 30
0.0
 40
1.5
100
AcDbArc
 50
270.0
 51
348.162996
  0
LINE
  5
3A
100
AcDbEntity
  8
0
370
    -3
  6
Continuous
100
AcDbLine
 10
643.315894
 20
-62.262489
 30
0.0
 11
640.259639
 21
-62.262489
 31
0.0
  0
ARC
  5
3B
100
AcDbEntity
  8
0
370
    -3
  6
Continuous
100
AcDbCircle
 10
640.259639
 20
-60.762489
 30
0.0
 40
1.5
100
AcDbArc
 50
169.759652
 51
270.0
  0
ARC
  5
3C
100
AcDbEntity
  8
0
370
    -3
  6
Continuous
100
AcDbCircle
 10
662.401228
 20
-64.762489
 30
0.0
 40
24.0
100
AcDbArc
 50
130.240348
 51
169.759652
  0
ARC
  5
3D
100
AcDbEntity
  8
0
370
    -3
  6
Continuous
100
AcDbCircle
 10
703.708007
 20
-60.762489
 30
0.0
 40
1.5
100
AcDbArc
 50
270.0
 51
5.531072
  0
ARC
  5
3E
100
AcDbEntity
  8
0
370
    -3
  6
Continuous
100
AcDbCircle
 10
700.692872
 20
-60.762489
 30
0.0
 40
1.5
100
AcDbArc
 50
185.96357
 51
270.0
  0
ARC
  5
3F
100
AcDbEntity
  8
0
370
    -3
  6
Continuous
100
AcDbCircle
 10
694.150244
 20
-60.762489
 30
0.0
 40
1.5
100
AcDbArc
 50
270.0
 51
7.180756
  0
LINE
  5
40
100
AcDbEntity
  8
0
370
    -3
  6
Continuous
100
AcDbLine
 10
694.150244
 20
-62.262489
 30
0.0
 11
691.124042
 21
-62.262489
 31
0.0
  0
LINE
  5
41
100
AcDbEntity
  8
0
370
    -3
  6
Continuous
100
AcDbLine
 10
703.708007
 20
-62.262489
 30
0.0
 11
700.692872
 21
-62.262489
 31
0.0
  0
ARC
  5
42
100
AcDbEntity
  8
0
370
    -3
  6
Continuous
100
AcDbCircle
 10
662.401228
 20
-64.762489
 30
0.0
 40
27.5
100
AcDbArc
 50
127.928142
 51
172.071858
  0
ARC
  5
43
100
AcDbEntity
  8
0
370
    -3
  6
Continuous
100
AcDbCircle
 10
633.678415
 20
-60.762489
 30
0.0
 40
1.5
100
AcDbArc
 50
270.0
 51
352.071858
  0
ARC
  5
44
100
AcDbEntity
  8
0
370
    -3
  6
Continuous
100
AcDbCircle
 10
630.652213
 20
-60.762489
 30
0.0
 40
1.5
100
AcDbArc
 50
172.819244
 51
270.0
  0
ARC
  5
45
100
AcDbEntity
  8
0
370
    -3
  6
Continuous
100
AcDbCircle
 10
624.109584
 20
-60.762489
 30
0.0
 40
1.5
100
AcDbArc
 50
270.0
 51
354.03643
  0
LINE
  5
46
100
AcDbEntity
  8
0
370
    -3
  6
Continuous
100
AcDbLine
 10
633.678415
 20
-62.262489
 30
0.0
 11
630.652213
 21
-62.262489
 31
0.0
  0
LINE
  5
47
100
AcDbEntity
  8
0
370
    -3
  6
Continuous
100
AcDbLine
 10
624.109584
 20
-62.262489
 30
0.0
 11
621.094449
 21
-62.262489
 31
0.0
  0
ARC
  5
48
100
AcDbEntity
  8
0
370
    -3
  6
Continuous
100
AcDbCircle
 10
621.094449
 20
-60.762489
 30
0.0
 40
1.5
100
AcDbArc
 50
174.468928
 51
270.0
  0
ARC
  5
49
100
AcDbEntity
  8
0
370
    -3
  6
Continuous
100
AcDbCircle
 10
662.401228
 20
-64.762489
 30
0.0
 40
27.5
100
AcDbArc
 50
7.928142
 51
52.071858
  0
ARC
  5
4A
100
AcDbEntity
  8
0
370
    -3
  6
Continuous
100
AcDbCircle
 10
691.124042
 20
-60.762489
 30
0.0
 40
1.5
100
AcDbArc
 50
187.928142
 51
270.0
  0
ARC
  5
4B
100
AcDbEntity
  8
0
370
    -3
  6
Continuous
100
AcDbCircle
 10
670.447906
 20
-58.825235
 30
0.0
 40
1.5
100
AcDbArc
 50
150.0
 51
216.421822
  0
ARC
  5
4C
100
AcDbEntity
  8
0
370
    -3
  6
Continuous
100
AcDbCircle
 10
671.56638
 20
-60.762489
 30
0.0
 40
1.5
100
AcDbArc
 50
203.578178
 51
270.0
  0
ARC
  5
4D
100
AcDbEntity
  8
0
370
    -3
  6
Continuous
100
AcDbCircle
 10
676.936125
 20
-47.58731
 30
0.0
 40
1.5
100
AcDbArc
 50
49.759652
 51
150.0
  0
ARC
  5
4E
100
AcDbEntity
  8
0
370
    -3
  6
Continuous
100
AcDbCircle
 10
674.770545
 20
-60.762489
 30
0.0
 40
1.5
100
AcDbArc
 50
270.0
 51
17.920213
  0
ARC
  5
4F
100
AcDbEntity
  8
0
370
    -3
  6
Continuous
100
AcDbCircle
 10
681.486563
 20
-60.762489
 30
0.0
 40
1.5
100
AcDbArc
 50
191.837004
 51
270.0
  0
ARC
  5
50
100
AcDbEntity
  8
0
370
    -3
  6
Continuous
100
AcDbCircle
 10
675.407997
 20
-50.234104
 30
0.0
 40
1.5
100
AcDbArc
 50
150.0
 51
228.162996
  0
ARC
  5
51
100
AcDbEntity
  8
0
370
    -3
  6
Continuous
100
AcDbCircle
 10
684.542818
 20
-60.762489
 30
0.0
 40
1.5
100
AcDbArc
 50
270.0
 51
10.240348
  0
ARC
  5
52
100
AcDbEntity
  8
0
370
    -3
  6
Continuous
100
AcDbCircle
 10
672.049988
 20
-56.050346
 30
0.0
 40
1.5
100
AcDbArc
 50
42.079787
 51
150.0
  0
LINE
  5
53
100
AcDbEntity
  8
0
370
    -3
  6
Continuous
100
AcDbLine
 10
674.108959
 20
-49.484104
 30
0.0
 11
675.637087
 21
-46.83731
 31
0.0
  0
ARC
  5
54
100
AcDbEntity
  8
0
370
    -3
  6
Continuous
100
AcDbCircle
 10
662.401228
 20
-64.762489
 30
0.0
 40
18.0
100
AcDbArc
 50
11.837004
 51
48.162996
  0
ARC
  5
55
100
AcDbEntity
  8
0
370
    -3
  6
Continuous
100
AcDbCircle
 10
662.401228
 20
-64.762489
 30
0.0
 40
14.5
100
AcDbArc
 50
17.920213
 51
42.079787
  0
LINE
  5
56
100
AcDbEntity
  8
0
370
    -3
  6
Continuous
100
AcDbLine
 10
674.770545
 20
-62.262489
 30
0.0
 11
671.56638
 21
-62.262489
 31
0.0
  0
LINE
  5
57
100
AcDbEntity
  8
0
370
    -3
  6
Continuous
100
AcDbLine
 10
684.542818
 20
-62.262489
 30
0.0
 11
681.486563
 21
-62.262489
 31
0.0
  0
LINE
  5
58
100
AcDbEntity
  8
0
370
    -3
  6
Continuous
100
AcDbLine
 10
669.148868
 20
-58.075235
 30
0.0
 11
670.75095
 21
-55.300346
 31
0.0
  0
ARC
  5
59
100
AcDbEntity
  8
0
370
    -3
  6
Continuous
100
AcDbCircle
 10
662.401228
 20
-64.762489
 30
0.0
 40
24.0
100
AcDbArc
 50
10.240348
 51
49.759652
  0
ARC
  5
5A
100
AcDbEntity
  8
0
370
    -3
  6
Continuous
100
AcDbCircle
 10
662.401228
 20
-64.762489
 30
0.0
 40
8.5
100
AcDbArc
 50
23.578178
 51
36.421822
  0
ARC
  5
5B
100
AcDbEntity
  8
0
370
    -3
  6
Continuous
100
AcDbCircle
 10
659.680672
 20
-52.050346
 30
0.0
 40
1.5
100
AcDbArc
 50
102.079787
 51
210.0
  0
LINE
  5
5C
100
AcDbEntity
  8
0
370
    -3
  6
Continuous
100
AcDbLine
 10
658.381633
 20
-52.800346
 30
0.0
 11
659.983716
 21
-55.575235
 31
0.0
  0
ARC
  5
5D
100
AcDbEntity
  8
0
370
    -3
  6
Continuous
100
AcDbCircle
 10
661.282754
 20
-54.825235
 30
0.0
 40
1.5
100
AcDbArc
 50
210.0
 51
276.421822
  0
ARC
  5
5E
100
AcDbEntity
  8
0
370
    -3
  6
Continuous
100
AcDbCircle
 10
662.401228
 20
-64.762489
 30
0.0
 40
8.5
100
AcDbArc
 50
83.578178
 51
96.421822
  0
ARC
  5
5F
100
AcDbEntity
  8
0
370
    -3
  6
Continuous
100
AcDbCircle
 10
663.519702
 20
-54.825235
 30
0.0
 40
1.5
100
AcDbArc
 50
263.578178
 51
330.0
  0
LINE
  5
60
100
AcDbEntity
  8
0
370
    -3
  6
Continuous
100
AcDbLine
 10
664.818741
 20
-55.575235
 30
0.0
 11
666.420823
 21
-52.800346
 31
0.0
  0
ARC
  5
61
100
AcDbEntity
  8
0
370
    -3
  6
Continuous
100
AcDbCircle
 10
665.121785
 20
-52.050346
 30
0.0
 40
1.5
100
AcDbArc
 50
330.0
 51
77.920213
  0
ARC
  5
62
100
AcDbEntity
  8
0
370
    -3
  6
Continuous
100
AcDbCircle
 10
662.401228
 20
-64.762489
 30
0.0
 40
14.5
100
AcDbArc
 50
77.920213
 51
102.079787
  0
LINE
  5
63
100
AcDbEntity
  8
0
370
    -3
  6
Continuous
100
AcDbLine
 10
653.495497
 20
-44.33731
 30
0.0
 11
655.023625
 21
-46.984104
 31
0.0
  0
ARC
  5
64
100
AcDbEntity
  8
0
370
    -3
  6
Continuous
100
AcDbCircle
 10
656.322663
 20
-46.234104
 30
0.0
 40
1.5
100
AcDbArc
 50
210.0
 51
288.162996
  0
ARC
  5
65
100
AcDbEntity
  8
0
370
    -3
  6
Continuous
100
AcDbCircle
 10
662.401228
 20
-64.762489
 30
0.0
 40
18.0
100
AcDbArc
 50
71.837004
 51
108.162996
  0
ARC
  5
66
100
AcDbEntity
  8
0
370
    -3
  6
Continuous
100
AcDbCircle
 10
668.479794
 20
-46.234104
 30
0.0
 40
1.5
100
AcDbArc
 50
251.837004
 51
330.0
  0
LINE
  5
67
100
AcDbEntity
  8
0
370
    -3
  6
Continuous
100
AcDbLine
 10
669.778832
 20
-46.984104
 30
0.0
 11
671.30696
 21
-44.33731
 31
0.0
  0
ARC
  5
68
100
AcDbEntity
  8
0
370
    -3
  6
Continuous
100
AcDbCircle
 10
1003.001228
 20
-64.762489
 30
0.0
 40
400.6
100
AcDbArc
 50
180.0
 51
184.662206
  0
ARC
  5
69
100
AcDbEntity
  8
0
370
    -3
  6
Continuous
100
AcDbCircle
 10
1003.001228
 20
-64.762489
 30
0.0
 40
389.6
100
AcDbArc
 50
180.0
 51
184.662206
  0
ARC
  5
6A
100
AcDbEntity
  8
0
370
    -3
  6
Continuous
100
AcDbCircle
 10
629.242021
 20
-95.242892
 30
0.0
 40
25.6
100
AcDbArc
 50
184.662206
 51
225.0
  0
ARC
  5
6B
100
AcDbEntity
  8
0
370
    -3
  6
Continuous
100
AcDbCircle
 10
629.242021
 20
-95.242892
 30
0.0
 40
14.6
100
AcDbArc
 50
184.662206
 51
225.0
  0
ARC
  5
6C
100
AcDbEntity
  8
0
370
    -3
  6
Continuous
100
AcDbCircle
 10
662.401228
 20
-64.762489
 30
0.0
 40
43.0
100
AcDbArc
 50
185.531072
 51
234.468928
  0
ARC
  5
6D
100
AcDbEntity
  8
0
370
    -3
  6
Continuous
100
AcDbCircle
 10
321.801228
 20
-64.762489
 30
0.0
 40
389.6
100
AcDbArc
 50
355.337794
 51
0.0
  0
ARC
  5
6E
100
AcDbEntity
  8
0
370
    -3
  6
Continuous
100
AcDbCircle
 10
321.801228
 20
-64.762489
 30
0.0
 40
400.6
100
AcDbArc
 50
355.337794
 51
0.0
  0
ARC
  5
6F
100
AcDbEntity
  8
0
370
    -3
  6
Continuous
100
AcDbCircle
 10
662.401228
 20
-64.762489
 30
0.0
 40
43.0
100
AcDbArc
 50
305.531072
 51
354.468928
  0
ARC
  5
70
100
AcDbEntity
  8
0
370
    -3
  6
Continuous
100
AcDbCircle
 10
695.560436
 20
-95.242892
 30
0.0
 40
14.6
100
AcDbArc
 50
315.0
 51
355.337794
  0
ARC
  5
71
100
AcDbEntity
  8
0
370
    -3
  6
Continuous
100
AcDbCircle
 10
695.560436
 20
-95.242892
 30
0.0
 40
25.6
100
AcDbArc
 50
315.0
 51
355.337794
  0
ARC
  5
72
100
AcDbEntity
  8
0
370
    -3
  6
Continuous
100
AcDbCircle
 10
661.282754
 20
-74.699743
 30
0.0
 40
1.5
100
AcDbArc
 50
83.578178
 51
150.0
  0
ARC
  5
73
100
AcDbEntity
  8
0
370
    -3
  6
Continuous
100
AcDbCircle
 10
662.401228
 20
-64.762489
 30
0.0
 40
8.5
100
AcDbArc
 50
263.578178
 51
276.421822
  0
ARC
  5
74
100
AcDbEntity
  8
0
370
    -3
  6
Continuous
100
AcDbCircle
 10
663.519702
 20
-74.699743
 30
0.0
 40
1.5
100
AcDbArc
 50
30.0
 51
96.421822
  0
LINE
  5
75
100
AcDbEntity
  8
0
370
    -3
  6
Continuous
100
AcDbLine
 10
664.818741
 20
-73.949743
 30
0.0
 11
666.420823
 21
-76.724632
 31
0.0
  0
ARC
  5
76
100
AcDbEntity
  8
0
370
    -3
  6
Continuous
100
AcDbCircle
 10
665.121785
 20
-77.474632
 30
0.0
 40
1.5
100
AcDbArc
 50
282.079787
 51
30.0
  0
ARC
  5
77
100
AcDbEntity
  8
0
370
    -3
  6
Continuous
100
AcDbCircle
 10
662.401228
 20
-64.762489
 30
0.0
 40
14.5
100
AcDbArc
 50
257.920213
 51
282.079787
  0
ARC
  5
78
100
AcDbEntity
  8
0
370
    -3
  6
Continuous
100
AcDbCircle
 10
654.794535
 20
-85.937668
 30
0.0
 40
1.5
100
AcDbArc
 50
150.0
 51
250.240348
  0
LINE
  5
79
100
AcDbEntity
  8
0
370
    -3
  6
Continuous
100
AcDbLine
 10
653.495497
 20
-85.187668
 30
0.0
 11
655.023625
 21
-82.540874
 31
0.0
  0
ARC
  5
7A
100
AcDbEntity
  8
0
370
    -3
  6
Continuous
100
AcDbCircle
 10
656.322663
 20
-83.290874
 30
0.0
 40
1.5
100
AcDbArc
 50
71.837004
 51
150.0
  0
ARC
  5
7B
100
AcDbEntity
  8
0
370
    -3
  6
Continuous
100
AcDbCircle
 10
662.401228
 20
-64.762489
 30
0.0
 40
18.0
100
AcDbArc
 50
251.837004
 51
288.162996
  0
ARC
  5
7C
100
AcDbEntity
  8
0
370
    -3
  6
Continuous
100
AcDbCircle
 10
668.479794
 20
-83.290874
 30
0.0
 40
1.5
100
AcDbArc
 50
30.0
 51
108.162996
  0
LINE
  5
7D
100
AcDbEntity
  8
0
370
    -3
  6
Continuous
100
AcDbLine
 10
669.778832
 20
-82.540874
 30
0.0
 11
671.30696
 21
-85.187668
 31
0.0
  0
ARC
  5
7E
100
AcDbEntity
  8
0
370
    -3
  6
Continuous
100
AcDbCircle
 10
670.007922
 20
-85.937668
 30
0.0
 40
1.5
100
AcDbArc
 50
289.759652
 51
30.0
  0
ARC
  5
7F
100
AcDbEntity
  8
0
370
    -3
  6
Continuous
100
AcDbCircle
 10
662.401228
 20
-64.762489
 30
0.0
 40
24.0
100
AcDbArc
 50
250.240348
 51
289.759652
  0
ARC
  5
80
100
AcDbEntity
  8
0
370
    -3
  6
Continuous
100
AcDbCircle
 10
652.752468
 20
-73.474632
 30
0.0
 40
1.5
100
AcDbArc
 50
222.079787
 51
330.0
  0
LINE
  5
81
100
AcDbEntity
  8
0
370
    -3
  6
Continuous
100
AcDbLine
 10
654.051506
 20
-74.224632
 30
0.0
 11
655.653589
 21
-71.449743
 31
0.0
  0
ARC
  5
82
100
AcDbEntity
  8
0
370
    -3
  6
Continuous
100
AcDbCircle
 10
654.354551
 20
-70.699743
 30
0.0
 40
1.5
100
AcDbArc
 50
330.0
 51
36.421822
  0
ARC
  5
83
100
AcDbEntity
  8
0
370
    -3
  6
Continuous
100
AcDbCircle
 10
662.401228
 20
-64.762489
 30
0.0
 40
8.5
100
AcDbArc
 50
203.578178
 51
216.421822
  0
ARC
  5
84
100
AcDbEntity
  8
0
370
    -3
  6
Continuous
100
AcDbCircle
 10
653.236077
 20
-68.762489
 30
0.0
 40
1.5
100
AcDbArc
 50
23.578178
 51
90.0
  0
LINE
  5
85
100
AcDbEntity
  8
0
370
    -3
  6
Continuous
100
AcDbLine
 10
653.236077
 20
-67.262489
 30
0.0
 11
650.031911
 21
-67.262489
 31
0.0
  0
ARC
  5
86
100
AcDbEntity
  8
0
370
    -3
  6
Continuous
100
AcDbCircle
 10
650.031911
 20
-68.762489
 30
0.0
 40
1.5
100
AcDbArc
 50
90.0
 51
197.920213
  0
ARC
  5
87
100
AcDbEntity
  8
0
370
    -3
  6
Continuous
100
AcDbCircle
 10
662.401228
 20
-64.762489
 30
0.0
 40
14.5
100
AcDbArc
 50
197.920213
 51
222.079787
  0
ARC
  5
88
100
AcDbEntity
  8
0
370
    -3
  6
Continuous
100
AcDbCircle
 10
647.866332
 20
-81.937668
 30
0.0
 40
1.5
100
AcDbArc
 50
229.759652
 51
330.0
  0
LINE
  5
89
100
AcDbEntity
  8
0
370
    -3
  6
Continuous
100
AcDbLine
 10
649.16537
 20
-82.687668
 30
0.0
 11
650.693498
 21
-80.040874
 31
0.0
  0
ARC
  5
8A
100
AcDbEntity
  8
0
370
    -3
  6
Continuous
100
AcDbCircle
 10
649.394459
 20
-79.290874
 30
0.0
 40
1.5
100
AcDbArc
 50
330.0
 51
48.162996
  0
ARC
  5
8B
100
AcDbEntity
  8
0
370
    -3
  6
Continuous
100
AcDbCircle
 10
662.401228
 20
-64.762489
 30
0.0
 40
18.0
100
AcDbArc
 50
191.837004
 51
228.162996
  0
ARC
  5
8C
100
AcDbEntity
  8
0
370
    -3
  6
Continuous
100
AcDbCircle
 10
643.315894
 20
-68.762489
 30
0.0
 40
1.5
100
AcDbArc
 50
11.837004
 51
90.0
  0
LINE
  5
8D
100
AcDbEntity
  8
0
370
    -3
  6
Continuous
100
AcDbLine
 10
643.315894
 20
-67.262489
 30
0.0
 11
640.259639
 21
-67.262489
 31
0.0
  0
ARC
  5
8E
100
AcDbEntity
  8
0
370
    -3
  6
Continuous
100
AcDbCircle
 10
640.259639
 20
-68.762489
 30
0.0
 40
1.5
100
AcDbArc
 50
90.0
 51
190.240348
  0
ARC
  5
8F
100
AcDbEntity
  8
0
370
    -3
  6
Continuous
100
AcDbCircle
 10
662.401228
 20
-64.762489
 30
0.0
 40
24.0
100
AcDbArc
 50
190.240348
 51
229.759652
  0
ARC
  5
90
100
AcDbEntity
  8
0
370
    -3
  6
Continuous
100
AcDbCircle
 10
674.770545
 20
-68.762489
 30
0.0
 40
1.5
100
AcDbArc
 50
342.079787
 51
90.0
  0
LINE
  5
91
100
AcDbEntity
  8
0
370
    -3
  6
Continuous
100
AcDbLine
 10
674.770545
 20
-67.262489
 30
0.0
 11
671.56638
 21
-67.262489
 31
0.0
  0
ARC
  5
92
100
AcDbEntity
  8
0
370
    -3
  6
Continuous
100
AcDbCircle
 10
671.56638
 20
-68.762489
 30
0.0
 40
1.5
100
AcDbArc
 50
90.0
 51
156.421822
  0
ARC
  5
93
100
AcDbEntity
  8
0
370
    -3
  6
Continuous
100
AcDbCircle
 10
662.401228
 20
-64.762489
 30
0.0
 40
8.5
100
AcDbArc
 50
323.578178
 51
336.421822
  0
ARC
  5
94
100
AcDbEntity
  8
0
370
    -3
  6
Continuous
100
AcDbCircle
 10
670.447906
 20
-70.699743
 30
0.0
 40
1.5
100
AcDbArc
 50
143.578178
 51
210.0
  0
LINE
  5
95
100
AcDbEntity
  8
0
370
    -3
  6
Continuous
100
AcDbLine
 10
669.148868
 20
-71.449743
 30
0.0
 11
670.75095
 21
-74.224632
 31
0.0
  0
ARC
  5
96
100
AcDbEntity
  8
0
370
    -3
  6
Continuous
100
AcDbCircle
 10
672.049988
 20
-73.474632
 30
0.0
 40
1.5
100
AcDbArc
 50
210.0
 51
317.920213
  0
ARC
  5
97
100
AcDbEntity
  8
0
370
    -3
  6
Continuous
100
AcDbCircle
 10
662.401228
 20
-64.762489
 30
0.0
 40
14.5
100
AcDbArc
 50
317.920213
 51
342.079787
  0
ARC
  5
98
100
AcDbEntity
  8
0
370
    -3
  6
Continuous
100
AcDbCircle
 10
684.542818
 20
-68.762489
 30
0.0
 40
1.5
100
AcDbArc
 50
349.759652
 51
90.0
  0
LINE
  5
99
100
AcDbEntity
  8
0
370
    -3
  6
Continuous
100
AcDbLine
 10
684.542818
 20
-67.262489
 30
0.0
 11
681.486563
 21
-67.262489
 31
0.0
  0
ARC
  5
9A
100
AcDbEntity
  8
0
370
    -3
  6
Continuous
100
AcDbCircle
 10
681.486563
 20
-68.762489
 30
0.0
 40
1.5
100
AcDbArc
 50
90.0
 51
168.162996
  0
ARC
  5
9B
100
AcDbEntity
  8
0
370
    -3
  6
Continuous
100
AcDbCircle
 10
662.401228
 20
-64.762489
 30
0.0
 40
18.0
100
AcDbArc
 50
311.837004
 51
348.162996
  0
ARC
  5
9C
100
AcDbEntity
  8
0
370
    -3
  6
Continuous
100
AcDbCircle
 10
675.407997
 20
-79.290874
 30
0.0
 40
1.5
100
AcDbArc
 50
131.837004
 51
210.0
  0
LINE
  5
9D
100
AcDbEntity
  8
0
370
    -3
  6
Continuous
100
AcDbLine
 10
674.108959
 20
-80.040874
 30
0.0
 11
675.637087
 21
-82.687668
 31
0.0
  0
ARC
  5
9E
100
AcDbEntity
  8
0
370
    -3
  6
Continuous
100
AcDbCircle
 10
676.936125
 20
-81.937668
 30
0.0
 40
1.5
100
AcDbArc
 50
210.0
 51
310.240348
  0
ARC
  5
9F
100
AcDbEntity
  8
0
370
    -3
  6
Continuous
100
AcDbCircle
 10
662.401228
 20
-64.762489
 30
0.0
 40
24.0
100
AcDbArc
 50
310.240348
 51
349.759652
  0
ARC
  5
A0
100
AcDbEntity
  8
0
370
    -3
  6
Continuous
100
AcDbCircle
 10
694.150244
 20
-68.762489
 30
0.0
 40
1.5
100
AcDbArc
 50
352.819244
 51
90.0
  0
LINE
  5
A1
100
AcDbEntity
  8
0
370
    -3
  6
Continuous
100
AcDbLine
 10
694.150244
 20
-67.262489
 30
0.0
 11
691.124042
 21
-67.262489
 31
0.0
  0
ARC
  5
A2
100
AcDbEntity
  8
0
370
    -3
  6
Continuous
100
AcDbCircle
 10
700.692872
 20
-68.762489
 30
0.0
 40
1.5
100
AcDbArc
 50
90.0
 51
174.03643
  0
LINE
  5
A3
100
AcDbEntity
  8
0
370
    -3
  6
Continuous
100
AcDbLine
 10
703.708007
 20
-67.262489
 30
0.0
 11
700.692872
 21
-67.262489
 31
0.0
  0
ARC
  5
A4
100
AcDbEntity
  8
0
370
    -3
  6
Continuous
100
AcDbCircle
 10
703.708007
 20
-68.762489
 30
0.0
 40
1.5
100
AcDbArc
 50
354.468928
 51
90.0
  0
ARC
  5
A5
100
AcDbEntity
  8
0
370
    -3
  6
Continuous
100
AcDbCircle
 10
691.124042
 20
-68.762489
 30
0.0
 40
1.5
100
AcDbArc
 50
90.0
 51
172.071858
  0
ARC
  5
A6
100
AcDbEntity
  8
0
370
    -3
  6
Continuous
100
AcDbCircle
 10
662.401228
 20
-64.762489
 30
0.0
 40
33.5
100
AcDbArc
 50
307.180756
 51
352.819244
  0
ARC
  5
A7
100
AcDbEntity
  8
0
370
    -3
  6
Continuous
100
AcDbCircle
 10
662.401228
 20
-64.762489
 30
0.0
 40
37.0
100
AcDbArc
 50
305.96357
 51
354.03643
  0
ARC
  5
A8
100
AcDbEntity
  8
0
370
    -3
  6
Continuous
100
AcDbCircle
 10
662.401228
 20
-64.762489
 30
0.0
 40
27.5
100
AcDbArc
 50
307.928142
 51
352.071858
  0
ARC
  5
A9
100
AcDbEntity
  8
0
370
    -3
  6
Continuous
100
AcDbCircle
 10
680.226737
 20
-87.637175
 30
0.0
 40
1.5
100
AcDbArc
 50
127.928142
 51
210.0
  0
ARC
  5
AA
100
AcDbEntity
  8
0
370
    -3
  6
Continuous
100
AcDbCircle
 10
681.739838
 20
-90.257943
 30
0.0
 40
1.5
100
AcDbArc
 50
210.0
 51
307.180756
  0
ARC
  5
AB
100
AcDbEntity
  8
0
370
    -3
  6
Continuous
100
AcDbCircle
 10
685.011152
 20
-95.924025
 30
0.0
 40
1.5
100
AcDbArc
 50
125.96357
 51
210.0
  0
LINE
  5
AC
100
AcDbEntity
  8
0
370
    -3
  6
Continuous
100
AcDbLine
 10
678.927698
 20
-88.387175
 30
0.0
 11
680.4408
 21
-91.007943
 31
0.0
  0
LINE
  5
AD
100
AcDbEntity
  8
0
370
    -3
  6
Continuous
100
AcDbLine
 10
683.712114
 20
-96.674025
 30
0.0
 11
685.219681
 21
-99.285209
 31
0.0
  0
ARC
  5
AE
100
AcDbEntity
  8
0
370
    -3
  6
Continuous
100
AcDbCircle
 10
686.51872
 20
-98.535209
 30
0.0
 40
1.5
100
AcDbArc
 50
210.0
 51
305.531072
  0
ARC
  5
AF
100
AcDbEntity
  8
0
370
    -3
  6
Continuous
100
AcDbCircle
 10
649.990822
 20
-94.257943
 30
0.0
 40
1.5
100
AcDbArc
 50
150.0
 51
247.180756
  0
LINE
  5
B0
100
AcDbEntity
  8
0
370
    -3
  6
Continuous
100
AcDbLine
 10
648.691784
 20
-93.507943
 30
0.0
 11
650.204885
 21
-90.887175
 31
0.0
  0
ARC
  5
B1
100
AcDbEntity
  8
0
370
    -3
  6
Continuous
100
AcDbCircle
 10
646.719508
 20
-99.924025
 30
0.0
 40
1.5
100
AcDbArc
 50
65.96357
 51
150.0
  0
LINE
  5
B2
100
AcDbEntity
  8
0
370
    -3
  6
Continuous
100
AcDbLine
 10
643.912902
 20
-101.785209
 30
0.0
 11
645.42047
 21
-99.174025
 31
0.0
  0
ARC
  5
B3
100
AcDbEntity
  8
0
370
    -3
  6
Continuous
100
AcDbCircle
 10
651.503923
 20
-91.637175
 30
0.0
 40
1.5
100
AcDbArc
 50
67.928142
 51
150.0
  0
ARC
  5
B4
100
AcDbEntity
  8
0
370
    -3
  6
Continuous
100
AcDbCircle
 10
662.401228
 20
-64.762489
 30
0.0
 40
33.5
100
AcDbArc
 50
247.180756
 51
292.819244
  0
ARC
  5
B5
100
AcDbEntity
  8
0
370
    -3
  6
Continuous
100
AcDbCircle
 10
662.401228
 20
-64.762489
 30
0.0
 40
37.0
100
AcDbArc
 50
245.96357
 51
294.03643
  0
ARC
  5
B6
100
AcDbEntity
  8
0
370
    -3
  6
Continuous
100
AcDbCircle
 10
662.401228
 20
-64.762489
 30
0.0
 40
27.5
100
AcDbArc
 50
247.928142
 51
292.071858
  0
ARC
  5
B7
100
AcDbEntity
  8
0
370
    -3
  6
Continuous
100
AcDbCircle
 10
673.298533
 20
-91.637175
 30
0.0
 40
1.5
100
AcDbArc
 50
30.0
 51
112.071858
  0
ARC
  5
B8
100
AcDbEntity
  8
0
370
    -3
  6
Continuous
100
AcDbCircle
 10
674.811635
 20
-94.257943
 30
0.0
 40
1.5
100
AcDbArc
 50
292.819244
 51
30.0
  0
ARC
  5
B9
100
AcDbEntity
  8
0
370
    -3
  6
Continuous
100
AcDbCircle
 10
678.082949
 20
-99.924025
 30
0.0
 40
1.5
100
AcDbArc
 50
30.0
 51
114.03643
  0
LINE
  5
BA
100
AcDbEntity
  8
0
370
    -3
  6
Continuous
100
AcDbLine
 10
674.597571
 20
-90.887175
 30
0.0
 11
676.110673
 21
-93.507943
 31
0.0
  0
LINE
  5
BB
100
AcDbEntity
  8
0
370
    -3
  6
Continuous
100
AcDbLine
 10
679.381987
 20
-99.174025
 30
0.0
 11
680.889554
 21
-101.785209
 31
0.0
  0
ARC
  5
BC
100
AcDbEntity
  8
0
370
    -3
  6
Continuous
100
AcDbCircle
 10
643.062619
 20
-90.257943
 30
0.0
 40
1.5
100
AcDbArc
 50
232.819244
 51
330.0
  0
LINE
  5
BD
100
AcDbEntity
  8
0
370
    -3
  6
Continuous
100
AcDbLine
 10
644.361657
 20
-91.007943
 30
0.0
 11
645.874758
 21
-88.387175
 31
0.0
  0
ARC
  5
BE
100
AcDbEntity
  8
0
370
    -3
  6
Continuous
100
AcDbCircle
 10
639.791305
 20
-95.924025
 30
0.0
 40
1.5
100
AcDbArc
 50
330.0
 51
54.03643
  0
LINE
  5
BF
100
AcDbEntity
  8
0
370
    -3
  6
Continuous
100
AcDbLine
 10
639.582775
 20
-99.285209
 30
0.0
 11
641.090343
 21
-96.674025
 31
0.0
  0
ARC
  5
C0
100
AcDbEntity
  8
0
370
    -3
  6
Continuous
100
AcDbCircle
 10
638.283737
 20
-98.535209
 30
0.0
 40
1.5
100
AcDbArc
 50
234.468928
 51
330.0
  0
ARC
  5
C1
100
AcDbEntity
  8
0
370
    -3
  6
Continuous
100
AcDbCircle
 10
644.57572
 20
-87.637175
 30
0.0
 40
1.5
100
AcDbArc
 50
330.0
 51
52.071858
  0
ARC
  5
C2
100
AcDbEntity
  8
0
370
    -3
  6
Continuous
100
AcDbCircle
 10
662.401228
 20
-64.762489
 30
0.0
 40
33.5
100
AcDbArc
 50
187.180756
 51
232.819244
  0
ARC
  5
C3
100
AcDbEntity
  8
0
370
    -3
  6
Continuous
100
AcDbCircle
 10
662.401228
 20
-64.762489
 30
0.0
 40
37.0
100
AcDbArc
 50
185.96357
 51
234.03643
  0
ARC
  5
C4
100
AcDbEntity
  8
0
370
    -3
  6
Continuous
100
AcDbCircle
 10
662.401228
 20
-64.762489
 30
0.0
 40
27.5
100
AcDbArc
 50
187.928142
 51
232.071858
  0
ARC
  5
C5
100
AcDbEntity
  8
0
370
    -3
  6
Continuous
100
AcDbCircle
 10
633.678415
 20
-68.762489
 30
0.0
 40
1.5
100
AcDbArc
 50
7.928142
 51
90.0
  0
ARC
  5
C6
100
AcDbEntity
  8
0
370
    -3
  6
Continuous
100
AcDbCircle
 10
630.652213
 20
-68.762489
 30
0.0
 40
1.5
100
AcDbArc
 50
90.0
 51
187.180756
  0
ARC
  5
C7
100
AcDbEntity
  8
0
370
    -3
  6
Continuous
100
AcDbCircle
 10
624.109584
 20
-68.762489
 30
0.0
 40
1.5
100
AcDbArc
 50
5.96357
 51
90.0
  0
LINE
  5
C8
100
AcDbEntity
  8
0
370
    -3
  6
Continuous
100
AcDbLine
 10
633.678415
 20
-67.262489
 30
0.0
 11
630.652213
 21
-67.262489
 31
0.0
  0
LINE
  5
C9
100
AcDbEntity
  8
0
370
    -3
  6
Continuous
100
AcDbLine
 10
624.109584
 20
-67.262489
 30
0.0
 11
621.094449
 21
-67.262489
 31
0.0
  0
ARC
  5
CA
100
AcDbEntity
  8
0
370
    -3
  6
Continuous
100
AcDbCircle
 10
621.094449
 20
-68.762489
 30
0.0
 40
1.5
100
AcDbArc
 50
90.0
 51
185.531072
  0
CIRCLE
  5
CB
100
AcDbEntity
  8
0
370
    -3
  6
Continuous
100
AcDbCircle
 10
662.401228
 20
-64.762489
 30
0.0
 40
5.0
  0
ARC
  5
CC
100
AcDbEntity
  8
0
370
    -3
  6
Continuous
100
AcDbCircle
 10
659.680672
 20
-77.474632
 30
0.0
 40
1.5
100
AcDbArc
 50
150.0
 51
257.920213
  0
LINE
  5
CD
100
AcDbEntity
  8
0
370
    -3
  6
Continuous
100
AcDbLine
 10
658.381633
 20
-76.724632
 30
0.0
 11
659.983716
 21
-73.949743
 31
0.0
  0
ARC
  5
CE
100
AcDbEntity
  8
0
370
    -3
  6
Continuous
100
AcDbCircle
 10
643.899048
 20
-88.686715
 30
0.0
 40
40.6
100
AcDbArc
 50
225.0
 51
267.053989
  0
LINE
  5
CF
100
AcDbEntity
  8
0
370
    -3
  6
Continuous
100
AcDbLine
 10
615.190513
 20
-117.395251
 30
0.0
 11
611.140087
 21
-113.344825
 31
0.0
  0
ARC
  5
D0
100
AcDbEntity
  8
0
370
    -3
  6
Continuous
100
AcDbCircle
 10
614.742231
 20
-112.421486
 30
0.0
 40
6.099999
100
AcDbArc
 50
174.601928
 51
275.398089
  0
POINT
  5
D1
100
AcDbEntity
  8
0
370
    -3
  6
Continuous
100
AcDbPoint
 10
612.47949
 20
-114.684228
 30
0.0
  0
LINE
  5
D2
100
AcDbEntity
  8
0
370
    -3
  6
Continuous
100
AcDbLine
 10
615.802891
 20
-118.007629
 30
0.0
 11
609.156088
 21
-111.360826
 31
0.0
  0
LINE
  5
D3
100
AcDbEntity
  8
0
370
    -3
  6
Continuous
100
AcDbLine
 10
615.550344
 20
-118.320768
 30
0.0
 11
608.873245
 21
-111.643669
 31
0.0
  0
LINE
  5
D4
100
AcDbEntity
  8
0
370
    -3
  6
Continuous
100
AcDbLine
 10
609.156088
 20
-111.360826
 30
0.0
 11
608.669284
 21
-111.847629
 31
0.0
  0
LINE
  5
D5
100
AcDbEntity
  8
0
370
    -3
  6
Continuous
100
AcDbLine
 10
615.802891
 20
-118.007629
 30
0.0
 11
615.316088
 21
-118.494433
 31
0.0
  0
ARC
  5
D6
100
AcDbEntity
  8
0
370
    -3
  6
Continuous
100
AcDbCircle
 10
643.899048
 20
-88.686715
 30
0.0
 40
29.6
100
AcDbArc
 50
225.0
 51
267.053989
  0
LINE
  5
D7
100
AcDbEntity
  8
0
370
    -3
  6
Continuous
100
AcDbLine
 10
622.968687
 20
-109.617076
 30
0.0
 11
618.918262
 21
-105.566651
 31
0.0
  0
LINE
  5
D8
100
AcDbEntity
  8
0
370
    -3
  6
DASHED
100
AcDbLine
 10
625.332606
 20
-111.308903
 30
0.0
 11
625.349249
 21
-111.308903
 31
0.0
  0
LINE
  5
D9
100
AcDbEntity
  8
0
370
    -3
  6
Continuous
100
AcDbLine
 10
701.83377
 20
-109.617076
 30
0.0
 11
705.884195
 21
-105.566651
 31
0.0
  0
LINE
  5
DA
100
AcDbEntity
  8
0
370
    -3
  6
Continuous
100
AcDbLine
 10
709.611944
 20
-117.395251
 30
0.0
 11
713.662369
 21
-113.344825
 31
0.0
  0
ARC
  5
DB
100
AcDbEntity
  8
0
370
    -3
  6
Continuous
100
AcDbCircle
 10
680.903409
 20
-88.686715
 30
0.0
 40
40.6
100
AcDbArc
 50
272.946011
 51
315.0
  0
ARC
  5
DC
100
AcDbEntity
  8
0
370
    -3
  6
Continuous
100
AcDbCircle
 10
680.903409
 20
-88.686715
 30
0.0
 40
29.6
100
AcDbArc
 50
272.946011
 51
315.0
  0
ARC
  5
DD
100
AcDbEntity
  8
0
370
    -3
  6
Continuous
100
AcDbCircle
 10
710.060226
 20
-112.421486
 30
0.0
 40
6.099999
100
AcDbArc
 50
264.601911
 51
5.398072
  0
POINT
  5
DE
100
AcDbEntity
  8
0
370
    -3
  6
Continuous
100
AcDbPoint
 10
712.322967
 20
-114.684228
 30
0.0
  0
LINE
  5
DF
100
AcDbEntity
  8
0
370
    -3
  6
Continuous
100
AcDbLine
 10
708.999565
 20
-118.007629
 30
0.0
 11
715.646369
 21
-111.360826
 31
0.0
  0
LINE
  5
E0
100
AcDbEntity
  8
0
370
    -3
  6
Continuous
100
AcDbLine
 10
709.252112
 20
-118.320768
 30
0.0
 11
715.929212
 21
-111.643669
 31
0.0
  0
LINE
  5
E1
100
AcDbEntity
  8
0
370
    -3
  6
Continuous
100
AcDbLine
 10
715.646369
 20
-111.360826
 30
0.0
 11
716.133172
 21
-111.847629
 31
0.0
  0
LINE
  5
E2
100
AcDbEntity
  8
0
370
    -3
  6
Continuous
100
AcDbLine
 10
708.999565
 20
-118.007629
 30
0.0
 11
709.486369
 21
-118.494433
 31
0.0
  0
ARC
  5
E3
100
AcDbEntity
  8
0
370
    -3
  6
Continuous
100
AcDbCircle
 10
662.401228
 20
270.837511
 30
0.0
 40
389.6
100
AcDbArc
 50
270.0
 51
272.946011
  0
ARC
  5
E4
100
AcDbEntity
  8
0
370
    -3
  6
Continuous
100
AcDbCircle
 10
662.401228
 20
270.837511
 30
0.0
 40
389.6
100
AcDbArc
 50
267.053989
 51
270.0
  0
ARC
  5
E5
100
AcDbEntity
  8
0
370
    -3
  6
Continuous
100
AcDbCircle
 10
645.21194
 20
-102.535209
 30
0.0
 40
1.5
100
AcDbArc
 50
150.0
 51
245.531072
  0
ARC
  5
E6
100
AcDbEntity
  8
0
370
    -3
  6
Continuous
100
AcDbCircle
 10
662.401228
 20
-64.762489
 30
0.0
 40
43.0
100
AcDbArc
 50
245.531072
 51
294.468928
  0
ARC
  5
E7
100
AcDbEntity
  8
0
370
    -3
  6
Continuous
100
AcDbCircle
 10
679.590516
 20
-102.535209
 30
0.0
 40
1.5
100
AcDbArc
 50
294.468928
 51
30.0
  0
ARC
  5
E8
100
AcDbEntity
  8
0
370
    -3
  6
Continuous
100
AcDbCircle
 10
321.801228
 20
-64.762489
 30
0.0
 40
400.6
100
AcDbArc
 50
0.0
 51
4.662206
  0
ARC
  5
E9
100
AcDbEntity
  8
0
370
    -3
  6
Continuous
100
AcDbCircle
 10
637.401228
 20
22.17628
 30
0.0
 40
5.0
100
AcDbArc
 50
94.861405
 51
180.0
  0
ARC
  5
EA
100
AcDbEntity
  8
0
370
    -3
  6
Continuous
100
AcDbCircle
 10
662.401228
 20
-271.762489
 30
0.0
 40
300.0
100
AcDbArc
 50
90.0
 51
94.861405
  0
LINE
  5
EB
100
AcDbEntity
  8
0
370
    -3
  6
Continuous
100
AcDbLine
 10
632.401228
 20
22.17628
 30
0.0
 11
632.401228
 21
-1.263241
 31
0.0
  0
LINE
  5
EC
100
AcDbEntity
  8
0
370
    -3
  6
Continuous
100
AcDbLine
 10
659.901228
 20
28.737511
 30
0.0
 11
659.901228
 21
28.227094
 31
0.0
  0
LINE
  5
ED
100
AcDbEntity
  8
0
370
    -3
  6
Continuous
100
AcDbLine
 10
664.901228
 20
28.737511
 30
0.0
 11
659.901228
 21
28.737511
 31
0.0
  0
ARC
  5
EE
100
AcDbEntity
  8
0
370
    -3
  6
Continuous
100
AcDbCircle
 10
662.401228
 20
-271.762489
 30
0.0
 40
300.0
100
AcDbArc
 50
85.138595
 51
90.0
  0
LINE
  5
EF
100
AcDbEntity
  8
0
370
    -3
  6
Continuous
100
AcDbLine
 10
664.901228
 20
28.737511
 30
0.0
 11
664.901228
 21
28.227094
 31
0.0
  0
ARC
  5
F0
100
AcDbEntity
  8
0
370
    -3
  6
Continuous
100
AcDbCircle
 10
687.401228
 20
22.17628
 30
0.0
 40
5.0
100
AcDbArc
 50
0.0
 51
85.138595
  0
LINE
  5
F1
100
AcDbEntity
  8
0
370
    -3
  6
Continuous
100
AcDbLine
 10
692.401228
 20
22.17628
 30
0.0
 11
692.401228
 21
-1.262489
 31
0.0
  0
ARC
  5
F2
100
AcDbEntity
  8
0
370
    -3
  6
Continuous
100
AcDbCircle
 10
643.899048
 20
-40.838263
 30
0.0
 40
40.6
100
AcDbArc
 50
92.946011
 51
135.0
  0
ARC
  5
F3
100
AcDbEntity
  8
0
370
    -3
  6
Continuous
100
AcDbCircle
 10
662.401228
 20
-400.362489
 30
0.0
 40
400.6
100
AcDbArc
 50
90.0
 51
92.946011
  0
LINE
  5
F4
100
AcDbEntity
  8
0
370
    -3
  6
Continuous
100
AcDbLine
 10
630.901228
 20
-2.375076
 30
0.0
 11
630.901228
 21
-1.262489
 31
0.0
  0
LINE
  5
F5
100
AcDbEntity
  8
0
370
    -3
  6
Continuous
100
AcDbLine
 10
634.837142
 20
-1.262489
 30
0.0
 11
630.901228
 21
-1.262489
 31
0.0
  0
ARC
  5
F6
100
AcDbEntity
  8
0
370
    -3
  6
Continuous
100
AcDbCircle
 10
662.401228
 20
-400.362489
 30
0.0
 40
400.6
100
AcDbArc
 50
87.053989
 51
90.0
  0
ARC
  5
F7
100
AcDbEntity
  8
0
370
    -3
  6
Continuous
100
AcDbCircle
 10
680.903409
 20
-40.838263
 30
0.0
 40
40.6
100
AcDbArc
 50
45.0
 51
87.053989
  0
LINE
  5
F8
100
AcDbEntity
  8
0
370
    -3
  6
Continuous
100
AcDbLine
 10
693.901228
 20
-1.262489
 30
0.0
 11
689.965315
 21
-1.262489
 31
0.0
  0
LINE
  5
F9
100
AcDbEntity
  8
0
370
    -3
  6
Continuous
100
AcDbLine
 10
693.901228
 20
-2.375076
 30
0.0
 11
693.901228
 21
-1.262489
 31
0.0
  0
LINE
  5
FA
100
AcDbEntity
  8
0
370
    -3
  6
Continuous
100
AcDbLine
 10
622.968687
 20
-19.907902
 30
0.0
 11
618.918262
 21
-23.958327
 31
0.0
  0
ARC
  5
FB
100
AcDbEntity
  8
0
370
    -3
  6
Continuous
100
AcDbCircle
 10
643.899048
 20
-40.838263
 30
0.0
 40
29.6
100
AcDbArc
 50
92.946011
 51
135.0
  0
ARC
  5
FC
100
AcDbEntity
  8
0
370
    -3
  6
Continuous
100
AcDbCircle
 10
629.242021
 20
-34.282086
 30
0.0
 40
14.6
100
AcDbArc
 50
135.0
 51
175.337794
  0
ARC
  5
FD
100
AcDbEntity
  8
0
370
    -3
  6
Continuous
100
AcDbCircle
 10
629.242021
 20
-34.282086
 30
0.0
 40
25.6
100
AcDbArc
 50
135.0
 51
175.337794
  0
LINE
  5
FE
100
AcDbEntity
  8
0
370
    -3
  6
Continuous
100
AcDbLine
 10
615.190513
 20
-12.129727
 30
0.0
 11
611.140087
 21
-16.180152
 31
0.0
  0
ARC
  5
FF
100
AcDbEntity
  8
0
370
    -3
  6
Continuous
100
AcDbCircle
 10
614.742231
 20
-17.103492
 30
0.0
 40
6.099999
100
AcDbArc
 50
84.601911
 51
185.398072
  0
POINT
  5
100
100
AcDbEntity
  8
0
370
    -3
  6
Continuous
100
AcDbPoint
 10
612.47949
 20
-14.84075
 30
0.0
  0
LINE
  5
101
100
AcDbEntity
  8
0
370
    -3
  6
Continuous
100
AcDbLine
 10
615.802891
 20
-11.517348
 30
0.0
 11
609.156088
 21
-18.164152
 31
0.0
  0
LINE
  5
102
100
AcDbEntity
  8
0
370
    -3
  6
Continuous
100
AcDbLine
 10
615.550344
 20
-11.20421
 30
0.0
 11
608.873245
 21
-17.881309
 31
0.0
  0
LINE
  5
103
100
AcDbEntity
  8
0
370
    -3
  6
Continuous
100
AcDbLine
 10
609.156088
 20
-18.164152
 30
0.0
 11
608.669284
 21
-17.677348
 31
0.0
  0
LINE
  5
104
100
AcDbEntity
  8
0
370
    -3
  6
Continuous
100
AcDbLine
 10
615.802891
 20
-11.517348
 30
0.0
 11
615.316088
 21
-11.030545
 31
0.0
  0
ARC
  5
105
100
AcDbEntity
  8
0
370
    -3
  6
Continuous
100
AcDbCircle
 10
680.903409
 20
-40.838263
 30
0.0
 40
29.6
100
AcDbArc
 50
45.0
 51
87.053989
  0
LINE
  5
106
100
AcDbEntity
  8
0
370
    -3
  6
Continuous
100
AcDbLine
 10
701.83377
 20
-19.907902
 30
0.0
 11
705.884195
 21
-23.958327
 31
0.0
  0
ARC
  5
107
100
AcDbEntity
  8
0
370
    -3
  6
Continuous
100
AcDbCircle
 10
695.560436
 20
-34.282086
 30
0.0
 40
14.6
100
AcDbArc
 50
4.662206
 51
45.0
  0
ARC
  5
108
100
AcDbEntity
  8
0
370
    -3
  6
Continuous
100
AcDbCircle
 10
695.560436
 20
-34.282086
 30
0.0
 40
25.6
100
AcDbArc
 50
4.662206
 51
45.0
  0
LINE
  5
109
100
AcDbEntity
  8
0
370
    -3
  6
Continuous
100
AcDbLine
 10
709.611944
 20
-12.129727
 30
0.0
 11
713.662369
 21
-16.180152
 31
0.0
  0
ARC
  5
10A
100
AcDbEntity
  8
0
370
    -3
  6
Continuous
100
AcDbCircle
 10
710.060226
 20
-17.103492
 30
0.0
 40
6.099999
100
AcDbArc
 50
354.601928
 51
95.398089
  0
POINT
  5
10B
100
AcDbEntity
  8
0
370
    -3
  6
Continuous
100
AcDbPoint
 10
712.322967
 20
-14.84075
 30
0.0
  0
LINE
  5
10C
100
AcDbEntity
  8
0
370
    -3
  6
Continuous
100
AcDbLine
 10
708.999565
 20
-11.517348
 30
0.0
 11
715.646369
 21
-18.164152
 31
0.0
  0
LINE
  5
10D
100
AcDbEntity
  8
0
370
    -3
  6
Continuous
100
AcDbLine
 10
709.252112
 20
-11.20421
 30
0.0
 11
715.929212
 21
-17.881309
 31
0.0
  0
LINE
  5
10E
100
AcDbEntity
  8
0
370
    -3
  6
Continuous
100
AcDbLine
 10
708.999565
 20
-11.517348
 30
0.0
 11
709.486369
 21
-11.030545
 31
0.0
  0
ARC
  5
10F
100
AcDbEntity
  8
0
370
    -3
  6
Continuous
100
AcDbCircle
 10
662.401228
 20
-400.362489
 30
0.0
 40
389.6
100
AcDbArc
 50
90.0
 51
92.946011
  0
ARC
  5
110
100
AcDbEntity
  8
0
370
    -3
  6
Continuous
100
AcDbCircle
 10
662.401228
 20
-400.362489
 30
0.0
 40
389.6
100
AcDbArc
 50
87.053989
 51
90.0
  0
ARC
  5
111
100
AcDbEntity
  8
0
370
    -3
  6
Continuous
100
AcDbCircle
 10
321.801228
 20
-64.762489
 30
0.0
 40
389.6
100
AcDbArc
 50
0.0
 51
4.662206
  0
ARC
  5
112
100
AcDbEntity
  8
0
370
    -3
  6
Continuous
100
AcDbCircle
 10
1003.001228
 20
-64.762489
 30
0.0
 40
400.6
100
AcDbArc
 50
175.337794
 51
180.0
  0
ARC
  5
113
100
AcDbEntity
  8
0
370
    -3
  6
Continuous
100
AcDbCircle
 10
1003.001228
 20
-64.762489
 30
0.0
 40
389.6
100
AcDbArc
 50
175.337794
 51
180.0
  0
LINE
  5
114
100
AcDbEntity
  8
0
370
    -3
  6
Continuous
100
AcDbLine
 10
639.582775
 20
-30.239769
 30
0.0
 11
641.090343
 21
-32.850952
 31
0.0
  0
ARC
  5
115
100
AcDbEntity
  8
0
370
    -3
  6
Continuous
100
AcDbCircle
 10
638.283737
 20
-30.989769
 30
0.0
 40
1.5
100
AcDbArc
 50
30.0
 51
125.531072
  0
ARC
  5
116
100
AcDbEntity
  8
0
370
    -3
  6
Continuous
100
AcDbCircle
 10
646.719508
 20
-29.600952
 30
0.0
 40
1.5
100
AcDbArc
 50
210.0
 51
294.03643
  0
LINE
  5
117
100
AcDbEntity
  8
0
370
    -3
  6
Continuous
100
AcDbLine
 10
643.912902
 20
-27.739769
 30
0.0
 11
645.42047
 21
-30.350952
 31
0.0
  0
ARC
  5
118
100
AcDbEntity
  8
0
370
    -3
  6
Continuous
100
AcDbCircle
 10
645.21194
 20
-26.989769
 30
0.0
 40
1.5
100
AcDbArc
 50
114.468928
 51
210.0
  0
ARC
  5
119
100
AcDbEntity
  8
0
370
    -3
  6
Continuous
100
AcDbCircle
 10
662.401228
 20
-64.762489
 30
0.0
 40
43.0
100
AcDbArc
 50
65.531072
 51
114.468928
  0
ARC
  5
11A
100
AcDbEntity
  8
0
370
    -3
  6
Continuous
100
AcDbCircle
 10
662.401228
 20
-64.762489
 30
0.0
 40
37.0
100
AcDbArc
 50
65.96357
 51
114.03643
  0
ARC
  5
11B
100
AcDbEntity
  8
0
370
    -3
  6
Continuous
100
AcDbCircle
 10
678.082949
 20
-29.600952
 30
0.0
 40
1.5
100
AcDbArc
 50
245.96357
 51
330.0
  0
LINE
  5
11C
100
AcDbEntity
  8
0
370
    -3
  6
Continuous
100
AcDbLine
 10
679.381987
 20
-30.350952
 30
0.0
 11
680.889554
 21
-27.739769
 31
0.0
  0
ARC
  5
11D
100
AcDbEntity
  8
0
370
    -3
  6
Continuous
100
AcDbCircle
 10
679.590516
 20
-26.989769
 30
0.0
 40
1.5
100
AcDbArc
 50
330.0
 51
65.531072
  0
ARC
  5
11E
100
AcDbEntity
  8
0
370
    -3
  6
Continuous
100
AcDbCircle
 10
662.401228
 20
-64.762489
 30
0.0
 40
43.0
100
AcDbArc
 50
5.531072
 51
54.468928
  0
ARC
  5
11F
100
AcDbEntity
  8
0
370
    -3
  6
Continuous
100
AcDbCircle
 10
686.51872
 20
-30.989769
 30
0.0
 40
1.5
100
AcDbArc
 50
54.468928
 51
150.0
  0
LINE
  5
120
100
AcDbEntity
  8
0
370
    -3
  6
Continuous
100
AcDbLine
 10
683.712114
 20
-32.850952
 30
0.0
 11
685.219681
 21
-30.239769
 31
0.0
  0
ARC
  5
121
100
AcDbEntity
  8
0
370
    -3
  6
Continuous
100
AcDbCircle
 10
643.062619
 20
-39.267035
 30
0.0
 40
1.5
100
AcDbArc
 50
30.0
 51
127.180756
  0
LINE
  5
122
100
AcDbEntity
  8
0
370
    -3
  6
Continuous
100
AcDbLine
 10
644.361657
 20
-38.517035
 30
0.0
 11
645.874758
 21
-41.137803
 31
0.0
  0
ARC
  5
123
100
AcDbEntity
  8
0
370
    -3
  6
Continuous
100
AcDbCircle
 10
639.791305
 20
-33.600952
 30
0.0
 40
1.5
100
AcDbArc
 50
305.96357
 51
30.0
  0
ARC
  5
124
100
AcDbEntity
  8
0
370
    -3
  6
Continuous
100
AcDbCircle
 10
644.57572
 20
-41.887803
 30
0.0
 40
1.5
100
AcDbArc
 50
307.928142
 51
30.0
  0
ARC
  5
125
100
AcDbEntity
  8
0
370
    -3
  6
Continuous
100
AcDbCircle
 10
662.401228
 20
-64.762489
 30
0.0
 40
33.5
100
AcDbArc
 50
127.180756
 51
172.819244
  0
ARC
  5
126
100
AcDbEntity
  8
0
370
    -3
  6
Continuous
100
AcDbCircle
 10
662.401228
 20
-64.762489
 30
0.0
 40
43.0
100
AcDbArc
 50
125.531072
 51
174.468928
  0
ARC
  5
127
100
AcDbEntity
  8
0
370
    -3
  6
Continuous
100
AcDbCircle
 10
662.401228
 20
-64.762489
 30
0.0
 40
37.0
100
AcDbArc
 50
125.96357
 51
174.03643
  0
ARC
  5
128
100
AcDbEntity
  8
0
370
    -3
  6
Continuous
100
AcDbCircle
 10
649.990822
 20
-35.267035
 30
0.0
 40
1.5
100
AcDbArc
 50
112.819244
 51
210.0
  0
LINE
  5
129
100
AcDbEntity
  8
0
370
    -3
  6
Continuous
100
AcDbLine
 10
648.691784
 20
-36.017035
 30
0.0
 11
650.204885
 21
-38.637803
 31
0.0
  0
ARC
  5
12A
100
AcDbEntity
  8
0
370
    -3
  6
Continuous
100
AcDbCircle
 10
651.503923
 20
-37.887803
 30
0.0
 40
1.5
100
AcDbArc
 50
210.0
 51
292.071858
  0
ARC
  5
12B
100
AcDbEntity
  8
0
370
    -3
  6
Continuous
100
AcDbCircle
 10
662.401228
 20
-64.762489
 30
0.0
 40
33.5
100
AcDbArc
 50
67.180756
 51
112.819244
  0
ARC
  5
12C
100
AcDbEntity
  8
0
370
    -3
  6
Continuous
100
AcDbCircle
 10
662.401228
 20
-64.762489
 30
0.0
 40
27.5
100
AcDbArc
 50
67.928142
 51
112.071858
  0
ARC
  5
12D
100
AcDbEntity
  8
0
370
    -3
  6
Continuous
100
AcDbCircle
 10
673.298533
 20
-37.887803
 30
0.0
 40
1.5
100
AcDbArc
 50
247.928142
 51
330.0
  0
ARC
  5
12E
100
AcDbEntity
  8
0
370
    -3
  6
Continuous
100
AcDbCircle
 10
674.811635
 20
-35.267035
 30
0.0
 40
1.5
100
AcDbArc
 50
330.0
 51
67.180756
  0
LINE
  5
12F
100
AcDbEntity
  8
0
370
    -3
  6
Continuous
100
AcDbLine
 10
674.597571
 20
-38.637803
 30
0.0
 11
676.110673
 21
-36.017035
 31
0.0
  0
ARC
  5
130
100
AcDbEntity
  8
0
370
    -3
  6
Continuous
100
AcDbCircle
 10
662.401228
 20
-64.762489
 30
0.0
 40
33.5
100
AcDbArc
 50
7.180756
 51
52.819244
  0
ARC
  5
131
100
AcDbEntity
  8
0
370
    -3
  6
Continuous
100
AcDbCircle
 10
662.401228
 20
-64.762489
 30
0.0
 40
37.0
100
AcDbArc
 50
5.96357
 51
54.03643
  0
ARC
  5
132
100
AcDbEntity
  8
0
370
    -3
  6
Continuous
100
AcDbCircle
 10
685.011152
 20
-33.600952
 30
0.0
 40
1.5
100
AcDbArc
 50
150.0
 51
234.03643
  0
ARC
  5
133
100
AcDbEntity
  8
0
370
    -3
  6
Continuous
100
AcDbCircle
 10
681.739838
 20
-39.267035
 30
0.0
 40
1.5
100
AcDbArc
 50
52.819244
 51
150.0
  0
LINE
  5
134
100
AcDbEntity
  8
0
370
    -3
  6
Continuous
100
AcDbLine
 10
678.927698
 20
-41.137803
 30
0.0
 11
680.4408
 21
-38.517035
 31
0.0
  0
ARC
  5
135
100
AcDbEntity
  8
0
370
    -3
  6
Continuous
100
AcDbCircle
 10
680.226737
 20
-41.887803
 30
0.0
 40
1.5
100
AcDbArc
 50
150.0
 51
232.071858
  0
ARC
  5
136
100
AcDbEntity
  8
0
370
    -3
  6
Continuous
100
AcDbCircle
 10
654.794535
 20
-43.58731
 30
0.0
 40
1.5
100
AcDbArc
 50
109.759652
 51
210.0
  0
ARC
  5
137
100
AcDbEntity
  8
0
370
    -3
  6
Continuous
100
AcDbCircle
 10
670.007922
 20
-43.58731
 30
0.0
 40
1.5
100
AcDbArc
 50
330.0
 51
70.240348
  0
ARC
  5
138
100
AcDbEntity
  8
0
370
    -3
  6
Continuous
100
AcDbCircle
 10
662.401228
 20
-64.762489
 30
0.0
 40
24.0
100
AcDbArc
 50
70.240348
 51
109.759652
  0
LINE
  5
139
100
AcDbEntity
  8
0
370
    -3
  6
Continuous
100
AcDbLine
 10
720.401228
 20
31.90921
 30
0.0
 11
682.901228
 21
31.254645
 31
0.0
  0
LINE
  5
13A
100
AcDbEntity
  8
0
370
    -3
  6
Continuous
100
AcDbLine
 10
641.901228
 20
30.538987
 30
0.0
 11
597.848871
 21
29.77005
 31
0.0
  0
LINE
  5
13B
100
AcDbEntity
  8
0
370
    -3
  6
Continuous
100
AcDbLine
 10
682.901228
 20
27.536275
 30
0.0
 11
682.901228
 21
53.737511
 31
0.0
  0
LINE
  5
13C
100
AcDbEntity
  8
0
370
    -3
  6
Continuous
100
AcDbLine
 10
641.901228
 20
27.536275
 30
0.0
 11
641.901228
 21
53.737511
 31
0.0
  0
LINE
  5
13D
100
AcDbEntity
  8
0
370
    -3
  6
CENTER
100
AcDbLine
 10
677.340282
 20
43.737511
 30
0.0
 11
648.354805
 21
43.737511
 31
0.0
  0
CIRCLE
  5
13E
100
AcDbEntity
  8
0
370
    -3
  6
Continuous
100
AcDbCircle
 10
662.401228
 20
43.737511
 30
0.0
 40
10.0
  0
ARC
  5
13F
100
AcDbEntity
  8
0
370
    -3
  6
Continuous
100
AcDbCircle
 10
672.901228
 20
53.737511
 30
0.0
 40
10.0
100
AcDbArc
 50
360.0
 51
90.0
  0
ARC
  5
140
100
AcDbEntity
  8
0
370
    -3
  6
Continuous
100
AcDbCircle
 10
651.901228
 20
53.737511
 30
0.0
 40
10.0
100
AcDbArc
 50
90.0
 51
180.0
  0
INSERT
  5
14C
100
AcDbEntity
  8
0
100
AcDbBlockReference
  2
ZU_SYM_K__CAD_SYM_POO_SYM_N20_-1
 10
613.964414
 20
-143.699303
 30
0.0
 41
-1.0
  0
INSERT
  5
158
100
AcDbEntity
  8
0
100
AcDbBlockReference
  2
ZU_SYM_K__CAD_SYM_POO_SYM_N20_00001-1
 10
710.838043
 20
-143.699303
 30
0.0
 41
-1.0
  0
LINE
  5
159
100
AcDbEntity
  8
0
370
    -3
  6
DASHED
100
AcDbLine
 10
-369.307852
 20
-117.395251
 30
0.0
 11
-373.358277
 21
-113.344825
 31
0.0
  0
ARC
  5
15A
100
AcDbEntity
  8
0
370
    -3
  6
DASHED
100
AcDbCircle
 10
-340.599317
 20
-88.686715
 30
0.0
 40
40.6
100
AcDbArc
 50
225.0
 51
267.053989
  0
ARC
  5
15B
100
AcDbEntity
  8
0
370
    -3
  6
DASHED
100
AcDbCircle
 10
-322.097137
 20
270.837511
 30
0.0
 40
400.6
100
AcDbArc
 50
267.053989
 51
270.0
  0
ARC
  5
15C
100
AcDbEntity
  8
0
370
    -3
  6
DASHED
100
AcDbCircle
 10
-322.097137
 20
270.837511
 30
0.0
 40
400.6
100
AcDbArc
 50
270.0
 51
272.946011
  0
ARC
  5
15D
100
AcDbEntity
  8
0
370
    -3
  6
DASHED
100
AcDbCircle
 10
-288.937929
 20
-95.242892
 30
0.0
 40
25.6
100
AcDbArc
 50
315.0
 51
355.337794
  0
LINE
  5
15E
100
AcDbEntity
  8
0
370
    -3
  6
DASHED
100
AcDbLine
 10
-274.886421
 20
-117.395251
 30
0.0
 11
-270.835996
 21
-113.344825
 31
0.0
  0
ARC
  5
15F
100
AcDbEntity
  8
0
370
    -3
  6
DASHED
100
AcDbCircle
 10
-303.594956
 20
-88.686715
 30
0.0
 40
40.6
100
AcDbArc
 50
272.946011
 51
315.0
  0
ARC
  5
160
100
AcDbEntity
  8
0
370
    -3
  6
DASHED
100
AcDbCircle
 10
-662.697137
 20
-64.762489
 30
0.0
 40
400.6
100
AcDbArc
 50
355.337794
 51
0.0
  0
ARC
  5
161
100
AcDbEntity
  8
0
370
    -3
  6
DASHED
100
AcDbCircle
 10
-355.256344
 20
-95.242892
 30
0.0
 40
25.6
100
AcDbArc
 50
184.662206
 51
225.0
  0
ARC
  5
162
100
AcDbEntity
  8
0
370
    -3
  6
DASHED
100
AcDbCircle
 10
18.502863
 20
-64.762489
 30
0.0
 40
400.6
100
AcDbArc
 50
180.0
 51
184.662206
  0
ARC
  5
163
100
AcDbEntity
  8
0
370
    -3
  6
DASHED
100
AcDbCircle
 10
18.502863
 20
-64.762489
 30
0.0
 40
400.6
100
AcDbArc
 50
175.337794
 51
180.0
  0
ARC
  5
164
100
AcDbEntity
  8
0
370
    -3
  6
DASHED
100
AcDbCircle
 10
-355.256344
 20
-34.282086
 30
0.0
 40
25.6
100
AcDbArc
 50
135.0
 51
175.337794
  0
LINE
  5
165
100
AcDbEntity
  8
0
370
    -3
  6
DASHED
100
AcDbLine
 10
-369.307852
 20
-12.129727
 30
0.0
 11
-373.358277
 21
-16.180152
 31
0.0
  0
ARC
  5
166
100
AcDbEntity
  8
0
370
    -3
  6
DASHED
100
AcDbCircle
 10
-288.937929
 20
-34.282086
 30
0.0
 40
25.6
100
AcDbArc
 50
4.662206
 51
45.0
  0
LINE
  5
167
100
AcDbEntity
  8
0
370
    -3
  6
DASHED
100
AcDbLine
 10
-274.886421
 20
-12.129727
 30
0.0
 11
-270.835996
 21
-16.180152
 31
0.0
  0
ARC
  5
168
100
AcDbEntity
  8
0
370
    -3
  6
DASHED
100
AcDbCircle
 10
-662.697137
 20
-64.762489
 30
0.0
 40
400.6
100
AcDbArc
 50
0.0
 51
4.662206
  0
LINE
  5
169
100
AcDbEntity
  8
0
370
    -3
  6
DASHED
100
AcDbLine
 10
-319.597137
 20
28.737511
 30
0.0
 11
-319.597137
 21
28.227094
 31
0.0
  0
ARC
  5
16A
100
AcDbEntity
  8
0
370
    -3
  6
DASHED
100
AcDbCircle
 10
-322.097137
 20
-271.762489
 30
0.0
 40
300.0
100
AcDbArc
 50
85.138595
 51
90.0
  0
ARC
  5
16B
100
AcDbEntity
  8
0
370
    -3
  6
DASHED
100
AcDbCircle
 10
-297.097137
 20
22.17628
 30
0.0
 40
5.0
100
AcDbArc
 50
0.0
 51
85.138595
  0
LINE
  5
16C
100
AcDbEntity
  8
0
370
    -3
  6
DASHED
100
AcDbLine
 10
-292.097137
 20
22.17628
 30
0.0
 11
-292.097137
 21
-1.262489
 31
0.0
  0
ARC
  5
16D
100
AcDbEntity
  8
0
370
    -3
  6
DASHED
100
AcDbCircle
 10
-322.097137
 20
-400.362489
 30
0.0
 40
400.6
100
AcDbArc
 50
87.053989
 51
90.0
  0
ARC
  5
16E
100
AcDbEntity
  8
0
370
    -3
  6
DASHED
100
AcDbCircle
 10
-303.594956
 20
-40.838263
 30
0.0
 40
40.6
100
AcDbArc
 50
45.0
 51
87.053989
  0
LINE
  5
16F
100
AcDbEntity
  8
0
370
    -3
  6
DASHED
100
AcDbLine
 10
-290.597137
 20
-1.262489
 30
0.0
 11
-294.53305
 21
-1.262489
 31
0.0
  0
LINE
  5
170
100
AcDbEntity
  8
0
370
    -3
  6
DASHED
100
AcDbLine
 10
-290.597137
 20
-2.375076
 30
0.0
 11
-290.597137
 21
-1.262489
 31
0.0
  0
ARC
  5
171
100
AcDbEntity
  8
0
370
    -3
  6
DASHED
100
AcDbCircle
 10
-322.097137
 20
-271.762489
 30
0.0
 40
300.0
100
AcDbArc
 50
90.0
 51
94.861405
  0
LINE
  5
172
100
AcDbEntity
  8
0
370
    -3
  6
DASHED
100
AcDbLine
 10
-324.597137
 20
28.737511
 30
0.0
 11
-324.597137
 21
28.227094
 31
0.0
  0
LINE
  5
173
100
AcDbEntity
  8
0
370
    -3
  6
DASHED
100
AcDbLine
 10
-319.597137
 20
28.737511
 30
0.0
 11
-324.597137
 21
28.737511
 31
0.0
  0
ARC
  5
174
100
AcDbEntity
  8
0
370
    -3
  6
DASHED
100
AcDbCircle
 10
-347.097137
 20
22.17628
 30
0.0
 40
5.0
100
AcDbArc
 50
94.861405
 51
180.0
  0
LINE
  5
175
100
AcDbEntity
  8
0
370
    -3
  6
DASHED
100
AcDbLine
 10
-352.097137
 20
22.17628
 30
0.0
 11
-352.097137
 21
-1.263241
 31
0.0
  0
ARC
  5
176
100
AcDbEntity
  8
0
370
    -3
  6
DASHED
100
AcDbCircle
 10
-340.599317
 20
-40.838263
 30
0.0
 40
40.6
100
AcDbArc
 50
92.946011
 51
135.0
  0
ARC
  5
177
100
AcDbEntity
  8
0
370
    -3
  6
DASHED
100
AcDbCircle
 10
-322.097137
 20
-400.362489
 30
0.0
 40
400.6
100
AcDbArc
 50
90.0
 51
92.946011
  0
LINE
  5
178
100
AcDbEntity
  8
0
370
    -3
  6
DASHED
100
AcDbLine
 10
-353.597137
 20
-2.375076
 30
0.0
 11
-353.597137
 21
-1.262489
 31
0.0
  0
LINE
  5
179
100
AcDbEntity
  8
0
370
    -3
  6
DASHED
100
AcDbLine
 10
-349.661223
 20
-1.262489
 30
0.0
 11
-353.597137
 21
-1.262489
 31
0.0
  0
INSERT
  5
189
100
AcDbEntity
  8
0
100
AcDbBlockReference
  2
ZU_SYM__USERS_HOME_SYMBOL_STD_SYM_B01_-1
 10
210.901228
 20
-143.699303
 30
0.0
 41
-1.0
  0
INSERT
  5
199
100
AcDbEntity
  8
0
100
AcDbBlockReference
  2
ZU_SYM__USERS_HOME_SYMBOL_STD_SYM_B01_00002-1
 10
210.901228
 20
-46.825674
 30
0.0
 50
180.0
  0
ELLIPSE
  5
19A
100
AcDbEntity
  8
0
370
    -3
  6
Continuous
100
AcDbEllipse
 10
380.401228
 20
-12.838964
 30
0.0
 11
4.6999999999999886
 21
0.0
 31
0.0
210
0.0
220
0.0
230
1.0
 40
0.766646
 41
0.0
 42
6.2831853071795862
  0
LINE
  5
19B
100
AcDbEntity
  8
0
370
    -3
  6
Continuous
100
AcDbLine
 10
382.401228
 20
-9.846588
 30
0.0
 11
380.401228
 21
-11.022374
 31
0.0
  0
LINE
  5
19C
100
AcDbEntity
  8
0
370
    -3
  6
Continuous
100
AcDbLine
 10
380.401228
 20
-11.022374
 30
0.0
 11
378.401228
 21
-12.675016
 31
0.0
  0
LINE
  5
19D
100
AcDbEntity
  8
0
370
    -3
  6
Continuous
100
AcDbLine
 10
378.401228
 20
-9.846588
 30
0.0
 11
380.401228
 21
-11.022374
 31
0.0
  0
LINE
  5
19E
100
AcDbEntity
  8
0
370
    -3
  6
Continuous
100
AcDbLine
 10
380.401228
 20
-11.022374
 30
0.0
 11
382.401228
 21
-12.675016
 31
0.0
  0
ELLIPSE
  5
19F
100
AcDbEntity
  8
0
370
    -3
  6
Continuous
100
AcDbEllipse
 10
380.401228
 20
-116.686014
 30
0.0
 11
4.6999999999999886
 21
0.0
 31
0.0
210
0.0
220
0.0
230
1.0
 40
0.766646
 41
0.0
 42
6.2831853071795862
  0
LINE
  5
1A0
100
AcDbEntity
  8
0
370
    -3
  6
Continuous
100
AcDbLine
 10
382.401228
 20
-119.67839
 30
0.0
 11
380.401228
 21
-118.502604
 31
0.0
  0
LINE
  5
1A1
100
AcDbEntity
  8
0
370
    -3
  6
Continuous
100
AcDbLine
 10
369.401228
 20
-120.762489
 30
0.0
 11
272.401228
 21
-120.762489
 31
0.0
  0
LINE
  5
1A2
100
AcDbEntity
  8
0
370
    -3
  6
Continuous
100
AcDbLine
 10
380.401228
 20
-118.502604
 30
0.0
 11
378.401228
 21
-116.849963
 31
0.0
  0
LINE
  5
1A3
100
AcDbEntity
  8
0
370
    -3
  6
Continuous
100
AcDbLine
 10
378.401228
 20
-119.67839
 30
0.0
 11
380.401228
 21
-118.502604
 31
0.0
  0
LINE
  5
1A4
100
AcDbEntity
  8
0
370
    -3
  6
Continuous
100
AcDbLine
 10
380.401228
 20
-118.502604
 30
0.0
 11
382.401228
 21
-116.849963
 31
0.0
  0
LINE
  5
1A5
100
AcDbEntity
  8
0
370
    -3
  6
Continuous
100
AcDbLine
 10
369.401228
 20
-64.762489
 30
0.0
 11
369.401228
 21
-129.762489
 31
0.0
  0
LINE
  5
1A6
100
AcDbEntity
  8
0
370
    -3
  6
Continuous
100
AcDbLine
 10
369.401228
 20
-129.762489
 30
0.0
 11
398.095252
 21
-129.762489
 31
0.0
  0
LINE
  5
1A7
100
AcDbEntity
  8
0
370
    -3
  6
Continuous
100
AcDbLine
 10
420.401228
 20
-64.762489
 30
0.0
 11
420.401228
 21
-117.205694
 31
0.0
  0
ARC
  5
1A8
100
AcDbEntity
  8
0
370
    -3
  6
Continuous
100
AcDbCircle
 10
398.095252
 20
-109.762489
 30
0.0
 40
20.0
100
AcDbArc
 50
270.0
 51
305.0
  0
LINE
  5
1A9
100
AcDbEntity
  8
0
370
    -3
  6
Continuous
100
AcDbLine
 10
409.566781
 20
-126.14553
 30
0.0
 11
419.292527
 21
-119.335489
 31
0.0
  0
ARC
  5
1AA
100
AcDbEntity
  8
0
370
    -3
  6
Continuous
100
AcDbCircle
 10
417.801228
 20
-117.205694
 30
0.0
 40
2.6
100
AcDbArc
 50
305.0
 51
0.0
  0
LINE
  5
1AB
100
AcDbEntity
  8
0
370
    -3
  6
Continuous
100
AcDbLine
 10
369.401228
 20
-64.762489
 30
0.0
 11
369.401228
 21
-6.143268
 31
0.0
  0
LINE
  5
1AC
100
AcDbEntity
  8
0
370
    -3
  6
Continuous
100
AcDbLine
 10
420.401228
 20
-64.762489
 30
0.0
 11
420.401228
 21
-12.319284
 31
0.0
  0
LINE
  5
1AD
100
AcDbEntity
  8
0
370
    -3
  6
Continuous
100
AcDbLine
 10
409.566781
 20
-3.379448
 30
0.0
 11
419.292527
 21
-10.189489
 31
0.0
  0
ARC
  5
1AE
100
AcDbEntity
  8
0
370
    -3
  6
Continuous
100
AcDbCircle
 10
417.801228
 20
-12.319284
 30
0.0
 40
2.6
100
AcDbArc
 50
0.0
 51
55.0
  0
LINE
  5
1AF
100
AcDbEntity
  8
0
370
    -3
  6
Continuous
100
AcDbLine
 10
379.401228
 20
0.237511
 30
0.0
 11
398.095252
 21
0.237511
 31
0.0
  0
ARC
  5
1B0
100
AcDbEntity
  8
0
370
    -3
  6
Continuous
100
AcDbCircle
 10
398.095252
 20
-19.762489
 30
0.0
 40
20.0
100
AcDbArc
 50
55.0
 51
90.0
  0
LINE
  5
1B1
100
AcDbEntity
  8
0
370
    -3
  6
Continuous
100
AcDbLine
 10
377.401228
 20
-1.262489
 30
0.0
 11
377.401228
 21
-2.971695
 31
0.0
  0
LINE
  5
1B2
100
AcDbEntity
  8
0
370
    -3
  6
Continuous
100
AcDbLine
 10
302.401228
 20
-6.262489
 30
0.0
 11
369.401228
 21
-6.262489
 31
0.0
  0
LINE
  5
1B3
100
AcDbEntity
  8
0
370
    -3
  6
Continuous
100
AcDbLine
 10
302.401228
 20
-1.262489
 30
0.0
 11
377.401228
 21
-1.262489
 31
0.0
  0
LINE
  5
1B4
100
AcDbEntity
  8
0
370
    -3
  6
Continuous
100
AcDbLine
 10
376.401228
 20
27.237511
 30
0.0
 11
376.401228
 21
-1.262489
 31
0.0
  0
LINE
  5
1B5
100
AcDbEntity
  8
0
370
    -3
  6
Continuous
100
AcDbLine
 10
303.401228
 20
27.237511
 30
0.0
 11
303.401228
 21
-1.262489
 31
0.0
  0
ARC
  5
1B6
100
AcDbEntity
  8
0
370
    -3
  6
Continuous
100
AcDbCircle
 10
304.401228
 20
27.237511
 30
0.0
 40
1.0
100
AcDbArc
 50
90.0
 51
180.0
  0
ARC
  5
1B7
100
AcDbEntity
  8
0
370
    -3
  6
Continuous
100
AcDbCircle
 10
375.401228
 20
27.237511
 30
0.0
 40
1.0
100
AcDbArc
 50
0.0
 51
90.0
  0
LINE
  5
1B8
100
AcDbEntity
  8
0
370
    -3
  6
Continuous
100
AcDbLine
 10
304.401228
 20
28.237511
 30
0.0
 11
375.401228
 21
28.237511
 31
0.0
  0
LINE
  5
1B9
100
AcDbEntity
  8
0
370
    -3
  6
Continuous
100
AcDbLine
 10
310.401228
 20
28.237511
 30
0.0
 11
310.401228
 21
28.737511
 31
0.0
  0
LINE
  5
1BA
100
AcDbEntity
  8
0
370
    -3
  6
Continuous
100
AcDbLine
 10
312.901228
 20
28.237511
 30
0.0
 11
312.901228
 21
28.737511
 31
0.0
  0
LINE
  5
1BB
100
AcDbEntity
  8
0
370
    -3
  6
Continuous
100
AcDbLine
 10
318.401228
 20
28.237511
 30
0.0
 11
318.401228
 21
28.737511
 31
0.0
  0
LINE
  5
1BC
100
AcDbEntity
  8
0
370
    -3
  6
Continuous
100
AcDbLine
 10
310.401228
 20
28.737511
 30
0.0
 11
318.401228
 21
28.737511
 31
0.0
  0
LINE
  5
1BD
100
AcDbEntity
  8
0
370
    -3
  6
Continuous
100
AcDbLine
 10
302.401228
 20
-1.262489
 30
0.0
 11
302.401228
 21
-6.262489
 31
0.0
  0
LINE
  5
1BE
100
AcDbEntity
  8
0
370
    -3
  6
Continuous
100
AcDbLine
 10
376.401228
 20
-3.143268
 30
0.0
 11
372.401228
 21
-3.143268
 31
0.0
  0
LINE
  5
1BF
100
AcDbEntity
  8
0
370
    -3
  6
Continuous
100
AcDbLine
 10
379.401228
 20
0.237511
 30
0.0
 11
379.401228
 21
-0.143268
 31
0.0
  0
ARC
  5
1C0
100
AcDbEntity
  8
0
370
    -3
  6
Continuous
100
AcDbCircle
 10
372.401228
 20
-6.143268
 30
0.0
 40
3.0
100
AcDbArc
 50
90.0
 51
180.0
  0
ARC
  5
1C1
100
AcDbEntity
  8
0
370
    -3
  6
Continuous
100
AcDbCircle
 10
376.401228
 20
-0.143268
 30
0.0
 40
3.0
100
AcDbArc
 50
270.0
 51
0.0
  0
LINE
  5
1C2
100
AcDbEntity
  8
0
370
    -3
  6
Continuous
100
AcDbLine
 10
369.401228
 20
-124.262489
 30
0.0
 11
272.401228
 21
-124.262489
 31
0.0
  0
LINE
  5
1C3
100
AcDbEntity
  8
0
370
    -3
  6
Continuous
100
AcDbLine
 10
302.401228
 20
-5.262489
 30
0.0
 11
272.401228
 21
-5.262489
 31
0.0
  0
LINE
  5
1C4
100
AcDbEntity
  8
0
370
    -3
  6
Continuous
100
AcDbLine
 10
369.401228
 20
-7.762489
 30
0.0
 11
272.401228
 21
-7.762489
 31
0.0
  0
LINE
  5
1C5
100
AcDbEntity
  8
0
370
    -3
  6
Continuous
100
AcDbLine
 10
369.401228
 20
-8.762489
 30
0.0
 11
272.401228
 21
-8.762489
 31
0.0
  0
LINE
  5
1C6
100
AcDbEntity
  8
0
370
    -3
  6
Continuous
100
AcDbLine
 10
369.401228
 20
-9.762489
 30
0.0
 11
272.401228
 21
-9.762489
 31
0.0
  0
LINE
  5
1C7
100
AcDbEntity
  8
0
370
    -3
  6
Continuous
100
AcDbLine
 10
369.401228
 20
-14.446955
 30
0.0
 11
272.401228
 21
-14.446955
 31
0.0
  0
LINE
  5
1C8
100
AcDbEntity
  8
0
370
    -3
  6
Continuous
100
AcDbLine
 10
369.401228
 20
-19.396702
 30
0.0
 11
272.401228
 21
-19.396702
 31
0.0
  0
LINE
  5
1C9
100
AcDbEntity
  8
0
370
    -3
  6
Continuous
100
AcDbLine
 10
369.401228
 20
-27.443304
 30
0.0
 11
272.401228
 21
-27.443304
 31
0.0
  0
LINE
  5
1CA
100
AcDbEntity
  8
0
370
    -3
  6
Continuous
100
AcDbLine
 10
369.401228
 20
-29.047952
 30
0.0
 11
272.401228
 21
-29.047952
 31
0.0
  0
LINE
  5
1CB
100
AcDbEntity
  8
0
370
    -3
  6
Continuous
100
AcDbLine
 10
369.401228
 20
-33.011697
 30
0.0
 11
272.401228
 21
-33.011697
 31
0.0
  0
LINE
  5
1CC
100
AcDbEntity
  8
0
370
    -3
  6
Continuous
100
AcDbLine
 10
369.401228
 20
-34.480055
 30
0.0
 11
272.401228
 21
-34.480055
 31
0.0
  0
LINE
  5
1CD
100
AcDbEntity
  8
0
370
    -3
  6
Continuous
100
AcDbLine
 10
369.401228
 20
-38.570555
 30
0.0
 11
272.401228
 21
-38.570555
 31
0.0
  0
LINE
  5
1CE
100
AcDbEntity
  8
0
370
    -3
  6
Continuous
100
AcDbLine
 10
369.401228
 20
-39.932436
 30
0.0
 11
272.401228
 21
-39.932436
 31
0.0
  0
LINE
  5
1CF
100
AcDbEntity
  8
0
370
    -3
  6
Continuous
100
AcDbLine
 10
369.401228
 20
-44.122989
 30
0.0
 11
272.401228
 21
-44.122989
 31
0.0
  0
LINE
  5
1D0
100
AcDbEntity
  8
0
370
    -3
  6
Continuous
100
AcDbLine
 10
369.401228
 20
-45.389227
 30
0.0
 11
272.401228
 21
-45.389227
 31
0.0
  0
LINE
  5
1D1
100
AcDbEntity
  8
0
370
    -3
  6
Continuous
100
AcDbLine
 10
369.401228
 20
-49.762489
 30
0.0
 11
272.401228
 21
-49.762489
 31
0.0
  0
LINE
  5
1D2
100
AcDbEntity
  8
0
370
    -3
  6
Continuous
100
AcDbLine
 10
369.401228
 20
-102.081674
 30
0.0
 11
272.401228
 21
-102.081674
 31
0.0
  0
LINE
  5
1D3
100
AcDbEntity
  8
0
370
    -3
  6
Continuous
100
AcDbLine
 10
369.401228
 20
-100.477026
 30
0.0
 11
272.401228
 21
-100.477026
 31
0.0
  0
LINE
  5
1D4
100
AcDbEntity
  8
0
370
    -3
  6
Continuous
100
AcDbLine
 10
369.401228
 20
-96.513281
 30
0.0
 11
272.401228
 21
-96.513281
 31
0.0
  0
LINE
  5
1D5
100
AcDbEntity
  8
0
370
    -3
  6
Continuous
100
AcDbLine
 10
369.401228
 20
-95.044923
 30
0.0
 11
272.401228
 21
-95.044923
 31
0.0
  0
LINE
  5
1D6
100
AcDbEntity
  8
0
370
    -3
  6
Continuous
100
AcDbLine
 10
369.401228
 20
-90.954423
 30
0.0
 11
272.401228
 21
-90.954423
 31
0.0
  0
LINE
  5
1D7
100
AcDbEntity
  8
0
370
    -3
  6
Continuous
100
AcDbLine
 10
369.401228
 20
-89.592543
 30
0.0
 11
272.401228
 21
-89.592543
 31
0.0
  0
LINE
  5
1D8
100
AcDbEntity
  8
0
370
    -3
  6
Continuous
100
AcDbLine
 10
369.401228
 20
-85.401989
 30
0.0
 11
272.401228
 21
-85.401989
 31
0.0
  0
LINE
  5
1D9
100
AcDbEntity
  8
0
370
    -3
  6
Continuous
100
AcDbLine
 10
369.401228
 20
-84.135751
 30
0.0
 11
272.401228
 21
-84.135751
 31
0.0
  0
LINE
  5
1DA
100
AcDbEntity
  8
0
370
    -3
  6
Continuous
100
AcDbLine
 10
369.401228
 20
-79.762489
 30
0.0
 11
272.401228
 21
-79.762489
 31
0.0
  0
LINE
  5
1DB
100
AcDbEntity
  8
0
370
    -3
  6
Continuous
100
AcDbLine
 10
369.401228
 20
-121.762489
 30
0.0
 11
272.401228
 21
-121.762489
 31
0.0
  0
LINE
  5
1DC
100
AcDbEntity
  8
0
370
    -3
  6
Continuous
100
AcDbLine
 10
302.401228
 20
-124.262489
 30
0.0
 11
272.401228
 21
-124.262489
 31
0.0
  0
LINE
  5
1DD
100
AcDbEntity
  8
0
370
    -3
  6
DASHED
100
AcDbLine
 10
371.901228
 20
-1.262489
 30
0.0
 11
371.901228
 21
13.237511
 31
0.0
  0
LINE
  5
1DE
100
AcDbEntity
  8
0
370
    -3
  6
Continuous
100
AcDbLine
 10
369.401228
 20
-110.128276
 30
0.0
 11
272.401228
 21
-110.128276
 31
0.0
  0
LINE
  5
1DF
100
AcDbEntity
  8
0
370
    -3
  6
Continuous
100
AcDbLine
 10
369.401228
 20
-115.078023
 30
0.0
 11
272.401228
 21
-115.078023
 31
0.0
  0
LINE
  5
1E0
100
AcDbEntity
  8
0
370
    -3
  6
Continuous
100
AcDbLine
 10
369.401228
 20
-119.762489
 30
0.0
 11
272.401228
 21
-119.762489
 31
0.0
  0
LINE
  5
1E1
100
AcDbEntity
  8
0
370
    -3
  6
CENTER
100
AcDbLine
 10
354.49093
 20
13.237511
 30
0.0
 11
374.865111
 21
13.237511
 31
0.0
  0
LINE
  5
1E2
100
AcDbEntity
  8
0
370
    -3
  6
CENTER
100
AcDbLine
 10
364.901228
 20
-4.046341
 30
0.0
 11
364.901228
 21
23.933009
 31
0.0
  0
LINE
  5
1E3
100
AcDbEntity
  8
0
370
    -3
  6
DASHED
100
AcDbLine
 10
357.901228
 20
-1.262489
 30
0.0
 11
357.901228
 21
13.237511
 31
0.0
  0
ARC
  5
1E4
100
AcDbEntity
  8
0
370
    -3
  6
DASHED
100
AcDbCircle
 10
364.901228
 20
13.237511
 30
0.0
 40
7.0
100
AcDbArc
 50
0.0
 51
180.0
  0
LINE
  5
1E5
100
AcDbEntity
  8
0
370
    -3
  6
CENTER
100
AcDbLine
 10
305.592894
 20
13.237511
 30
0.0
 11
324.781934
 21
13.237511
 31
0.0
  0
LINE
  5
1E6
100
AcDbEntity
  8
0
370
    -3
  6
CENTER
100
AcDbLine
 10
314.901228
 20
-4.046341
 30
0.0
 11
314.901228
 21
23.933009
 31
0.0
  0
LINE
  5
1E7
100
AcDbEntity
  8
0
370
    -3
  6
DASHED
100
AcDbLine
 10
307.901228
 20
-1.262489
 30
0.0
 11
307.901228
 21
13.237511
 31
0.0
  0
LINE
  5
1E8
100
AcDbEntity
  8
0
370
    -3
  6
DASHED
100
AcDbLine
 10
321.901228
 20
-1.262489
 30
0.0
 11
321.901228
 21
13.237511
 31
0.0
  0
ARC
  5
1E9
100
AcDbEntity
  8
0
370
    -3
  6
DASHED
100
AcDbCircle
 10
314.901228
 20
13.237511
 30
0.0
 40
7.0
100
AcDbArc
 50
0.0
 51
180.0
  0
CIRCLE
  5
1EA
100
AcDbEntity
  8
0
370
    -3
  6
DASHED
100
AcDbCircle
 10
314.901228
 20
13.237511
 30
0.0
 40
6.0
  0
LINE
  5
1EB
100
AcDbEntity
  8
0
370
    -3
  6
Continuous
100
AcDbLine
 10
376.401228
 20
321.406331
 30
0.0
 11
376.401228
 21
292.406331
 31
0.0
  0
LINE
  5
1EC
100
AcDbEntity
  8
0
370
    -3
  6
Continuous
100
AcDbLine
 10
303.401228
 20
321.406331
 30
0.0
 11
303.401228
 21
292.406331
 31
0.0
  0
LINE
  5
1ED
100
AcDbEntity
  8
0
370
    -3
  6
Continuous
100
AcDbLine
 10
302.560631
 20
322.688766
 30
0.0
 11
272.401228
 21
322.688766
 31
0.0
  0
LINE
  5
1EE
100
AcDbEntity
  8
0
370
    -3
  6
Continuous
100
AcDbLine
 10
379.401228
 20
322.688766
 30
0.0
 11
377.241825
 21
322.688766
 31
0.0
  0
LINE
  5
1EF
100
AcDbEntity
  8
0
370
    -3
  6
Continuous
100
AcDbLine
 10
302.401228
 20
317.236385
 30
0.0
 11
272.401228
 21
317.236385
 31
0.0
  0
LINE
  5
1F0
100
AcDbEntity
  8
0
370
    -3
  6
Continuous
100
AcDbLine
 10
379.401228
 20
317.236385
 30
0.0
 11
377.401228
 21
317.236385
 31
0.0
  0
LINE
  5
1F1
100
AcDbEntity
  8
0
370
    -3
  6
Continuous
100
AcDbLine
 10
302.401228
 20
318.598265
 30
0.0
 11
272.401228
 21
318.598265
 31
0.0
  0
LINE
  5
1F2
100
AcDbEntity
  8
0
370
    -3
  6
Continuous
100
AcDbLine
 10
379.401228
 20
318.598265
 30
0.0
 11
377.401228
 21
318.598265
 31
0.0
  0
LINE
  5
1F3
100
AcDbEntity
  8
0
370
    -3
  6
Continuous
100
AcDbLine
 10
302.401228
 20
312.406331
 30
0.0
 11
272.401228
 21
312.406331
 31
0.0
  0
LINE
  5
1F4
100
AcDbEntity
  8
0
370
    -3
  6
Continuous
100
AcDbLine
 10
379.401228
 20
312.406331
 30
0.0
 11
377.401228
 21
312.406331
 31
0.0
  0
LINE
  5
1F5
100
AcDbEntity
  8
0
370
    -3
  6
Continuous
100
AcDbLine
 10
369.401228
 20
349.406331
 30
0.0
 11
272.401228
 21
349.406331
 31
0.0
  0
LINE
  5
1F6
100
AcDbEntity
  8
0
370
    -3
  6
Continuous
100
AcDbLine
 10
369.401228
 20
349.906331
 30
0.0
 11
272.401228
 21
349.906331
 31
0.0
  0
LINE
  5
1F7
100
AcDbEntity
  8
0
370
    -3
  6
Continuous
100
AcDbLine
 10
369.401228
 20
348.406331
 30
0.0
 11
272.401228
 21
348.406331
 31
0.0
  0
LINE
  5
1F8
100
AcDbEntity
  8
0
370
    -3
  6
Continuous
100
AcDbLine
 10
369.401228
 20
347.406331
 30
0.0
 11
272.401228
 21
347.406331
 31
0.0
  0
LINE
  5
1F9
100
AcDbEntity
  8
0
370
    -3
  6
Continuous
100
AcDbLine
 10
369.401228
 20
342.721865
 30
0.0
 11
272.401228
 21
342.721865
 31
0.0
  0
LINE
  5
1FA
100
AcDbEntity
  8
0
370
    -3
  6
Continuous
100
AcDbLine
 10
369.401228
 20
337.772118
 30
0.0
 11
272.401228
 21
337.772118
 31
0.0
  0
LINE
  5
1FB
100
AcDbEntity
  8
0
370
    -3
  6
Continuous
100
AcDbLine
 10
378.304221
 20
329.725516
 30
0.0
 11
272.401228
 21
329.725516
 31
0.0
  0
LINE
  5
1FC
100
AcDbEntity
  8
0
370
    -3
  6
Continuous
100
AcDbLine
 10
379.314892
 20
328.120868
 30
0.0
 11
272.401228
 21
328.120868
 31
0.0
  0
LINE
  5
1FD
100
AcDbEntity
  8
0
370
    -3
  6
Continuous
100
AcDbLine
 10
379.401228
 20
324.157123
 30
0.0
 11
272.401228
 21
324.157123
 31
0.0
  0
LINE
  5
1FE
100
AcDbEntity
  8
0
370
    -3
  6
Continuous
100
AcDbLine
 10
304.401228
 20
322.406331
 30
0.0
 11
375.401228
 21
322.406331
 31
0.0
  0
ARC
  5
1FF
100
AcDbEntity
  8
0
370
    -3
  6
Continuous
100
AcDbCircle
 10
375.401228
 20
321.406331
 30
0.0
 40
1.0
100
AcDbArc
 50
0.0
 51
90.0
  0
ARC
  5
200
100
AcDbEntity
  8
0
370
    -3
  6
Continuous
100
AcDbCircle
 10
304.401228
 20
321.406331
 30
0.0
 40
1.0
100
AcDbArc
 50
90.0
 51
180.0
  0
ARC
  5
201
100
AcDbEntity
  8
0
370
    -3
  6
Continuous
100
AcDbCircle
 10
304.401228
 20
321.906331
 30
0.0
 40
2.0
100
AcDbArc
 50
90.0
 51
180.0
  0
LINE
  5
202
100
AcDbEntity
  8
0
370
    -3
  6
Continuous
100
AcDbLine
 10
302.401228
 20
292.406331
 30
0.0
 11
302.401228
 21
321.906331
 31
0.0
  0
LINE
  5
203
100
AcDbEntity
  8
0
370
    -3
  6
Continuous
100
AcDbLine
 10
377.401228
 20
292.406331
 30
0.0
 11
377.401228
 21
321.906331
 31
0.0
  0
ARC
  5
204
100
AcDbEntity
  8
0
370
    -3
  6
Continuous
100
AcDbCircle
 10
375.401228
 20
321.906331
 30
0.0
 40
2.0
100
AcDbArc
 50
0.0
 51
90.0
  0
LINE
  5
205
100
AcDbEntity
  8
0
370
    -3
  6
Continuous
100
AcDbLine
 10
304.401228
 20
323.906331
 30
0.0
 11
375.401228
 21
323.906331
 31
0.0
  0
LINE
  5
206
100
AcDbEntity
  8
0
370
    -3
  6
Continuous
100
AcDbLine
 10
369.401228
 20
333.406331
 30
0.0
 11
369.401228
 21
352.406331
 31
0.0
  0
ARC
  5
207
100
AcDbEntity
  8
0
370
    -3
  6
Continuous
100
AcDbCircle
 10
376.401228
 20
327.406331
 30
0.0
 40
3.0
100
AcDbArc
 50
0.0
 51
90.0
  0
LINE
  5
208
100
AcDbEntity
  8
0
370
    -3
  6
Continuous
100
AcDbLine
 10
372.401228
 20
330.406331
 30
0.0
 11
376.401228
 21
330.406331
 31
0.0
  0
ARC
  5
209
100
AcDbEntity
  8
0
370
    -3
  6
Continuous
100
AcDbCircle
 10
372.401228
 20
333.406331
 30
0.0
 40
3.0
100
AcDbArc
 50
180.0
 51
270.0
  0
LINE
  5
20A
100
AcDbEntity
  8
0
370
    -3
  6
Continuous
100
AcDbLine
 10
379.401228
 20
327.406331
 30
0.0
 11
379.401228
 21
292.406331
 31
0.0
  0
LINE
  5
20B
100
AcDbEntity
  8
0
370
    -3
  6
Continuous
100
AcDbLine
 10
272.401228
 20
350.906331
 30
0.0
 11
369.401228
 21
350.906331
 31
0.0
  0
LINE
  5
20C
100
AcDbEntity
  8
0
370
    -3
  6
Continuous
100
AcDbLine
 10
369.401228
 20
352.406331
 30
0.0
 11
398.095252
 21
352.406331
 31
0.0
  0
LINE
  5
20D
100
AcDbEntity
  8
0
370
    -3
  6
Continuous
100
AcDbLine
 10
420.401228
 20
292.406331
 30
0.0
 11
420.401228
 21
339.849536
 31
0.0
  0
ARC
  5
20E
100
AcDbEntity
  8
0
370
    -3
  6
Continuous
100
AcDbCircle
 10
398.095252
 20
332.406331
 30
0.0
 40
20.0
100
AcDbArc
 50
55.0
 51
90.0
  0
LINE
  5
20F
100
AcDbEntity
  8
0
370
    -3
  6
Continuous
100
AcDbLine
 10
409.566781
 20
348.789372
 30
0.0
 11
419.292527
 21
341.979332
 31
0.0
  0
ARC
  5
210
100
AcDbEntity
  8
0
370
    -3
  6
Continuous
100
AcDbCircle
 10
417.801228
 20
339.849536
 30
0.0
 40
2.6
100
AcDbArc
 50
0.0
 51
55.0
  0
LINE
  5
211
100
AcDbEntity
  8
0
370
    -3
  6
Continuous
100
AcDbLine
 10
376.401228
 20
263.406331
 30
0.0
 11
376.401228
 21
292.406331
 31
0.0
  0
LINE
  5
212
100
AcDbEntity
  8
0
370
    -3
  6
Continuous
100
AcDbLine
 10
303.401228
 20
263.406331
 30
0.0
 11
303.401228
 21
292.406331
 31
0.0
  0
LINE
  5
213
100
AcDbEntity
  8
0
370
    -3
  6
Continuous
100
AcDbLine
 10
302.560631
 20
262.123897
 30
0.0
 11
272.401228
 21
262.123897
 31
0.0
  0
LINE
  5
214
100
AcDbEntity
  8
0
370
    -3
  6
Continuous
100
AcDbLine
 10
379.401228
 20
262.123897
 30
0.0
 11
377.241825
 21
262.123897
 31
0.0
  0
LINE
  5
215
100
AcDbEntity
  8
0
370
    -3
  6
Continuous
100
AcDbLine
 10
302.401228
 20
267.576278
 30
0.0
 11
272.401228
 21
267.576278
 31
0.0
  0
LINE
  5
216
100
AcDbEntity
  8
0
370
    -3
  6
Continuous
100
AcDbLine
 10
379.401228
 20
267.576278
 30
0.0
 11
377.401228
 21
267.576278
 31
0.0
  0
LINE
  5
217
100
AcDbEntity
  8
0
370
    -3
  6
Continuous
100
AcDbLine
 10
302.401228
 20
266.214397
 30
0.0
 11
272.401228
 21
266.214397
 31
0.0
  0
LINE
  5
218
100
AcDbEntity
  8
0
370
    -3
  6
Continuous
100
AcDbLine
 10
379.401228
 20
266.214397
 30
0.0
 11
377.401228
 21
266.214397
 31
0.0
  0
LINE
  5
219
100
AcDbEntity
  8
0
370
    -3
  6
Continuous
100
AcDbLine
 10
302.401228
 20
272.406331
 30
0.0
 11
272.401228
 21
272.406331
 31
0.0
  0
LINE
  5
21A
100
AcDbEntity
  8
0
370
    -3
  6
Continuous
100
AcDbLine
 10
379.401228
 20
272.406331
 30
0.0
 11
377.401228
 21
272.406331
 31
0.0
  0
LINE
  5
21B
100
AcDbEntity
  8
0
370
    -3
  6
Continuous
100
AcDbLine
 10
369.401228
 20
235.406331
 30
0.0
 11
272.401228
 21
235.406331
 31
0.0
  0
LINE
  5
21C
100
AcDbEntity
  8
0
370
    -3
  6
Continuous
100
AcDbLine
 10
369.401228
 20
234.906331
 30
0.0
 11
272.401228
 21
234.906331
 31
0.0
  0
LINE
  5
21D
100
AcDbEntity
  8
0
370
    -3
  6
Continuous
100
AcDbLine
 10
369.401228
 20
236.406331
 30
0.0
 11
272.401228
 21
236.406331
 31
0.0
  0
LINE
  5
21E
100
AcDbEntity
  8
0
370
    -3
  6
Continuous
100
AcDbLine
 10
369.401228
 20
237.406331
 30
0.0
 11
272.401228
 21
237.406331
 31
0.0
  0
LINE
  5
21F
100
AcDbEntity
  8
0
370
    -3
  6
Continuous
100
AcDbLine
 10
369.401228
 20
242.090797
 30
0.0
 11
272.401228
 21
242.090797
 31
0.0
  0
LINE
  5
220
100
AcDbEntity
  8
0
370
    -3
  6
Continuous
100
AcDbLine
 10
369.401228
 20
247.040544
 30
0.0
 11
272.401228
 21
247.040544
 31
0.0
  0
LINE
  5
221
100
AcDbEntity
  8
0
370
    -3
  6
Continuous
100
AcDbLine
 10
378.304221
 20
255.087146
 30
0.0
 11
272.401228
 21
255.087146
 31
0.0
  0
LINE
  5
222
100
AcDbEntity
  8
0
370
    -3
  6
Continuous
100
AcDbLine
 10
379.314892
 20
256.691794
 30
0.0
 11
272.401228
 21
256.691794
 31
0.0
  0
LINE
  5
223
100
AcDbEntity
  8
0
370
    -3
  6
Continuous
100
AcDbLine
 10
379.401228
 20
260.655539
 30
0.0
 11
272.401228
 21
260.655539
 31
0.0
  0
LINE
  5
224
100
AcDbEntity
  8
0
370
    -3
  6
Continuous
100
AcDbLine
 10
304.401228
 20
262.406331
 30
0.0
 11
375.401228
 21
262.406331
 31
0.0
  0
ARC
  5
225
100
AcDbEntity
  8
0
370
    -3
  6
Continuous
100
AcDbCircle
 10
375.401228
 20
263.406331
 30
0.0
 40
1.0
100
AcDbArc
 50
270.0
 51
0.0
  0
ARC
  5
226
100
AcDbEntity
  8
0
370
    -3
  6
Continuous
100
AcDbCircle
 10
304.401228
 20
263.406331
 30
0.0
 40
1.0
100
AcDbArc
 50
180.0
 51
270.0
  0
ARC
  5
227
100
AcDbEntity
  8
0
370
    -3
  6
Continuous
100
AcDbCircle
 10
304.401228
 20
262.906331
 30
0.0
 40
2.0
100
AcDbArc
 50
180.0
 51
270.0
  0
LINE
  5
228
100
AcDbEntity
  8
0
370
    -3
  6
Continuous
100
AcDbLine
 10
302.401228
 20
292.406331
 30
0.0
 11
302.401228
 21
262.906331
 31
0.0
  0
LINE
  5
229
100
AcDbEntity
  8
0
370
    -3
  6
Continuous
100
AcDbLine
 10
377.401228
 20
292.406331
 30
0.0
 11
377.401228
 21
262.906331
 31
0.0
  0
ARC
  5
22A
100
AcDbEntity
  8
0
370
    -3
  6
Continuous
100
AcDbCircle
 10
375.401228
 20
262.906331
 30
0.0
 40
2.0
100
AcDbArc
 50
270.0
 51
0.0
  0
LINE
  5
22B
100
AcDbEntity
  8
0
370
    -3
  6
Continuous
100
AcDbLine
 10
304.401228
 20
260.906331
 30
0.0
 11
375.401228
 21
260.906331
 31
0.0
  0
LINE
  5
22C
100
AcDbEntity
  8
0
370
    -3
  6
Continuous
100
AcDbLine
 10
369.401228
 20
251.406331
 30
0.0
 11
369.401228
 21
232.406331
 31
0.0
  0
ARC
  5
22D
100
AcDbEntity
  8
0
370
    -3
  6
Continuous
100
AcDbCircle
 10
376.401228
 20
257.406331
 30
0.0
 40
3.0
100
AcDbArc
 50
270.0
 51
0.0
  0
LINE
  5
22E
100
AcDbEntity
  8
0
370
    -3
  6
Continuous
100
AcDbLine
 10
372.401228
 20
254.406331
 30
0.0
 11
376.401228
 21
254.406331
 31
0.0
  0
ARC
  5
22F
100
AcDbEntity
  8
0
370
    -3
  6
Continuous
100
AcDbCircle
 10
372.401228
 20
251.406331
 30
0.0
 40
3.0
100
AcDbArc
 50
90.0
 51
180.0
  0
LINE
  5
230
100
AcDbEntity
  8
0
370
    -3
  6
Continuous
100
AcDbLine
 10
379.401228
 20
257.406331
 30
0.0
 11
379.401228
 21
292.406331
 31
0.0
  0
LINE
  5
231
100
AcDbEntity
  8
0
370
    -3
  6
Continuous
100
AcDbLine
 10
272.401228
 20
233.906331
 30
0.0
 11
369.401228
 21
233.906331
 31
0.0
  0
LINE
  5
232
100
AcDbEntity
  8
0
370
    -3
  6
Continuous
100
AcDbLine
 10
369.401228
 20
232.406331
 30
0.0
 11
398.095252
 21
232.406331
 31
0.0
  0
LINE
  5
233
100
AcDbEntity
  8
0
370
    -3
  6
Continuous
100
AcDbLine
 10
420.401228
 20
292.406331
 30
0.0
 11
420.401228
 21
244.963126
 31
0.0
  0
ARC
  5
234
100
AcDbEntity
  8
0
370
    -3
  6
Continuous
100
AcDbCircle
 10
398.095252
 20
252.406331
 30
0.0
 40
20.0
100
AcDbArc
 50
270.0
 51
305.0
  0
LINE
  5
235
100
AcDbEntity
  8
0
370
    -3
  6
Continuous
100
AcDbLine
 10
409.566781
 20
236.02329
 30
0.0
 11
419.292527
 21
242.833331
 31
0.0
  0
ARC
  5
236
100
AcDbEntity
  8
0
370
    -3
  6
Continuous
100
AcDbCircle
 10
417.801228
 20
244.963126
 30
0.0
 40
2.6
100
AcDbArc
 50
305.0
 51
0.0
  0
ELLIPSE
  5
237
100
AcDbEntity
  8
0
370
    -3
  6
Continuous
100
AcDbEllipse
 10
380.401228
 20
344.329856
 30
0.0
 11
4.6999999999999886
 21
0.0
 31
0.0
210
0.0
220
0.0
230
1.0
 40
0.766646
 41
0.0
 42
6.2831853071795862
  0
LINE
  5
238
100
AcDbEntity
  8
0
370
    -3
  6
Continuous
100
AcDbLine
 10
382.401228
 20
347.322232
 30
0.0
 11
380.401228
 21
346.146446
 31
0.0
  0
LINE
  5
239
100
AcDbEntity
  8
0
370
    -3
  6
Continuous
100
AcDbLine
 10
380.401228
 20
346.146446
 30
0.0
 11
378.401228
 21
344.493805
 31
0.0
  0
LINE
  5
23A
100
AcDbEntity
  8
0
370
    -3
  6
Continuous
100
AcDbLine
 10
378.401228
 20
347.322232
 30
0.0
 11
380.401228
 21
346.146446
 31
0.0
  0
LINE
  5
23B
100
AcDbEntity
  8
0
370
    -3
  6
Continuous
100
AcDbLine
 10
380.401228
 20
346.146446
 30
0.0
 11
382.401228
 21
344.493805
 31
0.0
  0
ELLIPSE
  5
23C
100
AcDbEntity
  8
0
370
    -3
  6
Continuous
100
AcDbEllipse
 10
380.401228
 20
240.482806
 30
0.0
 11
4.6999999999999886
 21
0.0
 31
0.0
210
0.0
220
0.0
230
1.0
 40
0.766646
 41
0.0
 42
6.2831853071795862
  0
LINE
  5
23D
100
AcDbEntity
  8
0
370
    -3
  6
Continuous
100
AcDbLine
 10
382.401228
 20
237.490431
 30
0.0
 11
380.401228
 21
238.666216
 31
0.0
  0
LINE
  5
23E
100
AcDbEntity
  8
0
370
    -3
  6
Continuous
100
AcDbLine
 10
380.401228
 20
238.666216
 30
0.0
 11
378.401228
 21
240.318858
 31
0.0
  0
LINE
  5
23F
100
AcDbEntity
  8
0
370
    -3
  6
Continuous
100
AcDbLine
 10
378.401228
 20
237.490431
 30
0.0
 11
380.401228
 21
238.666216
 31
0.0
  0
LINE
  5
240
100
AcDbEntity
  8
0
370
    -3
  6
Continuous
100
AcDbLine
 10
380.401228
 20
238.666216
 30
0.0
 11
382.401228
 21
240.318858
 31
0.0
  0
INSERT
  5
250
100
AcDbEntity
  8
0
100
AcDbBlockReference
  2
ZU_SYM__USERS_HOME_SYMBOL_STD_SYM_B01_00003-1
 10
210.54147
 20
243.969517
 30
0.0
 41
-1.0
  0
INSERT
  5
260
100
AcDbEntity
  8
0
100
AcDbBlockReference
  2
ZU_SYM__USERS_HOME_SYMBOL_STD_SYM_B01_00004-1
 10
210.54147
 20
340.843146
 30
0.0
 50
180.0
  0
MTEXT
  5
262
100
AcDbEntity
  8
0
370
    -3
  6
Continuous
100
AcDbMText
 10
860.220032
 20
-188.699539
 30
0.0
 40
6.6
 41
0.0
 71
     7
 72
     1
  1
\W0.82;GM-SHY-RT
  7
ZU_SHPTB00001
 11
1.0
 21
0.0
 31
0.0
 73
     1
 44
1.0
  0
MTEXT
  5
263
100
AcDbEntity
  8
0
370
    -3
  6
Continuous
100
AcDbMText
 10
860.220032
 20
-199.699539
 30
0.0
 40
6.6
 41
0.0
 71
     7
 72
     1
  1
\W0.82;0.4kW
  7
ZU_SHPTB00001
 11
1.0
 21
0.0
 31
0.0
 73
     1
 44
1.0
  0
MTEXT
  5
264
100
AcDbEntity
  8
0
370
    -3
  6
Continuous
100
AcDbMText
 10
860.220032
 20
-210.699539
 30
0.0
 40
6.6
 41
0.0
 71
     7
 72
     1
  1
\W0.82;1/300-1/480
  7
ZU_SHPTB00001
 11
1.0
 21
0.0
 31
0.0
 73
     1
 44
1.0
  0
MTEXT
  5
265
100
AcDbEntity
  8
0
370
    -3
  6
Continuous
100
AcDbMText
 10
860.220032
 20
-221.699539
 30
0.0
 40
6.6
 41
0.0
 71
     7
 72
     1
  1
\W0.82;SCALE\W1.36; \W0.82;1/1
  7
ZU_SHPTB00001
 11
1.0
 21
0.0
 31
0.0
 73
     1
 44
1.0
  0
LINE
  5
266
100
AcDbEntity
  8
0
370
    -3
  6
Continuous
100
AcDbLine
 10
68.901228
 20
189.406331
 30
0.0
 11
68.901228
 21
124.406331
 31
0.0
  0
LINE
  5
267
100
AcDbEntity
  8
0
370
    -3
  6
Continuous
100
AcDbLine
 10
67.901228
 20
189.406331
 30
0.0
 11
88.901228
 21
189.406331
 31
0.0
  0
LINE
  5
268
100
AcDbEntity
  8
0
370
    -3
  6
Continuous
100
AcDbLine
 10
67.901228
 20
192.406331
 30
0.0
 11
67.901228
 21
189.406331
 31
0.0
  0
LINE
  5
269
100
AcDbEntity
  8
0
370
    -3
  6
Continuous
100
AcDbLine
 10
108.901228
 20
189.406331
 30
0.0
 11
108.901228
 21
124.406331
 31
0.0
  0
LINE
  5
26A
100
AcDbEntity
  8
0
370
    -3
  6
Continuous
100
AcDbLine
 10
109.901228
 20
189.406331
 30
0.0
 11
88.901228
 21
189.406331
 31
0.0
  0
LINE
  5
26B
100
AcDbEntity
  8
0
370
    -3
  6
Continuous
100
AcDbLine
 10
109.901228
 20
192.406331
 30
0.0
 11
109.901228
 21
189.406331
 31
0.0
  0
LINE
  5
26C
100
AcDbEntity
  8
0
370
    -3
  6
Continuous
100
AcDbLine
 10
68.901228
 20
124.406331
 30
0.0
 11
88.901228
 21
124.406331
 31
0.0
  0
LINE
  5
26D
100
AcDbEntity
  8
0
370
    -3
  6
Continuous
100
AcDbLine
 10
108.901228
 20
124.406331
 30
0.0
 11
88.901228
 21
124.406331
 31
0.0
  0
LINE
  5
26E
100
AcDbEntity
  8
0
370
    -3
  6
Continuous
100
AcDbLine
 10
-8.958761
 20
350.406331
 30
0.0
 11
15.902537
 21
350.406331
 31
0.0
  0
LINE
  5
26F
100
AcDbEntity
  8
0
370
    -3
  6
Continuous
100
AcDbLine
 10
82.901228
 20
124.406331
 30
0.0
 11
94.901228
 21
124.406331
 31
0.0
  0
LINE
  5
270
100
AcDbEntity
  8
0
370
    -3
  6
Continuous
100
AcDbLine
 10
94.901228
 20
179.406331
 30
0.0
 11
82.901228
 21
179.406331
 31
0.0
  0
ARC
  5
271
100
AcDbEntity
  8
0
370
    -3
  6
Continuous
100
AcDbCircle
 10
173.788774
 20
357.906331
 30
0.0
 40
2.0
100
AcDbArc
 50
1.0
 51
90.0
  0
ARC
  5
272
100
AcDbEntity
  8
0
370
    -3
  6
Continuous
100
AcDbCircle
 10
-11.983701
 20
357.906331
 30
0.0
 40
2.0
100
AcDbArc
 50
90.0
 51
179.0
  0
LINE
  5
273
100
AcDbEntity
  8
0
370
    -3
  6
Continuous
100
AcDbLine
 10
176.430828
 20
350.406331
 30
0.0
 11
176.430828
 21
271.906331
 31
0.0
  0
LINE
  5
274
100
AcDbEntity
  8
0
370
    -3
  6
Continuous
100
AcDbLine
 10
174.524794
 20
271.112904
 30
0.0
 11
173.731079
 21
226.003609
 31
0.0
  0
ARC
  5
275
100
AcDbEntity
  8
0
370
    -3
  6
Continuous
100
AcDbCircle
 10
17.902537
 20
223.906331
 30
0.0
 40
1.0
100
AcDbArc
 50
180.0
 51
270.0
  0
ARC
  5
276
100
AcDbEntity
  8
0
370
    -3
  6
Continuous
100
AcDbCircle
 10
15.902537
 20
223.906331
 30
0.0
 40
1.0
100
AcDbArc
 50
0.0
 51
90.0
  0
ARC
  5
277
100
AcDbEntity
  8
0
370
    -3
  6
Continuous
100
AcDbCircle
 10
31.359919
 20
219.906331
 30
0.0
 40
3.0
100
AcDbArc
 50
10.0
 51
90.0
  0
LINE
  5
278
100
AcDbEntity
  8
0
370
    -3
  6
Continuous
100
AcDbLine
 10
31.359919
 20
222.906331
 30
0.0
 11
17.902537
 21
222.906331
 31
0.0
  0
ARC
  5
279
100
AcDbEntity
  8
0
370
    -3
  6
Continuous
100
AcDbCircle
 10
161.902537
 20
223.906331
 30
0.0
 40
1.0
100
AcDbArc
 50
90.0
 51
180.0
  0
ARC
  5
27A
100
AcDbEntity
  8
0
370
    -3
  6
Continuous
100
AcDbCircle
 10
159.902537
 20
223.906331
 30
0.0
 40
1.0
100
AcDbArc
 50
270.0
 51
0.0
  0
ARC
  5
27B
100
AcDbEntity
  8
0
370
    -3
  6
Continuous
100
AcDbCircle
 10
146.445155
 20
219.906331
 30
0.0
 40
3.0
100
AcDbArc
 50
90.0
 51
170.0
  0
LINE
  5
27C
100
AcDbEntity
  8
0
370
    -3
  6
Continuous
100
AcDbLine
 10
31.359919
 20
222.906331
 30
0.0
 11
159.902537
 21
222.906331
 31
0.0
  0
LINE
  5
27D
100
AcDbEntity
  8
0
370
    -3
  6
Continuous
100
AcDbLine
 10
57.402537
 20
192.806331
 30
0.0
 11
57.802537
 21
192.406331
 31
0.0
  0
LINE
  5
27E
100
AcDbEntity
  8
0
370
    -3
  6
Continuous
100
AcDbLine
 10
38.465412
 20
196.885387
 30
0.0
 11
34.314342
 21
220.427276
 31
0.0
  0
CIRCLE
  5
27F
100
AcDbEntity
  8
0
370
    -3
  6
Continuous
100
AcDbCircle
 10
2.902537
 20
377.406331
 30
0.0
 40
7.0
  0
CIRCLE
  5
280
100
AcDbEntity
  8
0
370
    -3
  6
CENTER
100
AcDbCircle
 10
2.902537
 20
377.406331
 30
0.0
 40
11.5
  0
LINE
  5
281
100
AcDbEntity
  8
0
370
    -3
  6
CENTER
100
AcDbLine
 10
2.902537
 20
395.156331
 30
0.0
 11
2.902537
 21
359.656331
 31
0.0
  0
LINE
  5
282
100
AcDbEntity
  8
0
370
    -3
  6
CENTER
100
AcDbLine
 10
-14.847463
 20
377.406331
 30
0.0
 11
20.652537
 21
377.406331
 31
0.0
  0
CIRCLE
  5
283
100
AcDbEntity
  8
0
370
    -3
  6
Continuous
100
AcDbCircle
 10
158.902537
 20
377.406331
 30
0.0
 40
7.0
  0
CIRCLE
  5
284
100
AcDbEntity
  8
0
370
    -3
  6
CENTER
100
AcDbCircle
 10
158.902537
 20
377.406331
 30
0.0
 40
11.5
  0
LINE
  5
285
100
AcDbEntity
  8
0
370
    -3
  6
CENTER
100
AcDbLine
 10
158.902537
 20
395.156331
 30
0.0
 11
158.902537
 21
359.656331
 31
0.0
  0
LINE
  5
286
100
AcDbEntity
  8
0
370
    -3
  6
CENTER
100
AcDbLine
 10
141.152537
 20
377.406331
 30
0.0
 11
176.652537
 21
377.406331
 31
0.0
  0
LINE
  5
287
100
AcDbEntity
  8
0
370
    -3
  6
CENTER
100
AcDbLine
 10
141.152537
 20
207.406331
 30
0.0
 11
176.652537
 21
207.406331
 31
0.0
  0
LINE
  5
288
100
AcDbEntity
  8
0
370
    -3
  6
CENTER
100
AcDbLine
 10
158.902537
 20
189.656331
 30
0.0
 11
158.902537
 21
225.156331
 31
0.0
  0
LINE
  5
289
100
AcDbEntity
  8
0
370
    -3
  6
CENTER
100
AcDbLine
 10
-14.847463
 20
207.406331
 30
0.0
 11
20.652537
 21
207.406331
 31
0.0
  0
LINE
  5
28A
100
AcDbEntity
  8
0
370
    -3
  6
CENTER
100
AcDbLine
 10
2.902537
 20
189.656331
 30
0.0
 11
2.902537
 21
225.156331
 31
0.0
  0
ARC
  5
28B
100
AcDbEntity
  8
0
370
    -3
  6
Continuous
100
AcDbCircle
 10
172.238787
 20
389.406331
 30
0.0
 40
3.0
100
AcDbArc
 50
1.0
 51
90.0
  0
LINE
  5
28C
100
AcDbEntity
  8
0
370
    -3
  6
Continuous
100
AcDbLine
 10
175.919992
 20
350.406331
 30
0.0
 11
175.78847
 21
357.941236
 31
0.0
  0
LINE
  5
28D
100
AcDbEntity
  8
0
370
    -3
  6
Continuous
100
AcDbLine
 10
173.196088
 20
195.353974
 30
0.0
 11
173.731079
 21
226.003609
 31
0.0
  0
ARC
  5
28E
100
AcDbEntity
  8
0
370
    -3
  6
Continuous
100
AcDbCircle
 10
170.196545
 20
195.406331
 30
0.0
 40
3.0
100
AcDbArc
 50
270.0
 51
359.0
  0
CIRCLE
  5
28F
100
AcDbEntity
  8
0
370
    -3
  6
CENTER
100
AcDbCircle
 10
2.902537
 20
207.406331
 30
0.0
 40
11.5
  0
CIRCLE
  5
290
100
AcDbEntity
  8
0
370
    -3
  6
CENTER
100
AcDbCircle
 10
158.902537
 20
207.406331
 30
0.0
 40
11.5
  0
CIRCLE
  5
291
100
AcDbEntity
  8
0
370
    -3
  6
Continuous
100
AcDbCircle
 10
158.902537
 20
207.406331
 30
0.0
 40
7.0
  0
CIRCLE
  5
292
100
AcDbEntity
  8
0
370
    -3
  6
Continuous
100
AcDbCircle
 10
2.902537
 20
207.406331
 30
0.0
 40
7.0
  0
ARC
  5
293
100
AcDbEntity
  8
0
370
    -3
  6
Continuous
100
AcDbCircle
 10
-10.433714
 20
389.406331
 30
0.0
 40
3.0
100
AcDbArc
 50
90.0
 51
179.0
  0
LINE
  5
294
100
AcDbEntity
  8
0
370
    -3
  6
Continuous
100
AcDbLine
 10
-14.106191
 20
350.906331
 30
0.0
 11
-13.983396
 21
357.941236
 31
0.0
  0
ARC
  5
295
100
AcDbEntity
  8
0
370
    -3
  6
Continuous
100
AcDbCircle
 10
-8.391471
 20
195.406331
 30
0.0
 40
3.0
100
AcDbArc
 50
181.0
 51
270.0
  0
LINE
  5
296
100
AcDbEntity
  8
0
370
    -3
  6
Continuous
100
AcDbLine
 10
170.196545
 20
192.406331
 30
0.0
 11
-8.391471
 21
192.406331
 31
0.0
  0
LINE
  5
297
100
AcDbEntity
  8
0
370
    -3
  6
Continuous
100
AcDbLine
 10
172.238787
 20
392.406331
 30
0.0
 11
-10.433714
 21
392.406331
 31
0.0
  0
ARC
  5
298
100
AcDbEntity
  8
0
370
    -3
  6
Continuous
100
AcDbCircle
 10
175.232461
 20
223.406331
 30
0.0
 40
3.0
100
AcDbArc
 50
90.0
 51
131.409622
  0
ARC
  5
299
100
AcDbEntity
  8
0
370
    -3
  6
Continuous
100
AcDbCircle
 10
177.402689
 20
350.406331
 30
0.0
 40
1.0
100
AcDbArc
 50
179.0
 51
270.0
  0
ARC
  5
29A
100
AcDbEntity
  8
0
370
    -3
  6
Continuous
100
AcDbCircle
 10
183.901228
 20
353.406331
 30
0.0
 40
5.0
100
AcDbArc
 50
90.0
 51
180.0
  0
ARC
  5
29B
100
AcDbEntity
  8
0
370
    -3
  6
Continuous
100
AcDbCircle
 10
177.901228
 20
350.406331
 30
0.0
 40
1.0
100
AcDbArc
 50
270.0
 51
0.0
  0
LINE
  5
29C
100
AcDbEntity
  8
0
370
    -3
  6
Continuous
100
AcDbLine
 10
177.402689
 20
349.406331
 30
0.0
 11
177.901228
 21
349.406331
 31
0.0
  0
LINE
  5
29D
100
AcDbEntity
  8
0
370
    -3
  6
Continuous
100
AcDbLine
 10
178.901228
 20
226.406331
 30
0.0
 11
178.901228
 21
271.906331
 31
0.0
  0
ARC
  5
29E
100
AcDbEntity
  8
0
370
    -3
  6
Continuous
100
AcDbCircle
 10
196.401228
 20
222.906331
 30
0.0
 40
2.0
100
AcDbArc
 50
180.0
 51
270.0
  0
ARC
  5
29F
100
AcDbEntity
  8
0
370
    -3
  6
Continuous
100
AcDbCircle
 10
191.401228
 20
223.406331
 30
0.0
 40
3.0
100
AcDbArc
 50
0.0
 51
90.0
  0
LINE
  5
2A0
100
AcDbEntity
  8
0
370
    -3
  6
Continuous
100
AcDbLine
 10
183.901228
 20
358.406331
 30
0.0
 11
191.401228
 21
358.406331
 31
0.0
  0
LINE
  5
2A1
100
AcDbEntity
  8
0
370
    -3
  6
Continuous
100
AcDbLine
 10
194.401228
 20
223.406331
 30
0.0
 11
194.401228
 21
222.906331
 31
0.0
  0
ARC
  5
2A2
100
AcDbEntity
  8
0
370
    -3
  6
Continuous
100
AcDbCircle
 10
196.401228
 20
361.906331
 30
0.0
 40
2.0
100
AcDbArc
 50
90.0
 51
180.0
  0
ARC
  5
2A3
100
AcDbEntity
  8
0
370
    -3
  6
Continuous
100
AcDbCircle
 10
191.401228
 20
361.406331
 30
0.0
 40
3.0
100
AcDbArc
 50
270.0
 51
0.0
  0
LINE
  5
2A4
100
AcDbEntity
  8
0
370
    -3
  6
Continuous
100
AcDbLine
 10
175.232461
 20
226.406331
 30
0.0
 11
191.401228
 21
226.406331
 31
0.0
  0
LINE
  5
2A5
100
AcDbEntity
  8
0
370
    -3
  6
Continuous
100
AcDbLine
 10
194.401228
 20
361.406331
 30
0.0
 11
194.401228
 21
361.906331
 31
0.0
  0
ARC
  5
2A6
100
AcDbEntity
  8
0
370
    -3
  6
Continuous
100
AcDbCircle
 10
171.263834
 20
227.906331
 30
0.0
 40
3.0
100
AcDbArc
 50
270.0
 51
311.409622
  0
LINE
  5
2A7
100
AcDbEntity
  8
0
370
    -3
  6
Continuous
100
AcDbLine
 10
161.902537
 20
224.906331
 30
0.0
 11
171.263834
 21
224.906331
 31
0.0
  0
LINE
  5
2A8
100
AcDbEntity
  8
0
370
    -3
  6
Continuous
100
AcDbLine
 10
-8.958761
 20
224.906331
 30
0.0
 11
161.902537
 21
224.906331
 31
0.0
  0
LINE
  5
2A9
100
AcDbEntity
  8
0
370
    -3
  6
Continuous
100
AcDbLine
 10
120.202537
 20
192.406331
 30
0.0
 11
88.902537
 21
192.406331
 31
0.0
  0
LINE
  5
2AA
100
AcDbEntity
  8
0
370
    -3
  6
Continuous
100
AcDbLine
 10
136.385238
 20
194.406331
 30
0.0
 11
120.402537
 21
194.406331
 31
0.0
  0
LINE
  5
2AB
100
AcDbEntity
  8
0
370
    -3
  6
Continuous
100
AcDbLine
 10
139.339661
 20
196.885387
 30
0.0
 11
143.490731
 21
220.427276
 31
0.0
  0
ARC
  5
2AC
100
AcDbEntity
  8
0
370
    -3
  6
Continuous
100
AcDbCircle
 10
136.385238
 20
197.406331
 30
0.0
 40
3.0
100
AcDbArc
 50
270.0
 51
350.0
  0
LINE
  5
2AD
100
AcDbEntity
  8
0
370
    -3
  6
Continuous
100
AcDbLine
 10
57.602537
 20
192.406331
 30
0.0
 11
88.902537
 21
192.406331
 31
0.0
  0
ARC
  5
2AE
100
AcDbEntity
  8
0
370
    -3
  6
Continuous
100
AcDbCircle
 10
41.419836
 20
197.406331
 30
0.0
 40
3.0
100
AcDbArc
 50
190.0
 51
270.0
  0
LINE
  5
2AF
100
AcDbEntity
  8
0
370
    -3
  6
Continuous
100
AcDbLine
 10
41.419836
 20
194.406331
 30
0.0
 11
120.402537
 21
194.406331
 31
0.0
  0
LINE
  5
2B0
100
AcDbEntity
  8
0
370
    -3
  6
Continuous
100
AcDbLine
 10
120.402537
 20
192.606331
 30
0.0
 11
120.402537
 21
194.406331
 31
0.0
  0
LINE
  5
2B1
100
AcDbEntity
  8
0
370
    -3
  6
Continuous
100
AcDbLine
 10
57.402537
 20
192.806331
 30
0.0
 11
57.402537
 21
194.406331
 31
0.0
  0
LINE
  5
2B2
100
AcDbEntity
  8
0
370
    -3
  6
Continuous
100
AcDbLine
 10
120.402537
 20
192.606331
 30
0.0
 11
120.202537
 21
192.406331
 31
0.0
  0
LINE
  5
2B3
100
AcDbEntity
  8
0
370
    -3
  6
CENTER
100
AcDbLine
 10
424.100822
 20
292.406331
 30
0.0
 11
-21.935054
 21
292.406331
 31
0.0
  0
LINE
  5
2B4
100
AcDbEntity
  8
0
370
    -3
  6
Continuous
100
AcDbLine
 10
-11.391014
 20
195.353974
 30
0.0
 11
-14.106191
 21
350.906331
 31
0.0
  0
ARC
  5
2B5
100
AcDbEntity
  8
0
370
    -3
  6
Continuous
100
AcDbCircle
 10
-8.958761
 20
227.906331
 30
0.0
 40
3.0
100
AcDbArc
 50
181.0
 51
270.0
  0
LINE
  5
2B6
100
AcDbEntity
  8
0
370
    -3
  6
Continuous
100
AcDbLine
 10
196.401228
 20
220.906331
 30
0.0
 11
200.901228
 21
220.906331
 31
0.0
  0
LINE
  5
2B7
100
AcDbEntity
  8
0
370
    -3
  6
Continuous
100
AcDbLine
 10
196.401228
 20
363.906331
 30
0.0
 11
200.901228
 21
363.906331
 31
0.0
  0
LINE
  5
2B8
100
AcDbEntity
  8
0
370
    -3
  6
Continuous
100
AcDbLine
 10
-14.106191
 20
350.406331
 30
0.0
 11
176.430828
 21
350.406331
 31
0.0
  0
LINE
  5
2B9
100
AcDbEntity
  8
0
370
    -3
  6
Continuous
100
AcDbLine
 10
-11.983701
 20
359.906331
 30
0.0
 11
15.902537
 21
359.906331
 31
0.0
  0
LINE
  5
2BA
100
AcDbEntity
  8
0
370
    -3
  6
Continuous
100
AcDbLine
 10
146.445155
 20
361.906331
 30
0.0
 11
17.902537
 21
361.906331
 31
0.0
  0
ARC
  5
2BB
100
AcDbEntity
  8
0
370
    -3
  6
Continuous
100
AcDbCircle
 10
15.902537
 20
360.906331
 30
0.0
 40
1.0
100
AcDbArc
 50
270.0
 51
0.0
  0
ARC
  5
2BC
100
AcDbEntity
  8
0
370
    -3
  6
Continuous
100
AcDbCircle
 10
17.902537
 20
360.906331
 30
0.0
 40
1.0
100
AcDbArc
 50
90.0
 51
180.0
  0
LINE
  5
2BD
100
AcDbEntity
  8
0
370
    -3
  6
Continuous
100
AcDbLine
 10
57.402537
 20
392.406331
 30
0.0
 11
57.402537
 21
390.406331
 31
0.0
  0
LINE
  5
2BE
100
AcDbEntity
  8
0
370
    -3
  6
Continuous
100
AcDbLine
 10
41.419836
 20
390.406331
 30
0.0
 11
120.402537
 21
390.406331
 31
0.0
  0
ARC
  5
2BF
100
AcDbEntity
  8
0
370
    -3
  6
Continuous
100
AcDbCircle
 10
41.419836
 20
387.406331
 30
0.0
 40
3.0
100
AcDbArc
 50
90.0
 51
170.0
  0
LINE
  5
2C0
100
AcDbEntity
  8
0
370
    -3
  6
Continuous
100
AcDbLine
 10
38.465412
 20
387.927276
 30
0.0
 11
34.314342
 21
364.385387
 31
0.0
  0
ARC
  5
2C1
100
AcDbEntity
  8
0
370
    -3
  6
Continuous
100
AcDbCircle
 10
31.359919
 20
364.906331
 30
0.0
 40
3.0
100
AcDbArc
 50
270.0
 51
350.0
  0
LINE
  5
2C2
100
AcDbEntity
  8
0
370
    -3
  6
Continuous
100
AcDbLine
 10
120.402537
 20
392.206331
 30
0.0
 11
120.402537
 21
390.406331
 31
0.0
  0
LINE
  5
2C3
100
AcDbEntity
  8
0
370
    -3
  6
Continuous
100
AcDbLine
 10
136.385238
 20
390.406331
 30
0.0
 11
120.402537
 21
390.406331
 31
0.0
  0
ARC
  5
2C4
100
AcDbEntity
  8
0
370
    -3
  6
Continuous
100
AcDbCircle
 10
136.385238
 20
387.406331
 30
0.0
 40
3.0
100
AcDbArc
 50
10.0
 51
90.0
  0
LINE
  5
2C5
100
AcDbEntity
  8
0
370
    -3
  6
Continuous
100
AcDbLine
 10
139.339661
 20
387.927276
 30
0.0
 11
143.490731
 21
364.385387
 31
0.0
  0
LINE
  5
2C6
100
AcDbEntity
  8
0
370
    -3
  6
Continuous
100
AcDbLine
 10
146.445155
 20
361.906331
 30
0.0
 11
159.902537
 21
361.906331
 31
0.0
  0
ARC
  5
2C7
100
AcDbEntity
  8
0
370
    -3
  6
Continuous
100
AcDbCircle
 10
146.445155
 20
364.906331
 30
0.0
 40
3.0
100
AcDbArc
 50
190.0
 51
270.0
  0
LINE
  5
2C8
100
AcDbEntity
  8
0
370
    -3
  6
Continuous
100
AcDbLine
 10
15.902537
 20
359.906331
 30
0.0
 11
173.788774
 21
359.906331
 31
0.0
  0
ARC
  5
2C9
100
AcDbEntity
  8
0
370
    -3
  6
Continuous
100
AcDbCircle
 10
161.902537
 20
360.906331
 30
0.0
 40
1.0
100
AcDbArc
 50
180.0
 51
270.0
  0
ARC
  5
2CA
100
AcDbEntity
  8
0
370
    -3
  6
Continuous
100
AcDbCircle
 10
159.902537
 20
360.906331
 30
0.0
 40
1.0
100
AcDbArc
 50
0.0
 51
90.0
  0
LINE
  5
2CB
100
AcDbEntity
  8
0
370
    -3
  6
Continuous
100
AcDbLine
 10
175.78847
 20
357.941236
 30
0.0
 11
175.23833
 21
389.458689
 31
0.0
  0
LINE
  5
2CC
100
AcDbEntity
  8
0
370
    -3
  6
Continuous
100
AcDbLine
 10
-13.983396
 20
357.941236
 30
0.0
 11
-13.433257
 21
389.458689
 31
0.0
  0
LINE
  5
2CD
100
AcDbEntity
  8
0
370
    -3
  6
DASHED
100
AcDbLine
 10
194.401719
 20
250.40633
 30
0.0
 11
194.401668
 21
292.406331
 31
0.0
  0
ARC
  5
2CE
100
AcDbEntity
  8
0
370
    -3
  6
Continuous
100
AcDbCircle
 10
191.401228
 20
254.374093
 30
0.0
 40
3.0
100
AcDbArc
 50
270.0
 51
0.0
  0
LINE
  5
2CF
100
AcDbEntity
  8
0
370
    -3
  6
Continuous
100
AcDbLine
 10
191.401228
 20
333.438569
 30
0.0
 11
181.780849
 21
333.438569
 31
0.0
  0
ARC
  5
2D0
100
AcDbEntity
  8
0
370
    -3
  6
Continuous
100
AcDbCircle
 10
191.401228
 20
248.676661
 30
0.0
 40
3.0
100
AcDbArc
 50
270.0
 51
0.0
  0
LINE
  5
2D1
100
AcDbEntity
  8
0
370
    -3
  6
Continuous
100
AcDbLine
 10
194.401228
 20
292.406331
 30
0.0
 11
194.401228
 21
248.676661
 31
0.0
  0
LINE
  5
2D2
100
AcDbEntity
  8
0
370
    -3
  6
Continuous
100
AcDbLine
 10
191.401228
 20
339.136001
 30
0.0
 11
182.901228
 21
339.136001
 31
0.0
  0
ARC
  5
2D3
100
AcDbEntity
  8
0
370
    -3
  6
Continuous
100
AcDbCircle
 10
191.401228
 20
234.406331
 30
0.0
 40
3.0
100
AcDbArc
 50
0.0
 51
90.0
  0
LINE
  5
2D4
100
AcDbEntity
  8
0
370
    -3
  6
Continuous
100
AcDbLine
 10
191.401228
 20
347.406331
 30
0.0
 11
182.901228
 21
347.406331
 31
0.0
  0
LINE
  5
2D5
100
AcDbEntity
  8
0
370
    -3
  6
Continuous
100
AcDbLine
 10
194.401228
 20
234.406331
 30
0.0
 11
194.401228
 21
222.906331
 31
0.0
  0
ARC
  5
2D6
100
AcDbEntity
  8
0
370
    -3
  6
Continuous
100
AcDbCircle
 10
182.901228
 20
334.136001
 30
0.0
 40
5.0
100
AcDbArc
 50
90.0
 51
143.130102
  0
ARC
  5
2D7
100
AcDbEntity
  8
0
370
    -3
  6
Continuous
100
AcDbCircle
 10
182.901228
 20
342.406331
 30
0.0
 40
5.0
100
AcDbArc
 50
90.0
 51
143.130102
  0
LINE
  5
2D8
100
AcDbEntity
  8
0
370
    -3
  6
Continuous
100
AcDbLine
 10
191.401228
 20
237.406331
 30
0.0
 11
182.901228
 21
237.406331
 31
0.0
  0
ARC
  5
2D9
100
AcDbEntity
  8
0
370
    -3
  6
Continuous
100
AcDbCircle
 10
182.901228
 20
242.406331
 30
0.0
 40
5.0
100
AcDbArc
 50
216.869898
 51
270.0
  0
LINE
  5
2DA
100
AcDbEntity
  8
0
370
    -3
  6
Continuous
100
AcDbLine
 10
191.401228
 20
245.676662
 30
0.0
 11
182.901228
 21
245.676662
 31
0.0
  0
ARC
  5
2DB
100
AcDbEntity
  8
0
370
    -3
  6
Continuous
100
AcDbCircle
 10
182.901228
 20
250.676662
 30
0.0
 40
5.0
100
AcDbArc
 50
216.869898
 51
270.0
  0
LINE
  5
2DC
100
AcDbEntity
  8
0
370
    -3
  6
Continuous
100
AcDbLine
 10
191.401228
 20
251.374094
 30
0.0
 11
181.780849
 21
251.374094
 31
0.0
  0
LINE
  5
2DD
100
AcDbEntity
  8
0
370
    -3
  6
Continuous
100
AcDbLine
 10
194.401228
 20
350.406331
 30
0.0
 11
194.401228
 21
361.906331
 31
0.0
  0
ARC
  5
2DE
100
AcDbEntity
  8
0
370
    -3
  6
Continuous
100
AcDbCircle
 10
191.401228
 20
350.406331
 30
0.0
 40
3.0
100
AcDbArc
 50
270.0
 51
0.0
  0
ARC
  5
2DF
100
AcDbEntity
  8
0
370
    -3
  6
Continuous
100
AcDbCircle
 10
191.401228
 20
336.136
 30
0.0
 40
3.0
100
AcDbArc
 50
0.0
 51
90.0
  0
LINE
  5
2E0
100
AcDbEntity
  8
0
370
    -3
  6
DASHED
100
AcDbLine
 10
194.401719
 20
334.406331
 30
0.0
 11
194.401668
 21
292.406331
 31
0.0
  0
ARC
  5
2E1
100
AcDbEntity
  8
0
370
    -3
  6
Continuous
100
AcDbCircle
 10
191.401228
 20
330.438568
 30
0.0
 40
3.0
100
AcDbArc
 50
0.0
 51
90.0
  0
LINE
  5
2E2
100
AcDbEntity
  8
0
370
    -3
  6
Continuous
100
AcDbLine
 10
194.401228
 20
292.406331
 30
0.0
 11
194.401228
 21
336.136
 31
0.0
  0
LINE
  5
2E3
100
AcDbEntity
  8
0
370
    -3
  6
DASHED
100
AcDbLine
 10
194.401719
 20
334.406331
 30
0.0
 11
194.401668
 21
292.406331
 31
0.0
  0
LINE
  5
2E4
100
AcDbEntity
  8
0
370
    -3
  6
CENTER
100
AcDbLine
 10
189.844869
 20
302.906331
 30
0.0
 11
155.365943
 21
302.906331
 31
0.0
  0
LINE
  5
2E5
100
AcDbEntity
  8
0
370
    -3
  6
Continuous
100
AcDbLine
 10
180.930828
 20
312.906331
 30
0.0
 11
180.930828
 21
271.906331
 31
0.0
  0
LINE
  5
2E6
100
AcDbEntity
  8
0
370
    -3
  6
Continuous
100
AcDbLine
 10
180.930828
 20
312.906331
 30
0.0
 11
176.430828
 21
312.906331
 31
0.0
  0
INSERT
  5
2F2
100
AcDbEntity
  8
0
100
AcDbBlockReference
  2
ZU_SYM_C__ZUOU_AC_BLOCK_ZU_SYM_C__ZUOU_AC_BLOCK_ZU_SYM__USR_MELCAD_MD_SYM_SYM_SYM1_-1_-1_-1
 10
180.930828
 20
302.906331
 30
0.0
 41
-1.0
  0
LINE
  5
2F3
100
AcDbEntity
  8
0
370
    -3
  6
Continuous
100
AcDbLine
 10
180.930828
 20
271.906331
 30
0.0
 11
176.430828
 21
271.906331
 31
0.0
  0
LINE
  5
2F4
100
AcDbEntity
  8
0
370
    -3
  6
CENTER
100
AcDbLine
 10
189.844869
 20
281.906331
 30
0.0
 11
155.365943
 21
281.906331
 31
0.0
  0
INSERT
  5
300
100
AcDbEntity
  8
0
100
AcDbBlockReference
  2
ZU_SYM_C__ZUOU_AC_BLOCK_ZU_SYM_C__ZUOU_AC_BLOCK_ZU_SYM__USR_MELCAD_MD_SYM_SYM_SYM1_00009-1_-1_-1
 10
180.930828
 20
281.906331
 30
0.0
 50
180.0
  0
LINE
  5
301
100
AcDbEntity
  8
0
370
    -3
  6
Continuous
100
AcDbLine
 10
173.430828
 20
270.906331
 30
0.0
 11
156.608339
 21
270.906331
 31
0.0
  0
ARC
  5
302
100
AcDbEntity
  8
0
370
    -3
  6
Continuous
100
AcDbCircle
 10
173.430828
 20
273.906331
 30
0.0
 40
3.0
100
AcDbArc
 50
270.0
 51
0.0
  0
LINE
  5
303
100
AcDbEntity
  8
0
370
    -3
  6
Continuous
100
AcDbLine
 10
178.901228
 20
312.906331
 30
0.0
 11
178.901228
 21
353.406331
 31
0.0
  0
LINE
  5
304
100
AcDbEntity
  8
0
370
    -3
  6
Continuous
100
AcDbLine
 10
94.901228
 20
124.406331
 30
0.0
 11
94.901228
 21
179.406331
 31
0.0
  0
LINE
  5
305
100
AcDbEntity
  8
0
370
    -3
  6
Continuous
100
AcDbLine
 10
82.901228
 20
124.406331
 30
0.0
 11
82.901228
 21
179.406331
 31
0.0
  0
LINE
  5
306
100
AcDbEntity
  8
0
370
    -3
  6
CENTER
100
AcDbLine
 10
88.901228
 20
118.651408
 30
0.0
 11
88.901228
 21
470.236242
 31
0.0
  0
ARC
  5
307
100
AcDbEntity
  8
0
370
    -3
  6
Continuous
100
AcDbCircle
 10
88.901228
 20
179.406331
 30
0.0
 40
6.0
100
AcDbArc
 50
0.0
 51
180.0
  0
LINE
  5
308
100
AcDbEntity
  8
0
370
    -3
  6
Continuous
100
AcDbLine
 10
200.901228
 20
229.656331
 30
0.0
 11
200.901228
 21
363.906331
 31
0.0
  0
LINE
  5
309
100
AcDbEntity
  8
0
370
    -3
  6
Continuous
100
AcDbLine
 10
200.901228
 20
229.656331
 30
0.0
 11
200.901228
 21
220.906331
 31
0.0
  0
LINE
  5
30A
100
AcDbEntity
  8
0
370
    -3
  6
CENTER
100
AcDbLine
 10
-322.097137
 20
70.393659
 30
0.0
 11
-322.097137
 21
-238.590396
 31
0.0
  0
LINE
  5
30B
100
AcDbEntity
  8
0
370
    -3
  6
CENTER
100
AcDbLine
 10
-149.209713
 20
-56.082063
 30
0.0
 11
-494.51435
 21
-56.082063
 31
0.0
  0
LINE
  5
30C
100
AcDbEntity
  8
0
370
    -3
  6
CENTER
100
AcDbLine
 10
-363.457624
 20
-64.762489
 30
0.0
 11
-287.691273
 21
-64.762489
 31
0.0
  0
LINE
  5
30D
100
AcDbEntity
  8
0
370
    -3
  6
Continuous
100
AcDbLine
 10
272.401228
 20
-124.267901
 30
0.0
 11
272.401228
 21
-5.267901
 31
0.0
  0
LINE
  5
30E
100
AcDbEntity
  8
0
370
    -3
  6
Continuous
100
AcDbLine
 10
200.901228
 20
-95.262489
 30
0.0
 11
200.901228
 21
-166.762489
 31
0.0
  0
LINE
  5
30F
100
AcDbEntity
  8
0
370
    -3
  6
Continuous
100
AcDbLine
 10
200.901228
 20
-95.262489
 30
0.0
 11
200.901228
 21
-25.262489
 31
0.0
  0
LINE
  5
310
100
AcDbEntity
  8
0
370
    -3
  6
Continuous
100
AcDbLine
 10
196.401228
 20
-23.762489
 30
0.0
 11
200.901228
 21
-23.762489
 31
0.0
  0
LINE
  5
311
100
AcDbEntity
  8
0
370
    -3
  6
Continuous
100
AcDbLine
 10
196.401228
 20
-166.762489
 30
0.0
 11
200.901228
 21
-166.762489
 31
0.0
  0
LINE
  5
312
100
AcDbEntity
  8
0
370
    -3
  6
Continuous
100
AcDbLine
 10
200.901228
 20
-95.262489
 30
0.0
 11
200.901228
 21
-166.762489
 31
0.0
  0
LINE
  5
313
100
AcDbEntity
  8
0
370
    -3
  6
Continuous
100
AcDbLine
 10
200.901228
 20
-95.262489
 30
0.0
 11
200.901228
 21
-23.762489
 31
0.0
  0
LINE
  5
314
100
AcDbEntity
  8
0
370
    -3
  6
Continuous
100
AcDbLine
 10
200.901228
 20
-95.262489
 30
0.0
 11
200.901228
 21
-23.762489
 31
0.0
  0
LINE
  5
315
100
AcDbEntity
  8
0
370
    -3
  6
Continuous
100
AcDbLine
 10
200.901228
 20
-95.262489
 30
0.0
 11
200.901228
 21
-165.262489
 31
0.0
  0
LINE
  5
316
100
AcDbEntity
  8
0
370
    -3
  6
Continuous
100
AcDbLine
 10
200.901228
 20
-95.262489
 30
0.0
 11
200.901228
 21
-23.762489
 31
0.0
  0
LINE
  5
317
100
AcDbEntity
  8
0
370
    -3
  6
Continuous
100
AcDbLine
 10
200.901228
 20
-95.262489
 30
0.0
 11
200.901228
 21
-166.762489
 31
0.0
  0
LINE
  5
318
100
AcDbEntity
  8
0
370
    -3
  6
Continuous
100
AcDbLine
 10
200.901228
 20
-95.262489
 30
0.0
 11
200.901228
 21
-23.762489
 31
0.0
  0
LINE
  5
319
100
AcDbEntity
  8
0
370
    -3
  6
Continuous
100
AcDbLine
 10
200.901228
 20
-95.262489
 30
0.0
 11
200.901228
 21
-166.762489
 31
0.0
  0
LINE
  5
31A
100
AcDbEntity
  8
0
370
    -3
  6
Continuous
100
AcDbLine
 10
200.901228
 20
-95.262489
 30
0.0
 11
200.901228
 21
-25.262489
 31
0.0
  0
LINE
  5
31B
100
AcDbEntity
  8
0
370
    -3
  6
Continuous
100
AcDbLine
 10
200.901228
 20
-95.262489
 30
0.0
 11
200.901228
 21
-166.762489
 31
0.0
  0
LINE
  5
31C
100
AcDbEntity
  8
0
370
    -3
  6
Continuous
100
AcDbLine
 10
200.901228
 20
-95.262489
 30
0.0
 11
200.901228
 21
-23.762489
 31
0.0
  0
LINE
  5
31D
100
AcDbEntity
  8
0
370
    -3
  6
Continuous
100
AcDbLine
 10
200.901228
 20
-95.262489
 30
0.0
 11
200.901228
 21
-165.262489
 31
0.0
  0
LINE
  5
31E
100
AcDbEntity
  8
0
370
    -3
  6
Continuous
100
AcDbLine
 10
200.901228
 20
-95.262489
 30
0.0
 11
200.901228
 21
-23.762489
 31
0.0
  0
LINE
  5
31F
100
AcDbEntity
  8
0
370
    -3
  6
Continuous
100
AcDbLine
 10
200.901228
 20
-95.262489
 30
0.0
 11
200.901228
 21
-166.762489
 31
0.0
  0
LINE
  5
320
100
AcDbEntity
  8
0
370
    -3
  6
Continuous
100
AcDbLine
 10
200.901228
 20
-95.262489
 30
0.0
 11
200.901228
 21
-23.762489
 31
0.0
  0
LINE
  5
321
100
AcDbEntity
  8
0
370
    -3
  6
Continuous
100
AcDbLine
 10
200.901228
 20
-95.262489
 30
0.0
 11
200.901228
 21
-165.262489
 31
0.0
  0
LINE
  5
322
100
AcDbEntity
  8
0
370
    -3
  6
Continuous
100
AcDbLine
 10
200.901228
 20
-95.262489
 30
0.0
 11
200.901228
 21
-23.762489
 31
0.0
  0
LINE
  5
323
100
AcDbEntity
  8
0
370
    -3
  6
Continuous
100
AcDbLine
 10
200.901228
 20
-95.262489
 30
0.0
 11
200.901228
 21
-166.762489
 31
0.0
  0
LINE
  5
324
100
AcDbEntity
  8
0
370
    -3
  6
Continuous
100
AcDbLine
 10
200.901228
 20
-95.262489
 30
0.0
 11
200.901228
 21
-23.762489
 31
0.0
  0
LINE
  5
325
100
AcDbEntity
  8
0
370
    -3
  6
Continuous
100
AcDbLine
 10
200.901228
 20
-95.262489
 30
0.0
 11
200.901228
 21
-166.762489
 31
0.0
  0
LINE
  5
326
100
AcDbEntity
  8
0
370
    -3
  6
Continuous
100
AcDbLine
 10
200.901228
 20
-95.262489
 30
0.0
 11
200.901228
 21
-25.262489
 31
0.0
  0
LINE
  5
327
100
AcDbEntity
  8
0
370
    -3
  6
Continuous
100
AcDbLine
 10
200.901228
 20
-95.262489
 30
0.0
 11
200.901228
 21
-166.762489
 31
0.0
  0
LINE
  5
328
100
AcDbEntity
  8
0
370
    -3
  6
Continuous
100
AcDbLine
 10
200.901228
 20
-95.262489
 30
0.0
 11
200.901228
 21
-23.762489
 31
0.0
  0
LINE
  5
329
100
AcDbEntity
  8
0
370
    -3
  6
Continuous
100
AcDbLine
 10
200.901228
 20
-95.262489
 30
0.0
 11
200.901228
 21
-165.262489
 31
0.0
  0
LINE
  5
32A
100
AcDbEntity
  8
0
370
    -3
  6
Continuous
100
AcDbLine
 10
200.901228
 20
-95.262489
 30
0.0
 11
200.901228
 21
-23.762489
 31
0.0
  0
LINE
  5
32B
100
AcDbEntity
  8
0
370
    -3
  6
Continuous
100
AcDbLine
 10
200.901228
 20
-95.262489
 30
0.0
 11
200.901228
 21
-166.762489
 31
0.0
  0
LINE
  5
32C
100
AcDbEntity
  8
0
370
    -3
  6
Continuous
100
AcDbLine
 10
200.901228
 20
-95.262489
 30
0.0
 11
200.901228
 21
-23.762489
 31
0.0
  0
LINE
  5
32D
100
AcDbEntity
  8
0
370
    -3
  6
Continuous
100
AcDbLine
 10
200.901228
 20
-95.262489
 30
0.0
 11
200.901228
 21
-166.762489
 31
0.0
  0
ARC
  5
32E
100
AcDbEntity
  8
0
370
    -3
  6
Continuous
100
AcDbCircle
 10
201.101228
 20
-32.312489
 30
0.0
 40
0.2
100
AcDbArc
 50
180.0
 51
270.0
  0
LINE
  5
32F
100
AcDbEntity
  8
0
370
    -3
  6
Continuous
100
AcDbLine
 10
200.901228
 20
-95.262489
 30
0.0
 11
200.901228
 21
-23.762489
 31
0.0
  0
LINE
  5
330
100
AcDbEntity
  8
0
370
    -3
  6
Continuous
100
AcDbLine
 10
200.901228
 20
-95.262489
 30
0.0
 11
200.901228
 21
-165.262489
 31
0.0
  0
LINE
  5
331
100
AcDbEntity
  8
0
370
    -3
  6
Continuous
100
AcDbLine
 10
200.901228
 20
-95.262489
 30
0.0
 11
200.901228
 21
-23.762489
 31
0.0
  0
LINE
  5
332
100
AcDbEntity
  8
0
370
    -3
  6
Continuous
100
AcDbLine
 10
200.901228
 20
-95.262489
 30
0.0
 11
200.901228
 21
-166.762489
 31
0.0
  0
LINE
  5
333
100
AcDbEntity
  8
0
370
    -3
  6
Continuous
100
AcDbLine
 10
200.901228
 20
-95.262489
 30
0.0
 11
200.901228
 21
-23.762489
 31
0.0
  0
LINE
  5
334
100
AcDbEntity
  8
0
370
    -3
  6
Continuous
100
AcDbLine
 10
200.901228
 20
-95.262489
 30
0.0
 11
200.901228
 21
-165.262489
 31
0.0
  0
LINE
  5
335
100
AcDbEntity
  8
0
370
    -3
  6
Continuous
100
AcDbLine
 10
200.901228
 20
-95.262489
 30
0.0
 11
200.901228
 21
-23.762489
 31
0.0
  0
LINE
  5
336
100
AcDbEntity
  8
0
370
    -3
  6
Continuous
100
AcDbLine
 10
200.901228
 20
-95.262489
 30
0.0
 11
200.901228
 21
-166.762489
 31
0.0
  0
LINE
  5
337
100
AcDbEntity
  8
0
370
    -3
  6
Continuous
100
AcDbLine
 10
200.901228
 20
-95.262489
 30
0.0
 11
200.901228
 21
-23.762489
 31
0.0
  0
LINE
  5
338
100
AcDbEntity
  8
0
370
    -3
  6
Continuous
100
AcDbLine
 10
200.901228
 20
-95.262489
 30
0.0
 11
200.901228
 21
-166.762489
 31
0.0
  0
LINE
  5
339
100
AcDbEntity
  8
0
370
    -3
  6
Continuous
100
AcDbLine
 10
200.901228
 20
-95.262489
 30
0.0
 11
200.901228
 21
-25.262489
 31
0.0
  0
LINE
  5
33A
100
AcDbEntity
  8
0
370
    -3
  6
Continuous
100
AcDbLine
 10
200.901228
 20
-95.262489
 30
0.0
 11
200.901228
 21
-166.762489
 31
0.0
  0
LINE
  5
33B
100
AcDbEntity
  8
0
370
    -3
  6
Continuous
100
AcDbLine
 10
215.639549
 20
-126.237242
 30
0.0
 11
272.401228
 21
-123.262489
 31
0.0
  0
ARC
  5
33C
100
AcDbEntity
  8
0
370
    -3
  6
Continuous
100
AcDbCircle
 10
258.401228
 20
-10.535642
 30
0.0
 40
5.0
100
AcDbArc
 50
87.0
 51
180.0
  0
LINE
  5
33D
100
AcDbEntity
  8
0
370
    -3
  6
Continuous
100
AcDbLine
 10
253.401228
 20
-20.762489
 30
0.0
 11
253.401228
 21
-10.535642
 31
0.0
  0
LINE
  5
33E
100
AcDbEntity
  8
0
370
    -3
  6
Continuous
100
AcDbLine
 10
253.401228
 20
-64.762489
 30
0.0
 11
253.401228
 21
-20.762489
 31
0.0
  0
LINE
  5
33F
100
AcDbEntity
  8
0
370
    -3
  6
Continuous
100
AcDbLine
 10
258.662908
 20
-5.542494
 30
0.0
 11
272.401228
 21
-6.262489
 31
0.0
  0
LINE
  5
340
100
AcDbEntity
  8
0
370
    -3
  6
Continuous
100
AcDbLine
 10
200.901228
 20
-95.262489
 30
0.0
 11
200.901228
 21
-23.762489
 31
0.0
  0
LINE
  5
341
100
AcDbEntity
  8
0
370
    -3
  6
Continuous
100
AcDbLine
 10
200.901228
 20
-95.262489
 30
0.0
 11
200.901228
 21
-165.262489
 31
0.0
  0
LINE
  5
342
100
AcDbEntity
  8
0
370
    -3
  6
Continuous
100
AcDbLine
 10
200.901228
 20
-95.262489
 30
0.0
 11
200.901228
 21
-23.762489
 31
0.0
  0
LINE
  5
343
100
AcDbEntity
  8
0
370
    -3
  6
Continuous
100
AcDbLine
 10
200.901228
 20
-95.262489
 30
0.0
 11
200.901228
 21
-166.762489
 31
0.0
  0
LINE
  5
344
100
AcDbEntity
  8
0
370
    -3
  6
Continuous
100
AcDbLine
 10
200.901228
 20
-95.262489
 30
0.0
 11
200.901228
 21
-23.762489
 31
0.0
  0
LINE
  5
345
100
AcDbEntity
  8
0
370
    -3
  6
Continuous
100
AcDbLine
 10
200.901228
 20
-95.262489
 30
0.0
 11
200.901228
 21
-166.762489
 31
0.0
  0
ARC
  5
346
100
AcDbEntity
  8
0
370
    -3
  6
Continuous
100
AcDbCircle
 10
201.101228
 20
-32.312489
 30
0.0
 40
0.2
100
AcDbArc
 50
180.0
 51
270.0
  0
LINE
  5
347
100
AcDbEntity
  8
0
370
    -3
  6
Continuous
100
AcDbLine
 10
200.901228
 20
-95.262489
 30
0.0
 11
200.901228
 21
-23.762489
 31
0.0
  0
LINE
  5
348
100
AcDbEntity
  8
0
370
    -3
  6
Continuous
100
AcDbLine
 10
200.901228
 20
-95.262489
 30
0.0
 11
200.901228
 21
-165.262489
 31
0.0
  0
LINE
  5
349
100
AcDbEntity
  8
0
370
    -3
  6
Continuous
100
AcDbLine
 10
200.901228
 20
-95.262489
 30
0.0
 11
200.901228
 21
-23.762489
 31
0.0
  0
LINE
  5
34A
100
AcDbEntity
  8
0
370
    -3
  6
Continuous
100
AcDbLine
 10
200.901228
 20
-95.262489
 30
0.0
 11
200.901228
 21
-166.762489
 31
0.0
  0
LINE
  5
34B
100
AcDbEntity
  8
0
370
    -3
  6
Continuous
100
AcDbLine
 10
200.901228
 20
-95.262489
 30
0.0
 11
200.901228
 21
-23.762489
 31
0.0
  0
LINE
  5
34C
100
AcDbEntity
  8
0
370
    -3
  6
Continuous
100
AcDbLine
 10
200.901228
 20
-95.262489
 30
0.0
 11
200.901228
 21
-165.262489
 31
0.0
  0
LINE
  5
34D
100
AcDbEntity
  8
0
370
    -3
  6
Continuous
100
AcDbLine
 10
200.901228
 20
-95.262489
 30
0.0
 11
200.901228
 21
-23.762489
 31
0.0
  0
LINE
  5
34E
100
AcDbEntity
  8
0
370
    -3
  6
Continuous
100
AcDbLine
 10
200.901228
 20
-95.262489
 30
0.0
 11
200.901228
 21
-166.762489
 31
0.0
  0
LINE
  5
34F
100
AcDbEntity
  8
0
370
    -3
  6
Continuous
100
AcDbLine
 10
200.901228
 20
-95.262489
 30
0.0
 11
200.901228
 21
-23.762489
 31
0.0
  0
LINE
  5
350
100
AcDbEntity
  8
0
370
    -3
  6
Continuous
100
AcDbLine
 10
200.901228
 20
-95.262489
 30
0.0
 11
200.901228
 21
-166.762489
 31
0.0
  0
LINE
  5
351
100
AcDbEntity
  8
0
370
    -3
  6
Continuous
100
AcDbLine
 10
200.901228
 20
-95.262489
 30
0.0
 11
200.901228
 21
-25.262489
 31
0.0
  0
LINE
  5
352
100
AcDbEntity
  8
0
370
    -3
  6
Continuous
100
AcDbLine
 10
200.901228
 20
-95.262489
 30
0.0
 11
200.901228
 21
-166.762489
 31
0.0
  0
LINE
  5
353
100
AcDbEntity
  8
0
370
    -3
  6
Continuous
100
AcDbLine
 10
256.401228
 20
-44.262489
 30
0.0
 11
272.401228
 21
-44.262489
 31
0.0
  0
ARC
  5
354
100
AcDbEntity
  8
0
370
    -3
  6
Continuous
100
AcDbCircle
 10
256.401228
 20
-47.262489
 30
0.0
 40
3.0
100
AcDbArc
 50
90.0
 51
180.0
  0
LINE
  5
355
100
AcDbEntity
  8
0
370
    -3
  6
Continuous
100
AcDbLine
 10
215.901228
 20
-59.262489
 30
0.0
 11
250.401228
 21
-59.262489
 31
0.0
  0
ARC
  5
356
100
AcDbEntity
  8
0
370
    -3
  6
Continuous
100
AcDbCircle
 10
250.401228
 20
-56.262489
 30
0.0
 40
3.0
100
AcDbArc
 50
270.0
 51
0.0
  0
LINE
  5
357
100
AcDbEntity
  8
0
370
    -3
  6
Continuous
100
AcDbLine
 10
215.901228
 20
-84.262489
 30
0.0
 11
272.401228
 21
-84.262489
 31
0.0
  0
LINE
  5
358
100
AcDbEntity
  8
0
370
    -3
  6
CENTER
100
AcDbLine
 10
200.901228
 20
-95.262489
 30
0.0
 11
246.848461
 21
-95.262489
 31
0.0
  0
LINE
  5
359
100
AcDbEntity
  8
0
370
    -3
  6
Continuous
100
AcDbLine
 10
200.901228
 20
-23.762489
 30
0.0
 11
200.901228
 21
-166.762489
 31
0.0
  0
LINE
  5
35A
100
AcDbEntity
  8
0
370
    -3
  6
Continuous
100
AcDbLine
 10
200.901228
 20
-23.762489
 30
0.0
 11
200.901228
 21
-166.762489
 31
0.0
  0
LINE
  5
35B
100
AcDbEntity
  8
0
370
    -3
  6
Continuous
100
AcDbLine
 10
200.901228
 20
-23.762489
 30
0.0
 11
200.901228
 21
-166.762489
 31
0.0
  0
LINE
  5
35C
100
AcDbEntity
  8
0
370
    -3
  6
Continuous
100
AcDbLine
 10
200.901228
 20
-23.762489
 30
0.0
 11
200.901228
 21
-166.762489
 31
0.0
  0
LINE
  5
35D
100
AcDbEntity
  8
0
370
    -3
  6
Continuous
100
AcDbLine
 10
200.901228
 20
-23.762489
 30
0.0
 11
200.901228
 21
-166.762489
 31
0.0
  0
LINE
  5
35E
100
AcDbEntity
  8
0
370
    -3
  6
Continuous
100
AcDbLine
 10
200.901228
 20
-23.762489
 30
0.0
 11
200.901228
 21
-166.762489
 31
0.0
  0
LINE
  5
35F
100
AcDbEntity
  8
0
370
    -3
  6
Continuous
100
AcDbLine
 10
200.901228
 20
-23.762489
 30
0.0
 11
200.901228
 21
-166.762489
 31
0.0
  0
LINE
  5
360
100
AcDbEntity
  8
0
370
    -3
  6
Continuous
100
AcDbLine
 10
200.901228
 20
-23.762489
 30
0.0
 11
200.901228
 21
-166.762489
 31
0.0
  0
LINE
  5
361
100
AcDbEntity
  8
0
370
    -3
  6
Continuous
100
AcDbLine
 10
200.901228
 20
-23.762489
 30
0.0
 11
200.901228
 21
-166.762489
 31
0.0
  0
LINE
  5
362
100
AcDbEntity
  8
0
370
    -3
  6
Continuous
100
AcDbLine
 10
211.303152
 20
-153.040057
 30
0.0
 11
220.234863
 21
-137.56988
 31
0.0
  0
ARC
  5
363
100
AcDbEntity
  8
0
370
    -3
  6
Continuous
100
AcDbCircle
 10
242.901228
 20
-132.365423
 30
0.0
 40
3.0
100
AcDbArc
 50
272.0
 51
360.0
  0
LINE
  5
364
100
AcDbEntity
  8
0
370
    -3
  6
Continuous
100
AcDbLine
 10
200.901228
 20
-95.262489
 30
0.0
 11
200.901228
 21
-166.762489
 31
0.0
  0
LINE
  5
365
100
AcDbEntity
  8
0
370
    -3
  6
Continuous
100
AcDbLine
 10
243.005927
 20
-135.363595
 30
0.0
 11
222.728241
 21
-136.071707
 31
0.0
  0
ARC
  5
366
100
AcDbEntity
  8
0
370
    -3
  6
Continuous
100
AcDbCircle
 10
248.901228
 20
-127.498189
 30
0.0
 40
3.0
100
AcDbArc
 50
93.0
 51
180.0
  0
ARC
  5
367
100
AcDbEntity
  8
0
370
    -3
  6
Continuous
100
AcDbCircle
 10
239.065902
 20
-138.503012
 30
0.0
 40
3.0
100
AcDbArc
 50
92.0
 51
135.368892
  0
ARC
  5
368
100
AcDbEntity
  8
0
370
    -3
  6
Continuous
100
AcDbCircle
 10
213.901228
 20
-154.540057
 30
0.0
 40
3.0
100
AcDbArc
 50
150.0
 51
180.0
  0
LINE
  5
369
100
AcDbEntity
  8
0
370
    -3
  6
Continuous
100
AcDbLine
 10
245.901228
 20
-127.498189
 30
0.0
 11
245.901228
 21
-132.365423
 31
0.0
  0
ARC
  5
36A
100
AcDbEntity
  8
0
370
    -3
  6
Continuous
100
AcDbCircle
 10
222.832939
 20
-139.06988
 30
0.0
 40
3.0
100
AcDbArc
 50
92.0
 51
150.0
  0
ARC
  5
36B
100
AcDbEntity
  8
0
370
    -3
  6
Continuous
100
AcDbCircle
 10
201.101228
 20
-158.212489
 30
0.0
 40
0.2
100
AcDbArc
 50
90.0
 51
180.0
  0
LINE
  5
36C
100
AcDbEntity
  8
0
370
    -3
  6
Continuous
100
AcDbLine
 10
200.901228
 20
-95.262489
 30
0.0
 11
200.901228
 21
-23.762489
 31
0.0
  0
ARC
  5
36D
100
AcDbEntity
  8
0
370
    -3
  6
Continuous
100
AcDbCircle
 10
201.101228
 20
-32.312489
 30
0.0
 40
0.2
100
AcDbArc
 50
180.0
 51
270.0
  0
ARC
  5
36E
100
AcDbEntity
  8
0
370
    -3
  6
Continuous
100
AcDbCircle
 10
208.901228
 20
-164.762489
 30
0.0
 40
2.0
100
AcDbArc
 50
270.0
 51
0.0
  0
ARC
  5
36F
100
AcDbEntity
  8
0
370
    -3
  6
Continuous
100
AcDbCircle
 10
250.401228
 20
-32.262489
 30
0.0
 40
3.0
100
AcDbArc
 50
270.0
 51
0.0
  0
LINE
  5
370
100
AcDbEntity
  8
0
370
    -3
  6
Continuous
100
AcDbLine
 10
211.766294
 20
-161.886211
 30
0.0
 11
236.930968
 21
-136.395394
 31
0.0
  0
ARC
  5
371
100
AcDbEntity
  8
0
370
    -3
  6
Continuous
100
AcDbCircle
 10
208.901228
 20
-25.762489
 30
0.0
 40
2.0
100
AcDbArc
 50
0.0
 51
90.0
  0
ARC
  5
372
100
AcDbEntity
  8
0
370
    -3
  6
Continuous
100
AcDbCircle
 10
215.901228
 20
-54.262489
 30
0.0
 40
5.0
100
AcDbArc
 50
180.0
 51
270.0
  0
ARC
  5
373
100
AcDbEntity
  8
0
370
    -3
  6
Continuous
100
AcDbCircle
 10
213.901228
 20
-163.99383
 30
0.0
 40
3.0
100
AcDbArc
 50
135.368892
 51
180.0
  0
LINE
  5
374
100
AcDbEntity
  8
0
370
    -3
  6
Continuous
100
AcDbLine
 10
250.401228
 20
-35.262489
 30
0.0
 11
212.901228
 21
-35.262489
 31
0.0
  0
LINE
  5
375
100
AcDbEntity
  8
0
370
    -3
  6
Continuous
100
AcDbLine
 10
210.901228
 20
-164.762489
 30
0.0
 11
210.901228
 21
-95.262489
 31
0.0
  0
LINE
  5
376
100
AcDbEntity
  8
0
370
    -3
  6
Continuous
100
AcDbLine
 10
200.901228
 20
-23.762489
 30
0.0
 11
208.901228
 21
-23.762489
 31
0.0
  0
LINE
  5
377
100
AcDbEntity
  8
0
370
    -3
  6
Continuous
100
AcDbLine
 10
200.901228
 20
-166.762489
 30
0.0
 11
208.901228
 21
-166.762489
 31
0.0
  0
LINE
  5
378
100
AcDbEntity
  8
0
370
    -3
  6
Continuous
100
AcDbLine
 10
210.901228
 20
-25.762489
 30
0.0
 11
210.901228
 21
-95.262489
 31
0.0
  0
ARC
  5
379
100
AcDbEntity
  8
0
370
    -3
  6
Continuous
100
AcDbCircle
 10
212.901228
 20
-33.262489
 30
0.0
 40
2.0
100
AcDbArc
 50
180.0
 51
270.0
  0
ARC
  5
37A
100
AcDbEntity
  8
0
370
    -3
  6
Continuous
100
AcDbCircle
 10
215.901228
 20
-131.23039
 30
0.0
 40
5.0
100
AcDbArc
 50
93.0
 51
180.0
  0
ARC
  5
37B
100
AcDbEntity
  8
0
370
    -3
  6
Continuous
100
AcDbCircle
 10
215.901228
 20
-89.262489
 30
0.0
 40
5.0
100
AcDbArc
 50
90.0
 51
180.0
  0
LINE
  5
37C
100
AcDbEntity
  8
0
370
    -3
  6
Continuous
100
AcDbLine
 10
272.401228
 20
-124.267901
 30
0.0
 11
272.401228
 21
-5.267901
 31
0.0
  0
LINE
  5
37D
100
AcDbEntity
  8
0
370
    -3
  6
Continuous
100
AcDbLine
 10
272.401228
 20
-6.762489
 30
0.0
 11
272.401228
 21
-7.512489
 31
0.0
  0
LINE
  5
37E
100
AcDbEntity
  8
0
370
    -3
  6
Continuous
100
AcDbLine
 10
272.401228
 20
-123.762489
 30
0.0
 11
272.401228
 21
-123.012489
 31
0.0
  0
LINE
  5
37F
100
AcDbEntity
  8
0
370
    -3
  6
CENTER
100
AcDbLine
 10
227.36652
 20
-64.762489
 30
0.0
 11
429.924199
 21
-64.762489
 31
0.0
  0
LINE
  5
380
100
AcDbEntity
  8
0
370
    -3
  6
Continuous
100
AcDbLine
 10
272.401228
 20
-64.762489
 30
0.0
 11
272.401228
 21
-6.262489
 31
0.0
  0
LINE
  5
381
100
AcDbEntity
  8
0
370
    -3
  6
Continuous
100
AcDbLine
 10
272.401228
 20
-64.762489
 30
0.0
 11
272.401228
 21
-123.262489
 31
0.0
  0
LINE
  5
382
100
AcDbEntity
  8
0
370
    -3
  6
Continuous
100
AcDbLine
 10
-380.097137
 20
31.917937
 30
0.0
 11
-380.097137
 21
-203.082063
 31
0.0
  0
INSERT
  5
38E
100
AcDbEntity
  8
0
100
AcDbBlockReference
  2
ZU_SYM__USERS_HOME_SYMBOL_POO_SYM_B20_-1
 10
180.90218
 20
18.737511
 30
0.0
 41
-1.0
  0
LINE
  5
38F
100
AcDbEntity
  8
0
370
    -3
  6
Continuous
100
AcDbLine
 10
180.90218
 20
8.737511
 30
0.0
 11
176.40218
 21
8.737511
 31
0.0
  0
LINE
  5
390
100
AcDbEntity
  8
0
370
    -3
  6
CENTER
100
AcDbLine
 10
190.610856
 20
18.737511
 30
0.0
 11
170.311134
 21
18.737511
 31
0.0
  0
LINE
  5
391
100
AcDbEntity
  8
0
370
    -3
  6
Continuous
100
AcDbLine
 10
176.40218
 20
63.737511
 30
0.0
 11
176.40218
 21
8.737511
 31
0.0
  0
LINE
  5
392
100
AcDbEntity
  8
0
370
    -3
  6
Continuous
100
AcDbLine
 10
180.90218
 20
63.737511
 30
0.0
 11
180.90218
 21
8.737511
 31
0.0
  0
LINE
  5
393
100
AcDbEntity
  8
0
370
    -3
  6
DASHED
100
AcDbLine
 10
180.90218
 20
33.737511
 30
0.0
 11
176.40218
 21
33.737511
 31
0.0
  0
LINE
  5
394
100
AcDbEntity
  8
0
370
    -3
  6
DASHED
100
AcDbLine
 10
180.90218
 20
53.737511
 30
0.0
 11
176.40218
 21
53.737511
 31
0.0
  0
LINE
  5
395
100
AcDbEntity
  8
0
370
    -3
  6
CENTER
100
AcDbLine
 10
184.683203
 20
43.737511
 30
0.0
 11
171.881549
 21
43.737511
 31
0.0
  0
LINE
  5
396
100
AcDbEntity
  8
0
370
    -3
  6
Continuous
100
AcDbLine
 10
180.90218
 20
63.737511
 30
0.0
 11
176.40218
 21
63.737511
 31
0.0
  0
ARC
  5
397
100
AcDbEntity
  8
0
370
    -3
  6
Continuous
100
AcDbCircle
 10
-311.597137
 20
53.737511
 30
0.0
 40
10.0
100
AcDbArc
 50
0.0
 51
90.0
  0
LINE
  5
398
100
AcDbEntity
  8
0
370
    -3
  6
Continuous
100
AcDbLine
 10
-301.597137
 20
30.538987
 30
0.0
 11
-301.597137
 21
53.737511
 31
0.0
  0
LINE
  5
399
100
AcDbEntity
  8
0
370
    -3
  6
CENTER
100
AcDbLine
 10
-337.03619
 20
43.737511
 30
0.0
 11
-308.050713
 21
43.737511
 31
0.0
  0
LINE
  5
39A
100
AcDbEntity
  8
0
370
    -3
  6
Continuous
100
AcDbLine
 10
-342.597137
 20
31.254645
 30
0.0
 11
-342.597137
 21
53.737511
 31
0.0
  0
ARC
  5
39B
100
AcDbEntity
  8
0
370
    -3
  6
Continuous
100
AcDbCircle
 10
-332.597137
 20
53.737511
 30
0.0
 40
10.0
100
AcDbArc
 50
90.0
 51
180.0
  0
LINE
  5
39C
100
AcDbEntity
  8
0
370
    -3
  6
Continuous
100
AcDbLine
 10
-332.597137
 20
63.737511
 30
0.0
 11
-311.597137
 21
63.737511
 31
0.0
  0
CIRCLE
  5
39D
100
AcDbEntity
  8
0
370
    -3
  6
Continuous
100
AcDbCircle
 10
-322.097137
 20
43.737511
 30
0.0
 40
10.0
  0
LINE
  5
39E
100
AcDbEntity
  8
0
370
    -3
  6
CENTER
100
AcDbLine
 10
-83.73772
 20
-29.554713
 30
0.0
 11
-83.73772
 21
-79.554713
 31
0.0
  0
LINE
  5
39F
100
AcDbEntity
  8
0
370
    -3
  6
CENTER
100
AcDbLine
 10
-60.338365
 20
-56.082063
 30
0.0
 11
-108.088365
 21
-56.082063
 31
0.0
  0
LINE
  5
3A0
100
AcDbEntity
  8
0
370
    -3
  6
Continuous
100
AcDbLine
 10
-77.73772
 20
-33.082063
 30
0.0
 11
-77.73772
 21
-41.082063
 31
0.0
  0
LINE
  5
3A1
100
AcDbEntity
  8
0
370
    -3
  6
Continuous
100
AcDbLine
 10
-77.73772
 20
-33.082063
 30
0.0
 11
-89.73772
 21
-33.082063
 31
0.0
  0
LINE
  5
3A2
100
AcDbEntity
  8
0
370
    -3
  6
Continuous
100
AcDbLine
 10
-89.73772
 20
-33.082063
 30
0.0
 11
-89.73772
 21
-41.082063
 31
0.0
  0
LINE
  5
3A3
100
AcDbEntity
  8
0
370
    -3
  6
Continuous
100
AcDbLine
 10
-77.73772
 20
-41.082063
 30
0.0
 11
-89.73772
 21
-41.082063
 31
0.0
  0
LINE
  5
3A4
100
AcDbEntity
  8
0
370
    -3
  6
CENTER
100
AcDbLine
 10
8.112312
 20
-56.082063
 30
0.0
 11
171.29218
 21
-56.082063
 31
0.0
  0
LINE
  5
3A5
100
AcDbEntity
  8
0
370
    -3
  6
CENTER
100
AcDbLine
 10
88.90218
 20
37.070287
 30
0.0
 11
88.90218
 21
-232.929713
 31
0.0
  0
CIRCLE
  5
3A6
100
AcDbEntity
  8
0
370
    -3
  6
Continuous
100
AcDbCircle
 10
-83.73772
 20
-56.082063
 30
0.0
 40
3.5
  0
CIRCLE
  5
3A7
100
AcDbEntity
  8
0
370
    -3
  6
Continuous
100
AcDbCircle
 10
-83.73772
 20
-56.082063
 30
0.0
 40
4.0
  0
ARC
  5
3A8
100
AcDbEntity
  8
0
370
    -3
  6
Continuous
100
AcDbCircle
 10
-83.73772
 20
-56.082063
 30
0.0
 40
20.0
100
AcDbArc
 50
107.457603
 51
72.542397
  0
POINT
  5
3A9
100
AcDbEntity
  8
0
370
    -3
  6
DASHED
100
AcDbPoint
 10
-83.73772
 20
-35.968366
 30
0.0
  0
POINT
  5
3AA
100
AcDbEntity
  8
0
370
    -3
  6
DASHED
100
AcDbPoint
 10
2.90218
 20
-226.082063
 30
0.0
  0
LINE
  5
3AB
100
AcDbEntity
  8
0
370
    -3
  6
Continuous
100
AcDbLine
 10
-420.097137
 20
-8.599362
 30
0.0
 11
-420.097137
 21
-56.082063
 31
0.0
  0
ARC
  5
3AC
100
AcDbEntity
  8
0
370
    -3
  6
Continuous
100
AcDbCircle
 10
-417.097137
 20
-8.599362
 30
0.0
 40
3.0
100
AcDbArc
 50
100.0
 51
180.0
  0
LINE
  5
3AD
100
AcDbEntity
  8
0
370
    -3
  6
Continuous
100
AcDbLine
 10
-421.697137
 20
-24.582063
 30
0.0
 11
-420.097137
 21
-24.582063
 31
0.0
  0
LINE
  5
3AE
100
AcDbEntity
  8
0
370
    -3
  6
Continuous
100
AcDbLine
 10
-420.097137
 20
-103.564764
 30
0.0
 11
-420.097137
 21
-56.082063
 31
0.0
  0
ARC
  5
3AF
100
AcDbEntity
  8
0
370
    -3
  6
Continuous
100
AcDbCircle
 10
-417.097137
 20
-103.564764
 30
0.0
 40
3.0
100
AcDbArc
 50
180.0
 51
260.0
  0
LINE
  5
3B0
100
AcDbEntity
  8
0
370
    -3
  6
Continuous
100
AcDbLine
 10
-421.697137
 20
-87.582063
 30
0.0
 11
-420.097137
 21
-87.582063
 31
0.0
  0
LINE
  5
3B1
100
AcDbEntity
  8
0
370
    -3
  6
Continuous
100
AcDbLine
 10
-422.097137
 20
-24.982063
 30
0.0
 11
-422.097137
 21
-56.082063
 31
0.0
  0
LINE
  5
3B2
100
AcDbEntity
  8
0
370
    -3
  6
Continuous
100
AcDbLine
 10
-421.697137
 20
-24.582063
 30
0.0
 11
-422.097137
 21
-24.982063
 31
0.0
  0
LINE
  5
3B3
100
AcDbEntity
  8
0
370
    -3
  6
Continuous
100
AcDbLine
 10
-421.697137
 20
-87.582063
 30
0.0
 11
-422.097137
 21
-87.182063
 31
0.0
  0
LINE
  5
3B4
100
AcDbEntity
  8
0
370
    -3
  6
Continuous
100
AcDbLine
 10
-422.097137
 20
-87.182063
 30
0.0
 11
-422.097137
 21
-56.082063
 31
0.0
  0
LINE
  5
3B5
100
AcDbEntity
  8
0
370
    -3
  6
Continuous
100
AcDbLine
 10
-417.618081
 20
-5.644938
 30
0.0
 11
-394.076192
 21
-1.582032
 31
0.0
  0
LINE
  5
3B6
100
AcDbEntity
  8
0
370
    -3
  6
Continuous
100
AcDbLine
 10
-417.618081
 20
-106.519187
 30
0.0
 11
-394.076192
 21
-110.582094
 31
0.0
  0
ARC
  5
3B7
100
AcDbEntity
  8
0
370
    -3
  6
Continuous
100
AcDbCircle
 10
-390.597137
 20
-187.082063
 30
0.0
 40
1.0
100
AcDbArc
 50
0.0
 51
90.0
  0
ARC
  5
3B8
100
AcDbEntity
  8
0
370
    -3
  6
Continuous
100
AcDbCircle
 10
-390.597137
 20
-185.082063
 30
0.0
 40
1.0
100
AcDbArc
 50
180.0
 51
270.0
  0
LINE
  5
3B9
100
AcDbEntity
  8
0
370
    -3
  6
Continuous
100
AcDbLine
 10
-254.597137
 20
26.770507
 30
0.0
 11
-254.597137
 21
-64.935109
 31
0.0
  0
LINE
  5
3BA
100
AcDbEntity
  8
0
370
    -3
  6
Continuous
100
AcDbLine
 10
-252.597137
 20
14.917937
 30
0.0
 11
-252.597137
 21
-69.850877
 31
0.0
  0
ARC
  5
3BB
100
AcDbEntity
  8
0
370
    -3
  6
Continuous
100
AcDbCircle
 10
-253.597137
 20
16.917937
 30
0.0
 40
1.0
100
AcDbArc
 50
180.0
 51
270.0
  0
ARC
  5
3BC
100
AcDbEntity
  8
0
370
    -3
  6
Continuous
100
AcDbCircle
 10
-253.597137
 20
14.917937
 30
0.0
 40
1.0
100
AcDbArc
 50
0.0
 51
90.0
  0
LINE
  5
3BD
100
AcDbEntity
  8
0
370
    -3
  6
Continuous
100
AcDbLine
 10
-226.576192
 20
-5.644938
 30
0.0
 11
-250.118081
 21
-1.493868
 31
0.0
  0
ARC
  5
3BE
100
AcDbEntity
  8
0
370
    -3
  6
Continuous
100
AcDbCircle
 10
-249.597137
 20
1.460555
 30
0.0
 40
3.0
100
AcDbArc
 50
180.0
 51
260.0
  0
LINE
  5
3BF
100
AcDbEntity
  8
0
370
    -3
  6
Continuous
100
AcDbLine
 10
-222.097137
 20
-24.782063
 30
0.0
 11
-222.097137
 21
-56.082063
 31
0.0
  0
LINE
  5
3C0
100
AcDbEntity
  8
0
370
    -3
  6
Continuous
100
AcDbLine
 10
-224.097137
 20
-8.599362
 30
0.0
 11
-224.097137
 21
-56.082063
 31
0.0
  0
LINE
  5
3C1
100
AcDbEntity
  8
0
370
    -3
  6
Continuous
100
AcDbLine
 10
-222.297137
 20
-24.582063
 30
0.0
 11
-224.097137
 21
-24.582063
 31
0.0
  0
LINE
  5
3C2
100
AcDbEntity
  8
0
370
    -3
  6
Continuous
100
AcDbLine
 10
-222.097137
 20
-24.782063
 30
0.0
 11
-222.297137
 21
-24.582063
 31
0.0
  0
ARC
  5
3C3
100
AcDbEntity
  8
0
370
    -3
  6
Continuous
100
AcDbCircle
 10
-227.097137
 20
-8.599362
 30
0.0
 40
3.0
100
AcDbArc
 50
0.0
 51
80.0
  0
LINE
  5
3C4
100
AcDbEntity
  8
0
370
    -3
  6
Continuous
100
AcDbLine
 10
-222.297137
 20
-87.582063
 30
0.0
 11
-224.097137
 21
-87.582063
 31
0.0
  0
LINE
  5
3C5
100
AcDbEntity
  8
0
370
    -3
  6
Continuous
100
AcDbLine
 10
-224.097137
 20
-103.564764
 30
0.0
 11
-224.097137
 21
-56.082063
 31
0.0
  0
LINE
  5
3C6
100
AcDbEntity
  8
0
370
    -3
  6
Continuous
100
AcDbLine
 10
-222.097137
 20
-87.382063
 30
0.0
 11
-222.097137
 21
-56.082063
 31
0.0
  0
LINE
  5
3C7
100
AcDbEntity
  8
0
370
    -3
  6
Continuous
100
AcDbLine
 10
-222.097137
 20
-87.382063
 30
0.0
 11
-222.297137
 21
-87.582063
 31
0.0
  0
LINE
  5
3C8
100
AcDbEntity
  8
0
370
    -3
  6
Continuous
100
AcDbLine
 10
-226.576192
 20
-106.519187
 30
0.0
 11
-250.118081
 21
-110.670257
 31
0.0
  0
ARC
  5
3C9
100
AcDbEntity
  8
0
370
    -3
  6
Continuous
100
AcDbCircle
 10
-227.097137
 20
-103.564764
 30
0.0
 40
3.0
100
AcDbArc
 50
280.0
 51
0.0
  0
LINE
  5
3CA
100
AcDbEntity
  8
0
370
    -3
  6
Continuous
100
AcDbLine
 10
-254.597137
 20
-125.589869
 30
0.0
 11
-254.597137
 21
-203.082063
 31
0.0
  0
ARC
  5
3CB
100
AcDbEntity
  8
0
370
    -3
  6
Continuous
100
AcDbCircle
 10
-253.597137
 20
-187.082063
 30
0.0
 40
1.0
100
AcDbArc
 50
90.0
 51
180.0
  0
ARC
  5
3CC
100
AcDbEntity
  8
0
370
    -3
  6
Continuous
100
AcDbCircle
 10
-253.597137
 20
-185.082063
 30
0.0
 40
1.0
100
AcDbArc
 50
270.0
 51
0.0
  0
LINE
  5
3CD
100
AcDbEntity
  8
0
370
    -3
  6
Continuous
100
AcDbLine
 10
-252.597137
 20
-120.6741
 30
0.0
 11
-252.597137
 21
-185.082063
 31
0.0
  0
ARC
  5
3CE
100
AcDbEntity
  8
0
370
    -3
  6
Continuous
100
AcDbCircle
 10
-322.097137
 20
-95.262489
 30
0.0
 40
74.0
100
AcDbArc
 50
339.915834
 51
342.497476
  0
ARC
  5
3CF
100
AcDbEntity
  8
0
370
    -3
  6
Continuous
100
AcDbCircle
 10
-270.597137
 20
-111.502871
 30
0.0
 40
20.0
100
AcDbArc
 50
342.497476
 51
0.0
  0
LINE
  5
3D0
100
AcDbEntity
  8
0
370
    -3
  6
Continuous
100
AcDbLine
 10
-250.597137
 20
-110.796253
 30
0.0
 11
-250.597137
 21
-111.502871
 31
0.0
  0
LINE
  5
3D1
100
AcDbEntity
  8
0
370
    -3
  6
Continuous
100
AcDbLine
 10
-254.597137
 20
-64.935109
 30
0.0
 11
-254.597137
 21
-125.589869
 31
0.0
  0
ARC
  5
3D2
100
AcDbEntity
  8
0
370
    -3
  6
Continuous
100
AcDbCircle
 10
-249.597137
 20
-113.624681
 30
0.0
 40
3.0
100
AcDbArc
 50
109.471221
 51
180.0
  0
LINE
  5
3D3
100
AcDbEntity
  8
0
370
    -3
  6
Continuous
100
AcDbLine
 10
-252.597137
 20
-69.850877
 30
0.0
 11
-252.597137
 21
-120.6741
 31
0.0
  0
ARC
  5
3D4
100
AcDbEntity
  8
0
370
    -3
  6
Continuous
100
AcDbCircle
 10
-249.597137
 20
-113.624681
 30
0.0
 40
3.0
100
AcDbArc
 50
100.0
 51
109.471221
  0
ARC
  5
3D5
100
AcDbEntity
  8
0
370
    -3
  6
Continuous
100
AcDbCircle
 10
-223.097137
 20
-207.082063
 30
0.0
 40
1.0
100
AcDbArc
 50
0.0
 51
90.0
  0
ARC
  5
3D6
100
AcDbEntity
  8
0
370
    -3
  6
Continuous
100
AcDbCircle
 10
-251.597137
 20
-203.082063
 30
0.0
 40
3.0
100
AcDbArc
 50
180.0
 51
270.0
  0
LINE
  5
3D7
100
AcDbEntity
  8
0
370
    -3
  6
CENTER
100
AcDbLine
 10
-237.097137
 20
-199.001828
 30
0.0
 11
-237.097137
 21
-235.373462
 31
0.0
  0
LINE
  5
3D8
100
AcDbEntity
  8
0
370
    -3
  6
Continuous
100
AcDbLine
 10
-422.097137
 20
-226.082063
 30
0.0
 11
-222.097137
 21
-226.082063
 31
0.0
  0
LINE
  5
3D9
100
AcDbEntity
  8
0
370
    -3
  6
Continuous
100
AcDbLine
 10
-222.097137
 20
-207.082063
 30
0.0
 11
-222.097137
 21
-226.082063
 31
0.0
  0
LINE
  5
3DA
100
AcDbEntity
  8
0
370
    -3
  6
Continuous
100
AcDbLine
 10
-251.597137
 20
-206.082063
 30
0.0
 11
-223.097137
 21
-206.082063
 31
0.0
  0
ARC
  5
3DB
100
AcDbEntity
  8
0
370
    -3
  6
Continuous
100
AcDbCircle
 10
-421.097137
 20
-207.082063
 30
0.0
 40
1.0
100
AcDbArc
 50
90.0
 51
180.0
  0
LINE
  5
3DC
100
AcDbEntity
  8
0
370
    -3
  6
Continuous
100
AcDbLine
 10
-422.097137
 20
-207.082063
 30
0.0
 11
-422.097137
 21
-226.082063
 31
0.0
  0
LINE
  5
3DD
100
AcDbEntity
  8
0
370
    -3
  6
Continuous
100
AcDbLine
 10
-421.097137
 20
-206.082063
 30
0.0
 11
-383.097137
 21
-206.082063
 31
0.0
  0
LINE
  5
3DE
100
AcDbEntity
  8
0
370
    -3
  6
Continuous
100
AcDbLine
 10
-380.097137
 20
-141.21899
 30
0.0
 11
-380.097137
 21
-203.082063
 31
0.0
  0
ARC
  5
3DF
100
AcDbEntity
  8
0
370
    -3
  6
Continuous
100
AcDbCircle
 10
-383.097137
 20
-203.082063
 30
0.0
 40
3.0
100
AcDbArc
 50
270.0
 51
0.0
  0
ARC
  5
3E0
100
AcDbEntity
  8
0
370
    -3
  6
Continuous
100
AcDbCircle
 10
-322.097137
 20
-95.262489
 30
0.0
 40
74.0
100
AcDbArc
 50
197.502524
 51
200.084166
  0
ARC
  5
3E1
100
AcDbEntity
  8
0
370
    -3
  6
Continuous
100
AcDbCircle
 10
-373.597137
 20
-111.502871
 30
0.0
 40
20.0
100
AcDbArc
 50
180.0
 51
197.502524
  0
LINE
  5
3E2
100
AcDbEntity
  8
0
370
    -3
  6
Continuous
100
AcDbLine
 10
-393.597137
 20
-110.70809
 30
0.0
 11
-393.597137
 21
-111.502871
 31
0.0
  0
LINE
  5
3E3
100
AcDbEntity
  8
0
370
    -3
  6
Continuous
100
AcDbLine
 10
-391.597137
 20
-56.082063
 30
0.0
 11
-391.597137
 21
-185.082063
 31
0.0
  0
ARC
  5
3E4
100
AcDbEntity
  8
0
370
    -3
  6
Continuous
100
AcDbCircle
 10
-394.597137
 20
-113.536517
 30
0.0
 40
3.0
100
AcDbArc
 50
0.0
 51
80.0
  0
LINE
  5
3E5
100
AcDbEntity
  8
0
370
    -3
  6
Continuous
100
AcDbLine
 10
-387.597137
 20
-205.082063
 30
0.0
 11
-380.861069
 21
-205.082063
 31
0.0
  0
ARC
  5
3E6
100
AcDbEntity
  8
0
370
    -3
  6
Continuous
100
AcDbCircle
 10
-387.597137
 20
-203.082063
 30
0.0
 40
2.0
100
AcDbArc
 50
180.0
 51
270.0
  0
LINE
  5
3E7
100
AcDbEntity
  8
0
370
    -3
  6
Continuous
100
AcDbLine
 10
-389.597137
 20
29.78672
 30
0.0
 11
-389.597137
 21
-56.082063
 31
0.0
  0
LINE
  5
3E8
100
AcDbEntity
  8
0
370
    -3
  6
Continuous
100
AcDbLine
 10
-380.097137
 20
31.917937
 30
0.0
 11
-387.632041
 21
31.786415
 31
0.0
  0
LINE
  5
3E9
100
AcDbEntity
  8
0
370
    -3
  6
Continuous
100
AcDbLine
 10
-391.597137
 20
14.917937
 30
0.0
 11
-391.597137
 21
-56.082063
 31
0.0
  0
ARC
  5
3EA
100
AcDbEntity
  8
0
370
    -3
  6
Continuous
100
AcDbCircle
 10
-390.597137
 20
14.917937
 30
0.0
 40
1.0
100
AcDbArc
 50
90.0
 51
180.0
  0
ARC
  5
3EB
100
AcDbEntity
  8
0
370
    -3
  6
Continuous
100
AcDbCircle
 10
-390.597137
 20
16.917937
 30
0.0
 40
1.0
100
AcDbArc
 50
270.0
 51
0.0
  0
ARC
  5
3EC
100
AcDbEntity
  8
0
370
    -3
  6
Continuous
100
AcDbCircle
 10
-387.597137
 20
29.78672
 30
0.0
 40
2.0
100
AcDbArc
 50
91.0
 51
180.0
  0
ARC
  5
3ED
100
AcDbEntity
  8
0
370
    -3
  6
Continuous
100
AcDbCircle
 10
-394.597137
 20
1.372392
 30
0.0
 40
3.0
100
AcDbArc
 50
280.0
 51
0.0
  0
LINE
  5
3EE
100
AcDbEntity
  8
0
370
    -3
  6
Continuous
100
AcDbLine
 10
-389.597137
 20
-56.082063
 30
0.0
 11
-389.597137
 21
-203.082063
 31
0.0
  0
LINE
  5
3EF
100
AcDbEntity
  8
0
370
    -3
  6
CENTER
100
AcDbLine
 10
-407.097137
 20
-199.001828
 30
0.0
 11
-407.097137
 21
-235.373462
 31
0.0
  0
LINE
  5
3F0
100
AcDbEntity
  8
0
370
    -3
  6
Continuous
100
AcDbLine
 10
-380.097137
 20
31.90921
 30
0.0
 11
-257.544779
 21
29.77005
 31
0.0
  0
ARC
  5
3F1
100
AcDbEntity
  8
0
370
    -3
  6
Continuous
100
AcDbCircle
 10
-257.597137
 20
26.770507
 30
0.0
 40
3.0
100
AcDbArc
 50
0.0
 51
89.0
  0
LINE
  5
3F2
100
AcDbEntity
  8
0
370
    -3
  6
Continuous
100
AcDbLine
 10
-209.097137
 20
-33.082063
 30
0.0
 11
-154.097137
 21
-33.082063
 31
0.0
  0
LINE
  5
3F3
100
AcDbEntity
  8
0
370
    -3
  6
Continuous
100
AcDbLine
 10
-219.097137
 20
-36.082063
 30
0.0
 11
-154.097137
 21
-36.082063
 31
0.0
  0
LINE
  5
3F4
100
AcDbEntity
  8
0
370
    -3
  6
Continuous
100
AcDbLine
 10
-154.097137
 20
-76.082063
 30
0.0
 11
-154.097137
 21
-33.082063
 31
0.0
  0
LINE
  5
3F5
100
AcDbEntity
  8
0
370
    -3
  6
Continuous
100
AcDbLine
 10
-219.097137
 20
-76.082063
 30
0.0
 11
-154.097137
 21
-76.082063
 31
0.0
  0
LINE
  5
3F6
100
AcDbEntity
  8
0
370
    -3
  6
Continuous
100
AcDbLine
 10
-209.097137
 20
-36.082063
 30
0.0
 11
-209.097137
 21
-33.082063
 31
0.0
  0
LINE
  5
3F7
100
AcDbEntity
  8
0
370
    -3
  6
Continuous
100
AcDbLine
 10
-219.097137
 20
-35.082063
 30
0.0
 11
-219.097137
 21
-77.082063
 31
0.0
  0
LINE
  5
3F8
100
AcDbEntity
  8
0
370
    -3
  6
Continuous
100
AcDbLine
 10
-222.097137
 20
-35.082063
 30
0.0
 11
-219.097137
 21
-35.082063
 31
0.0
  0
LINE
  5
3F9
100
AcDbEntity
  8
0
370
    -3
  6
Continuous
100
AcDbLine
 10
-222.097137
 20
-77.082063
 30
0.0
 11
-219.097137
 21
-77.082063
 31
0.0
  0
ARC
  5
3FA
100
AcDbEntity
  8
0
370
    -3
  6
Continuous
100
AcDbCircle
 10
191.401228
 20
-51.53282
 30
0.0
 40
3.0
100
AcDbArc
 50
0.0
 51
90.0
  0
LINE
  5
3FB
100
AcDbEntity
  8
0
370
    -3
  6
Continuous
100
AcDbLine
 10
194.401228
 20
-95.262489
 30
0.0
 11
194.401228
 21
-51.53282
 31
0.0
  0
LINE
  5
3FC
100
AcDbEntity
  8
0
370
    -3
  6
Continuous
100
AcDbLine
 10
191.401228
 20
-48.53282
 30
0.0
 11
182.901228
 21
-48.53282
 31
0.0
  0
ARC
  5
3FD
100
AcDbEntity
  8
0
370
    -3
  6
Continuous
100
AcDbCircle
 10
191.401228
 20
-37.262489
 30
0.0
 40
3.0
100
AcDbArc
 50
270.0
 51
0.0
  0
LINE
  5
3FE
100
AcDbEntity
  8
0
370
    -3
  6
Continuous
100
AcDbLine
 10
191.401228
 20
-40.262489
 30
0.0
 11
182.901228
 21
-40.262489
 31
0.0
  0
LINE
  5
3FF
100
AcDbEntity
  8
0
370
    -3
  6
Continuous
100
AcDbLine
 10
194.401228
 20
-37.262489
 30
0.0
 11
194.401228
 21
-25.762489
 31
0.0
  0
ARC
  5
400
100
AcDbEntity
  8
0
370
    -3
  6
Continuous
100
AcDbCircle
 10
182.901228
 20
-53.53282
 30
0.0
 40
5.0
100
AcDbArc
 50
90.0
 51
180.0
  0
ARC
  5
401
100
AcDbEntity
  8
0
370
    -3
  6
Continuous
100
AcDbCircle
 10
182.901228
 20
-45.262489
 30
0.0
 40
5.0
100
AcDbArc
 50
90.0
 51
180.0
  0
LINE
  5
402
100
AcDbEntity
  8
0
370
    -3
  6
Continuous
100
AcDbLine
 10
176.40218
 20
-95.262489
 30
0.0
 11
176.40218
 21
27.917909
 31
0.0
  0
ARC
  5
403
100
AcDbEntity
  8
0
370
    -3
  6
Continuous
100
AcDbCircle
 10
179.40218
 20
-26.262489
 30
0.0
 40
3.0
100
AcDbArc
 50
180.0
 51
270.0
  0
LINE
  5
404
100
AcDbEntity
  8
0
370
    -3
  6
Continuous
100
AcDbLine
 10
179.40218
 20
-29.262489
 30
0.0
 11
191.401228
 21
-29.262489
 31
0.0
  0
ARC
  5
405
100
AcDbEntity
  8
0
370
    -3
  6
Continuous
100
AcDbCircle
 10
191.401228
 20
-26.262489
 30
0.0
 40
3.0
100
AcDbArc
 50
270.0
 51
0.0
  0
LINE
  5
406
100
AcDbEntity
  8
0
370
    -3
  6
Continuous
100
AcDbLine
 10
20.90218
 20
31.917937
 30
0.0
 11
141.40218
 21
31.917937
 31
0.0
  0
ARC
  5
407
100
AcDbEntity
  8
0
370
    -3
  6
Continuous
100
AcDbCircle
 10
141.40218
 20
-3.082063
 30
0.0
 40
35.0
100
AcDbArc
 50
0.0
 51
90.0
  0
ARC
  5
408
100
AcDbEntity
  8
0
370
    -3
  6
Continuous
100
AcDbCircle
 10
20.90218
 20
-3.082063
 30
0.0
 40
35.0
100
AcDbArc
 50
90.0
 51
180.0
  0
LINE
  5
409
100
AcDbEntity
  8
0
370
    -3
  6
Continuous
100
AcDbLine
 10
-14.09782
 20
-206.082063
 30
0.0
 11
176.40218
 21
-206.082063
 31
0.0
  0
POINT
  5
40A
100
AcDbEntity
  8
0
370
    -3
  6
Continuous
100
AcDbPoint
 10
88.90218
 20
-56.082063
 30
0.0
  0
ARC
  5
40B
100
AcDbEntity
  8
0
370
    -3
  6
Continuous
100
AcDbCircle
 10
196.401228
 20
-25.762489
 30
0.0
 40
2.0
100
AcDbArc
 50
90.0
 51
180.0
  0
ARC
  5
40C
100
AcDbEntity
  8
0
370
    -3
  6
Continuous
100
AcDbCircle
 10
196.401228
 20
-164.762489
 30
0.0
 40
2.0
100
AcDbArc
 50
180.0
 51
270.0
  0
LINE
  5
40D
100
AcDbEntity
  8
0
370
    -3
  6
Continuous
100
AcDbLine
 10
194.401228
 20
-162.263174
 30
0.0
 11
194.401228
 21
-164.762489
 31
0.0
  0
ARC
  5
40E
100
AcDbEntity
  8
0
370
    -3
  6
Continuous
100
AcDbCircle
 10
175.40218
 20
27.917909
 30
0.0
 40
1.0
100
AcDbArc
 50
0.0
 51
90.0
  0
LINE
  5
40F
100
AcDbEntity
  8
0
370
    -3
  6
Continuous
100
AcDbLine
 10
156.200895
 20
28.917909
 30
0.0
 11
175.40218
 21
28.917909
 31
0.0
  0
ARC
  5
410
100
AcDbEntity
  8
0
370
    -3
  6
Continuous
100
AcDbCircle
 10
156.200895
 20
31.917909
 30
0.0
 40
3.0
100
AcDbArc
 50
247.080348
 51
270.0
  0
CIRCLE
  5
411
100
AcDbEntity
  8
0
370
    -3
  6
Continuous
100
AcDbCircle
 10
88.90218
 20
-56.082063
 30
0.0
 40
31.5
  0
CIRCLE
  5
412
100
AcDbEntity
  8
0
370
    -3
  6
Continuous
100
AcDbCircle
 10
88.90218
 20
-56.082063
 30
0.0
 40
34.5
  0
CIRCLE
  5
413
100
AcDbEntity
  8
0
370
    -3
  6
Continuous
100
AcDbCircle
 10
88.90218
 20
-56.082063
 30
0.0
 40
49.513851
  0
CIRCLE
  5
414
100
AcDbEntity
  8
0
370
    -3
  6
Continuous
100
AcDbCircle
 10
88.90218
 20
-56.082063
 30
0.0
 40
56.691202
  0
LINE
  5
415
100
AcDbEntity
  8
0
370
    -3
  6
CENTER
100
AcDbLine
 10
158.90218
 20
-230.886907
 30
0.0
 11
158.90218
 21
-198.112429
 31
0.0
  0
LINE
  5
416
100
AcDbEntity
  8
0
370
    -3
  6
CENTER
100
AcDbLine
 10
2.90218
 20
-234.248392
 30
0.0
 11
2.90218
 21
-197.272058
 31
0.0
  0
ARC
  5
417
100
AcDbEntity
  8
0
370
    -3
  6
Continuous
100
AcDbCircle
 10
88.90218
 20
-56.082063
 30
0.0
 40
72.0
100
AcDbArc
 50
0.0
 51
180.0
  0
LINE
  5
418
100
AcDbEntity
  8
0
370
    -3
  6
Continuous
100
AcDbLine
 10
56.90218
 20
-186.082063
 30
0.0
 11
120.90218
 21
-186.082063
 31
0.0
  0
LINE
  5
419
100
AcDbEntity
  8
0
370
    -3
  6
Continuous
100
AcDbLine
 10
16.90218
 20
-56.082063
 30
0.0
 11
16.90218
 21
-146.082063
 31
0.0
  0
LINE
  5
41A
100
AcDbEntity
  8
0
370
    -3
  6
Continuous
100
AcDbLine
 10
160.90218
 20
-56.082063
 30
0.0
 11
160.90218
 21
-146.082063
 31
0.0
  0
ARC
  5
41B
100
AcDbEntity
  8
0
370
    -3
  6
Continuous
100
AcDbCircle
 10
56.90218
 20
-146.082063
 30
0.0
 40
40.0
100
AcDbArc
 50
180.0
 51
270.0
  0
ARC
  5
41C
100
AcDbEntity
  8
0
370
    -3
  6
Continuous
100
AcDbCircle
 10
120.90218
 20
-146.082063
 30
0.0
 40
40.0
100
AcDbArc
 50
270.0
 51
0.0
  0
LINE
  5
41D
100
AcDbEntity
  8
0
370
    -3
  6
Continuous
100
AcDbLine
 10
-14.09782
 20
-226.082063
 30
0.0
 11
176.40218
 21
-226.082063
 31
0.0
  0
LINE
  5
41E
100
AcDbEntity
  8
0
370
    -3
  6
Continuous
100
AcDbLine
 10
176.40218
 20
-226.082063
 30
0.0
 11
176.40218
 21
-95.262489
 31
0.0
  0
LINE
  5
41F
100
AcDbEntity
  8
0
370
    -3
  6
Continuous
100
AcDbLine
 10
-14.09782
 20
-226.082063
 30
0.0
 11
-14.09782
 21
-3.082063
 31
0.0
  0
CIRCLE
  5
420
100
AcDbEntity
  8
0
370
    -3
  6
Continuous
100
AcDbCircle
 10
88.90218
 20
-56.082063
 30
0.0
 40
27.5
  0
ARC
  5
421
100
AcDbEntity
  8
0
370
    -3
  6
Continuous
100
AcDbCircle
 10
179.40218
 20
-164.262489
 30
0.0
 40
3.0
100
AcDbArc
 50
90.0
 51
180.0
  0
LINE
  5
422
100
AcDbEntity
  8
0
370
    -3
  6
Continuous
100
AcDbLine
 10
179.40218
 20
-161.262489
 30
0.0
 11
191.401228
 21
-161.262489
 31
0.0
  0
ARC
  5
423
100
AcDbEntity
  8
0
370
    -3
  6
Continuous
100
AcDbCircle
 10
191.401228
 20
-164.262489
 30
0.0
 40
3.0
100
AcDbArc
 50
0.0
 51
90.0
  0
LINE
  5
424
100
AcDbEntity
  8
0
370
    -3
  6
Continuous
100
AcDbLine
 10
194.401228
 20
-153.262489
 30
0.0
 11
194.401228
 21
-164.762489
 31
0.0
  0
ARC
  5
425
100
AcDbEntity
  8
0
370
    -3
  6
Continuous
100
AcDbCircle
 10
191.401228
 20
-153.262489
 30
0.0
 40
3.0
100
AcDbArc
 50
0.0
 51
90.0
  0
LINE
  5
426
100
AcDbEntity
  8
0
370
    -3
  6
Continuous
100
AcDbLine
 10
191.401228
 20
-150.262489
 30
0.0
 11
182.901228
 21
-150.262489
 31
0.0
  0
ARC
  5
427
100
AcDbEntity
  8
0
370
    -3
  6
Continuous
100
AcDbCircle
 10
182.901228
 20
-145.262489
 30
0.0
 40
5.0
100
AcDbArc
 50
180.0
 51
270.0
  0
LINE
  5
428
100
AcDbEntity
  8
0
370
    -3
  6
Continuous
100
AcDbLine
 10
191.401228
 20
-141.992158
 30
0.0
 11
182.901228
 21
-141.992158
 31
0.0
  0
ARC
  5
429
100
AcDbEntity
  8
0
370
    -3
  6
Continuous
100
AcDbCircle
 10
182.901228
 20
-136.992158
 30
0.0
 40
5.0
100
AcDbArc
 50
180.0
 51
270.0
  0
LINE
  5
42A
100
AcDbEntity
  8
0
370
    -3
  6
Continuous
100
AcDbLine
 10
191.401228
 20
-136.294726
 30
0.0
 11
181.780849
 21
-136.294726
 31
0.0
  0
ARC
  5
42B
100
AcDbEntity
  8
0
370
    -3
  6
Continuous
100
AcDbCircle
 10
191.401228
 20
-138.992158
 30
0.0
 40
3.0
100
AcDbArc
 50
270.0
 51
0.0
  0
LINE
  5
42C
100
AcDbEntity
  8
0
370
    -3
  6
DASHED
100
AcDbLine
 10
194.401719
 20
-137.26249
 30
0.0
 11
194.401668
 21
-95.262489
 31
0.0
  0
ARC
  5
42D
100
AcDbEntity
  8
0
370
    -3
  6
Continuous
100
AcDbCircle
 10
191.401228
 20
-133.294726
 30
0.0
 40
3.0
100
AcDbArc
 50
270.0
 51
0.0
  0
LINE
  5
42E
100
AcDbEntity
  8
0
370
    -3
  6
Continuous
100
AcDbLine
 10
194.401228
 20
-95.262489
 30
0.0
 11
194.401228
 21
-138.992158
 31
0.0
  0
LINE
  5
42F
100
AcDbEntity
  8
0
370
    -3
  6
DASHED
100
AcDbLine
 10
194.401719
 20
-53.262488
 30
0.0
 11
194.401668
 21
-95.262489
 31
0.0
  0
LINE
  5
430
100
AcDbEntity
  8
0
370
    -3
  6
DASHED
100
AcDbLine
 10
194.401719
 20
-137.26249
 30
0.0
 11
194.401668
 21
-95.262489
 31
0.0
  0
ARC
  5
431
100
AcDbEntity
  8
0
370
    -3
  6
Continuous
100
AcDbCircle
 10
191.401228
 20
-57.230252
 30
0.0
 40
3.0
100
AcDbArc
 50
0.0
 51
90.0
  0
LINE
  5
432
100
AcDbEntity
  8
0
370
    -3
  6
Continuous
100
AcDbLine
 10
191.401228
 20
-54.230252
 30
0.0
 11
181.780849
 21
-54.230252
 31
0.0
  0
CIRCLE
  5
433
100
AcDbEntity
  8
0
370
    -3
  6
Continuous
100
AcDbCircle
 10
88.90218
 20
-56.082063
 30
0.0
 40
4.0
  0
CIRCLE
  5
434
100
AcDbEntity
  8
0
370
    -3
  6
Continuous
100
AcDbCircle
 10
88.90218
 20
-56.082063
 30
0.0
 40
3.5
  0
ARC
  5
435
100
AcDbEntity
  8
0
370
    -3
  6
Continuous
100
AcDbCircle
 10
88.90218
 20
-56.082063
 30
0.0
 40
20.0
100
AcDbArc
 50
107.457603
 51
72.542397
  0
LINE
  5
436
100
AcDbEntity
  8
0
370
    -3
  6
Continuous
100
AcDbLine
 10
94.90218
 20
-41.082063
 30
0.0
 11
82.90218
 21
-41.082063
 31
0.0
  0
LINE
  5
437
100
AcDbEntity
  8
0
370
    -3
  6
Continuous
100
AcDbLine
 10
94.90218
 20
-33.082063
 30
0.0
 11
94.90218
 21
-41.082063
 31
0.0
  0
LINE
  5
438
100
AcDbEntity
  8
0
370
    -3
  6
Continuous
100
AcDbLine
 10
82.90218
 20
-33.082063
 30
0.0
 11
82.90218
 21
-41.082063
 31
0.0
  0
LINE
  5
439
100
AcDbEntity
  8
0
370
    -3
  6
Continuous
100
AcDbLine
 10
94.90218
 20
-33.082063
 30
0.0
 11
82.90218
 21
-33.082063
 31
0.0
  0
POINT
  5
43A
100
AcDbEntity
  8
0
370
    -3
  6
DASHED
100
AcDbPoint
 10
88.90218
 20
-35.968366
 30
0.0
  0
LINE
  5
43B
100
AcDbEntity
  8
0
370
    -3
  6
Continuous
100
AcDbLine
 10
272.401228
 20
233.906331
 30
0.0
 11
272.401228
 21
292.406331
 31
0.0
  0
LINE
  5
43C
100
AcDbEntity
  8
0
370
    -3
  6
Continuous
100
AcDbLine
 10
272.401228
 20
350.906331
 30
0.0
 11
272.401228
 21
292.406331
 31
0.0
  0
LINE
  5
43D
100
AcDbEntity
  8
0
370
    -3
  6
CENTER
100
AcDbLine
 10
662.401228
 20
70.393659
 30
0.0
 11
662.401228
 21
-238.590396
 31
0.0
  0
LINE
  5
43E
100
AcDbEntity
  8
0
370
    -3
  6
CENTER
100
AcDbLine
 10
489.513805
 20
-56.082063
 30
0.0
 11
839.122864
 21
-56.082063
 31
0.0
  0
LINE
  5
43F
100
AcDbEntity
  8
0
370
    -3
  6
CENTER
100
AcDbLine
 10
703.761716
 20
-64.762489
 30
0.0
 11
627.995365
 21
-64.762489
 31
0.0
  0
LINE
  5
440
100
AcDbEntity
  8
0
370
    -3
  6
Continuous
100
AcDbLine
 10
720.401228
 20
31.917937
 30
0.0
 11
720.401228
 21
-28.093789
 31
0.0
  0
LINE
  5
441
100
AcDbEntity
  8
0
370
    -3
  6
Continuous
100
AcDbLine
 10
672.901228
 20
63.737511
 30
0.0
 11
651.901228
 21
63.737511
 31
0.0
  0
LINE
  5
442
100
AcDbEntity
  8
0
370
    -3
  6
Continuous
100
AcDbLine
 10
760.401228
 20
-8.599362
 30
0.0
 11
760.401228
 21
-56.082063
 31
0.0
  0
ARC
  5
443
100
AcDbEntity
  8
0
370
    -3
  6
Continuous
100
AcDbCircle
 10
757.401228
 20
-8.599362
 30
0.0
 40
3.0
100
AcDbArc
 50
0.0
 51
80.0
  0
LINE
  5
444
100
AcDbEntity
  8
0
370
    -3
  6
Continuous
100
AcDbLine
 10
762.001228
 20
-24.582063
 30
0.0
 11
760.401228
 21
-24.582063
 31
0.0
  0
LINE
  5
445
100
AcDbEntity
  8
0
370
    -3
  6
Continuous
100
AcDbLine
 10
760.401228
 20
-103.564764
 30
0.0
 11
760.401228
 21
-56.082063
 31
0.0
  0
ARC
  5
446
100
AcDbEntity
  8
0
370
    -3
  6
Continuous
100
AcDbCircle
 10
757.401228
 20
-103.564764
 30
0.0
 40
3.0
100
AcDbArc
 50
280.0
 51
0.0
  0
LINE
  5
447
100
AcDbEntity
  8
0
370
    -3
  6
Continuous
100
AcDbLine
 10
762.001228
 20
-87.582063
 30
0.0
 11
760.401228
 21
-87.582063
 31
0.0
  0
LINE
  5
448
100
AcDbEntity
  8
0
370
    -3
  6
Continuous
100
AcDbLine
 10
762.401228
 20
-24.982063
 30
0.0
 11
762.401228
 21
-56.082063
 31
0.0
  0
LINE
  5
449
100
AcDbEntity
  8
0
370
    -3
  6
Continuous
100
AcDbLine
 10
762.001228
 20
-24.582063
 30
0.0
 11
762.401228
 21
-24.982063
 31
0.0
  0
LINE
  5
44A
100
AcDbEntity
  8
0
370
    -3
  6
Continuous
100
AcDbLine
 10
762.001228
 20
-87.582063
 30
0.0
 11
762.401228
 21
-87.182063
 31
0.0
  0
LINE
  5
44B
100
AcDbEntity
  8
0
370
    -3
  6
Continuous
100
AcDbLine
 10
762.401228
 20
-87.182063
 30
0.0
 11
762.401228
 21
-56.082063
 31
0.0
  0
LINE
  5
44C
100
AcDbEntity
  8
0
370
    -3
  6
Continuous
100
AcDbLine
 10
757.922173
 20
-5.644938
 30
0.0
 11
734.380284
 21
-1.582032
 31
0.0
  0
LINE
  5
44D
100
AcDbEntity
  8
0
370
    -3
  6
Continuous
100
AcDbLine
 10
757.922173
 20
-106.519187
 30
0.0
 11
734.380284
 21
-110.582094
 31
0.0
  0
ARC
  5
44E
100
AcDbEntity
  8
0
370
    -3
  6
Continuous
100
AcDbCircle
 10
730.901228
 20
-187.082063
 30
0.0
 40
1.0
100
AcDbArc
 50
90.0
 51
180.0
  0
ARC
  5
44F
100
AcDbEntity
  8
0
370
    -3
  6
Continuous
100
AcDbCircle
 10
730.901228
 20
-185.082063
 30
0.0
 40
1.0
100
AcDbArc
 50
270.0
 51
0.0
  0
LINE
  5
450
100
AcDbEntity
  8
0
370
    -3
  6
Continuous
100
AcDbLine
 10
594.901228
 20
26.770507
 30
0.0
 11
594.901228
 21
-64.935109
 31
0.0
  0
LINE
  5
451
100
AcDbEntity
  8
0
370
    -3
  6
Continuous
100
AcDbLine
 10
592.901228
 20
14.917937
 30
0.0
 11
592.901228
 21
-69.850877
 31
0.0
  0
ARC
  5
452
100
AcDbEntity
  8
0
370
    -3
  6
Continuous
100
AcDbCircle
 10
593.901228
 20
16.917937
 30
0.0
 40
1.0
100
AcDbArc
 50
270.0
 51
0.0
  0
ARC
  5
453
100
AcDbEntity
  8
0
370
    -3
  6
Continuous
100
AcDbCircle
 10
593.901228
 20
14.917937
 30
0.0
 40
1.0
100
AcDbArc
 50
90.0
 51
180.0
  0
LINE
  5
454
100
AcDbEntity
  8
0
370
    -3
  6
Continuous
100
AcDbLine
 10
566.880284
 20
-5.644938
 30
0.0
 11
590.422173
 21
-1.493868
 31
0.0
  0
ARC
  5
455
100
AcDbEntity
  8
0
370
    -3
  6
Continuous
100
AcDbCircle
 10
589.901228
 20
1.460555
 30
0.0
 40
3.0
100
AcDbArc
 50
280.0
 51
360.0
  0
LINE
  5
456
100
AcDbEntity
  8
0
370
    -3
  6
Continuous
100
AcDbLine
 10
562.401228
 20
-24.782063
 30
0.0
 11
562.401228
 21
-56.082063
 31
0.0
  0
LINE
  5
457
100
AcDbEntity
  8
0
370
    -3
  6
Continuous
100
AcDbLine
 10
564.401228
 20
-8.599362
 30
0.0
 11
564.401228
 21
-56.082063
 31
0.0
  0
LINE
  5
458
100
AcDbEntity
  8
0
370
    -3
  6
Continuous
100
AcDbLine
 10
562.601228
 20
-24.582063
 30
0.0
 11
564.401228
 21
-24.582063
 31
0.0
  0
LINE
  5
459
100
AcDbEntity
  8
0
370
    -3
  6
Continuous
100
AcDbLine
 10
562.401228
 20
-24.782063
 30
0.0
 11
562.601228
 21
-24.582063
 31
0.0
  0
ARC
  5
45A
100
AcDbEntity
  8
0
370
    -3
  6
Continuous
100
AcDbCircle
 10
567.401228
 20
-8.599362
 30
0.0
 40
3.0
100
AcDbArc
 50
100.0
 51
180.0
  0
LINE
  5
45B
100
AcDbEntity
  8
0
370
    -3
  6
Continuous
100
AcDbLine
 10
562.601228
 20
-87.582063
 30
0.0
 11
564.401228
 21
-87.582063
 31
0.0
  0
LINE
  5
45C
100
AcDbEntity
  8
0
370
    -3
  6
Continuous
100
AcDbLine
 10
564.401228
 20
-103.564764
 30
0.0
 11
564.401228
 21
-56.082063
 31
0.0
  0
LINE
  5
45D
100
AcDbEntity
  8
0
370
    -3
  6
Continuous
100
AcDbLine
 10
562.401228
 20
-87.382063
 30
0.0
 11
562.401228
 21
-56.082063
 31
0.0
  0
LINE
  5
45E
100
AcDbEntity
  8
0
370
    -3
  6
Continuous
100
AcDbLine
 10
562.401228
 20
-87.382063
 30
0.0
 11
562.601228
 21
-87.582063
 31
0.0
  0
LINE
  5
45F
100
AcDbEntity
  8
0
370
    -3
  6
Continuous
100
AcDbLine
 10
566.880284
 20
-106.519187
 30
0.0
 11
590.422173
 21
-110.670257
 31
0.0
  0
ARC
  5
460
100
AcDbEntity
  8
0
370
    -3
  6
Continuous
100
AcDbCircle
 10
567.401228
 20
-103.564764
 30
0.0
 40
3.0
100
AcDbArc
 50
180.0
 51
260.0
  0
LINE
  5
461
100
AcDbEntity
  8
0
370
    -3
  6
Continuous
100
AcDbLine
 10
594.901228
 20
-125.589869
 30
0.0
 11
594.901228
 21
-203.082063
 31
0.0
  0
ARC
  5
462
100
AcDbEntity
  8
0
370
    -3
  6
Continuous
100
AcDbCircle
 10
593.901228
 20
-187.082063
 30
0.0
 40
1.0
100
AcDbArc
 50
0.0
 51
90.0
  0
ARC
  5
463
100
AcDbEntity
  8
0
370
    -3
  6
Continuous
100
AcDbCircle
 10
593.901228
 20
-185.082063
 30
0.0
 40
1.0
100
AcDbArc
 50
180.0
 51
270.0
  0
LINE
  5
464
100
AcDbEntity
  8
0
370
    -3
  6
Continuous
100
AcDbLine
 10
592.901228
 20
-120.6741
 30
0.0
 11
592.901228
 21
-185.082063
 31
0.0
  0
ARC
  5
465
100
AcDbEntity
  8
0
370
    -3
  6
Continuous
100
AcDbCircle
 10
662.401228
 20
-95.262489
 30
0.0
 40
74.0
100
AcDbArc
 50
197.502524
 51
200.084166
  0
ARC
  5
466
100
AcDbEntity
  8
0
370
    -3
  6
Continuous
100
AcDbCircle
 10
610.901228
 20
-111.502871
 30
0.0
 40
20.0
100
AcDbArc
 50
180.0
 51
197.502524
  0
LINE
  5
467
100
AcDbEntity
  8
0
370
    -3
  6
Continuous
100
AcDbLine
 10
590.901228
 20
-110.796253
 30
0.0
 11
590.901228
 21
-111.502871
 31
0.0
  0
ARC
  5
468
100
AcDbEntity
  8
0
370
    -3
  6
Continuous
100
AcDbCircle
 10
589.901228
 20
-113.624681
 30
0.0
 40
3.0
100
AcDbArc
 50
70.528779
 51
80.0
  0
ARC
  5
469
100
AcDbEntity
  8
0
370
    -3
  6
Continuous
100
AcDbCircle
 10
563.401228
 20
-207.082063
 30
0.0
 40
1.0
100
AcDbArc
 50
90.0
 51
180.0
  0
ARC
  5
46A
100
AcDbEntity
  8
0
370
    -3
  6
Continuous
100
AcDbCircle
 10
591.901228
 20
-203.082063
 30
0.0
 40
3.0
100
AcDbArc
 50
270.0
 51
0.0
  0
LINE
  5
46B
100
AcDbEntity
  8
0
370
    -3
  6
CENTER
100
AcDbLine
 10
577.401228
 20
-199.001828
 30
0.0
 11
577.401228
 21
-235.373462
 31
0.0
  0
LINE
  5
46C
100
AcDbEntity
  8
0
370
    -3
  6
Continuous
100
AcDbLine
 10
762.401228
 20
-226.082063
 30
0.0
 11
562.401228
 21
-226.082063
 31
0.0
  0
LINE
  5
46D
100
AcDbEntity
  8
0
370
    -3
  6
Continuous
100
AcDbLine
 10
562.401228
 20
-207.082063
 30
0.0
 11
562.401228
 21
-226.082063
 31
0.0
  0
LINE
  5
46E
100
AcDbEntity
  8
0
370
    -3
  6
Continuous
100
AcDbLine
 10
591.901228
 20
-206.082063
 30
0.0
 11
563.401228
 21
-206.082063
 31
0.0
  0
ARC
  5
46F
100
AcDbEntity
  8
0
370
    -3
  6
Continuous
100
AcDbCircle
 10
761.401228
 20
-207.082063
 30
0.0
 40
1.0
100
AcDbArc
 50
0.0
 51
90.0
  0
LINE
  5
470
100
AcDbEntity
  8
0
370
    -3
  6
Continuous
100
AcDbLine
 10
762.401228
 20
-207.082063
 30
0.0
 11
762.401228
 21
-226.082063
 31
0.0
  0
LINE
  5
471
100
AcDbEntity
  8
0
370
    -3
  6
Continuous
100
AcDbLine
 10
761.401228
 20
-206.082063
 30
0.0
 11
723.401228
 21
-206.082063
 31
0.0
  0
LINE
  5
472
100
AcDbEntity
  8
0
370
    -3
  6
Continuous
100
AcDbLine
 10
720.401228
 20
-141.21899
 30
0.0
 11
720.401228
 21
-203.082063
 31
0.0
  0
ARC
  5
473
100
AcDbEntity
  8
0
370
    -3
  6
Continuous
100
AcDbCircle
 10
723.401228
 20
-203.082063
 30
0.0
 40
3.0
100
AcDbArc
 50
180.0
 51
270.0
  0
ARC
  5
474
100
AcDbEntity
  8
0
370
    -3
  6
Continuous
100
AcDbCircle
 10
662.401228
 20
-95.262489
 30
0.0
 40
74.0
100
AcDbArc
 50
339.915834
 51
342.497476
  0
ARC
  5
475
100
AcDbEntity
  8
0
370
    -3
  6
Continuous
100
AcDbCircle
 10
713.901228
 20
-111.502871
 30
0.0
 40
20.0
100
AcDbArc
 50
342.497476
 51
0.0
  0
LINE
  5
476
100
AcDbEntity
  8
0
370
    -3
  6
Continuous
100
AcDbLine
 10
733.901228
 20
-110.70809
 30
0.0
 11
733.901228
 21
-111.502871
 31
0.0
  0
LINE
  5
477
100
AcDbEntity
  8
0
370
    -3
  6
Continuous
100
AcDbLine
 10
731.901228
 20
-56.082063
 30
0.0
 11
731.901228
 21
-69.850877
 31
0.0
  0
ARC
  5
478
100
AcDbEntity
  8
0
370
    -3
  6
Continuous
100
AcDbCircle
 10
734.901228
 20
-113.536517
 30
0.0
 40
3.0
100
AcDbArc
 50
100.0
 51
109.471221
  0
LINE
  5
479
100
AcDbEntity
  8
0
370
    -3
  6
Continuous
100
AcDbLine
 10
727.901228
 20
-205.082063
 30
0.0
 11
721.16516
 21
-205.082063
 31
0.0
  0
ARC
  5
47A
100
AcDbEntity
  8
0
370
    -3
  6
Continuous
100
AcDbCircle
 10
727.901228
 20
-203.082063
 30
0.0
 40
2.0
100
AcDbArc
 50
270.0
 51
0.0
  0
LINE
  5
47B
100
AcDbEntity
  8
0
370
    -3
  6
Continuous
100
AcDbLine
 10
729.901228
 20
29.78672
 30
0.0
 11
729.901228
 21
-56.082063
 31
0.0
  0
LINE
  5
47C
100
AcDbEntity
  8
0
370
    -3
  6
Continuous
100
AcDbLine
 10
720.401228
 20
31.917937
 30
0.0
 11
727.936133
 21
31.786415
 31
0.0
  0
LINE
  5
47D
100
AcDbEntity
  8
0
370
    -3
  6
Continuous
100
AcDbLine
 10
731.901228
 20
14.917937
 30
0.0
 11
731.901228
 21
-56.082063
 31
0.0
  0
ARC
  5
47E
100
AcDbEntity
  8
0
370
    -3
  6
Continuous
100
AcDbCircle
 10
730.901228
 20
14.917937
 30
0.0
 40
1.0
100
AcDbArc
 50
0.0
 51
90.0
  0
ARC
  5
47F
100
AcDbEntity
  8
0
370
    -3
  6
Continuous
100
AcDbCircle
 10
730.901228
 20
16.917937
 30
0.0
 40
1.0
100
AcDbArc
 50
180.0
 51
270.0
  0
ARC
  5
480
100
AcDbEntity
  8
0
370
    -3
  6
Continuous
100
AcDbCircle
 10
727.901228
 20
29.78672
 30
0.0
 40
2.0
100
AcDbArc
 50
0.0
 51
89.0
  0
ARC
  5
481
100
AcDbEntity
  8
0
370
    -3
  6
Continuous
100
AcDbCircle
 10
734.901228
 20
1.372392
 30
0.0
 40
3.0
100
AcDbArc
 50
180.0
 51
260.0
  0
LINE
  5
482
100
AcDbEntity
  8
0
370
    -3
  6
Continuous
100
AcDbLine
 10
729.901228
 20
-56.082063
 30
0.0
 11
729.901228
 21
-64.935109
 31
0.0
  0
LINE
  5
483
100
AcDbEntity
  8
0
370
    -3
  6
CENTER
100
AcDbLine
 10
747.401228
 20
-199.001828
 30
0.0
 11
747.401228
 21
-235.373462
 31
0.0
  0
ARC
  5
484
100
AcDbEntity
  8
0
370
    -3
  6
Continuous
100
AcDbCircle
 10
597.901228
 20
26.770507
 30
0.0
 40
3.0
100
AcDbArc
 50
91.0
 51
180.0
  0
LINE
  5
485
100
AcDbEntity
  8
0
370
    -3
  6
Continuous
100
AcDbLine
 10
549.401228
 20
-33.082063
 30
0.0
 11
494.401228
 21
-33.082063
 31
0.0
  0
LINE
  5
486
100
AcDbEntity
  8
0
370
    -3
  6
Continuous
100
AcDbLine
 10
559.401228
 20
-36.082063
 30
0.0
 11
494.401228
 21
-36.082063
 31
0.0
  0
LINE
  5
487
100
AcDbEntity
  8
0
370
    -3
  6
Continuous
100
AcDbLine
 10
494.401228
 20
-76.082063
 30
0.0
 11
494.401228
 21
-33.082063
 31
0.0
  0
LINE
  5
488
100
AcDbEntity
  8
0
370
    -3
  6
Continuous
100
AcDbLine
 10
559.401228
 20
-76.082063
 30
0.0
 11
494.401228
 21
-76.082063
 31
0.0
  0
LINE
  5
489
100
AcDbEntity
  8
0
370
    -3
  6
Continuous
100
AcDbLine
 10
549.401228
 20
-36.082063
 30
0.0
 11
549.401228
 21
-33.082063
 31
0.0
  0
LINE
  5
48A
100
AcDbEntity
  8
0
370
    -3
  6
Continuous
100
AcDbLine
 10
559.401228
 20
-35.082063
 30
0.0
 11
559.401228
 21
-77.082063
 31
0.0
  0
LINE
  5
48B
100
AcDbEntity
  8
0
370
    -3
  6
Continuous
100
AcDbLine
 10
562.401228
 20
-35.082063
 30
0.0
 11
559.401228
 21
-35.082063
 31
0.0
  0
LINE
  5
48C
100
AcDbEntity
  8
0
370
    -3
  6
Continuous
100
AcDbLine
 10
562.401228
 20
-77.082063
 30
0.0
 11
559.401228
 21
-77.082063
 31
0.0
  0
ARC
  5
48D
100
AcDbEntity
  8
0
370
    -3
  6
Continuous
100
AcDbCircle
 10
662.401228
 20
-95.262489
 30
0.0
 40
40.0
100
AcDbArc
 50
238.049937
 51
301.950063
  0
ARC
  5
48E
100
AcDbEntity
  8
0
370
    -3
  6
Continuous
100
AcDbCircle
 10
636.901228
 20
-129.885458
 30
0.0
 40
3.0
100
AcDbArc
 50
0.0
 51
15.607761
  0
ARC
  5
48F
100
AcDbEntity
  8
0
370
    -3
  6
Continuous
100
AcDbCircle
 10
647.901228
 20
-135.743966
 30
0.0
 40
3.0
100
AcDbArc
 50
70.293059
 51
180.0
  0
LINE
  5
490
100
AcDbEntity
  8
0
370
    -3
  6
Continuous
100
AcDbLine
 10
644.901228
 20
-135.743966
 30
0.0
 11
644.901228
 21
-158.886211
 31
0.0
  0
LINE
  5
491
100
AcDbEntity
  8
0
370
    -3
  6
Continuous
100
AcDbLine
 10
639.901228
 20
-129.885458
 30
0.0
 11
639.901228
 21
-158.886211
 31
0.0
  0
ARC
  5
492
100
AcDbEntity
  8
0
370
    -3
  6
Continuous
100
AcDbCircle
 10
676.901228
 20
-135.743966
 30
0.0
 40
3.0
100
AcDbArc
 50
0.0
 51
109.706941
  0
LINE
  5
493
100
AcDbEntity
  8
0
370
    -3
  6
Continuous
100
AcDbLine
 10
679.901228
 20
-135.743966
 30
0.0
 11
679.901228
 21
-158.886211
 31
0.0
  0
ARC
  5
494
100
AcDbEntity
  8
0
370
    -3
  6
Continuous
100
AcDbCircle
 10
687.901228
 20
-129.885458
 30
0.0
 40
3.0
100
AcDbArc
 50
164.392239
 51
180.0
  0
LINE
  5
495
100
AcDbEntity
  8
0
370
    -3
  6
Continuous
100
AcDbLine
 10
684.901228
 20
-129.885458
 30
0.0
 11
684.901228
 21
-158.886211
 31
0.0
  0
ARC
  5
496
100
AcDbEntity
  8
0
370
    -3
  6
Continuous
100
AcDbCircle
 10
662.401228
 20
-95.262489
 30
0.0
 40
74.0
100
AcDbArc
 50
17.502524
 51
36.481001
  0
ARC
  5
497
100
AcDbEntity
  8
0
370
    -3
  6
Continuous
100
AcDbCircle
 10
713.901228
 20
-79.022107
 30
0.0
 40
20.0
100
AcDbArc
 50
0.0
 51
17.502524
  0
LINE
  5
498
100
AcDbEntity
  8
0
370
    -3
  6
Continuous
100
AcDbLine
 10
733.901228
 20
-79.022107
 30
0.0
 11
733.901228
 21
-111.502871
 31
0.0
  0
ARC
  5
499
100
AcDbEntity
  8
0
370
    -3
  6
Continuous
100
AcDbCircle
 10
713.901228
 20
-111.502871
 30
0.0
 40
20.0
100
AcDbArc
 50
342.497476
 51
0.0
  0
ARC
  5
49A
100
AcDbEntity
  8
0
370
    -3
  6
Continuous
100
AcDbCircle
 10
662.401228
 20
-95.262489
 30
0.0
 40
74.0
100
AcDbArc
 50
287.502524
 51
342.497476
  0
ARC
  5
49B
100
AcDbEntity
  8
0
370
    -3
  6
Continuous
100
AcDbCircle
 10
678.64161
 20
-146.762489
 30
0.0
 40
20.0
100
AcDbArc
 50
270.0
 51
287.502524
  0
ARC
  5
49C
100
AcDbEntity
  8
0
370
    -3
  6
Continuous
100
AcDbCircle
 10
687.901228
 20
-158.886211
 30
0.0
 40
3.0
100
AcDbArc
 50
180.0
 51
270.0
  0
ARC
  5
49D
100
AcDbEntity
  8
0
370
    -3
  6
Continuous
100
AcDbCircle
 10
676.901228
 20
-158.886211
 30
0.0
 40
3.0
100
AcDbArc
 50
270.0
 51
0.0
  0
LINE
  5
49E
100
AcDbEntity
  8
0
370
    -3
  6
Continuous
100
AcDbLine
 10
678.64161
 20
-166.762489
 30
0.0
 11
646.160847
 21
-166.762489
 31
0.0
  0
ARC
  5
49F
100
AcDbEntity
  8
0
370
    -3
  6
Continuous
100
AcDbCircle
 10
646.160847
 20
-146.762489
 30
0.0
 40
20.0
100
AcDbArc
 50
252.497476
 51
270.0
  0
ARC
  5
4A0
100
AcDbEntity
  8
0
370
    -3
  6
Continuous
100
AcDbCircle
 10
647.901228
 20
-158.886211
 30
0.0
 40
3.0
100
AcDbArc
 50
180.0
 51
270.0
  0
ARC
  5
4A1
100
AcDbEntity
  8
0
370
    -3
  6
Continuous
100
AcDbCircle
 10
636.901228
 20
-158.886211
 30
0.0
 40
3.0
100
AcDbArc
 50
270.0
 51
0.0
  0
ARC
  5
4A2
100
AcDbEntity
  8
0
370
    -3
  6
Continuous
100
AcDbCircle
 10
662.401228
 20
-95.262489
 30
0.0
 40
74.0
100
AcDbArc
 50
197.502524
 51
252.497476
  0
ARC
  5
4A3
100
AcDbEntity
  8
0
370
    -3
  6
Continuous
100
AcDbCircle
 10
610.901228
 20
-111.502871
 30
0.0
 40
20.0
100
AcDbArc
 50
180.0
 51
197.502524
  0
LINE
  5
4A4
100
AcDbEntity
  8
0
370
    -3
  6
Continuous
100
AcDbLine
 10
590.901228
 20
-79.022107
 30
0.0
 11
590.901228
 21
-111.502871
 31
0.0
  0
ARC
  5
4A5
100
AcDbEntity
  8
0
370
    -3
  6
Continuous
100
AcDbCircle
 10
662.401228
 20
-95.262489
 30
0.0
 40
74.0
100
AcDbArc
 50
143.518999
 51
162.497476
  0
ARC
  5
4A6
100
AcDbEntity
  8
0
370
    -3
  6
Continuous
100
AcDbCircle
 10
610.901228
 20
-79.022107
 30
0.0
 40
20.0
100
AcDbArc
 50
162.497476
 51
180.0
  0
LINE
  5
4A7
100
AcDbEntity
  8
0
370
    -3
  6
Continuous
100
AcDbLine
 10
729.901228
 20
-125.589869
 30
0.0
 11
729.901228
 21
-203.082063
 31
0.0
  0
LINE
  5
4A8
100
AcDbEntity
  8
0
370
    -3
  6
Continuous
100
AcDbLine
 10
731.901228
 20
-120.6741
 30
0.0
 11
731.901228
 21
-185.082063
 31
0.0
  0
LINE
  5
4A9
100
AcDbEntity
  8
0
370
    -3
  6
Continuous
100
AcDbLine
 10
720.401228
 20
-141.21899
 30
0.0
 11
720.401228
 21
-203.082063
 31
0.0
  0
LINE
  5
4AA
100
AcDbEntity
  8
0
370
    -3
  6
Continuous
100
AcDbLine
 10
-422.097137
 20
-77.082063
 30
0.0
 11
-425.097137
 21
-77.082063
 31
0.0
  0
LINE
  5
4AB
100
AcDbEntity
  8
0
370
    -3
  6
Continuous
100
AcDbLine
 10
-422.097137
 20
-35.082063
 30
0.0
 11
-425.097137
 21
-35.082063
 31
0.0
  0
LINE
  5
4AC
100
AcDbEntity
  8
0
370
    -3
  6
Continuous
100
AcDbLine
 10
-425.097137
 20
-35.082063
 30
0.0
 11
-425.097137
 21
-77.082063
 31
0.0
  0
LINE
  5
4AD
100
AcDbEntity
  8
0
370
    -3
  6
Continuous
100
AcDbLine
 10
-435.097137
 20
-36.082063
 30
0.0
 11
-435.097137
 21
-33.082063
 31
0.0
  0
LINE
  5
4AE
100
AcDbEntity
  8
0
370
    -3
  6
Continuous
100
AcDbLine
 10
-425.097137
 20
-76.082063
 30
0.0
 11
-490.097137
 21
-76.082063
 31
0.0
  0
LINE
  5
4AF
100
AcDbEntity
  8
0
370
    -3
  6
Continuous
100
AcDbLine
 10
-490.097137
 20
-76.082063
 30
0.0
 11
-490.097137
 21
-33.082063
 31
0.0
  0
LINE
  5
4B0
100
AcDbEntity
  8
0
370
    -3
  6
Continuous
100
AcDbLine
 10
-425.097137
 20
-36.082063
 30
0.0
 11
-490.097137
 21
-36.082063
 31
0.0
  0
LINE
  5
4B1
100
AcDbEntity
  8
0
370
    -3
  6
Continuous
100
AcDbLine
 10
-435.097137
 20
-33.082063
 30
0.0
 11
-490.097137
 21
-33.082063
 31
0.0
  0
ARC
  5
4B2
100
AcDbEntity
  8
0
370
    -3
  6
Continuous
100
AcDbCircle
 10
88.901228
 20
405.406331
 30
0.0
 40
6.0
100
AcDbArc
 50
180.0
 51
0.0
  0
LINE
  5
4B3
100
AcDbEntity
  8
0
370
    -3
  6
Continuous
100
AcDbLine
 10
82.901228
 20
460.406331
 30
0.0
 11
82.901228
 21
405.406331
 31
0.0
  0
LINE
  5
4B4
100
AcDbEntity
  8
0
370
    -3
  6
Continuous
100
AcDbLine
 10
94.901228
 20
460.406331
 30
0.0
 11
94.901228
 21
405.406331
 31
0.0
  0
LINE
  5
4B5
100
AcDbEntity
  8
0
370
    -3
  6
Continuous
100
AcDbLine
 10
94.901228
 20
405.406331
 30
0.0
 11
82.901228
 21
405.406331
 31
0.0
  0
LINE
  5
4B6
100
AcDbEntity
  8
0
370
    -3
  6
Continuous
100
AcDbLine
 10
82.901228
 20
460.406331
 30
0.0
 11
94.901228
 21
460.406331
 31
0.0
  0
LINE
  5
4B7
100
AcDbEntity
  8
0
370
    -3
  6
Continuous
100
AcDbLine
 10
108.901228
 20
460.406331
 30
0.0
 11
88.901228
 21
460.406331
 31
0.0
  0
LINE
  5
4B8
100
AcDbEntity
  8
0
370
    -3
  6
Continuous
100
AcDbLine
 10
68.901228
 20
460.406331
 30
0.0
 11
88.901228
 21
460.406331
 31
0.0
  0
LINE
  5
4B9
100
AcDbEntity
  8
0
370
    -3
  6
Continuous
100
AcDbLine
 10
109.901228
 20
392.406331
 30
0.0
 11
109.901228
 21
395.406331
 31
0.0
  0
LINE
  5
4BA
100
AcDbEntity
  8
0
370
    -3
  6
Continuous
100
AcDbLine
 10
109.901228
 20
395.406331
 30
0.0
 11
88.901228
 21
395.406331
 31
0.0
  0
LINE
  5
4BB
100
AcDbEntity
  8
0
370
    -3
  6
Continuous
100
AcDbLine
 10
108.901228
 20
395.406331
 30
0.0
 11
108.901228
 21
460.406331
 31
0.0
  0
LINE
  5
4BC
100
AcDbEntity
  8
0
370
    -3
  6
Continuous
100
AcDbLine
 10
67.901228
 20
392.406331
 30
0.0
 11
67.901228
 21
395.406331
 31
0.0
  0
LINE
  5
4BD
100
AcDbEntity
  8
0
370
    -3
  6
Continuous
100
AcDbLine
 10
67.901228
 20
395.406331
 30
0.0
 11
88.901228
 21
395.406331
 31
0.0
  0
LINE
  5
4BE
100
AcDbEntity
  8
0
370
    -3
  6
Continuous
100
AcDbLine
 10
68.901228
 20
395.406331
 30
0.0
 11
68.901228
 21
460.406331
 31
0.0
  0
LINE
  5
4BF
100
AcDbEntity
  8
0
370
    -3
  6
Continuous
100
AcDbLine
 10
762.401228
 20
-77.082063
 30
0.0
 11
765.401228
 21
-77.082063
 31
0.0
  0
LINE
  5
4C0
100
AcDbEntity
  8
0
370
    -3
  6
Continuous
100
AcDbLine
 10
762.401228
 20
-35.082063
 30
0.0
 11
765.401228
 21
-35.082063
 31
0.0
  0
LINE
  5
4C1
100
AcDbEntity
  8
0
370
    -3
  6
Continuous
100
AcDbLine
 10
765.401228
 20
-35.082063
 30
0.0
 11
765.401228
 21
-77.082063
 31
0.0
  0
LINE
  5
4C2
100
AcDbEntity
  8
0
370
    -3
  6
Continuous
100
AcDbLine
 10
775.401228
 20
-36.082063
 30
0.0
 11
775.401228
 21
-33.082063
 31
0.0
  0
LINE
  5
4C3
100
AcDbEntity
  8
0
370
    -3
  6
Continuous
100
AcDbLine
 10
765.401228
 20
-76.082063
 30
0.0
 11
830.401228
 21
-76.082063
 31
0.0
  0
LINE
  5
4C4
100
AcDbEntity
  8
0
370
    -3
  6
Continuous
100
AcDbLine
 10
830.401228
 20
-76.082063
 30
0.0
 11
830.401228
 21
-33.082063
 31
0.0
  0
LINE
  5
4C5
100
AcDbEntity
  8
0
370
    -3
  6
Continuous
100
AcDbLine
 10
765.401228
 20
-36.082063
 30
0.0
 11
830.401228
 21
-36.082063
 31
0.0
  0
LINE
  5
4C6
100
AcDbEntity
  8
0
370
    -3
  6
Continuous
100
AcDbLine
 10
775.401228
 20
-33.082063
 30
0.0
 11
830.401228
 21
-33.082063
 31
0.0
  0
LINE
  5
4C7
100
AcDbEntity
  8
0
370
    -3
  6
Continuous
100
AcDbLine
 10
272.401228
 20
-123.012489
 30
0.0
 11
272.401228
 21
-123.762489
 31
0.0
  0
MTEXT
  5
4C8
100
AcDbEntity
  8
0
370
    -3
  6
Continuous
100
AcDbMText
 10
-145.375488
 20
-49.156254
 30
0.0
 40
2.8
 41
0.0
 71
     7
 72
     1
  1
\W0.83;　
  7
ZU_SHPTB00001
 11
1.0
 21
0.0
 31
0.0
 73
     1
 44
1.0
  0
MTEXT
  5
4C9
100
AcDbEntity
  8
0
370
    -3
  6
Continuous
100
AcDbMText
 10
-73.375488
 20
-289.40625
 30
0.0
 40
2.8
 41
0.0
 71
     7
 72
     1
  1
\W0.83;　
  7
ZU_SHPTB00001
 11
1.0
 21
0.0
 31
0.0
 73
     1
 44
1.0
  0
MTEXT
  5
4CA
100
AcDbEntity
  8
0
370
    -3
  6
Continuous
100
AcDbMText
 10
483.279602
 20
-49.156254
 30
0.0
 40
2.8
 41
0.0
 71
     7
 72
     1
  1
\W0.83;　
  7
ZU_SHPTB00001
 11
1.0
 21
0.0
 31
0.0
 73
     1
 44
1.0
  0
MTEXT
  5
4CB
100
AcDbEntity
  8
0
370
    -3
  6
Continuous
100
AcDbMText
 10
-501.218781
 20
-49.156254
 30
0.0
 40
2.8
 41
0.0
 71
     7
 72
     1
  1
\W0.83;　
  7
ZU_SHPTB00001
 11
1.0
 21
0.0
 31
0.0
 73
     1
 44
1.0
  0
MTEXT
  5
4CC
100
AcDbEntity
  8
0
370
    -3
  6
Continuous
100
AcDbMText
 10
839.122864
 20
-49.156254
 30
0.0
 40
2.8
 41
0.0
 71
     7
 72
     1
  1
\W0.83;　
  7
ZU_SHPTB00001
 11
1.0
 21
0.0
 31
0.0
 73
     1
 44
1.0
  0
LINE
  5
4CD
100
AcDbEntity
  8
0
370
    -3
  6
Continuous
100
AcDbLine
 10
210.54147
 20
361.906331
 30
0.0
 11
210.54147
 21
222.906331
 31
0.0
  0
LINE
  5
4CE
100
AcDbEntity
  8
0
370
    -3
  6
Continuous
100
AcDbLine
 10
253.04147
 20
235.906331
 30
0.0
 11
253.04147
 21
348.906331
 31
0.0
  0
LINE
  5
4CF
100
AcDbEntity
  8
0
370
    -3
  6
Continuous
100
AcDbLine
 10
212.54147
 20
351.906331
 30
0.0
 11
272.401228
 21
351.906331
 31
0.0
  0
ARC
  5
4D0
100
AcDbEntity
  8
0
370
    -3
  6
Continuous
100
AcDbCircle
 10
256.04147
 20
348.906331
 30
0.0
 40
3.0
100
AcDbArc
 50
90.0
 51
180.0
  0
ELLIPSE
  5
4D1
100
AcDbEntity
  8
0
370
    -3
  6
Continuous
100
AcDbEllipse
 10
256.04147
 20
309.143865
 30
0.0
 11
3.0
 21
0.0
 31
0.0
210
0.0
220
0.0
230
1.0
 40
0.087489
 41
1.5707963267948966
 42
3.1415926535897918
  0
LINE
  5
4D2
100
AcDbEntity
  8
0
370
    -3
  6
Continuous
100
AcDbLine
 10
256.04147
 20
309.406331
 30
0.0
 11
272.04147
 21
309.406331
 31
0.0
  0
LINE
  5
4D3
100
AcDbEntity
  8
0
370
    -3
  6
Continuous
100
AcDbLine
 10
256.04147
 20
275.406331
 30
0.0
 11
272.04147
 21
275.406331
 31
0.0
  0
LINE
  5
4D4
100
AcDbEntity
  8
0
370
    -3
  6
Continuous
100
AcDbLine
 10
212.54147
 20
232.906331
 30
0.0
 11
272.401228
 21
232.906331
 31
0.0
  0
ARC
  5
4D5
100
AcDbEntity
  8
0
370
    -3
  6
Continuous
100
AcDbCircle
 10
256.04147
 20
235.906331
 30
0.0
 40
3.0
100
AcDbArc
 50
180.0
 51
270.0
  0
ELLIPSE
  5
4D6
100
AcDbEntity
  8
0
370
    -3
  6
Continuous
100
AcDbEllipse
 10
256.04147
 20
275.668797
 30
0.0
 11
3.0
 21
0.0
 31
0.0
210
0.0
220
0.0
230
1.0
 40
0.087489
 41
3.1415926535897918
 42
4.7123889803846897
  0
LINE
  5
4D7
100
AcDbEntity
  8
0
370
    -3
  6
Continuous
100
AcDbLine
 10
272.401228
 20
232.906331
 30
0.0
 11
272.401228
 21
351.906331
 31
0.0
  0
LINE
  5
4D8
100
AcDbEntity
  8
0
370
    -3
  6
Continuous
100
AcDbLine
 10
208.54147
 20
220.906331
 30
0.0
 11
200.901228
 21
220.906331
 31
0.0
  0
ARC
  5
4D9
100
AcDbEntity
  8
0
370
    -3
  6
Continuous
100
AcDbCircle
 10
208.54147
 20
222.906331
 30
0.0
 40
2.0
100
AcDbArc
 50
270.0
 51
0.0
  0
ARC
  5
4DA
100
AcDbEntity
  8
0
370
    -3
  6
Continuous
100
AcDbCircle
 10
212.54147
 20
230.906331
 30
0.0
 40
2.0
100
AcDbArc
 50
90.0
 51
180.0
  0
LINE
  5
4DB
100
AcDbEntity
  8
0
370
    -3
  6
Continuous
100
AcDbLine
 10
208.54147
 20
363.906331
 30
0.0
 11
200.901228
 21
363.906331
 31
0.0
  0
ARC
  5
4DC
100
AcDbEntity
  8
0
370
    -3
  6
Continuous
100
AcDbCircle
 10
208.54147
 20
361.906331
 30
0.0
 40
2.0
100
AcDbArc
 50
0.0
 51
90.0
  0
ARC
  5
4DD
100
AcDbEntity
  8
0
370
    -3
  6
Continuous
100
AcDbCircle
 10
212.54147
 20
353.906331
 30
0.0
 40
2.0
100
AcDbArc
 50
180.0
 51
270.0
  0
LINE
  5
4DE
100
AcDbEntity
  8
0
370
    -3
  6
Continuous
100
AcDbLine
 10
200.901228
 20
220.906331
 30
0.0
 11
200.901228
 21
363.906331
 31
0.0
  0
ENDSEC
  0
SECTION
  2
OBJECTS
  0
DICTIONARY
  5
19
100
AcDbDictionary
280
     0
281
     1
  3
ACAD_GROUP
350
1A
  3
ACAD_MLINESTYLE
350
1B
  3
ACAD_LAYOUT
350
1E
  3
ACAD_PLOTSETTINGS
350
22
  3
ACAD_PLOTSTYLENAME
350
1F
  3
ACAD_WIPEOUT_VARS
350
23
  3
DWGPROPS
350
4DF
  0
DICTIONARY
  5
1A
102
{ACAD_REACTORS
330
19
102
}
100
AcDbDictionary
280
     0
281
     1
  0
DICTIONARY
  5
1B
102
{ACAD_REACTORS
330
19
102
}
100
AcDbDictionary
280
     0
281
     1
  3
Standard
350
1C
  0
MLINESTYLE
  5
1C
102
{ACAD_REACTORS
330
1B
102
}
100
AcDbMlineStyle
  2
Standard
 70
     0
  3

 62
     0
 51
90.0
 52
90.0
 71
     2
 49
0.5
 62
   256
  6
ByLayer
 49
-0.5
 62
   256
  6
ByLayer
  0
ACDBDICTIONARYWDFLT
  5
1F
102
{ACAD_REACTORS
330
19
102
}
100
AcDbDictionary
281
     1
  3
Normal
350
1D
100
AcDbDictionaryWithDefault
340
1D
  0
ACDBPLACEHOLDER
  5
1D
102
{ACAD_REACTORS
330
1F
102
}
  0
LAYOUT
  5
20
102
{ACAD_REACTORS
330
1E
102
}
100
AcDbPlotSettings
  1

  2

  4

  6

 40
0.0
 41
0.0
 42
0.0
 43
0.0
 44
0.0
 45
0.0
 46
0.0
 47
0.0
 48
0.0
 49
0.0
140
0.0
141
0.0
142
1.0
143
1.0
 70
  1024
 72
     0
 73
     0
 74
     0
  7

 75
     0
147
1.0
148
0.0
149
0.0
100
AcDbLayout
  1
Model
 70
     0
 71
     0
 10
0.0
 20
0.0
 11
0.0
 21
0.0
 12
0.0
 22
0.0
 32
0.0
 14
0.0
 24
0.0
 34
0.0
 15
0.0
 25
0.0
 35
0.0
146
0.0
 13
0.0
 23
0.0
 33
0.0
 16
0.0
 26
0.0
 36
0.0
 17
0.0
 27
0.0
 37
0.0
 76
     0
330
A
331
0
345
0
346
0
  0
LAYOUT
  5
21
102
{ACAD_REACTORS
330
1E
102
}
100
AcDbPlotSettings
  1

  2

  4

  6

 40
0.0
 41
0.0
 42
0.0
 43
0.0
 44
0.0
 45
0.0
 46
0.0
 47
0.0
 48
0.0
 49
0.0
140
0.0
141
0.0
142
1.0
143
1.0
 70
     0
 72
     0
 73
     0
 74
     0
  7

 75
     0
147
1.0
148
0.0
149
0.0
100
AcDbLayout
  1
Layout1
 70
     0
 71
     0
 10
0.0
 20
0.0
 11
0.0
 21
0.0
 12
0.0
 22
0.0
 32
0.0
 14
0.0
 24
0.0
 34
0.0
 15
0.0
 25
0.0
 35
0.0
146
0.0
 13
0.0
 23
0.0
 33
0.0
 16
0.0
 26
0.0
 36
0.0
 17
0.0
 27
0.0
 37
0.0
 76
     0
330
B
331
0
345
0
346
0
  0
DICTIONARY
  5
1E
102
{ACAD_REACTORS
330
19
102
}
100
AcDbDictionary
280
     0
281
     1
  3
Layout1
350
21
  3
Model
350
20
  0
DICTIONARY
  5
22
102
{ACAD_REACTORS
330
19
102
}
100
AcDbDictionary
280
     0
281
     1
  0
WIPEOUTVARIABLES
  5
23
100
AcDbWipeoutVariables
 70
     1
  0
XRECORD
  5
4DF
100
AcDbXrecord
280
     1
  1
DWGPROPS COOKIE
  2

  3

  4

  6

  7

  8
TB24944
  9

300
=
301
=
302
=
303
=
304
=
305
=
306
=
307
=
308
=
309
=
 40
0.0
 41
2455965.592106
 42
2455965.592106
  1

 90
        0
  0
ENDSEC
  0
EOF
