  0
SECTION
  2
HEADER
  9
$TEXTSIZE
 40
2.5
  9
$ACADVER
  1
AC1009
  9
$DIMASZ
 40
3.863703297614046
  9
$DIMEXE
 40
2.000000000000000
  9
$DIMEXO
 40
1.000000000000000
  9
$DIMLFAC
 40
1.000000000000000
  9
$DIMSCALE
 40
1.000000000000000
  9
$DIMTAD
 70
1
  9
$DIMTFAC
 40
0.625000000000000
  9
$DIMTXT
 40
3.200000047683716
  9
$LUPREC
 70
3
  9
$REGENMODE
 70
1
  9
$TEXTSTYLE
  7
STANDARD1
  0
ENDSEC
  0
SECTION
  2
TABLES
  0
TABLE
  2
LTYPE
 70
4
  0
LTYPE
  2
CONTINUOUS
 70
64
  3
Solid line
 72
65
 73
0
 40
0.0
  0
LTYPE
  2
DASHED
 70
64
  3
-- -- -- -- -- -- -- -- -- -- -- -- -- -- --
 72
65
 73
2
 40
0.75
 49
0.5
 49
-0.25
  0
LTYPE
  2
DASHDOT
 70
64
  3
__ . __ . __ . __ . __ . __ . __ . __ . __ . __
 72
65
 73
4
 40
1.0
 49
0.5
 49
-0.25
 49
0.0
 49
-0.25
  0
LTYPE
  2
DIVIDE
 70
64
  3
__ . . __ . . __ . . __ . . __ . . __ . . __
 72
65
 73
6
 40
1.25
 49
0.5
 49
-0.25
 49
0.0
 49
-0.25
 49
0.0
 49
-0.25
  0
ENDTAB
  0
TABLE
  2
LAYER
 70
1
  0
LAYER
  2
0
 70
64
 62
2
  6
CONTINUOUS
  0
ENDTAB
  0
TABLE
  2
STYLE
 70
4
  0
STYLE
  2
STANDARD1
 70
64
 40
0.0
 41
1.0
 50
0.0
 71
0
 42
3.200000047683716
  3
MONOTXT
  4
BIGFONT
  0
STYLE
  2
STANDARD2
 70
68
 40
0.0
 41
1.0
 50
0.0
 71
0
 42
3.200000047683716
  3
MONOTXT
  4
BIGFONT
  0
STYLE
  2
STANDARD3
 70
64
 40
0.0
 41
1.0
 50
0.0
 71
0
 42
3.200000047683716
  3
MONOTXT
  4

  0
STYLE
  2
STANDARD4
 70
68
 40
0.0
 41
1.0
 50
0.0
 71
0
 42
3.200000047683716
  3
MONOTXT
  4

  0
ENDTAB
  0
TABLE
  2
VIEW
 70
0
  0
ENDTAB
  0
ENDSEC
  0
SECTION
  2
BLOCKS
  0
BLOCK
  8
0
  2
ZU_SYM_1
 70
64
 10
0.000000000000000
 20
0.000000000000000
  0
LINE
  8
0
  6
CONTINUOUS
 62
256
 10
0.000000000000000
 20
-4.249999046325684
 11
-5.000000000000000
 21
-4.249999046325684
  0
LINE
  8
0
  6
CONTINUOUS
 62
256
 10
0.000000000000000
 20
4.249999046325684
 11
-5.000000000000000
 21
4.249999046325684
  0
LINE
  8
0
  6
CONTINUOUS
 62
256
 10
-5.000000000000000
 20
-4.249999046325684
 11
-5.000000000000000
 21
4.249999046325684
  0
LINE
  8
0
  6
CONTINUOUS
 62
256
 10
0.000000000000000
 20
-4.249999046325684
 11
0.000000000000000
 21
4.249999046325684
  0
POINT
  8
0
  6
CONTINUOUS
 62
256
 10
0.000000000000000
 20
0.000000000000000
  0
ENDBLK
  8
0
  0
ENDSEC
  0
SECTION
  2
ENTITIES
  0
TEXT
  8
0
  6
CONTINUOUS
 62
256
 10
-291.026550292968750
 20
50.419887542724609
 40
7.919999599456787
  1
ＳＣＡＬＥ１／１
 50
0.000002504478167
 41
0.984848598876354
  7
STANDARD1
  0
TEXT
  8
0
  6
CONTINUOUS
 62
256
 10
-291.026550292968750
 20
63.139888763427734
 40
7.919999599456787
  1
１／３～１／５０
 50
0.000002504478167
 41
0.984848598876354
  7
STANDARD1
  0
TEXT
  8
0
  6
CONTINUOUS
 62
256
 10
-291.026550292968750
 20
75.859886169433594
 40
7.919999599456787
  1
０．１ｋＷ
 50
0.000002504478167
 41
0.984848598876354
  7
STANDARD1
  0
TEXT
  8
0
  6
CONTINUOUS
 62
256
 10
-291.026550292968750
 20
88.579887390136719
 40
7.919999599456787
  1
ＧＭ－ＳＳ
 50
0.000002504478167
 41
0.984848598876354
  7
STANDARD1
  0
TEXT
  8
0
  6
CONTINUOUS
 62
256
 10
-291.026550292968750
 20
101.299888610839840
 40
7.919999599456787
  1
三菱ギヤードモートル
 50
0.000002504478167
 41
0.984848598876354
  7
STANDARD1
  0
TEXT
  8
0
  6
CONTINUOUS
 62
256
 10
-291.026550292968750
 20
114.019889831542970
 40
7.919999599456787
  1
Ｓ０３３
 50
0.000002504478167
 41
0.984848598876354
  7
STANDARD1
  0
LINE
  8
0
  6
CONTINUOUS
 62
256
 10
33.854235632009477
 20
-46.793799637434397
 11
52.354235632021300
 21
-46.793799637434404
  0
LINE
  8
0
  6
CONTINUOUS
 62
256
 10
32.854235632021187
 20
81.151312972217056
 11
32.854235632021187
 21
103.989552652213210
  0
LINE
  8
0
  6
CONTINUOUS
 62
256
 10
33.854235632021187
 20
57.856470057330625
 11
52.354235632021187
 21
57.856470057330647
  0
LINE
  8
0
  6
CONTINUOUS
 62
256
 10
33.854235632021187
 20
62.947638881873445
 11
52.354235632021187
 21
62.947638881873445
  0
LINE
  8
0
  6
CONTINUOUS
 62
256
 10
33.854235632021187
 20
70.685951700704550
 11
49.354235632021187
 21
70.685951700704550
  0
LINE
  8
0
  6
CONTINUOUS
 62
256
 10
33.854235632021187
 20
72.275161493443193
 11
49.354235632021187
 21
72.275161493443193
  0
LINE
  8
0
  6
CONTINUOUS
 62
256
 10
33.854235632021187
 20
75.233157101576126
 11
49.354235632021187
 21
75.233157101576126
  0
LINE
  8
0
  6
CONTINUOUS
 62
256
 10
33.854235632021187
 20
76.712180255053212
 11
52.354235632021187
 21
76.712180255053212
  0
LINE
  8
0
  6
CONTINUOUS
 62
256
 10
33.854235632021187
 20
79.804911246718461
 11
52.354235632021187
 21
79.804911246718461
  0
LINE
  8
0
  6
CONTINUOUS
 62
256
 10
33.854235632021187
 20
81.151312972217056
 11
52.354235632021187
 21
81.151312972217056
  0
LINE
  8
0
  6
CONTINUOUS
 62
256
 10
33.854235632021187
 20
84.361517995575355
 11
52.354235632021187
 21
84.361517995575355
  0
LINE
  8
0
  6
CONTINUOUS
 62
256
 10
33.854235632021187
 20
85.603437860463259
 11
52.354235632021187
 21
85.603437860463259
  0
LINE
  8
0
  6
CONTINUOUS
 62
256
 10
33.854235632021187
 20
89.989552652213206
 11
52.354235632021187
 21
89.989552652213206
  0
LINE
  8
0
  6
CONTINUOUS
 62
256
 10
33.854235632021187
 20
117.989552652213220
 11
52.354235632021187
 21
117.989552652213210
  0
LINE
  8
0
  6
CONTINUOUS
 62
256
 10
33.854235632021187
 20
122.375667443963150
 11
52.354235632021187
 21
122.375667443963150
  0
LINE
  8
0
  6
CONTINUOUS
 62
256
 10
33.854235632021187
 20
123.617587308851040
 11
52.354235632021187
 21
123.617587308851060
  0
LINE
  8
0
  6
CONTINUOUS
 62
256
 10
33.854235632021187
 20
126.827792332209360
 11
52.354235632021187
 21
126.827792332209370
  0
LINE
  8
0
  6
CONTINUOUS
 62
256
 10
33.854235632021187
 20
128.174194057707950
 11
52.354235632021187
 21
128.174194057707950
  0
LINE
  8
0
  6
CONTINUOUS
 62
256
 10
33.854235632021187
 20
131.266925049373300
 11
52.354235632021187
 21
131.266925049373300
  0
LINE
  8
0
  6
CONTINUOUS
 62
256
 10
33.854235632021187
 20
132.745948202850290
 11
49.354235632021187
 21
132.745948202850290
  0
LINE
  8
0
  6
CONTINUOUS
 62
256
 10
33.854235632021187
 20
135.703943810983220
 11
49.354235632021187
 21
135.703943810983220
  0
LINE
  8
0
  6
CONTINUOUS
 62
256
 10
33.854235632021187
 20
137.293153603721980
 11
49.354235632021187
 21
137.293153603721980
  0
LINE
  8
0
  6
CONTINUOUS
 62
256
 10
33.854235632021187
 20
145.031466422552970
 11
52.354235632021187
 21
145.031466422552970
  0
LINE
  8
0
  6
CONTINUOUS
 62
256
 10
33.854235632021187
 20
150.122635247095900
 11
52.354235632021187
 21
150.122635247095900
  0
ARC
  8
0
  6
CONTINUOUS
 62
256
 10
175.311412832501450
 20
-112.835713407774160
 40
4.999999999999893
 50
184.861405395798610
 51
270.000000000000000
  0
ARC
  8
0
  6
CONTINUOUS
 62
256
 10
175.311412832501450
 20
-62.835713407774165
 40
5.000000000000000
 50
90.000000000000000
 51
175.138594604201420
  0
LINE
  8
0
  6
CONTINUOUS
 62
256
 10
193.250181966483070
 20
-117.835713407774090
 11
175.311412832501450
 21
-117.835713407774160
  0
LINE
  8
0
  6
CONTINUOUS
 62
256
 10
197.209315187091760
 20
-57.835713407774165
 11
175.311412832501450
 21
-57.835713407774165
  0
ARC
  8
0
  6
CONTINUOUS
 62
256
 10
256.250181966483070
 20
-72.835713407774165
 40
14.999999999999416
 50
29.495546123203535
 51
74.327299558595925
  0
ARC
  8
0
  6
CONTINUOUS
 62
256
 10
256.250181966483070
 20
-72.835713407774165
 40
14.999999999999437
 50
71.480227576789645
 51
31.760752476937341
  0
ARC
  8
0
  6
CONTINUOUS
 62
256
 10
256.250181966483070
 20
-72.835713407774278
 40
20.000000000000043
 50
301.817285839822660
 51
33.739346948272122
  0
LINE
  8
0
  6
CONTINUOUS
 62
256
 10
246.250174606475870
 20
-70.335713407774165
 11
251.250174606475870
 21
-70.335713407774165
  0
ARC
  8
0
  6
CONTINUOUS
 62
256
 10
256.250174606475870
 20
-72.835713407774165
 40
8.000000000000096
 50
198.209956864282790
 51
161.789968677645820
  0
LINE
  8
0
  6
CONTINUOUS
 62
256
 10
251.250174606475870
 20
-70.335713407774165
 11
251.250174606475870
 21
-75.335713407774165
  0
LINE
  8
0
  6
CONTINUOUS
 62
256
 10
246.250174606475870
 20
-75.335713407774165
 11
251.250174606475870
 21
-75.335713407774165
  0
LINE
  8
0
  6
CONTINUOUS
 62
256
 10
246.250174606475870
 20
-70.335713407774165
 11
246.250174606475870
 21
-75.335713407774165
  0
LINE
  8
0
  6
CONTINUOUS
 62
256
 10
314.295040137907110
 20
-74.262602995169118
 11
314.295040137907110
 21
-128.835713407774160
  0
LINE
  8
0
  6
CONTINUOUS
 62
256
 10
303.165104883560620
 20
-64.053519055158631
 11
303.165104883560620
 21
-128.835713407774160
  0
ARC
  8
0
  6
CONTINUOUS
 62
256
 10
306.165104883608360
 20
-64.053519055167953
 40
2.999999999999813
 50
160.774476771050220
 51
179.999999999821970
  0
LINE
  8
0
  6
CONTINUOUS
 62
256
 10
303.992797409552680
 20
-61.614332817844364
 11
303.332415549114050
 21
-63.065657154778364
  0
LINE
  8
0
  6
CONTINUOUS
 62
256
 10
304.820935299367700
 20
-60.549915923659540
 11
303.992797409552680
 21
-61.614332817844364
  0
LINE
  8
0
  6
CONTINUOUS
 62
256
 10
305.785584786111880
 20
-59.912565366237907
 11
304.820935299367700
 21
-60.549915923659540
  0
LINE
  8
0
  6
CONTINUOUS
 62
256
 10
306.850351054266580
 20
-59.726327450767826
 11
305.785584786111880
 21
-59.912565366237907
  0
LINE
  8
0
  6
CONTINUOUS
 62
256
 10
307.975062028448410
 20
-59.998228661655588
 11
306.850351054266580
 21
-59.726327450767826
  0
LINE
  8
0
  6
CONTINUOUS
 62
256
 10
309.117284007111210
 20
-60.718010563536261
 11
307.975062028448410
 21
-59.998228661655588
  0
LINE
  8
0
  6
CONTINUOUS
 62
256
 10
310.233922624098110
 20
-61.858516837049706
 11
309.117284007111210
 21
-60.718010563536261
  0
LINE
  8
0
  6
CONTINUOUS
 62
256
 10
311.282848736103920
 20
-63.376717847087221
 11
310.233922624098110
 21
-61.858516837049706
  0
LINE
  8
0
  6
CONTINUOUS
 62
256
 10
312.224487893690140
 20
-65.215334088046120
 11
311.282848736103920
 21
-63.376717847087221
  0
LINE
  8
0
  6
CONTINUOUS
 62
256
 10
313.023313427432750
 20
-67.304997255875179
 11
312.224487893690140
 21
-65.215334088046120
  0
LINE
  8
0
  6
CONTINUOUS
 62
256
 10
313.649186817245830
 20
-69.566867412820457
 11
313.023313427432750
 21
-67.304997255875179
  0
LINE
  8
0
  6
CONTINUOUS
 62
256
 10
314.078494774703530
 20
-71.915607503070035
 11
313.649186817245830
 21
-69.566867412820457
  0
LINE
  8
0
  6
CONTINUOUS
 62
256
 10
314.295040137907050
 20
-74.262602995169132
 11
314.078494774703530
 21
-71.915607503070035
  0
ARC
  8
0
  6
CONTINUOUS
 62
256
 10
206.335259049357770
 20
-64.053519055167953
 40
3.000000000048203
 50
0.000000000175872
 51
19.225523228947033
  0
LINE
  8
0
  6
CONTINUOUS
 62
256
 10
198.421869158262640
 20
-71.915607503069964
 11
198.205323795059090
 21
-74.262602995169047
  0
LINE
  8
0
  6
CONTINUOUS
 62
256
 10
198.851177115720330
 20
-69.566867412820400
 11
198.421869158262640
 21
-71.915607503069964
  0
LINE
  8
0
  6
CONTINUOUS
 62
256
 10
199.477050505533380
 20
-67.304997255875151
 11
198.851177115720330
 21
-69.566867412820400
  0
LINE
  8
0
  6
CONTINUOUS
 62
256
 10
200.275876039276000
 20
-65.215334088046106
 11
199.477050505533380
 21
-67.304997255875151
  0
LINE
  8
0
  6
CONTINUOUS
 62
256
 10
201.217515196862170
 20
-63.376717847087214
 11
200.275876039276000
 21
-65.215334088046106
  0
LINE
  8
0
  6
CONTINUOUS
 62
256
 10
202.266441308868020
 20
-61.858516837049720
 11
201.217515196862170
 21
-63.376717847087214
  0
LINE
  8
0
  6
CONTINUOUS
 62
256
 10
203.383079925854930
 20
-60.718010563536275
 11
202.266441308868020
 21
-61.858516837049720
  0
LINE
  8
0
  6
CONTINUOUS
 62
256
 10
204.525301904517730
 20
-59.998228661655602
 11
203.383079925854930
 21
-60.718010563536275
  0
LINE
  8
0
  6
CONTINUOUS
 62
256
 10
205.650012878699560
 20
-59.726327450767833
 11
204.525301904517730
 21
-59.998228661655602
  0
LINE
  8
0
  6
CONTINUOUS
 62
256
 10
206.714779146854230
 20
-59.912565366237892
 11
205.650012878699560
 21
-59.726327450767833
  0
LINE
  8
0
  6
CONTINUOUS
 62
256
 10
207.679428633598410
 20
-60.549915923659519
 11
206.714779146854230
 21
-59.912565366237892
  0
LINE
  8
0
  6
CONTINUOUS
 62
256
 10
208.507566523413400
 20
-61.614332817844314
 11
207.679428633598410
 21
-60.549915923659519
  0
LINE
  8
0
  6
CONTINUOUS
 62
256
 10
209.167948383852040
 20
-63.065657154778286
 11
208.507566523413400
 21
-61.614332817844314
  0
LINE
  8
0
  6
CONTINUOUS
 62
256
 10
300.413433442419320
 20
-76.292345115544094
 11
300.413433442419320
 21
-128.835713407774160
  0
LINE
  8
0
  6
CONTINUOUS
 62
256
 10
212.086930490547270
 20
-76.292345115544094
 11
212.086930490547270
 21
-128.835713407774160
  0
LINE
  8
0
  6
CONTINUOUS
 62
256
 10
212.750175282316380
 20
-142.835713407774160
 11
212.750175282316380
 21
-141.835713407774160
  0
LINE
  8
0
  6
CONTINUOUS
 62
256
 10
227.612100592626120
 20
-142.835713407774160
 11
191.250188650649760
 21
-142.835713407774160
  0
LINE
  8
0
  6
CONTINUOUS
 62
256
 10
284.888263340340020
 20
-142.835713407774050
 11
321.250175282316380
 21
-142.835713407774050
  0
LINE
  8
0
  6
CONTINUOUS
 62
256
 10
213.750175282316380
 20
-140.835713407774050
 11
256.250181966483070
 21
-140.835713407774050
  0
LINE
  8
0
  6
CONTINUOUS
 62
256
 10
191.250188650649760
 20
-142.835713407774160
 11
191.250188650649760
 21
-133.327537743350150
  0
LINE
  8
0
  6
CONTINUOUS
 62
256
 10
321.250188650649760
 20
-142.835713407774050
 11
321.250188650649760
 21
-133.335713407774160
  0
LINE
  8
0
  6
CONTINUOUS
 62
256
 10
193.750175282316380
 20
-130.835713407774160
 11
256.250181966483070
 21
-130.835713407774160
  0
LINE
  8
0
  6
CONTINUOUS
 62
256
 10
318.750188650649760
 20
-130.835713407774160
 11
256.250181966483070
 21
-130.835713407774160
  0
LINE
  8
0
  6
DASHDOT
 62
256
 10
199.250181966483070
 20
-128.363565179381110
 11
199.250181966483070
 21
-146.388569103930880
  0
LINE
  8
0
  6
CONTINUOUS
 62
256
 10
298.750188650650220
 20
-140.835713407774050
 11
256.250181966483070
 21
-140.835713407774050
  0
LINE
  8
0
  6
CONTINUOUS
 62
256
 10
198.205323795059480
 20
-74.262602995169118
 11
198.205323795059480
 21
-128.835713407774160
  0
LINE
  8
0
  6
CONTINUOUS
 62
256
 10
209.335259049405980
 20
-64.053519055158745
 11
209.335259049405980
 21
-128.835713407774160
  0
LINE
  8
0
  6
DASHDOT
 62
256
 10
313.250181966483070
 20
-128.363565179381110
 11
313.250181966483070
 21
-146.388569103930880
  0
LINE
  8
0
  6
CONTINUOUS
 62
256
 10
319.250181966483070
 20
-76.292345115544094
 11
319.250181966483070
 21
-129.594060487055570
  0
LINE
  8
0
  6
CONTINUOUS
 62
256
 10
193.250181966483070
 20
-76.292345115544094
 11
193.250181966483070
 21
-129.594060487055690
  0
ARC
  8
0
  6
CONTINUOUS
 62
256
 10
256.250181966483070
 20
-430.835713407774160
 40
381.163251475936080
 50
87.093615629290099
 51
90.000000000000000
  0
ARC
  8
0
  6
CONTINUOUS
 62
256
 10
274.250181966483070
 20
-76.292345115544094
 40
26.163251475936249
 50
0.000000000000000
 51
87.093615629290255
  0
ARC
  8
0
  6
CONTINUOUS
 62
256
 10
238.250181966483070
 20
-76.292345115544094
 40
26.163251475936192
 50
92.906384370708764
 51
180.000000000000000
  0
ARC
  8
0
  6
CONTINUOUS
 62
256
 10
256.250181966483070
 20
-430.835713407774160
 40
381.163251475936140
 50
90.000000000000000
 51
92.906384370709830
  0
ARC
  8
0
  6
CONTINUOUS
 62
256
 10
256.250181966483070
 20
-72.835713407774278
 40
19.999999999999957
 50
75.608178603069064
 51
158.452064872033650
  0
ARC
  8
0
  6
CONTINUOUS
 62
256
 10
256.250181966483070
 20
-72.835713407774278
 40
19.999999999999730
 50
151.820240962305150
 51
313.242851348262040
  0
ARC
  8
0
  6
CONTINUOUS
 62
256
 10
274.250181966483070
 20
-76.292345115544094
 40
45.000000000000000
 50
0.000000000000145
 51
87.093615629290099
  0
ARC
  8
0
  6
CONTINUOUS
 62
256
 10
238.250181966483070
 20
-76.292345115544094
 40
45.000000000000142
 50
92.906384370709887
 51
180.000000000000000
  0
ARC
  8
0
  6
CONTINUOUS
 62
256
 10
256.250181966483070
 20
-430.835713407774160
 40
399.999999999999890
 50
90.000000000000000
 51
92.906384370709901
  0
ARC
  8
0
  6
CONTINUOUS
 62
256
 10
321.250181966483070
 20
-129.594060487055460
 40
2.000000000000000
 50
180.000000000000000
 51
236.250909049805780
  0
ARC
  8
0
  6
CONTINUOUS
 62
256
 10
213.750175282316380
 20
-141.835713407774050
 40
1.000000000000000
 50
90.000000000000000
 51
180.000000000000000
  0
ARC
  8
0
  6
CONTINUOUS
 62
256
 10
193.750175282316380
 20
-133.335713407774160
 40
2.500000000000000
 50
90.000000000000000
 51
180.000000000000000
  0
ARC
  8
0
  6
DASHED
 62
256
 10
193.750188650649760
 20
-133.335713407774160
 40
2.500000000000000
 50
90.000000000000000
 51
180.000000000000000
  0
ARC
  8
0
  6
CONTINUOUS
 62
256
 10
318.750188650649760
 20
-133.335713407774160
 40
2.500000000000000
 50
0.000000000000000
 51
90.000000000000000
  0
ARC
  8
0
  6
CONTINUOUS
 62
256
 10
191.250181966483070
 20
-129.594060487055570
 40
2.000000000000160
 50
303.749090950205020
 51
0.000000000000000
  0
ARC
  8
0
  6
CONTINUOUS
 62
256
 10
256.250181966483070
 20
-430.835713407774160
 40
400.000000000000000
 50
87.093615629290099
 51
90.000000000000000
  0
LINE
  8
0
  6
CONTINUOUS
 62
256
 10
282.975450908067160
 20
-72.835713407774165
 11
292.950181966482890
 21
-72.835713407774165
  0
LINE
  8
0
  6
CONTINUOUS
 62
256
 10
229.524913024898980
 20
-72.835713407774165
 11
219.550181966483250
 21
-72.835713407774165
  0
LINE
  8
0
  6
CONTINUOUS
 62
256
 10
295.450181966482890
 20
-75.335713407774165
 11
295.450181966482890
 21
-121.035713407774210
  0
ARC
  8
0
  6
CONTINUOUS
 62
256
 10
292.950181966482890
 20
-75.335713407774165
 40
2.500000000000000
 50
0.000000000000000
 51
90.000000000000000
  0
ARC
  8
0
  6
CONTINUOUS
 62
256
 10
282.975450908067160
 20
-74.835713407774165
 40
2.000000000000000
 50
90.000000000000000
 51
175.720216799718260
  0
ARC
  8
0
  6
CONTINUOUS
 62
256
 10
256.250181966483070
 20
-72.835713407774165
 40
24.799999999999955
 50
270.000000000000000
 51
355.720216799718120
  0
ARC
  8
0
  6
CONTINUOUS
 62
256
 10
290.450181966482890
 20
-121.035713407774210
 40
5.000000000000000
 50
270.000000000000000
 51
0.000000000000000
  0
LINE
  8
0
  6
CONTINUOUS
 62
256
 10
290.450181966482890
 20
-126.035713407774210
 11
256.250181966483070
 21
-126.035713407774210
  0
LINE
  8
0
  6
CONTINUOUS
 62
256
 10
217.050181966483250
 20
-75.335713407774165
 11
217.050181966483250
 21
-121.035713407774210
  0
ARC
  8
0
  6
CONTINUOUS
 62
256
 10
222.050181966483250
 20
-121.035713407774210
 40
5.000000000000000
 50
180.000000000000000
 51
270.000000000000000
  0
LINE
  8
0
  6
CONTINUOUS
 62
256
 10
222.050181966483250
 20
-126.035713407774210
 11
256.250181966483070
 21
-126.035713407774210
  0
ARC
  8
0
  6
CONTINUOUS
 62
256
 10
219.550181966483250
 20
-75.335713407774165
 40
2.500000000000000
 50
90.000000000000000
 51
180.000000000000000
  0
ARC
  8
0
  6
CONTINUOUS
 62
256
 10
229.524913024898980
 20
-74.835713407774165
 40
2.000000000000295
 50
4.279783200280720
 51
90.000000000000000
  0
ARC
  8
0
  6
CONTINUOUS
 62
256
 10
256.250181966483070
 20
-72.835713407774165
 40
24.799999999999688
 50
184.279783200282000
 51
270.000000000000000
  0
ARC
  8
0
  6
CONTINUOUS
 62
256
 10
222.250197945244510
 20
-138.335713407774050
 40
6.999999999999692
 50
319.994853367675830
 51
339.075167572360160
  0
ARC
  8
0
  6
CONTINUOUS
 62
256
 10
290.250165987722080
 20
-138.335713407774050
 40
7.000000000000262
 50
200.924832427638510
 51
220.005146632321780
  0
LINE
  8
0
  6
CONTINUOUS
 62
256
 10
299.750188650649760
 20
-142.835713407774160
 11
299.750188650649760
 21
-141.835713407774160
  0
ARC
  8
0
  6
CONTINUOUS
 62
256
 10
298.750188650649760
 20
-141.835713407774050
 40
1.000000000000000
 50
0.000000000000000
 51
90.000000000000000
  0
ARC
  8
0
  6
CONTINUOUS
 62
256
 10
256.250181966483070
 20
-72.835713407774278
 40
20.000000000000227
 50
31.725452044933846
 51
75.608178603069078
  0
ARC
  8
0
  6
CONTINUOUS
 62
256
 10
316.295040137907110
 20
-128.835713407774160
 40
2.000000000000000
 50
180.000000000000000
 51
270.000000000000000
  0
ARC
  8
0
  6
CONTINUOUS
 62
256
 10
305.165104883560620
 20
-128.835713407774160
 40
2.000000000000000
 50
180.000000000000000
 51
270.000000000000000
  0
ARC
  8
0
  6
CONTINUOUS
 62
256
 10
302.413433442419320
 20
-128.835713407774160
 40
2.000000000000000
 50
180.000000000000000
 51
270.000000000000000
  0
ARC
  8
0
  6
CONTINUOUS
 62
256
 10
210.086930490547270
 20
-128.835713407774160
 40
2.000000000000000
 50
270.000000000000000
 51
0.000000000000000
  0
ARC
  8
0
  6
CONTINUOUS
 62
256
 10
207.335259049405980
 20
-128.835713407774160
 40
2.000000000000000
 50
270.000000000000000
 51
0.000000000000000
  0
ARC
  8
0
  6
CONTINUOUS
 62
256
 10
196.205323795059480
 20
-128.835713407774160
 40
2.000000000000000
 50
270.000000000000000
 51
0.000000000000000
  0
LINE
  8
0
  6
DASHDOT
 62
256
 10
326.217228694593360
 20
-72.835713407774165
 11
160.864180543732800
 21
-72.835713407774165
  0
LINE
  8
0
  6
DASHDOT
 62
256
 10
256.250181966483070
 20
-22.682598328906806
 11
256.250181966483070
 21
-150.576024776835310
  0
LINE
  8
0
  6
DASHDOT
 62
256
 10
273.428124647605730
 20
-87.835713407774165
 11
238.515270039875760
 21
-87.835713407774165
  0
ARC
  8
0
  6
CONTINUOUS
 62
256
 10
216.819314966395720
 20
-42.413766665475805
 40
6.600000000000009
 50
95.743681810995113
 51
135.000000000002760
  0
LINE
  8
0
  6
CONTINUOUS
 62
256
 10
204.693715035893090
 20
-45.205557084316297
 11
212.152410210564080
 21
-37.746861909644622
  0
LINE
  8
0
  6
CONTINUOUS
 62
256
 10
307.806648897073050
 20
-45.205557084316297
 11
300.347953722402050
 21
-37.746861909644622
  0
ARC
  8
0
  6
CONTINUOUS
 62
256
 10
295.681048966570420
 20
-42.413766665475805
 40
6.600000000000278
 50
44.999999999997208
 51
84.256318189005128
  0
ARC
  8
0
  6
CONTINUOUS
 62
256
 10
256.250181966483070
 20
-434.435713407774300
 40
400.600000000000020
 50
95.317822841624718
 51
95.743681810993436
  0
ARC
  8
0
  6
CONTINUOUS
 62
256
 10
256.250181966483070
 20
-434.435713407774300
 40
400.599999999999910
 50
84.256318189006564
 51
84.682177158375268
  0
ARC
  8
0
  6
CONTINUOUS
 62
256
 10
293.240249204629440
 20
-59.771956776758543
 40
20.599999999999991
 50
19.861001831249904
 51
44.999999999997314
  0
ARC
  8
0
  6
CONTINUOUS
 62
256
 10
219.260114728336700
 20
-59.771956776758543
 40
20.600000000000069
 50
135.000000000002700
 51
160.138998168750130
  0
ARC
  8
0
  6
CONTINUOUS
 62
256
 10
256.250181966483130
 20
258.764286592225970
 40
400.599999999999910
 50
270.000000000000000
 51
273.933897417635990
  0
ARC
  8
0
  6
CONTINUOUS
 62
256
 10
256.250181966483130
 20
258.764286592225970
 40
400.599999999999970
 50
266.066102582364070
 51
270.000000000000000
  0
LINE
  8
0
  6
CONTINUOUS
 62
256
 10
-319.742824314878360
 20
-77.681018024676746
 11
-319.742825268552560
 21
-79.990412861102527
  0
LINE
  8
0
  6
CONTINUOUS
 62
256
 10
-231.104777282728610
 20
-142.835713407774050
 11
-194.742865340752250
 21
-142.835713407774050
  0
LINE
  8
0
  6
CONTINUOUS
 62
256
 10
-227.178996495989400
 20
-142.335713407774280
 11
-231.487421303123260
 21
-142.335713407774280
  0
LINE
  8
0
  6
CONTINUOUS
 62
256
 10
-288.380940030442730
 20
-142.835713407774280
 11
-324.742851972418860
 21
-142.835713407774280
  0
LINE
  8
0
  6
CONTINUOUS
 62
256
 10
-292.306688859658830
 20
-142.335713407774280
 11
-287.998264052524970
 21
-142.335713407774280
  0
ARC
  8
0
  6
CONTINUOUS
 62
256
 10
-311.865874335411950
 20
-132.835713407774280
 40
1.999999999999928
 50
50.433777532722338
 51
90.000000000000000
  0
LINE
  8
0
  6
CONTINUOUS
 62
256
 10
-216.242851972418860
 20
-142.335713407774050
 11
-194.742865340752250
 21
-142.335713407774050
  0
LINE
  8
0
  6
CONTINUOUS
 62
256
 10
-303.242865340752250
 20
-142.335713407774280
 11
-324.742851972418860
 21
-142.335713407774280
  0
ARC
  8
0
  6
CONTINUOUS
 62
256
 10
-194.742858656585550
 20
-129.594060487055570
 40
2.000000000000000
 50
180.000000000000000
 51
236.250909049800580
  0
ARC
  8
0
  6
CONTINUOUS
 62
256
 10
-197.242851972418860
 20
-133.335713407774050
 40
2.500000000000000
 50
0.000000000000000
 51
90.000000000000000
  0
ARC
  8
0
  6
CONTINUOUS
 62
256
 10
-207.619842977759160
 20
-132.835713407774050
 40
2.000000000000000
 50
90.000000000000000
 51
129.566222467277900
  0
ARC
  8
0
  6
CONTINUOUS
 62
256
 10
-198.742858656585550
 20
-124.835713407774050
 40
2.000000000000000
 50
0.000000000000000
 51
90.000000000000000
  0
ARC
  8
0
  6
CONTINUOUS
 62
256
 10
-199.381529184008740
 20
-124.835713407774260
 40
2.000000000000227
 50
90.000000000000000
 51
134.999999999997700
  0
ARC
  8
0
  6
CONTINUOUS
 62
256
 10
-324.742858656585550
 20
-129.594060487055570
 40
2.000000000000034
 50
303.749090950199620
 51
0.000000000000000
  0
ARC
  8
0
  6
DASHED
 62
256
 10
-322.242851972418860
 20
-133.335713407774280
 40
2.500000000000074
 50
123.749090950200680
 51
180.000000000000000
  0
ARC
  8
0
  6
CONTINUOUS
 62
256
 10
-322.242865340752250
 20
-133.335713407774280
 40
2.500000000000000
 50
90.000000000000000
 51
180.000000000000000
  0
ARC
  8
0
  6
CONTINUOUS
 62
256
 10
-302.742858656585550
 20
-108.255917383397100
 40
20.000000000000000
 50
180.000000000000000
 51
225.000000000000450
  0
ARC
  8
0
  6
CONTINUOUS
 62
256
 10
-320.742858656585550
 20
-124.835713407774260
 40
2.000000000000000
 50
90.000000000000000
 51
180.000000000000000
  0
ARC
  8
0
  6
CONTINUOUS
 62
256
 10
-320.104188129162370
 20
-124.835713407774260
 40
1.999999999999775
 50
44.999999999997698
 51
90.000000000000000
  0
ARC
  8
0
  6
DASHED
 62
256
 10
-197.242865340752250
 20
-133.335713407774050
 40
2.500000000000000
 50
0.000000000000000
 51
56.250909049796419
  0
LINE
  8
0
  6
DASHDOT
 62
256
 10
-202.742858656585670
 20
-125.871677171674830
 11
-202.742858656585670
 21
-150.046491494390810
  0
LINE
  8
0
  6
CONTINUOUS
 62
256
 10
-197.242851972418860
 20
-130.835713407774050
 11
-207.619842977759160
 21
-130.835713407774050
  0
LINE
  8
0
  6
CONTINUOUS
 62
256
 10
-198.742858656585550
 20
-122.835713407774050
 11
-199.381529184008740
 21
-122.835713407774050
  0
LINE
  8
0
  6
CONTINUOUS
 62
256
 10
-206.403913707543890
 20
-129.029670806563330
 11
-200.795742746381730
 21
-123.421499845401170
  0
LINE
  8
0
  6
DASHDOT
 62
256
 10
-316.742858656585440
 20
-125.871677171675060
 11
-316.742858656585440
 21
-150.046491494391030
  0
LINE
  8
0
  6
CONTINUOUS
 62
256
 10
-324.742851972418860
 20
-142.835713407774280
 11
-324.742851972418860
 21
-133.335713407774280
  0
LINE
  8
0
  6
CONTINUOUS
 62
256
 10
-322.242865340752250
 20
-130.835713407774280
 11
-311.865874335411950
 21
-130.835713407774280
  0
LINE
  8
0
  6
CONTINUOUS
 62
256
 10
-320.742858656585550
 20
-122.835713407774260
 11
-320.104188129162370
 21
-122.835713407774260
  0
LINE
  8
0
  6
CONTINUOUS
 62
256
 10
-313.081803605627210
 20
-129.029670806563330
 11
-318.689974566789370
 21
-123.421499845401390
  0
LINE
  8
0
  6
CONTINUOUS
 62
256
 10
-194.742865340752250
 20
-142.835713407774050
 11
-194.742865340752250
 21
-133.335713407774050
  0
LINE
  8
0
  6
CONTINUOUS
 62
256
 10
-299.487389345600830
 20
-142.335713407774280
 11
-295.178964538466970
 21
-142.335713407774280
  0
LINE
  8
0
  6
CONTINUOUS
 62
256
 10
-219.998296010047400
 20
-142.335713407774280
 11
-224.306720817181260
 21
-142.335713407774280
  0
ARC
  8
0
  6
CONTINUOUS
 62
256
 10
-302.742842677824110
 20
-108.255917383397100
 40
20.000000000000000
 50
180.000000000000000
 51
225.000000000000450
  0
ARC
  8
0
  6
CONTINUOUS
 62
256
 10
-293.742826699062900
 20
-138.335713407774160
 40
6.999999999999983
 50
325.150095420952310
 51
339.075167572360670
  0
ARC
  8
0
  6
CONTINUOUS
 62
256
 10
-285.492842677824110
 20
-32.980250961601200
 40
1.000000000000044
 50
100.144794226312310
 51
180.000000000000000
  0
ARC
  8
0
  6
CONTINUOUS
 62
256
 10
-321.586438349061610
 20
-72.585713407774278
 40
0.999999999999993
 50
175.167582959106710
 51
270.000000000000000
  0
ARC
  8
0
  6
CONTINUOUS
 62
256
 10
-233.992842677824110
 20
-32.980250961601200
 40
1.000000000000000
 50
0.000000000000000
 51
79.855205773687274
  0
ARC
  8
0
  6
CONTINUOUS
 62
256
 10
-321.742842677824110
 20
-85.085713407774278
 40
1.000000000000000
 50
90.000000000000000
 51
180.000000000000000
  0
LINE
  8
0
  6
CONTINUOUS
 62
256
 10
-322.742858656585550
 20
-76.292345115543753
 11
-322.742858656585550
 21
-129.594060487055570
  0
ARC
  8
0
  6
CONTINUOUS
 62
256
 10
-259.742858656585550
 20
-430.835713407774050
 40
400.000000000000000
 50
90.000000000000000
 51
92.906384370709901
  0
ARC
  8
0
  6
CONTINUOUS
 62
256
 10
-259.742858656585550
 20
-430.835713407774050
 40
400.000000000000000
 50
87.093615629290099
 51
90.000000000000000
  0
LINE
  8
0
  6
CONTINUOUS
 62
256
 10
-202.441409596684250
 20
-119.335713407774160
 11
-202.242858656585440
 21
-119.335713407774160
  0
LINE
  8
0
  6
CONTINUOUS
 62
256
 10
-202.242858656585440
 20
-119.335713407774160
 11
-202.242858656585440
 21
-117.823699262204400
  0
ARC
  8
0
  6
CONTINUOUS
 62
256
 10
-299.173725656672790
 20
-42.413766665475805
 40
6.600000000000009
 50
95.743681810995113
 51
135.000000000002930
  0
ARC
  8
0
  6
CONTINUOUS
 62
256
 10
-259.742858656585440
 20
-434.435713407774300
 40
400.599999999999910
 50
90.000000000000000
 51
95.743681810993436
  0
ARC
  8
0
  6
CONTINUOUS
 62
256
 10
-296.732925894731810
 20
-59.771956776758543
 40
20.600000000000069
 50
135.000000000002700
 51
174.247717268463500
  0
LINE
  8
0
  6
CONTINUOUS
 62
256
 10
-311.299325587175420
 20
-45.205557084316297
 11
-303.840630412504420
 21
-37.746861909644622
  0
ARC
  8
0
  6
CONTINUOUS
 62
256
 10
-18.142858656585076
 20
-87.835713407774165
 40
300.599999999999910
 50
174.247717268463390
 51
180.000000000000000
  0
ARC
  8
0
  6
CONTINUOUS
 62
256
 10
-299.173725656672790
 20
-133.257660150072520
 40
6.600000000000278
 50
224.999999999997190
 51
264.256318189004620
  0
ARC
  8
0
  6
CONTINUOUS
 62
256
 10
-259.742858656585440
 20
258.764286592225970
 40
400.599999999999910
 50
264.256318189006550
 51
270.000000000000000
  0
ARC
  8
0
  6
CONTINUOUS
 62
256
 10
-296.732925894731810
 20
-115.899470038789790
 40
20.599999999999916
 50
185.752282731536470
 51
224.999999999997300
  0
LINE
  8
0
  6
CONTINUOUS
 62
256
 10
-311.299325587175420
 20
-130.465869731232030
 11
-303.840630412504420
 21
-137.924564905903710
  0
ARC
  8
0
  6
CONTINUOUS
 62
256
 10
-18.142858656585076
 20
-87.835713407774165
 40
300.600000000000360
 50
180.000000000000000
 51
185.752282731536610
  0
ARC
  8
0
  6
CONTINUOUS
 62
256
 10
-220.311991656498090
 20
-133.257660150072520
 40
6.600000000000009
 50
275.743681810995100
 51
315.000000000002790
  0
ARC
  8
0
  6
CONTINUOUS
 62
256
 10
-259.742858656585440
 20
258.764286592225970
 40
400.599999999999910
 50
270.000000000000000
 51
275.743681810993510
  0
ARC
  8
0
  6
CONTINUOUS
 62
256
 10
-222.752791418439070
 20
-115.899470038789790
 40
20.600000000000069
 50
315.000000000002670
 51
354.247717268463480
  0
LINE
  8
0
  6
CONTINUOUS
 62
256
 10
-208.186391725995460
 20
-130.465869731232030
 11
-215.645086900666460
 21
-137.924564905903710
  0
ARC
  8
0
  6
CONTINUOUS
 62
256
 10
-501.342858656585800
 20
-87.835713407774165
 40
300.599999999999910
 50
354.247717268463420
 51
0.000000000000000
  0
ARC
  8
0
  6
CONTINUOUS
 62
256
 10
-501.342858656585800
 20
-87.835713407774165
 40
290.797000000000480
 50
0.000000000000000
 51
5.752282731536623
  0
LINE
  8
0
  6
CONTINUOUS
 62
256
 10
-215.118159501967740
 20
-52.137324860287663
 11
-221.005573374007100
 21
-46.249910988247620
  0
ARC
  8
0
  6
CONTINUOUS
 62
256
 10
-222.752791418439070
 20
-59.771956776758543
 40
10.797000000000011
 50
5.752282731536912
 51
44.999999999998295
  0
LINE
  8
0
  6
CONTINUOUS
 62
256
 10
-202.242858656585440
 20
-57.843214345512024
 11
-202.242858656585440
 21
-56.335713407774165
  0
LINE
  8
0
  6
CONTINUOUS
 62
256
 10
-202.441409596684250
 20
-56.335713407774165
 11
-202.242858656585440
 21
-56.335713407774165
  0
ARC
  8
0
  6
CONTINUOUS
 62
256
 10
-501.342858656585800
 20
-87.835713407774165
 40
300.600000000000360
 50
0.000000000000000
 51
5.752282731536604
  0
LINE
  8
0
  6
CONTINUOUS
 62
256
 10
-208.186391725995460
 20
-45.205557084316297
 11
-215.645086900666460
 21
-37.746861909644622
  0
ARC
  8
0
  6
CONTINUOUS
 62
256
 10
-222.752791418439070
 20
-59.771956776758543
 40
20.599999999999916
 50
5.752282731536487
 51
44.999999999997335
  0
LINE
  8
0
  6
CONTINUOUS
 62
256
 10
-172.242858656585440
 20
-90.335713407774165
 11
-172.242858656585440
 21
-85.335713407774165
  0
LINE
  8
0
  6
CONTINUOUS
 62
256
 10
-172.753275504103160
 20
-90.335713407774165
 11
-172.242858656585440
 21
-90.335713407774165
  0
LINE
  8
0
  6
CONTINUOUS
 62
256
 10
-172.753275504103160
 20
-85.335713407774165
 11
-172.242858656585440
 21
-85.335713407774165
  0
ARC
  8
0
  6
CONTINUOUS
 62
256
 10
-472.742858656585440
 20
-87.835713407774165
 40
300.000000000000170
 50
355.138594604201960
 51
4.861405395798036
  0
LINE
  8
0
  6
CONTINUOUS
 62
256
 10
-202.242858656585440
 20
-57.835713407774165
 11
-178.804089522603820
 21
-57.835713407774165
  0
LINE
  8
0
  6
CONTINUOUS
 62
256
 10
-202.242858656585440
 20
-117.835713407774160
 11
-178.804089522603820
 21
-117.835713407774160
  0
ARC
  8
0
  6
CONTINUOUS
 62
256
 10
-178.804089522603820
 20
-62.835713407774165
 40
4.999999999999893
 50
4.861405395798621
 51
90.000000000000000
  0
ARC
  8
0
  6
CONTINUOUS
 62
256
 10
-178.804089522603820
 20
-112.835713407774160
 40
5.000000000000000
 50
270.000000000000000
 51
355.138594604201330
  0
ARC
  8
0
  6
CONTINUOUS
 62
256
 10
-18.142858656585304
 20
-87.835713407774165
 40
290.796999999999910
 50
174.998349729065040
 51
180.000000000000000
  0
LINE
  8
0
  6
CONTINUOUS
 62
256
 10
-301.820448972441450
 20
-49.590216021525521
 11
-298.480143939163780
 21
-46.249910988247620
  0
ARC
  8
0
  6
CONTINUOUS
 62
256
 10
-287.114749244104810
 20
-64.295915749862161
 40
20.797000000000015
 50
135.000000000000000
 51
174.998349729064640
  0
ARC
  8
0
  6
CONTINUOUS
 62
256
 10
-259.742858656585440
 20
-434.435713407774300
 40
390.797000000000030
 50
90.000000000000000
 51
95.417963762360529
  0
ARC
  8
0
  6
CONTINUOUS
 62
256
 10
-296.358823595603780
 20
-48.371231331807394
 40
3.000000000000067
 50
95.417963762365673
 51
135.000000000003470
  0
ARC
  8
0
  6
CONTINUOUS
 62
256
 10
-18.142858656585304
 20
-87.835713407774165
 40
290.797000000000250
 50
180.000000000000000
 51
185.001650270934930
  0
LINE
  8
0
  6
CONTINUOUS
 62
256
 10
-301.820448972441450
 20
-126.081210794022790
 11
-298.480143939163780
 21
-129.421515827300710
  0
ARC
  8
0
  6
CONTINUOUS
 62
256
 10
-287.114749244104810
 20
-111.375511065686150
 40
20.796999999999880
 50
185.001650270935300
 51
225.000000000000030
  0
ARC
  8
0
  6
CONTINUOUS
 62
256
 10
-259.742858656585440
 20
258.764286592225970
 40
390.797000000000030
 50
264.582036237639500
 51
270.000000000000000
  0
ARC
  8
0
  6
CONTINUOUS
 62
256
 10
-296.358823595603780
 20
-127.300195483740940
 40
3.000000000000346
 50
224.999999999996930
 51
264.582036237634780
  0
ARC
  8
0
  6
CONTINUOUS
 62
256
 10
-501.342858656585800
 20
-87.835713407774165
 40
290.797000000000140
 50
354.998349729065010
 51
0.000000000000000
  0
LINE
  8
0
  6
CONTINUOUS
 62
256
 10
-217.665268340729430
 20
-126.081210794022790
 11
-221.005573374007100
 21
-129.421515827300710
  0
ARC
  8
0
  6
CONTINUOUS
 62
256
 10
-232.370968069066070
 20
-111.375511065686150
 40
20.797000000000015
 50
315.000000000000000
 51
354.998349729064670
  0
ARC
  8
0
  6
CONTINUOUS
 62
256
 10
-259.742858656585440
 20
258.764286592225970
 40
390.797000000000030
 50
270.000000000000000
 51
275.417963762360500
  0
ARC
  8
0
  6
CONTINUOUS
 62
256
 10
-223.126893717567100
 20
-127.300195483740940
 40
3.000000000000067
 50
275.417963762365730
 51
315.000000000003070
  0
ARC
  8
0
  6
CONTINUOUS
 62
256
 10
-223.126893717567100
 20
-48.371231331807394
 40
3.000000000000346
 50
44.999999999996930
 51
84.582036237634284
  0
ARC
  8
0
  6
CONTINUOUS
 62
256
 10
-259.742858656585440
 20
-434.435713407774300
 40
390.797000000000030
 50
84.582036237639471
 51
90.000000000000000
  0
ARC
  8
0
  6
CONTINUOUS
 62
256
 10
-220.311991656498090
 20
-42.413766665475805
 40
6.600000000000278
 50
44.999999999997208
 51
84.256318189004887
  0
ARC
  8
0
  6
CONTINUOUS
 62
256
 10
-259.742858656585440
 20
-434.435713407774300
 40
400.599999999999910
 50
84.256318189006564
 51
90.000000000000000
  0
ARC
  8
0
  6
CONTINUOUS
 62
256
 10
-263.242858656585440
 20
-122.660273706505900
 40
1.000000000000000
 50
0.000000000000000
 51
84.260829522738462
  0
ARC
  8
0
  6
CONTINUOUS
 62
256
 10
-263.242858656585440
 20
-125.674185892799190
 40
1.000000000000042
 50
264.715267045464260
 51
0.000000000000000
  0
ARC
  8
0
  6
CONTINUOUS
 62
256
 10
-263.242858656585440
 20
-117.127350439527850
 40
1.000000000000077
 50
263.186145655820330
 51
0.000000000000000
  0
LINE
  8
0
  6
CONTINUOUS
 62
256
 10
-262.242858656585440
 20
-125.674185892799190
 11
-262.242858656585440
 21
-122.660273706505900
  0
ARC
  8
0
  6
CONTINUOUS
 62
256
 10
-276.783787339958280
 20
-93.632846286033327
 40
0.999999999999885
 50
300.000000000003810
 51
18.787728582347054
  0
LINE
  8
0
  6
CONTINUOUS
 62
256
 10
-278.925022497014880
 20
-96.023789518737203
 11
-276.283787339958280
 21
-94.498871689817634
  0
ARC
  8
0
  6
CONTINUOUS
 62
256
 10
-279.425022497014880
 20
-95.157764114952897
 40
1.000000000000094
 50
200.405931773138660
 51
300.000000000004150
  0
ARC
  8
0
  6
CONTINUOUS
 62
256
 10
-284.241484988739780
 20
-97.938550031092518
 40
1.000000000000082
 50
299.999999999997270
 51
22.410457608146118
  0
ARC
  8
0
  6
CONTINUOUS
 62
256
 10
-291.651812550909880
 20
-102.216904643894400
 40
1.000000000000082
 50
299.999999999997270
 51
24.260829522733705
  0
LINE
  8
0
  6
CONTINUOUS
 62
256
 10
-286.360160444517310
 20
-100.316468414190010
 11
-283.741484988739780
 21
-98.804575434877052
  0
ARC
  8
0
  6
CONTINUOUS
 62
256
 10
-286.860160444517310
 20
-99.450443010405479
 40
0.999999999999730
 50
203.186145655819840
 51
299.999999999997390
  0
LINE
  8
0
  6
CONTINUOUS
 62
256
 10
-293.761937069015630
 20
-104.589886140825460
 11
-291.151812550909880
 21
-103.082930047678910
  0
ARC
  8
0
  6
CONTINUOUS
 62
256
 10
-294.261937069015630
 20
-103.723860737041150
 40
1.000000000000249
 50
204.715267045455480
 51
300.000000000003300
  0
ARC
  8
0
  6
CONTINUOUS
 62
256
 10
-290.761937069015630
 20
-109.786038563532410
 40
1.000000000000082
 50
119.999999999997300
 51
215.284732954534750
  0
ARC
  8
0
  6
CONTINUOUS
 62
256
 10
-288.151812550909880
 20
-108.279082470385450
 40
0.999999999999807
 50
35.739170477263514
 51
120.000000000003010
  0
ARC
  8
0
  6
CONTINUOUS
 62
256
 10
-263.242858656585440
 20
-114.103564480901450
 40
1.000000000000000
 50
0.000000000000000
 51
82.410457608145990
  0
ARC
  8
0
  6
CONTINUOUS
 62
256
 10
-283.360160444517310
 20
-105.512620836896300
 40
0.999999999999885
 50
120.000000000003810
 51
216.813854344196470
  0
ARC
  8
0
  6
CONTINUOUS
 62
256
 10
-280.741484988740240
 20
-104.000727857583340
 40
1.000000000000194
 50
37.589542391851786
 51
119.999999999997270
  0
ARC
  8
0
  6
CONTINUOUS
 62
256
 10
-263.242858656585440
 20
-108.541992648622680
 40
1.000000000000268
 50
260.405931773124510
 51
0.000000000000000
  0
ARC
  8
0
  6
CONTINUOUS
 62
256
 10
-263.242858656585440
 20
-105.492156990783760
 40
1.000000000000000
 50
0.000000000000000
 51
78.787728582356166
  0
ARC
  8
0
  6
CONTINUOUS
 62
256
 10
-275.925022497014420
 20
-101.219941941443930
 40
0.999999999999885
 50
120.000000000003810
 51
219.594068226860970
  0
ARC
  8
0
  6
CONTINUOUS
 62
256
 10
-273.283787339958280
 20
-99.695024112524607
 40
1.000000000000165
 50
41.212271417643834
 51
119.999999999998080
  0
ARC
  8
0
  6
CONTINUOUS
 62
256
 10
-268.385163501998930
 20
-96.866802321019577
 40
0.999999999999885
 50
120.000000000003810
 51
226.260204708329240
  0
ARC
  8
0
  6
CONTINUOUS
 62
256
 10
-263.242858656585440
 20
-99.835713407774165
 40
0.999999999999964
 50
253.739795291702650
 51
0.000000000000000
  0
ARC
  8
0
  6
CONTINUOUS
 62
256
 10
-263.242858656585440
 20
-96.667474274102005
 40
1.000000000000000
 50
0.000000000000000
 51
68.381727577839243
  0
ARC
  8
0
  6
CONTINUOUS
 62
256
 10
-265.641387926974630
 20
-95.282682754183497
 40
0.999999999999961
 50
51.618272422159770
 51
120.000000000004590
  0
ARC
  8
0
  6
CONTINUOUS
 62
256
 10
-259.742858656585440
 20
-87.835713407774165
 40
38.999999999999872
 50
215.284732954534800
 51
264.715267045465400
  0
ARC
  8
0
  6
CONTINUOUS
 62
256
 10
-259.742858656585440
 20
-87.835713407774165
 40
30.499999999999964
 50
216.813854344181040
 51
263.186145655819020
  0
ARC
  8
0
  6
CONTINUOUS
 62
256
 10
-259.742858656585440
 20
-87.835713407774165
 40
33.999999999999964
 50
215.739170477266950
 51
264.260829522733050
  0
ARC
  8
0
  6
CONTINUOUS
 62
256
 10
-259.742858656585440
 20
-87.835713407774165
 40
25.499999999999890
 50
217.589542391857950
 51
262.410457608141830
  0
ARC
  8
0
  6
CONTINUOUS
 62
256
 10
-259.742858656585440
 20
-87.835713407774165
 40
22.000000000000025
 50
219.594068226860800
 51
260.405931773138780
  0
ARC
  8
0
  6
CONTINUOUS
 62
256
 10
-259.742858656585440
 20
-87.835713407774165
 40
16.999999999999773
 50
221.212271417650750
 51
258.787728582349980
  0
ARC
  8
0
  6
CONTINUOUS
 62
256
 10
-259.742858656585440
 20
-87.835713407774165
 40
13.499999999999927
 50
226.260204708312130
 51
253.739795291689090
  0
ARC
  8
0
  6
CONTINUOUS
 62
256
 10
-259.742858656585440
 20
-87.835713407774165
 40
8.499999999999949
 50
231.618272422157330
 51
248.381727577842410
  0
LINE
  8
0
  6
CONTINUOUS
 62
256
 10
-283.860160444517310
 20
-104.646595433111980
 11
-281.241484988740240
 21
-103.134702453798790
  0
LINE
  8
0
  6
CONTINUOUS
 62
256
 10
-291.261937069015630
 20
-108.920013159747900
 11
-288.651812550909880
 21
-107.413057066601140
  0
LINE
  8
0
  6
CONTINUOUS
 62
256
 10
-276.425022497014420
 20
-100.353916537659640
 11
-273.783787339958280
 21
-98.828998708740073
  0
LINE
  8
0
  6
CONTINUOUS
 62
256
 10
-268.885163501998930
 20
-96.000776917235271
 11
-266.141387926974630
 21
-94.416657350399191
  0
LINE
  8
0
  6
CONTINUOUS
 62
256
 10
-262.242858656585440
 20
-99.835713407774165
 11
-262.242858656585440
 21
-96.667474274102005
  0
LINE
  8
0
  6
CONTINUOUS
 62
256
 10
-262.242858656585440
 20
-108.541992648622680
 11
-262.242858656585440
 21
-105.492156990783760
  0
LINE
  8
0
  6
CONTINUOUS
 62
256
 10
-262.242858656585440
 20
-117.127350439527850
 11
-262.242858656585440
 21
-114.103564480901450
  0
ARC
  8
0
  6
CONTINUOUS
 62
256
 10
-269.141387926974630
 20
-89.220504927692673
 40
0.999999999999885
 50
300.000000000003810
 51
8.381727577845361
  0
ARC
  8
0
  6
CONTINUOUS
 62
256
 10
-259.742858656585440
 20
-87.835713407774165
 40
8.499999999999972
 50
171.618272422157790
 51
188.381727577842210
  0
LINE
  8
0
  6
CONTINUOUS
 62
256
 10
-271.385163501998930
 20
-91.670649898313059
 11
-268.641387926974630
 21
-90.086530331476979
  0
ARC
  8
0
  6
CONTINUOUS
 62
256
 10
-271.885163501998930
 20
-90.804624494528753
 40
0.999999999999879
 50
193.739795291686020
 51
300.000000000003810
  0
ARC
  8
0
  6
CONTINUOUS
 62
256
 10
-263.242858656585440
 20
-70.179269824764560
 40
0.999999999999982
 50
281.212271417643990
 51
0.000000000000000
  0
LINE
  8
0
  6
CONTINUOUS
 62
256
 10
-262.242858656585440
 20
-67.129434166925648
 11
-262.242858656585440
 21
-70.179269824764560
  0
ARC
  8
0
  6
CONTINUOUS
 62
256
 10
-263.242858656585440
 20
-67.129434166925648
 40
1.000000000000000
 50
0.000000000000000
 51
99.594068226874853
  0
ARC
  8
0
  6
CONTINUOUS
 62
256
 10
-263.242858656585440
 20
-61.567862334646861
 40
0.999999999999749
 50
277.589542391855960
 51
0.000000000013028
  0
LINE
  8
0
  6
CONTINUOUS
 62
256
 10
-262.242858656585440
 20
-58.544076376020485
 11
-262.242858656585440
 21
-61.567862334646634
  0
ARC
  8
0
  6
CONTINUOUS
 62
256
 10
-263.242858656585440
 20
-58.544076376020485
 40
1.000000000000000
 50
0.000000000000000
 51
96.813854344180214
  0
ARC
  8
0
  6
CONTINUOUS
 62
256
 10
-263.242858656585440
 20
-53.011153109042425
 40
0.999999999999973
 50
275.739170477261670
 51
0.000000000000000
  0
LINE
  8
0
  6
CONTINUOUS
 62
256
 10
-262.242858656585440
 20
-49.997240922749143
 11
-262.242858656585440
 21
-53.011153109042425
  0
ARC
  8
0
  6
CONTINUOUS
 62
256
 10
-263.242858656585440
 20
-49.997240922749143
 40
1.000000000000000
 50
0.000000000000000
 51
95.284732954535926
  0
ARC
  8
0
  6
CONTINUOUS
 62
256
 10
-283.360160444517310
 20
-70.158805978651799
 40
0.999999999999774
 50
143.186145655813330
 51
240.000000000003440
  0
LINE
  8
0
  6
CONTINUOUS
 62
256
 10
-283.860160444517310
 20
-71.024831382436332
 11
-281.241484988739780
 21
-72.536724361749521
  0
ARC
  8
0
  6
CONTINUOUS
 62
256
 10
-280.741484988739780
 20
-71.670698957964987
 40
1.000000000000082
 50
240.000000000002670
 51
322.410457608131140
  0
ARC
  8
0
  6
CONTINUOUS
 62
256
 10
-290.761937069015630
 20
-65.885388252016128
 40
0.999999999999908
 50
144.715267045455050
 51
239.999999999996560
  0
LINE
  8
0
  6
CONTINUOUS
 62
256
 10
-291.261937069015630
 20
-66.751413655800434
 11
-288.651812550909880
 21
-68.258369748947189
  0
ARC
  8
0
  6
CONTINUOUS
 62
256
 10
-288.151812550909880
 20
-67.392344345162883
 40
0.999999999999885
 50
239.999999999996160
 51
324.260829522725320
  0
ARC
  8
0
  6
CONTINUOUS
 62
256
 10
-265.641387926974630
 20
-80.388744061364605
 40
1.000000000000082
 50
240.000000000002670
 51
308.381727577839230
  0
LINE
  8
0
  6
CONTINUOUS
 62
256
 10
-268.885163501998930
 20
-79.670649898313059
 11
-266.141387926974630
 21
-81.254769465149138
  0
ARC
  8
0
  6
CONTINUOUS
 62
256
 10
-273.283787339958280
 20
-75.976402703023950
 40
0.999999999999885
 50
239.999999999996160
 51
318.787728582349130
  0
LINE
  8
0
  6
CONTINUOUS
 62
256
 10
-276.425022497014420
 20
-75.317510277888687
 11
-273.783787339958280
 21
-76.842428106808256
  0
ARC
  8
0
  6
CONTINUOUS
 62
256
 10
-275.925022497014420
 20
-74.451484874104153
 40
1.000000000000173
 50
140.405931773149600
 51
240.000000000002330
  0
ARC
  8
0
  6
CONTINUOUS
 62
256
 10
-263.242858656585440
 20
-79.003952541446324
 40
1.000000000000090
 50
291.618272422162020
 51
0.000000000000000
  0
ARC
  8
0
  6
CONTINUOUS
 62
256
 10
-259.742858656585440
 20
-87.835713407774165
 40
8.499999999999904
 50
111.618272422157720
 51
128.381727577841810
  0
ARC
  8
0
  6
CONTINUOUS
 62
256
 10
-268.385163501998930
 20
-78.804624494528753
 40
0.999999999999858
 50
133.739795291671330
 51
239.999999999995340
  0
LINE
  8
0
  6
CONTINUOUS
 62
256
 10
-262.242858656585440
 20
-75.835713407774165
 11
-262.242858656585440
 21
-79.003952541446324
  0
ARC
  8
0
  6
CONTINUOUS
 62
256
 10
-263.242858656585440
 20
-75.835713407774165
 40
1.000000000000000
 50
0.000000000000000
 51
106.260204708296920
  0
ARC
  8
0
  6
CONTINUOUS
 62
256
 10
-259.742858656585440
 20
-87.835713407774165
 40
13.499999999999963
 50
106.260204708310880
 51
133.739795291687780
  0
ARC
  8
0
  6
CONTINUOUS
 62
256
 10
-259.742858656585440
 20
-87.835713407774165
 40
17.000000000000046
 50
101.212271417650020
 51
138.787728582350240
  0
ARC
  8
0
  6
CONTINUOUS
 62
256
 10
-259.742858656585440
 20
-87.835713407774165
 40
22.000000000000131
 50
99.594068226861211
 51
140.405931773139140
  0
ARC
  8
0
  6
CONTINUOUS
 62
256
 10
-259.742858656585440
 20
-87.835713407774165
 40
30.500000000000135
 50
96.813854344181038
 51
143.186145655818930
  0
ARC
  8
0
  6
CONTINUOUS
 62
256
 10
-259.742858656585440
 20
-87.835713407774165
 40
25.500000000000160
 50
97.589542391858117
 51
142.410457608142050
  0
ARC
  8
0
  6
CONTINUOUS
 62
256
 10
-259.742858656585440
 20
-87.835713407774165
 40
34.000000000000071
 50
95.739170477266939
 51
144.260829522733360
  0
ARC
  8
0
  6
CONTINUOUS
 62
256
 10
-259.742858656585440
 20
-87.835713407774165
 40
38.999999999999986
 50
95.284732954534590
 51
144.715267045465230
  0
ARC
  8
0
  6
CONTINUOUS
 62
256
 10
-286.860160444517310
 20
-76.220983805142851
 40
1.000000000000082
 50
60.000000000002721
 51
156.813854344180360
  0
LINE
  8
0
  6
CONTINUOUS
 62
256
 10
-286.360160444517310
 20
-75.354958401358317
 11
-283.741484988739780
 21
-76.866851380671505
  0
ARC
  8
0
  6
CONTINUOUS
 62
256
 10
-284.241484988739780
 20
-77.732876784456039
 40
0.999999999999701
 50
337.589542391853970
 51
60.000000000001812
  0
ARC
  8
0
  6
CONTINUOUS
 62
256
 10
-294.261937069015630
 20
-71.947566078507180
 40
1.000000000000082
 50
60.000000000002721
 51
155.284732954544150
  0
LINE
  8
0
  6
CONTINUOUS
 62
256
 10
-293.761937069015630
 20
-71.081540674722646
 11
-291.151812550909880
 21
-72.588496767869401
  0
ARC
  8
0
  6
CONTINUOUS
 62
256
 10
-291.651812550909880
 20
-73.454522171653707
 40
0.999999999999863
 50
335.739170477254390
 51
59.999999999995801
  0
ARC
  8
0
  6
CONTINUOUS
 62
256
 10
-269.141387926974630
 20
-86.450921887855884
 40
1.000000000000026
 50
351.618272422167310
 51
60.000000000001499
  0
LINE
  8
0
  6
CONTINUOUS
 62
256
 10
-271.385163501998930
 20
-84.000776917235271
 11
-268.641387926974630
 21
-85.584896484071351
  0
ARC
  8
0
  6
CONTINUOUS
 62
256
 10
-276.783787339958280
 20
-82.038580529515002
 40
1.000000000000076
 50
341.212271417653030
 51
60.000000000002721
  0
LINE
  8
0
  6
CONTINUOUS
 62
256
 10
-278.925022497014880
 20
-79.647637296811126
 11
-276.283787339958280
 21
-81.172555125730469
  0
ARC
  8
0
  6
CONTINUOUS
 62
256
 10
-279.425022497014880
 20
-80.513662700595432
 40
0.999999999999885
 50
59.999999999996206
 51
159.594068226861740
  0
ARC
  8
0
  6
CONTINUOUS
 62
256
 10
-271.885163501998930
 20
-84.866802321019577
 40
0.999999999999885
 50
59.999999999996206
 51
166.260204708308440
  0
ARC
  8
0
  6
CONTINUOUS
 62
256
 10
-259.742858656585440
 20
-87.835713407774165
 40
13.499999999999687
 50
166.260204708311360
 51
193.739795291688210
  0
ARC
  8
0
  6
CONTINUOUS
 62
256
 10
-259.742858656585440
 20
-87.835713407774165
 40
16.999999999999716
 50
161.212271417649590
 51
198.787728582350440
  0
ARC
  8
0
  6
CONTINUOUS
 62
256
 10
-259.742858656585440
 20
-87.835713407774165
 40
22.000000000000206
 50
159.594068226860770
 51
200.405931773139230
  0
ARC
  8
0
  6
CONTINUOUS
 62
256
 10
-259.742858656585440
 20
-87.835713407774165
 40
30.499999999999954
 50
156.813854344181150
 51
203.186145655818820
  0
ARC
  8
0
  6
CONTINUOUS
 62
256
 10
-259.742858656585440
 20
-87.835713407774165
 40
25.500000000000000
 50
157.589542391858000
 51
202.410457608142480
  0
ARC
  8
0
  6
CONTINUOUS
 62
256
 10
-259.742858656585440
 20
-87.835713407774165
 40
34.000000000000007
 50
155.739170477266780
 51
204.260829522733220
  0
ARC
  8
0
  6
CONTINUOUS
 62
256
 10
-259.742858656585440
 20
-87.835713407774165
 40
39.000000000000220
 50
155.284732954534800
 51
204.715267045465200
  0
LINE
  8
0
  6
CONTINUOUS
 62
256
 10
-257.242858656585440
 20
-117.127350439527850
 11
-257.242858656585440
 21
-114.103564480901450
  0
LINE
  8
0
  6
CONTINUOUS
 62
256
 10
-257.242858656585440
 20
-108.541992648622680
 11
-257.242858656585440
 21
-105.492156990783760
  0
LINE
  8
0
  6
CONTINUOUS
 62
256
 10
-257.242858656585440
 20
-99.835713407774165
 11
-257.242858656585440
 21
-96.667474274102005
  0
LINE
  8
0
  6
CONTINUOUS
 62
256
 10
-250.600553811171950
 20
-96.000776917235271
 11
-253.344329386196250
 21
-94.416657350399191
  0
LINE
  8
0
  6
CONTINUOUS
 62
256
 10
-243.060694816156460
 20
-100.353916537659640
 11
-245.701929973212600
 21
-98.828998708740073
  0
LINE
  8
0
  6
CONTINUOUS
 62
256
 10
-228.223780244155250
 20
-108.920013159747900
 11
-230.833904762261000
 21
-107.413057066601140
  0
LINE
  8
0
  6
CONTINUOUS
 62
256
 10
-257.242858656585440
 20
-125.674185892799190
 11
-257.242858656585440
 21
-122.660273706505900
  0
LINE
  8
0
  6
CONTINUOUS
 62
256
 10
-235.625556868653580
 20
-104.646595433111980
 11
-238.244232324430640
 21
-103.134702453798790
  0
ARC
  8
0
  6
CONTINUOUS
 62
256
 10
-259.742858656585440
 20
-87.835713407774165
 40
8.499999999999904
 50
291.618272422157700
 51
308.381727577842580
  0
ARC
  8
0
  6
CONTINUOUS
 62
256
 10
-259.742858656585440
 20
-87.835713407774165
 40
13.499999999999963
 50
286.260204708310820
 51
313.739795291687870
  0
ARC
  8
0
  6
CONTINUOUS
 62
256
 10
-259.742858656585440
 20
-87.835713407774165
 40
17.000000000000046
 50
281.212271417650020
 51
318.787728582350210
  0
ARC
  8
0
  6
CONTINUOUS
 62
256
 10
-259.742858656585440
 20
-87.835713407774165
 40
22.000000000000131
 50
279.594068226861170
 51
320.405931773139170
  0
ARC
  8
0
  6
CONTINUOUS
 62
256
 10
-259.742858656585440
 20
-87.835713407774165
 40
25.499999999999932
 50
277.589542391858170
 51
322.410457608142050
  0
ARC
  8
0
  6
CONTINUOUS
 62
256
 10
-259.742858656585440
 20
-87.835713407774165
 40
34.000000000000071
 50
275.739170477266950
 51
324.260829522733050
  0
ARC
  8
0
  6
CONTINUOUS
 62
256
 10
-259.742858656585440
 20
-87.835713407774165
 40
30.500000000000135
 50
276.813854344181040
 51
323.186145655818850
  0
ARC
  8
0
  6
CONTINUOUS
 62
256
 10
-259.742858656585440
 20
-87.835713407774165
 40
38.999999999999986
 50
275.284732954534600
 51
324.715267045465230
  0
ARC
  8
0
  6
CONTINUOUS
 62
256
 10
-253.844329386196250
 20
-95.282682754183497
 40
0.999999999999885
 50
59.999999999996206
 51
128.381727577839710
  0
ARC
  8
0
  6
CONTINUOUS
 62
256
 10
-256.242858656585440
 20
-96.667474274102005
 40
1.000000000000090
 50
111.618272422161990
 51
180.000000000000000
  0
ARC
  8
0
  6
CONTINUOUS
 62
256
 10
-256.242858656585440
 20
-99.835713407774165
 40
1.000000000000000
 50
180.000000000000000
 51
286.260204708296900
  0
ARC
  8
0
  6
CONTINUOUS
 62
256
 10
-251.100553811171950
 20
-96.866802321019577
 40
0.999999999999858
 50
313.739795291671330
 51
59.999999999995389
  0
ARC
  8
0
  6
CONTINUOUS
 62
256
 10
-246.201929973212600
 20
-99.695024112524607
 40
1.000000000000082
 50
60.000000000002721
 51
138.787728582339180
  0
ARC
  8
0
  6
CONTINUOUS
 62
256
 10
-243.560694816156460
 20
-101.219941941443930
 40
1.000000000000318
 50
320.405931773139570
 51
59.999999999995502
  0
ARC
  8
0
  6
CONTINUOUS
 62
256
 10
-256.242858656585440
 20
-105.492156990783760
 40
0.999999999999982
 50
101.212271417644000
 51
180.000000000000000
  0
ARC
  8
0
  6
CONTINUOUS
 62
256
 10
-256.242858656585440
 20
-108.541992648622680
 40
1.000000000000000
 50
180.000000000000000
 51
279.594068226874810
  0
ARC
  8
0
  6
CONTINUOUS
 62
256
 10
-256.242858656585440
 20
-117.127350439527850
 40
1.000000000000000
 50
180.000000000000000
 51
276.813854344180130
  0
ARC
  8
0
  6
CONTINUOUS
 62
256
 10
-238.744232324430640
 20
-104.000727857583340
 40
1.000000000000082
 50
60.000000000002721
 51
142.410457608148480
  0
ARC
  8
0
  6
CONTINUOUS
 62
256
 10
-236.125556868653580
 20
-105.512620836896300
 40
0.999999999999911
 50
323.186145655802870
 51
59.999999999997016
  0
ARC
  8
0
  6
CONTINUOUS
 62
256
 10
-256.242858656585440
 20
-114.103564480901450
 40
0.999999999999975
 50
97.589542391854238
 51
180.000000000000000
  0
ARC
  8
0
  6
CONTINUOUS
 62
256
 10
-256.242858656585440
 20
-125.674185892799190
 40
1.000000000000000
 50
180.000000000000000
 51
275.284732954535910
  0
ARC
  8
0
  6
CONTINUOUS
 62
256
 10
-256.242858656585440
 20
-122.660273706505900
 40
0.999999999999973
 50
95.739170477261709
 51
180.000000000000000
  0
ARC
  8
0
  6
CONTINUOUS
 62
256
 10
-231.333904762261000
 20
-108.279082470385450
 40
0.999999999999885
 50
59.999999999996206
 51
144.260829522736400
  0
ARC
  8
0
  6
CONTINUOUS
 62
256
 10
-228.723780244155250
 20
-109.786038563532410
 40
0.999999999999776
 50
324.715267045465680
 51
60.000000000002032
  0
CIRCLE
  8
0
  6
CONTINUOUS
 62
256
 10
-259.742858656585440
 20
-87.835713407774165
 40
5.000000000000000
  0
ARC
  8
0
  6
CONTINUOUS
 62
256
 10
-225.223780244155250
 20
-103.723860737041150
 40
0.999999999999885
 50
239.999999999996160
 51
335.284732954544490
  0
LINE
  8
0
  6
CONTINUOUS
 62
256
 10
-225.723780244155250
 20
-104.589886140825460
 11
-228.333904762261000
 21
-103.082930047678910
  0
ARC
  8
0
  6
CONTINUOUS
 62
256
 10
-259.742858656585440
 20
-87.835713407774165
 40
39.000000000000220
 50
335.284732954534830
 51
24.715267045465190
  0
ARC
  8
0
  6
CONTINUOUS
 62
256
 10
-259.742858656585440
 20
-87.835713407774165
 40
34.000000000000007
 50
335.739170477266780
 51
24.260829522733218
  0
ARC
  8
0
  6
CONTINUOUS
 62
256
 10
-259.742858656585440
 20
-87.835713407774165
 40
25.500000000000085
 50
337.589542391857490
 51
22.410457608142003
  0
ARC
  8
0
  6
CONTINUOUS
 62
256
 10
-259.742858656585440
 20
-87.835713407774165
 40
30.499999999999954
 50
336.813854344181150
 51
23.186145655818844
  0
ARC
  8
0
  6
CONTINUOUS
 62
256
 10
-232.625556868653580
 20
-99.450443010405479
 40
1.000000000000082
 50
240.000000000002670
 51
336.813854344179730
  0
LINE
  8
0
  6
CONTINUOUS
 62
256
 10
-233.125556868653580
 20
-100.316468414190010
 11
-235.744232324431100
 21
-98.804575434877052
  0
ARC
  8
0
  6
CONTINUOUS
 62
256
 10
-259.742858656585440
 20
-87.835713407774165
 40
22.000000000000206
 50
339.594068226860770
 51
20.405931773139223
  0
ARC
  8
0
  6
CONTINUOUS
 62
256
 10
-227.833904762261000
 20
-102.216904643894400
 40
0.999999999999769
 50
155.739170477266270
 51
240.000000000003440
  0
ARC
  8
0
  6
CONTINUOUS
 62
256
 10
-235.244232324431100
 20
-97.938550031092518
 40
0.999999999999701
 50
157.589542391853970
 51
240.000000000003180
  0
ARC
  8
0
  6
CONTINUOUS
 62
256
 10
-240.060694816156000
 20
-95.157764114952897
 40
0.999999999999885
 50
239.999999999996160
 51
339.594068226861170
  0
ARC
  8
0
  6
CONTINUOUS
 62
256
 10
-259.742858656585440
 20
-87.835713407774165
 40
17.000000000000146
 50
341.212271417650070
 51
18.787728582350436
  0
LINE
  8
0
  6
CONTINUOUS
 62
256
 10
-240.560694816156000
 20
-96.023789518737203
 11
-243.201929973212600
 21
-94.498871689817634
  0
ARC
  8
0
  6
CONTINUOUS
 62
256
 10
-242.701929973212600
 20
-93.632846286033327
 40
0.999999999999646
 50
161.212271417644640
 51
239.999999999995770
  0
ARC
  8
0
  6
CONTINUOUS
 62
256
 10
-259.742858656585440
 20
-87.835713407774165
 40
13.500000000000130
 50
346.260204708311850
 51
13.739795291688171
  0
ARC
  8
0
  6
CONTINUOUS
 62
256
 10
-247.600553811171950
 20
-90.804624494528753
 40
0.999999999999885
 50
239.999999999996160
 51
346.260204708314010
  0
LINE
  8
0
  6
CONTINUOUS
 62
256
 10
-248.100553811171950
 20
-91.670649898313059
 11
-250.844329386196250
 21
-90.086530331476979
  0
ARC
  8
0
  6
CONTINUOUS
 62
256
 10
-247.600553811171950
 20
-84.866802321019577
 40
0.999999999999879
 50
13.739795291686027
 51
120.000000000003810
  0
ARC
  8
0
  6
CONTINUOUS
 62
256
 10
-259.742858656585440
 20
-87.835713407774165
 40
8.499999999999972
 50
351.618272422157820
 51
8.381727577842204
  0
ARC
  8
0
  6
CONTINUOUS
 62
256
 10
-250.344329386196250
 20
-89.220504927692673
 40
1.000000000000059
 50
171.618272422154460
 51
239.999999999996480
  0
ARC
  8
0
  6
CONTINUOUS
 62
256
 10
-240.060694816156000
 20
-80.513662700595432
 40
1.000000000000094
 50
20.405931773138683
 51
120.000000000004160
  0
LINE
  8
0
  6
CONTINUOUS
 62
256
 10
-240.560694816156000
 20
-79.647637296811126
 11
-243.201929973212600
 21
-81.172555125730469
  0
ARC
  8
0
  6
CONTINUOUS
 62
256
 10
-242.701929973212600
 20
-82.038580529515002
 40
1.000000000000082
 50
119.999999999997300
 51
198.787728582347000
  0
LINE
  8
0
  6
CONTINUOUS
 62
256
 10
-248.100553811171950
 20
-84.000776917235271
 11
-250.844329386196250
 21
-85.584896484071351
  0
ARC
  8
0
  6
CONTINUOUS
 62
256
 10
-250.344329386196250
 20
-86.450921887855884
 40
1.000000000000082
 50
119.999999999997300
 51
188.381727577833000
  0
ARC
  8
0
  6
CONTINUOUS
 62
256
 10
-227.833904762261000
 20
-73.454522171653707
 40
0.999999999999885
 50
120.000000000003810
 51
204.260829522745640
  0
LINE
  8
0
  6
CONTINUOUS
 62
256
 10
-225.723780244155250
 20
-71.081540674722646
 11
-228.333904762261000
 21
-72.588496767869401
  0
ARC
  8
0
  6
CONTINUOUS
 62
256
 10
-225.223780244155250
 20
-71.947566078507180
 40
1.000000000000249
 50
24.715267045455473
 51
119.999999999997440
  0
ARC
  8
0
  6
CONTINUOUS
 62
256
 10
-235.244232324431100
 20
-77.732876784456039
 40
1.000000000000082
 50
119.999999999997300
 51
202.410457608146120
  0
LINE
  8
0
  6
CONTINUOUS
 62
256
 10
-233.125556868653580
 20
-75.354958401358317
 11
-235.744232324431100
 21
-76.866851380671505
  0
ARC
  8
0
  6
CONTINUOUS
 62
256
 10
-232.625556868653580
 20
-76.220983805142851
 40
0.999999999999730
 50
23.186145655819846
 51
119.999999999997370
  0
ARC
  8
0
  6
CONTINUOUS
 62
256
 10
-259.742858656585440
 20
-87.835713407774165
 40
38.999999999999865
 50
35.284732954534789
 51
84.715267045465410
  0
ARC
  8
0
  6
CONTINUOUS
 62
256
 10
-259.742858656585440
 20
-87.835713407774165
 40
33.999999999999829
 50
35.739170477266640
 51
84.260829522733033
  0
ARC
  8
0
  6
CONTINUOUS
 62
256
 10
-259.742858656585440
 20
-87.835713407774165
 40
25.499999999999890
 50
37.589542391857954
 51
82.410457608141925
  0
ARC
  8
0
  6
CONTINUOUS
 62
256
 10
-259.742858656585440
 20
-87.835713407774165
 40
30.499999999999964
 50
36.813854344181067
 51
83.186145655818933
  0
ARC
  8
0
  6
CONTINUOUS
 62
256
 10
-259.742858656585440
 20
-87.835713407774165
 40
22.000000000000025
 50
39.594068226860820
 51
80.405931773138747
  0
ARC
  8
0
  6
CONTINUOUS
 62
256
 10
-259.742858656585440
 20
-87.835713407774165
 40
17.000000000000114
 50
41.212271417649752
 51
78.787728582350027
  0
ARC
  8
0
  6
CONTINUOUS
 62
256
 10
-259.742858656585440
 20
-87.835713407774165
 40
13.499999999999927
 50
46.260204708312138
 51
73.739795291689092
  0
ARC
  8
0
  6
CONTINUOUS
 62
256
 10
-256.242858656585440
 20
-75.835713407774165
 40
0.999999999999964
 50
73.739795291702634
 51
180.000000000000000
  0
LINE
  8
0
  6
CONTINUOUS
 62
256
 10
-257.242858656585440
 20
-75.835713407774165
 11
-257.242858656585440
 21
-79.003952541446324
  0
ARC
  8
0
  6
CONTINUOUS
 62
256
 10
-251.100553811171950
 20
-78.804624494528753
 40
0.999999999999885
 50
300.000000000003810
 51
46.260204708328082
  0
ARC
  8
0
  6
CONTINUOUS
 62
256
 10
-259.742858656585440
 20
-87.835713407774165
 40
8.500000000000128
 50
51.618272422158320
 51
68.381727577842469
  0
ARC
  8
0
  6
CONTINUOUS
 62
256
 10
-256.242858656585440
 20
-79.003952541446324
 40
1.000000000000000
 50
180.000000000000000
 51
248.381727577839200
  0
ARC
  8
0
  6
CONTINUOUS
 62
256
 10
-243.560694816156460
 20
-74.451484874104153
 40
1.000000000000082
 50
299.999999999997270
 51
39.594068226849963
  0
LINE
  8
0
  6
CONTINUOUS
 62
256
 10
-243.060694816156460
 20
-75.317510277888687
 11
-245.701929973212600
 21
-76.842428106808256
  0
ARC
  8
0
  6
CONTINUOUS
 62
256
 10
-246.201929973212600
 20
-75.976402703023950
 40
0.999999999999673
 50
221.212271417651180
 51
300.000000000003410
  0
LINE
  8
0
  6
CONTINUOUS
 62
256
 10
-250.600553811171950
 20
-79.670649898313059
 11
-253.344329386196250
 21
-81.254769465149138
  0
ARC
  8
0
  6
CONTINUOUS
 62
256
 10
-253.844329386196250
 20
-80.388744061364605
 40
0.999999999999961
 50
231.618272422159780
 51
299.999999999997330
  0
ARC
  8
0
  6
CONTINUOUS
 62
256
 10
-231.333904762261000
 20
-67.392344345162883
 40
0.999999999999940
 50
215.739170477274090
 51
300.000000000003980
  0
LINE
  8
0
  6
CONTINUOUS
 62
256
 10
-228.223780244155250
 20
-66.751413655800434
 11
-230.833904762261000
 21
-68.258369748947189
  0
ARC
  8
0
  6
CONTINUOUS
 62
256
 10
-228.723780244155250
 20
-65.885388252016128
 40
0.999999999999885
 50
300.000000000003810
 51
35.284732954545220
  0
ARC
  8
0
  6
CONTINUOUS
 62
256
 10
-238.744232324431100
 20
-71.670698957964987
 40
0.999999999999834
 50
217.589542391867670
 51
299.999999999997730
  0
LINE
  8
0
  6
CONTINUOUS
 62
256
 10
-235.625556868653580
 20
-71.024831382436332
 11
-238.244232324431100
 21
-72.536724361749521
  0
ARC
  8
0
  6
CONTINUOUS
 62
256
 10
-236.125556868653580
 20
-70.158805978651799
 40
1.000000000000082
 50
299.999999999997270
 51
36.813854344186382
  0
ARC
  8
0
  6
CONTINUOUS
 62
256
 10
-256.242858656585440
 20
-49.997240922749143
 40
1.000000000000042
 50
84.715267045464316
 51
180.000000000000000
  0
LINE
  8
0
  6
CONTINUOUS
 62
256
 10
-257.242858656585440
 20
-49.997240922749143
 11
-257.242858656585440
 21
-53.011153109042425
  0
ARC
  8
0
  6
CONTINUOUS
 62
256
 10
-256.242858656585440
 20
-53.011153109042425
 40
1.000000000000000
 50
180.000000000000000
 51
264.260829522738450
  0
ARC
  8
0
  6
CONTINUOUS
 62
256
 10
-256.242858656585440
 20
-58.544076376020485
 40
1.000000000000077
 50
83.186145655820326
 51
180.000000000000000
  0
LINE
  8
0
  6
CONTINUOUS
 62
256
 10
-257.242858656585440
 20
-58.544076376020485
 11
-257.242858656585440
 21
-61.567862334646634
  0
ARC
  8
0
  6
CONTINUOUS
 62
256
 10
-256.242858656585440
 20
-61.567862334646861
 40
1.000000000000000
 50
179.999999999986980
 51
262.410457608142680
  0
ARC
  8
0
  6
CONTINUOUS
 62
256
 10
-256.242858656585440
 20
-67.129434166925648
 40
1.000000000000268
 50
80.405931773124522
 51
180.000000000000000
  0
LINE
  8
0
  6
CONTINUOUS
 62
256
 10
-257.242858656585440
 20
-67.129434166925648
 11
-257.242858656585440
 21
-70.179269824764560
  0
ARC
  8
0
  6
CONTINUOUS
 62
256
 10
-256.242858656585440
 20
-70.179269824764560
 40
1.000000000000000
 50
180.000000000000000
 51
258.787728582356180
  0
ARC
  8
0
  6
CONTINUOUS
 62
256
 10
-241.742858656585550
 20
-76.292345115543753
 40
45.000000000000000
 50
24.214092770229346
 51
31.509835269580407
  0
ARC
  8
0
  6
CONTINUOUS
 62
256
 10
-241.742858656585550
 20
-76.292345115543753
 40
45.000000000000014
 50
64.845487626985800
 51
87.093615629290099
  0
LINE
  8
0
  6
CONTINUOUS
 62
256
 10
-232.992842677824110
 20
-34.729825728926073
 11
-232.992842677824110
 21
-32.980250961601200
  0
LINE
  8
0
  6
CONTINUOUS
 62
256
 10
-196.742858656585550
 20
-117.835713407774160
 11
-196.742858656585550
 21
-129.594060487055570
  0
ARC
  8
0
  6
CONTINUOUS
 62
256
 10
-216.742858656585550
 20
-108.255917383396880
 40
20.000000000000000
 50
314.999999999999550
 51
331.380554893773480
  0
ARC
  8
0
  6
CONTINUOUS
 62
256
 10
-227.742842677824110
 20
-38.835713407774165
 40
4.249999046324875
 50
55.969368198859584
 51
114.781478127107150
  0
ARC
  8
0
  6
CONTINUOUS
 62
256
 10
-277.742858656585550
 20
-76.292345115543753
 40
44.999999999999915
 50
92.906384370709901
 51
115.154512373014270
  0
LINE
  8
0
  6
CONTINUOUS
 62
256
 10
-286.492842677824110
 20
-34.729823590194201
 11
-286.492842677824110
 21
-32.980250961601200
  0
ARC
  8
0
  6
CONTINUOUS
 62
256
 10
-291.742842677824110
 20
-38.835713407774165
 40
4.249999046325360
 50
65.218588681291848
 51
124.030555795935090
  0
ARC
  8
0
  6
CONTINUOUS
 62
256
 10
-277.742858656585550
 20
-76.292345115543753
 40
44.999999999999986
 50
148.490164730418230
 51
180.000000000000000
  0
ARC
  8
0
  6
CONTINUOUS
 62
256
 10
-314.742842677824110
 20
-66.835713407774278
 40
4.999999999999968
 50
126.240697575483220
 51
180.000000000000000
  0
ARC
  8
0
  6
CONTINUOUS
 62
256
 10
-314.742842677824110
 20
-66.835713407774278
 40
5.000000000000000
 50
180.000000000000000
 51
225.659458187388340
  0
LINE
  8
0
  6
CONTINUOUS
 62
256
 10
-318.404906707949750
 20
-73.585713407774278
 11
-321.586438349061610
 21
-73.585713407774278
  0
LINE
  8
0
  6
CONTINUOUS
 62
256
 10
-318.719467027895350
 20
-84.085713407774278
 11
-321.742842677824110
 21
-84.085713407774278
  0
LINE
  8
0
  6
CONTINUOUS
 62
256
 10
-319.742824785109970
 20
-77.681017652572734
 11
-318.547162307750450
 21
-76.990698522655748
  0
LINE
  8
0
  6
CONTINUOUS
 62
256
 10
-319.742825509284440
 20
-79.990412718511436
 11
-318.656188571874510
 21
-80.617781347660639
  0
ARC
  8
0
  6
CONTINUOUS
 62
256
 10
-317.742826699062900
 20
-78.835713407774278
 40
4.249999046325202
 50
99.623734769746221
 51
256.934963210617070
  0
LINE
  8
0
  6
CONTINUOUS
 62
256
 10
-315.941762054637250
 20
-123.341285232807290
 11
-316.884994280316390
 21
-122.398053007128150
  0
ARC
  8
0
  6
CONTINUOUS
 62
256
 10
-293.742826699062900
 20
-138.335713407774160
 40
6.999999999999976
 50
191.237020376271430
 51
214.849904579047720
  0
LINE
  8
0
  6
CONTINUOUS
 62
256
 10
-303.242865340752250
 20
-142.835713407774280
 11
-303.242865340752250
 21
-138.454014856157330
  0
ARC
  8
0
  6
CONTINUOUS
 62
256
 10
-287.979512873504630
 20
-103.927380074440980
 40
35.500000000000128
 50
225.000000000000630
 51
231.287391892914830
  0
ARC
  8
0
  6
CONTINUOUS
 62
256
 10
-293.742842677824340
 20
-138.335713407774050
 40
6.999999999999925
 50
191.236989300047580
 51
220.005146632323030
  0
LINE
  8
0
  6
CONTINUOUS
 62
256
 10
-293.742824396871240
 20
-140.645110608621050
 11
-293.357900097337730
 21
-140.422873758575520
  0
LINE
  8
0
  6
CONTINUOUS
 62
256
 10
-294.261299813784940
 20
-140.345769933636290
 11
-293.742824755171450
 21
-140.645110932982160
  0
ARC
  8
0
  6
CONTINUOUS
 62
256
 10
-293.742826699062900
 20
-138.335713407774160
 40
4.249999046325052
 50
203.633554367305270
 51
326.578910144748250
  0
ARC
  8
0
  6
CONTINUOUS
 62
256
 10
-293.742842677824340
 20
-138.335713407774050
 40
7.000000000000026
 50
319.994853367676850
 51
338.582462249805870
  0
LINE
  8
0
  6
CONTINUOUS
 62
256
 10
-225.742860958776990
 20
-140.645110608621050
 11
-226.127789326119630
 21
-140.422871410017360
  0
LINE
  8
0
  6
CONTINUOUS
 62
256
 10
-225.224379911013560
 20
-140.345766682671520
 11
-225.742860600476660
 21
-140.645110932982160
  0
ARC
  8
0
  6
CONTINUOUS
 62
256
 10
-225.742874635346770
 20
-138.335713407774050
 40
7.000000000000505
 50
201.417537750194010
 51
220.005146632323120
  0
ARC
  8
0
  6
CONTINUOUS
 62
256
 10
-225.742858656585330
 20
-138.335713407774160
 40
4.249999046325112
 50
213.421052387187270
 51
336.366492255661680
  0
ARC
  8
0
  6
CONTINUOUS
 62
256
 10
-225.742858656585330
 20
-138.335713407774160
 40
6.999999999999838
 50
201.417528342821670
 51
214.849904579047660
  0
ARC
  8
0
  6
CONTINUOUS
 62
256
 10
-225.742874635346540
 20
-138.335713407774050
 40
7.000000000000026
 50
319.994853367676850
 51
348.763010699952590
  0
LINE
  8
0
  6
CONTINUOUS
 62
256
 10
-203.543955258533400
 20
-123.341285232806630
 11
-202.600723032854720
 21
-122.398053007127940
  0
LINE
  8
0
  6
CONTINUOUS
 62
256
 10
-216.242851972418860
 20
-142.835713407774050
 11
-216.242851972418860
 21
-138.454014856157500
  0
ARC
  8
0
  6
CONTINUOUS
 62
256
 10
-231.506204439666480
 20
-103.927380074440730
 40
35.499999999999993
 50
308.712608107085150
 51
314.999999999999320
  0
LINE
  8
0
  6
DASHDOT
 62
256
 10
-259.742858656585440
 20
-21.672220658389392
 11
-259.742858656585440
 21
-149.025378184189210
  0
LINE
  8
0
  6
DASHDOT
 62
256
 10
-277.678188195321130
 20
-72.835713407774051
 11
-242.439518768653220
 21
-72.835713407774051
  0
LINE
  8
0
  6
DASHDOT
 62
256
 10
-330.759629332192050
 20
-87.835713407774165
 11
-163.123183241198490
 21
-87.835713407774165
  0
LINE
  8
0
  6
CONTINUOUS
 62
256
 10
49.354235632021187
 20
131.739553605888430
 11
49.354235632021187
 21
140.239551698539800
  0
LINE
  8
0
  6
CONTINUOUS
 62
256
 10
54.354235632021187
 20
140.239551698539800
 11
49.354235632021187
 21
140.239551698539800
  0
LINE
  8
0
  6
CONTINUOUS
 62
256
 10
54.354235632021187
 20
131.739553605888430
 11
49.354235632021187
 21
131.739553605888430
  0
LINE
  8
0
  6
CONTINUOUS
 62
256
 10
49.354235632021187
 20
76.239551698539799
 11
49.354235632021187
 21
67.739553605888432
  0
LINE
  8
0
  6
CONTINUOUS
 62
256
 10
54.354235632021187
 20
67.739553605888432
 11
49.354235632021187
 21
67.739553605888432
  0
LINE
  8
0
  6
CONTINUOUS
 62
256
 10
54.354235632021187
 20
76.239551698539799
 11
49.354235632021187
 21
76.239551698539799
  0
ARC
  8
0
  6
CONTINUOUS
 62
256
 10
107.854235632021300
 20
60.529294203792233
 40
1.999999999999740
 50
319.953303245398050
 51
0.000000000000000
  0
ARC
  8
0
  6
CONTINUOUS
 62
256
 10
107.854235632021300
 20
147.449811100634180
 40
2.000000000000000
 50
0.000000000000000
 51
40.046696754622253
  0
ARC
  8
0
  6
CONTINUOUS
 62
256
 10
101.854235632021300
 20
160.989552652213210
 40
9.999999999999819
 50
181.999999999998470
 51
270.000000000000000
  0
ARC
  8
0
  6
CONTINUOUS
 62
256
 10
89.856555774868411
 20
160.753590694983360
 40
2.000000000000022
 50
1.126707971723436
 51
67.010113198210234
  0
ARC
  8
0
  6
CONTINUOUS
 62
256
 10
71.109260796894432
 20
116.566047982032610
 40
49.999999999999957
 50
67.010113198202461
 51
87.999999999999460
  0
ARC
  8
0
  6
CONTINUOUS
 62
256
 10
101.854235632021300
 20
46.989552652213206
 40
10.000000000000000
 50
90.000000000000000
 51
178.873292028281720
  0
CIRCLE
  8
0
  6
CONTINUOUS
 62
256
 10
41.854235632021300
 20
46.989552652213206
 40
3.500000000000000
  0
CIRCLE
  8
0
  6
CONTINUOUS
 62
256
 10
101.854235632021300
 20
46.989552652213206
 40
3.500000000000000
  0
CIRCLE
  8
0
  6
CONTINUOUS
 62
256
 10
41.854235632021300
 20
46.989552652213206
 40
3.500000000000000
  0
ARC
  8
0
  6
CONTINUOUS
 62
256
 10
101.854235632021300
 20
46.989552652213206
 40
9.999999999999954
 50
97.216447257426452
 51
169.206675526603420
  0
ARC
  8
0
  6
CONTINUOUS
 62
256
 10
89.856555774868411
 20
47.225514609443053
 40
1.999999999999803
 50
292.989886801789740
 51
358.873292028276640
  0
ARC
  8
0
  6
CONTINUOUS
 62
256
 10
71.109260796894432
 20
91.413057322393797
 40
50.000000000000199
 50
317.780692710463370
 51
319.953303245374120
  0
ARC
  8
0
  6
CONTINUOUS
 62
256
 10
106.657014428894850
 20
59.158488472095996
 40
1.999999999999698
 50
272.000000000003920
 51
317.780692710462180
  0
ARC
  8
0
  6
CONTINUOUS
 62
256
 10
71.109260796894432
 20
91.413057322393797
 40
49.999999999999616
 50
272.000000000000510
 51
292.989886801797520
  0
ARC
  8
0
  6
CONTINUOUS
 62
256
 10
110.854235632021300
 20
122.989552652213210
 40
1.000000000000000
 50
0.000000000000000
 51
90.000000000000000
  0
ARC
  8
0
  6
CONTINUOUS
 62
256
 10
110.854235632021300
 20
124.989552652213210
 40
0.999999999999645
 50
196.601549599049580
 51
270.000000000000000
  0
CIRCLE
  8
0
  6
CONTINUOUS
 62
256
 10
41.854235632021300
 20
160.989552652213210
 40
3.500000000000000
  0
CIRCLE
  8
0
  6
CONTINUOUS
 62
256
 10
101.854235632021300
 20
160.989552652213210
 40
3.500000000000000
  0
CIRCLE
  8
0
  6
CONTINUOUS
 62
256
 10
41.854235632021300
 20
160.989552652213210
 40
3.500000000000000
  0
ARC
  8
0
  6
CONTINUOUS
 62
256
 10
71.109260796894432
 20
116.566047982032610
 40
50.000000000000334
 50
40.046696754626673
 51
42.219307289536658
  0
ARC
  8
0
  6
CONTINUOUS
 62
256
 10
106.657014428894850
 20
148.820616832330420
 40
2.000000000000186
 50
42.219307289537625
 51
87.999999999996135
  0
ARC
  8
0
  6
CONTINUOUS
 62
256
 10
110.854235632021300
 20
84.989552652213206
 40
1.000000000000000
 50
270.000000000000000
 51
0.000000000000000
  0
ARC
  8
0
  6
CONTINUOUS
 62
256
 10
110.854235632021300
 20
82.989552652213206
 40
1.000000000000000
 50
90.000000000000000
 51
163.398450400950540
  0
ARC
  8
0
  6
CONTINUOUS
 62
256
 10
33.854235632021300
 20
167.055115200406360
 40
1.999999999999839
 50
91.909152432987696
 51
180.000000000000000
  0
ARC
  8
0
  6
CONTINUOUS
 62
256
 10
109.854235632021300
 20
167.029159376372260
 40
2.000000000000000
 50
0.000000000000000
 51
88.854237161824017
  0
ARC
  8
0
  6
CONTINUOUS
 62
256
 10
109.854235632021300
 20
40.949945928054149
 40
1.999999999999710
 50
271.145762838176150
 51
0.000000000000000
  0
ARC
  8
0
  6
CONTINUOUS
 62
256
 10
33.854235632021300
 20
40.923990104020049
 40
2.000000000000000
 50
180.000000000000000
 51
268.090847567012250
  0
LINE
  8
0
  6
CONTINUOUS
 62
256
 10
33.787605971556331
 20
38.925100290061891
 11
61.854235632021300
 21
37.989545968046514
  0
LINE
  8
0
  6
CONTINUOUS
 62
256
 10
33.787605971556331
 20
169.054005014364520
 11
61.854235632021300
 21
169.989559336379900
  0
LINE
  8
0
  6
CONTINUOUS
 62
256
 10
111.854235632021300
 20
103.989552652213210
 11
111.854235632021300
 21
40.949945928054149
  0
LINE
  8
0
  6
CONTINUOUS
 62
256
 10
61.854235632021300
 20
37.989545968046514
 11
109.894227634420530
 21
38.950345808094426
  0
LINE
  8
0
  6
CONTINUOUS
 62
256
 10
61.854235632021300
 20
169.989559336379900
 11
109.894227634420530
 21
169.028759496331990
  0
LINE
  8
0
  6
CONTINUOUS
 62
256
 10
106.726813422299980
 20
57.159706818058112
 11
101.854235632020850
 21
56.989552652213206
  0
LINE
  8
0
  6
CONTINUOUS
 62
256
 10
109.854235632021300
 20
103.989552652213210
 11
109.854235632021300
 21
60.529294203792233
  0
LINE
  8
0
  6
DASHDOT
 62
256
 10
35.354235632021300
 20
46.989552652213206
 11
48.354235632021300
 21
46.989552652213206
  0
LINE
  8
0
  6
DASHDOT
 62
256
 10
41.854235632021300
 20
53.489552652213206
 11
41.854235632021300
 21
40.489552652213206
  0
LINE
  8
0
  6
DASHDOT
 62
256
 10
110.016628968345690
 20
46.989552652213206
 11
94.421284874986668
 21
46.989552652213206
  0
LINE
  8
0
  6
CONTINUOUS
 62
256
 10
72.854235632019936
 20
166.535589332987000
 11
59.854235632021300
 21
166.989559336379900
  0
LINE
  8
0
  6
CONTINUOUS
 62
256
 10
72.854235632019936
 20
41.443515971439410
 11
59.854235632021300
 21
40.989545968046514
  0
LINE
  8
0
  6
CONTINUOUS
 62
256
 10
60.386453041676759
 20
40.989545968046514
 11
59.854235632021300
 21
40.989545968046514
  0
LINE
  8
0
  6
CONTINUOUS
 62
256
 10
106.726813422299980
 20
150.819398486368300
 11
101.854235632020850
 21
150.989552652213210
  0
LINE
  8
0
  6
CONTINUOUS
 62
256
 10
111.854235632021300
 20
103.989552652213210
 11
111.854235632021300
 21
167.029159376372260
  0
LINE
  8
0
  6
CONTINUOUS
 62
256
 10
109.854235632021300
 20
103.989552652213210
 11
109.854235632021300
 21
147.449811100634180
  0
LINE
  8
0
  6
DASHDOT
 62
256
 10
35.354235632021300
 20
160.989552652213210
 11
48.354235632021300
 21
160.989552652213210
  0
LINE
  8
0
  6
DASHDOT
 62
256
 10
41.854235632021300
 20
154.489552652213210
 11
41.854235632021300
 21
167.489552652213210
  0
LINE
  8
0
  6
DASHDOT
 62
256
 10
110.016628968345690
 20
160.989552652213210
 11
94.421284874986668
 21
160.989552652213210
  0
LINE
  8
0
  6
CONTINUOUS
 62
256
 10
59.854235632021300
 20
103.989552652213210
 11
59.854235632021300
 21
167.007019721126200
  0
LINE
  8
0
  6
CONTINUOUS
 62
256
 10
59.854235632021300
 20
103.989552652213210
 11
59.854235632021300
 21
40.989545968046514
  0
LINE
  8
0
  6
CONTINUOUS
 62
256
 10
91.860327361830514
 20
160.640557685188470
 11
91.852436335372659
 21
160.866527117495930
  0
LINE
  8
0
  6
CONTINUOUS
 62
256
 10
138.854235631997650
 20
103.989552652213210
 11
138.854235631997650
 21
96.389552652212842
  0
LINE
  8
0
  6
CONTINUOUS
 62
256
 10
138.454235631997560
 20
95.989552652213206
 11
116.973850874268010
 21
95.989552652213206
  0
ARC
  8
0
  6
CONTINUOUS
 62
256
 10
138.454235631997560
 20
111.589552652213570
 40
0.400000000000091
 50
0.000000000000000
 51
90.000000000000000
  0
ARC
  8
0
  6
CONTINUOUS
 62
256
 10
138.454235631997560
 20
96.389552652212842
 40
0.399999999999636
 50
270.000000000000000
 51
0.000000000000000
  0
LINE
  8
0
  6
CONTINUOUS
 62
256
 10
138.854235631997650
 20
93.989552652213021
 11
138.854235631997650
 21
96.389552652212842
  0
LINE
  8
0
  6
CONTINUOUS
 62
256
 10
138.854235631997650
 20
93.989552652213021
 11
114.854235631997650
 21
93.989552652213021
  0
LINE
  8
0
  6
CONTINUOUS
 62
256
 10
138.454235631997560
 20
111.989552652213210
 11
116.973850874268010
 21
111.989552652213210
  0
LINE
  8
0
  6
CONTINUOUS
 62
256
 10
138.854235631997650
 20
103.989552652213210
 11
138.854235631997650
 21
111.589552652213570
  0
LINE
  8
0
  6
CONTINUOUS
 62
256
 10
113.854235631997650
 20
103.989552652213210
 11
113.854235631997650
 21
95.789545213551719
  0
LINE
  8
0
  6
CONTINUOUS
 62
256
 10
116.414043253132600
 20
111.839552652213570
 11
114.254235631997290
 21
111.839552652213570
  0
LINE
  8
0
  6
CONTINUOUS
 62
256
 10
116.414043253132600
 20
111.839552652213570
 11
116.973850874268010
 21
111.989552652213210
  0
ARC
  8
0
  6
CONTINUOUS
 62
256
 10
114.254235631997290
 20
95.739552652213206
 40
0.399999999999636
 50
90.000000000000000
 51
172.299196497543190
  0
LINE
  8
0
  6
CONTINUOUS
 62
256
 10
113.554235631997470
 20
95.489545213551537
 11
113.857843103746750
 21
95.793152685300811
  0
LINE
  8
0
  6
CONTINUOUS
 62
256
 10
111.854235632021300
 20
95.489545213551537
 11
113.554235631997470
 21
95.489545213551537
  0
LINE
  8
0
  6
CONTINUOUS
 62
256
 10
111.854235632021300
 20
112.489560090874870
 11
113.554235631997470
 21
112.489560090874870
  0
LINE
  8
0
  6
CONTINUOUS
 62
256
 10
113.854235631997650
 20
103.989552652213210
 11
113.854235631997650
 21
112.189560090874690
  0
ARC
  8
0
  6
CONTINUOUS
 62
256
 10
114.254235631997290
 20
112.239552652213210
 40
0.399999999999814
 50
187.700803502457570
 51
270.000000000000000
  0
LINE
  8
0
  6
CONTINUOUS
 62
256
 10
113.554235631997470
 20
112.489560090874870
 11
113.857843103746750
 21
112.185952619125600
  0
LINE
  8
0
  6
CONTINUOUS
 62
256
 10
116.414043253132600
 20
96.139552652212842
 11
114.254235631997290
 21
96.139552652212842
  0
LINE
  8
0
  6
CONTINUOUS
 62
256
 10
116.414043253132600
 20
96.139552652212842
 11
116.973850874268010
 21
95.989552652213206
  0
LINE
  8
0
  6
CONTINUOUS
 62
256
 10
114.854235631997670
 20
96.139552652212842
 11
114.854235631997650
 21
93.989552652213021
  0
LINE
  8
0
  6
CONTINUOUS
 62
256
 10
52.354235632021300
 20
41.739569584649871
 11
49.354235632021187
 21
41.739569584649871
  0
LINE
  8
0
  6
CONTINUOUS
 62
256
 10
49.354235632021187
 20
44.489552652214115
 11
49.354235632021187
 21
41.739569584649871
  0
ARC
  8
0
  6
CONTINUOUS
 62
256
 10
51.854235632021187
 20
43.489552652214115
 40
0.500000000000000
 50
0.000000000000000
 51
90.000000000000000
  0
ARC
  8
0
  6
CONTINUOUS
 62
256
 10
49.854235632021187
 20
44.489552652214115
 40
0.500000000000000
 50
180.000000000000000
 51
270.000000000000000
  0
LINE
  8
0
  6
CONTINUOUS
 62
256
 10
51.854235632021187
 20
43.989552652214115
 11
49.854235632021187
 21
43.989552652214115
  0
ARC
  8
0
  6
CONTINUOUS
 62
256
 10
47.354235632021187
 20
52.989552652214115
 40
2.000000000000000
 50
0.000000000000000
 51
90.000000000000000
  0
LINE
  8
0
  6
CONTINUOUS
 62
256
 10
49.354235632021187
 20
44.489552652214115
 11
49.354235632021187
 21
52.989552652214115
  0
LINE
  8
0
  6
CONTINUOUS
 62
256
 10
33.854235632021187
 20
50.976631087674832
 11
33.854235632021187
 21
103.989552652214120
  0
LINE
  8
0
  6
CONTINUOUS
 62
256
 10
33.367324106175033
 20
51.463023996887387
 11
32.854235632021187
 21
51.489552652214115
  0
LINE
  8
0
  6
CONTINUOUS
 62
256
 10
32.854235632021187
 20
103.989552652215020
 11
32.854235632021187
 21
51.489552652214115
  0
LINE
  8
0
  6
CONTINUOUS
 62
256
 10
59.854235632021300
 20
40.989552652214115
 11
52.854235632021187
 21
40.989552652214115
  0
LINE
  8
0
  6
CONTINUOUS
 62
256
 10
51.354235632021187
 20
54.989552652214115
 11
41.854235632021187
 21
54.989552652214115
  0
LINE
  8
0
  6
CONTINUOUS
 62
256
 10
52.354235632021187
 20
103.989552652214120
 11
52.354235632021187
 21
76.239551698539799
  0
LINE
  8
0
  6
CONTINUOUS
 62
256
 10
59.354235632021187
 20
40.989552652214115
 11
59.354235632021187
 21
103.989552652214120
  0
ARC
  8
0
  6
CONTINUOUS
 62
256
 10
33.354235632021187
 20
50.963195334399643
 40
0.500000000000000
 50
0.000000000000000
 51
88.500000000010303
  0
ARC
  8
0
  6
CONTINUOUS
 62
256
 10
34.354235632021187
 20
50.976631087674832
 40
0.500000000000000
 50
180.000000000000000
 51
268.500000000010350
  0
ARC
  8
0
  6
CONTINUOUS
 62
256
 10
34.347452753799985
 20
50.976808703592724
 40
0.499999999999963
 50
268.500000000010170
 51
332.024825632772090
  0
ARC
  8
0
  6
CONTINUOUS
 62
256
 10
41.854235632021187
 20
46.989552652214115
 40
8.000000000000000
 50
90.000000000000000
 51
152.024825632841500
  0
ARC
  8
0
  6
CONTINUOUS
 62
256
 10
52.854235632021187
 20
41.489552652214115
 40
0.500000000000000
 50
180.000000000000000
 51
270.000000000000000
  0
ARC
  8
0
  6
CONTINUOUS
 62
256
 10
51.354235632021187
 20
53.989552652214115
 40
1.000000000000000
 50
0.000000000000000
 51
90.000000000000000
  0
ARC
  8
0
  6
CONTINUOUS
 62
256
 10
53.354235632021187
 20
78.239552652214115
 40
1.000000000000000
 50
180.000000000000000
 51
270.000000000000000
  0
ARC
  8
0
  6
CONTINUOUS
 62
256
 10
53.954235632021550
 20
76.839552652214479
 40
0.399999999999636
 50
0.000000000000000
 51
90.000000000000000
  0
LINE
  8
0
  6
CONTINUOUS
 62
256
 10
53.354235632021187
 20
77.239552652214115
 11
53.954235632021550
 21
77.239552652214115
  0
ARC
  8
0
  6
CONTINUOUS
 62
256
 10
53.354235632021187
 20
65.739552652214115
 40
1.000000000000000
 50
90.000000000000000
 51
180.000000000000000
  0
ARC
  8
0
  6
CONTINUOUS
 62
256
 10
53.954235632021550
 20
67.139552652214661
 40
0.400000000000546
 50
270.000000000000000
 51
0.000000000000000
  0
LINE
  8
0
  6
CONTINUOUS
 62
256
 10
54.354235632021187
 20
67.139552652214661
 11
54.354235632021187
 21
76.839552652214479
  0
LINE
  8
0
  6
CONTINUOUS
 62
256
 10
53.354235632021187
 20
66.739552652214115
 11
53.954235632021550
 21
66.739552652214115
  0
LINE
  8
0
  6
CONTINUOUS
 62
256
 10
52.354235632021187
 20
67.739553605888432
 11
52.354235632021187
 21
41.489552652214115
  0
LINE
  8
0
  6
CONTINUOUS
 62
256
 10
50.654234869081733
 20
157.739537627127900
 11
49.354235632021187
 21
157.739537627127900
  0
LINE
  8
0
  6
CONTINUOUS
 62
256
 10
52.354235632021300
 20
166.239535719779270
 11
49.354235632021187
 21
166.239535719779270
  0
LINE
  8
0
  6
CONTINUOUS
 62
256
 10
49.354235632021187
 20
163.489552652214120
 11
49.354235632021187
 21
166.239535719779270
  0
ARC
  8
0
  6
CONTINUOUS
 62
256
 10
51.854235632021187
 20
164.489552652214120
 40
0.500000000000000
 50
270.000000000000000
 51
0.000000000000000
  0
ARC
  8
0
  6
CONTINUOUS
 62
256
 10
49.854235632021187
 20
163.489552652214120
 40
0.500000000000000
 50
90.000000000000000
 51
180.000000000000000
  0
LINE
  8
0
  6
CONTINUOUS
 62
256
 10
51.854235632021187
 20
163.989552652214120
 11
49.854235632021187
 21
163.989552652214120
  0
ARC
  8
0
  6
CONTINUOUS
 62
256
 10
47.354235632021187
 20
154.989552652214120
 40
2.000000000000000
 50
270.000000000000000
 51
0.000000000000000
  0
LINE
  8
0
  6
CONTINUOUS
 62
256
 10
49.354235632021187
 20
163.489552652214120
 11
49.354235632021187
 21
154.989552652214120
  0
LINE
  8
0
  6
CONTINUOUS
 62
256
 10
33.854235632021187
 20
157.002474216753400
 11
33.854235632021187
 21
103.989552652214120
  0
LINE
  8
0
  6
CONTINUOUS
 62
256
 10
33.367324106175033
 20
156.516081307541750
 11
32.854235632021187
 21
156.489552652214120
  0
LINE
  8
0
  6
CONTINUOUS
 62
256
 10
32.854235632021187
 20
103.989552652214120
 11
32.854235632021187
 21
156.489552652214120
  0
LINE
  8
0
  6
CONTINUOUS
 62
256
 10
59.854235632021300
 20
166.989552652214120
 11
52.854235632021187
 21
166.989552652214120
  0
LINE
  8
0
  6
CONTINUOUS
 62
256
 10
51.354235632021187
 20
152.989552652214120
 11
41.854235632021187
 21
152.989552652214120
  0
LINE
  8
0
  6
CONTINUOUS
 62
256
 10
52.354235632021187
 20
103.989552652214120
 11
52.354235632021187
 21
131.739553605888430
  0
LINE
  8
0
  6
CONTINUOUS
 62
256
 10
59.354235632021187
 20
166.989552652214120
 11
59.354235632021187
 21
103.989552652214120
  0
ARC
  8
0
  6
CONTINUOUS
 62
256
 10
33.354235632021187
 20
157.015909970028590
 40
0.499999999999054
 50
271.499999999992550
 51
0.000000000000000
  0
ARC
  8
0
  6
CONTINUOUS
 62
256
 10
34.354235632021187
 20
157.002474216753400
 40
0.500000000000872
 50
91.499999999987068
 51
180.000000000000000
  0
ARC
  8
0
  6
CONTINUOUS
 62
256
 10
34.347452753799985
 20
157.002296600836420
 40
0.500000000000217
 50
27.975174367227915
 51
91.499999999989853
  0
ARC
  8
0
  6
CONTINUOUS
 62
256
 10
41.854235632021187
 20
160.989552652214120
 40
7.999999999999964
 50
207.975174367152760
 51
270.000000000000000
  0
ARC
  8
0
  6
CONTINUOUS
 62
256
 10
52.854235632021187
 20
166.489552652214120
 40
0.500000000000000
 50
90.000000000000000
 51
180.000000000000000
  0
ARC
  8
0
  6
CONTINUOUS
 62
256
 10
51.354235632021187
 20
153.989552652214120
 40
1.000000000000000
 50
270.000000000000000
 51
0.000000000000000
  0
ARC
  8
0
  6
CONTINUOUS
 62
256
 10
53.354235632021187
 20
129.739552652214120
 40
1.000000000000000
 50
90.000000000000000
 51
180.000000000000000
  0
ARC
  8
0
  6
CONTINUOUS
 62
256
 10
53.954235632021550
 20
131.139552652214660
 40
0.400000000000546
 50
270.000000000000000
 51
0.000000000000000
  0
LINE
  8
0
  6
CONTINUOUS
 62
256
 10
53.354235632021187
 20
130.739552652214120
 11
53.954235632021550
 21
130.739552652214120
  0
ARC
  8
0
  6
CONTINUOUS
 62
256
 10
53.354235632021187
 20
142.239552652214120
 40
1.000000000000000
 50
180.000000000000000
 51
270.000000000000000
  0
ARC
  8
0
  6
CONTINUOUS
 62
256
 10
53.954235632021550
 20
140.839552652214480
 40
0.399999999999636
 50
0.000000000000000
 51
90.000000000000000
  0
LINE
  8
0
  6
CONTINUOUS
 62
256
 10
54.354235632021187
 20
140.839552652214480
 11
54.354235632021187
 21
131.139552652214660
  0
LINE
  8
0
  6
CONTINUOUS
 62
256
 10
53.354235632021187
 20
141.239552652214120
 11
53.954235632021550
 21
141.239552652214120
  0
LINE
  8
0
  6
CONTINUOUS
 62
256
 10
52.354235632021187
 20
140.239551698539800
 11
52.354235632021187
 21
166.489552652214120
  0
LINE
  8
0
  6
CONTINUOUS
 62
256
 10
32.854235632021187
 20
50.489552652213206
 11
32.854235632021187
 21
81.151312972217056
  0
LINE
  8
0
  6
CONTINUOUS
 62
256
 10
-95.645764367978586
 20
46.489552652213206
 11
-20.645764367978586
 21
46.489552652213206
  0
LINE
  8
0
  6
CONTINUOUS
 62
256
 10
-20.645764367978586
 20
46.489552652213206
 11
-20.645764367978586
 21
51.489552652213320
  0
LINE
  8
0
  6
CONTINUOUS
 62
256
 10
-21.645764367978586
 20
17.989552652213206
 11
-21.645764367978586
 21
46.489552652213206
  0
LINE
  8
0
  6
CONTINUOUS
 62
256
 10
-94.645764367978586
 20
17.989552652213206
 11
-94.645764367978586
 21
46.489552652213206
  0
ARC
  8
0
  6
CONTINUOUS
 62
256
 10
-93.645764367978586
 20
17.989552652213206
 40
1.000000000000000
 50
180.000000000000000
 51
270.000000000000000
  0
ARC
  8
0
  6
CONTINUOUS
 62
256
 10
-22.645764367978586
 20
17.989552652213206
 40
1.000000000000000
 50
270.000000000000000
 51
0.000000000000000
  0
LINE
  8
0
  6
CONTINUOUS
 62
256
 10
32.854235632021187
 20
50.489552652213206
 11
-20.645764367978586
 21
50.489552652213206
  0
LINE
  8
0
  6
CONTINUOUS
 62
256
 10
32.854235632021187
 20
157.489552652213210
 11
32.854235632021187
 21
103.989552652213210
  0
LINE
  8
0
  6
CONTINUOUS
 62
256
 10
-28.645764367978586
 20
16.489552652213206
 11
-28.645764367978586
 21
16.989552652213206
  0
LINE
  8
0
  6
CONTINUOUS
 62
256
 10
-36.645764367978586
 20
16.489552652213206
 11
-28.645764367978586
 21
16.489552652213206
  0
LINE
  8
0
  6
CONTINUOUS
 62
256
 10
-36.645764367978586
 20
16.489552652213206
 11
-36.645764367978586
 21
16.989552652213206
  0
LINE
  8
0
  6
CONTINUOUS
 62
256
 10
-22.645764367978586
 20
16.989552652213206
 11
-93.645764367978586
 21
16.989552652213206
  0
LINE
  8
0
  6
CONTINUOUS
 62
256
 10
-87.645764367999959
 20
52.649856291404262
 11
-87.645764367999732
 21
103.989552652213210
  0
ARC
  8
0
  6
CONTINUOUS
 62
256
 10
-90.645764367999959
 20
52.649856291404262
 40
3.000000000000000
 50
270.000000000000000
 51
0.000000000000000
  0
LINE
  8
0
  6
CONTINUOUS
 62
256
 10
-94.645764367999959
 20
49.649856291404262
 11
-90.645764367999959
 21
49.649856291404262
  0
LINE
  8
0
  6
CONTINUOUS
 62
256
 10
-94.036073550104561
 20
55.959264731665314
 11
-93.945764367999743
 21
56.662221697865675
  0
LINE
  8
0
  6
CONTINUOUS
 62
256
 10
-94.303530565196695
 20
55.283322007453222
 11
-94.036073550104561
 21
55.959264731665314
  0
LINE
  8
0
  6
CONTINUOUS
 62
256
 10
-94.737857190177778
 20
54.660369625047821
 11
-94.303530565196695
 21
55.283322007453222
  0
LINE
  8
0
  6
CONTINUOUS
 62
256
 10
-95.322362496422969
 20
54.114347295149244
 11
-94.737857190177778
 21
54.660369625047821
  0
LINE
  8
0
  6
CONTINUOUS
 62
256
 10
-96.034584272807606
 20
53.666238349682622
 11
-95.322362496422969
 21
54.114347295149244
  0
LINE
  8
0
  6
CONTINUOUS
 62
256
 10
-96.847152235883811
 20
53.333263364119865
 11
-96.034584272807606
 21
53.666238349682622
  0
LINE
  8
0
  6
CONTINUOUS
 62
256
 10
-97.728839854523926
 20
53.128218380421615
 11
-96.847152235883811
 21
53.333263364119865
  0
LINE
  8
0
  6
CONTINUOUS
 62
256
 10
-98.645764367999732
 20
53.058983162320843
 11
-97.728839854523926
 21
53.128218380421615
  0
LINE
  8
0
  6
CONTINUOUS
 62
256
 10
-99.562688881475538
 20
53.128218380421615
 11
-98.645764367999732
 21
53.058983162320843
  0
LINE
  8
0
  6
CONTINUOUS
 62
256
 10
-100.444376500115650
 20
53.333263364119865
 11
-99.562688881475538
 21
53.128218380421615
  0
LINE
  8
0
  6
CONTINUOUS
 62
256
 10
-101.256944463191840
 20
53.666238349682622
 11
-100.444376500115650
 21
53.333263364119865
  0
LINE
  8
0
  6
CONTINUOUS
 62
256
 10
-101.969166239576500
 20
54.114347295149244
 11
-101.256944463191840
 21
53.666238349682622
  0
LINE
  8
0
  6
CONTINUOUS
 62
256
 10
-102.553671545821690
 20
54.660369625047821
 11
-101.969166239576500
 21
54.114347295149244
  0
LINE
  8
0
  6
CONTINUOUS
 62
256
 10
-102.987998170802750
 20
55.283322007453222
 11
-102.553671545821690
 21
54.660369625047821
  0
LINE
  8
0
  6
CONTINUOUS
 62
256
 10
-103.255455185894900
 20
55.959264731665314
 11
-102.987998170802750
 21
55.283322007453222
  0
LINE
  8
0
  6
CONTINUOUS
 62
256
 10
-103.345764367999720
 20
56.662221697865675
 11
-103.255455185894900
 21
55.959264731665314
  0
LINE
  8
0
  6
CONTINUOUS
 62
256
 10
-103.255455185894900
 20
57.365178664066036
 11
-103.345764367999720
 21
56.662221697865675
  0
LINE
  8
0
  6
CONTINUOUS
 62
256
 10
-102.987998170802750
 20
58.041121388278128
 11
-103.255455185894900
 21
57.365178664066036
  0
LINE
  8
0
  6
CONTINUOUS
 62
256
 10
-102.553671545821690
 20
58.664073770683530
 11
-102.987998170802750
 21
58.041121388278128
  0
LINE
  8
0
  6
CONTINUOUS
 62
256
 10
-101.969166239576500
 20
59.210096100582113
 11
-102.553671545821690
 21
58.664073770683530
  0
LINE
  8
0
  6
CONTINUOUS
 62
256
 10
-101.256944463191840
 20
59.658205046048728
 11
-101.969166239576500
 21
59.210096100582113
  0
LINE
  8
0
  6
CONTINUOUS
 62
256
 10
-100.444376500115650
 20
59.991180031611485
 11
-101.256944463191840
 21
59.658205046048728
  0
LINE
  8
0
  6
CONTINUOUS
 62
256
 10
-99.562688881475538
 20
60.196225015309736
 11
-100.444376500115650
 21
59.991180031611485
  0
LINE
  8
0
  6
CONTINUOUS
 62
256
 10
-98.645764367999732
 20
60.265460233410508
 11
-99.562688881475538
 21
60.196225015309736
  0
LINE
  8
0
  6
CONTINUOUS
 62
256
 10
-97.728839854523926
 20
60.196225015309736
 11
-98.645764367999732
 21
60.265460233410508
  0
LINE
  8
0
  6
CONTINUOUS
 62
256
 10
-96.847152235883811
 20
59.991180031611485
 11
-97.728839854523926
 21
60.196225015309736
  0
LINE
  8
0
  6
CONTINUOUS
 62
256
 10
-96.034584272807606
 20
59.658205046048728
 11
-96.847152235883811
 21
59.991180031611485
  0
LINE
  8
0
  6
CONTINUOUS
 62
256
 10
-95.322362496422969
 20
59.210096100582113
 11
-96.034584272807606
 21
59.658205046048728
  0
LINE
  8
0
  6
CONTINUOUS
 62
256
 10
-94.737857190177778
 20
58.664073770683530
 11
-95.322362496422969
 21
59.210096100582113
  0
LINE
  8
0
  6
CONTINUOUS
 62
256
 10
-94.303530565196695
 20
58.041121388278128
 11
-94.737857190177778
 21
58.664073770683530
  0
LINE
  8
0
  6
CONTINUOUS
 62
256
 10
-94.036073550104561
 20
57.365178664066036
 11
-94.303530565196695
 21
58.041121388278128
  0
LINE
  8
0
  6
CONTINUOUS
 62
256
 10
-93.945764367999743
 20
56.662221697865675
 11
-94.036073550104561
 21
57.365178664066036
  0
LINE
  8
0
  6
CONTINUOUS
 62
256
 10
-100.645764367999940
 20
53.669846143865243
 11
-98.645764367999959
 21
54.845631629488139
  0
LINE
  8
0
  6
CONTINUOUS
 62
256
 10
-98.645764367999959
 20
54.845631629488139
 11
-96.645764367999959
 21
56.498273268611456
  0
LINE
  8
0
  6
CONTINUOUS
 62
256
 10
-96.645764367999959
 20
53.669846143865243
 11
-98.645764367999959
 21
54.845631629488139
  0
LINE
  8
0
  6
CONTINUOUS
 62
256
 10
-98.645764367999959
 20
54.845631629488139
 11
-100.645764367999940
 21
56.498273268611456
  0
ARC
  8
0
  6
CONTINUOUS
 62
256
 10
-94.645764367999959
 20
46.649856291404262
 40
3.000000000000000
 50
90.000000000000000
 51
180.000000000000000
  0
LINE
  8
0
  6
CONTINUOUS
 62
256
 10
-97.645764367999959
 20
44.989552652213206
 11
-97.645764367999959
 21
46.649856291404262
  0
LINE
  8
0
  6
CONTINUOUS
 62
256
 10
-87.645764367999959
 20
162.989552652213210
 11
-87.645764367999732
 21
103.989552652213210
  0
LINE
  8
0
  6
CONTINUOUS
 62
256
 10
-94.036073550104561
 20
150.613926640360380
 11
-93.945764367999743
 21
151.316883606560740
  0
LINE
  8
0
  6
CONTINUOUS
 62
256
 10
-94.303530565196695
 20
149.937983916148280
 11
-94.036073550104561
 21
150.613926640360380
  0
LINE
  8
0
  6
CONTINUOUS
 62
256
 10
-94.737857190177778
 20
149.315031533742880
 11
-94.303530565196695
 21
149.937983916148280
  0
LINE
  8
0
  6
CONTINUOUS
 62
256
 10
-95.322362496422969
 20
148.769009203844290
 11
-94.737857190177778
 21
149.315031533742880
  0
LINE
  8
0
  6
CONTINUOUS
 62
256
 10
-96.034584272807606
 20
148.320900258377660
 11
-95.322362496422969
 21
148.769009203844290
  0
LINE
  8
0
  6
CONTINUOUS
 62
256
 10
-96.847152235883811
 20
147.987925272814920
 11
-96.034584272807606
 21
148.320900258377660
  0
LINE
  8
0
  6
CONTINUOUS
 62
256
 10
-97.728839854523926
 20
147.782880289116660
 11
-96.847152235883811
 21
147.987925272814920
  0
LINE
  8
0
  6
CONTINUOUS
 62
256
 10
-98.645764367999732
 20
147.713645071015890
 11
-97.728839854523926
 21
147.782880289116660
  0
LINE
  8
0
  6
CONTINUOUS
 62
256
 10
-99.562688881475538
 20
147.782880289116660
 11
-98.645764367999732
 21
147.713645071015890
  0
LINE
  8
0
  6
CONTINUOUS
 62
256
 10
-100.444376500115650
 20
147.987925272814920
 11
-99.562688881475538
 21
147.782880289116660
  0
LINE
  8
0
  6
CONTINUOUS
 62
256
 10
-101.256944463191840
 20
148.320900258377660
 11
-100.444376500115650
 21
147.987925272814920
  0
LINE
  8
0
  6
CONTINUOUS
 62
256
 10
-101.969166239576500
 20
148.769009203844290
 11
-101.256944463191840
 21
148.320900258377660
  0
LINE
  8
0
  6
CONTINUOUS
 62
256
 10
-102.553671545821690
 20
149.315031533742880
 11
-101.969166239576500
 21
148.769009203844290
  0
LINE
  8
0
  6
CONTINUOUS
 62
256
 10
-102.987998170802750
 20
149.937983916148280
 11
-102.553671545821690
 21
149.315031533742880
  0
LINE
  8
0
  6
CONTINUOUS
 62
256
 10
-103.255455185894900
 20
150.613926640360380
 11
-102.987998170802750
 21
149.937983916148280
  0
LINE
  8
0
  6
CONTINUOUS
 62
256
 10
-103.345764367999720
 20
151.316883606560740
 11
-103.255455185894900
 21
150.613926640360380
  0
LINE
  8
0
  6
CONTINUOUS
 62
256
 10
-103.255455185894900
 20
152.019840572761100
 11
-103.345764367999720
 21
151.316883606560740
  0
LINE
  8
0
  6
CONTINUOUS
 62
256
 10
-102.987998170802750
 20
152.695783296973190
 11
-103.255455185894900
 21
152.019840572761100
  0
LINE
  8
0
  6
CONTINUOUS
 62
256
 10
-102.553671545821690
 20
153.318735679378590
 11
-102.987998170802750
 21
152.695783296973190
  0
LINE
  8
0
  6
CONTINUOUS
 62
256
 10
-101.969166239576500
 20
153.864758009277180
 11
-102.553671545821690
 21
153.318735679378590
  0
LINE
  8
0
  6
CONTINUOUS
 62
256
 10
-101.256944463191840
 20
154.312866954743810
 11
-101.969166239576500
 21
153.864758009277180
  0
LINE
  8
0
  6
CONTINUOUS
 62
256
 10
-100.444376500115650
 20
154.645841940306550
 11
-101.256944463191840
 21
154.312866954743810
  0
LINE
  8
0
  6
CONTINUOUS
 62
256
 10
-99.562688881475538
 20
154.850886924004810
 11
-100.444376500115650
 21
154.645841940306550
  0
LINE
  8
0
  6
CONTINUOUS
 62
256
 10
-98.645764367999732
 20
154.920122142105580
 11
-99.562688881475538
 21
154.850886924004810
  0
LINE
  8
0
  6
CONTINUOUS
 62
256
 10
-97.728839854523926
 20
154.850886924004810
 11
-98.645764367999732
 21
154.920122142105580
  0
LINE
  8
0
  6
CONTINUOUS
 62
256
 10
-96.847152235883811
 20
154.645841940306550
 11
-97.728839854523926
 21
154.850886924004810
  0
LINE
  8
0
  6
CONTINUOUS
 62
256
 10
-96.034584272807606
 20
154.312866954743810
 11
-96.847152235883811
 21
154.645841940306550
  0
LINE
  8
0
  6
CONTINUOUS
 62
256
 10
-95.322362496422969
 20
153.864758009277180
 11
-96.034584272807606
 21
154.312866954743810
  0
LINE
  8
0
  6
CONTINUOUS
 62
256
 10
-94.737857190177778
 20
153.318735679378590
 11
-95.322362496422969
 21
153.864758009277180
  0
LINE
  8
0
  6
CONTINUOUS
 62
256
 10
-94.303530565196695
 20
152.695783296973190
 11
-94.737857190177778
 21
153.318735679378590
  0
LINE
  8
0
  6
CONTINUOUS
 62
256
 10
-94.036073550104561
 20
152.019840572761100
 11
-94.303530565196695
 21
152.695783296973190
  0
LINE
  8
0
  6
CONTINUOUS
 62
256
 10
-93.945764367999743
 20
151.316883606560740
 11
-94.036073550104561
 21
152.019840572761100
  0
LINE
  8
0
  6
CONTINUOUS
 62
256
 10
-100.645764367999940
 20
154.309259160561170
 11
-98.645764367999959
 21
153.133473674938390
  0
LINE
  8
0
  6
CONTINUOUS
 62
256
 10
-98.645764367999959
 20
153.133473674938390
 11
-96.645764367999959
 21
151.480832035814960
  0
LINE
  8
0
  6
CONTINUOUS
 62
256
 10
-96.645764367999959
 20
154.309259160561170
 11
-98.645764367999959
 21
153.133473674938390
  0
LINE
  8
0
  6
CONTINUOUS
 62
256
 10
-98.645764367999959
 20
153.133473674938390
 11
-100.645764367999940
 21
151.480832035814960
  0
LINE
  8
0
  6
CONTINUOUS
 62
256
 10
32.854235632021187
 20
157.489552652213210
 11
-87.645764367999732
 21
157.489552652213210
  0
LINE
  8
0
  6
CONTINUOUS
 62
256
 10
-87.645764367999732
 20
154.989552652213210
 11
32.854235632021187
 21
154.989552652213210
  0
LINE
  8
0
  6
CONTINUOUS
 62
256
 10
-87.645764367999732
 20
154.489552652213210
 11
32.854235632021187
 21
154.489552652213210
  0
LINE
  8
0
  6
CONTINUOUS
 62
256
 10
-87.645764367999732
 20
150.122635247095900
 11
32.854235632021187
 21
150.122635247095900
  0
LINE
  8
0
  6
CONTINUOUS
 62
256
 10
-87.645764367999732
 20
145.031466422552970
 11
32.854235632021187
 21
145.031466422552970
  0
LINE
  8
0
  6
CONTINUOUS
 62
256
 10
-87.645764367999732
 20
137.293153603721980
 11
32.854235632021187
 21
137.293153603722000
  0
LINE
  8
0
  6
CONTINUOUS
 62
256
 10
-87.645764367999732
 20
135.703943810983220
 11
32.854235632021187
 21
135.703943810983220
  0
LINE
  8
0
  6
CONTINUOUS
 62
256
 10
-87.645764367999732
 20
132.745948202850290
 11
32.854235632021187
 21
132.745948202850290
  0
LINE
  8
0
  6
CONTINUOUS
 62
256
 10
-87.645764367999732
 20
131.266925049373300
 11
32.854235632021187
 21
131.266925049373300
  0
LINE
  8
0
  6
CONTINUOUS
 62
256
 10
-87.645764367999732
 20
128.174194057707950
 11
32.854235632021187
 21
128.174194057707950
  0
LINE
  8
0
  6
CONTINUOUS
 62
256
 10
-87.645764367999732
 20
126.827792332209360
 11
32.854235632021187
 21
126.827792332209370
  0
LINE
  8
0
  6
CONTINUOUS
 62
256
 10
-87.645764367999732
 20
123.617587308851060
 11
32.854235632021187
 21
123.617587308851060
  0
LINE
  8
0
  6
CONTINUOUS
 62
256
 10
-87.645764367999732
 20
122.375667443963150
 11
32.854235632021187
 21
122.375667443963150
  0
LINE
  8
0
  6
CONTINUOUS
 62
256
 10
-87.645764367999732
 20
117.989552652213210
 11
32.854235632021187
 21
117.989552652213210
  0
LINE
  8
0
  6
CONTINUOUS
 62
256
 10
-87.645764367999504
 20
89.989552652213206
 11
32.854235632021187
 21
89.989552652213206
  0
LINE
  8
0
  6
CONTINUOUS
 62
256
 10
-87.645764367999504
 20
85.603437860463259
 11
32.854235632021187
 21
85.603437860463259
  0
LINE
  8
0
  6
CONTINUOUS
 62
256
 10
-87.645764367999504
 20
84.361517995575355
 11
32.854235632021187
 21
84.361517995575355
  0
LINE
  8
0
  6
CONTINUOUS
 62
256
 10
-87.645764367999504
 20
81.151312972217056
 11
32.854235632021187
 21
81.151312972217056
  0
LINE
  8
0
  6
CONTINUOUS
 62
256
 10
-87.645764367999504
 20
79.804911246718461
 11
32.854235632021187
 21
79.804911246718461
  0
LINE
  8
0
  6
CONTINUOUS
 62
256
 10
-87.645764367999504
 20
76.712180255053227
 11
32.854235632021187
 21
76.712180255053212
  0
LINE
  8
0
  6
CONTINUOUS
 62
256
 10
-87.645764367999504
 20
75.233157101576126
 11
32.854235632021187
 21
75.233157101576126
  0
LINE
  8
0
  6
CONTINUOUS
 62
256
 10
-87.645764367999504
 20
70.685951700704550
 11
32.854235632021187
 21
70.685951700704550
  0
LINE
  8
0
  6
CONTINUOUS
 62
256
 10
-87.645764367999504
 20
72.275161493443193
 11
32.854235632021187
 21
72.275161493443193
  0
LINE
  8
0
  6
CONTINUOUS
 62
256
 10
-87.645764367999504
 20
62.947638881873445
 11
32.854235632021187
 21
62.947638881873445
  0
LINE
  8
0
  6
CONTINUOUS
 62
256
 10
-87.645764367999504
 20
57.856470057330512
 11
32.854235632021187
 21
57.856470057330625
  0
LINE
  8
0
  6
CONTINUOUS
 62
256
 10
-87.645764367999504
 20
53.489552652213206
 11
32.854235632021187
 21
53.489552652213206
  0
LINE
  8
0
  6
CONTINUOUS
 62
256
 10
-87.645764367999504
 20
52.989552652213206
 11
32.854235632021187
 21
52.989552652213206
  0
LINE
  8
0
  6
CONTINUOUS
 62
256
 10
-20.645764367978586
 20
51.489552652213320
 11
-87.879233062397248
 21
51.489552652213320
  0
LINE
  8
0
  6
CONTINUOUS
 62
256
 10
-95.645764367978586
 20
46.489552652213206
 11
-95.645764367978586
 21
49.478283416157865
  0
LINE
  8
0
  6
CONTINUOUS
 62
256
 10
-97.645764367999959
 20
44.989552652213206
 11
-117.150609317092740
 21
44.989552652213206
  0
LINE
  8
0
  6
CONTINUOUS
 62
256
 10
-87.645764367999959
 20
162.989552652213210
 11
-117.150609317092740
 21
162.989552652213210
  0
ARC
  8
0
  6
CONTINUOUS
 62
256
 10
-117.150609317092740
 20
65.589552652213229
 40
20.599999999999891
 50
235.000000000000400
 51
270.000000000000000
  0
ARC
  8
0
  6
CONTINUOUS
 62
256
 10
-135.045764368000050
 20
56.145932518583891
 40
2.600000000000136
 50
180.000000000000000
 51
234.999999999997330
  0
LINE
  8
0
  6
CONTINUOUS
 62
256
 10
-128.966283905924120
 20
48.715020539860006
 11
-136.537063102512890
 21
54.016137203432550
  0
LINE
  8
0
  6
CONTINUOUS
 62
256
 10
-137.645764368000190
 20
56.145932518583891
 11
-137.645764368000190
 21
103.989552652213210
  0
ARC
  8
0
  6
CONTINUOUS
 62
256
 10
-117.150609317092740
 20
142.389552652213180
 40
20.600000000000023
 50
90.000000000000000
 51
124.999999999999630
  0
ARC
  8
0
  6
CONTINUOUS
 62
256
 10
-135.045764368000050
 20
151.833172785842520
 40
2.600000000000131
 50
125.000000000001180
 51
180.000000000000000
  0
LINE
  8
0
  6
CONTINUOUS
 62
256
 10
-128.966283905924120
 20
159.264084764566520
 11
-136.537063102512890
 21
153.962968100993860
  0
LINE
  8
0
  6
CONTINUOUS
 62
256
 10
-137.645764368000190
 20
151.833172785842520
 11
-137.645764367999960
 21
103.989552652213210
  0
LINE
  8
0
  6
DASHDOT
 62
256
 10
144.596999845174650
 20
103.989552652213210
 11
-155.156297129184620
 21
103.989552652213210
  0
LINE
  8
0
  6
DASHDOT
 62
256
 10
-92.231453474562159
 20
31.989552652213320
 11
-71.744865240852846
 21
31.989552652213320
  0
LINE
  8
0
  6
DASHDOT
 62
256
 10
-83.145764367978586
 20
23.045395394537195
 11
-83.145764367978586
 21
44.593884375068853
  0
LINE
  8
0
  6
DASHDOT
 62
256
 10
-44.429293783705248
 20
31.989552652213320
 11
-22.662316375176943
 21
31.989552652213320
  0
LINE
  8
0
  6
DASHDOT
 62
256
 10
-33.145764367978586
 20
23.045395394537195
 11
-33.145764367978586
 21
45.024897527072142
  0
CIRCLE
  8
0
  6
DASHED
 62
256
 10
-33.145764367978586
 20
31.989552652213320
 40
6.000000000000000
  0
ARC
  8
0
  6
DASHED
 62
256
 10
-33.145764367978586
 20
31.989552652213320
 40
7.000000000000000
 50
180.000000000000000
 51
0.000000000000000
  0
LINE
  8
0
  6
DASHED
 62
256
 10
-40.145764367978586
 20
31.989552652213320
 11
-40.145764367978586
 21
46.489552652213320
  0
LINE
  8
0
  6
DASHED
 62
256
 10
-26.145764367978586
 20
31.989552652213320
 11
-26.145764367978586
 21
46.489552652213320
  0
ARC
  8
0
  6
DASHED
 62
256
 10
-83.145764367978586
 20
31.989552652213320
 40
7.000000000000000
 50
180.000000000000000
 51
0.000000000000000
  0
LINE
  8
0
  6
DASHED
 62
256
 10
-90.145764367978586
 20
31.989552652213320
 11
-90.145764367978586
 21
46.489552652213320
  0
LINE
  8
0
  6
DASHED
 62
256
 10
-76.145764367978586
 20
31.989552652213320
 11
-76.145764367978586
 21
46.489552652213320
  0
LINE
  8
0
  6
CONTINUOUS
 62
256
 10
31.854235632021300
 20
167.055115200406360
 11
31.854235632021300
 21
157.489552652213210
  0
LINE
  8
0
  6
CONTINUOUS
 62
256
 10
31.854235632021300
 20
40.923990104020049
 11
31.854235632021300
 21
50.489552652213206
  0
LINE
  8
0
  6
DASHDOT
 62
256
 10
101.854235632021300
 20
152.987680984611870
 11
101.854235632021300
 21
167.310193078774320
  0
LINE
  8
0
  6
DASHDOT
 62
256
 10
101.854235632021300
 20
53.503334884653668
 11
101.854235632021300
 21
40.668912225652093
  0
INSERT
  8
0
  2
ZU_SYM_1
 10
54.354235632021300
 20
-78.835339641674409
  0
LINE
  8
0
  6
CONTINUOUS
 62
256
 10
52.354235632021300
 20
-43.085712454099735
 11
49.354236394960765
 21
-43.085712454099735
  0
LINE
  8
0
  6
CONTINUOUS
 62
256
 10
49.354236394960765
 20
-43.085712454099735
 11
49.354236394960765
 21
-34.585714361448368
  0
LINE
  8
0
  6
CONTINUOUS
 62
256
 10
54.354236394960765
 20
-34.585714361448368
 11
49.354236394960765
 21
-34.585714361448368
  0
LINE
  8
0
  6
CONTINUOUS
 62
256
 10
92.041781626225244
 20
-70.857151847237603
 11
91.908971864699367
 21
-73.363312596087781
  0
LINE
  8
0
  6
CONTINUOUS
 62
256
 10
92.435688363028987
 20
-68.436335378346030
 11
92.041781626225244
 21
-70.857151847237603
  0
LINE
  8
0
  6
CONTINUOUS
 62
256
 10
93.077278053243134
 20
-66.183301193176021
 11
92.435688363028987
 21
-68.436335378346030
  0
LINE
  8
0
  6
CONTINUOUS
 62
256
 10
93.944702128842891
 20
-64.174773670887163
 11
93.077278053243134
 21
-66.183301193176021
  0
LINE
  8
0
  6
CONTINUOUS
 62
256
 10
95.008421502447078
 20
-62.479150809249290
 11
93.944702128842891
 21
-64.174773670887163
  0
LINE
  8
0
  6
CONTINUOUS
 62
256
 10
96.232212485539549
 20
-61.154175012795967
 11
95.008421502447078
 21
-62.479150809249290
  0
LINE
  8
0
  6
CONTINUOUS
 62
256
 10
97.574400342771440
 20
-60.244966744436056
 11
96.232212485539549
 21
-61.154175012795967
  0
LINE
  8
0
  6
CONTINUOUS
 62
256
 10
98.989278475130845
 20
-59.782488002161365
 11
97.574400342771440
 21
-60.244966744436056
  0
LINE
  8
0
  6
CONTINUOUS
 62
256
 10
100.428664903397770
 20
-59.782487945309605
 11
98.989278475130845
 21
-59.782488002161365
  0
LINE
  8
0
  6
CONTINUOUS
 62
256
 10
101.843543047705650
 20
-60.244966575816790
 11
100.428664903397770
 21
-59.782487945309605
  0
LINE
  8
0
  6
CONTINUOUS
 62
256
 10
103.185730928427570
 20
-61.154174738151319
 11
101.843543047705650
 21
-60.244966575816790
  0
LINE
  8
0
  6
CONTINUOUS
 62
256
 10
104.409521945751720
 20
-62.479150437931956
 11
103.185730928427570
 21
-61.154174738151319
  0
LINE
  8
0
  6
CONTINUOUS
 62
256
 10
105.473241363163500
 20
-64.174773215541904
 11
104.409521945751720
 21
-62.479150437931956
  0
LINE
  8
0
  6
CONTINUOUS
 62
256
 10
106.340665490654970
 20
-66.183300669309077
 11
105.473241363163500
 21
-64.174773215541904
  0
LINE
  8
0
  6
CONTINUOUS
 62
256
 10
106.982255239077840
 20
-68.436334803797081
 11
106.340665490654970
 21
-66.183300669309077
  0
LINE
  8
0
  6
CONTINUOUS
 62
256
 10
107.376162038425090
 20
-70.857151241572197
 11
106.982255239077840
 21
-68.436334803797081
  0
LINE
  8
0
  6
CONTINUOUS
 62
256
 10
107.508971864699390
 20
-73.363311979931154
 11
107.376162038425090
 21
-70.857151241572197
  0
ARC
  8
0
  6
CONTINUOUS
 62
256
 10
469.250181966483070
 20
-87.835713407774165
 40
300.000000000000170
 50
175.138594604201960
 51
184.861405395798040
  0
ARC
  8
0
  6
CONTINUOUS
 62
256
 10
53.975015851222452
 20
-128.191334497087150
 40
2.000000000000053
 50
271.666365925982120
 51
316.322680344537050
  0
ARC
  8
0
  6
CONTINUOUS
 62
256
 10
59.854235632021300
 20
-122.034204687846230
 40
2.000000000000293
 50
316.322680344545970
 51
0.000000000000000
  0
ARC
  8
0
  6
CONTINUOUS
 62
256
 10
34.354235632021300
 20
-133.264041661038620
 40
2.500000000000016
 50
91.666365925987364
 51
180.000000000000000
  0
ARC
  8
0
  6
CONTINUOUS
 62
256
 10
59.854235632021300
 20
-110.269695929162820
 40
2.000000000000000
 50
0.000000000000000
 51
88.499999999997286
  0
ARC
  8
0
  6
CONTINUOUS
 62
256
 10
54.854235632021300
 20
-31.422691130337057
 40
0.499999999999889
 50
90.999999999975941
 51
180.000000000000000
  0
ARC
  8
0
  6
CONTINUOUS
 62
256
 10
53.954235632021209
 20
-35.829095122743752
 40
0.399999999999977
 50
270.000000000000000
 51
0.000000000000000
  0
ARC
  8
0
  6
CONTINUOUS
 62
256
 10
53.354235632021300
 20
-37.229095122743729
 40
1.000000000000000
 50
90.000000000000000
 51
180.000000000000000
  0
ARC
  8
0
  6
CONTINUOUS
 62
256
 10
53.954235632021209
 20
-83.685713407774529
 40
0.399999999999977
 50
270.000000000000000
 51
0.000000000000000
  0
ARC
  8
0
  6
CONTINUOUS
 62
256
 10
53.354235632021300
 20
-85.085713407774506
 40
1.000000000000000
 50
90.000000000000000
 51
180.000000000000000
  0
ARC
  8
0
  6
CONTINUOUS
 62
256
 10
53.954235632021209
 20
-73.985713407774256
 40
0.400000000000091
 50
0.000000000000000
 51
90.000000000000000
  0
ARC
  8
0
  6
CONTINUOUS
 62
256
 10
53.354235632021300
 20
-72.585713407774278
 40
1.000000000000000
 50
180.000000000000000
 51
270.000000000000000
  0
ARC
  8
0
  6
CONTINUOUS
 62
256
 10
49.854235632021300
 20
-71.335713407774278
 40
0.500000000000000
 50
180.000000000000000
 51
270.000000000000000
  0
ARC
  8
0
  6
CONTINUOUS
 62
256
 10
51.854235632021300
 20
-72.335713407774278
 40
0.500000000000000
 50
0.000000000000000
 51
90.000000000000000
  0
ARC
  8
0
  6
CONTINUOUS
 62
256
 10
51.854235632021300
 20
-61.335713407774278
 40
0.500000000000000
 50
270.000000000000000
 51
0.000000000000000
  0
ARC
  8
0
  6
CONTINUOUS
 62
256
 10
49.854235632021300
 20
-62.335713407774278
 40
0.500000000000000
 50
90.000000000000000
 51
180.000000000000000
  0
ARC
  8
0
  6
CONTINUOUS
 62
256
 10
34.354235632009477
 20
-37.335713407774051
 40
0.500000000000000
 50
90.000000000000000
 51
180.000000000000000
  0
ARC
  8
0
  6
CONTINUOUS
 62
256
 10
51.354235632021300
 20
-33.837838105468563
 40
1.000000000000074
 50
311.593253995578440
 51
0.000000000000000
  0
ARC
  8
0
  6
CONTINUOUS
 62
256
 10
52.854235632021300
 20
-31.457601260193314
 40
0.499999999999776
 50
90.999999999976168
 51
180.000000000000000
  0
ARC
  8
0
  6
CONTINUOUS
 62
256
 10
71.109260796894432
 20
-81.276685146867408
 40
49.999999999999972
 50
40.046696754629416
 51
87.999999999999474
  0
ARC
  8
0
  6
CONTINUOUS
 62
256
 10
110.854235632021300
 20
-130.130178905395160
 40
1.000000000000000
 50
180.000000000000000
 51
244.623066474839110
  0
ARC
  8
0
  6
CONTINUOUS
 62
256
 10
109.354235632021300
 20
-133.292456565563500
 40
2.500000000000000
 50
0.000000000000000
 51
89.000000000003439
  0
ARC
  8
0
  6
CONTINUOUS
 62
256
 10
109.508971864699560
 20
-128.794472020354080
 40
2.000000000000000
 50
180.000000000000000
 51
268.999999999998240
  0
ARC
  8
0
  6
CONTINUOUS
 62
256
 10
93.908971864699197
 20
-128.522173007473950
 40
2.000000000000000
 50
180.000000000000000
 51
268.999999999998240
  0
ARC
  8
0
  6
CONTINUOUS
 62
256
 10
138.454235631997560
 20
-80.435713407774188
 40
0.399999999999977
 50
270.000000000000000
 51
0.000000000000000
  0
ARC
  8
0
  6
CONTINUOUS
 62
256
 10
114.254235631997290
 20
-81.085713407774165
 40
0.399999999999977
 50
90.000000000000000
 51
172.299196497494170
  0
ARC
  8
0
  6
CONTINUOUS
 62
256
 10
138.454235631997560
 20
-65.235713407774142
 40
0.400000000000091
 50
0.000000000000000
 51
90.000000000000000
  0
ARC
  8
0
  6
CONTINUOUS
 62
256
 10
114.254235631997290
 20
-64.585713407774165
 40
0.399999999999859
 50
187.700803502505980
 51
270.000000000000000
  0
ARC
  8
0
  6
CONTINUOUS
 62
256
 10
110.854235632021300
 20
-93.835713407774165
 40
1.000000000000000
 50
90.000000000000000
 51
180.000000000000000
  0
ARC
  8
0
  6
CONTINUOUS
 62
256
 10
110.854235632021300
 20
-91.835713407774165
 40
1.000000000000000
 50
270.000000000000000
 51
0.000000000000000
  0
ARC
  8
0
  6
CONTINUOUS
 62
256
 10
110.854235632021300
 20
-51.835713407774165
 40
1.000000000000000
 50
180.000000000000000
 51
270.000000000000000
  0
ARC
  8
0
  6
CONTINUOUS
 62
256
 10
110.854235632021300
 20
-53.835713407774165
 40
1.000000000000000
 50
0.000000000000000
 51
90.000000000000000
  0
ARC
  8
0
  6
CONTINUOUS
 62
256
 10
107.854235632019940
 20
-50.392922028264252
 40
2.000000000000000
 50
0.000000000000000
 51
40.046696754630325
  0
ARC
  8
0
  6
CONTINUOUS
 62
256
 10
117.354235631997650
 20
-72.835713407774165
 40
2.500000000000000
 50
90.000000000000000
 51
270.000000000000000
  0
LINE
  8
0
  6
CONTINUOUS
 62
256
 10
59.854235632021300
 20
-30.853173792519897
 11
59.854235632021300
 21
-72.835713407774165
  0
LINE
  8
0
  6
CONTINUOUS
 62
256
 10
59.854235632021300
 20
-124.930253172845820
 11
59.854235632021300
 21
-72.835713407774165
  0
LINE
  8
0
  6
CONTINUOUS
 62
256
 10
55.421496996770202
 20
-129.572526842698270
 11
61.300716777569505
 21
-123.415397033457320
  0
LINE
  8
0
  6
CONTINUOUS
 62
256
 10
61.854235632022210
 20
-129.962960161363640
 11
34.281536951900762
 21
-130.765098904209480
  0
LINE
  8
0
  6
CONTINUOUS
 62
256
 10
31.854235632021300
 20
-142.335713407774160
 11
31.854235632021300
 21
-133.313991434261770
  0
LINE
  8
0
  6
CONTINUOUS
 62
256
 10
109.854235632021300
 20
-142.835713407774160
 11
33.854235632021300
 21
-142.835713407774160
  0
LINE
  8
0
  6
DASHDOT
 62
256
 10
41.854235632021300
 20
-144.793561305370530
 11
41.854235632021300
 21
-127.758279891979310
  0
LINE
  8
0
  6
CONTINUOUS
 62
256
 10
61.854235632021300
 20
-122.034204687846230
 11
61.854235632021300
 21
-110.269695929162820
  0
LINE
  8
0
  6
CONTINUOUS
 62
256
 10
31.854235632021300
 20
-142.335713407774160
 11
33.854235632021300
 21
-142.335713407774160
  0
LINE
  8
0
  6
CONTINUOUS
 62
256
 10
33.854235632021300
 20
-142.835713407774160
 11
33.854235632021300
 21
-142.335713407774160
  0
LINE
  8
0
  6
CONTINUOUS
 62
256
 10
109.397866648114340
 20
-130.792837327672490
 11
61.854235632021300
 21
-129.962960161363640
  0
LINE
  8
0
  6
CONTINUOUS
 62
256
 10
59.854235632021300
 20
-30.853173792519897
 11
72.854235632019936
 21
-31.307143795912680
  0
LINE
  8
0
  6
CONTINUOUS
 62
256
 10
54.354235632021300
 20
-31.422691130337057
 11
54.354235632021300
 21
-35.829095122743752
  0
LINE
  8
0
  6
CONTINUOUS
 62
256
 10
59.354235632021300
 20
-30.844067174138218
 11
59.354235632021300
 21
-125.453888114114420
  0
LINE
  8
0
  6
CONTINUOUS
 62
256
 10
53.354235632021300
 20
-36.229095122743729
 11
53.954235632021209
 21
-36.229095122743729
  0
LINE
  8
0
  6
CONTINUOUS
 62
256
 10
33.854235632009477
 20
-37.335713407774051
 11
33.854235632009477
 21
-130.814551918258080
  0
LINE
  8
0
  6
CONTINUOUS
 62
256
 10
33.854235632009477
 20
-120.435713407774300
 11
33.854235632009477
 21
-120.235713407774260
  0
LINE
  8
0
  6
CONTINUOUS
 62
256
 10
54.354235632021300
 20
-73.985713407774256
 11
54.354235632021300
 21
-83.685713407774529
  0
LINE
  8
0
  6
CONTINUOUS
 62
256
 10
53.354235632021300
 20
-84.085713407774506
 11
53.954235632021209
 21
-84.085713407774506
  0
LINE
  8
0
  6
CONTINUOUS
 62
256
 10
53.354235632021300
 20
-73.585713407774278
 11
53.954235632021209
 21
-73.585713407774278
  0
LINE
  8
0
  6
CONTINUOUS
 62
256
 10
49.854235632021300
 20
-71.835713407774278
 11
51.854235632021300
 21
-71.835713407774278
  0
LINE
  8
0
  6
CONTINUOUS
 62
256
 10
49.354235632021300
 20
-71.335713407774278
 11
49.354235632021300
 21
-66.835713407774278
  0
LINE
  8
0
  6
CONTINUOUS
 62
256
 10
49.854235632021300
 20
-61.835713407774278
 11
51.854235632021300
 21
-61.835713407774278
  0
LINE
  8
0
  6
CONTINUOUS
 62
256
 10
49.354235632021300
 20
-62.335713407774278
 11
49.354235632021300
 21
-66.835713407774278
  0
LINE
  8
0
  6
CONTINUOUS
 62
256
 10
33.854235632009477
 20
-55.235713407774028
 11
33.854235632009477
 21
-55.435713407774074
  0
LINE
  8
0
  6
CONTINUOUS
 62
256
 10
52.354235632021300
 20
-31.457601260193314
 11
52.354235632021300
 21
-34.585714361448368
  0
LINE
  8
0
  6
CONTINUOUS
 62
256
 10
49.354236394960765
 20
-34.890552721119491
 11
32.854235632009477
 21
-35.322620446989731
  0
LINE
  8
0
  6
CONTINUOUS
 62
256
 10
52.845509428802870
 20
-30.957677412615340
 11
59.354235632021300
 21
-30.844067174138218
  0
LINE
  8
0
  6
CONTINUOUS
 62
256
 10
52.354235632021300
 20
-37.229095122743729
 11
52.354235632021300
 21
-74.585340595348839
  0
LINE
  8
0
  6
CONTINUOUS
 62
256
 10
52.354235632021300
 20
-83.085338688000206
 11
52.354235632021300
 21
-130.239332022727130
  0
LINE
  8
0
  6
DASHDOT
 62
256
 10
151.457788650373910
 20
-72.835713407774165
 11
85.394238629649408
 21
-72.835713407774165
  0
LINE
  8
0
  6
CONTINUOUS
 62
256
 10
32.854235632009249
 20
-87.835713407774165
 11
32.854235632009249
 21
-35.335713407774165
  0
LINE
  8
0
  6
CONTINUOUS
 62
256
 10
34.301971400375805
 20
-36.838452460089911
 11
49.354236394960765
 21
-36.049596678543764
  0
LINE
  8
0
  6
CONTINUOUS
 62
256
 10
32.854235632009477
 20
-35.335713407774165
 11
32.854235632009022
 21
-131.264041661048620
  0
LINE
  8
0
  6
CONTINUOUS
 62
256
 10
33.854235632009477
 20
-47.795278001249699
 11
52.354235632021300
 21
-47.795278001249699
  0
LINE
  8
0
  6
CONTINUOUS
 62
256
 10
33.854235632009477
 20
-54.532112456265395
 11
52.354235632021300
 21
-54.532112456265395
  0
LINE
  8
0
  6
CONTINUOUS
 62
256
 10
33.854235632009477
 20
-56.121322249004209
 11
52.354235632021300
 21
-56.121322249004152
  0
LINE
  8
0
  6
CONTINUOUS
 62
256
 10
33.854235632009477
 20
-59.079317857137085
 11
52.354235632021300
 21
-59.079317857137085
  0
LINE
  8
0
  6
CONTINUOUS
 62
256
 10
33.854235632009477
 20
-60.558341010614186
 11
52.354235632021300
 21
-60.558341010614186
  0
LINE
  8
0
  6
CONTINUOUS
 62
256
 10
33.854235632009477
 20
-43.331057880669277
 11
52.354235632021300
 21
-43.331057880669277
  0
LINE
  8
0
  6
CONTINUOUS
 62
256
 10
33.854235632009477
 20
-107.835713407774160
 11
52.354235632021300
 21
-107.835713407774160
  0
LINE
  8
0
  6
CONTINUOUS
 62
256
 10
33.854235632009477
 20
-110.673953087770310
 11
52.354235632021300
 21
-110.673953087770310
  0
LINE
  8
0
  6
CONTINUOUS
 62
256
 10
33.854235632009477
 20
-112.020354813268800
 11
52.354235632021300
 21
-112.020354813268800
  0
LINE
  8
0
  6
CONTINUOUS
 62
256
 10
33.854235632009477
 20
-115.113085804934140
 11
52.354235632021300
 21
-115.113085804934140
  0
LINE
  8
0
  6
CONTINUOUS
 62
256
 10
33.854235632009477
 20
-116.592108958411250
 11
52.354235632021300
 21
-116.592108958411250
  0
LINE
  8
0
  6
CONTINUOUS
 62
256
 10
33.854235632009477
 20
-119.550104566544160
 11
52.354235632021300
 21
-119.550104566544160
  0
LINE
  8
0
  6
CONTINUOUS
 62
256
 10
33.854235632009477
 20
-121.139314359282930
 11
52.354235632021300
 21
-121.139314359282930
  0
LINE
  8
0
  6
CONTINUOUS
 62
256
 10
33.854235632009477
 20
-127.876148814298630
 11
52.354235632021300
 21
-127.876148814298630
  0
LINE
  8
0
  6
CONTINUOUS
 62
256
 10
33.854235632009477
 20
-128.877627178113930
 11
52.354235632021300
 21
-128.877627178113930
  0
LINE
  8
0
  6
CONTINUOUS
 62
256
 10
33.854235632009477
 20
-41.702630812891584
 11
49.354236394960765
 21
-41.702630812891584
  0
LINE
  8
0
  6
CONTINUOUS
 62
256
 10
33.854235632009477
 20
-63.651072002279307
 11
49.354235632021300
 21
-63.651072002279307
  0
LINE
  8
0
  6
CONTINUOUS
 62
256
 10
33.854235632009477
 20
-64.997473727778015
 11
49.354235632021300
 21
-64.997473727778015
  0
LINE
  8
0
  6
CONTINUOUS
 62
256
 10
33.854235632009477
 20
-67.835713407774165
 11
49.354235632021300
 21
-67.835713407774165
  0
LINE
  8
0
  6
CONTINUOUS
 62
256
 10
111.854235632021300
 20
-133.292456565563500
 11
111.854235632021300
 21
-142.335713407774160
  0
LINE
  8
0
  6
DASHDOT
 62
256
 10
101.854235632021300
 20
-144.793561305370530
 11
101.854235632021300
 21
-129.559249941833630
  0
LINE
  8
0
  6
CONTINUOUS
 62
256
 10
109.854235632021300
 20
-142.835713407774160
 11
109.854235632021300
 21
-142.335713407774160
  0
LINE
  8
0
  6
CONTINUOUS
 62
256
 10
109.854235632021300
 20
-142.335713407774160
 11
111.854235632021300
 21
-142.335713407774160
  0
LINE
  8
0
  6
CONTINUOUS
 62
256
 10
91.908971864699197
 20
-128.522173007473950
 11
91.908971864699197
 21
-73.363311363774415
  0
LINE
  8
0
  6
CONTINUOUS
 62
256
 10
111.854235632021300
 20
-81.335720846435493
 11
113.554235631997470
 21
-81.335720846435493
  0
LINE
  8
0
  6
CONTINUOUS
 62
256
 10
111.854235632021300
 20
-64.335705969112837
 11
113.554235631997470
 21
-64.335705969112837
  0
LINE
  8
0
  6
CONTINUOUS
 62
256
 10
138.854235631997650
 20
-72.835713407774165
 11
138.854235631997650
 21
-65.235713407774142
  0
LINE
  8
0
  6
CONTINUOUS
 62
256
 10
138.854235631997650
 20
-72.835713407774165
 11
138.854235631997650
 21
-80.435713407774188
  0
LINE
  8
0
  6
CONTINUOUS
 62
256
 10
113.854235631997650
 20
-72.835713407774165
 11
113.854235631997650
 21
-81.035720846435538
  0
LINE
  8
0
  6
CONTINUOUS
 62
256
 10
138.454235631997560
 20
-80.835713407774165
 11
116.973850874268010
 21
-80.835713407774165
  0
LINE
  8
0
  6
CONTINUOUS
 62
256
 10
116.414043253132600
 20
-80.685713407774188
 11
114.254235631997290
 21
-80.685713407774188
  0
LINE
  8
0
  6
CONTINUOUS
 62
256
 10
116.414043253132600
 20
-80.685713407774188
 11
116.973850874268010
 21
-80.835713407774165
  0
LINE
  8
0
  6
CONTINUOUS
 62
256
 10
113.554235631997470
 20
-81.335720846435493
 11
113.857843103746750
 21
-81.032113374686219
  0
LINE
  8
0
  6
CONTINUOUS
 62
256
 10
113.854235631997650
 20
-72.835713407774165
 11
113.854235631997650
 21
-64.635705969112792
  0
LINE
  8
0
  6
CONTINUOUS
 62
256
 10
138.454235631997560
 20
-64.835713407774165
 11
116.973850874268010
 21
-64.835713407774165
  0
LINE
  8
0
  6
CONTINUOUS
 62
256
 10
116.414043253132600
 20
-64.985713407774142
 11
114.254235631997290
 21
-64.985713407774142
  0
LINE
  8
0
  6
CONTINUOUS
 62
256
 10
116.414043253132600
 20
-64.985713407774142
 11
116.973850874268010
 21
-64.835713407774165
  0
LINE
  8
0
  6
CONTINUOUS
 62
256
 10
113.554235631997470
 20
-64.335705969112837
 11
113.857843103746750
 21
-64.639313440862111
  0
LINE
  8
0
  6
CONTINUOUS
 62
256
 10
107.508971864699560
 20
-128.794472020354080
 11
107.508971864699560
 21
-73.363311979931154
  0
LINE
  8
0
  6
CONTINUOUS
 62
256
 10
111.854235632021300
 20
-72.835713407774051
 11
111.854235632021300
 21
-53.835713407774165
  0
LINE
  8
0
  6
CONTINUOUS
 62
256
 10
111.854235632021300
 20
-72.835713407774051
 11
111.854235632021300
 21
-91.835713407774165
  0
LINE
  8
0
  6
CONTINUOUS
 62
256
 10
109.854235632021300
 20
-50.392922028264252
 11
109.854235632021300
 21
-72.835713407774051
  0
LINE
  8
0
  6
CONTINUOUS
 62
256
 10
109.854235632021300
 20
-130.130178905395160
 11
109.854235632021300
 21
-72.835713407774051
  0
LINE
  8
0
  6
CONTINUOUS
 62
256
 10
138.854235631997650
 20
-70.335713407774165
 11
117.354235631997650
 21
-70.335713407774165
  0
LINE
  8
0
  6
CONTINUOUS
 62
256
 10
138.854235631997650
 20
-75.335713407774165
 11
117.354235631997650
 21
-75.335713407774165
  0
LINE
  8
0
  6
CONTINUOUS
 62
256
 10
-95.645764367990523
 20
-87.835713407774165
 11
-95.645764367990523
 21
-117.335713407774160
  0
LINE
  8
0
  6
CONTINUOUS
 62
256
 10
-20.645764367990523
 20
-87.835713407774165
 11
-20.645764367990523
 21
-117.335713407774160
  0
LINE
  8
0
  6
CONTINUOUS
 62
256
 10
-22.645764367990523
 20
-119.335713407774160
 11
-93.645764367990523
 21
-119.335713407774160
  0
ARC
  8
0
  6
CONTINUOUS
 62
256
 10
-22.645764367990523
 20
-117.335713407774160
 40
2.000000000000000
 50
270.000000000000000
 51
0.000000000000000
  0
ARC
  8
0
  6
CONTINUOUS
 62
256
 10
-93.645764367990523
 20
-117.335713407774160
 40
2.000000000000000
 50
180.000000000000000
 51
270.000000000000000
  0
LINE
  8
0
  6
CONTINUOUS
 62
256
 10
-20.645764367990523
 20
-107.835713407774160
 11
32.854235632009249
 21
-107.835713407774160
  0
LINE
  8
0
  6
CONTINUOUS
 62
256
 10
-20.645764367990523
 20
-110.673953087770310
 11
32.854235632009249
 21
-110.673953087770310
  0
LINE
  8
0
  6
CONTINUOUS
 62
256
 10
-20.645764367990523
 20
-112.020354813268900
 11
32.854235632009249
 21
-112.020354813268900
  0
LINE
  8
0
  6
CONTINUOUS
 62
256
 10
-20.645764367990523
 20
-115.113085804934140
 11
32.854235632009249
 21
-115.113085804934140
  0
LINE
  8
0
  6
CONTINUOUS
 62
256
 10
-20.645764367990523
 20
-116.592108958411250
 11
32.854235632009249
 21
-116.592108958411250
  0
LINE
  8
0
  6
CONTINUOUS
 62
256
 10
-22.645764367990523
 20
-117.835713407774160
 11
-93.645764367990523
 21
-117.835713407774160
  0
ARC
  8
0
  6
CONTINUOUS
 62
256
 10
-93.645764367990523
 20
-116.835713407774160
 40
1.000000000000000
 50
180.000000000000000
 51
270.000000000000000
  0
ARC
  8
0
  6
CONTINUOUS
 62
256
 10
-22.645764367990523
 20
-116.835713407774160
 40
1.000000000000000
 50
270.000000000000000
 51
0.000000000000000
  0
LINE
  8
0
  6
CONTINUOUS
 62
256
 10
-97.645764368011669
 20
-87.835713407774165
 11
-97.645764368011669
 21
-122.835713407774160
  0
LINE
  8
0
  6
CONTINUOUS
 62
256
 10
-90.645764368011669
 20
-125.835713407774160
 11
-94.645764368011669
 21
-125.835713407774160
  0
ARC
  8
0
  6
CONTINUOUS
 62
256
 10
-94.645764368011669
 20
-122.835713407774160
 40
3.000000000000000
 50
180.000000000000000
 51
270.000000000000000
  0
LINE
  8
0
  6
CONTINUOUS
 62
256
 10
-87.645764368011669
 20
-141.835713407774390
 11
-87.645764368011669
 21
-128.835713407774160
  0
ARC
  8
0
  6
CONTINUOUS
 62
256
 10
-90.645764368011669
 20
-128.835713407774160
 40
3.000000000000000
 50
0.000000000000000
 51
90.000000000000000
  0
LINE
  8
0
  6
CONTINUOUS
 62
256
 10
-94.036073550116271
 20
-135.866001328322060
 11
-93.945764368011453
 21
-135.163044362121700
  0
LINE
  8
0
  6
CONTINUOUS
 62
256
 10
-94.303530565208405
 20
-136.541944052534150
 11
-94.036073550116271
 21
-135.866001328322060
  0
LINE
  8
0
  6
CONTINUOUS
 62
256
 10
-94.737857190189487
 20
-137.164896434939550
 11
-94.303530565208405
 21
-136.541944052534150
  0
LINE
  8
0
  6
CONTINUOUS
 62
256
 10
-95.322362496434678
 20
-137.710918764838140
 11
-94.737857190189487
 21
-137.164896434939550
  0
LINE
  8
0
  6
CONTINUOUS
 62
256
 10
-96.034584272819316
 20
-138.159027710304770
 11
-95.322362496434678
 21
-137.710918764838140
  0
LINE
  8
0
  6
CONTINUOUS
 62
256
 10
-96.847152235895521
 20
-138.492002695867510
 11
-96.034584272819316
 21
-138.159027710304770
  0
LINE
  8
0
  6
CONTINUOUS
 62
256
 10
-97.728839854535636
 20
-138.697047679565770
 11
-96.847152235895521
 21
-138.492002695867510
  0
LINE
  8
0
  6
CONTINUOUS
 62
256
 10
-98.645764368011442
 20
-138.766282897666540
 11
-97.728839854535636
 21
-138.697047679565770
  0
LINE
  8
0
  6
CONTINUOUS
 62
256
 10
-99.562688881487247
 20
-138.697047679565770
 11
-98.645764368011442
 21
-138.766282897666540
  0
LINE
  8
0
  6
CONTINUOUS
 62
256
 10
-100.444376500127360
 20
-138.492002695867510
 11
-99.562688881487247
 21
-138.697047679565770
  0
LINE
  8
0
  6
CONTINUOUS
 62
256
 10
-101.256944463203570
 20
-138.159027710304770
 11
-100.444376500127360
 21
-138.492002695867510
  0
LINE
  8
0
  6
CONTINUOUS
 62
256
 10
-101.969166239588200
 20
-137.710918764838140
 11
-101.256944463203570
 21
-138.159027710304770
  0
LINE
  8
0
  6
CONTINUOUS
 62
256
 10
-102.553671545833400
 20
-137.164896434939550
 11
-101.969166239588200
 21
-137.710918764838140
  0
LINE
  8
0
  6
CONTINUOUS
 62
256
 10
-102.987998170814460
 20
-136.541944052534150
 11
-102.553671545833400
 21
-137.164896434939550
  0
LINE
  8
0
  6
CONTINUOUS
 62
256
 10
-103.255455185906610
 20
-135.866001328322060
 11
-102.987998170814460
 21
-136.541944052534150
  0
LINE
  8
0
  6
CONTINUOUS
 62
256
 10
-103.345764368011430
 20
-135.163044362121700
 11
-103.255455185906610
 21
-135.866001328322060
  0
LINE
  8
0
  6
CONTINUOUS
 62
256
 10
-103.255455185906610
 20
-134.460087395921330
 11
-103.345764368011430
 21
-135.163044362121700
  0
LINE
  8
0
  6
CONTINUOUS
 62
256
 10
-102.987998170814460
 20
-133.784144671709240
 11
-103.255455185906610
 21
-134.460087395921330
  0
LINE
  8
0
  6
CONTINUOUS
 62
256
 10
-102.553671545833400
 20
-133.161192289303840
 11
-102.987998170814460
 21
-133.784144671709240
  0
LINE
  8
0
  6
CONTINUOUS
 62
256
 10
-101.969166239588200
 20
-132.615169959405250
 11
-102.553671545833400
 21
-133.161192289303840
  0
LINE
  8
0
  6
CONTINUOUS
 62
256
 10
-101.256944463203570
 20
-132.167061013938620
 11
-101.969166239588200
 21
-132.615169959405250
  0
LINE
  8
0
  6
CONTINUOUS
 62
256
 10
-100.444376500127360
 20
-131.834086028375880
 11
-101.256944463203570
 21
-132.167061013938620
  0
LINE
  8
0
  6
CONTINUOUS
 62
256
 10
-99.562688881487247
 20
-131.629041044677620
 11
-100.444376500127360
 21
-131.834086028375880
  0
LINE
  8
0
  6
CONTINUOUS
 62
256
 10
-98.645764368011442
 20
-131.559805826576850
 11
-99.562688881487247
 21
-131.629041044677620
  0
LINE
  8
0
  6
CONTINUOUS
 62
256
 10
-97.728839854535636
 20
-131.629041044677620
 11
-98.645764368011442
 21
-131.559805826576850
  0
LINE
  8
0
  6
CONTINUOUS
 62
256
 10
-96.847152235895521
 20
-131.834086028375880
 11
-97.728839854535636
 21
-131.629041044677620
  0
LINE
  8
0
  6
CONTINUOUS
 62
256
 10
-96.034584272819316
 20
-132.167061013938620
 11
-96.847152235895521
 21
-131.834086028375880
  0
LINE
  8
0
  6
CONTINUOUS
 62
256
 10
-95.322362496434678
 20
-132.615169959405250
 11
-96.034584272819316
 21
-132.167061013938620
  0
LINE
  8
0
  6
CONTINUOUS
 62
256
 10
-94.737857190189487
 20
-133.161192289303840
 11
-95.322362496434678
 21
-132.615169959405250
  0
LINE
  8
0
  6
CONTINUOUS
 62
256
 10
-94.303530565208405
 20
-133.784144671709240
 11
-94.737857190189487
 21
-133.161192289303840
  0
LINE
  8
0
  6
CONTINUOUS
 62
256
 10
-94.036073550116271
 20
-134.460087395921330
 11
-94.303530565208405
 21
-133.784144671709240
  0
LINE
  8
0
  6
CONTINUOUS
 62
256
 10
-93.945764368011453
 20
-135.163044362121700
 11
-94.036073550116271
 21
-134.460087395921330
  0
LINE
  8
0
  6
CONTINUOUS
 62
256
 10
-100.645764368011650
 20
-138.155419916122130
 11
-98.645764368011896
 21
-136.979634430499230
  0
LINE
  8
0
  6
CONTINUOUS
 62
256
 10
-98.645764368011896
 20
-136.979634430499230
 11
-96.645764368011669
 21
-135.326992791375910
  0
LINE
  8
0
  6
CONTINUOUS
 62
256
 10
-96.645764368011669
 20
-138.155419916122130
 11
-98.645764368011896
 21
-136.979634430499230
  0
LINE
  8
0
  6
CONTINUOUS
 62
256
 10
-98.645764368011896
 20
-136.979634430499230
 11
-100.645764368011650
 21
-135.326992791375910
  0
LINE
  8
0
  6
CONTINUOUS
 62
256
 10
31.854235632021300
 20
-140.335713407774160
 11
-87.645764368011669
 21
-140.335713407774160
  0
LINE
  8
0
  6
CONTINUOUS
 62
256
 10
-87.645764368011669
 20
-138.335713407774160
 11
31.854235632021300
 21
-138.335713407774160
  0
LINE
  8
0
  6
CONTINUOUS
 62
256
 10
-87.645764368011669
 20
-138.835713407774160
 11
31.854235632021300
 21
-138.835713407774160
  0
LINE
  8
0
  6
CONTINUOUS
 62
256
 10
-87.645764368011669
 20
-133.968796002656860
 11
31.854235632021300
 21
-133.968796002656860
  0
LINE
  8
0
  6
CONTINUOUS
 62
256
 10
-87.645764368011669
 20
-132.340368934879050
 11
32.031128080712165
 21
-132.340368934879050
  0
LINE
  8
0
  6
CONTINUOUS
 62
256
 10
-87.645764368011669
 20
-128.877627178113810
 11
32.854235632009249
 21
-128.877627178113810
  0
LINE
  8
0
  6
CONTINUOUS
 62
256
 10
-87.803364714382951
 20
-127.876148814298500
 11
32.854235632009249
 21
-127.876148814298500
  0
LINE
  8
0
  6
CONTINUOUS
 62
256
 10
-97.645764368011669
 20
-121.139314359282820
 11
32.854235632009249
 21
-121.139314359282820
  0
LINE
  8
0
  6
CONTINUOUS
 62
256
 10
-97.645764368011669
 20
-119.550104566544160
 11
32.854235632009249
 21
-119.550104566544160
  0
LINE
  8
0
  6
CONTINUOUS
 62
256
 10
-97.645764368011669
 20
-116.592108958411250
 11
-95.645764367990523
 21
-116.592108958411250
  0
LINE
  8
0
  6
CONTINUOUS
 62
256
 10
-97.645764368011669
 20
-115.113085804934140
 11
-95.645764367990523
 21
-115.113085804934140
  0
LINE
  8
0
  6
CONTINUOUS
 62
256
 10
-97.645764368011669
 20
-112.020354813268900
 11
-95.645764367990523
 21
-112.020354813268900
  0
LINE
  8
0
  6
CONTINUOUS
 62
256
 10
-97.645764368011669
 20
-110.673953087770310
 11
-95.645764367990523
 21
-110.673953087770310
  0
LINE
  8
0
  6
CONTINUOUS
 62
256
 10
-97.645764368011669
 20
-107.835713407774160
 11
-95.645764367990523
 21
-107.835713407774160
  0
LINE
  8
0
  6
CONTINUOUS
 62
256
 10
-87.645764368011669
 20
-141.835713407774390
 11
-117.150609317104680
 21
-141.835713407774390
  0
ARC
  8
0
  6
CONTINUOUS
 62
256
 10
-117.150609317104680
 20
-121.235713407774360
 40
20.599999999999902
 50
235.000000000000450
 51
270.000000000000000
  0
ARC
  8
0
  6
CONTINUOUS
 62
256
 10
-135.045764368011990
 20
-130.679333541403710
 40
2.599999999999909
 50
180.000000000000000
 51
234.999999999997500
  0
LINE
  8
0
  6
CONTINUOUS
 62
256
 10
-137.645764368011900
 20
-130.679333541403710
 11
-137.645764368011900
 21
-87.835713407774165
  0
LINE
  8
0
  6
CONTINUOUS
 62
256
 10
-128.966283905936050
 20
-138.110245520127590
 11
-136.537063102524830
 21
-132.809128856555050
  0
LINE
  8
0
  6
CONTINUOUS
 62
256
 10
-94.645764367990523
 20
-87.835713407774165
 11
-94.645764367990523
 21
-116.835713407774160
  0
LINE
  8
0
  6
CONTINUOUS
 62
256
 10
-21.645764367990523
 20
-116.835713407774160
 11
-21.645764367990523
 21
-87.835713407774165
  0
LINE
  8
0
  6
CONTINUOUS
 62
256
 10
-97.645764368011669
 20
-87.835713407774165
 11
-97.645764368011669
 21
-52.835713407774165
  0
LINE
  8
0
  6
CONTINUOUS
 62
256
 10
-90.645764368011669
 20
-49.835713407774165
 11
-94.645764368011669
 21
-49.835713407774165
  0
ARC
  8
0
  6
CONTINUOUS
 62
256
 10
-94.645764368011669
 20
-52.835713407774165
 40
3.000000000000000
 50
90.000000000000000
 51
180.000000000000000
  0
LINE
  8
0
  6
CONTINUOUS
 62
256
 10
-87.645764368011669
 20
-33.835713407773937
 11
-87.645764368011669
 21
-46.835713407774165
  0
ARC
  8
0
  6
CONTINUOUS
 62
256
 10
-90.645764368011669
 20
-46.835713407774165
 40
3.000000000000000
 50
270.000000000000000
 51
0.000000000000000
  0
LINE
  8
0
  6
CONTINUOUS
 62
256
 10
-94.036073550116271
 20
-41.211339419626881
 11
-93.945764368011453
 21
-40.508382453426520
  0
LINE
  8
0
  6
CONTINUOUS
 62
256
 10
-94.303530565208405
 20
-41.887282143838974
 11
-94.036073550116271
 21
-41.211339419626881
  0
LINE
  8
0
  6
CONTINUOUS
 62
256
 10
-94.737857190189487
 20
-42.510234526244375
 11
-94.303530565208405
 21
-41.887282143838974
  0
LINE
  8
0
  6
CONTINUOUS
 62
256
 10
-95.322362496434678
 20
-43.056256856142952
 11
-94.737857190189487
 21
-42.510234526244375
  0
LINE
  8
0
  6
CONTINUOUS
 62
256
 10
-96.034584272819316
 20
-43.504365801609573
 11
-95.322362496434678
 21
-43.056256856142952
  0
LINE
  8
0
  6
CONTINUOUS
 62
256
 10
-96.847152235895521
 20
-43.837340787172330
 11
-96.034584272819316
 21
-43.504365801609573
  0
LINE
  8
0
  6
CONTINUOUS
 62
256
 10
-97.728839854535636
 20
-44.042385770870581
 11
-96.847152235895521
 21
-43.837340787172330
  0
LINE
  8
0
  6
CONTINUOUS
 62
256
 10
-98.645764368011442
 20
-44.111620988971353
 11
-97.728839854535636
 21
-44.042385770870581
  0
LINE
  8
0
  6
CONTINUOUS
 62
256
 10
-99.562688881487247
 20
-44.042385770870581
 11
-98.645764368011442
 21
-44.111620988971353
  0
LINE
  8
0
  6
CONTINUOUS
 62
256
 10
-100.444376500127360
 20
-43.837340787172330
 11
-99.562688881487247
 21
-44.042385770870581
  0
LINE
  8
0
  6
CONTINUOUS
 62
256
 10
-101.256944463203570
 20
-43.504365801609573
 11
-100.444376500127360
 21
-43.837340787172330
  0
LINE
  8
0
  6
CONTINUOUS
 62
256
 10
-101.969166239588200
 20
-43.056256856142952
 11
-101.256944463203570
 21
-43.504365801609573
  0
LINE
  8
0
  6
CONTINUOUS
 62
256
 10
-102.553671545833400
 20
-42.510234526244375
 11
-101.969166239588200
 21
-43.056256856142952
  0
LINE
  8
0
  6
CONTINUOUS
 62
256
 10
-102.987998170814460
 20
-41.887282143838974
 11
-102.553671545833400
 21
-42.510234526244375
  0
LINE
  8
0
  6
CONTINUOUS
 62
256
 10
-103.255455185906610
 20
-41.211339419626881
 11
-102.987998170814460
 21
-41.887282143838974
  0
LINE
  8
0
  6
CONTINUOUS
 62
256
 10
-103.345764368011430
 20
-40.508382453426520
 11
-103.255455185906610
 21
-41.211339419626881
  0
LINE
  8
0
  6
CONTINUOUS
 62
256
 10
-103.255455185906610
 20
-39.805425487226159
 11
-103.345764368011430
 21
-40.508382453426520
  0
LINE
  8
0
  6
CONTINUOUS
 62
256
 10
-102.987998170814460
 20
-39.129482763014067
 11
-103.255455185906610
 21
-39.805425487226159
  0
LINE
  8
0
  6
CONTINUOUS
 62
256
 10
-102.553671545833400
 20
-38.506530380608666
 11
-102.987998170814460
 21
-39.129482763014067
  0
LINE
  8
0
  6
CONTINUOUS
 62
256
 10
-101.969166239588200
 20
-37.960508050710082
 11
-102.553671545833400
 21
-38.506530380608666
  0
LINE
  8
0
  6
CONTINUOUS
 62
256
 10
-101.256944463203570
 20
-37.512399105243468
 11
-101.969166239588200
 21
-37.960508050710082
  0
LINE
  8
0
  6
CONTINUOUS
 62
256
 10
-100.444376500127360
 20
-37.179424119680711
 11
-101.256944463203570
 21
-37.512399105243468
  0
LINE
  8
0
  6
CONTINUOUS
 62
256
 10
-99.562688881487247
 20
-36.974379135982460
 11
-100.444376500127360
 21
-37.179424119680711
  0
LINE
  8
0
  6
CONTINUOUS
 62
256
 10
-98.645764368011442
 20
-36.905143917881688
 11
-99.562688881487247
 21
-36.974379135982460
  0
LINE
  8
0
  6
CONTINUOUS
 62
256
 10
-97.728839854535636
 20
-36.974379135982460
 11
-98.645764368011442
 21
-36.905143917881688
  0
LINE
  8
0
  6
CONTINUOUS
 62
256
 10
-96.847152235895521
 20
-37.179424119680711
 11
-97.728839854535636
 21
-36.974379135982460
  0
LINE
  8
0
  6
CONTINUOUS
 62
256
 10
-96.034584272819316
 20
-37.512399105243468
 11
-96.847152235895521
 21
-37.179424119680711
  0
LINE
  8
0
  6
CONTINUOUS
 62
256
 10
-95.322362496434678
 20
-37.960508050710082
 11
-96.034584272819316
 21
-37.512399105243468
  0
LINE
  8
0
  6
CONTINUOUS
 62
256
 10
-94.737857190189487
 20
-38.506530380608666
 11
-95.322362496434678
 21
-37.960508050710082
  0
LINE
  8
0
  6
CONTINUOUS
 62
256
 10
-94.303530565208405
 20
-39.129482763014067
 11
-94.737857190189487
 21
-38.506530380608666
  0
LINE
  8
0
  6
CONTINUOUS
 62
256
 10
-94.036073550116271
 20
-39.805425487226159
 11
-94.303530565208405
 21
-39.129482763014067
  0
LINE
  8
0
  6
CONTINUOUS
 62
256
 10
-93.945764368011453
 20
-40.508382453426520
 11
-94.036073550116271
 21
-39.805425487226159
  0
LINE
  8
0
  6
CONTINUOUS
 62
256
 10
-100.645764368011650
 20
-37.516006899426202
 11
-98.645764368011896
 21
-38.691792385048984
  0
LINE
  8
0
  6
CONTINUOUS
 62
256
 10
-98.645764368011896
 20
-38.691792385048984
 11
-96.645764368011669
 21
-40.344434024172415
  0
LINE
  8
0
  6
CONTINUOUS
 62
256
 10
-96.645764368011669
 20
-37.516006899426202
 11
-98.645764368011896
 21
-38.691792385048984
  0
LINE
  8
0
  6
CONTINUOUS
 62
256
 10
-98.645764368011896
 20
-38.691792385048984
 11
-100.645764368011650
 21
-40.344434024172415
  0
ARC
  8
0
  6
CONTINUOUS
 62
256
 10
-117.150609317104680
 20
-54.435713407773960
 40
20.600000000000023
 50
90.000000000000000
 51
124.999999999999630
  0
ARC
  8
0
  6
CONTINUOUS
 62
256
 10
-135.045764368011990
 20
-44.992093274144622
 40
2.600000000000131
 50
125.000000000001180
 51
180.000000000000000
  0
LINE
  8
0
  6
CONTINUOUS
 62
256
 10
-137.645764368011900
 20
-44.992093274144622
 11
-137.645764368011900
 21
-87.835713407774165
  0
LINE
  8
0
  6
CONTINUOUS
 62
256
 10
-128.966283905936050
 20
-37.561181295420624
 11
-136.537063102524830
 21
-42.862297958993167
  0
LINE
  8
0
  6
CONTINUOUS
 62
256
 10
-87.645764368011669
 20
-33.835713407773937
 11
-117.150609317104680
 21
-33.835713407773937
  0
LINE
  8
0
  6
CONTINUOUS
 62
256
 10
32.854235632009249
 20
-87.835713407774165
 11
32.854235632009249
 21
-35.335713407774165
  0
LINE
  8
0
  6
CONTINUOUS
 62
256
 10
32.854235632009249
 20
-35.335713407774165
 11
-87.645764368011669
 21
-35.335713407774165
  0
LINE
  8
0
  6
CONTINUOUS
 62
256
 10
-95.645764367990523
 20
-87.835713407774165
 11
-95.645764367990523
 21
-58.335713407774165
  0
LINE
  8
0
  6
CONTINUOUS
 62
256
 10
-20.645764367990523
 20
-87.835713407774165
 11
-20.645764367990523
 21
-58.335713407774165
  0
LINE
  8
0
  6
CONTINUOUS
 62
256
 10
-22.645764367990523
 20
-56.335713407774165
 11
-93.645764367990523
 21
-56.335713407774165
  0
ARC
  8
0
  6
CONTINUOUS
 62
256
 10
-22.645764367990523
 20
-58.335713407774165
 40
2.000000000000000
 50
0.000000000000000
 51
90.000000000000000
  0
ARC
  8
0
  6
CONTINUOUS
 62
256
 10
-93.645764367990523
 20
-58.335713407774165
 40
2.000000000000000
 50
90.000000000000000
 51
180.000000000000000
  0
LINE
  8
0
  6
DASHDOT
 62
256
 10
66.248861306385152
 20
-87.835713407774165
 11
-151.422095476262260
 21
-87.835713407774165
  0
LINE
  8
0
  6
CONTINUOUS
 62
256
 10
-87.645764368011669
 20
-37.335713407774165
 11
32.854235632009249
 21
-37.335713407774165
  0
LINE
  8
0
  6
CONTINUOUS
 62
256
 10
-87.645764368011669
 20
-36.835713407774051
 11
32.854235632009249
 21
-36.835713407774051
  0
LINE
  8
0
  6
CONTINUOUS
 62
256
 10
-87.645764368011669
 20
-41.702630812891471
 11
32.854235632009249
 21
-41.702630812891471
  0
LINE
  8
0
  6
CONTINUOUS
 62
256
 10
-87.645764368011669
 20
-46.793799637434404
 11
32.854235632009249
 21
-46.793799637434404
  0
LINE
  8
0
  6
CONTINUOUS
 62
256
 10
-97.645764368011669
 20
-67.835713407774165
 11
-95.645764367990523
 21
-67.835713407774165
  0
LINE
  8
0
  6
CONTINUOUS
 62
256
 10
-97.645764368011669
 20
-54.532112456265395
 11
32.854235632009249
 21
-54.532112456265395
  0
LINE
  8
0
  6
CONTINUOUS
 62
256
 10
-97.645764368011669
 20
-56.121322249004152
 11
32.854235632009249
 21
-56.121322249004152
  0
LINE
  8
0
  6
CONTINUOUS
 62
256
 10
-97.645764368011669
 20
-59.079317857137085
 11
-95.645764367990523
 21
-59.079317857137085
  0
LINE
  8
0
  6
CONTINUOUS
 62
256
 10
-97.645764368011669
 20
-60.558341010614186
 11
-95.645764367990523
 21
-60.558341010614186
  0
LINE
  8
0
  6
CONTINUOUS
 62
256
 10
-97.645764368011669
 20
-63.651072002279420
 11
-95.645764367990523
 21
-63.651072002279420
  0
LINE
  8
0
  6
CONTINUOUS
 62
256
 10
-97.645764368011669
 20
-64.997473727778015
 11
-95.645764367990523
 21
-64.997473727778015
  0
LINE
  8
0
  6
CONTINUOUS
 62
256
 10
-87.645764368011669
 20
-43.331057880669277
 11
32.854235632009249
 21
-43.331057880669277
  0
LINE
  8
0
  6
CONTINUOUS
 62
256
 10
-87.803364714382951
 20
-47.795278001249699
 11
32.854235632009249
 21
-47.795278001249699
  0
LINE
  8
0
  6
CONTINUOUS
 62
256
 10
-20.645764367990523
 20
-67.835713407774165
 11
32.854235632009249
 21
-67.835713407774165
  0
LINE
  8
0
  6
CONTINUOUS
 62
256
 10
-20.645764367990523
 20
-64.997473727778015
 11
32.854235632009249
 21
-64.997473727778015
  0
LINE
  8
0
  6
CONTINUOUS
 62
256
 10
-20.645764367990523
 20
-63.651072002279420
 11
32.854235632009249
 21
-63.651072002279420
  0
LINE
  8
0
  6
CONTINUOUS
 62
256
 10
-20.645764367990523
 20
-60.558341010614186
 11
32.854235632009249
 21
-60.558341010614186
  0
LINE
  8
0
  6
CONTINUOUS
 62
256
 10
-20.645764367990523
 20
-59.079317857137085
 11
32.854235632009249
 21
-59.079317857137085
  0
LINE
  8
0
  6
CONTINUOUS
 62
256
 10
-22.645764367990523
 20
-57.835713407774165
 11
-93.645764367990523
 21
-57.835713407774165
  0
LINE
  8
0
  6
CONTINUOUS
 62
256
 10
-94.645764367990523
 20
-87.835713407774165
 11
-94.645764367990523
 21
-58.835713407774165
  0
LINE
  8
0
  6
CONTINUOUS
 62
256
 10
-21.645764367990523
 20
-58.835713407774165
 11
-21.645764367990523
 21
-87.835713407774165
  0
ARC
  8
0
  6
CONTINUOUS
 62
256
 10
-93.645764367990523
 20
-58.835713407774165
 40
1.000000000000000
 50
90.000000000000000
 51
180.000000000000000
  0
ARC
  8
0
  6
CONTINUOUS
 62
256
 10
-22.645764367990523
 20
-58.835713407774165
 40
1.000000000000000
 50
0.000000000000000
 51
90.000000000000000
  0
LINE
  8
0
  6
CONTINUOUS
 62
256
 10
306.666895330213830
 20
-44.065803517456871
 11
307.153698721919450
 21
-43.579000125751257
  0
LINE
  8
0
  6
CONTINUOUS
 62
256
 10
300.020091856800150
 20
-37.419000044043159
 11
300.506895248505770
 21
-36.932196652337538
  0
LINE
  8
0
  6
CONTINUOUS
 62
256
 10
306.980033939182650
 20
-43.813256566606505
 11
300.302934636709720
 21
-37.136157264133580
  0
LINE
  8
0
  6
CONTINUOUS
 62
256
 10
306.666895330213830
 20
-44.065803517456871
 11
300.020091856800150
 21
-37.419000044043159
  0
POINT
  8
0
  6
CONTINUOUS
 62
256
 10
303.343493593506990
 20
-40.742401780750015
  0
ARC
  8
0
  6
CONTINUOUS
 62
256
 10
301.080752028579980
 20
-43.005143345677048
 40
6.099999427795400
 50
354.601910595264770
 51
95.398072101891529
  0
LINE
  8
0
  6
CONTINUOUS
 62
256
 10
205.833468602752280
 20
-44.065803517456871
 11
205.346665211046680
 21
-43.579000125751250
  0
LINE
  8
0
  6
CONTINUOUS
 62
256
 10
212.480272076166020
 20
-37.419000044043159
 11
211.993468684460400
 21
-36.932196652337538
  0
LINE
  8
0
  6
CONTINUOUS
 62
256
 10
205.520329993783520
 20
-43.813256566606498
 11
212.197429296256420
 21
-37.136157264133580
  0
LINE
  8
0
  6
CONTINUOUS
 62
256
 10
205.833468602752280
 20
-44.065803517456871
 11
212.480272076166020
 21
-37.419000044043159
  0
POINT
  8
0
  6
CONTINUOUS
 62
256
 10
209.156870339459150
 20
-40.742401780750015
  0
ARC
  8
0
  6
CONTINUOUS
 62
256
 10
211.419611904386190
 20
-43.005143345677048
 40
6.099999427795400
 50
84.601927898109011
 51
185.398089404735170
  0
LINE
  8
0
  6
CONTINUOUS
 62
256
 10
-209.326145292854650
 20
-44.065803517456871
 11
-208.839341901149060
 21
-43.579000125751250
  0
LINE
  8
0
  6
CONTINUOUS
 62
256
 10
-215.972948766268390
 20
-37.419000044043159
 11
-215.486145374562770
 21
-36.932196652337538
  0
LINE
  8
0
  6
CONTINUOUS
 62
256
 10
-209.013006683885890
 20
-43.813256566606505
 11
-215.690105986358790
 21
-37.136157264133580
  0
LINE
  8
0
  6
CONTINUOUS
 62
256
 10
-209.326145292854650
 20
-44.065803517456871
 11
-215.972948766268390
 21
-37.419000044043159
  0
POINT
  8
0
  6
CONTINUOUS
 62
256
 10
-212.649547029561520
 20
-40.742401780750015
  0
ARC
  8
0
  6
CONTINUOUS
 62
256
 10
-214.912288594488560
 20
-43.005143345677048
 40
6.099999427795398
 50
354.601910595264830
 51
95.398072101890989
  0
LINE
  8
0
  6
CONTINUOUS
 62
256
 10
-209.326145292854650
 20
-131.605623298091220
 11
-208.839341901149060
 21
-132.092426689796840
  0
LINE
  8
0
  6
CONTINUOUS
 62
256
 10
-215.972948766268390
 20
-138.252426771504960
 11
-215.486145374562770
 21
-138.739230163210550
  0
LINE
  8
0
  6
CONTINUOUS
 62
256
 10
-209.013006683885890
 20
-131.858170248941600
 11
-215.690105986358790
 21
-138.535269551414530
  0
LINE
  8
0
  6
CONTINUOUS
 62
256
 10
-209.326145292854650
 20
-131.605623298091220
 11
-215.972948766268390
 21
-138.252426771504960
  0
POINT
  8
0
  6
CONTINUOUS
 62
256
 10
-212.649547029561520
 20
-134.929025034798090
  0
ARC
  8
0
  6
CONTINUOUS
 62
256
 10
-214.912288594488560
 20
-132.666283469871050
 40
6.099999427795400
 50
264.601927898109010
 51
5.398089404735109
  0
LINE
  8
0
  6
CONTINUOUS
 62
256
 10
-310.159572020316200
 20
-131.605623298091220
 11
-310.646375412021830
 21
-132.092426689796840
  0
LINE
  8
0
  6
CONTINUOUS
 62
256
 10
-303.512768546902520
 20
-138.252426771504960
 11
-303.999571938608140
 21
-138.739230163210550
  0
LINE
  8
0
  6
CONTINUOUS
 62
256
 10
-310.472710629285020
 20
-131.858170248941600
 11
-303.795611326812090
 21
-138.535269551414530
  0
LINE
  8
0
  6
CONTINUOUS
 62
256
 10
-310.159572020316200
 20
-131.605623298091220
 11
-303.512768546902520
 21
-138.252426771504960
  0
POINT
  8
0
  6
CONTINUOUS
 62
256
 10
-306.836170283609360
 20
-134.929025034798090
  0
ARC
  8
0
  6
CONTINUOUS
 62
256
 10
-304.573428718682350
 20
-132.666283469871050
 40
6.099999427795398
 50
174.601910595264910
 51
275.398072101891500
  0
LINE
  8
0
  6
CONTINUOUS
 62
256
 10
-310.159572020316200
 20
-44.065803517456871
 11
-310.646375412021830
 21
-43.579000125751250
  0
LINE
  8
0
  6
CONTINUOUS
 62
256
 10
-303.512768546902520
 20
-37.419000044043159
 11
-303.999571938608140
 21
-36.932196652337538
  0
LINE
  8
0
  6
CONTINUOUS
 62
256
 10
-310.472710629285020
 20
-43.813256566606505
 11
-303.795611326812090
 21
-37.136157264133580
  0
LINE
  8
0
  6
CONTINUOUS
 62
256
 10
-310.159572020316200
 20
-44.065803517456871
 11
-303.512768546902520
 21
-37.419000044043159
  0
POINT
  8
0
  6
CONTINUOUS
 62
256
 10
-306.836170283609360
 20
-40.742401780750015
  0
ARC
  8
0
  6
CONTINUOUS
 62
256
 10
-304.573428718682350
 20
-43.005143345677048
 40
6.099999427795406
 50
84.601927898108485
 51
185.398089404735230
  0
ENDSEC
  0
EOF
