  0
SECTION
  2
HEADER
  9
$TEXTSIZE
 40
2.5
  9
$ACADVER
  1
AC1009
  9
$DIMASZ
 40
3.863703297614046
  9
$DIMEXE
 40
2.000000000000000
  9
$DIMEXO
 40
1.000000000000000
  9
$DIMLFAC
 40
1.000000000000000
  9
$DIMSCALE
 40
1.000000000000000
  9
$DIMTAD
 70
1
  9
$DIMTFAC
 40
0.625000000000000
  9
$DIMTXT
 40
3.200000047683716
  9
$LUPREC
 70
3
  9
$REGENMODE
 70
1
  9
$TEXTSTYLE
  7
STANDARD1
  0
ENDSEC
  0
SECTION
  2
TABLES
  0
TABLE
  2
LTYPE
 70
4
  0
LTYPE
  2
CONTINUOUS
 70
64
  3
Solid line
 72
65
 73
0
 40
0.0
  0
LTYPE
  2
DASHED
 70
64
  3
-- -- -- -- -- -- -- -- -- -- -- -- -- -- --
 72
65
 73
2
 40
0.75
 49
0.5
 49
-0.25
  0
LTYPE
  2
DASHDOT
 70
64
  3
__ . __ . __ . __ . __ . __ . __ . __ . __ . __
 72
65
 73
4
 40
1.0
 49
0.5
 49
-0.25
 49
0.0
 49
-0.25
  0
LTYPE
  2
DIVIDE
 70
64
  3
__ . . __ . . __ . . __ . . __ . . __ . . __
 72
65
 73
6
 40
1.25
 49
0.5
 49
-0.25
 49
0.0
 49
-0.25
 49
0.0
 49
-0.25
  0
ENDTAB
  0
TABLE
  2
LAYER
 70
1
  0
LAYER
  2
0
 70
64
 62
2
  6
CONTINUOUS
  0
ENDTAB
  0
TABLE
  2
STYLE
 70
4
  0
STYLE
  2
STANDARD1
 70
64
 40
0.0
 41
1.0
 50
0.0
 71
0
 42
3.200000047683716
  3
MONOTXT
  4
BIGFONT
  0
STYLE
  2
STANDARD2
 70
68
 40
0.0
 41
1.0
 50
0.0
 71
0
 42
3.200000047683716
  3
MONOTXT
  4
BIGFONT
  0
STYLE
  2
STANDARD3
 70
64
 40
0.0
 41
1.0
 50
0.0
 71
0
 42
3.200000047683716
  3
MONOTXT
  4

  0
STYLE
  2
STANDARD4
 70
68
 40
0.0
 41
1.0
 50
0.0
 71
0
 42
3.200000047683716
  3
MONOTXT
  4

  0
ENDTAB
  0
TABLE
  2
VIEW
 70
0
  0
ENDTAB
  0
ENDSEC
  0
SECTION
  2
BLOCKS
  0
BLOCK
  8
0
  2
ZU_SYM_1
 70
64
 10
0.000000000000000
 20
0.000000000000000
  0
LINE
  8
0
  6
CONTINUOUS
 62
256
 10
0.000000000000000
 20
-4.249999046325684
 11
-5.000000000000000
 21
-4.249999046325684
  0
LINE
  8
0
  6
CONTINUOUS
 62
256
 10
0.000000000000000
 20
4.249999046325684
 11
-5.000000000000000
 21
4.249999046325684
  0
LINE
  8
0
  6
CONTINUOUS
 62
256
 10
-5.000000000000000
 20
-4.249999046325684
 11
-5.000000000000000
 21
4.249999046325684
  0
LINE
  8
0
  6
CONTINUOUS
 62
256
 10
0.000000000000000
 20
-4.249999046325684
 11
0.000000000000000
 21
4.249999046325684
  0
POINT
  8
0
  6
CONTINUOUS
 62
256
 10
0.000000000000000
 20
0.000000000000000
  0
ENDBLK
  8
0
  0
ENDSEC
  0
SECTION
  2
ENTITIES
  0
LINE
  8
0
  6
CONTINUOUS
 62
256
 10
151.534903429392670
 20
-63.267344919779077
 11
126.494711050528150
 21
-63.267344919779077
  0
LINE
  8
0
  6
CONTINUOUS
 62
256
 10
125.934903429392760
 20
-63.417344919779055
 11
124.334903429392850
 21
-63.417344919779055
  0
LINE
  8
0
  6
CONTINUOUS
 62
256
 10
126.494711050528150
 20
-63.267344919779077
 11
125.934903429392760
 21
-63.417344919779055
  0
ARC
  8
0
  6
CONTINUOUS
 62
256
 10
151.534903429392670
 20
-63.667344919779055
 40
0.399999999999977
 50
0.000000000000000
 51
90.000000000000000
  0
ARC
  8
0
  6
CONTINUOUS
 62
256
 10
124.334903429392850
 20
-63.017344919779077
 40
0.399999999999977
 50
180.000000000000000
 51
270.000000000000000
  0
LINE
  8
0
  6
CONTINUOUS
 62
256
 10
151.934903429392760
 20
-72.767344919779134
 11
151.934903429392760
 21
-63.667344919779055
  0
LINE
  8
0
  6
CONTINUOUS
 62
256
 10
151.934903429392760
 20
110.036462511883630
 11
151.934903429392760
 21
119.136462511883990
  0
ARC
  8
0
  6
CONTINUOUS
 62
256
 10
151.534903429392670
 20
119.136462511883990
 40
0.400000000000091
 50
0.000000000000000
 51
90.000000000000000
  0
LINE
  8
0
  6
CONTINUOUS
 62
256
 10
151.934903429392760
 20
110.036462511883630
 11
151.934903429392760
 21
98.036462511883641
  0
LINE
  8
0
  6
CONTINUOUS
 62
256
 10
151.934903429392760
 20
98.036462511883641
 11
126.934904443257420
 21
98.036462511883641
  0
LINE
  8
0
  6
CONTINUOUS
 62
256
 10
126.934903429392750
 20
100.536462511883640
 11
126.934903429392750
 21
98.036462511883641
  0
ARC
  8
0
  6
CONTINUOUS
 62
256
 10
124.334903429392840
 20
119.786462511884080
 40
0.400000000000091
 50
180.000000000000000
 51
270.000000000000000
  0
LINE
  8
0
  6
CONTINUOUS
 62
256
 10
151.534903429392670
 20
119.536462511883630
 11
126.494711050528150
 21
119.536462511883630
  0
LINE
  8
0
  6
CONTINUOUS
 62
256
 10
125.934903429392750
 20
119.386462511883990
 11
124.334903429392840
 21
119.386462511883990
  0
LINE
  8
0
  6
CONTINUOUS
 62
256
 10
126.494711050528150
 20
119.536462511883630
 11
125.934903429392750
 21
119.386462511883990
  0
LINE
  8
0
  6
CONTINUOUS
 62
256
 10
126.494711050528150
 20
100.536462511883630
 11
125.934903429392750
 21
100.686462511883260
  0
LINE
  8
0
  6
CONTINUOUS
 62
256
 10
125.934903429392750
 20
100.686462511883260
 11
124.334903429392840
 21
100.686462511883260
  0
LINE
  8
0
  6
CONTINUOUS
 62
256
 10
151.534903429392670
 20
100.536462511883630
 11
126.494711050528150
 21
100.536462511883630
  0
ARC
  8
0
  6
CONTINUOUS
 62
256
 10
124.334903429392840
 20
100.286462511883170
 40
0.400000000000091
 50
90.000000000000000
 51
180.000000000000000
  0
ARC
  8
0
  6
CONTINUOUS
 62
256
 10
151.534903429392670
 20
100.936462511883260
 40
0.400000000000091
 50
270.000000000000000
 51
0.000000000000000
  0
LINE
  8
0
  6
CONTINUOUS
 62
256
 10
129.822948537981120
 20
-69.767100779154134
 11
151.934903429392760
 21
-69.767100779154134
  0
ARC
  8
0
  6
CONTINUOUS
 62
256
 10
129.822948537981120
 20
-72.655145887742037
 40
2.888045108587903
 50
90.000000000000000
 51
182.226471171998070
  0
TEXT
  8
0
  6
CONTINUOUS
 62
256
 10
-306.456451416015620
 20
58.245227813720703
 40
7.919999599456787
  1
ＳＣＡＬＥ１／１
 50
0.000002504478167
 41
0.984848598876354
  7
STANDARD1
  0
TEXT
  8
0
  6
CONTINUOUS
 62
256
 10
-306.456451416015620
 20
70.965225219726563
 40
7.919999599456787
  1
１／６０～１／１００
 50
0.000002504478167
 41
0.984848598876354
  7
STANDARD1
  0
TEXT
  8
0
  6
CONTINUOUS
 62
256
 10
-306.456451416015620
 20
83.685226440429687
 40
7.919999599456787
  1
０．１ｋＷ
 50
0.000002504478167
 41
0.984848598876354
  7
STANDARD1
  0
TEXT
  8
0
  6
CONTINUOUS
 62
256
 10
-306.456451416015620
 20
96.405227661132812
 40
7.919999599456787
  1
ＧＭ－ＳＳ
 50
0.000002504478167
 41
0.984848598876354
  7
STANDARD1
  0
TEXT
  8
0
  6
CONTINUOUS
 62
256
 10
-306.456451416015620
 20
109.125228881835940
 40
7.919999599456787
  1
三菱ギヤードモートル
 50
0.000002504478167
 41
0.984848598876354
  7
STANDARD1
  0
TEXT
  8
0
  6
CONTINUOUS
 62
256
 10
-306.456451416015620
 20
121.845230102539060
 40
7.919999599456787
  1
Ｓ０３４
 50
0.000002504478167
 41
0.984848598876354
  7
STANDARD1
  0
LINE
  8
0
  6
CONTINUOUS
 62
256
 10
-214.649625164529820
 20
-122.267344919779650
 11
-214.451074224431010
 21
-122.267344919779650
  0
LINE
  8
0
  6
CONTINUOUS
 62
256
 10
-214.451074224431010
 20
-122.267344919779650
 11
-214.451074224431010
 21
-120.755330774209880
  0
ARC
  8
0
  6
CONTINUOUS
 62
256
 10
-311.381941224518410
 20
-45.345398177481286
 40
6.600000000000009
 50
95.743681810995113
 51
135.000000000002930
  0
ARC
  8
0
  6
CONTINUOUS
 62
256
 10
-271.951074224431070
 20
-437.367344919779780
 40
400.599999999999910
 50
90.000000000000000
 51
95.743681810993436
  0
ARC
  8
0
  6
CONTINUOUS
 62
256
 10
-308.941141462577430
 20
-62.703588288764024
 40
20.600000000000069
 50
135.000000000002700
 51
174.247717268463500
  0
LINE
  8
0
  6
CONTINUOUS
 62
256
 10
-323.507541155021040
 20
-48.137188596321778
 11
-316.048845980350050
 21
-40.678493421650103
  0
ARC
  8
0
  6
CONTINUOUS
 62
256
 10
-30.351074224430647
 20
-90.767344919779646
 40
300.599999999999970
 50
174.247717268463390
 51
180.000000000000000
  0
ARC
  8
0
  6
CONTINUOUS
 62
256
 10
-311.381941224518410
 20
-136.189291662078010
 40
6.600000000000278
 50
224.999999999997190
 51
264.256318189004620
  0
ARC
  8
0
  6
CONTINUOUS
 62
256
 10
-271.951074224431070
 20
255.832655080220550
 40
400.599999999999970
 50
264.256318189006550
 51
270.000000000000000
  0
ARC
  8
0
  6
CONTINUOUS
 62
256
 10
-308.941141462577430
 20
-118.831101550795250
 40
20.599999999999916
 50
185.752282731536470
 51
224.999999999997330
  0
LINE
  8
0
  6
CONTINUOUS
 62
256
 10
-323.507541155021040
 20
-133.397501243237510
 11
-316.048845980350050
 21
-140.856196417909190
  0
ARC
  8
0
  6
CONTINUOUS
 62
256
 10
-30.351074224430647
 20
-90.767344919779646
 40
300.600000000000420
 50
180.000000000000000
 51
185.752282731536610
  0
ARC
  8
0
  6
CONTINUOUS
 62
256
 10
-232.520207224343720
 20
-136.189291662078010
 40
6.600000000000009
 50
275.743681810995100
 51
315.000000000002790
  0
ARC
  8
0
  6
CONTINUOUS
 62
256
 10
-271.951074224431070
 20
255.832655080220550
 40
400.599999999999970
 50
270.000000000000000
 51
275.743681810993510
  0
ARC
  8
0
  6
CONTINUOUS
 62
256
 10
-234.961006986284700
 20
-118.831101550795250
 40
20.600000000000119
 50
315.000000000002730
 51
354.247717268463530
  0
LINE
  8
0
  6
CONTINUOUS
 62
256
 10
-220.394607293841030
 20
-133.397501243237510
 11
-227.853302468512080
 21
-140.856196417909190
  0
ARC
  8
0
  6
CONTINUOUS
 62
256
 10
-513.551074224431430
 20
-90.767344919779646
 40
300.599999999999970
 50
354.247717268463420
 51
0.000000000000000
  0
ARC
  8
0
  6
CONTINUOUS
 62
256
 10
-513.551074224431430
 20
-90.767344919779646
 40
290.797000000000540
 50
0.000000000000000
 51
5.752282731536624
  0
LINE
  8
0
  6
CONTINUOUS
 62
256
 10
-227.326375069813370
 20
-55.068956372293144
 11
-233.213788941852730
 21
-49.181542500253101
  0
ARC
  8
0
  6
CONTINUOUS
 62
256
 10
-234.961006986284700
 20
-62.703588288764024
 40
10.797000000000066
 50
5.752282731536882
 51
44.999999999998323
  0
LINE
  8
0
  6
CONTINUOUS
 62
256
 10
-214.451074224431010
 20
-60.774845857517505
 11
-214.451074224431010
 21
-59.267344919779646
  0
LINE
  8
0
  6
CONTINUOUS
 62
256
 10
-214.649625164529820
 20
-59.267344919779646
 11
-214.451074224431010
 21
-59.267344919779646
  0
ARC
  8
0
  6
CONTINUOUS
 62
256
 10
-513.551074224431430
 20
-90.767344919779646
 40
300.600000000000420
 50
0.000000000000000
 51
5.752282731536603
  0
LINE
  8
0
  6
CONTINUOUS
 62
256
 10
-220.394607293841030
 20
-48.137188596321778
 11
-227.853302468512080
 21
-40.678493421650103
  0
ARC
  8
0
  6
CONTINUOUS
 62
256
 10
-234.961006986284700
 20
-62.703588288764024
 40
20.599999999999973
 50
5.752282731536472
 51
44.999999999997236
  0
LINE
  8
0
  6
CONTINUOUS
 62
256
 10
-184.451074224431010
 20
-93.267344919779646
 11
-184.451074224431010
 21
-88.267344919779646
  0
LINE
  8
0
  6
CONTINUOUS
 62
256
 10
-184.961491071948730
 20
-93.267344919779646
 11
-184.451074224431010
 21
-93.267344919779646
  0
LINE
  8
0
  6
CONTINUOUS
 62
256
 10
-184.961491071948730
 20
-88.267344919779646
 11
-184.451074224431010
 21
-88.267344919779646
  0
ARC
  8
0
  6
CONTINUOUS
 62
256
 10
-484.951074224431070
 20
-90.767344919779646
 40
300.000000000000230
 50
355.138594604201960
 51
4.861405395798035
  0
LINE
  8
0
  6
CONTINUOUS
 62
256
 10
-214.451074224431010
 20
-60.767344919779646
 11
-191.012305090449390
 21
-60.767344919779646
  0
LINE
  8
0
  6
CONTINUOUS
 62
256
 10
-214.451074224431010
 20
-120.767344919779650
 11
-191.012305090449390
 21
-120.767344919779650
  0
ARC
  8
0
  6
CONTINUOUS
 62
256
 10
-191.012305090449390
 20
-65.767344919779646
 40
4.999999999999893
 50
4.861405395798621
 51
90.000000000000000
  0
ARC
  8
0
  6
CONTINUOUS
 62
256
 10
-191.012305090449390
 20
-115.767344919779650
 40
5.000000000000000
 50
270.000000000000000
 51
355.138594604201330
  0
ARC
  8
0
  6
CONTINUOUS
 62
256
 10
-30.351074224430874
 20
-90.767344919779646
 40
290.796999999999970
 50
174.998349729065040
 51
180.000000000000000
  0
LINE
  8
0
  6
CONTINUOUS
 62
256
 10
-314.028664540287080
 20
-52.521847533531002
 11
-310.688359507009410
 21
-49.181542500253101
  0
ARC
  8
0
  6
CONTINUOUS
 62
256
 10
-299.322964811950440
 20
-67.227547261867642
 40
20.797000000000015
 50
135.000000000000000
 51
174.998349729064670
  0
ARC
  8
0
  6
CONTINUOUS
 62
256
 10
-271.951074224431070
 20
-437.367344919779780
 40
390.797000000000030
 50
90.000000000000000
 51
95.417963762360529
  0
ARC
  8
0
  6
CONTINUOUS
 62
256
 10
-308.567039163449410
 20
-51.302862843812875
 40
3.000000000000067
 50
95.417963762365673
 51
135.000000000003470
  0
ARC
  8
0
  6
CONTINUOUS
 62
256
 10
-30.351074224430874
 20
-90.767344919779646
 40
290.797000000000310
 50
180.000000000000000
 51
185.001650270934930
  0
LINE
  8
0
  6
CONTINUOUS
 62
256
 10
-314.028664540287080
 20
-129.012842306028290
 11
-310.688359507009410
 21
-132.353147339306190
  0
ARC
  8
0
  6
CONTINUOUS
 62
256
 10
-299.322964811950440
 20
-114.307142577691650
 40
20.796999999999880
 50
185.001650270935300
 51
225.000000000000060
  0
ARC
  8
0
  6
CONTINUOUS
 62
256
 10
-271.951074224431070
 20
255.832655080220550
 40
390.797000000000140
 50
264.582036237639500
 51
270.000000000000000
  0
ARC
  8
0
  6
CONTINUOUS
 62
256
 10
-308.567039163449410
 20
-130.231826995746420
 40
3.000000000000346
 50
224.999999999996930
 51
264.582036237634780
  0
ARC
  8
0
  6
CONTINUOUS
 62
256
 10
-513.551074224431430
 20
-90.767344919779646
 40
290.797000000000140
 50
354.998349729065010
 51
0.000000000000000
  0
LINE
  8
0
  6
CONTINUOUS
 62
256
 10
-229.873483908575050
 20
-129.012842306028290
 11
-233.213788941852730
 21
-132.353147339306190
  0
ARC
  8
0
  6
CONTINUOUS
 62
256
 10
-244.579183636911690
 20
-114.307142577691650
 40
20.797000000000015
 50
315.000000000000000
 51
354.998349729064670
  0
ARC
  8
0
  6
CONTINUOUS
 62
256
 10
-271.951074224431070
 20
255.832655080220550
 40
390.797000000000080
 50
270.000000000000000
 51
275.417963762360500
  0
ARC
  8
0
  6
CONTINUOUS
 62
256
 10
-235.335109285412730
 20
-130.231826995746420
 40
3.000000000000067
 50
275.417963762365730
 51
315.000000000003070
  0
ARC
  8
0
  6
CONTINUOUS
 62
256
 10
-235.335109285412730
 20
-51.302862843812875
 40
3.000000000000346
 50
44.999999999996930
 51
84.582036237634284
  0
ARC
  8
0
  6
CONTINUOUS
 62
256
 10
-271.951074224431070
 20
-437.367344919779780
 40
390.797000000000030
 50
84.582036237639471
 51
90.000000000000000
  0
ARC
  8
0
  6
CONTINUOUS
 62
256
 10
-232.520207224343720
 20
-45.345398177481286
 40
6.600000000000278
 50
44.999999999997208
 51
84.256318189004887
  0
ARC
  8
0
  6
CONTINUOUS
 62
256
 10
-271.951074224431070
 20
-437.367344919779780
 40
400.599999999999910
 50
84.256318189006564
 51
90.000000000000000
  0
ARC
  8
0
  6
CONTINUOUS
 62
256
 10
-275.451074224431070
 20
-125.591905218511390
 40
1.000000000000000
 50
0.000000000000000
 51
84.260829522738462
  0
ARC
  8
0
  6
CONTINUOUS
 62
256
 10
-275.451074224431070
 20
-128.605817404804670
 40
1.000000000000042
 50
264.715267045464260
 51
0.000000000000000
  0
ARC
  8
0
  6
CONTINUOUS
 62
256
 10
-275.451074224431070
 20
-120.058981951533330
 40
1.000000000000077
 50
263.186145655820330
 51
0.000000000000000
  0
LINE
  8
0
  6
CONTINUOUS
 62
256
 10
-274.451074224431070
 20
-128.605817404804670
 11
-274.451074224431070
 21
-125.591905218511390
  0
ARC
  8
0
  6
CONTINUOUS
 62
256
 10
-288.992002907803910
 20
-96.564477798038808
 40
0.999999999999885
 50
300.000000000003810
 51
18.787728582347054
  0
LINE
  8
0
  6
CONTINUOUS
 62
256
 10
-291.133238064860510
 20
-98.955421030742684
 11
-288.492002907803910
 21
-97.430503201823115
  0
ARC
  8
0
  6
CONTINUOUS
 62
256
 10
-291.633238064860510
 20
-98.089395626958378
 40
1.000000000000094
 50
200.405931773138660
 51
300.000000000004150
  0
ARC
  8
0
  6
CONTINUOUS
 62
256
 10
-296.449700556585410
 20
-100.870181543097980
 40
1.000000000000082
 50
299.999999999997270
 51
22.410457608146118
  0
ARC
  8
0
  6
CONTINUOUS
 62
256
 10
-303.860028118755510
 20
-105.148536155899880
 40
1.000000000000082
 50
299.999999999997270
 51
24.260829522733705
  0
LINE
  8
0
  6
CONTINUOUS
 62
256
 10
-298.568376012362930
 20
-103.248099926195490
 11
-295.949700556585410
 21
-101.736206946882530
  0
ARC
  8
0
  6
CONTINUOUS
 62
256
 10
-299.068376012362930
 20
-102.382074522410960
 40
0.999999999999730
 50
203.186145655819840
 51
299.999999999997390
  0
LINE
  8
0
  6
CONTINUOUS
 62
256
 10
-305.970152636861260
 20
-107.521517652830940
 11
-303.360028118755510
 21
-106.014561559684410
  0
ARC
  8
0
  6
CONTINUOUS
 62
256
 10
-306.470152636861260
 20
-106.655492249046630
 40
1.000000000000249
 50
204.715267045455480
 51
300.000000000003300
  0
ARC
  8
0
  6
CONTINUOUS
 62
256
 10
-302.970152636861260
 20
-112.717670075537910
 40
1.000000000000082
 50
119.999999999997300
 51
215.284732954534750
  0
ARC
  8
0
  6
CONTINUOUS
 62
256
 10
-300.360028118755510
 20
-111.210713982390910
 40
0.999999999999807
 50
35.739170477263514
 51
120.000000000003010
  0
ARC
  8
0
  6
CONTINUOUS
 62
256
 10
-275.451074224431070
 20
-117.035195992906940
 40
1.000000000000000
 50
0.000000000000000
 51
82.410457608145990
  0
ARC
  8
0
  6
CONTINUOUS
 62
256
 10
-295.568376012362930
 20
-108.444252348901780
 40
0.999999999999885
 50
120.000000000003810
 51
216.813854344196470
  0
ARC
  8
0
  6
CONTINUOUS
 62
256
 10
-292.949700556585870
 20
-106.932359369588820
 40
1.000000000000194
 50
37.589542391851786
 51
119.999999999997270
  0
ARC
  8
0
  6
CONTINUOUS
 62
256
 10
-275.451074224431070
 20
-111.473624160628160
 40
1.000000000000268
 50
260.405931773124510
 51
0.000000000000000
  0
ARC
  8
0
  6
CONTINUOUS
 62
256
 10
-275.451074224431070
 20
-108.423788502789250
 40
1.000000000000000
 50
0.000000000000000
 51
78.787728582356166
  0
ARC
  8
0
  6
CONTINUOUS
 62
256
 10
-288.133238064860050
 20
-104.151573453449430
 40
0.999999999999885
 50
120.000000000003810
 51
219.594068226860970
  0
ARC
  8
0
  6
CONTINUOUS
 62
256
 10
-285.492002907803910
 20
-102.626655624530070
 40
1.000000000000165
 50
41.212271417643834
 51
119.999999999998080
  0
ARC
  8
0
  6
CONTINUOUS
 62
256
 10
-280.593379069844560
 20
-99.798433833025058
 40
0.999999999999885
 50
120.000000000003810
 51
226.260204708329240
  0
ARC
  8
0
  6
CONTINUOUS
 62
256
 10
-275.451074224431070
 20
-102.767344919779650
 40
0.999999999999964
 50
253.739795291702650
 51
0.000000000000000
  0
ARC
  8
0
  6
CONTINUOUS
 62
256
 10
-275.451074224431070
 20
-99.599105786107486
 40
1.000000000000000
 50
0.000000000000000
 51
68.381727577839243
  0
ARC
  8
0
  6
CONTINUOUS
 62
256
 10
-277.849603494820260
 20
-98.214314266188978
 40
0.999999999999961
 50
51.618272422159770
 51
120.000000000004590
  0
ARC
  8
0
  6
CONTINUOUS
 62
256
 10
-271.951074224431070
 20
-90.767344919779646
 40
38.999999999999872
 50
215.284732954534800
 51
264.715267045465400
  0
ARC
  8
0
  6
CONTINUOUS
 62
256
 10
-271.951074224431070
 20
-90.767344919779646
 40
30.499999999999964
 50
216.813854344181040
 51
263.186145655819020
  0
ARC
  8
0
  6
CONTINUOUS
 62
256
 10
-271.951074224431070
 20
-90.767344919779646
 40
33.999999999999964
 50
215.739170477266950
 51
264.260829522733050
  0
ARC
  8
0
  6
CONTINUOUS
 62
256
 10
-271.951074224431070
 20
-90.767344919779646
 40
25.499999999999890
 50
217.589542391857950
 51
262.410457608141830
  0
ARC
  8
0
  6
CONTINUOUS
 62
256
 10
-271.951074224431070
 20
-90.767344919779646
 40
22.000000000000025
 50
219.594068226860800
 51
260.405931773138780
  0
ARC
  8
0
  6
CONTINUOUS
 62
256
 10
-271.951074224431070
 20
-90.767344919779646
 40
16.999999999999773
 50
221.212271417650750
 51
258.787728582349980
  0
ARC
  8
0
  6
CONTINUOUS
 62
256
 10
-271.951074224431070
 20
-90.767344919779646
 40
13.499999999999927
 50
226.260204708312130
 51
253.739795291689090
  0
ARC
  8
0
  6
CONTINUOUS
 62
256
 10
-271.951074224431070
 20
-90.767344919779646
 40
8.499999999999949
 50
231.618272422157330
 51
248.381727577842410
  0
LINE
  8
0
  6
CONTINUOUS
 62
256
 10
-296.068376012362930
 20
-107.578226945117460
 11
-293.449700556585870
 21
-106.066333965804290
  0
LINE
  8
0
  6
CONTINUOUS
 62
256
 10
-303.470152636861260
 20
-111.851644671753380
 11
-300.860028118755510
 21
-110.344688578606620
  0
LINE
  8
0
  6
CONTINUOUS
 62
256
 10
-288.633238064860050
 20
-103.285548049665120
 11
-285.992002907803910
 21
-101.760630220745550
  0
LINE
  8
0
  6
CONTINUOUS
 62
256
 10
-281.093379069844560
 20
-98.932408429240752
 11
-278.349603494820260
 21
-97.348288862404672
  0
LINE
  8
0
  6
CONTINUOUS
 62
256
 10
-274.451074224431070
 20
-102.767344919779650
 11
-274.451074224431070
 21
-99.599105786107486
  0
LINE
  8
0
  6
CONTINUOUS
 62
256
 10
-274.451074224431070
 20
-111.473624160628160
 11
-274.451074224431070
 21
-108.423788502789250
  0
LINE
  8
0
  6
CONTINUOUS
 62
256
 10
-274.451074224431070
 20
-120.058981951533330
 11
-274.451074224431070
 21
-117.035195992906940
  0
ARC
  8
0
  6
CONTINUOUS
 62
256
 10
-281.349603494820260
 20
-92.152136439698154
 40
0.999999999999885
 50
300.000000000003810
 51
8.381727577845361
  0
ARC
  8
0
  6
CONTINUOUS
 62
256
 10
-271.951074224431070
 20
-90.767344919779646
 40
8.499999999999972
 50
171.618272422157790
 51
188.381727577842210
  0
LINE
  8
0
  6
CONTINUOUS
 62
256
 10
-283.593379069844560
 20
-94.602281410318540
 11
-280.849603494820260
 21
-93.018161843482460
  0
ARC
  8
0
  6
CONTINUOUS
 62
256
 10
-284.093379069844560
 20
-93.736256006534234
 40
0.999999999999879
 50
193.739795291686020
 51
300.000000000003810
  0
ARC
  8
0
  6
CONTINUOUS
 62
256
 10
-275.451074224431070
 20
-73.110901336770041
 40
0.999999999999982
 50
281.212271417643990
 51
0.000000000000000
  0
LINE
  8
0
  6
CONTINUOUS
 62
256
 10
-274.451074224431070
 20
-70.061065678931129
 11
-274.451074224431070
 21
-73.110901336770041
  0
ARC
  8
0
  6
CONTINUOUS
 62
256
 10
-275.451074224431070
 20
-70.061065678931129
 40
1.000000000000000
 50
0.000000000000000
 51
99.594068226874853
  0
ARC
  8
0
  6
CONTINUOUS
 62
256
 10
-275.451074224431070
 20
-64.499493846652342
 40
0.999999999999749
 50
277.589542391855960
 51
0.000000000013028
  0
LINE
  8
0
  6
CONTINUOUS
 62
256
 10
-274.451074224431070
 20
-61.475707888025966
 11
-274.451074224431070
 21
-64.499493846652115
  0
ARC
  8
0
  6
CONTINUOUS
 62
256
 10
-275.451074224431070
 20
-61.475707888025966
 40
1.000000000000000
 50
0.000000000000000
 51
96.813854344180214
  0
ARC
  8
0
  6
CONTINUOUS
 62
256
 10
-275.451074224431070
 20
-55.942784621047906
 40
0.999999999999973
 50
275.739170477261670
 51
0.000000000000000
  0
LINE
  8
0
  6
CONTINUOUS
 62
256
 10
-274.451074224431070
 20
-52.928872434754624
 11
-274.451074224431070
 21
-55.942784621047906
  0
ARC
  8
0
  6
CONTINUOUS
 62
256
 10
-275.451074224431070
 20
-52.928872434754624
 40
1.000000000000000
 50
0.000000000000000
 51
95.284732954535926
  0
ARC
  8
0
  6
CONTINUOUS
 62
256
 10
-295.568376012362930
 20
-73.090437490657280
 40
0.999999999999774
 50
143.186145655813330
 51
240.000000000003440
  0
LINE
  8
0
  6
CONTINUOUS
 62
256
 10
-296.068376012362930
 20
-73.956462894441813
 11
-293.449700556585410
 21
-75.468355873755002
  0
ARC
  8
0
  6
CONTINUOUS
 62
256
 10
-292.949700556585410
 20
-74.602330469970468
 40
1.000000000000082
 50
240.000000000002670
 51
322.410457608131140
  0
ARC
  8
0
  6
CONTINUOUS
 62
256
 10
-302.970152636861260
 20
-68.817019764021609
 40
0.999999999999908
 50
144.715267045455050
 51
239.999999999996560
  0
LINE
  8
0
  6
CONTINUOUS
 62
256
 10
-303.470152636861260
 20
-69.683045167805915
 11
-300.860028118755510
 21
-71.190001260952670
  0
ARC
  8
0
  6
CONTINUOUS
 62
256
 10
-300.360028118755510
 20
-70.323975857168364
 40
0.999999999999885
 50
239.999999999996160
 51
324.260829522725320
  0
ARC
  8
0
  6
CONTINUOUS
 62
256
 10
-277.849603494820260
 20
-83.320375573370086
 40
1.000000000000082
 50
240.000000000002670
 51
308.381727577839230
  0
LINE
  8
0
  6
CONTINUOUS
 62
256
 10
-281.093379069844560
 20
-82.602281410318540
 11
-278.349603494820260
 21
-84.186400977154619
  0
ARC
  8
0
  6
CONTINUOUS
 62
256
 10
-285.492002907803910
 20
-78.908034215029431
 40
0.999999999999885
 50
239.999999999996160
 51
318.787728582349130
  0
LINE
  8
0
  6
CONTINUOUS
 62
256
 10
-288.633238064860050
 20
-78.249141789894168
 11
-285.992002907803910
 21
-79.774059618813737
  0
ARC
  8
0
  6
CONTINUOUS
 62
256
 10
-288.133238064860050
 20
-77.383116386109634
 40
1.000000000000173
 50
140.405931773149600
 51
240.000000000002330
  0
ARC
  8
0
  6
CONTINUOUS
 62
256
 10
-275.451074224431070
 20
-81.935584053451805
 40
1.000000000000090
 50
291.618272422162020
 51
0.000000000000000
  0
ARC
  8
0
  6
CONTINUOUS
 62
256
 10
-271.951074224431070
 20
-90.767344919779646
 40
8.499999999999904
 50
111.618272422157720
 51
128.381727577841810
  0
ARC
  8
0
  6
CONTINUOUS
 62
256
 10
-280.593379069844560
 20
-81.736256006534234
 40
0.999999999999858
 50
133.739795291671330
 51
239.999999999995340
  0
LINE
  8
0
  6
CONTINUOUS
 62
256
 10
-274.451074224431070
 20
-78.767344919779646
 11
-274.451074224431070
 21
-81.935584053451805
  0
ARC
  8
0
  6
CONTINUOUS
 62
256
 10
-275.451074224431070
 20
-78.767344919779646
 40
1.000000000000000
 50
0.000000000000000
 51
106.260204708296920
  0
ARC
  8
0
  6
CONTINUOUS
 62
256
 10
-271.951074224431070
 20
-90.767344919779646
 40
13.499999999999963
 50
106.260204708310880
 51
133.739795291687780
  0
ARC
  8
0
  6
CONTINUOUS
 62
256
 10
-271.951074224431070
 20
-90.767344919779646
 40
17.000000000000046
 50
101.212271417650020
 51
138.787728582350240
  0
ARC
  8
0
  6
CONTINUOUS
 62
256
 10
-271.951074224431070
 20
-90.767344919779646
 40
22.000000000000131
 50
99.594068226861211
 51
140.405931773139140
  0
ARC
  8
0
  6
CONTINUOUS
 62
256
 10
-271.951074224431070
 20
-90.767344919779646
 40
30.500000000000135
 50
96.813854344181038
 51
143.186145655818930
  0
ARC
  8
0
  6
CONTINUOUS
 62
256
 10
-271.951074224431070
 20
-90.767344919779646
 40
25.500000000000160
 50
97.589542391858117
 51
142.410457608142050
  0
ARC
  8
0
  6
CONTINUOUS
 62
256
 10
-271.951074224431070
 20
-90.767344919779646
 40
34.000000000000071
 50
95.739170477266939
 51
144.260829522733360
  0
ARC
  8
0
  6
CONTINUOUS
 62
256
 10
-271.951074224431070
 20
-90.767344919779646
 40
38.999999999999986
 50
95.284732954534590
 51
144.715267045465230
  0
ARC
  8
0
  6
CONTINUOUS
 62
256
 10
-299.068376012362930
 20
-79.152615317148332
 40
1.000000000000082
 50
60.000000000002721
 51
156.813854344180360
  0
LINE
  8
0
  6
CONTINUOUS
 62
256
 10
-298.568376012362930
 20
-78.286589913363798
 11
-295.949700556585410
 21
-79.798482892676986
  0
ARC
  8
0
  6
CONTINUOUS
 62
256
 10
-296.449700556585410
 20
-80.664508296461520
 40
0.999999999999701
 50
337.589542391853970
 51
60.000000000001812
  0
ARC
  8
0
  6
CONTINUOUS
 62
256
 10
-306.470152636861260
 20
-74.879197590512661
 40
1.000000000000082
 50
60.000000000002721
 51
155.284732954544150
  0
LINE
  8
0
  6
CONTINUOUS
 62
256
 10
-305.970152636861260
 20
-74.013172186728127
 11
-303.360028118755510
 21
-75.520128279874882
  0
ARC
  8
0
  6
CONTINUOUS
 62
256
 10
-303.860028118755510
 20
-76.386153683659188
 40
0.999999999999863
 50
335.739170477254390
 51
59.999999999995801
  0
ARC
  8
0
  6
CONTINUOUS
 62
256
 10
-281.349603494820260
 20
-89.382553399861365
 40
1.000000000000026
 50
351.618272422167310
 51
60.000000000001499
  0
LINE
  8
0
  6
CONTINUOUS
 62
256
 10
-283.593379069844560
 20
-86.932408429240752
 11
-280.849603494820260
 21
-88.516527996076832
  0
ARC
  8
0
  6
CONTINUOUS
 62
256
 10
-288.992002907803910
 20
-84.970212041520483
 40
1.000000000000076
 50
341.212271417653030
 51
60.000000000002721
  0
LINE
  8
0
  6
CONTINUOUS
 62
256
 10
-291.133238064860510
 20
-82.579268808816607
 11
-288.492002907803910
 21
-84.104186637735950
  0
ARC
  8
0
  6
CONTINUOUS
 62
256
 10
-291.633238064860510
 20
-83.445294212600913
 40
0.999999999999885
 50
59.999999999996206
 51
159.594068226861740
  0
ARC
  8
0
  6
CONTINUOUS
 62
256
 10
-284.093379069844560
 20
-87.798433833025058
 40
0.999999999999885
 50
59.999999999996206
 51
166.260204708308440
  0
ARC
  8
0
  6
CONTINUOUS
 62
256
 10
-271.951074224431070
 20
-90.767344919779646
 40
13.499999999999687
 50
166.260204708311360
 51
193.739795291688210
  0
ARC
  8
0
  6
CONTINUOUS
 62
256
 10
-271.951074224431070
 20
-90.767344919779646
 40
16.999999999999716
 50
161.212271417649590
 51
198.787728582350440
  0
ARC
  8
0
  6
CONTINUOUS
 62
256
 10
-271.951074224431070
 20
-90.767344919779646
 40
22.000000000000206
 50
159.594068226860770
 51
200.405931773139230
  0
ARC
  8
0
  6
CONTINUOUS
 62
256
 10
-271.951074224431070
 20
-90.767344919779646
 40
30.499999999999954
 50
156.813854344181150
 51
203.186145655818820
  0
ARC
  8
0
  6
CONTINUOUS
 62
256
 10
-271.951074224431070
 20
-90.767344919779646
 40
25.500000000000000
 50
157.589542391858000
 51
202.410457608142480
  0
ARC
  8
0
  6
CONTINUOUS
 62
256
 10
-271.951074224431070
 20
-90.767344919779646
 40
34.000000000000007
 50
155.739170477266780
 51
204.260829522733220
  0
ARC
  8
0
  6
CONTINUOUS
 62
256
 10
-271.951074224431070
 20
-90.767344919779646
 40
39.000000000000220
 50
155.284732954534800
 51
204.715267045465200
  0
LINE
  8
0
  6
CONTINUOUS
 62
256
 10
-269.451074224431070
 20
-120.058981951533330
 11
-269.451074224431070
 21
-117.035195992906940
  0
LINE
  8
0
  6
CONTINUOUS
 62
256
 10
-269.451074224431070
 20
-111.473624160628160
 11
-269.451074224431070
 21
-108.423788502789250
  0
LINE
  8
0
  6
CONTINUOUS
 62
256
 10
-269.451074224431070
 20
-102.767344919779650
 11
-269.451074224431070
 21
-99.599105786107486
  0
LINE
  8
0
  6
CONTINUOUS
 62
256
 10
-262.808769379017580
 20
-98.932408429240752
 11
-265.552544954041880
 21
-97.348288862404672
  0
LINE
  8
0
  6
CONTINUOUS
 62
256
 10
-255.268910384002080
 20
-103.285548049665120
 11
-257.910145541058230
 21
-101.760630220745550
  0
LINE
  8
0
  6
CONTINUOUS
 62
256
 10
-240.431995812000880
 20
-111.851644671753380
 11
-243.042120330106630
 21
-110.344688578606620
  0
LINE
  8
0
  6
CONTINUOUS
 62
256
 10
-269.451074224431070
 20
-128.605817404804670
 11
-269.451074224431070
 21
-125.591905218511390
  0
LINE
  8
0
  6
CONTINUOUS
 62
256
 10
-247.833772436499200
 20
-107.578226945117460
 11
-250.452447892276270
 21
-106.066333965804290
  0
ARC
  8
0
  6
CONTINUOUS
 62
256
 10
-271.951074224431070
 20
-90.767344919779646
 40
8.499999999999904
 50
291.618272422157700
 51
308.381727577842750
  0
ARC
  8
0
  6
CONTINUOUS
 62
256
 10
-271.951074224431070
 20
-90.767344919779646
 40
13.499999999999963
 50
286.260204708310820
 51
313.739795291687760
  0
ARC
  8
0
  6
CONTINUOUS
 62
256
 10
-271.951074224431070
 20
-90.767344919779646
 40
17.000000000000046
 50
281.212271417650020
 51
318.787728582350210
  0
ARC
  8
0
  6
CONTINUOUS
 62
256
 10
-271.951074224431070
 20
-90.767344919779646
 40
22.000000000000131
 50
279.594068226861170
 51
320.405931773139170
  0
ARC
  8
0
  6
CONTINUOUS
 62
256
 10
-271.951074224431070
 20
-90.767344919779646
 40
25.499999999999932
 50
277.589542391858170
 51
322.410457608142050
  0
ARC
  8
0
  6
CONTINUOUS
 62
256
 10
-271.951074224431070
 20
-90.767344919779646
 40
34.000000000000071
 50
275.739170477266950
 51
324.260829522733050
  0
ARC
  8
0
  6
CONTINUOUS
 62
256
 10
-271.951074224431070
 20
-90.767344919779646
 40
30.500000000000135
 50
276.813854344181040
 51
323.186145655818850
  0
ARC
  8
0
  6
CONTINUOUS
 62
256
 10
-271.951074224431070
 20
-90.767344919779646
 40
38.999999999999986
 50
275.284732954534600
 51
324.715267045465230
  0
ARC
  8
0
  6
CONTINUOUS
 62
256
 10
-266.052544954041880
 20
-98.214314266188978
 40
0.999999999999885
 50
59.999999999996206
 51
128.381727577839710
  0
ARC
  8
0
  6
CONTINUOUS
 62
256
 10
-268.451074224431070
 20
-99.599105786107486
 40
1.000000000000090
 50
111.618272422161990
 51
180.000000000000000
  0
ARC
  8
0
  6
CONTINUOUS
 62
256
 10
-268.451074224431070
 20
-102.767344919779650
 40
1.000000000000000
 50
180.000000000000000
 51
286.260204708296900
  0
ARC
  8
0
  6
CONTINUOUS
 62
256
 10
-263.308769379017580
 20
-99.798433833025058
 40
0.999999999999858
 50
313.739795291671330
 51
59.999999999995389
  0
ARC
  8
0
  6
CONTINUOUS
 62
256
 10
-258.410145541058230
 20
-102.626655624530070
 40
1.000000000000082
 50
60.000000000002721
 51
138.787728582338080
  0
ARC
  8
0
  6
CONTINUOUS
 62
256
 10
-255.768910384002080
 20
-104.151573453449430
 40
1.000000000000318
 50
320.405931773139570
 51
59.999999999995502
  0
ARC
  8
0
  6
CONTINUOUS
 62
256
 10
-268.451074224431070
 20
-108.423788502789250
 40
0.999999999999982
 50
101.212271417644000
 51
180.000000000000000
  0
ARC
  8
0
  6
CONTINUOUS
 62
256
 10
-268.451074224431070
 20
-111.473624160628160
 40
1.000000000000000
 50
180.000000000000000
 51
279.594068226874810
  0
ARC
  8
0
  6
CONTINUOUS
 62
256
 10
-268.451074224431070
 20
-120.058981951533330
 40
1.000000000000000
 50
180.000000000000000
 51
276.813854344180130
  0
ARC
  8
0
  6
CONTINUOUS
 62
256
 10
-250.952447892276270
 20
-106.932359369588820
 40
1.000000000000082
 50
60.000000000002721
 51
142.410457608148480
  0
ARC
  8
0
  6
CONTINUOUS
 62
256
 10
-248.333772436499200
 20
-108.444252348901780
 40
0.999999999999911
 50
323.186145655802870
 51
59.999999999997016
  0
ARC
  8
0
  6
CONTINUOUS
 62
256
 10
-268.451074224431070
 20
-117.035195992906940
 40
0.999999999999975
 50
97.589542391854238
 51
180.000000000000000
  0
ARC
  8
0
  6
CONTINUOUS
 62
256
 10
-268.451074224431070
 20
-128.605817404804670
 40
1.000000000000000
 50
180.000000000000000
 51
275.284732954535800
  0
ARC
  8
0
  6
CONTINUOUS
 62
256
 10
-268.451074224431070
 20
-125.591905218511390
 40
0.999999999999973
 50
95.739170477261709
 51
180.000000000000000
  0
ARC
  8
0
  6
CONTINUOUS
 62
256
 10
-243.542120330106630
 20
-111.210713982390910
 40
0.999999999999885
 50
59.999999999996206
 51
144.260829522736400
  0
ARC
  8
0
  6
CONTINUOUS
 62
256
 10
-240.931995812000880
 20
-112.717670075537910
 40
0.999999999999776
 50
324.715267045465680
 51
60.000000000002032
  0
CIRCLE
  8
0
  6
CONTINUOUS
 62
256
 10
-271.951074224431070
 20
-90.767344919779646
 40
5.000000000000000
  0
ARC
  8
0
  6
CONTINUOUS
 62
256
 10
-237.431995812000880
 20
-106.655492249046630
 40
0.999999999999885
 50
239.999999999996160
 51
335.284732954544490
  0
LINE
  8
0
  6
CONTINUOUS
 62
256
 10
-237.931995812000880
 20
-107.521517652830940
 11
-240.542120330106630
 21
-106.014561559684410
  0
ARC
  8
0
  6
CONTINUOUS
 62
256
 10
-271.951074224431070
 20
-90.767344919779646
 40
39.000000000000220
 50
335.284732954534830
 51
24.715267045465190
  0
ARC
  8
0
  6
CONTINUOUS
 62
256
 10
-271.951074224431070
 20
-90.767344919779646
 40
34.000000000000007
 50
335.739170477266780
 51
24.260829522733218
  0
ARC
  8
0
  6
CONTINUOUS
 62
256
 10
-271.951074224431070
 20
-90.767344919779646
 40
25.500000000000085
 50
337.589542391857490
 51
22.410457608142003
  0
ARC
  8
0
  6
CONTINUOUS
 62
256
 10
-271.951074224431070
 20
-90.767344919779646
 40
30.499999999999954
 50
336.813854344181150
 51
23.186145655818844
  0
ARC
  8
0
  6
CONTINUOUS
 62
256
 10
-244.833772436499200
 20
-102.382074522410960
 40
1.000000000000082
 50
240.000000000002670
 51
336.813854344179730
  0
LINE
  8
0
  6
CONTINUOUS
 62
256
 10
-245.333772436499200
 20
-103.248099926195490
 11
-247.952447892276720
 21
-101.736206946882530
  0
ARC
  8
0
  6
CONTINUOUS
 62
256
 10
-271.951074224431070
 20
-90.767344919779646
 40
22.000000000000206
 50
339.594068226860770
 51
20.405931773139223
  0
ARC
  8
0
  6
CONTINUOUS
 62
256
 10
-240.042120330106630
 20
-105.148536155899880
 40
0.999999999999769
 50
155.739170477266270
 51
240.000000000003440
  0
ARC
  8
0
  6
CONTINUOUS
 62
256
 10
-247.452447892276720
 20
-100.870181543097980
 40
0.999999999999701
 50
157.589542391853970
 51
240.000000000003180
  0
ARC
  8
0
  6
CONTINUOUS
 62
256
 10
-252.268910384001630
 20
-98.089395626958378
 40
0.999999999999885
 50
239.999999999996160
 51
339.594068226861170
  0
ARC
  8
0
  6
CONTINUOUS
 62
256
 10
-271.951074224431070
 20
-90.767344919779646
 40
17.000000000000146
 50
341.212271417650070
 51
18.787728582350436
  0
LINE
  8
0
  6
CONTINUOUS
 62
256
 10
-252.768910384001630
 20
-98.955421030742684
 11
-255.410145541058230
 21
-97.430503201823115
  0
ARC
  8
0
  6
CONTINUOUS
 62
256
 10
-254.910145541058230
 20
-96.564477798038808
 40
0.999999999999646
 50
161.212271417644640
 51
239.999999999995770
  0
ARC
  8
0
  6
CONTINUOUS
 62
256
 10
-271.951074224431070
 20
-90.767344919779646
 40
13.500000000000130
 50
346.260204708311850
 51
13.739795291688171
  0
ARC
  8
0
  6
CONTINUOUS
 62
256
 10
-259.808769379017580
 20
-93.736256006534234
 40
0.999999999999885
 50
239.999999999996160
 51
346.260204708314010
  0
LINE
  8
0
  6
CONTINUOUS
 62
256
 10
-260.308769379017580
 20
-94.602281410318540
 11
-263.052544954041880
 21
-93.018161843482460
  0
ARC
  8
0
  6
CONTINUOUS
 62
256
 10
-259.808769379017580
 20
-87.798433833025058
 40
0.999999999999879
 50
13.739795291686027
 51
120.000000000003810
  0
ARC
  8
0
  6
CONTINUOUS
 62
256
 10
-271.951074224431070
 20
-90.767344919779646
 40
8.499999999999972
 50
351.618272422157820
 51
8.381727577842204
  0
ARC
  8
0
  6
CONTINUOUS
 62
256
 10
-262.552544954041880
 20
-92.152136439698154
 40
1.000000000000059
 50
171.618272422154460
 51
239.999999999995050
  0
ARC
  8
0
  6
CONTINUOUS
 62
256
 10
-252.268910384001630
 20
-83.445294212600913
 40
1.000000000000094
 50
20.405931773138683
 51
120.000000000004160
  0
LINE
  8
0
  6
CONTINUOUS
 62
256
 10
-252.768910384001630
 20
-82.579268808816607
 11
-255.410145541058230
 21
-84.104186637735950
  0
ARC
  8
0
  6
CONTINUOUS
 62
256
 10
-254.910145541058230
 20
-84.970212041520483
 40
1.000000000000082
 50
119.999999999997300
 51
198.787728582347000
  0
LINE
  8
0
  6
CONTINUOUS
 62
256
 10
-260.308769379017580
 20
-86.932408429240752
 11
-263.052544954041880
 21
-88.516527996076832
  0
ARC
  8
0
  6
CONTINUOUS
 62
256
 10
-262.552544954041880
 20
-89.382553399861365
 40
1.000000000000082
 50
119.999999999997300
 51
188.381727577833000
  0
ARC
  8
0
  6
CONTINUOUS
 62
256
 10
-240.042120330106630
 20
-76.386153683659188
 40
0.999999999999885
 50
120.000000000003810
 51
204.260829522745640
  0
LINE
  8
0
  6
CONTINUOUS
 62
256
 10
-237.931995812000880
 20
-74.013172186728127
 11
-240.542120330106630
 21
-75.520128279874882
  0
ARC
  8
0
  6
CONTINUOUS
 62
256
 10
-237.431995812000880
 20
-74.879197590512661
 40
1.000000000000249
 50
24.715267045455473
 51
119.999999999997440
  0
ARC
  8
0
  6
CONTINUOUS
 62
256
 10
-247.452447892276720
 20
-80.664508296461520
 40
1.000000000000082
 50
119.999999999997300
 51
202.410457608146120
  0
LINE
  8
0
  6
CONTINUOUS
 62
256
 10
-245.333772436499200
 20
-78.286589913363798
 11
-247.952447892276720
 21
-79.798482892676986
  0
ARC
  8
0
  6
CONTINUOUS
 62
256
 10
-244.833772436499200
 20
-79.152615317148332
 40
0.999999999999730
 50
23.186145655819846
 51
119.999999999997370
  0
ARC
  8
0
  6
CONTINUOUS
 62
256
 10
-271.951074224431070
 20
-90.767344919779646
 40
38.999999999999865
 50
35.284732954534789
 51
84.715267045465410
  0
ARC
  8
0
  6
CONTINUOUS
 62
256
 10
-271.951074224431070
 20
-90.767344919779646
 40
33.999999999999829
 50
35.739170477266640
 51
84.260829522733033
  0
ARC
  8
0
  6
CONTINUOUS
 62
256
 10
-271.951074224431070
 20
-90.767344919779646
 40
25.499999999999890
 50
37.589542391857954
 51
82.410457608141925
  0
ARC
  8
0
  6
CONTINUOUS
 62
256
 10
-271.951074224431070
 20
-90.767344919779646
 40
30.499999999999964
 50
36.813854344181067
 51
83.186145655818933
  0
ARC
  8
0
  6
CONTINUOUS
 62
256
 10
-271.951074224431070
 20
-90.767344919779646
 40
22.000000000000025
 50
39.594068226860820
 51
80.405931773138747
  0
ARC
  8
0
  6
CONTINUOUS
 62
256
 10
-271.951074224431070
 20
-90.767344919779646
 40
17.000000000000114
 50
41.212271417649752
 51
78.787728582350027
  0
ARC
  8
0
  6
CONTINUOUS
 62
256
 10
-271.951074224431070
 20
-90.767344919779646
 40
13.499999999999927
 50
46.260204708312138
 51
73.739795291689092
  0
ARC
  8
0
  6
CONTINUOUS
 62
256
 10
-268.451074224431070
 20
-78.767344919779646
 40
0.999999999999964
 50
73.739795291702634
 51
180.000000000000000
  0
LINE
  8
0
  6
CONTINUOUS
 62
256
 10
-269.451074224431070
 20
-78.767344919779646
 11
-269.451074224431070
 21
-81.935584053451805
  0
ARC
  8
0
  6
CONTINUOUS
 62
256
 10
-263.308769379017580
 20
-81.736256006534234
 40
0.999999999999885
 50
300.000000000003810
 51
46.260204708329255
  0
ARC
  8
0
  6
CONTINUOUS
 62
256
 10
-271.951074224431070
 20
-90.767344919779646
 40
8.500000000000128
 50
51.618272422158320
 51
68.381727577842469
  0
ARC
  8
0
  6
CONTINUOUS
 62
256
 10
-268.451074224431070
 20
-81.935584053451805
 40
1.000000000000000
 50
180.000000000000000
 51
248.381727577839200
  0
ARC
  8
0
  6
CONTINUOUS
 62
256
 10
-255.768910384002080
 20
-77.383116386109634
 40
1.000000000000082
 50
299.999999999997270
 51
39.594068226849963
  0
LINE
  8
0
  6
CONTINUOUS
 62
256
 10
-255.268910384002080
 20
-78.249141789894168
 11
-257.910145541058230
 21
-79.774059618813737
  0
ARC
  8
0
  6
CONTINUOUS
 62
256
 10
-258.410145541058230
 20
-78.908034215029431
 40
0.999999999999673
 50
221.212271417651180
 51
300.000000000003410
  0
LINE
  8
0
  6
CONTINUOUS
 62
256
 10
-262.808769379017580
 20
-82.602281410318540
 11
-265.552544954041880
 21
-84.186400977154619
  0
ARC
  8
0
  6
CONTINUOUS
 62
256
 10
-266.052544954041880
 20
-83.320375573370086
 40
0.999999999999961
 50
231.618272422159780
 51
299.999999999997330
  0
ARC
  8
0
  6
CONTINUOUS
 62
256
 10
-243.542120330106630
 20
-70.323975857168364
 40
0.999999999999940
 50
215.739170477274090
 51
300.000000000003980
  0
LINE
  8
0
  6
CONTINUOUS
 62
256
 10
-240.431995812000880
 20
-69.683045167805915
 11
-243.042120330106630
 21
-71.190001260952670
  0
ARC
  8
0
  6
CONTINUOUS
 62
256
 10
-240.931995812000880
 20
-68.817019764021609
 40
0.999999999999885
 50
300.000000000003810
 51
35.284732954545220
  0
ARC
  8
0
  6
CONTINUOUS
 62
256
 10
-250.952447892276720
 20
-74.602330469970468
 40
0.999999999999834
 50
217.589542391867670
 51
299.999999999997730
  0
LINE
  8
0
  6
CONTINUOUS
 62
256
 10
-247.833772436499200
 20
-73.956462894441813
 11
-250.452447892276720
 21
-75.468355873755002
  0
ARC
  8
0
  6
CONTINUOUS
 62
256
 10
-248.333772436499200
 20
-73.090437490657280
 40
1.000000000000082
 50
299.999999999997270
 51
36.813854344186382
  0
ARC
  8
0
  6
CONTINUOUS
 62
256
 10
-268.451074224431070
 20
-52.928872434754624
 40
1.000000000000042
 50
84.715267045464316
 51
180.000000000000000
  0
LINE
  8
0
  6
CONTINUOUS
 62
256
 10
-269.451074224431070
 20
-52.928872434754624
 11
-269.451074224431070
 21
-55.942784621047906
  0
ARC
  8
0
  6
CONTINUOUS
 62
256
 10
-268.451074224431070
 20
-55.942784621047906
 40
1.000000000000000
 50
180.000000000000000
 51
264.260829522738450
  0
ARC
  8
0
  6
CONTINUOUS
 62
256
 10
-268.451074224431070
 20
-61.475707888025966
 40
1.000000000000077
 50
83.186145655820326
 51
180.000000000000000
  0
LINE
  8
0
  6
CONTINUOUS
 62
256
 10
-269.451074224431070
 20
-61.475707888025966
 11
-269.451074224431070
 21
-64.499493846652115
  0
ARC
  8
0
  6
CONTINUOUS
 62
256
 10
-268.451074224431070
 20
-64.499493846652342
 40
1.000000000000000
 50
179.999999999986980
 51
262.410457608142620
  0
ARC
  8
0
  6
CONTINUOUS
 62
256
 10
-268.451074224431070
 20
-70.061065678931129
 40
1.000000000000268
 50
80.405931773124522
 51
180.000000000000000
  0
LINE
  8
0
  6
CONTINUOUS
 62
256
 10
-269.451074224431070
 20
-70.061065678931129
 11
-269.451074224431070
 21
-73.110901336770041
  0
ARC
  8
0
  6
CONTINUOUS
 62
256
 10
-268.451074224431070
 20
-73.110901336770041
 40
1.000000000000000
 50
180.000000000000000
 51
258.787728582356180
  0
LINE
  8
0
  6
CONTINUOUS
 62
256
 10
-305.451076608615490
 20
-148.422041256550870
 11
-305.451075654941410
 21
-146.112644512776460
  0
LINE
  8
0
  6
CONTINUOUS
 62
256
 10
-309.451071840246410
 20
-146.112649536682170
 11
-309.451072793920730
 21
-148.422044373107950
  0
LINE
  8
0
  6
CONTINUOUS
 62
256
 10
-309.451072310478140
 20
-146.112649164578160
 11
-307.451076649450670
 21
-144.957945984791820
  0
LINE
  8
0
  6
CONTINUOUS
 62
256
 10
-307.451071922239410
 20
-149.576742120626590
 11
-305.451077224768600
 21
-148.422040995723930
  0
LINE
  8
0
  6
CONTINUOUS
 62
256
 10
-305.451075492919700
 20
-146.112644939229310
 11
-307.451076659986260
 21
-144.957945697317940
  0
LINE
  8
0
  6
CONTINUOUS
 62
256
 10
-309.451073034652610
 20
-148.422044230516860
 11
-307.451072280539620
 21
-149.576742444987700
  0
LINE
  8
0
  6
CONTINUOUS
 62
256
 10
-238.451071840246410
 20
-148.422041256550870
 11
-238.451072793920730
 21
-146.112644512776460
  0
LINE
  8
0
  6
CONTINUOUS
 62
256
 10
-234.451076608615490
 20
-146.112649536682170
 11
-234.451075654941410
 21
-148.422044373107950
  0
LINE
  8
0
  6
CONTINUOUS
 62
256
 10
-234.451076138384000
 20
-146.112649164578160
 11
-236.451071799411470
 21
-144.957945984791820
  0
LINE
  8
0
  6
CONTINUOUS
 62
256
 10
-236.451076526622730
 20
-149.576742120626590
 11
-238.451071224093540
 21
-148.422040995723930
  0
LINE
  8
0
  6
CONTINUOUS
 62
256
 10
-238.451072955942210
 20
-146.112644939229310
 11
-236.451071788875880
 21
-144.957945697317940
  0
LINE
  8
0
  6
CONTINUOUS
 62
256
 10
-234.451075414209530
 20
-148.422044230516860
 11
-236.451076168322520
 21
-149.576742444987700
  0
CIRCLE
  8
0
  6
CONTINUOUS
 62
256
 10
-335.451074224430840
 20
-87.767344919779646
 40
4.249999046325684
  0
LINE
  8
0
  6
CONTINUOUS
 62
256
 10
-333.451076608615270
 20
-88.922041256550813
 11
-333.451075654941180
 21
-86.612644512776399
  0
LINE
  8
0
  6
CONTINUOUS
 62
256
 10
-337.451071840246190
 20
-86.612649536682113
 11
-337.451072793920500
 21
-88.922044373107894
  0
LINE
  8
0
  6
CONTINUOUS
 62
256
 10
-337.451072310477910
 20
-86.612649164578102
 11
-335.451076649450440
 21
-85.457945984791763
  0
LINE
  8
0
  6
CONTINUOUS
 62
256
 10
-335.451071922239180
 20
-90.076742120626534
 11
-333.451077224768370
 21
-88.922040995723876
  0
LINE
  8
0
  6
CONTINUOUS
 62
256
 10
-333.451075492919470
 20
-86.612644939229256
 11
-335.451076659986030
 21
-85.457945697317882
  0
LINE
  8
0
  6
CONTINUOUS
 62
256
 10
-337.451073034652380
 20
-88.922044230516804
 11
-335.451072280539390
 21
-90.076742444987644
  0
LINE
  8
0
  6
CONTINUOUS
 62
256
 10
-302.951076608615490
 20
-35.922041256550813
 11
-302.951075654941410
 21
-33.612644512776399
  0
LINE
  8
0
  6
CONTINUOUS
 62
256
 10
-306.951071840246410
 20
-33.612649536682113
 11
-306.951072793920730
 21
-35.922044373107894
  0
LINE
  8
0
  6
CONTINUOUS
 62
256
 10
-306.951072310478140
 20
-33.612649164578102
 11
-304.951076649450670
 21
-32.457945984791763
  0
LINE
  8
0
  6
CONTINUOUS
 62
256
 10
-304.951071922239410
 20
-37.076742120626534
 11
-302.951077224768600
 21
-35.922040995723876
  0
LINE
  8
0
  6
CONTINUOUS
 62
256
 10
-302.951075492919700
 20
-33.612644939229256
 11
-304.951076659986260
 21
-32.457945697317882
  0
LINE
  8
0
  6
CONTINUOUS
 62
256
 10
-306.951073034652610
 20
-35.922044230516804
 11
-304.951072280539620
 21
-37.076742444987644
  0
LINE
  8
0
  6
CONTINUOUS
 62
256
 10
-240.951071840246410
 20
-35.922041256550813
 11
-240.951072793920730
 21
-33.612644512776399
  0
LINE
  8
0
  6
CONTINUOUS
 62
256
 10
-236.951076608615490
 20
-33.612649536682113
 11
-236.951075654941410
 21
-35.922044373107894
  0
LINE
  8
0
  6
CONTINUOUS
 62
256
 10
-236.951076138384000
 20
-33.612649164578102
 11
-238.951071799411470
 21
-32.457945984791763
  0
LINE
  8
0
  6
CONTINUOUS
 62
256
 10
-238.951076526622730
 20
-37.076742120626534
 11
-240.951071224093540
 21
-35.922040995723876
  0
LINE
  8
0
  6
CONTINUOUS
 62
256
 10
-240.951072955942210
 20
-33.612644939229256
 11
-238.951071788875880
 21
-32.457945697317882
  0
LINE
  8
0
  6
CONTINUOUS
 62
256
 10
-236.951075414209530
 20
-35.922044230516804
 11
-238.951076168322520
 21
-37.076742444987644
  0
LINE
  8
0
  6
CONTINUOUS
 62
256
 10
-199.451074224431010
 20
-152.767344919779650
 11
-199.451074224431010
 21
-140.267344919779650
  0
LINE
  8
0
  6
CONTINUOUS
 62
256
 10
-335.318659375320290
 20
-122.767344919779650
 11
-338.451074224431070
 21
-122.767344919779650
  0
ARC
  8
0
  6
CONTINUOUS
 62
256
 10
-338.451074224431070
 20
-125.767344919779750
 40
3.000000000000114
 50
90.000000000000000
 51
180.000000000000000
  0
ARC
  8
0
  6
CONTINUOUS
 62
256
 10
-335.318659375320290
 20
-125.767344919779650
 40
3.000000000000106
 50
30.000000000001339
 51
90.000000000000000
  0
ARC
  8
0
  6
CONTINUOUS
 62
256
 10
-336.451074224431070
 20
-103.805944865873760
 40
5.000000000000000
 50
180.000000000000000
 51
209.999999999999740
  0
LINE
  8
0
  6
CONTINUOUS
 62
256
 10
-208.583489073541780
 20
-122.767344919779650
 11
-205.451074224431010
 21
-122.767344919779650
  0
ARC
  8
0
  6
CONTINUOUS
 62
256
 10
-205.451074224431010
 20
-125.767344919779750
 40
3.000000000000000
 50
0.000000000000000
 51
90.000000000000000
  0
ARC
  8
0
  6
CONTINUOUS
 62
256
 10
-208.583489073541780
 20
-125.767344919779650
 40
3.000000000000000
 50
90.000000000000000
 51
149.999999999998780
  0
ARC
  8
0
  6
CONTINUOUS
 62
256
 10
-200.451074224431010
 20
-136.024704232660440
 40
2.000000000000000
 50
180.000000000000000
 51
250.528779365506010
  0
ARC
  8
0
  6
CONTINUOUS
 62
256
 10
-201.951074224431010
 20
-140.267344919779650
 40
2.500000000000000
 50
0.000000000000000
 51
90.000000000000000
  0
LINE
  8
0
  6
DASHDOT
 62
256
 10
-209.451074224431010
 20
-157.064739252665330
 11
-209.451074224431010
 21
-133.804104545448870
  0
ARC
  8
0
  6
CONTINUOUS
 62
256
 10
-341.951074224431070
 20
-140.267344919779650
 40
2.500000000000000
 50
90.000000000000000
 51
180.000000000000000
  0
ARC
  8
0
  6
CONTINUOUS
 62
256
 10
-343.451074224431070
 20
-136.024704232660440
 40
1.999999999999821
 50
289.471220634487910
 51
0.000000000000000
  0
LINE
  8
0
  6
CONTINUOUS
 62
256
 10
-344.451074224431070
 20
-152.767344919779650
 11
-344.451074224431070
 21
-140.267344919779650
  0
LINE
  8
0
  6
CONTINUOUS
 62
256
 10
-327.801077745246630
 20
-132.788178253113360
 11
-332.720583163966920
 21
-124.267344919779570
  0
LINE
  8
0
  6
CONTINUOUS
 62
256
 10
-302.089171577049230
 20
-151.767344919779650
 11
-319.451074224431070
 21
-151.767344919779650
  0
LINE
  8
0
  6
CONTINUOUS
 62
256
 10
-271.951074224431070
 20
-150.767344919779650
 11
-301.388896397940020
 21
-150.767344919779650
  0
ARC
  8
0
  6
CONTINUOUS
 62
256
 10
-307.451074224431070
 20
-147.267344919779650
 40
7.000000000000027
 50
319.994799115139980
 51
329.999999999999940
  0
LINE
  8
0
  6
CONTINUOUS
 62
256
 10
-271.951074224431070
 20
-150.767344919779650
 11
-242.513252050922120
 21
-150.767344919779650
  0
LINE
  8
0
  6
CONTINUOUS
 62
256
 10
-241.812976871812910
 20
-151.767344919779650
 11
-224.451074224431010
 21
-151.767344919779650
  0
LINE
  8
0
  6
DASHDOT
 62
256
 10
-334.451074224431070
 20
-157.064739252665330
 11
-334.451074224431070
 21
-133.804104545448870
  0
ARC
  8
0
  6
CONTINUOUS
 62
256
 10
-311.451074224431070
 20
-149.767344919779650
 40
2.000000000000000
 50
180.000000000000000
 51
270.000000000000000
  0
ARC
  8
0
  6
CONTINUOUS
 62
256
 10
-315.451074224431070
 20
-145.746418016290190
 40
2.000000000000000
 50
0.000000000000000
 51
57.246536473974864
  0
LINE
  8
0
  6
CONTINUOUS
 62
256
 10
-313.451074224431070
 20
-149.767344919779650
 11
-313.451074224431070
 21
-145.746418016290190
  0
ARC
  8
0
  6
CONTINUOUS
 62
256
 10
-232.451074224431070
 20
-149.767344919779650
 40
2.000000000000000
 50
270.000000000000000
 51
0.000000000000000
  0
LINE
  8
0
  6
CONTINUOUS
 62
256
 10
-230.451074224431070
 20
-149.767344919779650
 11
-230.451074224431070
 21
-145.746418016290190
  0
ARC
  8
0
  6
CONTINUOUS
 62
256
 10
-228.451074224431070
 20
-145.746418016290190
 40
1.999999999999969
 50
122.753463526025580
 51
180.000000000000000
  0
ARC
  8
0
  6
CONTINUOUS
 62
256
 10
-316.451074224431070
 20
-150.767344919779650
 40
1.000000000000000
 50
270.000000000000000
 51
0.000000000000000
  0
LINE
  8
0
  6
CONTINUOUS
 62
256
 10
-315.451074224431070
 20
-150.767344919779650
 11
-315.451074224431070
 21
-146.287580787847730
  0
ARC
  8
0
  6
CONTINUOUS
 62
256
 10
-319.451074224431070
 20
-152.767344919779650
 40
1.000000000000000
 50
90.000000000000000
 51
180.000000000000000
  0
ARC
  8
0
  6
CONTINUOUS
 62
256
 10
-227.451074224431070
 20
-150.767344919779650
 40
1.000000000000000
 50
180.000000000000000
 51
270.000000000000000
  0
LINE
  8
0
  6
CONTINUOUS
 62
256
 10
-228.451074224431070
 20
-150.767344919779650
 11
-228.451074224431070
 21
-146.287580787847730
  0
ARC
  8
0
  6
CONTINUOUS
 62
256
 10
-227.451074224431070
 20
-146.287580787847730
 40
0.999999999999869
 50
123.558897637693490
 51
180.000000000000000
  0
ARC
  8
0
  6
CONTINUOUS
 62
256
 10
-249.010036047424140
 20
-113.788178253113130
 40
37.999999999999957
 50
303.558897637694710
 51
329.999999999999720
  0
LINE
  8
0
  6
CONTINUOUS
 62
256
 10
-223.451074224431010
 20
-152.767344919779650
 11
-223.451074224431010
 21
-142.993394592250470
  0
LINE
  8
0
  6
CONTINUOUS
 62
256
 10
-216.101070703615450
 20
-132.788178253113360
 11
-210.892890150300390
 21
-123.767344919779650
  0
ARC
  8
0
  6
CONTINUOUS
 62
256
 10
-218.365236608711880
 20
-140.267344919779650
 40
2.500000000000000
 50
90.000000000000000
 51
139.170779312395180
  0
LINE
  8
0
  6
CONTINUOUS
 62
256
 10
-218.365236608711880
 20
-137.767344919779650
 11
-201.951074224431010
 21
-137.767344919779650
  0
LINE
  8
0
  6
CONTINUOUS
 62
256
 10
-326.069026937677560
 20
-131.788178253113360
 11
-340.781201243353280
 21
-106.305944865873760
  0
ARC
  8
0
  6
CONTINUOUS
 62
256
 10
-325.536911840150200
 20
-140.267344919779650
 40
2.500000000000007
 50
40.829220687604838
 51
90.000000000000000
  0
ARC
  8
0
  6
CONTINUOUS
 62
256
 10
-322.951074224431070
 20
-142.993394592250470
 40
2.500000000000000
 50
0.000000000000000
 51
46.146733938128797
  0
ARC
  8
0
  6
CONTINUOUS
 62
256
 10
-294.892112401438000
 20
-113.788178253113130
 40
38.000000000000078
 50
210.000000000000310
 51
236.441102362305260
  0
LINE
  8
0
  6
DASHDOT
 62
256
 10
-271.951074224431070
 20
-163.092855107021530
 11
-271.951074224431070
 21
-15.342564219248743
  0
LINE
  8
0
  6
CONTINUOUS
 62
256
 10
-320.451074224431070
 20
-152.767344919779650
 11
-320.451074224431070
 21
-142.993394592250470
  0
LINE
  8
0
  6
CONTINUOUS
 62
256
 10
-325.536911840150200
 20
-137.767344919779650
 11
-341.951074224431070
 21
-137.767344919779650
  0
LINE
  8
0
  6
CONTINUOUS
 62
256
 10
-223.451074224431010
 20
-152.767344919779650
 11
-199.451074224431010
 21
-152.767344919779650
  0
LINE
  8
0
  6
CONTINUOUS
 62
256
 10
-320.451074224431070
 20
-152.767344919779650
 11
-344.451074224431070
 21
-152.767344919779650
  0
ARC
  8
0
  6
CONTINUOUS
 62
256
 10
-220.951074224431010
 20
-142.993394592250470
 40
2.500000000000053
 50
133.853266061871690
 51
180.000000000000000
  0
ARC
  8
0
  6
CONTINUOUS
 62
256
 10
-224.451074224431010
 20
-152.767344919779650
 40
1.000000000000000
 50
0.000000000000000
 51
90.000000000000000
  0
LINE
  8
0
  6
CONTINUOUS
 62
256
 10
-341.451074224431070
 20
-136.024704232660440
 11
-341.451074224431070
 21
-75.520887775766198
  0
ARC
  8
0
  6
DIVIDE
 62
256
 10
-294.892112401438000
 20
-113.788178253113130
 40
38.000000000000000
 50
236.441102362305320
 51
237.246536473976620
  0
LINE
  8
0
  6
DIVIDE
 62
256
 10
-315.451074224431070
 20
-146.287580787847730
 11
-315.451074224431070
 21
-145.746418016290190
  0
LINE
  8
0
  6
DIVIDE
 62
256
 10
-320.451074224431070
 20
-142.993394592250470
 11
-320.451074224431070
 21
-141.908268411766300
  0
ARC
  8
0
  6
CONTINUOUS
 62
256
 10
-236.451074224431070
 20
-147.267344919779650
 40
6.999999999999984
 50
210.000000000000060
 51
220.005200884860020
  0
LINE
  8
0
  6
CONTINUOUS
 62
256
 10
-223.451074224431010
 20
-152.267344919779650
 11
-199.451074224431010
 21
-152.267344919779650
  0
LINE
  8
0
  6
CONTINUOUS
 62
256
 10
-320.451074224431070
 20
-152.267344919779650
 11
-344.451074224431070
 21
-152.267344919779650
  0
ARC
  8
0
  6
CONTINUOUS
 62
256
 10
-316.451074224431070
 20
-146.287580787847730
 40
1.000000000000000
 50
0.000000000000000
 51
56.441102362307404
  0
LINE
  8
0
  6
CONTINUOUS
 62
256
 10
-230.451074224431070
 20
-149.767344919779650
 11
-230.451074224431070
 21
-145.746418016290190
  0
LINE
  8
0
  6
CONTINUOUS
 62
256
 10
-271.951074224431070
 20
-150.767344919779650
 11
-242.195636870969110
 21
-150.767344919779650
  0
LINE
  8
0
  6
CONTINUOUS
 62
256
 10
-271.951074224431070
 20
-150.767344919779650
 11
-301.706511577893020
 21
-150.767344919779700
  0
LINE
  8
0
  6
CONTINUOUS
 62
256
 10
-313.451074224431070
 20
-149.767344919779700
 11
-313.451074224431070
 21
-145.746418016290250
  0
LINE
  8
0
  6
CONTINUOUS
 62
256
 10
-326.069026937677560
 20
-131.788178253113410
 11
-340.781201243353280
 21
-106.305944865873930
  0
LINE
  8
0
  6
CONTINUOUS
 62
256
 10
-341.451074224431070
 20
-103.805944865873930
 11
-341.451074224431070
 21
-75.267344919779703
  0
LINE
  8
0
  6
CONTINUOUS
 62
256
 10
-302.552094738864750
 20
-151.767344919779700
 11
-311.451074224431070
 21
-151.767344919779700
  0
LINE
  8
0
  6
CONTINUOUS
 62
256
 10
-241.350053709997380
 20
-151.767344919779650
 11
-232.451074224431070
 21
-151.767344919779650
  0
ARC
  8
0
  6
CONTINUOUS
 62
256
 10
-228.451074224431070
 20
-145.746418016290190
 40
1.999999999999969
 50
122.753463526025580
 51
180.000000000000000
  0
ARC
  8
0
  6
CONTINUOUS
 62
256
 10
-315.451074224431070
 20
-145.746418016290250
 40
2.000000000000000
 50
0.000000000000000
 51
57.246536473974864
  0
ARC
  8
0
  6
CONTINUOUS
 62
256
 10
-336.451074224431070
 20
-103.805944865873930
 40
5.000000000000000
 50
180.000000000000000
 51
209.999999999999740
  0
ARC
  8
0
  6
CONTINUOUS
 62
256
 10
-291.451074224431070
 20
-75.520887775766255
 40
49.999999999999957
 50
91.489858156854154
 51
180.000000000000000
  0
ARC
  8
0
  6
CONTINUOUS
 62
256
 10
-271.951074224431070
 20
-825.267344919779700
 40
800.000000000000000
 50
90.000000000000000
 51
91.489858156853941
  0
ARC
  8
0
  6
CONTINUOUS
 62
256
 10
-311.451074224431070
 20
-149.767344919779700
 40
2.000000000000000
 50
180.000000000000000
 51
270.000000000000000
  0
ARC
  8
0
  6
CONTINUOUS
 62
256
 10
-307.451074224431070
 20
-146.767344919779700
 40
6.999999999999971
 50
314.415308597192730
 51
325.150095420953510
  0
ARC
  8
0
  6
CONTINUOUS
 62
256
 10
-236.451074224431070
 20
-146.767344919779650
 40
7.000000000000012
 50
214.849904579046410
 51
225.584691402807270
  0
ARC
  8
0
  6
CONTINUOUS
 62
256
 10
-232.451074224431070
 20
-149.767344919779650
 40
2.000000000000000
 50
270.000000000000000
 51
0.000000000000000
  0
LINE
  8
0
  6
CONTINUOUS
 62
256
 10
-299.701074224431070
 20
-27.060207838315932
 11
-299.701074224431070
 21
-34.767344919779703
  0
LINE
  8
0
  6
CONTINUOUS
 62
256
 10
-310.201074224431070
 20
-30.677409989135981
 11
-310.201074224431070
 21
-34.767344919779703
  0
ARC
  8
0
  6
CONTINUOUS
 62
256
 10
-298.701074224431070
 20
-27.060207838315932
 40
1.000000000000005
 50
98.508676738272570
 51
180.000000000000000
  0
ARC
  8
0
  6
CONTINUOUS
 62
256
 10
-311.201074224431070
 20
-30.677409989135981
 40
1.000000000000000
 50
0.000000000000000
 51
113.769690422666600
  0
ARC
  8
0
  6
CONTINUOUS
 62
256
 10
-232.701074224431070
 20
-30.677409989135981
 40
1.000000000000052
 50
66.230309577334467
 51
180.000000000000000
  0
LINE
  8
0
  6
CONTINUOUS
 62
256
 10
-233.701074224431070
 20
-30.677409989135981
 11
-233.701074224431070
 21
-34.767344919779703
  0
LINE
  8
0
  6
CONTINUOUS
 62
256
 10
-244.201074224431070
 20
-27.060207838315932
 11
-244.201074224431070
 21
-34.767344919779703
  0
ARC
  8
0
  6
CONTINUOUS
 62
256
 10
-245.201074224431070
 20
-27.060207838315932
 40
1.000000000000000
 50
0.000000000000000
 51
81.491323261727416
  0
LINE
  8
0
  6
CONTINUOUS
 62
256
 10
-340.451074224431070
 20
-93.017344919779646
 11
-335.451074224431300
 21
-93.017344919779646
  0
LINE
  8
0
  6
CONTINUOUS
 62
256
 10
-340.451074224431070
 20
-82.517344919779646
 11
-335.451074224431300
 21
-82.517344919779646
  0
ARC
  8
0
  6
CONTINUOUS
 62
256
 10
-340.451074224431070
 20
-81.517344919779646
 40
1.000000000000000
 50
180.000000000000000
 51
270.000000000000000
  0
ARC
  8
0
  6
CONTINUOUS
 62
256
 10
-340.451074224431070
 20
-94.017344919779646
 40
1.000000000000000
 50
90.000000000000000
 51
180.000000000000000
  0
LINE
  8
0
  6
CONTINUOUS
 62
256
 10
-241.701074224431070
 20
-149.767344919779650
 11
-241.701074224431070
 21
-147.267344919779700
  0
ARC
  8
0
  6
CONTINUOUS
 62
256
 10
-271.951074224431300
 20
-825.267344919779700
 40
799.999999999999890
 50
88.510141843146044
 51
90.000000000000000
  0
ARC
  8
0
  6
CONTINUOUS
 62
256
 10
-231.013383925453810
 20
-144.186107471544350
 40
1.000000000000014
 50
209.537822073033400
 51
328.660804670916090
  0
ARC
  8
0
  6
CONTINUOUS
 62
256
 10
-242.701074224431070
 20
-149.767344919779650
 40
1.000000000000000
 50
270.000000000000000
 51
0.000000000000000
  0
ARC
  8
0
  6
CONTINUOUS
 62
256
 10
-312.888764523408330
 20
-144.186107471544350
 40
1.000000000000073
 50
211.339195329083590
 51
330.462177926966770
  0
ARC
  8
0
  6
CONTINUOUS
 62
256
 10
-301.201074224431070
 20
-149.767344919779650
 40
1.000000000000000
 50
180.000000000000000
 51
270.000000000000000
  0
LINE
  8
0
  6
CONTINUOUS
 62
256
 10
-302.201074224431070
 20
-149.767344919779650
 11
-302.201074224431070
 21
-147.267344919779700
  0
ARC
  8
0
  6
CONTINUOUS
 62
256
 10
-311.451074224431070
 20
-149.767344919779650
 40
2.000000000000000
 50
180.000000000000000
 51
270.000000000000000
  0
LINE
  8
0
  6
DASHDOT
 62
256
 10
-255.529161607231800
 20
-72.767344919779646
 11
-288.832938392708460
 21
-72.767344919779646
  0
ARC
  8
0
  6
CONTINUOUS
 62
256
 10
-252.451074224431070
 20
-75.520887775766255
 40
50.000000000000057
 50
17.161786322051096
 51
88.510141843145860
  0
LINE
  8
0
  6
CONTINUOUS
 62
256
 10
-202.451074224431010
 20
-136.024704232660440
 11
-202.451074224431010
 21
-120.767344919779650
  0
LINE
  8
0
  6
CONTINUOUS
 62
256
 10
-217.833121511184520
 20
-131.788178253113360
 11
-211.470240419490150
 21
-120.767344919779650
  0
ARC
  8
0
  6
CONTINUOUS
 62
256
 10
-238.951074224431070
 20
-34.767344919779646
 40
4.249999046325320
 50
303.103064299015100
 51
227.525136021980190
  0
ARC
  8
0
  6
CONTINUOUS
 62
256
 10
-238.951074224431070
 20
-34.767344919779703
 40
5.250000000000000
 50
180.000000000000000
 51
215.254058123108000
  0
ARC
  8
0
  6
CONTINUOUS
 62
256
 10
-238.951074224431070
 20
-34.767344919779703
 40
5.250000000000338
 50
315.374142197887290
 51
0.000000000000000
  0
ARC
  8
0
  6
CONTINUOUS
 62
256
 10
-304.951074224431070
 20
-34.767344919779646
 40
4.249999046325369
 50
312.474863978020840
 51
236.896935700986210
  0
ARC
  8
0
  6
CONTINUOUS
 62
256
 10
-304.951074224431070
 20
-34.767344919779703
 40
5.250000000000000
 50
180.000000000000000
 51
224.625857802114300
  0
ARC
  8
0
  6
CONTINUOUS
 62
256
 10
-304.951074224431070
 20
-34.767344919779703
 40
5.250000000000289
 50
324.745941876892000
 51
0.000000000000000
  0
ARC
  8
0
  6
CONTINUOUS
 62
256
 10
-335.451074224431300
 20
-87.767344919779646
 40
5.250000000000000
 50
270.000000000000000
 51
329.000370493683310
  0
ARC
  8
0
  6
CONTINUOUS
 62
256
 10
-335.451074224431300
 20
-87.767344919779646
 40
5.249999999999841
 50
29.872905158686642
 51
90.000000000000000
  0
ARC
  8
0
  6
CONTINUOUS
 62
256
 10
-294.892112401438000
 20
-113.788178253113170
 40
35.999999999999922
 50
210.000000000000510
 51
219.143593251539330
  0
ARC
  8
0
  6
CONTINUOUS
 62
256
 10
-294.892112401438000
 20
-113.788178253113130
 40
35.999999999999972
 50
230.647162028961300
 51
237.246536473976590
  0
ARC
  8
0
  6
CONTINUOUS
 62
256
 10
-307.451074224431070
 20
-147.267344919779700
 40
4.249999046324504
 50
102.066717888565040
 51
67.867462111197312
  0
ARC
  8
0
  6
CONTINUOUS
 62
256
 10
-307.451074224431070
 20
-147.267344919779700
 40
5.250000000000000
 50
0.000000000000000
 51
45.860551713957236
  0
ARC
  8
0
  6
CONTINUOUS
 62
256
 10
-307.451074224431070
 20
-147.267344919779700
 40
5.249999999999401
 50
124.073628285807400
 51
150.462177926968050
  0
ARC
  8
0
  6
CONTINUOUS
 62
256
 10
-236.451074224431070
 20
-147.267344919779700
 40
4.249999046324494
 50
112.132537888800270
 51
77.933282111431808
  0
ARC
  8
0
  6
CONTINUOUS
 62
256
 10
-236.451074224431070
 20
-147.267344919779700
 40
5.249999999999932
 50
29.537822073031958
 51
55.926371714192648
  0
ARC
  8
0
  6
CONTINUOUS
 62
256
 10
-236.451074224431070
 20
-147.267344919779700
 40
5.249999999999310
 50
134.139448286041130
 51
180.000000000000000
  0
ARC
  8
0
  6
CONTINUOUS
 62
256
 10
-249.010036047424140
 20
-113.788178253113130
 40
36.000000000000021
 50
320.856406748460760
 51
329.999999999999600
  0
ARC
  8
0
  6
CONTINUOUS
 62
256
 10
-249.010036047424140
 20
-113.788178253113130
 40
36.000000000000007
 50
302.753463526023270
 51
309.352837971038870
  0
LINE
  8
0
  6
DASHDOT
 62
256
 10
-352.384821574042230
 20
-90.767344919780101
 11
-171.028565420423490
 21
-90.767344919779077
  0
LINE
  8
0
  6
CONTINUOUS
 62
256
 10
53.434886536684644
 20
147.636461939679070
 11
53.434886536684644
 21
138.436463084088250
  0
LINE
  8
0
  6
CONTINUOUS
 62
256
 10
48.434886536684644
 20
138.786463465557970
 11
48.434886536684644
 21
147.286461558209340
  0
LINE
  8
0
  6
CONTINUOUS
 62
256
 10
53.434886536684644
 20
147.286461558209340
 11
48.434886536684644
 21
147.286461558209340
  0
LINE
  8
0
  6
CONTINUOUS
 62
256
 10
53.434886536684644
 20
138.786463465557970
 11
48.434886536684644
 21
138.786463465557970
  0
LINE
  8
0
  6
CONTINUOUS
 62
256
 10
53.434886536684644
 20
72.436463084088246
 11
53.434886536684644
 21
81.636461939679066
  0
LINE
  8
0
  6
CONTINUOUS
 62
256
 10
48.434886536684644
 20
81.286461558209339
 11
48.434886536684644
 21
72.786463465557972
  0
LINE
  8
0
  6
CONTINUOUS
 62
256
 10
53.434886536684644
 20
72.786463465557972
 11
48.434886536684644
 21
72.786463465557972
  0
LINE
  8
0
  6
CONTINUOUS
 62
256
 10
53.434886536684644
 20
81.286461558209339
 11
48.434886536684644
 21
81.286461558209339
  0
LINE
  8
0
  6
CONTINUOUS
 62
256
 10
48.434886536684644
 20
147.286461558209340
 11
48.434886536684644
 21
179.036462511883660
  0
LINE
  8
0
  6
CONTINUOUS
 62
256
 10
48.434886536684644
 20
72.786463465557972
 11
48.434886536684644
 21
41.036462511883656
  0
LINE
  8
0
  6
CONTINUOUS
 62
256
 10
30.934886536684644
 20
163.510276590314790
 11
30.934886536681915
 21
110.036462511883660
  0
LINE
  8
0
  6
CONTINUOUS
 62
256
 10
30.934886536684644
 20
56.562648433453433
 11
30.934886536681915
 21
110.036462511883660
  0
LINE
  8
0
  6
CONTINUOUS
 62
256
 10
58.434886536684644
 20
179.536462511883660
 11
58.434886536684644
 21
110.036462511883660
  0
LINE
  8
0
  6
CONTINUOUS
 62
256
 10
58.434886536684644
 20
40.536462511883656
 11
58.434886536684644
 21
110.036462511883660
  0
LINE
  8
0
  6
CONTINUOUS
 62
256
 10
47.461063484992337
 20
163.943029763721820
 11
30.934886536684644
 21
163.510276590314790
  0
LINE
  8
0
  6
CONTINUOUS
 62
256
 10
47.461063484992337
 20
56.129895260046396
 11
30.934886536684644
 21
56.562648433453433
  0
LINE
  8
0
  6
CONTINUOUS
 62
256
 10
48.434886536684644
 20
110.036462511883660
 11
48.434886536684644
 21
138.786463465557970
  0
LINE
  8
0
  6
CONTINUOUS
 62
256
 10
48.434886536684644
 20
110.036462511883660
 11
48.434886536684644
 21
81.286461558209339
  0
LINE
  8
0
  6
CONTINUOUS
 62
256
 10
48.934886536684644
 20
179.536462511883660
 11
58.434886536684644
 21
179.536462511883660
  0
LINE
  8
0
  6
CONTINUOUS
 62
256
 10
48.934886536684644
 20
40.536462511883656
 11
58.434886536684644
 21
40.536462511883656
  0
ARC
  8
0
  6
CONTINUOUS
 62
256
 10
47.434886536684644
 20
164.942687088697310
 40
0.999999999999925
 50
271.499999999989770
 51
0.000000000000000
  0
ARC
  8
0
  6
CONTINUOUS
 62
256
 10
47.434886536684644
 20
55.130237935070909
 40
1.000000000000000
 50
0.000000000000000
 51
88.500000000010303
  0
ARC
  8
0
  6
CONTINUOUS
 62
256
 10
48.934886536684644
 20
179.036462511883660
 40
0.500000000000000
 50
90.000000000000000
 51
180.000000000000000
  0
ARC
  8
0
  6
CONTINUOUS
 62
256
 10
48.934886536684644
 20
41.036462511883656
 40
0.500000000000000
 50
180.000000000000000
 51
270.000000000000000
  0
LINE
  8
0
  6
CONTINUOUS
 62
256
 10
123.734903429392940
 20
121.108386031934060
 11
123.934903429392760
 21
120.908386031934240
  0
LINE
  8
0
  6
CONTINUOUS
 62
256
 10
123.734903429392940
 20
121.108386031934060
 11
121.934886536684640
 21
121.108386031934060
  0
LINE
  8
0
  6
CONTINUOUS
 62
256
 10
123.934903429392760
 20
110.036462511883630
 11
123.934903429392760
 21
120.908386031934240
  0
LINE
  8
0
  6
CONTINUOUS
 62
256
 10
123.734903429392940
 20
99.036462511883656
 11
123.934903429392760
 21
99.236462511883474
  0
LINE
  8
0
  6
CONTINUOUS
 62
256
 10
123.734903429392940
 20
99.036462511883656
 11
121.934886536684640
 21
99.036462511883656
  0
LINE
  8
0
  6
CONTINUOUS
 62
256
 10
123.934903429392760
 20
110.036462511883660
 11
123.934903429392760
 21
99.236462511883474
  0
LINE
  8
0
  6
CONTINUOUS
 62
256
 10
53.034886536685008
 20
148.286462511883660
 11
49.434886536684644
 21
148.286462511883660
  0
LINE
  8
0
  6
CONTINUOUS
 62
256
 10
53.034886536685008
 20
71.786462511883656
 11
49.434886536684644
 21
71.786462511883656
  0
LINE
  8
0
  6
CONTINUOUS
 62
256
 10
53.034886536685008
 20
137.786462511883660
 11
49.434886536684644
 21
137.786462511883660
  0
LINE
  8
0
  6
CONTINUOUS
 62
256
 10
53.034886536685008
 20
82.286462511883656
 11
49.434886536684644
 21
82.286462511883656
  0
LINE
  8
0
  6
CONTINUOUS
 62
256
 10
53.434886536684644
 20
147.886462511884020
 11
53.434886536684644
 21
138.186462511883290
  0
LINE
  8
0
  6
CONTINUOUS
 62
256
 10
53.434886536684644
 20
72.186462511883292
 11
53.434886536684644
 21
81.886462511884019
  0
ARC
  8
0
  6
CONTINUOUS
 62
256
 10
53.034886536685008
 20
147.886462511884020
 40
0.399999999999636
 50
0.000000000000000
 51
90.000000000000000
  0
ARC
  8
0
  6
CONTINUOUS
 62
256
 10
53.034886536685008
 20
72.186462511883292
 40
0.399999999999636
 50
270.000000000000000
 51
0.000000000000000
  0
ARC
  8
0
  6
CONTINUOUS
 62
256
 10
53.034886536685008
 20
138.186462511883290
 40
0.399999999999636
 50
270.000000000000000
 51
0.000000000000000
  0
ARC
  8
0
  6
CONTINUOUS
 62
256
 10
53.034886536685008
 20
81.886462511884019
 40
0.399999999999636
 50
0.000000000000000
 51
90.000000000000000
  0
ARC
  8
0
  6
CONTINUOUS
 62
256
 10
49.434886536684644
 20
149.286462511883660
 40
1.000000000000000
 50
180.000000000000000
 51
270.000000000000000
  0
ARC
  8
0
  6
CONTINUOUS
 62
256
 10
49.434886536684644
 20
70.786462511883656
 40
1.000000000000000
 50
90.000000000000000
 51
180.000000000000000
  0
ARC
  8
0
  6
CONTINUOUS
 62
256
 10
49.434886536684644
 20
136.786462511883660
 40
1.000000000000000
 50
90.000000000000000
 51
180.000000000000000
  0
ARC
  8
0
  6
CONTINUOUS
 62
256
 10
49.434886536684644
 20
83.286462511883656
 40
1.000000000000000
 50
180.000000000000000
 51
270.000000000000000
  0
ARC
  8
0
  6
CONTINUOUS
 62
256
 10
117.934886536684640
 20
158.119719592721590
 40
2.000000000000000
 50
0.000000000000000
 51
42.081511029715649
  0
ARC
  8
0
  6
CONTINUOUS
 62
256
 10
74.887742150447593
 20
119.248864698720350
 40
60.000000000000604
 50
42.081511029705268
 51
42.445107844318400
  0
ARC
  8
0
  6
CONTINUOUS
 62
256
 10
117.687348463393390
 20
158.392110597047580
 40
1.999999999999802
 50
42.445107844321505
 51
88.999999999998124
  0
LINE
  8
0
  6
CONTINUOUS
 62
256
 10
117.722253276268020
 20
160.391805987360390
 11
109.434886536684640
 21
160.536462511883660
  0
ARC
  8
0
  6
CONTINUOUS
 62
256
 10
95.466408703323850
 20
173.475412467369100
 40
1.999999999999981
 50
356.154408370101690
 51
69.218531016611522
  0
ARC
  8
0
  6
CONTINUOUS
 62
256
 10
74.887742150447593
 20
119.248864698720350
 40
60.000000000000398
 50
69.218531016612971
 51
88.999999999999957
  0
LINE
  8
0
  6
CONTINUOUS
 62
256
 10
75.934886536684644
 20
179.239726408103710
 11
58.934886536684644
 21
179.536462511883660
  0
LINE
  8
0
  6
DASHDOT
 62
256
 10
99.434886536684644
 20
172.536462511883660
 11
119.434886536684640
 21
172.536462511883660
  0
CIRCLE
  8
0
  6
CONTINUOUS
 62
256
 10
36.434886536684644
 20
172.536462511883660
 40
5.000000000000000
  0
CIRCLE
  8
0
  6
CONTINUOUS
 62
256
 10
109.434886536684640
 20
172.536462511883660
 40
5.000000000000000
  0
ARC
  8
0
  6
CONTINUOUS
 62
256
 10
120.934886536684640
 20
131.536462511883660
 40
1.000000000000000
 50
0.000000000000000
 51
90.000000000000000
  0
ARC
  8
0
  6
CONTINUOUS
 62
256
 10
120.934886536684640
 20
133.536462511883660
 40
1.000000000000000
 50
180.000000000000000
 51
270.000000000000000
  0
LINE
  8
0
  6
CONTINUOUS
 62
256
 10
119.934886536684640
 20
158.119719592721590
 11
119.934886536684640
 21
110.036462511883660
  0
ARC
  8
0
  6
CONTINUOUS
 62
256
 10
117.934886536684640
 20
61.953205431045717
 40
2.000000000000259
 50
317.918488970284560
 51
0.000000000000000
  0
ARC
  8
0
  6
CONTINUOUS
 62
256
 10
74.887742150447593
 20
100.824060325046940
 40
60.000000000000327
 50
317.554892155681560
 51
317.918488970294730
  0
ARC
  8
0
  6
CONTINUOUS
 62
256
 10
117.687348463393390
 20
61.680814426719735
 40
2.000000000000027
 50
271.000000000001760
 51
317.554892155678660
  0
LINE
  8
0
  6
CONTINUOUS
 62
256
 10
117.722253276268020
 20
59.681119036406926
 11
109.434886536684640
 21
59.536462511883656
  0
ARC
  8
0
  6
CONTINUOUS
 62
256
 10
109.434886536684640
 20
47.536462511883656
 40
12.000000000000000
 50
90.000000000000000
 51
183.845591629902630
  0
ARC
  8
0
  6
CONTINUOUS
 62
256
 10
109.434886536684640
 20
172.536462511883660
 40
11.999999999999945
 50
176.154408370097340
 51
270.000000000000000
  0
ARC
  8
0
  6
CONTINUOUS
 62
256
 10
95.466408703323850
 20
46.597512556398215
 40
2.000000000000294
 50
290.781468983388660
 51
3.845591629898333
  0
ARC
  8
0
  6
CONTINUOUS
 62
256
 10
74.887742150447593
 20
100.824060325046940
 40
60.000000000000789
 50
271.000000000000060
 51
290.781468983387010
  0
LINE
  8
0
  6
CONTINUOUS
 62
256
 10
75.934886536684644
 20
40.833198615662695
 11
58.934886536684644
 21
40.536462511883656
  0
LINE
  8
0
  6
DASHDOT
 62
256
 10
99.434886536684644
 20
47.536462511883656
 11
119.434886536684640
 21
47.536462511883656
  0
CIRCLE
  8
0
  6
CONTINUOUS
 62
256
 10
36.434886536684644
 20
47.536462511883656
 40
5.000000000000000
  0
CIRCLE
  8
0
  6
CONTINUOUS
 62
256
 10
109.434886536684640
 20
47.536462511883656
 40
5.000000000000000
  0
ARC
  8
0
  6
CONTINUOUS
 62
256
 10
120.934886536684640
 20
88.536462511883656
 40
1.000000000000000
 50
270.000000000000000
 51
0.000000000000000
  0
ARC
  8
0
  6
CONTINUOUS
 62
256
 10
120.934886536684640
 20
86.536462511883656
 40
1.000000000000000
 50
90.000000000000000
 51
180.000000000000000
  0
LINE
  8
0
  6
CONTINUOUS
 62
256
 10
119.934886536684640
 20
61.953205431045717
 11
119.934886536684640
 21
110.036462511883660
  0
LINE
  8
0
  6
CONTINUOUS
 62
256
 10
58.934886536684644
 20
40.536462511883656
 11
58.934886536684644
 21
110.036462511883660
  0
LINE
  8
0
  6
CONTINUOUS
 62
256
 10
60.934886536684644
 20
36.471703551262181
 11
25.877355814836392
 21
37.480563550541774
  0
LINE
  8
0
  6
CONTINUOUS
 62
256
 10
58.934886536684644
 20
179.536462511883660
 11
58.934886536684644
 21
110.036462511883660
  0
LINE
  8
0
  6
CONTINUOUS
 62
256
 10
25.881059704639028
 20
182.657461388070260
 11
60.934886536684644
 21
183.601221472505130
  0
LINE
  8
0
  6
CONTINUOUS
 62
256
 10
119.969791349559270
 20
182.570763375964820
 11
60.934886536684644
 21
183.601221472505130
  0
LINE
  8
0
  6
CONTINUOUS
 62
256
 10
121.934886536684640
 20
180.571067985652010
 11
121.934886536684640
 21
110.036462511883660
  0
LINE
  8
0
  6
CONTINUOUS
 62
256
 10
119.969791349559270
 20
37.502161647802495
 11
60.934886536684644
 21
36.471703551262181
  0
LINE
  8
0
  6
CONTINUOUS
 62
256
 10
121.934886536684640
 20
39.501857038115304
 11
121.934886536684640
 21
110.036462511883660
  0
ARC
  8
0
  6
CONTINUOUS
 62
256
 10
25.934886536684644
 20
180.658185851243620
 40
2.000000000000383
 50
91.542211367440515
 51
180.000000000000000
  0
ARC
  8
0
  6
CONTINUOUS
 62
256
 10
119.934886536684640
 20
180.571067985652010
 40
2.000000000000000
 50
0.000000000000000
 51
88.999999999998224
  0
ARC
  8
0
  6
CONTINUOUS
 62
256
 10
25.934886536684644
 20
39.479735933315169
 40
2.000000000000000
 50
180.000000000000000
 51
268.351638847923140
  0
ARC
  8
0
  6
CONTINUOUS
 62
256
 10
119.934886536684640
 20
39.501857038115304
 40
2.000000000000027
 50
271.000000000001760
 51
0.000000000000000
  0
LINE
  8
0
  6
CONTINUOUS
 62
256
 10
30.934886536682029
 20
56.536462511883656
 11
30.934886536682029
 21
110.036462511883660
  0
LINE
  8
0
  6
CONTINUOUS
 62
256
 10
-97.565113463317743
 20
52.536462511883656
 11
-22.565113463317743
 21
52.536462511883656
  0
LINE
  8
0
  6
CONTINUOUS
 62
256
 10
-22.565113463317743
 20
52.536462511883656
 11
-22.565113463317743
 21
57.536462511883769
  0
LINE
  8
0
  6
CONTINUOUS
 62
256
 10
-23.565113463317743
 20
24.036462511883656
 11
-23.565113463317743
 21
52.536462511883656
  0
LINE
  8
0
  6
CONTINUOUS
 62
256
 10
-96.565113463317743
 20
24.036462511883656
 11
-96.565113463317743
 21
52.536462511883656
  0
ARC
  8
0
  6
CONTINUOUS
 62
256
 10
-95.565113463317743
 20
24.036462511883656
 40
1.000000000000000
 50
180.000000000000000
 51
270.000000000000000
  0
ARC
  8
0
  6
CONTINUOUS
 62
256
 10
-24.565113463317743
 20
24.036462511883656
 40
1.000000000000000
 50
270.000000000000000
 51
0.000000000000000
  0
LINE
  8
0
  6
CONTINUOUS
 62
256
 10
30.934886536682029
 20
56.536462511883656
 11
-22.565113463317743
 21
56.536462511883656
  0
LINE
  8
0
  6
CONTINUOUS
 62
256
 10
30.934886536682029
 20
163.536462511883660
 11
30.934886536682029
 21
110.036462511883660
  0
LINE
  8
0
  6
CONTINUOUS
 62
256
 10
-30.565113463317743
 20
22.536462511883656
 11
-30.565113463317743
 21
23.036462511883656
  0
LINE
  8
0
  6
CONTINUOUS
 62
256
 10
-38.565113463317743
 20
22.536462511883656
 11
-30.565113463317743
 21
22.536462511883656
  0
LINE
  8
0
  6
CONTINUOUS
 62
256
 10
-38.565113463317743
 20
22.536462511883656
 11
-38.565113463317743
 21
23.036462511883656
  0
LINE
  8
0
  6
CONTINUOUS
 62
256
 10
-24.565113463317743
 20
23.036462511883656
 11
-95.565113463317743
 21
23.036462511883656
  0
LINE
  8
0
  6
CONTINUOUS
 62
256
 10
-89.565113463339117
 20
58.696766151074712
 11
-89.565113463338889
 21
110.036462511883660
  0
ARC
  8
0
  6
CONTINUOUS
 62
256
 10
-92.565113463339117
 20
58.696766151074712
 40
3.000000000000000
 50
270.000000000000000
 51
0.000000000000000
  0
LINE
  8
0
  6
CONTINUOUS
 62
256
 10
-96.565113463339117
 20
55.696766151074712
 11
-92.565113463339117
 21
55.696766151074712
  0
LINE
  8
0
  6
CONTINUOUS
 62
256
 10
-95.955422645443718
 20
62.006174591335764
 11
-95.865113463338901
 21
62.709131557536125
  0
LINE
  8
0
  6
CONTINUOUS
 62
256
 10
-96.222879660535853
 20
61.330231867123672
 11
-95.955422645443718
 21
62.006174591335764
  0
LINE
  8
0
  6
CONTINUOUS
 62
256
 10
-96.657206285516935
 20
60.707279484718271
 11
-96.222879660535853
 21
61.330231867123672
  0
LINE
  8
0
  6
CONTINUOUS
 62
256
 10
-97.241711591762126
 20
60.161257154819694
 11
-96.657206285516935
 21
60.707279484718271
  0
LINE
  8
0
  6
CONTINUOUS
 62
256
 10
-97.953933368146764
 20
59.713148209353072
 11
-97.241711591762126
 21
60.161257154819694
  0
LINE
  8
0
  6
CONTINUOUS
 62
256
 10
-98.766501331222969
 20
59.380173223790315
 11
-97.953933368146764
 21
59.713148209353072
  0
LINE
  8
0
  6
CONTINUOUS
 62
256
 10
-99.648188949863084
 20
59.175128240092064
 11
-98.766501331222969
 21
59.380173223790315
  0
LINE
  8
0
  6
CONTINUOUS
 62
256
 10
-100.565113463338880
 20
59.105893021991292
 11
-99.648188949863084
 21
59.175128240092064
  0
LINE
  8
0
  6
CONTINUOUS
 62
256
 10
-101.482037976814690
 20
59.175128240092064
 11
-100.565113463338880
 21
59.105893021991292
  0
LINE
  8
0
  6
CONTINUOUS
 62
256
 10
-102.363725595454810
 20
59.380173223790315
 11
-101.482037976814690
 21
59.175128240092064
  0
LINE
  8
0
  6
CONTINUOUS
 62
256
 10
-103.176293558531010
 20
59.713148209353072
 11
-102.363725595454810
 21
59.380173223790315
  0
LINE
  8
0
  6
CONTINUOUS
 62
256
 10
-103.888515334915650
 20
60.161257154819694
 11
-103.176293558531010
 21
59.713148209353072
  0
LINE
  8
0
  6
CONTINUOUS
 62
256
 10
-104.473020641160840
 20
60.707279484718271
 11
-103.888515334915650
 21
60.161257154819694
  0
LINE
  8
0
  6
CONTINUOUS
 62
256
 10
-104.907347266141930
 20
61.330231867123672
 11
-104.473020641160840
 21
60.707279484718271
  0
LINE
  8
0
  6
CONTINUOUS
 62
256
 10
-105.174804281234060
 20
62.006174591335764
 11
-104.907347266141930
 21
61.330231867123672
  0
LINE
  8
0
  6
CONTINUOUS
 62
256
 10
-105.265113463338860
 20
62.709131557536125
 11
-105.174804281234060
 21
62.006174591335764
  0
LINE
  8
0
  6
CONTINUOUS
 62
256
 10
-105.174804281234060
 20
63.412088523736486
 11
-105.265113463338860
 21
62.709131557536125
  0
LINE
  8
0
  6
CONTINUOUS
 62
256
 10
-104.907347266141930
 20
64.088031247948578
 11
-105.174804281234060
 21
63.412088523736486
  0
LINE
  8
0
  6
CONTINUOUS
 62
256
 10
-104.473020641160840
 20
64.710983630353979
 11
-104.907347266141930
 21
64.088031247948578
  0
LINE
  8
0
  6
CONTINUOUS
 62
256
 10
-103.888515334915650
 20
65.257005960252556
 11
-104.473020641160840
 21
64.710983630353979
  0
LINE
  8
0
  6
CONTINUOUS
 62
256
 10
-103.176293558531010
 20
65.705114905719171
 11
-103.888515334915650
 21
65.257005960252556
  0
LINE
  8
0
  6
CONTINUOUS
 62
256
 10
-102.363725595454810
 20
66.038089891281942
 11
-103.176293558531010
 21
65.705114905719171
  0
LINE
  8
0
  6
CONTINUOUS
 62
256
 10
-101.482037976814690
 20
66.243134874980186
 11
-102.363725595454810
 21
66.038089891281942
  0
LINE
  8
0
  6
CONTINUOUS
 62
256
 10
-100.565113463338880
 20
66.312370093080958
 11
-101.482037976814690
 21
66.243134874980186
  0
LINE
  8
0
  6
CONTINUOUS
 62
256
 10
-99.648188949863084
 20
66.243134874980186
 11
-100.565113463338880
 21
66.312370093080958
  0
LINE
  8
0
  6
CONTINUOUS
 62
256
 10
-98.766501331222969
 20
66.038089891281942
 11
-99.648188949863084
 21
66.243134874980186
  0
LINE
  8
0
  6
CONTINUOUS
 62
256
 10
-97.953933368146764
 20
65.705114905719171
 11
-98.766501331222969
 21
66.038089891281942
  0
LINE
  8
0
  6
CONTINUOUS
 62
256
 10
-97.241711591762126
 20
65.257005960252556
 11
-97.953933368146764
 21
65.705114905719171
  0
LINE
  8
0
  6
CONTINUOUS
 62
256
 10
-96.657206285516935
 20
64.710983630353979
 11
-97.241711591762126
 21
65.257005960252556
  0
LINE
  8
0
  6
CONTINUOUS
 62
256
 10
-96.222879660535853
 20
64.088031247948578
 11
-96.657206285516935
 21
64.710983630353979
  0
LINE
  8
0
  6
CONTINUOUS
 62
256
 10
-95.955422645443718
 20
63.412088523736486
 11
-96.222879660535853
 21
64.088031247948578
  0
LINE
  8
0
  6
CONTINUOUS
 62
256
 10
-95.865113463338901
 20
62.709131557536125
 11
-95.955422645443718
 21
63.412088523736486
  0
LINE
  8
0
  6
CONTINUOUS
 62
256
 10
-102.565113463339120
 20
59.716756003535693
 11
-100.565113463339120
 21
60.892541489158589
  0
LINE
  8
0
  6
CONTINUOUS
 62
256
 10
-100.565113463339120
 20
60.892541489158589
 11
-98.565113463339117
 21
62.545183128281906
  0
LINE
  8
0
  6
CONTINUOUS
 62
256
 10
-98.565113463339117
 20
59.716756003535693
 11
-100.565113463339120
 21
60.892541489158589
  0
LINE
  8
0
  6
CONTINUOUS
 62
256
 10
-100.565113463339120
 20
60.892541489158589
 11
-102.565113463339120
 21
62.545183128281906
  0
ARC
  8
0
  6
CONTINUOUS
 62
256
 10
-96.565113463339117
 20
52.696766151074712
 40
3.000000000000000
 50
90.000000000000000
 51
180.000000000000000
  0
LINE
  8
0
  6
CONTINUOUS
 62
256
 10
-99.565113463339117
 20
51.036462511883656
 11
-99.565113463339117
 21
52.696766151074712
  0
LINE
  8
0
  6
CONTINUOUS
 62
256
 10
-89.565113463339117
 20
169.036462511883660
 11
-89.565113463338889
 21
110.036462511883660
  0
LINE
  8
0
  6
CONTINUOUS
 62
256
 10
-95.955422645443718
 20
156.660836500030830
 11
-95.865113463338901
 21
157.363793466231190
  0
LINE
  8
0
  6
CONTINUOUS
 62
256
 10
-96.222879660535853
 20
155.984893775818730
 11
-95.955422645443718
 21
156.660836500030830
  0
LINE
  8
0
  6
CONTINUOUS
 62
256
 10
-96.657206285516935
 20
155.361941393413330
 11
-96.222879660535853
 21
155.984893775818730
  0
LINE
  8
0
  6
CONTINUOUS
 62
256
 10
-97.241711591762126
 20
154.815919063514740
 11
-96.657206285516935
 21
155.361941393413330
  0
LINE
  8
0
  6
CONTINUOUS
 62
256
 10
-97.953933368146764
 20
154.367810118048110
 11
-97.241711591762126
 21
154.815919063514740
  0
LINE
  8
0
  6
CONTINUOUS
 62
256
 10
-98.766501331222969
 20
154.034835132485370
 11
-97.953933368146764
 21
154.367810118048110
  0
LINE
  8
0
  6
CONTINUOUS
 62
256
 10
-99.648188949863084
 20
153.829790148787110
 11
-98.766501331222969
 21
154.034835132485370
  0
LINE
  8
0
  6
CONTINUOUS
 62
256
 10
-100.565113463338880
 20
153.760554930686340
 11
-99.648188949863084
 21
153.829790148787110
  0
LINE
  8
0
  6
CONTINUOUS
 62
256
 10
-101.482037976814690
 20
153.829790148787110
 11
-100.565113463338880
 21
153.760554930686340
  0
LINE
  8
0
  6
CONTINUOUS
 62
256
 10
-102.363725595454810
 20
154.034835132485370
 11
-101.482037976814690
 21
153.829790148787110
  0
LINE
  8
0
  6
CONTINUOUS
 62
256
 10
-103.176293558531010
 20
154.367810118048110
 11
-102.363725595454810
 21
154.034835132485370
  0
LINE
  8
0
  6
CONTINUOUS
 62
256
 10
-103.888515334915650
 20
154.815919063514740
 11
-103.176293558531010
 21
154.367810118048110
  0
LINE
  8
0
  6
CONTINUOUS
 62
256
 10
-104.473020641160840
 20
155.361941393413330
 11
-103.888515334915650
 21
154.815919063514740
  0
LINE
  8
0
  6
CONTINUOUS
 62
256
 10
-104.907347266141930
 20
155.984893775818730
 11
-104.473020641160840
 21
155.361941393413330
  0
LINE
  8
0
  6
CONTINUOUS
 62
256
 10
-105.174804281234060
 20
156.660836500030830
 11
-104.907347266141930
 21
155.984893775818730
  0
LINE
  8
0
  6
CONTINUOUS
 62
256
 10
-105.265113463338860
 20
157.363793466231190
 11
-105.174804281234060
 21
156.660836500030830
  0
LINE
  8
0
  6
CONTINUOUS
 62
256
 10
-105.174804281234060
 20
158.066750432431550
 11
-105.265113463338860
 21
157.363793466231190
  0
LINE
  8
0
  6
CONTINUOUS
 62
256
 10
-104.907347266141930
 20
158.742693156643640
 11
-105.174804281234060
 21
158.066750432431550
  0
LINE
  8
0
  6
CONTINUOUS
 62
256
 10
-104.473020641160840
 20
159.365645539049040
 11
-104.907347266141930
 21
158.742693156643640
  0
LINE
  8
0
  6
CONTINUOUS
 62
256
 10
-103.888515334915650
 20
159.911667868947630
 11
-104.473020641160840
 21
159.365645539049040
  0
LINE
  8
0
  6
CONTINUOUS
 62
256
 10
-103.176293558531010
 20
160.359776814414260
 11
-103.888515334915650
 21
159.911667868947630
  0
LINE
  8
0
  6
CONTINUOUS
 62
256
 10
-102.363725595454810
 20
160.692751799977000
 11
-103.176293558531010
 21
160.359776814414260
  0
LINE
  8
0
  6
CONTINUOUS
 62
256
 10
-101.482037976814690
 20
160.897796783675260
 11
-102.363725595454810
 21
160.692751799977000
  0
LINE
  8
0
  6
CONTINUOUS
 62
256
 10
-100.565113463338880
 20
160.967032001776030
 11
-101.482037976814690
 21
160.897796783675260
  0
LINE
  8
0
  6
CONTINUOUS
 62
256
 10
-99.648188949863084
 20
160.897796783675260
 11
-100.565113463338880
 21
160.967032001776030
  0
LINE
  8
0
  6
CONTINUOUS
 62
256
 10
-98.766501331222969
 20
160.692751799977000
 11
-99.648188949863084
 21
160.897796783675260
  0
LINE
  8
0
  6
CONTINUOUS
 62
256
 10
-97.953933368146764
 20
160.359776814414260
 11
-98.766501331222969
 21
160.692751799977000
  0
LINE
  8
0
  6
CONTINUOUS
 62
256
 10
-97.241711591762126
 20
159.911667868947630
 11
-97.953933368146764
 21
160.359776814414260
  0
LINE
  8
0
  6
CONTINUOUS
 62
256
 10
-96.657206285516935
 20
159.365645539049040
 11
-97.241711591762126
 21
159.911667868947630
  0
LINE
  8
0
  6
CONTINUOUS
 62
256
 10
-96.222879660535853
 20
158.742693156643640
 11
-96.657206285516935
 21
159.365645539049040
  0
LINE
  8
0
  6
CONTINUOUS
 62
256
 10
-95.955422645443718
 20
158.066750432431550
 11
-96.222879660535853
 21
158.742693156643640
  0
LINE
  8
0
  6
CONTINUOUS
 62
256
 10
-95.865113463338901
 20
157.363793466231190
 11
-95.955422645443718
 21
158.066750432431550
  0
LINE
  8
0
  6
CONTINUOUS
 62
256
 10
-102.565113463339120
 20
160.356169020231620
 11
-100.565113463339120
 21
159.180383534608840
  0
LINE
  8
0
  6
CONTINUOUS
 62
256
 10
-100.565113463339120
 20
159.180383534608840
 11
-98.565113463339117
 21
157.527741895485410
  0
LINE
  8
0
  6
CONTINUOUS
 62
256
 10
-98.565113463339117
 20
160.356169020231620
 11
-100.565113463339120
 21
159.180383534608840
  0
LINE
  8
0
  6
CONTINUOUS
 62
256
 10
-100.565113463339120
 20
159.180383534608840
 11
-102.565113463339120
 21
157.527741895485410
  0
LINE
  8
0
  6
CONTINUOUS
 62
256
 10
30.934886536682029
 20
163.536462511883660
 11
-89.565113463338889
 21
163.536462511883660
  0
LINE
  8
0
  6
CONTINUOUS
 62
256
 10
-89.565113463338889
 20
161.036462511883660
 11
48.434886536684644
 21
161.036462511883660
  0
LINE
  8
0
  6
CONTINUOUS
 62
256
 10
-89.565113463338889
 20
160.536462511883660
 11
48.434886536684644
 21
160.536462511883660
  0
LINE
  8
0
  6
CONTINUOUS
 62
256
 10
-89.565113463338889
 20
156.169545106766350
 11
48.434886536684644
 21
156.169545106766350
  0
LINE
  8
0
  6
CONTINUOUS
 62
256
 10
-89.565113463338889
 20
151.078376282223420
 11
48.434886536684644
 21
151.078376282223450
  0
LINE
  8
0
  6
CONTINUOUS
 62
256
 10
-89.565113463338889
 20
143.340063463392430
 11
48.434886536684644
 21
143.340063463392430
  0
LINE
  8
0
  6
CONTINUOUS
 62
256
 10
-89.565113463338889
 20
141.750853670653670
 11
48.434886536684644
 21
141.750853670653670
  0
LINE
  8
0
  6
CONTINUOUS
 62
256
 10
-89.565113463338889
 20
138.792858062520740
 11
48.434886536684644
 21
138.792858062520740
  0
LINE
  8
0
  6
CONTINUOUS
 62
256
 10
-89.565113463338889
 20
137.313834909043750
 11
48.434886536684644
 21
137.313834909043750
  0
LINE
  8
0
  6
CONTINUOUS
 62
256
 10
-89.565113463338889
 20
134.221103917378400
 11
48.434886536684644
 21
134.221103917378400
  0
LINE
  8
0
  6
CONTINUOUS
 62
256
 10
-89.565113463338889
 20
132.874702191879810
 11
48.434886536684644
 21
132.874702191879810
  0
LINE
  8
0
  6
CONTINUOUS
 62
256
 10
-89.565113463338889
 20
129.664497168521510
 11
48.434886536684644
 21
129.664497168521510
  0
LINE
  8
0
  6
CONTINUOUS
 62
256
 10
-89.565113463338889
 20
128.422577303633600
 11
48.434886536684644
 21
128.422577303633600
  0
LINE
  8
0
  6
CONTINUOUS
 62
256
 10
-89.565113463338889
 20
124.036462511883660
 11
48.434886536684644
 21
124.036462511883660
  0
LINE
  8
0
  6
CONTINUOUS
 62
256
 10
-89.565113463338662
 20
96.036462511883656
 11
48.434886536684644
 21
96.036462511883656
  0
LINE
  8
0
  6
CONTINUOUS
 62
256
 10
-89.565113463338662
 20
91.650347720133709
 11
48.434886536684644
 21
91.650347720133709
  0
LINE
  8
0
  6
CONTINUOUS
 62
256
 10
-89.565113463338662
 20
90.408427855245804
 11
48.434886536684644
 21
90.408427855245790
  0
LINE
  8
0
  6
CONTINUOUS
 62
256
 10
-89.565113463338662
 20
87.198222831887506
 11
48.434886536684644
 21
87.198222831887506
  0
LINE
  8
0
  6
CONTINUOUS
 62
256
 10
-89.565113463338662
 20
85.851821106388911
 11
48.434886536684644
 21
85.851821106388911
  0
LINE
  8
0
  6
CONTINUOUS
 62
256
 10
-89.565113463338662
 20
82.759090114723676
 11
48.434886536684644
 21
82.759090114723691
  0
LINE
  8
0
  6
CONTINUOUS
 62
256
 10
-89.565113463338662
 20
81.280066961246575
 11
48.434886536684644
 21
81.280066961246575
  0
LINE
  8
0
  6
CONTINUOUS
 62
256
 10
-89.565113463338662
 20
76.732861560374999
 11
48.434886536684644
 21
76.732861560374999
  0
LINE
  8
0
  6
CONTINUOUS
 62
256
 10
-89.565113463338662
 20
78.322071353113643
 11
48.434886536684644
 21
78.322071353113643
  0
LINE
  8
0
  6
CONTINUOUS
 62
256
 10
-89.565113463338662
 20
68.994548741543895
 11
48.434886536684644
 21
68.994548741543895
  0
LINE
  8
0
  6
CONTINUOUS
 62
256
 10
-89.565113463338662
 20
63.903379917000962
 11
48.434886536684644
 21
63.903379917001089
  0
LINE
  8
0
  6
CONTINUOUS
 62
256
 10
-89.565113463338662
 20
59.536462511883656
 11
48.434886536684644
 21
59.536462511883656
  0
LINE
  8
0
  6
CONTINUOUS
 62
256
 10
-89.565113463338662
 20
59.036462511883656
 11
48.434886536684644
 21
59.036462511883656
  0
LINE
  8
0
  6
CONTINUOUS
 62
256
 10
-22.565113463317743
 20
57.536462511883769
 11
-89.798582157736405
 21
57.536462511883769
  0
LINE
  8
0
  6
CONTINUOUS
 62
256
 10
-97.565113463317743
 20
52.536462511883656
 11
-97.565113463317743
 21
55.525193275828315
  0
LINE
  8
0
  6
CONTINUOUS
 62
256
 10
-99.565113463339117
 20
51.036462511883656
 11
-119.069958412431900
 21
51.036462511883656
  0
LINE
  8
0
  6
CONTINUOUS
 62
256
 10
-89.565113463339117
 20
169.036462511883660
 11
-119.069958412431900
 21
169.036462511883660
  0
ARC
  8
0
  6
CONTINUOUS
 62
256
 10
-119.069958412431900
 20
71.636462511883678
 40
20.599999999999891
 50
235.000000000000400
 51
270.000000000000000
  0
ARC
  8
0
  6
CONTINUOUS
 62
256
 10
-136.965113463339210
 20
62.192842378254340
 40
2.600000000000136
 50
180.000000000000000
 51
234.999999999997330
  0
LINE
  8
0
  6
CONTINUOUS
 62
256
 10
-130.885633001263270
 20
54.761930399530456
 11
-138.456412197852050
 21
60.063047063102999
  0
LINE
  8
0
  6
CONTINUOUS
 62
256
 10
-139.565113463339340
 20
62.192842378254340
 11
-139.565113463339340
 21
110.036462511883660
  0
ARC
  8
0
  6
CONTINUOUS
 62
256
 10
-119.069958412431900
 20
148.436462511883630
 40
20.600000000000023
 50
90.000000000000000
 51
124.999999999999630
  0
ARC
  8
0
  6
CONTINUOUS
 62
256
 10
-136.965113463339210
 20
157.880082645512970
 40
2.600000000000131
 50
125.000000000001180
 51
180.000000000000000
  0
LINE
  8
0
  6
CONTINUOUS
 62
256
 10
-130.885633001263270
 20
165.310994624236970
 11
-138.456412197852050
 21
160.009877960664310
  0
LINE
  8
0
  6
CONTINUOUS
 62
256
 10
-139.565113463339340
 20
157.880082645512970
 11
-139.565113463339120
 21
110.036462511883660
  0
LINE
  8
0
  6
DASHDOT
 62
256
 10
161.594564173469730
 20
110.036462511883660
 11
-160.399621090065920
 21
110.036462511883580
  0
LINE
  8
0
  6
DASHDOT
 62
256
 10
-85.065113463317743
 20
29.092305254207645
 11
-85.065113463317743
 21
50.640794234739303
  0
LINE
  8
0
  6
DASHDOT
 62
256
 10
-94.150802569901316
 20
38.036462511883769
 11
-73.664214336192003
 21
38.036462511883769
  0
LINE
  8
0
  6
DASHDOT
 62
256
 10
-35.065113463317743
 20
29.092305254207645
 11
-35.065113463317743
 21
51.071807386742591
  0
LINE
  8
0
  6
DASHDOT
 62
256
 10
-46.348642879044405
 20
38.036462511883769
 11
-24.581665470516100
 21
38.036462511883769
  0
LINE
  8
0
  6
DASHED
 62
256
 10
-78.065113463317743
 20
38.036462511883769
 11
-78.065113463317743
 21
52.536462511883769
  0
LINE
  8
0
  6
DASHED
 62
256
 10
-92.065113463317743
 20
38.036462511883769
 11
-92.065113463317743
 21
52.536462511883769
  0
ARC
  8
0
  6
DASHED
 62
256
 10
-85.065113463317743
 20
38.036462511883769
 40
7.000000000000000
 50
180.000000000000000
 51
0.000000000000000
  0
LINE
  8
0
  6
DASHED
 62
256
 10
-28.065113463317743
 20
38.036462511883769
 11
-28.065113463317743
 21
52.536462511883769
  0
LINE
  8
0
  6
DASHED
 62
256
 10
-42.065113463317743
 20
38.036462511883769
 11
-42.065113463317743
 21
52.536462511883769
  0
ARC
  8
0
  6
DASHED
 62
256
 10
-35.065113463317743
 20
38.036462511883769
 40
7.000000000000000
 50
180.000000000000000
 51
0.000000000000000
  0
CIRCLE
  8
0
  6
DASHED
 62
256
 10
-35.065113463317743
 20
38.036462511883769
 40
6.000000000000000
  0
LINE
  8
0
  6
CONTINUOUS
 62
256
 10
23.934886536684644
 20
180.658185851243620
 11
23.934886536684644
 21
163.536462511883660
  0
LINE
  8
0
  6
CONTINUOUS
 62
256
 10
23.934886536684644
 20
39.479735933315169
 11
23.934886536684644
 21
56.536462511883599
  0
LINE
  8
0
  6
DASHDOT
 62
256
 10
109.434886536684640
 20
182.111196826268500
 11
109.434886536684640
 21
161.823236795798950
  0
LINE
  8
0
  6
DASHDOT
 62
256
 10
109.434886536684640
 20
38.240657757980443
 11
109.434886536684640
 21
58.334837449756378
  0
LINE
  8
0
  6
DASHDOT
 62
256
 10
27.734885773745191
 20
172.536462511883660
 11
46.366864063471439
 21
172.536462511883660
  0
LINE
  8
0
  6
DASHDOT
 62
256
 10
36.434886536684644
 20
182.111421021285420
 11
36.434886536684644
 21
164.431297534787520
  0
LINE
  8
0
  6
DASHDOT
 62
256
 10
36.434886536684644
 20
38.251409779300957
 11
36.434886536684644
 21
55.794814457027314
  0
LINE
  8
0
  6
DASHDOT
 62
256
 10
27.825047481132060
 20
47.536462511883656
 11
45.453821524690284
 21
47.536462511883656
  0
LINE
  8
0
  6
DASHDOT
 62
256
 10
296.741695883760260
 20
-90.767344919779134
 11
258.962129749193990
 21
-90.767344919779134
  0
LINE
  8
0
  6
CONTINUOUS
 62
256
 10
30.934886536685070
 20
-136.900427514661770
 11
48.434886536684672
 21
-136.900427514661770
  0
LINE
  8
0
  6
CONTINUOUS
 62
256
 10
30.934886536685070
 20
-135.272000446883960
 11
48.434886536684672
 21
-135.272000446883960
  0
LINE
  8
0
  6
CONTINUOUS
 62
256
 10
30.934886536685042
 20
-131.809258690118720
 11
48.434886536684672
 21
-131.809258690118720
  0
LINE
  8
0
  6
CONTINUOUS
 62
256
 10
30.934886536685013
 20
-130.807780326303430
 11
48.434886536684672
 21
-130.807780326303430
  0
LINE
  8
0
  6
CONTINUOUS
 62
256
 10
30.934886536684957
 20
-124.070945871287730
 11
48.434886536684672
 21
-124.070945871287730
  0
LINE
  8
0
  6
CONTINUOUS
 62
256
 10
30.934886536684928
 20
-122.481736078549090
 11
48.434886536684672
 21
-122.481736078549090
  0
LINE
  8
0
  6
CONTINUOUS
 62
256
 10
30.934886536684900
 20
-119.523740470416140
 11
48.434886536684672
 21
-119.523740470416140
  0
LINE
  8
0
  6
CONTINUOUS
 62
256
 10
30.934886536684900
 20
-118.044717316939060
 11
48.434886536684672
 21
-118.044717316939060
  0
LINE
  8
0
  6
CONTINUOUS
 62
256
 10
30.934886536684871
 20
-114.951986325273820
 11
48.434886536684672
 21
-114.951986325273820
  0
LINE
  8
0
  6
CONTINUOUS
 62
256
 10
30.934886536684843
 20
-113.605584599775210
 11
48.434886536684672
 21
-113.605584599775210
  0
LINE
  8
0
  6
CONTINUOUS
 62
256
 10
30.934886536684814
 20
-110.767344919779060
 11
48.434886536684672
 21
-110.767344919779060
  0
LINE
  8
0
  6
CONTINUOUS
 62
256
 10
30.934886536684644
 20
-70.767344919779077
 11
48.434886536684672
 21
-70.767344919779077
  0
LINE
  8
0
  6
CONTINUOUS
 62
256
 10
30.934886536684644
 20
-67.929105239782928
 11
48.434886536684672
 21
-67.929105239782928
  0
LINE
  8
0
  6
CONTINUOUS
 62
256
 10
30.934886536684644
 20
-66.582703514284333
 11
48.434886536684672
 21
-66.582703514284333
  0
LINE
  8
0
  6
CONTINUOUS
 62
256
 10
30.934886536684644
 20
-63.489972522619098
 11
48.434886536684672
 21
-63.489972522619098
  0
LINE
  8
0
  6
CONTINUOUS
 62
256
 10
30.934886536684644
 20
-62.010949369141997
 11
48.434886536684672
 21
-62.010949369141997
  0
LINE
  8
0
  6
CONTINUOUS
 62
256
 10
30.934886536684644
 20
-59.052953761009064
 11
48.434886536684672
 21
-59.052953761009064
  0
LINE
  8
0
  6
CONTINUOUS
 62
256
 10
30.934886536684644
 20
-57.463743968270308
 11
48.434886536684672
 21
-57.463743968270308
  0
LINE
  8
0
  6
CONTINUOUS
 62
256
 10
30.934886536684644
 20
-50.726909513254611
 11
48.434886536684672
 21
-50.726909513254611
  0
LINE
  8
0
  6
CONTINUOUS
 62
256
 10
30.934886536684644
 20
-49.725431149439316
 11
48.434886536684672
 21
-49.725431149439316
  0
LINE
  8
0
  6
CONTINUOUS
 62
256
 10
30.934886536684644
 20
-46.262689392674190
 11
48.434886536684672
 21
-46.262689392674190
  0
LINE
  8
0
  6
CONTINUOUS
 62
256
 10
30.934886536684644
 20
-44.634262324896383
 11
48.434886536684672
 21
-44.634262324896383
  0
LINE
  8
0
  6
CONTINUOUS
 62
256
 10
30.934886536684644
 20
-40.267344919779077
 11
48.434886536684672
 21
-40.267344919779077
  0
LINE
  8
0
  6
CONTINUOUS
 62
256
 10
30.934886536684644
 20
-39.767344919778964
 11
48.434886536684672
 21
-39.767344919778964
  0
LINE
  8
0
  6
CONTINUOUS
 62
256
 10
53.434886536684644
 20
-82.917344919779055
 11
53.434886536684644
 21
-92.617344919779100
  0
ARC
  8
0
  6
CONTINUOUS
 62
256
 10
49.434886536684644
 20
-94.017344919779077
 40
1.000000000000000
 50
90.000000000000000
 51
180.000000000000000
  0
ARC
  8
0
  6
CONTINUOUS
 62
256
 10
53.034886536685008
 20
-92.617344919779100
 40
0.399999999999977
 50
270.000000000000000
 51
0.000000000000000
  0
LINE
  8
0
  6
CONTINUOUS
 62
256
 10
53.034886536685008
 20
-93.017344919779077
 11
49.434886536684644
 21
-93.017344919779077
  0
ARC
  8
0
  6
CONTINUOUS
 62
256
 10
49.434886536684644
 20
-81.517344919779134
 40
1.000000000000000
 50
180.000000000000000
 51
270.000000000000000
  0
ARC
  8
0
  6
CONTINUOUS
 62
256
 10
53.034886536685008
 20
-82.917344919779055
 40
0.399999999999636
 50
0.000000000000000
 51
90.000000000000000
  0
LINE
  8
0
  6
CONTINUOUS
 62
256
 10
53.034886536685008
 20
-82.517344919779077
 11
49.434886536684644
 21
-82.517344919779077
  0
INSERT
  8
0
  2
ZU_SYM_1
 10
53.434886536684644
 20
-87.767344919779077
  0
LINE
  8
0
  6
CONTINUOUS
 62
256
 10
328.613079067789440
 20
-62.491047203523657
 11
328.051770067234320
 21
-65.118429938053524
  0
LINE
  8
0
  6
CONTINUOUS
 62
256
 10
329.417841827455500
 20
-60.227735356786823
 11
328.613079067789440
 21
-62.491047203523657
  0
LINE
  8
0
  6
CONTINUOUS
 62
256
 10
330.435679537234650
 20
-58.413931649342217
 11
329.417841827455500
 21
-60.227735356786823
  0
LINE
  8
0
  6
CONTINUOUS
 62
256
 10
331.628170069605460
 20
-57.118104950712429
 11
330.435679537234650
 21
-58.413931649342217
  0
LINE
  8
0
  6
CONTINUOUS
 62
256
 10
332.950298366801460
 20
-56.389171132437554
 11
331.628170069605460
 21
-57.118104950712429
  0
LINE
  8
0
  6
CONTINUOUS
 62
256
 10
334.352155704134760
 20
-56.254646553806765
 11
332.950298366801460
 21
-56.389171132437554
  0
LINE
  8
0
  6
CONTINUOUS
 62
256
 10
335.780823683255330
 20
-56.719609352980235
 11
334.352155704134760
 21
-56.254646553806765
  0
LINE
  8
0
  6
CONTINUOUS
 62
256
 10
337.182371836907070
 20
-57.766507753490210
 11
335.780823683255330
 21
-56.719609352980235
  0
LINE
  8
0
  6
CONTINUOUS
 62
256
 10
338.503893438045510
 20
-59.355822622316005
 11
337.182371836907070
 21
-57.766507753490210
  0
LINE
  8
0
  6
CONTINUOUS
 62
256
 10
339.695502664016090
 20
-61.427559268776776
 11
338.503893438045510
 21
-59.355822622316005
  0
LINE
  8
0
  6
CONTINUOUS
 62
256
 10
340.712217725290090
 20
-63.903512170660029
 11
339.695502664016090
 21
-61.427559268776776
  0
LINE
  8
0
  6
CONTINUOUS
 62
256
 10
341.515658872952880
 20
-66.690217136947027
 11
340.712217725290090
 21
-63.903512170660029
  0
LINE
  8
0
  6
CONTINUOUS
 62
256
 10
342.075497187241870
 20
-69.682479466606182
 11
341.515658872952880
 21
-66.690217136947027
  0
LINE
  8
0
  6
CONTINUOUS
 62
256
 10
342.370599457138840
 20
-72.767344919779120
 11
342.075497187241870
 21
-69.682479466606182
  0
LINE
  8
0
  6
CONTINUOUS
 62
256
 10
97.844919806053682
 20
-77.530115756380198
 11
97.643837049076879
 21
-82.767344919779134
  0
LINE
  8
0
  6
CONTINUOUS
 62
256
 10
98.440440579402008
 20
-72.494150372658723
 11
97.844919806053682
 21
-77.530115756380198
  0
LINE
  8
0
  6
CONTINUOUS
 62
256
 10
99.407513839773969
 20
-67.852978094109218
 11
98.440440579402008
 21
-72.494150372658723
  0
LINE
  8
0
  6
CONTINUOUS
 62
256
 10
100.708975504114410
 20
-63.784956568596940
 11
99.407513839773969
 21
-67.852978094109218
  0
LINE
  8
0
  6
CONTINUOUS
 62
256
 10
102.294811130530800
 20
-60.446417581974551
 11
100.708975504114410
 21
-63.784956568596940
  0
LINE
  8
0
  6
CONTINUOUS
 62
256
 10
104.104077945246890
 20
-57.965659315223732
 11
102.294811130530800
 21
-60.446417581974551
  0
LINE
  8
0
  6
CONTINUOUS
 62
256
 10
106.067246839221610
 20
-56.438015917310445
 11
104.104077945246890
 21
-57.965659315223732
  0
LINE
  8
0
  6
CONTINUOUS
 62
256
 10
108.108874332817320
 20
-55.922193867304216
 11
106.067246839221610
 21
-56.438015917310445
  0
LINE
  8
0
  6
CONTINUOUS
 62
256
 10
110.150501826413030
 20
-56.438015917310445
 11
108.108874332817320
 21
-55.922193867304216
  0
LINE
  8
0
  6
CONTINUOUS
 62
256
 10
112.113670720387740
 20
-57.965659315223725
 11
110.150501826413030
 21
-56.438015917310445
  0
LINE
  8
0
  6
CONTINUOUS
 62
256
 10
113.922937535103810
 20
-60.446417581974544
 11
112.113670720387740
 21
-57.965659315223725
  0
LINE
  8
0
  6
CONTINUOUS
 62
256
 10
115.508773161520250
 20
-63.784956568596932
 11
113.922937535103810
 21
-60.446417581974544
  0
LINE
  8
0
  6
CONTINUOUS
 62
256
 10
116.810234825860680
 20
-67.852978094109218
 11
115.508773161520250
 21
-63.784956568596932
  0
LINE
  8
0
  6
CONTINUOUS
 62
256
 10
117.777308086232640
 20
-72.494150372658723
 11
116.810234825860680
 21
-67.852978094109218
  0
LINE
  8
0
  6
CONTINUOUS
 62
256
 10
118.372828859580960
 20
-77.530115756380198
 11
117.777308086232640
 21
-72.494150372658723
  0
LINE
  8
0
  6
CONTINUOUS
 62
256
 10
118.573911616557780
 20
-82.767344919779134
 11
118.372828859580960
 21
-77.530115756380198
  0
LINE
  8
0
  6
CONTINUOUS
 62
256
 10
-95.955422645440876
 20
-44.142970931631794
 11
-95.865113463336058
 21
-43.440013965431433
  0
LINE
  8
0
  6
CONTINUOUS
 62
256
 10
-96.222879660533010
 20
-44.818913655843886
 11
-95.955422645440876
 21
-44.142970931631794
  0
LINE
  8
0
  6
CONTINUOUS
 62
256
 10
-96.657206285514093
 20
-45.441866038249287
 11
-96.222879660533010
 21
-44.818913655843886
  0
LINE
  8
0
  6
CONTINUOUS
 62
256
 10
-97.241711591759284
 20
-45.987888368147864
 11
-96.657206285514093
 21
-45.441866038249287
  0
LINE
  8
0
  6
CONTINUOUS
 62
256
 10
-97.953933368143922
 20
-46.435997313614486
 11
-97.241711591759284
 21
-45.987888368147864
  0
LINE
  8
0
  6
CONTINUOUS
 62
256
 10
-98.766501331220127
 20
-46.768972299177243
 11
-97.953933368143922
 21
-46.435997313614486
  0
LINE
  8
0
  6
CONTINUOUS
 62
256
 10
-99.648188949860241
 20
-46.974017282875494
 11
-98.766501331220127
 21
-46.768972299177243
  0
LINE
  8
0
  6
CONTINUOUS
 62
256
 10
-100.565113463336050
 20
-47.043252500976266
 11
-99.648188949860241
 21
-46.974017282875494
  0
LINE
  8
0
  6
CONTINUOUS
 62
256
 10
-101.482037976811850
 20
-46.974017282875494
 11
-100.565113463336050
 21
-47.043252500976266
  0
LINE
  8
0
  6
CONTINUOUS
 62
256
 10
-102.363725595451950
 20
-46.768972299177243
 11
-101.482037976811850
 21
-46.974017282875494
  0
LINE
  8
0
  6
CONTINUOUS
 62
256
 10
-103.176293558528170
 20
-46.435997313614486
 11
-102.363725595451950
 21
-46.768972299177243
  0
LINE
  8
0
  6
CONTINUOUS
 62
256
 10
-103.888515334912810
 20
-45.987888368147864
 11
-103.176293558528170
 21
-46.435997313614486
  0
LINE
  8
0
  6
CONTINUOUS
 62
256
 10
-104.473020641158000
 20
-45.441866038249287
 11
-103.888515334912810
 21
-45.987888368147864
  0
LINE
  8
0
  6
CONTINUOUS
 62
256
 10
-104.907347266139080
 20
-44.818913655843886
 11
-104.473020641158000
 21
-45.441866038249287
  0
LINE
  8
0
  6
CONTINUOUS
 62
256
 10
-105.174804281231200
 20
-44.142970931631794
 11
-104.907347266139080
 21
-44.818913655843886
  0
LINE
  8
0
  6
CONTINUOUS
 62
256
 10
-105.265113463336040
 20
-43.440013965431433
 11
-105.174804281231200
 21
-44.142970931631794
  0
LINE
  8
0
  6
CONTINUOUS
 62
256
 10
-105.174804281231200
 20
-42.737056999231072
 11
-105.265113463336040
 21
-43.440013965431433
  0
LINE
  8
0
  6
CONTINUOUS
 62
256
 10
-104.907347266139080
 20
-42.061114275018980
 11
-105.174804281231200
 21
-42.737056999231072
  0
LINE
  8
0
  6
CONTINUOUS
 62
256
 10
-104.473020641158000
 20
-41.438161892613579
 11
-104.907347266139080
 21
-42.061114275018980
  0
LINE
  8
0
  6
CONTINUOUS
 62
256
 10
-103.888515334912810
 20
-40.892139562714995
 11
-104.473020641158000
 21
-41.438161892613579
  0
LINE
  8
0
  6
CONTINUOUS
 62
256
 10
-103.176293558528170
 20
-40.444030617248380
 11
-103.888515334912810
 21
-40.892139562714995
  0
LINE
  8
0
  6
CONTINUOUS
 62
256
 10
-102.363725595451950
 20
-40.111055631685623
 11
-103.176293558528170
 21
-40.444030617248380
  0
LINE
  8
0
  6
CONTINUOUS
 62
256
 10
-101.482037976811850
 20
-39.906010647987372
 11
-102.363725595451950
 21
-40.111055631685623
  0
LINE
  8
0
  6
CONTINUOUS
 62
256
 10
-100.565113463336050
 20
-39.836775429886600
 11
-101.482037976811850
 21
-39.906010647987372
  0
LINE
  8
0
  6
CONTINUOUS
 62
256
 10
-99.648188949860241
 20
-39.906010647987372
 11
-100.565113463336050
 21
-39.836775429886600
  0
LINE
  8
0
  6
CONTINUOUS
 62
256
 10
-98.766501331220127
 20
-40.111055631685623
 11
-99.648188949860241
 21
-39.906010647987372
  0
LINE
  8
0
  6
CONTINUOUS
 62
256
 10
-97.953933368143922
 20
-40.444030617248380
 11
-98.766501331220127
 21
-40.111055631685623
  0
LINE
  8
0
  6
CONTINUOUS
 62
256
 10
-97.241711591759284
 20
-40.892139562714995
 11
-97.953933368143922
 21
-40.444030617248380
  0
LINE
  8
0
  6
CONTINUOUS
 62
256
 10
-96.657206285514093
 20
-41.438161892613579
 11
-97.241711591759284
 21
-40.892139562714995
  0
LINE
  8
0
  6
CONTINUOUS
 62
256
 10
-96.222879660533010
 20
-42.061114275018980
 11
-96.657206285514093
 21
-41.438161892613579
  0
LINE
  8
0
  6
CONTINUOUS
 62
256
 10
-95.955422645440876
 20
-42.737056999231072
 11
-96.222879660533010
 21
-42.061114275018980
  0
LINE
  8
0
  6
CONTINUOUS
 62
256
 10
-95.865113463336058
 20
-43.440013965431433
 11
-95.955422645440876
 21
-42.737056999231072
  0
LINE
  8
0
  6
CONTINUOUS
 62
256
 10
-95.955422645440876
 20
-138.797632840326970
 11
-95.865113463336058
 21
-138.094675874126610
  0
LINE
  8
0
  6
CONTINUOUS
 62
256
 10
-96.222879660533010
 20
-139.473575564539060
 11
-95.955422645440876
 21
-138.797632840326970
  0
LINE
  8
0
  6
CONTINUOUS
 62
256
 10
-96.657206285514093
 20
-140.096527946944460
 11
-96.222879660533010
 21
-139.473575564539060
  0
LINE
  8
0
  6
CONTINUOUS
 62
256
 10
-97.241711591759284
 20
-140.642550276843050
 11
-96.657206285514093
 21
-140.096527946944460
  0
LINE
  8
0
  6
CONTINUOUS
 62
256
 10
-97.953933368143922
 20
-141.090659222309680
 11
-97.241711591759284
 21
-140.642550276843050
  0
LINE
  8
0
  6
CONTINUOUS
 62
256
 10
-98.766501331220127
 20
-141.423634207872420
 11
-97.953933368143922
 21
-141.090659222309680
  0
LINE
  8
0
  6
CONTINUOUS
 62
256
 10
-99.648188949860241
 20
-141.628679191570680
 11
-98.766501331220127
 21
-141.423634207872420
  0
LINE
  8
0
  6
CONTINUOUS
 62
256
 10
-100.565113463336050
 20
-141.697914409671450
 11
-99.648188949860241
 21
-141.628679191570680
  0
LINE
  8
0
  6
CONTINUOUS
 62
256
 10
-101.482037976811850
 20
-141.628679191570680
 11
-100.565113463336050
 21
-141.697914409671450
  0
LINE
  8
0
  6
CONTINUOUS
 62
256
 10
-102.363725595451950
 20
-141.423634207872420
 11
-101.482037976811850
 21
-141.628679191570680
  0
LINE
  8
0
  6
CONTINUOUS
 62
256
 10
-103.176293558528170
 20
-141.090659222309680
 11
-102.363725595451950
 21
-141.423634207872420
  0
LINE
  8
0
  6
CONTINUOUS
 62
256
 10
-103.888515334912810
 20
-140.642550276843050
 11
-103.176293558528170
 21
-141.090659222309680
  0
LINE
  8
0
  6
CONTINUOUS
 62
256
 10
-104.473020641158000
 20
-140.096527946944460
 11
-103.888515334912810
 21
-140.642550276843050
  0
LINE
  8
0
  6
CONTINUOUS
 62
256
 10
-104.907347266139080
 20
-139.473575564539060
 11
-104.473020641158000
 21
-140.096527946944460
  0
LINE
  8
0
  6
CONTINUOUS
 62
256
 10
-105.174804281231200
 20
-138.797632840326970
 11
-104.907347266139080
 21
-139.473575564539060
  0
LINE
  8
0
  6
CONTINUOUS
 62
256
 10
-105.265113463336040
 20
-138.094675874126610
 11
-105.174804281231200
 21
-138.797632840326970
  0
LINE
  8
0
  6
CONTINUOUS
 62
256
 10
-105.174804281231200
 20
-137.391718907926250
 11
-105.265113463336040
 21
-138.094675874126610
  0
LINE
  8
0
  6
CONTINUOUS
 62
256
 10
-104.907347266139080
 20
-136.715776183714150
 11
-105.174804281231200
 21
-137.391718907926250
  0
LINE
  8
0
  6
CONTINUOUS
 62
256
 10
-104.473020641158000
 20
-136.092823801308750
 11
-104.907347266139080
 21
-136.715776183714150
  0
LINE
  8
0
  6
CONTINUOUS
 62
256
 10
-103.888515334912810
 20
-135.546801471410160
 11
-104.473020641158000
 21
-136.092823801308750
  0
LINE
  8
0
  6
CONTINUOUS
 62
256
 10
-103.176293558528170
 20
-135.098692525943530
 11
-103.888515334912810
 21
-135.546801471410160
  0
LINE
  8
0
  6
CONTINUOUS
 62
256
 10
-102.363725595451950
 20
-134.765717540380790
 11
-103.176293558528170
 21
-135.098692525943530
  0
LINE
  8
0
  6
CONTINUOUS
 62
256
 10
-101.482037976811850
 20
-134.560672556682530
 11
-102.363725595451950
 21
-134.765717540380790
  0
LINE
  8
0
  6
CONTINUOUS
 62
256
 10
-100.565113463336050
 20
-134.491437338581760
 11
-101.482037976811850
 21
-134.560672556682530
  0
LINE
  8
0
  6
CONTINUOUS
 62
256
 10
-99.648188949860241
 20
-134.560672556682530
 11
-100.565113463336050
 21
-134.491437338581760
  0
LINE
  8
0
  6
CONTINUOUS
 62
256
 10
-98.766501331220127
 20
-134.765717540380790
 11
-99.648188949860241
 21
-134.560672556682530
  0
LINE
  8
0
  6
CONTINUOUS
 62
256
 10
-97.953933368143922
 20
-135.098692525943530
 11
-98.766501331220127
 21
-134.765717540380790
  0
LINE
  8
0
  6
CONTINUOUS
 62
256
 10
-97.241711591759284
 20
-135.546801471410160
 11
-97.953933368143922
 21
-135.098692525943530
  0
LINE
  8
0
  6
CONTINUOUS
 62
256
 10
-96.657206285514093
 20
-136.092823801308750
 11
-97.241711591759284
 21
-135.546801471410160
  0
LINE
  8
0
  6
CONTINUOUS
 62
256
 10
-96.222879660533010
 20
-136.715776183714150
 11
-96.657206285514093
 21
-136.092823801308750
  0
LINE
  8
0
  6
CONTINUOUS
 62
256
 10
-95.955422645440876
 20
-137.391718907926250
 11
-96.222879660533010
 21
-136.715776183714150
  0
LINE
  8
0
  6
CONTINUOUS
 62
256
 10
-95.865113463336058
 20
-138.094675874126610
 11
-95.955422645440876
 21
-137.391718907926250
  0
LINE
  8
0
  6
CONTINUOUS
 62
256
 10
213.275937257601210
 20
-69.682479466606182
 11
212.980834987704180
 21
-72.767344919779106
  0
LINE
  8
0
  6
CONTINUOUS
 62
256
 10
213.835775571890140
 20
-66.690217136947027
 11
213.275937257601210
 21
-69.682479466606182
  0
LINE
  8
0
  6
CONTINUOUS
 62
256
 10
214.639216719552960
 20
-63.903512170660022
 11
213.835775571890140
 21
-66.690217136947027
  0
LINE
  8
0
  6
CONTINUOUS
 62
256
 10
215.655931780826990
 20
-61.427559268776776
 11
214.639216719552960
 21
-63.903512170660022
  0
LINE
  8
0
  6
CONTINUOUS
 62
256
 10
216.847541006797630
 20
-59.355822622316005
 11
215.655931780826990
 21
-61.427559268776776
  0
LINE
  8
0
  6
CONTINUOUS
 62
256
 10
218.169062607936010
 20
-57.766507753490203
 11
216.847541006797630
 21
-59.355822622316005
  0
LINE
  8
0
  6
CONTINUOUS
 62
256
 10
219.570610761587740
 20
-56.719609352980235
 11
218.169062607936010
 21
-57.766507753490203
  0
LINE
  8
0
  6
CONTINUOUS
 62
256
 10
220.999278740708380
 20
-56.254646553806758
 11
219.570610761587740
 21
-56.719609352980235
  0
LINE
  8
0
  6
CONTINUOUS
 62
256
 10
222.401136078041620
 20
-56.389171132437546
 11
220.999278740708380
 21
-56.254646553806758
  0
LINE
  8
0
  6
CONTINUOUS
 62
256
 10
223.723264375237680
 20
-57.118104950712421
 11
222.401136078041620
 21
-56.389171132437546
  0
LINE
  8
0
  6
CONTINUOUS
 62
256
 10
224.915754907608520
 20
-58.413931649342224
 11
223.723264375237680
 21
-57.118104950712421
  0
LINE
  8
0
  6
CONTINUOUS
 62
256
 10
225.933592617387600
 20
-60.227735356786823
 11
224.915754907608520
 21
-58.413931649342224
  0
LINE
  8
0
  6
CONTINUOUS
 62
256
 10
226.738355377053690
 20
-62.491047203523657
 11
225.933592617387600
 21
-60.227735356786823
  0
LINE
  8
0
  6
CONTINUOUS
 62
256
 10
227.299664377608790
 20
-65.118429938053524
 11
226.738355377053690
 21
-62.491047203523657
  0
CIRCLE
  8
0
  6
CONTINUOUS
 62
256
 10
277.675717222421550
 20
-72.767344919779134
 40
2.458500000000015
  0
CIRCLE
  8
0
  6
CONTINUOUS
 62
256
 10
277.675717222421550
 20
-72.767344919779134
 40
3.000000000000000
  0
ARC
  8
0
  6
CONTINUOUS
 62
256
 10
277.675717222421550
 20
-72.767344919779134
 40
9.500000000000016
 50
198.434948822922880
 51
161.591512067614100
  0
ARC
  8
0
  6
CONTINUOUS
 62
256
 10
332.992439064528750
 20
-65.886407710632852
 40
5.000000000000124
 50
171.164647896417900
 51
179.999999885885160
  0
ARC
  8
0
  6
CONTINUOUS
 62
256
 10
329.992439040675440
 20
-135.767344919779130
 40
2.000000000000000
 50
180.000000000000000
 51
270.000000000000000
  0
ARC
  8
0
  6
CONTINUOUS
 62
256
 10
225.358995404167670
 20
-135.767344919779130
 40
2.000000000000000
 50
270.000000000000000
 51
0.000000000000000
  0
ARC
  8
0
  6
CONTINUOUS
 62
256
 10
277.675717222421550
 20
-425.267344919779130
 40
400.000000000000000
 50
90.000000000000000
 51
93.193847212620923
  0
ARC
  8
0
  6
CONTINUOUS
 62
256
 10
277.675717222421550
 20
-825.267344919779130
 40
799.999999999999890
 50
88.510141843146059
 51
90.000000000000000
  0
ARC
  8
0
  6
CONTINUOUS
 62
256
 10
242.175717222421550
 20
-146.767344919779130
 40
7.000000000000130
 50
314.415308597194040
 51
325.150095420954590
  0
ARC
  8
0
  6
CONTINUOUS
 62
256
 10
230.175717222421550
 20
-152.767344919779130
 40
1.000000000000000
 50
90.000000000000000
 51
180.000000000000000
  0
ARC
  8
0
  6
CONTINUOUS
 62
256
 10
325.175717222421550
 20
-152.767344919779130
 40
1.000000000000000
 50
0.000000000000000
 51
90.000000000000000
  0
ARC
  8
0
  6
CONTINUOUS
 62
256
 10
313.175717222421550
 20
-146.767344919779130
 40
6.999999999999825
 50
214.849904579047490
 51
225.584691402808570
  0
ARC
  8
0
  6
CONTINUOUS
 62
256
 10
328.521112415521660
 20
-135.767344919779130
 40
2.000000000000000
 50
180.000000000000000
 51
270.000000000000000
  0
ARC
  8
0
  6
CONTINUOUS
 62
256
 10
277.675717222421550
 20
-425.267344919779130
 40
379.345395193099990
 50
86.806152787379048
 51
90.000000000000000
  0
ARC
  8
0
  6
CONTINUOUS
 62
256
 10
258.175717222421550
 20
-75.810981406392784
 40
29.345395193099971
 50
93.193847212621137
 51
180.000000000000000
  0
ARC
  8
0
  6
CONTINUOUS
 62
256
 10
226.830322029321450
 20
-135.767344919779130
 40
2.000000000000000
 50
270.000000000000000
 51
0.000000000000000
  0
ARC
  8
0
  6
CONTINUOUS
 62
256
 10
297.175717222421550
 20
-75.810981406392784
 40
29.345395193100103
 50
0.000000000000000
 51
86.806152787378878
  0
ARC
  8
0
  6
CONTINUOUS
 62
256
 10
277.675717222421550
 20
-425.267344919779130
 40
379.345395193100100
 50
90.000000000000000
 51
93.193847212620952
  0
ARC
  8
0
  6
CONTINUOUS
 62
256
 10
344.488856734004000
 20
-135.767344919779130
 40
2.000000000000000
 50
180.000000000000000
 51
270.000000000000000
  0
ARC
  8
0
  6
CONTINUOUS
 62
256
 10
349.175717222421550
 20
-136.024704232659810
 40
2.000000000000000
 50
180.000000000000000
 51
250.528779365512210
  0
ARC
  8
0
  6
CONTINUOUS
 62
256
 10
206.175717222421550
 20
-136.024704232659810
 40
1.999999999999973
 50
289.471220634500180
 51
0.000000000000000
  0
ARC
  8
0
  6
CONTINUOUS
 62
256
 10
297.175717222421550
 20
-75.520887775765686
 40
50.000000000000000
 50
0.000000000000000
 51
88.510141843145860
  0
CIRCLE
  8
0
  6
CONTINUOUS
 62
256
 10
277.675717222421550
 20
-72.767344919779134
 40
22.500000000000000
  0
ARC
  8
0
  6
CONTINUOUS
 62
256
 10
207.675717222421550
 20
-140.267344919779130
 40
2.500000000000000
 50
90.000000000000000
 51
180.000000000000000
  0
ARC
  8
0
  6
CONTINUOUS
 62
256
 10
347.675717222421550
 20
-140.267344919779130
 40
2.500000000000000
 50
0.000000000000000
 51
90.000000000000000
  0
ARC
  8
0
  6
DASHED
 62
256
 10
313.175717222421550
 20
-146.767344919779130
 40
6.999999999999825
 50
214.849904579047490
 51
225.584691402808570
  0
ARC
  8
0
  6
DASHED
 62
256
 10
242.175717222421550
 20
-146.767344919779130
 40
7.000000000000130
 50
314.415308597194040
 51
325.150095420954590
  0
ARC
  8
0
  6
CONTINUOUS
 62
256
 10
210.862577710839100
 20
-135.767344919779130
 40
2.000000000000000
 50
270.000000000000000
 51
0.000000000000000
  0
CIRCLE
  8
0
  6
CONTINUOUS
 62
256
 10
277.675717222421550
 20
-72.767344919779134
 40
17.500244140625000
  0
ARC
  8
0
  6
CONTINUOUS
 62
256
 10
316.375717222421830
 20
-127.467344919779180
 40
5.000000000000000
 50
270.000000000000000
 51
0.000000000000000
  0
ARC
  8
0
  6
CONTINUOUS
 62
256
 10
277.675717222421550
 20
-72.767344919779134
 40
27.799999999999955
 50
270.000000000000000
 51
356.151753030608800
  0
ARC
  8
0
  6
CONTINUOUS
 62
256
 10
307.408527382243390
 20
-74.767344919779134
 40
2.000000000000000
 50
90.000000000000000
 51
176.151753030608890
  0
ARC
  8
0
  6
CONTINUOUS
 62
256
 10
318.875717222421830
 20
-75.267344919779134
 40
2.500000000000000
 50
0.000000000000000
 51
90.000000000000000
  0
ARC
  8
0
  6
CONTINUOUS
 62
256
 10
277.675717222421550
 20
-72.767344919779134
 40
27.800000000000036
 50
183.848246969391080
 51
270.000000000000000
  0
ARC
  8
0
  6
CONTINUOUS
 62
256
 10
247.942907062599720
 20
-74.767344919779134
 40
2.000000000000042
 50
3.848246969390999
 51
90.000000000000000
  0
ARC
  8
0
  6
CONTINUOUS
 62
256
 10
236.475717222421280
 20
-75.267344919779134
 40
2.500000000000000
 50
90.000000000000000
 51
180.000000000000000
  0
ARC
  8
0
  6
CONTINUOUS
 62
256
 10
238.975717222421280
 20
-127.467344919779180
 40
5.000000000000000
 50
180.000000000000000
 51
270.000000000000000
  0
ARC
  8
0
  6
CONTINUOUS
 62
256
 10
129.822948537981120
 20
-72.879543951816231
 40
2.888045108587907
 50
177.773528828001930
 51
270.000000000000000
  0
ARC
  8
0
  6
CONTINUOUS
 62
256
 10
124.334903429392850
 20
-82.517344919779191
 40
0.399999999999977
 50
90.000000000000000
 51
180.000000000000000
  0
ARC
  8
0
  6
CONTINUOUS
 62
256
 10
151.534903429392670
 20
-81.867344919779214
 40
0.399999999999977
 50
270.000000000000000
 51
0.000000000000000
  0
ARC
  8
0
  6
CONTINUOUS
 62
256
 10
120.573911616557780
 20
-135.914508973669740
 40
2.000000000000000
 50
180.000000000000000
 51
255.337981530188980
  0
ARC
  8
0
  6
CONTINUOUS
 62
256
 10
99.643837049076865
 20
-135.421830350511980
 40
2.000000000000000
 50
180.000000000000000
 51
268.999999999998240
  0
ARC
  8
0
  6
CONTINUOUS
 62
256
 10
117.934886536684640
 20
-46.684087838941196
 40
2.000000000000000
 50
0.000000000000000
 51
42.081511029705844
  0
ARC
  8
0
  6
CONTINUOUS
 62
256
 10
120.934886536684640
 20
-49.267344919779134
 40
1.000000000000000
 50
180.000000000000000
 51
270.000000000000000
  0
ARC
  8
0
  6
CONTINUOUS
 62
256
 10
120.934886536684640
 20
-51.267344919779134
 40
1.000000000000000
 50
0.000000000000000
 51
90.000000000000000
  0
ARC
  8
0
  6
CONTINUOUS
 62
256
 10
120.934886536684640
 20
-94.267344919779134
 40
1.000000000000000
 50
270.000000000000000
 51
0.000000000000000
  0
ARC
  8
0
  6
CONTINUOUS
 62
256
 10
120.934886536684640
 20
-96.267344919779134
 40
1.000000000000000
 50
90.000000000000000
 51
180.000000000000000
  0
ARC
  8
0
  6
CONTINUOUS
 62
256
 10
74.887742150447593
 20
-85.554942732942209
 40
60.000000000000156
 50
42.081511029704792
 51
88.999999999999957
  0
ARC
  8
0
  6
CONTINUOUS
 62
256
 10
74.887742150447593
 20
-85.554942732942209
 40
60.000000000000156
 50
42.081511029704792
 51
88.999999999999957
  0
ARC
  8
0
  6
CONTINUOUS
 62
256
 10
119.434886536684640
 20
-140.245278296107240
 40
2.500000000000000
 50
0.000000000000000
 51
89.000000000003439
  0
ARC
  8
0
  6
CONTINUOUS
 62
256
 10
120.934886536684640
 20
-137.083000635938900
 40
1.000000000000000
 50
180.000000000000000
 51
244.623066474839110
  0
ARC
  8
0
  6
CONTINUOUS
 62
256
 10
53.034886536684553
 20
-26.606209433511367
 40
0.400000000000091
 50
0.000000000000000
 51
90.000000000000000
  0
ARC
  8
0
  6
CONTINUOUS
 62
256
 10
49.434886536684644
 20
-27.206209433511503
 40
1.000000000000000
 50
90.000000000000000
 51
180.000000000000000
  0
ARC
  8
0
  6
CONTINUOUS
 62
256
 10
49.434886536684644
 20
-30.677409989135413
 40
1.000000000000000
 50
90.000000000000000
 51
180.000000000000000
  0
ARC
  8
0
  6
CONTINUOUS
 62
256
 10
53.034886536685008
 20
-29.277409989135435
 40
0.399999999999977
 50
270.000000000000000
 51
0.000000000000000
  0
ARC
  8
0
  6
CONTINUOUS
 62
256
 10
48.934886536684644
 20
-25.732434789922536
 40
0.500000000000000
 50
90.000000000000000
 51
180.000000000000000
  0
ARC
  8
0
  6
CONTINUOUS
 62
256
 10
58.934886536684644
 20
-107.145934968654050
 40
2.000000000000000
 50
0.000000000000000
 51
90.000000000000000
  0
ARC
  8
0
  6
CONTINUOUS
 62
256
 10
26.434886536684644
 20
-140.162707191221220
 40
2.499999999999949
 50
101.172051984157560
 51
180.000000000000000
  0
ARC
  8
0
  6
CONTINUOUS
 62
256
 10
48.394367605610569
 20
-134.076136027448570
 40
3.000000000000088
 50
271.614898485974210
 51
323.409675317167850
  0
ARC
  8
0
  6
CONTINUOUS
 62
256
 10
58.934886536684644
 20
-121.555908026043990
 40
2.000000000000039
 50
323.409675317168760
 51
0.000000000000000
  0
ARC
  8
0
  6
CONTINUOUS
 62
256
 10
-24.565113463315129
 20
-61.767344919779077
 40
1.000000000000000
 50
0.000000000000000
 51
90.000000000000000
  0
ARC
  8
0
  6
CONTINUOUS
 62
256
 10
-95.565113463315129
 20
-61.767344919779077
 40
1.000000000000000
 50
90.000000000000000
 51
180.000000000000000
  0
ARC
  8
0
  6
CONTINUOUS
 62
256
 10
-95.565113463315129
 20
-61.267344919779077
 40
2.000000000000000
 50
90.000000000000000
 51
180.000000000000000
  0
ARC
  8
0
  6
CONTINUOUS
 62
256
 10
-24.565113463315129
 20
-61.267344919779077
 40
2.000000000000000
 50
0.000000000000000
 51
90.000000000000000
  0
ARC
  8
0
  6
CONTINUOUS
 62
256
 10
-136.965113463336590
 20
-47.923724786149535
 40
2.600000000000131
 50
125.000000000001180
 51
180.000000000000000
  0
ARC
  8
0
  6
CONTINUOUS
 62
256
 10
-119.069958412429290
 20
-57.367344919778873
 40
20.600000000000023
 50
90.000000000000000
 51
124.999999999999630
  0
ARC
  8
0
  6
CONTINUOUS
 62
256
 10
-92.565113463336274
 20
-49.767344919779077
 40
3.000000000000000
 50
270.000000000000000
 51
0.000000000000000
  0
ARC
  8
0
  6
CONTINUOUS
 62
256
 10
-96.565113463336274
 20
-55.767344919779077
 40
3.000000000000000
 50
90.000000000000000
 51
180.000000000000000
  0
ARC
  8
0
  6
CONTINUOUS
 62
256
 10
-136.965113463336590
 20
-133.610965053408620
 40
2.599999999999909
 50
180.000000000000000
 51
234.999999999997500
  0
ARC
  8
0
  6
CONTINUOUS
 62
256
 10
-119.069958412429290
 20
-124.167344919779280
 40
20.599999999999891
 50
235.000000000000400
 51
270.000000000000000
  0
ARC
  8
0
  6
CONTINUOUS
 62
256
 10
-92.565113463336274
 20
-131.767344919779080
 40
3.000000000000000
 50
0.000000000000000
 51
90.000000000000000
  0
ARC
  8
0
  6
CONTINUOUS
 62
256
 10
-96.565113463336274
 20
-125.767344919779060
 40
3.000000000000000
 50
180.000000000000000
 51
270.000000000000000
  0
ARC
  8
0
  6
CONTINUOUS
 62
256
 10
-24.565113463315129
 20
-119.767344919779060
 40
1.000000000000000
 50
270.000000000000000
 51
0.000000000000000
  0
ARC
  8
0
  6
CONTINUOUS
 62
256
 10
-95.565113463315129
 20
-119.767344919779060
 40
1.000000000000000
 50
180.000000000000000
 51
270.000000000000000
  0
ARC
  8
0
  6
CONTINUOUS
 62
256
 10
-95.565113463315129
 20
-120.267344919779060
 40
2.000000000000000
 50
180.000000000000000
 51
270.000000000000000
  0
ARC
  8
0
  6
CONTINUOUS
 62
256
 10
-24.565113463315129
 20
-120.267344919779060
 40
2.000000000000000
 50
270.000000000000000
 51
0.000000000000000
  0
ARC
  8
0
  6
CONTINUOUS
 62
256
 10
222.358995380314350
 20
-65.886407710632852
 40
5.000000023853318
 50
0.000000114114841
 51
8.835352103582073
  0
ARC
  8
0
  6
CONTINUOUS
 62
256
 10
258.175717222421550
 20
-75.810981406392784
 40
49.999999999999936
 50
93.193847212620867
 51
180.000000000000000
  0
ARC
  8
0
  6
CONTINUOUS
 62
256
 10
490.675717222421550
 20
-72.767344919779134
 40
300.000000000000170
 50
175.138594604201960
 51
184.861405395798040
  0
ARC
  8
0
  6
CONTINUOUS
 62
256
 10
196.736948088439930
 20
-47.767344919779134
 40
5.000000000000000
 50
90.000000000000000
 51
175.138594604201420
  0
ARC
  8
0
  6
CONTINUOUS
 62
256
 10
196.736948088439930
 20
-97.767344919779134
 40
4.999999999999893
 50
184.861405395798610
 51
270.000000000000000
  0
ARC
  8
0
  6
CONTINUOUS
 62
256
 10
519.275717222421920
 20
-72.767344919779134
 40
300.600000000000020
 50
174.272323304163020
 51
174.390797174731550
  0
LINE
  8
0
  6
CONTINUOUS
 62
256
 10
271.675717222421550
 20
-75.767344919779134
 11
271.675717222421550
 21
-69.767344919779134
  0
LINE
  8
0
  6
CONTINUOUS
 62
256
 10
265.675717222421550
 20
-75.767344919779134
 11
265.675717222421550
 21
-69.767344919779134
  0
LINE
  8
0
  6
CONTINUOUS
 62
256
 10
271.675717222421550
 20
-69.767344919779134
 11
265.675717222421550
 21
-69.767344919779134
  0
LINE
  8
0
  6
CONTINUOUS
 62
256
 10
271.675717222421550
 20
-75.767344919779134
 11
265.675717222421550
 21
-75.767344919779134
  0
LINE
  8
0
  6
CONTINUOUS
 62
256
 10
327.992439040675440
 20
-65.886407700674454
 11
327.992439040675440
 21
-135.767344919779130
  0
LINE
  8
0
  6
CONTINUOUS
 62
256
 10
342.370599457138720
 20
-72.767344919779134
 11
342.488856734004000
 21
-75.810981406392784
  0
LINE
  8
0
  6
CONTINUOUS
 62
256
 10
247.074696707988100
 20
-151.767344919779130
 11
230.175717222421550
 21
-151.767344919779130
  0
LINE
  8
0
  6
CONTINUOUS
 62
256
 10
308.276737736855470
 20
-151.767344919779130
 11
325.175717222421550
 21
-151.767344919779130
  0
LINE
  8
0
  6
CONTINUOUS
 62
256
 10
326.521112415521660
 20
-135.767344919779130
 11
326.521112415521660
 21
-75.810981406392784
  0
LINE
  8
0
  6
CONTINUOUS
 62
256
 10
228.830322029321450
 20
-135.767344919779130
 11
228.830322029321450
 21
-75.810981406392784
  0
LINE
  8
0
  6
CONTINUOUS
 62
256
 10
347.175717222421550
 20
-136.024704232659810
 11
347.175717222421550
 21
-75.267344919779134
  0
LINE
  8
0
  6
CONTINUOUS
 62
256
 10
229.175717222421550
 20
-152.767344919779130
 11
205.175717222421550
 21
-152.767344919779130
  0
LINE
  8
0
  6
CONTINUOUS
 62
256
 10
326.175717222421550
 20
-152.767344919779130
 11
350.175717222421550
 21
-152.767344919779130
  0
LINE
  8
0
  6
CONTINUOUS
 62
256
 10
277.675717222421550
 20
-137.767344919779130
 11
347.675717222421550
 21
-137.767344919779130
  0
LINE
  8
0
  6
DASHDOT
 62
256
 10
215.175717222421550
 20
-157.064739252664820
 11
215.175717222421550
 21
-133.804104545448350
  0
LINE
  8
0
  6
DASHDOT
 62
256
 10
340.175717222421550
 20
-157.064739252664820
 11
340.175717222421550
 21
-133.804104545448350
  0
LINE
  8
0
  6
CONTINUOUS
 62
256
 10
205.175717222421550
 20
-152.767344919779130
 11
205.175717222421550
 21
-140.267344919779130
  0
LINE
  8
0
  6
CONTINUOUS
 62
256
 10
350.175717222421550
 20
-152.767344919779130
 11
350.175717222421550
 21
-140.267344919779130
  0
LINE
  8
0
  6
CONTINUOUS
 62
256
 10
277.675717222421550
 20
-150.767344919779130
 11
247.920279868959820
 21
-150.767344919779130
  0
LINE
  8
0
  6
CONTINUOUS
 62
256
 10
277.675717222421550
 20
-150.767344919779130
 11
307.431154575883740
 21
-150.767344919779130
  0
LINE
  8
0
  6
DASHDOT
 62
256
 10
277.675717222421550
 20
-159.832239203777140
 11
277.675717222421550
 21
-90.767344919779134
  0
LINE
  8
0
  6
DASHDOT
 62
256
 10
277.675717222421550
 20
-72.767344919779134
 11
277.675717222421550
 21
-14.537283293344899
  0
LINE
  8
0
  6
DASHDOT
 62
256
 10
277.675717222421550
 20
-90.767344919779134
 11
277.675717222421550
 21
-72.767344919779134
  0
LINE
  8
0
  6
CONTINUOUS
 62
256
 10
277.675717222421550
 20
-137.767344919779130
 11
207.675717222421550
 21
-137.767344919779130
  0
LINE
  8
0
  6
DASHED
 62
256
 10
308.276737736855470
 20
-151.767344919779130
 11
317.175717222421550
 21
-151.767344919779130
  0
LINE
  8
0
  6
DASHED
 62
256
 10
277.675717222421550
 20
-150.767344919779130
 11
307.431154575883740
 21
-150.767344919779130
  0
LINE
  8
0
  6
DASHED
 62
256
 10
277.675717222421550
 20
-150.767344919779130
 11
247.920279868959820
 21
-150.767344919779130
  0
LINE
  8
0
  6
DASHED
 62
256
 10
247.074696707988100
 20
-151.767344919779130
 11
238.175717222421550
 21
-151.767344919779130
  0
LINE
  8
0
  6
CONTINUOUS
 62
256
 10
342.488856734004000
 20
-75.810981406392784
 11
342.488856734004000
 21
-135.767344919779130
  0
LINE
  8
0
  6
CONTINUOUS
 62
256
 10
321.375717222421830
 20
-127.467344919779180
 11
321.375717222421830
 21
-75.267344919779134
  0
LINE
  8
0
  6
CONTINUOUS
 62
256
 10
277.675717222421550
 20
-132.467344919779180
 11
316.375717222421830
 21
-132.467344919779180
  0
LINE
  8
0
  6
CONTINUOUS
 62
256
 10
307.408527382243390
 20
-72.767344919779134
 11
318.875717222421830
 21
-72.767344919779134
  0
LINE
  8
0
  6
CONTINUOUS
 62
256
 10
247.942907062599720
 20
-72.767344919779134
 11
236.475717222421280
 21
-72.767344919779134
  0
LINE
  8
0
  6
CONTINUOUS
 62
256
 10
233.975717222421280
 20
-127.467344919779180
 11
233.975717222421280
 21
-75.267344919779134
  0
LINE
  8
0
  6
CONTINUOUS
 62
256
 10
277.675717222421550
 20
-132.467344919779180
 11
238.975717222421280
 21
-132.467344919779180
  0
LINE
  8
0
  6
CONTINUOUS
 62
256
 10
30.934886536684644
 20
-90.767344919779077
 11
30.934886536684644
 21
-38.267344919779077
  0
LINE
  8
0
  6
CONTINUOUS
 62
256
 10
129.822948537981120
 20
-75.767589060404134
 11
151.934903429392760
 21
-75.767589060404134
  0
LINE
  8
0
  6
DASHDOT
 62
256
 10
161.505945766035440
 20
-72.767344919779134
 11
85.722387763792540
 21
-72.767344919779134
  0
LINE
  8
0
  6
CONTINUOUS
 62
256
 10
151.934903429392760
 20
-72.767344919779134
 11
151.934903429392760
 21
-81.867344919779214
  0
LINE
  8
0
  6
CONTINUOUS
 62
256
 10
123.734903429392940
 20
-83.767344919779191
 11
121.934886536684640
 21
-83.767344919779191
  0
LINE
  8
0
  6
CONTINUOUS
 62
256
 10
123.734903429392940
 20
-61.695421399728559
 11
121.934886536684640
 21
-61.695421399728502
  0
LINE
  8
0
  6
CONTINUOUS
 62
256
 10
123.934903429392760
 20
-72.767344919779191
 11
123.934903429392760
 21
-83.567344919779146
  0
LINE
  8
0
  6
CONTINUOUS
 62
256
 10
126.494711050528150
 20
-82.267344919779191
 11
125.934903429392760
 21
-82.117344919779214
  0
LINE
  8
0
  6
CONTINUOUS
 62
256
 10
125.934903429392760
 20
-82.117344919779214
 11
124.334903429392850
 21
-82.117344919779214
  0
LINE
  8
0
  6
CONTINUOUS
 62
256
 10
123.734903429392940
 20
-83.767344919779191
 11
123.934903429392760
 21
-83.567344919779146
  0
LINE
  8
0
  6
CONTINUOUS
 62
256
 10
151.534903429392670
 20
-82.267344919779191
 11
126.494711050528150
 21
-82.267344919779191
  0
LINE
  8
0
  6
CONTINUOUS
 62
256
 10
123.934903429392760
 20
-72.695421399728559
 11
123.934903429392760
 21
-61.895421399728605
  0
LINE
  8
0
  6
CONTINUOUS
 62
256
 10
123.734903429392940
 20
-61.695421399728559
 11
123.934903429392760
 21
-61.895421399728605
  0
LINE
  8
0
  6
CONTINUOUS
 62
256
 10
118.573911616557780
 20
-82.767344633197013
 11
118.573911616557780
 21
-135.914508973669740
  0
LINE
  8
0
  6
CONTINUOUS
 62
256
 10
97.643837049076865
 20
-82.767344631740457
 11
97.643837049076865
 21
-135.421830350511980
  0
LINE
  8
0
  6
CONTINUOUS
 62
256
 10
25.934886536684644
 20
-152.767589060404130
 11
119.934886536684640
 21
-152.767589060404130
  0
LINE
  8
0
  6
DASHDOT
 62
256
 10
109.434886536684640
 20
-155.990038096048690
 11
109.434886536684640
 21
-135.427862568227170
  0
LINE
  8
0
  6
CONTINUOUS
 62
256
 10
119.934886536684640
 20
-72.767344919779134
 11
119.934886536684640
 21
-46.684087838941196
  0
LINE
  8
0
  6
CONTINUOUS
 62
256
 10
121.934886536684640
 20
-72.767344919779134
 11
121.934886536684640
 21
-51.267344919779134
  0
LINE
  8
0
  6
CONTINUOUS
 62
256
 10
121.934886536684640
 20
-72.767344919779134
 11
121.934886536684640
 21
-94.267344919779134
  0
LINE
  8
0
  6
CONTINUOUS
 62
256
 10
119.478517552777700
 20
-137.745659058216230
 11
60.934886536684644
 21
-136.723776177695530
  0
LINE
  8
0
  6
CONTINUOUS
 62
256
 10
119.934886536684640
 20
-72.767344919779134
 11
119.934886536684640
 21
-137.083000635938900
  0
LINE
  8
0
  6
CONTINUOUS
 62
256
 10
121.934886536684640
 20
-152.237589060404160
 11
121.934886536684640
 21
-140.245278296107240
  0
LINE
  8
0
  6
CONTINUOUS
 62
256
 10
119.934886536684640
 20
-136.860957615816010
 11
119.934886536684640
 21
-137.083000635938900
  0
LINE
  8
0
  6
CONTINUOUS
 62
256
 10
119.934886536684640
 20
-152.767589060404130
 11
119.934886536684640
 21
-152.237589060404160
  0
LINE
  8
0
  6
CONTINUOUS
 62
256
 10
121.934886536684640
 20
-152.237589060404160
 11
119.934886536684640
 21
-152.237589060404160
  0
LINE
  8
0
  6
CONTINUOUS
 62
256
 10
30.934886536685099
 20
-137.569559025897890
 11
30.934886536684644
 21
-90.767344919779077
  0
LINE
  8
0
  6
CONTINUOUS
 62
256
 10
48.434886536684644
 20
-92.017343966104761
 11
48.434886536684644
 21
-137.075862384339250
  0
LINE
  8
0
  6
CONTINUOUS
 62
256
 10
58.434886536684644
 20
-125.584598160099840
 11
58.434886536684644
 21
-90.767344919779077
  0
LINE
  8
0
  6
CONTINUOUS
 62
256
 10
48.434886536684644
 20
-83.517345873453394
 11
48.434886536684644
 21
-25.732434789922536
  0
LINE
  8
0
  6
CONTINUOUS
 62
256
 10
48.434886536684644
 20
-37.795998331533781
 11
30.934886536684644
 21
-38.254251958994473
  0
LINE
  8
0
  6
CONTINUOUS
 62
256
 10
53.434886536684644
 20
-26.606209433511367
 11
53.434886536684644
 21
-29.277409989135435
  0
LINE
  8
0
  6
CONTINUOUS
 62
256
 10
53.034886536685008
 20
-26.206209433511503
 11
49.434886536684644
 21
-26.206209433511503
  0
LINE
  8
0
  6
CONTINUOUS
 62
256
 10
53.034886536685008
 20
-29.677409989135413
 11
49.434886536684644
 21
-29.677409989135413
  0
LINE
  8
0
  6
CONTINUOUS
 62
256
 10
30.934886536684644
 20
-38.267344919779134
 11
30.934886536684644
 21
-90.767344919779077
  0
LINE
  8
0
  6
CONTINUOUS
 62
256
 10
58.434886536684644
 20
-90.767344919779077
 11
58.434886536684644
 21
-25.223707257458500
  0
LINE
  8
0
  6
CONTINUOUS
 62
256
 10
58.434886536684644
 20
-25.232434789922763
 11
48.934886536684644
 21
-25.232434789922536
  0
LINE
  8
0
  6
CONTINUOUS
 62
256
 10
75.934886536684644
 20
-25.564081023558742
 11
58.934886536684644
 21
-25.267344919779134
  0
LINE
  8
0
  6
CONTINUOUS
 62
256
 10
60.597688571132494
 20
-25.267344919779134
 11
58.934886536684644
 21
-25.267344919779134
  0
LINE
  8
0
  6
DASHDOT
 62
256
 10
36.434886536684644
 20
-155.990038096048690
 11
36.434886536684644
 21
-135.427862568227170
  0
LINE
  8
0
  6
CONTINUOUS
 62
256
 10
75.934886536684644
 20
-25.564081023558629
 11
58.934886536684644
 21
-25.267344919779134
  0
LINE
  8
0
  6
CONTINUOUS
 62
256
 10
60.934886536684189
 20
-136.723776177695530
 11
25.950496954127175
 21
-137.710082733154080
  0
LINE
  8
0
  6
CONTINUOUS
 62
256
 10
23.934886536684644
 20
-152.237589060404160
 11
23.934886536684644
 21
-140.162707191221220
  0
LINE
  8
0
  6
CONTINUOUS
 62
256
 10
60.540722828560320
 20
-122.748086621597280
 11
50.803122043424082
 21
-135.864403920778390
  0
LINE
  8
0
  6
CONTINUOUS
 62
256
 10
60.934886536684644
 20
-121.555908026043990
 11
60.934886536684644
 21
-107.145934968654050
  0
LINE
  8
0
  6
CONTINUOUS
 62
256
 10
58.934886536684644
 20
-124.911110019201600
 11
58.934886536684644
 21
-72.767344919779134
  0
LINE
  8
0
  6
CONTINUOUS
 62
256
 10
58.934886536684644
 20
-72.767344919779134
 11
58.934886536684644
 21
-25.267344919779134
  0
LINE
  8
0
  6
CONTINUOUS
 62
256
 10
25.934886536684644
 20
-152.767589060404130
 11
25.934886536684644
 21
-152.237589060404160
  0
LINE
  8
0
  6
CONTINUOUS
 62
256
 10
25.934886536684644
 20
-152.237589060404160
 11
23.934886536684644
 21
-152.237589060404160
  0
LINE
  8
0
  6
CONTINUOUS
 62
256
 10
-23.565113463315129
 20
-61.767344919779077
 11
-23.565113463315129
 21
-90.767344919779077
  0
LINE
  8
0
  6
CONTINUOUS
 62
256
 10
-96.565113463315129
 20
-90.767344919779077
 11
-96.565113463315129
 21
-61.767344919779077
  0
LINE
  8
0
  6
CONTINUOUS
 62
256
 10
-24.565113463315129
 20
-60.767344919779077
 11
-95.565113463315129
 21
-60.767344919779077
  0
LINE
  8
0
  6
CONTINUOUS
 62
256
 10
-22.565113463315129
 20
-62.010949369141997
 11
30.934886536684644
 21
-62.010949369141997
  0
LINE
  8
0
  6
CONTINUOUS
 62
256
 10
-22.565113463315129
 20
-63.489972522619098
 11
30.934886536684644
 21
-63.489972522619098
  0
LINE
  8
0
  6
CONTINUOUS
 62
256
 10
-22.565113463315129
 20
-66.582703514284333
 11
30.934886536684644
 21
-66.582703514284333
  0
LINE
  8
0
  6
CONTINUOUS
 62
256
 10
-22.565113463315129
 20
-67.929105239782928
 11
30.934886536684644
 21
-67.929105239782928
  0
LINE
  8
0
  6
CONTINUOUS
 62
256
 10
-22.565113463315129
 20
-70.767344919779077
 11
30.934886536684644
 21
-70.767344919779077
  0
LINE
  8
0
  6
CONTINUOUS
 62
256
 10
-89.722713809707557
 20
-50.726909513254611
 11
30.934886536684644
 21
-50.726909513254611
  0
LINE
  8
0
  6
CONTINUOUS
 62
256
 10
-89.565113463336274
 20
-46.262689392674190
 11
30.934886536684644
 21
-46.262689392674190
  0
LINE
  8
0
  6
CONTINUOUS
 62
256
 10
-99.565113463336274
 20
-67.929105239782928
 11
-97.565113463315129
 21
-67.929105239782928
  0
LINE
  8
0
  6
CONTINUOUS
 62
256
 10
-99.565113463336274
 20
-66.582703514284333
 11
-97.565113463315129
 21
-66.582703514284333
  0
LINE
  8
0
  6
CONTINUOUS
 62
256
 10
-99.565113463336274
 20
-63.489972522619098
 11
-97.565113463315129
 21
-63.489972522619098
  0
LINE
  8
0
  6
CONTINUOUS
 62
256
 10
-99.565113463336274
 20
-62.010949369141997
 11
-97.565113463315129
 21
-62.010949369141997
  0
LINE
  8
0
  6
CONTINUOUS
 62
256
 10
-99.565113463336274
 20
-59.052953761009064
 11
30.934886536684644
 21
-59.052953761009064
  0
LINE
  8
0
  6
CONTINUOUS
 62
256
 10
-99.565113463336274
 20
-57.463743968270308
 11
30.934886536684644
 21
-57.463743968270308
  0
LINE
  8
0
  6
CONTINUOUS
 62
256
 10
-99.565113463336274
 20
-70.767344919779077
 11
-97.565113463315129
 21
-70.767344919779077
  0
LINE
  8
0
  6
CONTINUOUS
 62
256
 10
-89.565113463336274
 20
-49.725431149439316
 11
30.934886536684644
 21
-49.725431149439316
  0
LINE
  8
0
  6
CONTINUOUS
 62
256
 10
-89.565113463336274
 20
-44.634262324896383
 11
30.934886536684644
 21
-44.634262324896383
  0
LINE
  8
0
  6
CONTINUOUS
 62
256
 10
-89.565113463336274
 20
-39.767344919778964
 11
30.934886536684644
 21
-39.767344919778964
  0
LINE
  8
0
  6
CONTINUOUS
 62
256
 10
-89.565113463336274
 20
-40.267344919779077
 11
30.934886536684644
 21
-40.267344919779077
  0
LINE
  8
0
  6
DASHDOT
 62
256
 10
70.929608179824754
 20
-90.767344919779077
 11
-158.133655333491330
 21
-90.767344919779077
  0
LINE
  8
0
  6
CONTINUOUS
 62
256
 10
-24.565113463315129
 20
-59.267344919779077
 11
-95.565113463315129
 21
-59.267344919779077
  0
LINE
  8
0
  6
CONTINUOUS
 62
256
 10
-22.565113463315129
 20
-90.767344919779077
 11
-22.565113463315129
 21
-61.267344919779077
  0
LINE
  8
0
  6
CONTINUOUS
 62
256
 10
-97.565113463315129
 20
-90.767344919779077
 11
-97.565113463315129
 21
-61.267344919779077
  0
LINE
  8
0
  6
CONTINUOUS
 62
256
 10
30.934886536684644
 20
-38.267344919779077
 11
-89.565113463336274
 21
-38.267344919779077
  0
LINE
  8
0
  6
CONTINUOUS
 62
256
 10
30.934886536684644
 20
-90.767344919779077
 11
30.934886536684644
 21
-38.267344919779077
  0
LINE
  8
0
  6
CONTINUOUS
 62
256
 10
-89.565113463336274
 20
-36.767344919778850
 11
-119.069958412429290
 21
-36.767344919778850
  0
LINE
  8
0
  6
CONTINUOUS
 62
256
 10
-130.885633001260660
 20
-40.492812807425537
 11
-138.456412197849430
 21
-45.793929470998080
  0
LINE
  8
0
  6
CONTINUOUS
 62
256
 10
-139.565113463336500
 20
-47.923724786149535
 11
-139.565113463336500
 21
-90.767344919779077
  0
LINE
  8
0
  6
CONTINUOUS
 62
256
 10
-100.565113463336500
 20
-41.623423897053897
 11
-102.565113463336270
 21
-43.276065536177327
  0
LINE
  8
0
  6
CONTINUOUS
 62
256
 10
-98.565113463336274
 20
-40.447638411431114
 11
-100.565113463336500
 21
-41.623423897053897
  0
LINE
  8
0
  6
CONTINUOUS
 62
256
 10
-100.565113463336500
 20
-41.623423897053897
 11
-98.565113463336274
 21
-43.276065536177327
  0
LINE
  8
0
  6
CONTINUOUS
 62
256
 10
-102.565113463336270
 20
-40.447638411431114
 11
-100.565113463336500
 21
-41.623423897053897
  0
LINE
  8
0
  6
CONTINUOUS
 62
256
 10
-89.565113463336274
 20
-36.767344919778850
 11
-89.565113463336274
 21
-49.767344919779077
  0
LINE
  8
0
  6
CONTINUOUS
 62
256
 10
-92.565113463336274
 20
-52.767344919779077
 11
-96.565113463336274
 21
-52.767344919779077
  0
LINE
  8
0
  6
CONTINUOUS
 62
256
 10
-99.565113463336274
 20
-90.767344919779077
 11
-99.565113463336274
 21
-55.767344919779077
  0
LINE
  8
0
  6
CONTINUOUS
 62
256
 10
-23.565113463315129
 20
-119.767344919779060
 11
-23.565113463315129
 21
-90.767344919779077
  0
LINE
  8
0
  6
CONTINUOUS
 62
256
 10
-96.565113463315129
 20
-90.767344919779077
 11
-96.565113463315129
 21
-119.767344919779060
  0
LINE
  8
0
  6
CONTINUOUS
 62
256
 10
-130.885633001260660
 20
-141.041877032132500
 11
-138.456412197849430
 21
-135.740760368559960
  0
LINE
  8
0
  6
CONTINUOUS
 62
256
 10
-139.565113463336500
 20
-133.610965053408620
 11
-139.565113463336500
 21
-90.767344919779077
  0
LINE
  8
0
  6
CONTINUOUS
 62
256
 10
-89.565113463336274
 20
-144.767344919779300
 11
-119.069958412429290
 21
-144.767344919779300
  0
LINE
  8
0
  6
CONTINUOUS
 62
256
 10
-99.565113463336274
 20
-110.767344919779060
 11
-97.565113463315129
 21
-110.767344919779060
  0
LINE
  8
0
  6
CONTINUOUS
 62
256
 10
-99.565113463336274
 20
-113.605584599775210
 11
-97.565113463315129
 21
-113.605584599775210
  0
LINE
  8
0
  6
CONTINUOUS
 62
256
 10
-99.565113463336274
 20
-114.951986325273820
 11
-97.565113463315129
 21
-114.951986325273820
  0
LINE
  8
0
  6
CONTINUOUS
 62
256
 10
-99.565113463336274
 20
-118.044717316939060
 11
-97.565113463315129
 21
-118.044717316939060
  0
LINE
  8
0
  6
CONTINUOUS
 62
256
 10
-99.565113463336274
 20
-119.523740470416140
 11
-97.565113463315129
 21
-119.523740470416140
  0
LINE
  8
0
  6
CONTINUOUS
 62
256
 10
-99.565113463336274
 20
-122.481736078549090
 11
30.934886536684928
 21
-122.481736078549090
  0
LINE
  8
0
  6
CONTINUOUS
 62
256
 10
-99.565113463336274
 20
-124.070945871287730
 11
30.934886536684957
 21
-124.070945871287730
  0
LINE
  8
0
  6
CONTINUOUS
 62
256
 10
-89.722713809707557
 20
-130.807780326303430
 11
30.934886536685013
 21
-130.807780326303430
  0
LINE
  8
0
  6
CONTINUOUS
 62
256
 10
-89.565113463336274
 20
-131.809258690118720
 11
30.934886536685042
 21
-131.809258690118720
  0
LINE
  8
0
  6
CONTINUOUS
 62
256
 10
-89.565113463336274
 20
-135.272000446883960
 11
30.934886536685070
 21
-135.272000446883960
  0
LINE
  8
0
  6
CONTINUOUS
 62
256
 10
-89.565113463336274
 20
-136.900427514661770
 11
30.934886536685070
 21
-136.900427514661770
  0
LINE
  8
0
  6
CONTINUOUS
 62
256
 10
-100.565113463336500
 20
-139.911265942504140
 11
-102.565113463336270
 21
-138.258624303380830
  0
LINE
  8
0
  6
CONTINUOUS
 62
256
 10
-98.565113463336274
 20
-141.087051428127040
 11
-100.565113463336500
 21
-139.911265942504140
  0
LINE
  8
0
  6
CONTINUOUS
 62
256
 10
-100.565113463336500
 20
-139.911265942504140
 11
-98.565113463336274
 21
-138.258624303380830
  0
LINE
  8
0
  6
CONTINUOUS
 62
256
 10
-102.565113463336270
 20
-141.087051428127040
 11
-100.565113463336500
 21
-139.911265942504140
  0
LINE
  8
0
  6
CONTINUOUS
 62
256
 10
-89.565113463336274
 20
-144.767344919779300
 11
-89.565113463336274
 21
-131.767344919779080
  0
LINE
  8
0
  6
CONTINUOUS
 62
256
 10
-92.565113463336274
 20
-128.767344919779080
 11
-96.565113463336274
 21
-128.767344919779080
  0
LINE
  8
0
  6
CONTINUOUS
 62
256
 10
-99.565113463336274
 20
-90.767344919779077
 11
-99.565113463336274
 21
-125.767344919779060
  0
LINE
  8
0
  6
CONTINUOUS
 62
256
 10
-24.565113463315129
 20
-120.767344919779060
 11
-95.565113463315129
 21
-120.767344919779060
  0
LINE
  8
0
  6
CONTINUOUS
 62
256
 10
-22.565113463315129
 20
-119.523740470416140
 11
30.934886536684900
 21
-119.523740470416140
  0
LINE
  8
0
  6
CONTINUOUS
 62
256
 10
-22.565113463315129
 20
-118.044717316939060
 11
30.934886536684900
 21
-118.044717316939060
  0
LINE
  8
0
  6
CONTINUOUS
 62
256
 10
-22.565113463315129
 20
-114.951986325273820
 11
30.934886536684871
 21
-114.951986325273820
  0
LINE
  8
0
  6
CONTINUOUS
 62
256
 10
-22.565113463315129
 20
-113.605584599775210
 11
30.934886536684843
 21
-113.605584599775210
  0
LINE
  8
0
  6
CONTINUOUS
 62
256
 10
-22.565113463315129
 20
-110.767344919779060
 11
30.934886536684814
 21
-110.767344919779060
  0
LINE
  8
0
  6
CONTINUOUS
 62
256
 10
-24.565113463315129
 20
-122.267344919779060
 11
-95.565113463315129
 21
-122.267344919779060
  0
LINE
  8
0
  6
CONTINUOUS
 62
256
 10
-22.565113463315129
 20
-90.767344919779077
 11
-22.565113463315129
 21
-120.267344919779060
  0
LINE
  8
0
  6
CONTINUOUS
 62
256
 10
-97.565113463315129
 20
-90.767344919779077
 11
-97.565113463315129
 21
-120.267344919779060
  0
LINE
  8
0
  6
CONTINUOUS
 62
256
 10
-89.565113463336274
 20
-141.267344919779080
 11
23.934886536684644
 21
-141.267344919779080
  0
LINE
  8
0
  6
CONTINUOUS
 62
256
 10
-89.565113463336274
 20
-141.767344919779080
 11
23.934886536684644
 21
-141.767344919779080
  0
LINE
  8
0
  6
CONTINUOUS
 62
256
 10
23.934886536684644
 20
-143.267344919779080
 11
-89.565113463336274
 21
-143.267344919779080
  0
LINE
  8
0
  6
CONTINUOUS
 62
256
 10
212.980834987704380
 20
-72.767344919779134
 11
212.862577710839100
 21
-75.810981406392784
  0
LINE
  8
0
  6
CONTINUOUS
 62
256
 10
227.358995404167670
 20
-65.886407700674454
 11
227.358995404167670
 21
-135.767344919779130
  0
LINE
  8
0
  6
CONTINUOUS
 62
256
 10
208.175717222421550
 20
-136.024704232659810
 11
208.175717222421550
 21
-75.810981406392784
  0
LINE
  8
0
  6
DASHDOT
 62
256
 10
177.882671590678460
 20
-72.767344919779134
 11
360.939020151503880
 21
-72.767344919779134
  0
LINE
  8
0
  6
CONTINUOUS
 62
256
 10
212.862577710839100
 20
-75.810981406392784
 11
212.862577710839100
 21
-135.767344919779130
  0
LINE
  8
0
  6
CONTINUOUS
 62
256
 10
190.175717222421550
 20
-75.267344919779134
 11
190.175717222421550
 21
-70.267344919779134
  0
LINE
  8
0
  6
CONTINUOUS
 62
256
 10
190.686134069939270
 20
-75.267344919779134
 11
190.175717222421550
 21
-75.267344919779134
  0
LINE
  8
0
  6
CONTINUOUS
 62
256
 10
190.686134069939270
 20
-70.267344919779134
 11
190.175717222421550
 21
-70.267344919779134
  0
LINE
  8
0
  6
CONTINUOUS
 62
256
 10
220.175717222421550
 20
-42.767344919779134
 11
196.736948088439930
 21
-42.767344919779134
  0
LINE
  8
0
  6
CONTINUOUS
 62
256
 10
208.175717222421550
 20
-102.767344919779130
 11
196.736948088439930
 21
-102.767344919779130
  0
LINE
  8
0
  6
CONTINUOUS
 62
256
 10
-221.534360860700220
 20
-46.997435029462352
 11
-221.047557468994630
 21
-46.510631637756731
  0
LINE
  8
0
  6
CONTINUOUS
 62
256
 10
-228.181164334113960
 20
-40.350631556048640
 11
-227.694360942408340
 21
-39.863828164343019
  0
LINE
  8
0
  6
CONTINUOUS
 62
256
 10
-221.221222251731460
 20
-46.744888078611986
 11
-227.898321554204360
 21
-40.067788776139061
  0
LINE
  8
0
  6
CONTINUOUS
 62
256
 10
-221.534360860700220
 20
-46.997435029462352
 11
-228.181164334113960
 21
-40.350631556048640
  0
POINT
  8
0
  6
CONTINUOUS
 62
256
 10
-224.857762597407090
 20
-43.674033292755496
  0
ARC
  8
0
  6
CONTINUOUS
 62
256
 10
-227.120504162334130
 20
-45.936774857682529
 40
6.099999427795398
 50
354.601910595264830
 51
95.398072101890989
  0
LINE
  8
0
  6
CONTINUOUS
 62
256
 10
-322.367787588161830
 20
-46.997435029462352
 11
-322.854590979867450
 21
-46.510631637756731
  0
LINE
  8
0
  6
CONTINUOUS
 62
256
 10
-315.720984114748150
 20
-40.350631556048640
 11
-316.207787506453770
 21
-39.863828164343019
  0
LINE
  8
0
  6
CONTINUOUS
 62
256
 10
-322.680926197130650
 20
-46.744888078611986
 11
-316.003826894657720
 21
-40.067788776139061
  0
LINE
  8
0
  6
CONTINUOUS
 62
256
 10
-322.367787588161830
 20
-46.997435029462352
 11
-315.720984114748150
 21
-40.350631556048640
  0
POINT
  8
0
  6
CONTINUOUS
 62
256
 10
-319.044385851454990
 20
-43.674033292755496
  0
ARC
  8
0
  6
CONTINUOUS
 62
256
 10
-316.781644286527980
 20
-45.936774857682529
 40
6.099999427795406
 50
84.601927898108485
 51
185.398089404735230
  0
LINE
  8
0
  6
CONTINUOUS
 62
256
 10
-322.367787588161830
 20
-134.537254810096700
 11
-322.854590979867450
 21
-135.024058201802320
  0
LINE
  8
0
  6
CONTINUOUS
 62
256
 10
-315.720984114748150
 20
-141.184058283510440
 11
-316.207787506453770
 21
-141.670861675216030
  0
LINE
  8
0
  6
CONTINUOUS
 62
256
 10
-322.680926197130650
 20
-134.789801760947090
 11
-316.003826894657720
 21
-141.466901063420010
  0
LINE
  8
0
  6
CONTINUOUS
 62
256
 10
-322.367787588161830
 20
-134.537254810096700
 11
-315.720984114748150
 21
-141.184058283510440
  0
POINT
  8
0
  6
CONTINUOUS
 62
256
 10
-319.044385851454990
 20
-137.860656546803570
  0
ARC
  8
0
  6
CONTINUOUS
 62
256
 10
-316.781644286527980
 20
-135.597914981876530
 40
6.099999427795398
 50
174.601910595264910
 51
275.398072101891500
  0
LINE
  8
0
  6
CONTINUOUS
 62
256
 10
-221.534360860700220
 20
-134.537254810096700
 11
-221.047557468994630
 21
-135.024058201802320
  0
LINE
  8
0
  6
CONTINUOUS
 62
256
 10
-228.181164334113960
 20
-141.184058283510440
 11
-227.694360942408340
 21
-141.670861675216030
  0
LINE
  8
0
  6
CONTINUOUS
 62
256
 10
-221.221222251731460
 20
-134.789801760947090
 11
-227.898321554204360
 21
-141.466901063420010
  0
LINE
  8
0
  6
CONTINUOUS
 62
256
 10
-221.534360860700220
 20
-134.537254810096700
 11
-228.181164334113960
 21
-141.184058283510440
  0
POINT
  8
0
  6
CONTINUOUS
 62
256
 10
-224.857762597407090
 20
-137.860656546803570
  0
ARC
  8
0
  6
CONTINUOUS
 62
256
 10
-227.120504162334130
 20
-135.597914981876530
 40
6.099999427795400
 50
264.601927898109010
 51
5.398089404735109
  0
ENDSEC
  0
EOF
