  0
SECTION
  2
HEADER
  9
$FILLMODE
 70
1
  9
$TEXTSTYLE
  7
STANDARD1
  9
$ACADVER
  1
AC1009
  9
$DIMASZ
 40
1.931851648807023
  9
$DIMEXE
 40
2.000000000000000
  9
$DIMEXO
 40
1.000000000000000
  9
$DIMLFAC
 40
1.000000000000000
  9
$DIMSCALE
 40
1.000000000000000
  9
$DIMTAD
 70
1
  9
$DIMTFAC
 40
0.714285731315613
  9
$DIMTXT
 40
3.200000047683716
  9
$LUPREC
 70
3
  9
$TEXTSIZE
 40
3.299999952316284
  9
$REGENMODE
 70
1
  0
ENDSEC
  0
SECTION
  2
TABLES
  0
TABLE
  2
LTYPE
 70
4
  0
LTYPE
  2
CONTINUOUS
 70
64
  3
Solid line
 72
65
 73
0
 40
0.0
  0
LTYPE
  2
DASHED
 70
64
  3
-- -- -- -- -- -- -- -- -- -- -- -- -- -- --
 72
65
 73
2
 40
0.75
 49
0.5
 49
-0.25
  0
LTYPE
  2
DASHDOT
 70
64
  3
__ . __ . __ . __ . __ . __ . __ . __ . __ . __
 72
65
 73
4
 40
1.0
 49
0.5
 49
-0.25
 49
0.0
 49
-0.25
  0
LTYPE
  2
DIVIDE
 70
64
  3
__ . . __ . . __ . . __ . . __ . . __ . . __
 72
65
 73
6
 40
1.25
 49
0.5
 49
-0.25
 49
0.0
 49
-0.25
 49
0.0
 49
-0.25
  0
ENDTAB
  0
TABLE
  2
LAYER
 70
1
  0
LAYER
  2
0
 70
64
 62
2
  6
CONTINUOUS
  0
ENDTAB
  0
TABLE
  2
STYLE
 70
4
  0
STYLE
  2
STANDARD1
 70
64
 40
0.0
 41
1.0
 50
0.0
 71
0
 42
3.299999952316284
  3
MONOTXT
  4
BIGFONT
  0
STYLE
  2
STANDARD2
 70
68
 40
0.0
 41
1.0
 50
0.0
 71
0
 42
3.299999952316284
  3
MONOTXT
  4
BIGFONT
  0
STYLE
  2
STANDARD3
 70
64
 40
0.0
 41
1.0
 50
0.0
 71
0
 42
3.299999952316284
  3
MONOTXT
  4

  0
STYLE
  2
STANDARD4
 70
68
 40
0.0
 41
1.0
 50
0.0
 71
0
 42
3.299999952316284
  3
MONOTXT
  4

  0
ENDTAB
  0
TABLE
  2
VIEW
 70
0
  0
ENDTAB
  0
ENDSEC
  0
SECTION
  2
BLOCKS
  0
BLOCK
  8
0
  2
SYM1
 70
64
 10
0.000000000000000
 20
0.000000000000000
  0
POINT
  8
0
  6
CONTINUOUS
 62
3
 10
0.000000000000000
 20
0.000000000000000
  0
LINE
  8
0
  6
CONTINUOUS
 62
3
 10
-0.000017659877873
 20
-4.599998474126673
 11
-3.000017102555891
 21
-4.599986076361044
  0
LINE
  8
0
  6
CONTINUOUS
 62
3
 10
-2.999996095884057
 20
-4.599969847145871
 11
-3.499991138206155
 21
-3.899966512616629
  0
LINE
  8
0
  6
CONTINUOUS
 62
3
 10
-3.500011920918244
 20
-3.899979774771439
 11
-3.499980449679529
 21
3.900009925545944
  0
LINE
  8
0
  6
CONTINUOUS
 62
3
 10
-3.499965125831864
 20
3.900000017678906
 11
-2.999963510759926
 21
4.599997551336457
  0
LINE
  8
0
  6
CONTINUOUS
 62
3
 10
-2.999979146307184
 20
4.600011825551216
 11
0.000019104623546
 21
4.600001335133485
  0
LINE
  8
0
  6
CONTINUOUS
 62
3
 10
0.000018950048186
 20
4.600000381469727
 11
-0.000018950048186
 21
-4.600000381469727
  0
LINE
  8
0
  6
CONTINUOUS
 62
3
 10
-3.000007597599688
 20
-2.299985885626180
 11
-0.000008155921205
 21
-2.299998283391806
  0
LINE
  8
0
  6
CONTINUOUS
 62
3
 10
-2.999989096318101
 20
2.300010681148706
 11
0.000009475023974
 21
2.300000190729854
  0
ARC
  8
0
  6
CONTINUOUS
 62
3
 10
-1.930013656616211
 20
-3.449991226196289
 40
1.569999694824219
 50
132.899744492600430
 51
179.999745461767870
  0
ARC
  8
0
  6
CONTINUOUS
 62
3
 10
-1.929986000061035
 20
3.450007438659668
 40
1.569999694824219
 50
179.999745461767870
 51
227.099746430935310
  0
ARC
  8
0
  6
CONTINUOUS
 62
3
 10
2.040000915527344
 20
-0.000008403939319
 40
5.539999008178711
 50
155.470186567177590
 51
204.529249714844780
  0
ENDBLK
  8
0
  0
BLOCK
  8
0
  2
SYM2
 70
64
 10
0.000000000000000
 20
0.000000000000000
  0
POINT
  8
0
  6
CONTINUOUS
 62
3
 10
0.000000000000000
 20
0.000000000000000
  0
LINE
  8
0
  6
CONTINUOUS
 62
3
 10
-0.000017659877873
 20
-4.599998474126673
 11
-3.000017102555891
 21
-4.599986076361044
  0
LINE
  8
0
  6
CONTINUOUS
 62
3
 10
-2.999996095884057
 20
-4.599969847145871
 11
-3.499991138206155
 21
-3.899966512616629
  0
LINE
  8
0
  6
CONTINUOUS
 62
3
 10
-3.500011920918244
 20
-3.899979774771439
 11
-3.499980449679529
 21
3.900009925545944
  0
LINE
  8
0
  6
CONTINUOUS
 62
3
 10
-3.499965125831864
 20
3.900000017678906
 11
-2.999963510759926
 21
4.599997551336457
  0
LINE
  8
0
  6
CONTINUOUS
 62
3
 10
-2.999979146307184
 20
4.600011825551216
 11
0.000019104623546
 21
4.600001335133485
  0
LINE
  8
0
  6
CONTINUOUS
 62
3
 10
0.000018950048186
 20
4.600000381469727
 11
-0.000018950048186
 21
-4.600000381469727
  0
LINE
  8
0
  6
CONTINUOUS
 62
3
 10
-3.000007597599688
 20
-2.299985885626180
 11
-0.000008155921205
 21
-2.299998283391806
  0
LINE
  8
0
  6
CONTINUOUS
 62
3
 10
-2.999989096318101
 20
2.300010681148706
 11
0.000009475023974
 21
2.300000190729854
  0
ARC
  8
0
  6
CONTINUOUS
 62
3
 10
-1.930013656616211
 20
-3.449991226196289
 40
1.569999694824219
 50
132.899744492600430
 51
179.999745461767870
  0
ARC
  8
0
  6
CONTINUOUS
 62
3
 10
-1.929986000061035
 20
3.450007438659668
 40
1.569999694824219
 50
179.999745461767870
 51
227.099746430935310
  0
ARC
  8
0
  6
CONTINUOUS
 62
3
 10
2.040000915527344
 20
-0.000008403939319
 40
5.539999008178711
 50
155.470186567177590
 51
204.529249714844780
  0
ENDBLK
  8
0
  0
BLOCK
  8
0
  2
SYM3
 70
64
 10
0.000000000000000
 20
0.000000000000000
  0
LINE
  8
0
  6
CONTINUOUS
 62
3
 10
-0.000000000000000
 20
-5.000000000000000
 11
-6.000000000000000
 21
-5.000000000000000
  0
LINE
  8
0
  6
CONTINUOUS
 62
3
 10
0.000000000000000
 20
5.000000000000000
 11
-6.000000000000000
 21
5.000000000000000
  0
LINE
  8
0
  6
CONTINUOUS
 62
3
 10
-6.000000000000000
 20
-5.000000000000000
 11
-6.000000000000000
 21
5.000000000000000
  0
LINE
  8
0
  6
CONTINUOUS
 62
3
 10
0.000000000000000
 20
5.000000000000000
 11
0.000000000000000
 21
-5.000000000000000
  0
POINT
  8
0
  6
CONTINUOUS
 62
3
 10
0.000000000000000
 20
0.000000000000000
  0
ENDBLK
  8
0
  0
BLOCK
  8
0
  2
SYM4
 70
64
 10
0.000000000000000
 20
0.000000000000000
  0
LINE
  8
0
  6
CONTINUOUS
 62
3
 10
-0.000000000000000
 20
-5.000000000000000
 11
-6.000000000000000
 21
-5.000000000000000
  0
LINE
  8
0
  6
CONTINUOUS
 62
3
 10
0.000000000000000
 20
5.000000000000000
 11
-6.000000000000000
 21
5.000000000000000
  0
LINE
  8
0
  6
CONTINUOUS
 62
3
 10
-6.000000000000000
 20
-5.000000000000000
 11
-6.000000000000000
 21
5.000000000000000
  0
LINE
  8
0
  6
CONTINUOUS
 62
3
 10
0.000000000000000
 20
5.000000000000000
 11
0.000000000000000
 21
-5.000000000000000
  0
POINT
  8
0
  6
CONTINUOUS
 62
3
 10
0.000000000000000
 20
0.000000000000000
  0
ENDBLK
  8
0
  0
BLOCK
  8
0
  2
SYM5
 70
64
 10
0.000000000000000
 20
0.000000000000000
  0
POINT
  8
0
  6
CONTINUOUS
 62
3
 10
0.000000000000000
 20
0.000000000000000
  0
LINE
  8
0
  6
CONTINUOUS
 62
3
 10
-0.000017659877873
 20
-4.599998474126673
 11
-3.000017102555891
 21
-4.599986076361044
  0
LINE
  8
0
  6
CONTINUOUS
 62
3
 10
-2.999996095884057
 20
-4.599969847145871
 11
-3.499991138206155
 21
-3.899966512616629
  0
LINE
  8
0
  6
CONTINUOUS
 62
3
 10
-3.500011920918244
 20
-3.899979774771439
 11
-3.499980449679529
 21
3.900009925545944
  0
LINE
  8
0
  6
CONTINUOUS
 62
3
 10
-3.499965125831864
 20
3.900000017678906
 11
-2.999963510759926
 21
4.599997551336457
  0
LINE
  8
0
  6
CONTINUOUS
 62
3
 10
-2.999979146307184
 20
4.600011825551216
 11
0.000019104623546
 21
4.600001335133485
  0
LINE
  8
0
  6
CONTINUOUS
 62
3
 10
0.000018950048186
 20
4.600000381469727
 11
-0.000018950048186
 21
-4.600000381469727
  0
LINE
  8
0
  6
CONTINUOUS
 62
3
 10
-3.000007597599688
 20
-2.299985885626180
 11
-0.000008155921205
 21
-2.299998283391806
  0
LINE
  8
0
  6
CONTINUOUS
 62
3
 10
-2.999989096318101
 20
2.300010681148706
 11
0.000009475023974
 21
2.300000190729854
  0
ARC
  8
0
  6
CONTINUOUS
 62
3
 10
-1.930013656616211
 20
-3.449991226196289
 40
1.569999694824219
 50
132.899744492600430
 51
179.999745461767870
  0
ARC
  8
0
  6
CONTINUOUS
 62
3
 10
-1.929986000061035
 20
3.450007438659668
 40
1.569999694824219
 50
179.999745461767870
 51
227.099746430935310
  0
ARC
  8
0
  6
CONTINUOUS
 62
3
 10
2.040000915527344
 20
-0.000008403939319
 40
5.539999008178711
 50
155.470186567177590
 51
204.529249714844780
  0
ENDBLK
  8
0
  0
BLOCK
  8
0
  2
SYM6
 70
64
 10
0.000000000000000
 20
0.000000000000000
  0
POINT
  8
0
  6
CONTINUOUS
 62
3
 10
0.000000000000000
 20
0.000000000000000
  0
LINE
  8
0
  6
CONTINUOUS
 62
3
 10
-0.000017659877873
 20
-4.599998474126673
 11
-3.000017102555891
 21
-4.599986076361044
  0
LINE
  8
0
  6
CONTINUOUS
 62
3
 10
-2.999996095884057
 20
-4.599969847145871
 11
-3.499991138206155
 21
-3.899966512616629
  0
LINE
  8
0
  6
CONTINUOUS
 62
3
 10
-3.500011920918244
 20
-3.899979774771439
 11
-3.499980449679529
 21
3.900009925545944
  0
LINE
  8
0
  6
CONTINUOUS
 62
3
 10
-3.499965125831864
 20
3.900000017678906
 11
-2.999963510759926
 21
4.599997551336457
  0
LINE
  8
0
  6
CONTINUOUS
 62
3
 10
-2.999979146307184
 20
4.600011825551216
 11
0.000019104623546
 21
4.600001335133485
  0
LINE
  8
0
  6
CONTINUOUS
 62
3
 10
0.000018950048186
 20
4.600000381469727
 11
-0.000018950048186
 21
-4.600000381469727
  0
LINE
  8
0
  6
CONTINUOUS
 62
3
 10
-3.000007597599688
 20
-2.299985885626180
 11
-0.000008155921205
 21
-2.299998283391806
  0
LINE
  8
0
  6
CONTINUOUS
 62
3
 10
-2.999989096318101
 20
2.300010681148706
 11
0.000009475023974
 21
2.300000190729854
  0
ARC
  8
0
  6
CONTINUOUS
 62
3
 10
-1.930013656616211
 20
-3.449991226196289
 40
1.569999694824219
 50
132.899744492600430
 51
179.999745461767870
  0
ARC
  8
0
  6
CONTINUOUS
 62
3
 10
-1.929986000061035
 20
3.450007438659668
 40
1.569999694824219
 50
179.999745461767870
 51
227.099746430935310
  0
ARC
  8
0
  6
CONTINUOUS
 62
3
 10
2.040000915527344
 20
-0.000008403939319
 40
5.539999008178711
 50
155.470186567177590
 51
204.529249714844780
  0
ENDBLK
  8
0
  0
BLOCK
  8
0
  2
SYM7
 70
64
 10
0.000000000000000
 20
0.000000000000000
  0
LINE
  8
0
  6
CONTINUOUS
 62
3
 10
2.499999351944041
 20
-1.443373974675978
 11
-0.000004997562428
 21
-2.886747551371855
  0
LINE
  8
0
  6
CONTINUOUS
 62
3
 10
0.000004782436690
 20
2.886748260213380
 11
-2.499999945610170
 21
1.443377225120230
  0
LINE
  8
0
  6
CONTINUOUS
 62
3
 10
-0.000005512125483
 20
-2.886746937722080
 11
-2.499997817169060
 21
-1.443371590977961
  0
LINE
  8
0
  6
CONTINUOUS
 62
3
 10
0.000004721207233
 20
2.886748740356097
 11
2.499998505998519
 21
1.443372095808627
  0
LINE
  8
0
  6
CONTINUOUS
 62
3
 10
2.499997615814836
 20
1.443371644999042
 11
2.499998569489158
 21
-1.443373807881817
  0
LINE
  8
0
  6
CONTINUOUS
 62
3
 10
-2.499997615815493
 20
-1.443371644997905
 11
-2.499998569489762
 21
1.443377622580220
  0
POINT
  8
0
  6
CONTINUOUS
 62
3
 10
0.000000000000000
 20
0.000000000000000
  0
CIRCLE
  8
0
  6
CONTINUOUS
 62
3
 10
0.000000000000000
 20
0.000000000000000
 40
5.000000000000000
  0
ENDBLK
  8
0
  0
BLOCK
  8
0
  2
SYM8
 70
64
 10
0.000000000000000
 20
0.000000000000000
  0
LINE
  8
0
  6
CONTINUOUS
 62
3
 10
2.499999351944041
 20
-1.443373974675978
 11
-0.000004997562428
 21
-2.886747551371855
  0
LINE
  8
0
  6
CONTINUOUS
 62
3
 10
0.000004782436690
 20
2.886748260213380
 11
-2.499999945610170
 21
1.443377225120230
  0
LINE
  8
0
  6
CONTINUOUS
 62
3
 10
-0.000005512125483
 20
-2.886746937722080
 11
-2.499997817169060
 21
-1.443371590977961
  0
LINE
  8
0
  6
CONTINUOUS
 62
3
 10
0.000004721207233
 20
2.886748740356097
 11
2.499998505998519
 21
1.443372095808627
  0
LINE
  8
0
  6
CONTINUOUS
 62
3
 10
2.499997615814836
 20
1.443371644999042
 11
2.499998569489158
 21
-1.443373807881817
  0
LINE
  8
0
  6
CONTINUOUS
 62
3
 10
-2.499997615815493
 20
-1.443371644997905
 11
-2.499998569489762
 21
1.443377622580220
  0
POINT
  8
0
  6
CONTINUOUS
 62
3
 10
0.000000000000000
 20
0.000000000000000
  0
CIRCLE
  8
0
  6
CONTINUOUS
 62
3
 10
0.000000000000000
 20
0.000000000000000
 40
5.000000000000000
  0
ENDBLK
  8
0
  0
BLOCK
  8
0
  2
SYM9
 70
64
 10
0.000000000000000
 20
0.000000000000000
  0
LINE
  8
0
  6
CONTINUOUS
 62
3
 10
2.499999351944041
 20
-1.443373974675978
 11
-0.000004997562428
 21
-2.886747551371855
  0
LINE
  8
0
  6
CONTINUOUS
 62
3
 10
0.000004782436690
 20
2.886748260213380
 11
-2.499999945610170
 21
1.443377225120230
  0
LINE
  8
0
  6
CONTINUOUS
 62
3
 10
-0.000005512125483
 20
-2.886746937722080
 11
-2.499997817169060
 21
-1.443371590977961
  0
LINE
  8
0
  6
CONTINUOUS
 62
3
 10
0.000004721207233
 20
2.886748740356097
 11
2.499998505998519
 21
1.443372095808627
  0
LINE
  8
0
  6
CONTINUOUS
 62
3
 10
2.499997615814836
 20
1.443371644999042
 11
2.499998569489158
 21
-1.443373807881817
  0
LINE
  8
0
  6
CONTINUOUS
 62
3
 10
-2.499997615815493
 20
-1.443371644997905
 11
-2.499998569489762
 21
1.443377622580220
  0
POINT
  8
0
  6
CONTINUOUS
 62
3
 10
0.000000000000000
 20
0.000000000000000
  0
CIRCLE
  8
0
  6
CONTINUOUS
 62
3
 10
0.000000000000000
 20
0.000000000000000
 40
5.000000000000000
  0
ENDBLK
  8
0
  0
BLOCK
  8
0
  2
SYM10
 70
64
 10
0.000000000000000
 20
0.000000000000000
  0
CIRCLE
  8
0
  6
CONTINUOUS
 62
3
 10
0.000000000000000
 20
0.000000000000000
 40
4.000000000000000
  0
LINE
  8
0
  6
CONTINUOUS
 62
3
 10
4.000000476834402
 20
2.299992229627764
 11
3.999995708466355
 21
-2.300002429796065
  0
LINE
  8
0
  6
CONTINUOUS
 62
3
 10
0.000007291900715
 20
4.600000131531601
 11
4.000000535118602
 21
2.299995435993480
  0
LINE
  8
0
  6
CONTINUOUS
 62
3
 10
-3.999993333512748
 20
2.300001902428903
 11
0.000004858421221
 21
4.599995671750889
  0
LINE
  8
0
  6
CONTINUOUS
 62
3
 10
-4.000000476834402
 20
-2.299992229627764
 11
-3.999995708466355
 21
2.300002429796065
  0
LINE
  8
0
  6
CONTINUOUS
 62
3
 10
-0.000007291900715
 20
-4.600000131531601
 11
-4.000000535118602
 21
-2.299995435993480
  0
LINE
  8
0
  6
CONTINUOUS
 62
3
 10
3.999993333512748
 20
-2.300001902428903
 11
-0.000004858421221
 21
-4.599995671750889
  0
POINT
  8
0
  6
CONTINUOUS
 62
3
 10
0.000000000000000
 20
0.000000000000000
  0
ENDBLK
  8
0
  0
BLOCK
  8
0
  2
SYM11
 70
64
 10
0.000000000000000
 20
0.000000000000000
  0
CIRCLE
  8
0
  6
CONTINUOUS
 62
3
 10
0.000000000000000
 20
0.000000000000000
 40
4.000000000000000
  0
LINE
  8
0
  6
CONTINUOUS
 62
3
 10
4.000000476834402
 20
2.299992229627764
 11
3.999995708466355
 21
-2.300002429796065
  0
LINE
  8
0
  6
CONTINUOUS
 62
3
 10
0.000007291900715
 20
4.600000131531601
 11
4.000000535118602
 21
2.299995435993480
  0
LINE
  8
0
  6
CONTINUOUS
 62
3
 10
-3.999993333512748
 20
2.300001902428903
 11
0.000004858421221
 21
4.599995671750889
  0
LINE
  8
0
  6
CONTINUOUS
 62
3
 10
-4.000000476834402
 20
-2.299992229627764
 11
-3.999995708466355
 21
2.300002429796065
  0
LINE
  8
0
  6
CONTINUOUS
 62
3
 10
-0.000007291900715
 20
-4.600000131531601
 11
-4.000000535118602
 21
-2.299995435993480
  0
LINE
  8
0
  6
CONTINUOUS
 62
3
 10
3.999993333512748
 20
-2.300001902428903
 11
-0.000004858421221
 21
-4.599995671750889
  0
POINT
  8
0
  6
CONTINUOUS
 62
3
 10
0.000000000000000
 20
0.000000000000000
  0
ENDBLK
  8
0
  0
BLOCK
  8
0
  2
SYM12
 70
64
 10
0.000000000000000
 20
0.000000000000000
  0
LINE
  8
0
  6
CONTINUOUS
 62
3
 10
-0.000000000000000
 20
-5.000000000000000
 11
-6.000000000000000
 21
-5.000000000000000
  0
LINE
  8
0
  6
CONTINUOUS
 62
3
 10
0.000000000000000
 20
5.000000000000000
 11
-6.000000000000000
 21
5.000000000000000
  0
LINE
  8
0
  6
CONTINUOUS
 62
3
 10
-6.000000000000000
 20
-5.000000000000000
 11
-6.000000000000000
 21
5.000000000000000
  0
LINE
  8
0
  6
CONTINUOUS
 62
3
 10
0.000000000000000
 20
5.000000000000000
 11
0.000000000000000
 21
-5.000000000000000
  0
POINT
  8
0
  6
CONTINUOUS
 62
3
 10
0.000000000000000
 20
0.000000000000000
  0
ENDBLK
  8
0
  0
ENDSEC
  0
SECTION
  2
ENTITIES
  0
ARC
  8
0
  6
CONTINUOUS
 62
3
 10
-363.748259140386440
 20
-127.908510775151650
 40
6.099999427795398
 50
174.601910595264880
 51
275.398072101891500
  0
POINT
  8
0
  6
CONTINUOUS
 62
3
 10
-366.011000705313450
 20
-130.171252340078690
  0
LINE
  8
0
  6
CONTINUOUS
 62
3
 10
-369.334402442020290
 20
-126.847850603371830
 11
-362.687598968606610
 21
-133.494654076785570
  0
LINE
  8
0
  6
CONTINUOUS
 62
3
 10
-369.647541050989100
 20
-127.100397554222210
 11
-362.970441748516180
 21
-133.777496856695140
  0
LINE
  8
0
  6
CONTINUOUS
 62
3
 10
-362.687598968606610
 20
-133.494654076785570
 11
-363.174402360312230
 21
-133.981457468491160
  0
LINE
  8
0
  6
CONTINUOUS
 62
3
 10
-369.334402442020290
 20
-126.847850603371830
 11
-369.821205833725910
 21
-127.334653995077460
  0
ARC
  8
0
  6
CONTINUOUS
 62
3
 10
-363.748259140386440
 20
-38.247370650957670
 40
6.099999427795406
 50
84.601927898108471
 51
185.398089404735260
  0
POINT
  8
0
  6
CONTINUOUS
 62
3
 10
-366.011000705313450
 20
-35.984629086030637
  0
LINE
  8
0
  6
CONTINUOUS
 62
3
 10
-369.334402442020290
 20
-39.308030822737493
 11
-362.687598968606610
 21
-32.661227349323781
  0
LINE
  8
0
  6
CONTINUOUS
 62
3
 10
-369.647541050989100
 20
-39.055483871887127
 11
-362.970441748516180
 21
-32.378384569414202
  0
LINE
  8
0
  6
CONTINUOUS
 62
3
 10
-362.687598968606610
 20
-32.661227349323781
 11
-363.174402360312230
 21
-32.174423957618160
  0
LINE
  8
0
  6
CONTINUOUS
 62
3
 10
-369.334402442020290
 20
-39.308030822737493
 11
-369.821205833725910
 21
-38.821227431031872
  0
ARC
  8
0
  6
CONTINUOUS
 62
3
 10
-274.087119016192620
 20
-38.247370650957670
 40
6.099999427795398
 50
354.601910595264830
 51
95.398072101891529
  0
POINT
  8
0
  6
CONTINUOUS
 62
3
 10
-271.824377451265600
 20
-35.984629086030637
  0
LINE
  8
0
  6
CONTINUOUS
 62
3
 10
-268.500975714558760
 20
-39.308030822737493
 11
-275.147779187972450
 21
-32.661227349323781
  0
LINE
  8
0
  6
CONTINUOUS
 62
3
 10
-268.187837105589950
 20
-39.055483871887127
 11
-274.864936408062870
 21
-32.378384569414202
  0
LINE
  8
0
  6
CONTINUOUS
 62
3
 10
-275.147779187972450
 20
-32.661227349323781
 11
-274.660975796266830
 21
-32.174423957618160
  0
LINE
  8
0
  6
CONTINUOUS
 62
3
 10
-268.500975714558760
 20
-39.308030822737493
 11
-268.014172322853140
 21
-38.821227431031872
  0
ARC
  8
0
  6
CONTINUOUS
 62
3
 10
-274.087119016192620
 20
-127.908510775151650
 40
6.099999427795406
 50
264.601927898108500
 51
5.398089404735109
  0
POINT
  8
0
  6
CONTINUOUS
 62
3
 10
-271.824377451265600
 20
-130.171252340078690
  0
LINE
  8
0
  6
CONTINUOUS
 62
3
 10
-268.500975714558760
 20
-126.847850603371830
 11
-275.147779187972450
 21
-133.494654076785570
  0
LINE
  8
0
  6
CONTINUOUS
 62
3
 10
-268.187837105589950
 20
-127.100397554222210
 11
-274.864936408062870
 21
-133.777496856695140
  0
LINE
  8
0
  6
CONTINUOUS
 62
3
 10
-275.147779187972450
 20
-133.494654076785570
 11
-274.660975796266830
 21
-133.981457468491160
  0
LINE
  8
0
  6
CONTINUOUS
 62
3
 10
-268.500975714558760
 20
-126.847850603371830
 11
-268.014172322853140
 21
-127.334653995077460
  0
LINE
  8
0
  6
CONTINUOUS
 62
3
 10
386.562961762567910
 20
-186.077940713056710
 11
414.626470089464190
 21
-186.077940713056710
  0
LINE
  8
0
  6
CONTINUOUS
 62
3
 10
249.626470089464160
 20
-186.077940713056710
 11
277.689978416360470
 21
-186.077940713056710
  0
LINE
  8
0
  6
DASHDOT
 62
4
 10
-131.913696403907860
 20
35.977902029269217
 11
-131.913696403907860
 21
57.526391009800875
  0
LINE
  8
0
  6
DASHDOT
 62
4
 10
-81.913696403907863
 20
35.977902029269217
 11
-81.913696403907863
 21
57.957404161804163
  0
LINE
  8
0
  6
DASHED
 62
4
 10
-74.913696403907863
 20
44.922059286945341
 11
-74.913696403907863
 21
59.422059286945341
  0
LINE
  8
0
  6
DASHED
 62
4
 10
-88.913696403907863
 20
44.922059286945341
 11
-88.913696403907863
 21
59.422059286945341
  0
LINE
  8
0
  6
DASHED
 62
4
 10
-124.913696403907860
 20
44.922059286945341
 11
-124.913696403907860
 21
59.422059286945341
  0
LINE
  8
0
  6
DASHED
 62
4
 10
-138.913696403907860
 20
44.922059286945341
 11
-138.913696403907860
 21
59.422059286945341
  0
LINE
  8
0
  6
DASHDOT
 62
4
 10
-140.999385510491440
 20
44.922059286945341
 11
-120.512797276782120
 21
44.922059286945341
  0
ARC
  8
0
  6
DASHED
 62
4
 10
-81.913696403907863
 20
44.922059286945341
 40
7.000000000000000
 50
180.000000000000000
 51
0.000000000000000
  0
ARC
  8
0
  6
DASHED
 62
4
 10
-131.913696403907860
 20
44.922059286945341
 40
7.000000000000000
 50
180.000000000000000
 51
0.000000000000000
  0
CIRCLE
  8
0
  6
DASHED
 62
4
 10
-81.913696403907863
 20
44.922059286945341
 40
6.000000000000000
  0
LINE
  8
0
  6
DASHDOT
 62
4
 10
-93.197225819634525
 20
44.922059286945341
 11
-71.430248411106220
 21
44.922059286945341
  0
LINE
  8
0
  6
CONTINUOUS
 62
3
 10
13.586303596082274
 20
-186.077940713056710
 11
15.586303596082274
 21
-186.077940713056710
  0
LINE
  8
0
  6
CONTINUOUS
 62
3
 10
15.586303596082274
 20
-186.577940713056710
 11
15.586303596082274
 21
-186.077940713056710
  0
LINE
  8
0
  6
CONTINUOUS
 62
3
 10
15.586303596082274
 20
-186.577940713056710
 11
148.586303596082270
 21
-186.577940713056710
  0
LINE
  8
0
  6
CONTINUOUS
 62
3
 10
42.847983377309305
 20
-167.008790906726970
 11
26.086303596095007
 21
-166.130348492340090
  0
LINE
  8
0
  6
CONTINUOUS
 62
3
 10
42.847983377311124
 20
-48.147090519387348
 11
26.086303596095917
 21
-49.025532933773775
  0
LINE
  8
0
  6
CONTINUOUS
 62
3
 10
26.086303596095917
 20
-87.577940713056705
 11
44.586303596095917
 21
-87.577940713056705
  0
LINE
  8
0
  6
CONTINUOUS
 62
3
 10
47.586303596095007
 20
-127.577940713056700
 11
26.086303596095007
 21
-127.577940713056700
  0
LINE
  8
0
  6
DASHDOT
 62
4
 10
27.086303596082274
 20
-162.604772282728390
 11
27.086303596082274
 21
-189.410231362470770
  0
LINE
  8
0
  6
CONTINUOUS
 62
3
 10
16.487689865058513
 20
-168.482516970514550
 11
43.553764474333406
 21
-167.592340380529090
  0
LINE
  8
0
  6
CONTINUOUS
 62
3
 10
13.586303596082274
 20
-186.077940713056710
 11
13.586303596082274
 21
-170.980895754466470
  0
ARC
  8
0
  6
CONTINUOUS
 62
3
 10
16.586303596082274
 20
-171.480895754466470
 40
2.999999999999905
 50
91.883722866764373
 51
180.000000000000000
  0
INSERT
  8
0
  2
SYM1
 10
20.086303596095917
 20
-63.383766888897753
  0
INSERT
  8
0
  2
SYM2
 10
20.086303596095917
 20
-151.772114537215630
  0
LINE
  8
0
  6
CONTINUOUS
 62
4
 10
-69.413696403908858
 20
-54.321545162417706
 11
-15.913696403909086
 21
-54.321545162417706
  0
LINE
  8
0
  6
CONTINUOUS
 62
4
 10
-69.413696403908858
 20
-55.800568315894807
 11
-15.913696403909086
 21
-55.800568315894807
  0
LINE
  8
0
  6
CONTINUOUS
 62
4
 10
-69.413696403908858
 20
-58.893299307560042
 11
-15.913696403909086
 21
-58.893299307560042
  0
LINE
  8
0
  6
CONTINUOUS
 62
4
 10
-69.413696403908858
 20
-60.239701033058637
 11
-15.913696403909086
 21
-60.239701033058637
  0
LINE
  8
0
  6
CONTINUOUS
 62
4
 10
-69.413696403908858
 20
-63.077940713054787
 11
-15.913696403909086
 21
-63.077940713054787
  0
LINE
  8
0
  6
CONTINUOUS
 62
4
 10
-136.571296750301260
 20
-43.037505306530321
 11
-15.913696403909086
 21
-43.037505306530321
  0
LINE
  8
0
  6
CONTINUOUS
 62
4
 10
-136.413696403929980
 20
-38.573285185949899
 11
-15.913696403909086
 21
-38.573285185949899
  0
LINE
  8
0
  6
CONTINUOUS
 62
4
 10
-146.413696403929980
 20
-51.363549554284774
 11
-15.913696403909086
 21
-51.363549554284774
  0
LINE
  8
0
  6
CONTINUOUS
 62
4
 10
-146.413696403929980
 20
-49.774339761546017
 11
-15.913696403909086
 21
-49.774339761546017
  0
LINE
  8
0
  6
CONTINUOUS
 62
4
 10
-136.413696403929980
 20
-42.036026942715026
 11
-15.913696403909086
 21
-42.036026942715026
  0
LINE
  8
0
  6
CONTINUOUS
 62
4
 10
-136.413696403929980
 20
-36.944858118172093
 11
-15.913696403909086
 21
-36.944858118172093
  0
LINE
  8
0
  6
CONTINUOUS
 62
4
 10
-136.413696403929980
 20
-32.077940713054673
 11
-15.913696403909086
 21
-32.077940713054673
  0
LINE
  8
0
  6
CONTINUOUS
 62
4
 10
-136.413696403929980
 20
-32.577940713054787
 11
-15.913696403909086
 21
-32.577940713054787
  0
LINE
  8
0
  6
DASHDOT
 62
4
 10
9.683404373448866
 20
-83.077940713054787
 11
-198.172173733390080
 21
-83.077940713054787
  0
LINE
  8
0
  6
CONTINUOUS
 62
3
 10
-15.913696403909086
 20
-30.577940713054787
 11
-136.413696403929980
 21
-30.577940713054787
  0
LINE
  8
0
  6
CONTINUOUS
 62
4
 10
-146.413696403929980
 20
-114.792331871824800
 11
-15.913696403909086
 21
-114.792331871824800
  0
LINE
  8
0
  6
CONTINUOUS
 62
4
 10
-146.413696403929980
 20
-116.381541664563440
 11
-15.913696403909086
 21
-116.381541664563440
  0
LINE
  8
0
  6
CONTINUOUS
 62
4
 10
-136.571296750301260
 20
-123.118376119579130
 11
-15.913696403909086
 21
-123.118376119579130
  0
LINE
  8
0
  6
CONTINUOUS
 62
4
 10
-136.413696403929980
 20
-124.119854483394430
 11
-15.913696403909086
 21
-124.119854483394430
  0
LINE
  8
0
  6
CONTINUOUS
 62
4
 10
-136.413696403929980
 20
-127.582596240159670
 11
-15.913696403909086
 21
-127.582596240159670
  0
LINE
  8
0
  6
CONTINUOUS
 62
4
 10
-136.413696403929980
 20
-129.211023307937470
 11
-15.913696403909086
 21
-129.211023307937470
  0
LINE
  8
0
  6
CONTINUOUS
 62
4
 10
-136.413696403929980
 20
-134.077940713054770
 11
-15.913696403909086
 21
-134.077940713054770
  0
LINE
  8
0
  6
CONTINUOUS
 62
4
 10
-136.413696403929980
 20
-133.577940713054770
 11
-15.913696403909086
 21
-133.577940713054770
  0
LINE
  8
0
  6
CONTINUOUS
 62
3
 10
-15.913696403909086
 20
-135.577940713054770
 11
-136.413696403929980
 21
-135.577940713054770
  0
LINE
  8
0
  6
CONTINUOUS
 62
4
 10
-69.413696403908858
 20
-111.834336263691860
 11
-15.913696403909086
 21
-111.834336263691860
  0
LINE
  8
0
  6
CONTINUOUS
 62
4
 10
-69.413696403908858
 20
-110.355313110214760
 11
-15.913696403909086
 21
-110.355313110214760
  0
LINE
  8
0
  6
CONTINUOUS
 62
4
 10
-69.413696403908858
 20
-107.262582118549530
 11
-15.913696403909086
 21
-107.262582118549530
  0
LINE
  8
0
  6
CONTINUOUS
 62
4
 10
-69.413696403908858
 20
-105.916180393050930
 11
-15.913696403909086
 21
-105.916180393050930
  0
LINE
  8
0
  6
CONTINUOUS
 62
4
 10
-69.413696403908858
 20
-103.077940713054780
 11
-15.913696403909086
 21
-103.077940713054780
  0
LINE
  8
0
  6
CONTINUOUS
 62
3
 10
26.086303596093359
 20
-163.877940176876280
 11
26.086303596093359
 21
-166.077940176878540
  0
LINE
  8
0
  6
CONTINUOUS
 62
3
 10
21.191002086200854
 20
-31.873665336088720
 11
-15.913711758040819
 21
-30.577940176876666
  0
LINE
  8
0
  6
CONTINUOUS
 62
3
 10
13.138676169537206
 20
-136.093778490921580
 11
-15.913681049774624
 21
-135.586667709340870
  0
LINE
  8
0
  6
CONTINUOUS
 62
3
 10
16.086303596093700
 20
-164.206968683903540
 11
16.086303596093700
 21
-51.077940176878599
  0
LINE
  8
0
  6
CONTINUOUS
 62
3
 10
-0.413724701657969
 20
-46.077940176877121
 11
-0.413726158508410
 21
-46.077940176877121
  0
LINE
  8
0
  6
CONTINUOUS
 62
3
 10
-15.913696403909086
 20
-30.577940176876666
 11
-15.913696403914393
 21
-135.586667441333360
  0
LINE
  8
0
  6
DASHDOT
 62
4
 10
10.086303596093359
 20
-52.645290905883314
 11
10.086303596093359
 21
-28.182149907780342
  0
LINE
  8
0
  6
CONTINUOUS
 62
3
 10
26.086303596093359
 20
-167.577940176878540
 11
26.086303596093359
 21
-47.577940176878542
  0
LINE
  8
0
  6
CONTINUOUS
 62
3
 10
24.086303596093359
 20
-45.577940176878542
 11
24.086303596093359
 21
-34.871837817146002
  0
LINE
  8
0
  6
CONTINUOUS
 62
3
 10
-0.913696403942815
 20
-135.848493415256090
 11
-0.913696403941771
 21
-69.115817160288429
  0
LINE
  8
0
  6
CONTINUOUS
 62
3
 10
26.086303596093359
 20
-47.577940176878542
 11
3.824623814843903
 21
-46.411254976433042
  0
LINE
  8
0
  6
CONTINUOUS
 62
3
 10
26.086303596093359
 20
-167.577940176878540
 11
18.929295727364860
 21
-167.202857288167250
  0
ARC
  8
0
  6
CONTINUOUS
 62
3
 10
26.086303596093359
 20
-45.577940176878542
 40
2.000000000000000
 50
180.000000000000000
 51
270.000000000000000
  0
ARC
  8
0
  6
CONTINUOUS
 62
3
 10
4.086303596058627
 20
-41.418107302660189
 40
5.000000000000000
 50
179.999999999999350
 51
266.999999999999940
  0
ARC
  8
0
  6
CONTINUOUS
 62
3
 10
-5.913681049809583
 20
-35.982576747525854
 40
5.000000000000000
 50
359.999999999998690
 51
87.999999999999915
  0
ARC
  8
0
  6
CONTINUOUS
 62
3
 10
21.086303596093359
 20
-34.871837817146002
 40
3.000000000000000
 50
0.000000000000000
 51
88.000000000000156
  0
ARC
  8
0
  6
CONTINUOUS
 62
3
 10
13.086303596093700
 20
-139.093321576390740
 40
3.000000000000000
 50
0.000000000000000
 51
89.000000000000398
  0
ARC
  8
0
  6
CONTINUOUS
 62
3
 10
19.086303596093700
 20
-164.206968683903540
 40
3.000000000000000
 50
180.000000000000000
 51
266.999999999999830
  0
LINE
  8
0
  6
CONTINUOUS
 62
3
 10
14.628798394561272
 20
-161.125617355826590
 11
-9.486373703510253
 21
-137.096190404347000
  0
ARC
  8
0
  6
CONTINUOUS
 62
3
 10
-13.015605254541185
 20
-140.638015450733060
 40
4.999999999999986
 50
45.102043218056664
 51
89.000000000000497
  0
ARC
  8
0
  6
CONTINUOUS
 62
3
 10
11.099566843530312
 20
-164.667442402212660
 40
5.000000000000021
 50
3.299723825004901
 51
45.102043218056437
  0
POINT
  8
0
  6
CONTINUOUS
 62
3
 10
-10.913696403909313
 20
-135.673942765974520
  0
LINE
  8
0
  6
CONTINUOUS
 62
3
 10
26.086303596093359
 20
-87.592875244397078
 11
16.086303596093700
 21
-87.592875244397078
  0
LINE
  8
0
  6
CONTINUOUS
 62
3
 10
26.086303596093359
 20
-127.563005109360000
 11
16.086303596093700
 21
-127.563005109360000
  0
LINE
  8
0
  6
CONTINUOUS
 62
3
 10
-1.913696403941678
 20
-63.077940176878485
 11
-15.913696403910727
 21
-63.077940176878485
  0
LINE
  8
0
  6
CONTINUOUS
 62
3
 10
-0.913696403942303
 20
-103.077940176878480
 11
-15.913696403912752
 21
-103.077940176878480
  0
LINE
  8
0
  6
CONTINUOUS
 62
3
 10
-1.913696403941735
 20
-67.383766352719533
 11
-1.913696403941501
 21
-50.896127497625343
  0
ARC
  8
0
  6
CONTINUOUS
 62
3
 10
-0.913696403941493
 20
-50.896127497625343
 40
0.999999999999976
 50
119.999999999999810
 51
180.000000000000000
  0
ARC
  8
0
  6
CONTINUOUS
 62
3
 10
-1.913696403941465
 20
-49.164076690056447
 40
1.000000000000026
 50
299.999999999998180
 51
0.000000000000000
  0
ARC
  8
0
  6
CONTINUOUS
 62
3
 10
-0.913696403941735
 20
-67.383766352719533
 40
1.000000000000000
 50
180.000000000000000
 51
240.000000000000400
  0
ARC
  8
0
  6
CONTINUOUS
 62
3
 10
-1.913696403941763
 20
-69.115817160288429
 40
0.999999999999986
 50
0.000000000000000
 51
59.999999999998764
  0
LINE
  8
0
  6
CONTINUOUS
 62
3
 10
-0.913696403941465
 20
-49.164076690056447
 11
-0.913696403941259
 21
-35.982576747525968
  0
LINE
  8
0
  6
CONTINUOUS
 62
3
 10
2.895730337955939
 20
-58.792055947933818
 11
13.572315098370638
 21
-58.792055947933818
  0
LINE
  8
0
  6
CONTINUOUS
 62
3
 10
2.683370584514961
 20
-72.577940176878542
 11
13.404326157675570
 21
-72.577940176878542
  0
LINE
  8
0
  6
CONTINUOUS
 62
3
 10
2.120984933075562
 20
-115.577940176878480
 11
13.520745617426911
 21
-115.577940176878480
  0
LINE
  8
0
  6
CONTINUOUS
 62
3
 10
2.212183018551769
 20
-118.623998124138380
 11
13.703141788375689
 21
-118.623998124138380
  0
LINE
  8
0
  6
CONTINUOUS
 62
3
 10
20.086303596093359
 20
-165.365564367750490
 11
20.086303596093359
 21
-144.577940176878540
  0
ARC
  8
0
  6
CONTINUOUS
 62
3
 10
18.086303596093359
 20
-144.577940176878540
 40
2.000000000000000
 50
0.000000000000000
 51
90.000000000000000
  0
ARC
  8
0
  6
CONTINUOUS
 62
3
 10
18.086303596093700
 20
-140.577940176878540
 40
2.000000000000000
 50
180.000000000000000
 51
270.000000000000000
  0
LINE
  8
0
  6
CONTINUOUS
 62
3
 10
20.086303596093359
 20
-70.577940176878542
 11
20.086303596093359
 21
-49.371053751742238
  0
ARC
  8
0
  6
CONTINUOUS
 62
3
 10
18.086303596093359
 20
-70.577940176878542
 40
2.000000000000000
 50
270.000000000000000
 51
0.000000000000000
  0
ARC
  8
0
  6
CONTINUOUS
 62
3
 10
18.086303596093700
 20
-74.577940176878542
 40
2.000000000000000
 50
90.000000000000000
 51
180.000000000000000
  0
ARC
  8
0
  6
CONTINUOUS
 62
3
 10
22.086303596093359
 20
-49.371053751742238
 40
2.000000000000051
 50
86.999999999999773
 51
180.000000000000000
  0
ARC
  8
0
  6
CONTINUOUS
 62
3
 10
22.086303596093359
 20
-165.365564367750490
 40
2.000000000000000
 50
180.000000000000000
 51
267.000000000000170
  0
LINE
  8
0
  6
CONTINUOUS
 62
3
 10
-146.413696403929980
 20
-83.077940713054787
 11
-146.413696403929980
 21
-118.077940713054780
  0
LINE
  8
0
  6
CONTINUOUS
 62
3
 10
-139.413696403929980
 20
-121.077940713054780
 11
-143.413696403929980
 21
-121.077940713054780
  0
ARC
  8
0
  6
CONTINUOUS
 62
3
 10
-143.413696403929980
 20
-118.077940713054780
 40
3.000000000000000
 50
180.000000000000000
 51
270.000000000000000
  0
LINE
  8
0
  6
CONTINUOUS
 62
3
 10
-136.413696403929980
 20
-137.077940713055000
 11
-136.413696403929980
 21
-124.077940713054780
  0
ARC
  8
0
  6
CONTINUOUS
 62
3
 10
-139.413696403929980
 20
-124.077940713054780
 40
3.000000000000000
 50
0.000000000000000
 51
90.000000000000000
  0
POLYLINE
  8
0
  6
CONTINUOUS
 62
3
 66
1
 70
1
  0
VERTEX
  8
0
  6
CONTINUOUS
 62
3
 10
-142.713696403929760
 20
-130.405271667402300
  0
VERTEX
  8
0
  6
CONTINUOUS
 62
3
 10
-142.804005586034580
 20
-129.702314701201940
  0
VERTEX
  8
0
  6
CONTINUOUS
 62
3
 10
-143.071462601126710
 20
-129.026371976989850
  0
VERTEX
  8
0
  6
CONTINUOUS
 62
3
 10
-143.505789226107790
 20
-128.403419594584450
  0
VERTEX
  8
0
  6
CONTINUOUS
 62
3
 10
-144.090294532352970
 20
-127.857397264685870
  0
VERTEX
  8
0
  6
CONTINUOUS
 62
3
 10
-144.802516308737640
 20
-127.409288319219250
  0
VERTEX
  8
0
  6
CONTINUOUS
 62
3
 10
-145.615084271813830
 20
-127.076313333656480
  0
VERTEX
  8
0
  6
CONTINUOUS
 62
3
 10
-146.496771890453940
 20
-126.871268349958240
  0
VERTEX
  8
0
  6
CONTINUOUS
 62
3
 10
-147.413696403929750
 20
-126.802033131857470
  0
VERTEX
  8
0
  6
CONTINUOUS
 62
3
 10
-148.330620917405550
 20
-126.871268349958240
  0
VERTEX
  8
0
  6
CONTINUOUS
 62
3
 10
-149.212308536045670
 20
-127.076313333656480
  0
VERTEX
  8
0
  6
CONTINUOUS
 62
3
 10
-150.024876499121860
 20
-127.409288319219250
  0
VERTEX
  8
0
  6
CONTINUOUS
 62
3
 10
-150.737098275506530
 20
-127.857397264685870
  0
VERTEX
  8
0
  6
CONTINUOUS
 62
3
 10
-151.321603581751700
 20
-128.403419594584450
  0
VERTEX
  8
0
  6
CONTINUOUS
 62
3
 10
-151.755930206732780
 20
-129.026371976989850
  0
VERTEX
  8
0
  6
CONTINUOUS
 62
3
 10
-152.023387221824920
 20
-129.702314701201940
  0
VERTEX
  8
0
  6
CONTINUOUS
 62
3
 10
-152.113696403929740
 20
-130.405271667402300
  0
VERTEX
  8
0
  6
CONTINUOUS
 62
3
 10
-152.023387221824920
 20
-131.108228633602660
  0
VERTEX
  8
0
  6
CONTINUOUS
 62
3
 10
-151.755930206732780
 20
-131.784171357814760
  0
VERTEX
  8
0
  6
CONTINUOUS
 62
3
 10
-151.321603581751700
 20
-132.407123740220160
  0
VERTEX
  8
0
  6
CONTINUOUS
 62
3
 10
-150.737098275506500
 20
-132.953146070118750
  0
VERTEX
  8
0
  6
CONTINUOUS
 62
3
 10
-150.024876499121860
 20
-133.401255015585350
  0
VERTEX
  8
0
  6
CONTINUOUS
 62
3
 10
-149.212308536045670
 20
-133.734230001148120
  0
VERTEX
  8
0
  6
CONTINUOUS
 62
3
 10
-148.330620917405550
 20
-133.939274984846380
  0
VERTEX
  8
0
  6
CONTINUOUS
 62
3
 10
-147.413696403929750
 20
-134.008510202947120
  0
VERTEX
  8
0
  6
CONTINUOUS
 62
3
 10
-146.496771890453940
 20
-133.939274984846380
  0
VERTEX
  8
0
  6
CONTINUOUS
 62
3
 10
-145.615084271813830
 20
-133.734230001148120
  0
VERTEX
  8
0
  6
CONTINUOUS
 62
3
 10
-144.802516308737640
 20
-133.401255015585350
  0
VERTEX
  8
0
  6
CONTINUOUS
 62
3
 10
-144.090294532353000
 20
-132.953146070118750
  0
VERTEX
  8
0
  6
CONTINUOUS
 62
3
 10
-143.505789226107790
 20
-132.407123740220160
  0
VERTEX
  8
0
  6
CONTINUOUS
 62
3
 10
-143.071462601126710
 20
-131.784171357814760
  0
VERTEX
  8
0
  6
CONTINUOUS
 62
3
 10
-142.804005586034580
 20
-131.108228633602660
  0
SEQEND
  8
0
  6
CONTINUOUS
 62
3
  0
LINE
  8
0
  6
CONTINUOUS
 62
3
 10
-149.413696403929980
 20
-133.397647221402740
 11
-147.413696403930200
 21
-132.221861735779840
  0
LINE
  8
0
  6
CONTINUOUS
 62
3
 10
-147.413696403930200
 20
-132.221861735779840
 11
-145.413696403929980
 21
-130.569220096656520
  0
LINE
  8
0
  6
CONTINUOUS
 62
3
 10
-145.413696403929980
 20
-133.397647221402740
 11
-147.413696403930200
 21
-132.221861735779840
  0
LINE
  8
0
  6
CONTINUOUS
 62
3
 10
-147.413696403930200
 20
-132.221861735779840
 11
-149.413696403929980
 21
-130.569220096656520
  0
LINE
  8
0
  6
CONTINUOUS
 62
4
 10
-146.413696403929980
 20
-111.834336263691860
 11
-144.413696403908830
 21
-111.834336263691860
  0
LINE
  8
0
  6
CONTINUOUS
 62
4
 10
-146.413696403929980
 20
-110.355313110214760
 11
-144.413696403908830
 21
-110.355313110214760
  0
LINE
  8
0
  6
CONTINUOUS
 62
4
 10
-146.413696403929980
 20
-107.262582118549530
 11
-144.413696403908830
 21
-107.262582118549530
  0
LINE
  8
0
  6
CONTINUOUS
 62
4
 10
-146.413696403929980
 20
-105.916180393050930
 11
-144.413696403908830
 21
-105.916180393050930
  0
LINE
  8
0
  6
CONTINUOUS
 62
4
 10
-146.413696403929980
 20
-103.077940713054780
 11
-144.413696403908830
 21
-103.077940713054780
  0
LINE
  8
0
  6
CONTINUOUS
 62
3
 10
-136.413696403929980
 20
-137.077940713055000
 11
-165.918541353022990
 21
-137.077940713055000
  0
ARC
  8
0
  6
CONTINUOUS
 62
3
 10
-165.918541353022990
 20
-116.477940713054990
 40
20.599999999999881
 50
235.000000000000340
 51
270.000000000000000
  0
ARC
  8
0
  6
CONTINUOUS
 62
3
 10
-183.813696403930290
 20
-125.921560846684320
 40
2.599999999999909
 50
180.000000000000000
 51
234.999999999997190
  0
LINE
  8
0
  6
CONTINUOUS
 62
3
 10
-186.413696403930200
 20
-125.921560846684320
 11
-186.413696403930200
 21
-83.077940713054787
  0
LINE
  8
0
  6
CONTINUOUS
 62
3
 10
-177.734215941854360
 20
-133.352472825408200
 11
-185.304995138443130
 21
-128.051356161835660
  0
LINE
  8
0
  6
CONTINUOUS
 62
3
 10
-146.413696403929980
 20
-83.077940713054787
 11
-146.413696403929980
 21
-48.077940713054787
  0
LINE
  8
0
  6
CONTINUOUS
 62
3
 10
-139.413696403929980
 20
-45.077940713054787
 11
-143.413696403929980
 21
-45.077940713054787
  0
ARC
  8
0
  6
CONTINUOUS
 62
3
 10
-143.413696403929980
 20
-48.077940713054787
 40
3.000000000000000
 50
90.000000000000000
 51
180.000000000000000
  0
LINE
  8
0
  6
CONTINUOUS
 62
3
 10
-136.413696403929980
 20
-29.077940713054559
 11
-136.413696403929980
 21
-42.077940713054787
  0
ARC
  8
0
  6
CONTINUOUS
 62
3
 10
-139.413696403929980
 20
-42.077940713054787
 40
3.000000000000000
 50
270.000000000000000
 51
0.000000000000000
  0
POLYLINE
  8
0
  6
CONTINUOUS
 62
3
 66
1
 70
1
  0
VERTEX
  8
0
  6
CONTINUOUS
 62
3
 10
-142.713696403929760
 20
-35.750609758707142
  0
VERTEX
  8
0
  6
CONTINUOUS
 62
3
 10
-142.804005586034580
 20
-35.047652792506781
  0
VERTEX
  8
0
  6
CONTINUOUS
 62
3
 10
-143.071462601126710
 20
-34.371710068294689
  0
VERTEX
  8
0
  6
CONTINUOUS
 62
3
 10
-143.505789226107790
 20
-33.748757685889288
  0
VERTEX
  8
0
  6
CONTINUOUS
 62
3
 10
-144.090294532352970
 20
-33.202735355990704
  0
VERTEX
  8
0
  6
CONTINUOUS
 62
3
 10
-144.802516308737640
 20
-32.754626410524089
  0
VERTEX
  8
0
  6
CONTINUOUS
 62
3
 10
-145.615084271813830
 20
-32.421651424961333
  0
VERTEX
  8
0
  6
CONTINUOUS
 62
3
 10
-146.496771890453940
 20
-32.216606441263082
  0
VERTEX
  8
0
  6
CONTINUOUS
 62
3
 10
-147.413696403929750
 20
-32.147371223162310
  0
VERTEX
  8
0
  6
CONTINUOUS
 62
3
 10
-148.330620917405550
 20
-32.216606441263082
  0
VERTEX
  8
0
  6
CONTINUOUS
 62
3
 10
-149.212308536045670
 20
-32.421651424961333
  0
VERTEX
  8
0
  6
CONTINUOUS
 62
3
 10
-150.024876499121860
 20
-32.754626410524089
  0
VERTEX
  8
0
  6
CONTINUOUS
 62
3
 10
-150.737098275506530
 20
-33.202735355990704
  0
VERTEX
  8
0
  6
CONTINUOUS
 62
3
 10
-151.321603581751700
 20
-33.748757685889288
  0
VERTEX
  8
0
  6
CONTINUOUS
 62
3
 10
-151.755930206732780
 20
-34.371710068294689
  0
VERTEX
  8
0
  6
CONTINUOUS
 62
3
 10
-152.023387221824920
 20
-35.047652792506781
  0
VERTEX
  8
0
  6
CONTINUOUS
 62
3
 10
-152.113696403929740
 20
-35.750609758707142
  0
VERTEX
  8
0
  6
CONTINUOUS
 62
3
 10
-152.023387221824920
 20
-36.453566724907503
  0
VERTEX
  8
0
  6
CONTINUOUS
 62
3
 10
-151.755930206732780
 20
-37.129509449119595
  0
VERTEX
  8
0
  6
CONTINUOUS
 62
3
 10
-151.321603581751700
 20
-37.752461831524997
  0
VERTEX
  8
0
  6
CONTINUOUS
 62
3
 10
-150.737098275506500
 20
-38.298484161423573
  0
VERTEX
  8
0
  6
CONTINUOUS
 62
3
 10
-150.024876499121860
 20
-38.746593106890195
  0
VERTEX
  8
0
  6
CONTINUOUS
 62
3
 10
-149.212308536045670
 20
-39.079568092452952
  0
VERTEX
  8
0
  6
CONTINUOUS
 62
3
 10
-148.330620917405550
 20
-39.284613076151203
  0
VERTEX
  8
0
  6
CONTINUOUS
 62
3
 10
-147.413696403929750
 20
-39.353848294251975
  0
VERTEX
  8
0
  6
CONTINUOUS
 62
3
 10
-146.496771890453940
 20
-39.284613076151203
  0
VERTEX
  8
0
  6
CONTINUOUS
 62
3
 10
-145.615084271813830
 20
-39.079568092452952
  0
VERTEX
  8
0
  6
CONTINUOUS
 62
3
 10
-144.802516308737640
 20
-38.746593106890195
  0
VERTEX
  8
0
  6
CONTINUOUS
 62
3
 10
-144.090294532353000
 20
-38.298484161423573
  0
VERTEX
  8
0
  6
CONTINUOUS
 62
3
 10
-143.505789226107790
 20
-37.752461831524997
  0
VERTEX
  8
0
  6
CONTINUOUS
 62
3
 10
-143.071462601126710
 20
-37.129509449119595
  0
VERTEX
  8
0
  6
CONTINUOUS
 62
3
 10
-142.804005586034580
 20
-36.453566724907503
  0
SEQEND
  8
0
  6
CONTINUOUS
 62
3
  0
LINE
  8
0
  6
CONTINUOUS
 62
3
 10
-149.413696403929980
 20
-32.758234204706824
 11
-147.413696403930200
 21
-33.934019690329606
  0
LINE
  8
0
  6
CONTINUOUS
 62
3
 10
-147.413696403930200
 20
-33.934019690329606
 11
-145.413696403929980
 21
-35.586661329453037
  0
LINE
  8
0
  6
CONTINUOUS
 62
3
 10
-145.413696403929980
 20
-32.758234204706824
 11
-147.413696403930200
 21
-33.934019690329606
  0
LINE
  8
0
  6
CONTINUOUS
 62
3
 10
-147.413696403930200
 20
-33.934019690329606
 11
-149.413696403929980
 21
-35.586661329453037
  0
ARC
  8
0
  6
CONTINUOUS
 62
3
 10
-165.918541353022990
 20
-49.677940713054582
 40
20.600000000000023
 50
90.000000000000000
 51
124.999999999999600
  0
ARC
  8
0
  6
CONTINUOUS
 62
3
 10
-183.813696403930290
 20
-40.234320579425244
 40
2.600000000000131
 50
125.000000000001180
 51
180.000000000000000
  0
LINE
  8
0
  6
CONTINUOUS
 62
3
 10
-186.413696403930200
 20
-40.234320579425244
 11
-186.413696403930200
 21
-83.077940713054787
  0
LINE
  8
0
  6
CONTINUOUS
 62
3
 10
-177.734215941854360
 20
-32.803408600701246
 11
-185.304995138443130
 21
-38.104525264273789
  0
LINE
  8
0
  6
CONTINUOUS
 62
3
 10
-136.413696403929980
 20
-29.077940713054559
 11
-165.918541353022990
 21
-29.077940713054559
  0
LINE
  8
0
  6
CONTINUOUS
 62
4
 10
-146.413696403929980
 20
-63.077940713054787
 11
-144.413696403908830
 21
-63.077940713054787
  0
LINE
  8
0
  6
CONTINUOUS
 62
4
 10
-146.413696403929980
 20
-54.321545162417706
 11
-144.413696403908830
 21
-54.321545162417706
  0
LINE
  8
0
  6
CONTINUOUS
 62
4
 10
-146.413696403929980
 20
-55.800568315894807
 11
-144.413696403908830
 21
-55.800568315894807
  0
LINE
  8
0
  6
CONTINUOUS
 62
4
 10
-146.413696403929980
 20
-58.893299307560042
 11
-144.413696403908830
 21
-58.893299307560042
  0
LINE
  8
0
  6
CONTINUOUS
 62
4
 10
-146.413696403929980
 20
-60.239701033058637
 11
-144.413696403908830
 21
-60.239701033058637
  0
LINE
  8
0
  6
CONTINUOUS
 62
3
 10
-70.413696403908858
 20
-112.077940713054780
 11
-70.413696403908858
 21
-83.077940713054787
  0
LINE
  8
0
  6
CONTINUOUS
 62
3
 10
-70.413696403908858
 20
-54.077940713054787
 11
-70.413696403908858
 21
-83.077940713054787
  0
ARC
  8
0
  6
CONTINUOUS
 62
3
 10
-71.413696403908858
 20
-54.077940713054787
 40
1.000000000000000
 50
0.000000000000000
 51
90.000000000000000
  0
LINE
  8
0
  6
CONTINUOUS
 62
3
 10
-71.413696403908858
 20
-53.077940713054787
 11
-142.413696403908830
 21
-53.077940713054787
  0
ARC
  8
0
  6
CONTINUOUS
 62
3
 10
-142.413696403908830
 20
-54.077940713054787
 40
1.000000000000000
 50
90.000000000000000
 51
180.000000000000000
  0
LINE
  8
0
  6
CONTINUOUS
 62
3
 10
-143.413696403908830
 20
-83.077940713054787
 11
-143.413696403908830
 21
-54.077940713054787
  0
LINE
  8
0
  6
CONTINUOUS
 62
3
 10
-143.413696403908830
 20
-83.077940713054787
 11
-143.413696403908830
 21
-112.077940713054780
  0
ARC
  8
0
  6
CONTINUOUS
 62
3
 10
-142.413696403908830
 20
-112.077940713054780
 40
1.000000000000000
 50
180.000000000000000
 51
270.000000000000000
  0
LINE
  8
0
  6
CONTINUOUS
 62
3
 10
-71.413696403908858
 20
-113.077940713054780
 11
-142.413696403908830
 21
-113.077940713054780
  0
ARC
  8
0
  6
CONTINUOUS
 62
3
 10
-71.413696403908858
 20
-112.077940713054780
 40
1.000000000000000
 50
270.000000000000000
 51
0.000000000000000
  0
LINE
  8
0
  6
CONTINUOUS
 62
3
 10
-144.413696403908830
 20
-83.077940713054787
 11
-144.413696403908830
 21
-53.577940713054787
  0
ARC
  8
0
  6
CONTINUOUS
 62
3
 10
-142.413696403908830
 20
-53.577940713054787
 40
2.000000000000000
 50
90.000000000000000
 51
180.000000000000000
  0
LINE
  8
0
  6
CONTINUOUS
 62
3
 10
-71.413696403908858
 20
-51.577940713054787
 11
-142.413696403908830
 21
-51.577940713054787
  0
ARC
  8
0
  6
CONTINUOUS
 62
3
 10
-71.413696403908858
 20
-53.577940713054787
 40
2.000000000000000
 50
0.000000000000000
 51
90.000000000000000
  0
LINE
  8
0
  6
CONTINUOUS
 62
3
 10
-69.413696403908858
 20
-83.077940713054787
 11
-69.413696403908858
 21
-53.577940713054787
  0
LINE
  8
0
  6
CONTINUOUS
 62
3
 10
-69.413696403908858
 20
-83.077940713054787
 11
-69.413696403908858
 21
-112.577940713054780
  0
ARC
  8
0
  6
CONTINUOUS
 62
3
 10
-71.413696403908858
 20
-112.577940713054780
 40
2.000000000000000
 50
270.000000000000000
 51
0.000000000000000
  0
LINE
  8
0
  6
CONTINUOUS
 62
3
 10
-71.413696403908858
 20
-114.577940713054780
 11
-142.413696403908830
 21
-114.577940713054780
  0
ARC
  8
0
  6
CONTINUOUS
 62
3
 10
-142.413696403908830
 20
-112.577940713054780
 40
2.000000000000000
 50
180.000000000000000
 51
270.000000000000000
  0
LINE
  8
0
  6
CONTINUOUS
 62
3
 10
-144.413696403908830
 20
-83.077940713054787
 11
-144.413696403908830
 21
-112.577940713054780
  0
LINE
  8
0
  6
CONTINUOUS
 62
3
 10
277.557480436268860
 20
-89.748296659214247
 11
277.557480436268860
 21
-165.577940713056710
  0
ARC
  8
0
  6
CONTINUOUS
 62
3
 10
317.626470089464190
 20
-91.851089557814703
 40
40.124128274671627
 50
95.315087662138140
 51
176.995912876769610
  0
ARC
  8
0
  6
CONTINUOUS
 62
3
 10
317.626470089464190
 20
-91.851089557814703
 40
64.999999999999972
 50
92.158403465040735
 51
180.000000000000000
  0
LINE
  8
0
  6
CONTINUOUS
 62
3
 10
252.626470089464190
 20
-91.851089557814703
 11
252.626470089464190
 21
-166.381788290350410
  0
LINE
  8
0
  6
DASHDOT
 62
4
 10
418.165990682384290
 20
-81.577940713056705
 11
230.377438543397150
 21
-81.577940713056705
  0
LINE
  8
0
  6
CONTINUOUS
 62
3
 10
277.322881537139210
 20
-86.577940713280441
 11
277.322881537139210
 21
-165.577940713056710
  0
LINE
  8
0
  6
CONTINUOUS
 62
3
 10
260.020989673827670
 20
-86.577940713280441
 11
260.020989673827670
 21
-165.577940713056710
  0
POLYLINE
  8
0
  6
CONTINUOUS
 62
3
 66
1
  0
VERTEX
  8
0
  6
CONTINUOUS
 62
3
 10
277.322881537139210
 20
-86.577940713280441
  0
VERTEX
  8
0
  6
CONTINUOUS
 62
3
 10
277.156656036815600
 20
-83.651585883038521
  0
VERTEX
  8
0
  6
CONTINUOUS
 62
3
 10
276.664367488602010
 20
-80.837689227804091
  0
VERTEX
  8
0
  6
CONTINUOUS
 62
3
 10
275.864934265327520
 20
-78.244387217986400
  0
VERTEX
  8
0
  6
CONTINUOUS
 62
3
 10
274.789078137435410
 20
-75.971338995482228
  0
VERTEX
  8
0
  6
CONTINUOUS
 62
3
 10
273.478143652573410
 20
-74.105896528742264
  0
VERTEX
  8
0
  6
CONTINUOUS
 62
3
 10
271.982509287814250
 20
-72.719747725611143
  0
VERTEX
  8
0
  6
CONTINUOUS
 62
3
 10
270.359651433034290
 20
-71.866161507231993
  0
VERTEX
  8
0
  6
CONTINUOUS
 62
3
 10
268.671935605483440
 20
-71.577940713280441
  0
VERTEX
  8
0
  6
CONTINUOUS
 62
3
 10
266.984219777932590
 20
-71.866161507231993
  0
VERTEX
  8
0
  6
CONTINUOUS
 62
3
 10
265.361361923152630
 20
-72.719747725611143
  0
VERTEX
  8
0
  6
CONTINUOUS
 62
3
 10
263.865727558393470
 20
-74.105896528742264
  0
VERTEX
  8
0
  6
CONTINUOUS
 62
3
 10
262.554793073531470
 20
-75.971338995482228
  0
VERTEX
  8
0
  6
CONTINUOUS
 62
3
 10
261.478936945639360
 20
-78.244387217986414
  0
VERTEX
  8
0
  6
CONTINUOUS
 62
3
 10
260.679503722364870
 20
-80.837689227804091
  0
VERTEX
  8
0
  6
CONTINUOUS
 62
3
 10
260.187215174151280
 20
-83.651585883038521
  0
VERTEX
  8
0
  6
CONTINUOUS
 62
3
 10
260.020989673827670
 20
-86.577940713280441
  0
SEQEND
  8
0
  6
CONTINUOUS
 62
3
  0
LINE
  8
0
  6
CONTINUOUS
 62
3
 10
265.457102366037360
 20
-53.077940713055199
 11
251.234746061354600
 21
-53.077940713055199
  0
ARC
  8
0
  6
CONTINUOUS
 62
3
 10
251.234746061354600
 20
-58.077940713055199
 40
5.000000000000000
 50
90.000000000000000
 51
175.138594604201390
  0
ARC
  8
0
  6
CONTINUOUS
 62
3
 10
545.173515195336220
 20
-83.077940713055227
 40
300.000000000000170
 50
175.138594604201960
 51
184.861405395798040
  0
ARC
  8
0
  6
CONTINUOUS
 62
3
 10
251.234746061354600
 20
-108.077940713055190
 40
4.999999999999893
 50
184.861405395798610
 51
270.000000000000000
  0
LINE
  8
0
  6
CONTINUOUS
 62
3
 10
252.626470089464190
 20
-113.077940713055190
 11
251.234746061354600
 21
-113.077940713055190
  0
LINE
  8
0
  6
CONTINUOUS
 62
3
 10
245.183932042853940
 20
-80.577940713055199
 11
244.673515195336220
 21
-80.577940713055199
  0
LINE
  8
0
  6
CONTINUOUS
 62
3
 10
244.673515195336220
 20
-85.577940713055199
 11
244.673515195336220
 21
-80.577940713055199
  0
LINE
  8
0
  6
CONTINUOUS
 62
3
 10
245.183932042853940
 20
-85.577940713055199
 11
244.673515195336220
 21
-85.577940713055199
  0
LINE
  8
0
  6
CONTINUOUS
 62
4
 10
-274.292989923671710
 20
-47.379552165568143
 11
-280.180403795711190
 21
-41.492138293528242
  0
ARC
  8
0
  6
CONTINUOUS
 62
3
 10
287.295900027367450
 20
-38.247370650958111
 40
6.099999427795407
 50
84.601927898109011
 51
177.833749071307840
  0
LINE
  8
0
  6
CONTINUOUS
 62
3
 10
285.895271173386220
 20
-35.122516375085240
 11
288.356560199147220
 21
-32.661227349324221
  0
LINE
  8
0
  6
CONTINUOUS
 62
3
 10
284.564373215113960
 20
-35.887728773538363
 11
288.073717419237650
 21
-32.378384569414642
  0
LINE
  8
0
  6
CONTINUOUS
 62
3
 10
288.356560199147220
 20
-32.661227349324221
 11
287.869756807441600
 21
-32.174423957618600
  0
ARC
  8
0
  6
CONTINUOUS
 62
3
 10
376.957040151561160
 20
-38.247370650958118
 40
6.099999427795438
 50
2.166250928690779
 51
95.398072101890449
  0
LINE
  8
0
  6
CONTINUOUS
 62
3
 10
378.357669005542680
 20
-35.122516375085532
 11
375.896379979781390
 21
-32.661227349324221
  0
LINE
  8
0
  6
CONTINUOUS
 62
3
 10
379.688566963814990
 20
-35.887728773538690
 11
376.179222759690960
 21
-32.378384569414649
  0
LINE
  8
0
  6
CONTINUOUS
 62
3
 10
375.896379979781390
 20
-32.661227349324221
 11
376.383183371487010
 21
-32.174423957618600
  0
LINE
  8
0
  6
CONTINUOUS
 62
3
 10
285.895271173385590
 20
-35.122516375085574
 11
288.028698333545320
 21
-32.989089214925684
  0
LINE
  8
0
  6
CONTINUOUS
 62
3
 10
378.357669005543240
 20
-35.122516375085866
 11
376.224241845383290
 21
-32.989089214925684
  0
ARC
  8
0
  6
CONTINUOUS
 62
3
 10
332.126470089464310
 20
-429.677940713055360
 40
400.599999999999910
 50
84.256318189006564
 51
84.742085906222215
  0
ARC
  8
0
  6
CONTINUOUS
 62
3
 10
332.126470089464310
 20
-429.677940713055360
 40
400.600000000000080
 50
95.257914093777828
 51
95.743681810993436
  0
ARC
  8
0
  6
CONTINUOUS
 62
3
 10
292.695603089376960
 20
-37.655993970756867
 40
6.600000000000009
 50
95.743681810995099
 51
135.000000000002790
  0
ARC
  8
0
  6
CONTINUOUS
 62
3
 10
371.557337089551650
 20
-37.655993970756867
 40
6.600000000000278
 50
44.999999999997215
 51
84.256318189004901
  0
LINE
  8
0
  6
CONTINUOUS
 62
3
 10
-15.913696403908091
 20
63.422059286945228
 11
-15.913696403908091
 21
116.922059286945220
  0
LINE
  8
0
  6
CONTINUOUS
 62
3
 10
-144.413696403907860
 20
59.422059286945228
 11
-69.413696403907863
 21
59.422059286945228
  0
LINE
  8
0
  6
CONTINUOUS
 62
3
 10
-69.413696403907863
 20
59.422059286945228
 11
-69.413696403907863
 21
64.422059286945341
  0
LINE
  8
0
  6
CONTINUOUS
 62
3
 10
-70.413696403907863
 20
30.922059286945228
 11
-70.413696403907863
 21
59.422059286945228
  0
LINE
  8
0
  6
CONTINUOUS
 62
3
 10
-143.413696403907860
 20
30.922059286945228
 11
-143.413696403907860
 21
59.422059286945228
  0
ARC
  8
0
  6
CONTINUOUS
 62
3
 10
-142.413696403907860
 20
30.922059286945228
 40
1.000000000000000
 50
180.000000000000000
 51
270.000000000000000
  0
ARC
  8
0
  6
CONTINUOUS
 62
3
 10
-71.413696403907863
 20
30.922059286945228
 40
1.000000000000000
 50
270.000000000000000
 51
0.000000000000000
  0
LINE
  8
0
  6
CONTINUOUS
 62
3
 10
-15.913696403908091
 20
63.422059286945228
 11
-69.413696403907863
 21
63.422059286945228
  0
LINE
  8
0
  6
CONTINUOUS
 62
3
 10
-15.913696403908091
 20
170.422059286945230
 11
-15.913696403908091
 21
116.922059286945220
  0
LINE
  8
0
  6
CONTINUOUS
 62
3
 10
-77.413696403907863
 20
29.422059286945228
 11
-77.413696403907863
 21
29.922059286945228
  0
LINE
  8
0
  6
CONTINUOUS
 62
3
 10
-85.413696403907863
 20
29.422059286945228
 11
-77.413696403907863
 21
29.422059286945228
  0
LINE
  8
0
  6
CONTINUOUS
 62
3
 10
-85.413696403907863
 20
29.422059286945228
 11
-85.413696403907863
 21
29.922059286945228
  0
LINE
  8
0
  6
CONTINUOUS
 62
3
 10
-71.413696403907863
 20
29.922059286945228
 11
-142.413696403907860
 21
29.922059286945228
  0
LINE
  8
0
  6
CONTINUOUS
 62
3
 10
-136.413696403929240
 20
65.582362926136284
 11
-136.413696403929010
 21
116.922059286945220
  0
ARC
  8
0
  6
CONTINUOUS
 62
3
 10
-139.413696403929240
 20
65.582362926136284
 40
3.000000000000000
 50
270.000000000000000
 51
0.000000000000000
  0
LINE
  8
0
  6
CONTINUOUS
 62
3
 10
-143.413696403929240
 20
62.582362926136284
 11
-139.413696403929240
 21
62.582362926136284
  0
POLYLINE
  8
0
  6
CONTINUOUS
 62
3
 66
1
 70
1
  0
VERTEX
  8
0
  6
CONTINUOUS
 62
3
 10
-142.713696403929020
 20
69.594728332597697
  0
VERTEX
  8
0
  6
CONTINUOUS
 62
3
 10
-142.804005586033840
 20
70.297685298798058
  0
VERTEX
  8
0
  6
CONTINUOUS
 62
3
 10
-143.071462601125970
 20
70.973628023010150
  0
VERTEX
  8
0
  6
CONTINUOUS
 62
3
 10
-143.505789226107050
 20
71.596580405415551
  0
VERTEX
  8
0
  6
CONTINUOUS
 62
3
 10
-144.090294532352230
 20
72.142602735314128
  0
VERTEX
  8
0
  6
CONTINUOUS
 62
3
 10
-144.802516308736900
 20
72.590711680780743
  0
VERTEX
  8
0
  6
CONTINUOUS
 62
3
 10
-145.615084271813090
 20
72.923686666343514
  0
VERTEX
  8
0
  6
CONTINUOUS
 62
3
 10
-146.496771890453200
 20
73.128731650041757
  0
VERTEX
  8
0
  6
CONTINUOUS
 62
3
 10
-147.413696403929010
 20
73.197966868142530
  0
VERTEX
  8
0
  6
CONTINUOUS
 62
3
 10
-148.330620917404810
 20
73.128731650041757
  0
VERTEX
  8
0
  6
CONTINUOUS
 62
3
 10
-149.212308536044930
 20
72.923686666343514
  0
VERTEX
  8
0
  6
CONTINUOUS
 62
3
 10
-150.024876499121120
 20
72.590711680780743
  0
VERTEX
  8
0
  6
CONTINUOUS
 62
3
 10
-150.737098275505790
 20
72.142602735314128
  0
VERTEX
  8
0
  6
CONTINUOUS
 62
3
 10
-151.321603581750960
 20
71.596580405415551
  0
VERTEX
  8
0
  6
CONTINUOUS
 62
3
 10
-151.755930206732050
 20
70.973628023010150
  0
VERTEX
  8
0
  6
CONTINUOUS
 62
3
 10
-152.023387221824180
 20
70.297685298798058
  0
VERTEX
  8
0
  6
CONTINUOUS
 62
3
 10
-152.113696403929000
 20
69.594728332597697
  0
VERTEX
  8
0
  6
CONTINUOUS
 62
3
 10
-152.023387221824180
 20
68.891771366397336
  0
VERTEX
  8
0
  6
CONTINUOUS
 62
3
 10
-151.755930206732050
 20
68.215828642185244
  0
VERTEX
  8
0
  6
CONTINUOUS
 62
3
 10
-151.321603581750960
 20
67.592876259779842
  0
VERTEX
  8
0
  6
CONTINUOUS
 62
3
 10
-150.737098275505760
 20
67.046853929881266
  0
VERTEX
  8
0
  6
CONTINUOUS
 62
3
 10
-150.024876499121120
 20
66.598744984414651
  0
VERTEX
  8
0
  6
CONTINUOUS
 62
3
 10
-149.212308536044930
 20
66.265769998851880
  0
VERTEX
  8
0
  6
CONTINUOUS
 62
3
 10
-148.330620917404810
 20
66.060725015153636
  0
VERTEX
  8
0
  6
CONTINUOUS
 62
3
 10
-147.413696403929010
 20
65.991489797052864
  0
VERTEX
  8
0
  6
CONTINUOUS
 62
3
 10
-146.496771890453200
 20
66.060725015153636
  0
VERTEX
  8
0
  6
CONTINUOUS
 62
3
 10
-145.615084271813090
 20
66.265769998851880
  0
VERTEX
  8
0
  6
CONTINUOUS
 62
3
 10
-144.802516308736900
 20
66.598744984414651
  0
VERTEX
  8
0
  6
CONTINUOUS
 62
3
 10
-144.090294532352260
 20
67.046853929881266
  0
VERTEX
  8
0
  6
CONTINUOUS
 62
3
 10
-143.505789226107050
 20
67.592876259779842
  0
VERTEX
  8
0
  6
CONTINUOUS
 62
3
 10
-143.071462601125970
 20
68.215828642185244
  0
VERTEX
  8
0
  6
CONTINUOUS
 62
3
 10
-142.804005586033840
 20
68.891771366397336
  0
SEQEND
  8
0
  6
CONTINUOUS
 62
3
  0
LINE
  8
0
  6
CONTINUOUS
 62
3
 10
-149.413696403929240
 20
66.602352778597265
 11
-147.413696403929240
 21
67.778138264220161
  0
LINE
  8
0
  6
CONTINUOUS
 62
3
 10
-147.413696403929240
 20
67.778138264220161
 11
-145.413696403929240
 21
69.430779903343478
  0
LINE
  8
0
  6
CONTINUOUS
 62
3
 10
-145.413696403929240
 20
66.602352778597265
 11
-147.413696403929240
 21
67.778138264220161
  0
LINE
  8
0
  6
CONTINUOUS
 62
3
 10
-147.413696403929240
 20
67.778138264220161
 11
-149.413696403929240
 21
69.430779903343478
  0
ARC
  8
0
  6
CONTINUOUS
 62
3
 10
-143.413696403929240
 20
59.582362926136284
 40
3.000000000000000
 50
90.000000000000000
 51
180.000000000000000
  0
LINE
  8
0
  6
CONTINUOUS
 62
3
 10
-146.413696403929240
 20
57.922059286945228
 11
-146.413696403929240
 21
59.582362926136284
  0
LINE
  8
0
  6
CONTINUOUS
 62
3
 10
-136.413696403929240
 20
175.922059286945230
 11
-136.413696403929010
 21
116.922059286945220
  0
POLYLINE
  8
0
  6
CONTINUOUS
 62
3
 66
1
 70
1
  0
VERTEX
  8
0
  6
CONTINUOUS
 62
3
 10
-142.713696403929020
 20
164.249390241292760
  0
VERTEX
  8
0
  6
CONTINUOUS
 62
3
 10
-142.804005586033840
 20
164.952347207493120
  0
VERTEX
  8
0
  6
CONTINUOUS
 62
3
 10
-143.071462601125970
 20
165.628289931705210
  0
VERTEX
  8
0
  6
CONTINUOUS
 62
3
 10
-143.505789226107050
 20
166.251242314110610
  0
VERTEX
  8
0
  6
CONTINUOUS
 62
3
 10
-144.090294532352230
 20
166.797264644009200
  0
VERTEX
  8
0
  6
CONTINUOUS
 62
3
 10
-144.802516308736900
 20
167.245373589475830
  0
VERTEX
  8
0
  6
CONTINUOUS
 62
3
 10
-145.615084271813090
 20
167.578348575038580
  0
VERTEX
  8
0
  6
CONTINUOUS
 62
3
 10
-146.496771890453200
 20
167.783393558736830
  0
VERTEX
  8
0
  6
CONTINUOUS
 62
3
 10
-147.413696403929010
 20
167.852628776837610
  0
VERTEX
  8
0
  6
CONTINUOUS
 62
3
 10
-148.330620917404810
 20
167.783393558736830
  0
VERTEX
  8
0
  6
CONTINUOUS
 62
3
 10
-149.212308536044930
 20
167.578348575038580
  0
VERTEX
  8
0
  6
CONTINUOUS
 62
3
 10
-150.024876499121120
 20
167.245373589475830
  0
VERTEX
  8
0
  6
CONTINUOUS
 62
3
 10
-150.737098275505790
 20
166.797264644009200
  0
VERTEX
  8
0
  6
CONTINUOUS
 62
3
 10
-151.321603581750960
 20
166.251242314110610
  0
VERTEX
  8
0
  6
CONTINUOUS
 62
3
 10
-151.755930206732050
 20
165.628289931705210
  0
VERTEX
  8
0
  6
CONTINUOUS
 62
3
 10
-152.023387221824180
 20
164.952347207493120
  0
VERTEX
  8
0
  6
CONTINUOUS
 62
3
 10
-152.113696403929000
 20
164.249390241292760
  0
VERTEX
  8
0
  6
CONTINUOUS
 62
3
 10
-152.023387221824180
 20
163.546433275092400
  0
VERTEX
  8
0
  6
CONTINUOUS
 62
3
 10
-151.755930206732050
 20
162.870490550880310
  0
VERTEX
  8
0
  6
CONTINUOUS
 62
3
 10
-151.321603581750960
 20
162.247538168474900
  0
VERTEX
  8
0
  6
CONTINUOUS
 62
3
 10
-150.737098275505760
 20
161.701515838576310
  0
VERTEX
  8
0
  6
CONTINUOUS
 62
3
 10
-150.024876499121120
 20
161.253406893109680
  0
VERTEX
  8
0
  6
CONTINUOUS
 62
3
 10
-149.212308536044930
 20
160.920431907546940
  0
VERTEX
  8
0
  6
CONTINUOUS
 62
3
 10
-148.330620917404810
 20
160.715386923848680
  0
VERTEX
  8
0
  6
CONTINUOUS
 62
3
 10
-147.413696403929010
 20
160.646151705747910
  0
VERTEX
  8
0
  6
CONTINUOUS
 62
3
 10
-146.496771890453200
 20
160.715386923848680
  0
VERTEX
  8
0
  6
CONTINUOUS
 62
3
 10
-145.615084271813090
 20
160.920431907546940
  0
VERTEX
  8
0
  6
CONTINUOUS
 62
3
 10
-144.802516308736900
 20
161.253406893109680
  0
VERTEX
  8
0
  6
CONTINUOUS
 62
3
 10
-144.090294532352260
 20
161.701515838576310
  0
VERTEX
  8
0
  6
CONTINUOUS
 62
3
 10
-143.505789226107050
 20
162.247538168474900
  0
VERTEX
  8
0
  6
CONTINUOUS
 62
3
 10
-143.071462601125970
 20
162.870490550880310
  0
VERTEX
  8
0
  6
CONTINUOUS
 62
3
 10
-142.804005586033840
 20
163.546433275092400
  0
SEQEND
  8
0
  6
CONTINUOUS
 62
3
  0
LINE
  8
0
  6
CONTINUOUS
 62
3
 10
-149.413696403929240
 20
167.241765795293190
 11
-147.413696403929240
 21
166.065980309670410
  0
LINE
  8
0
  6
CONTINUOUS
 62
3
 10
-147.413696403929240
 20
166.065980309670410
 11
-145.413696403929240
 21
164.413338670546980
  0
LINE
  8
0
  6
CONTINUOUS
 62
3
 10
-145.413696403929240
 20
167.241765795293190
 11
-147.413696403929240
 21
166.065980309670410
  0
LINE
  8
0
  6
CONTINUOUS
 62
3
 10
-147.413696403929240
 20
166.065980309670410
 11
-149.413696403929240
 21
164.413338670546980
  0
LINE
  8
0
  6
CONTINUOUS
 62
3
 10
-15.913696403908091
 20
170.422059286945230
 11
-136.413696403929010
 21
170.422059286945230
  0
LINE
  8
0
  6
CONTINUOUS
 62
4
 10
-136.413696403929010
 20
167.922059286945230
 11
-15.913696403908091
 21
167.922059286945230
  0
LINE
  8
0
  6
CONTINUOUS
 62
4
 10
-136.413696403929010
 20
167.422059286945230
 11
-15.913696403908091
 21
167.422059286945230
  0
LINE
  8
0
  6
CONTINUOUS
 62
4
 10
-136.413696403929010
 20
163.055141881827920
 11
-15.913696403908091
 21
163.055141881827920
  0
LINE
  8
0
  6
CONTINUOUS
 62
4
 10
-136.413696403929010
 20
157.963973057284990
 11
-15.913696403908091
 21
157.963973057284990
  0
LINE
  8
0
  6
CONTINUOUS
 62
4
 10
-136.413696403929010
 20
150.225660238454000
 11
-15.913696403908091
 21
150.225660238454000
  0
LINE
  8
0
  6
CONTINUOUS
 62
4
 10
-136.413696403929010
 20
148.636450445715240
 11
-15.913696403908091
 21
148.636450445715240
  0
LINE
  8
0
  6
CONTINUOUS
 62
4
 10
-136.413696403929010
 20
145.678454837582310
 11
-15.913696403908091
 21
145.678454837582310
  0
LINE
  8
0
  6
CONTINUOUS
 62
4
 10
-136.413696403929010
 20
144.199431684105320
 11
-15.913696403908091
 21
144.199431684105320
  0
LINE
  8
0
  6
CONTINUOUS
 62
4
 10
-136.413696403929010
 20
141.106700692439970
 11
-15.913696403908091
 21
141.106700692439970
  0
LINE
  8
0
  6
CONTINUOUS
 62
4
 10
-136.413696403929010
 20
139.760298966941380
 11
-15.913696403908091
 21
139.760298966941380
  0
LINE
  8
0
  6
CONTINUOUS
 62
4
 10
-136.413696403929010
 20
136.550093943583080
 11
-15.913696403908091
 21
136.550093943583080
  0
LINE
  8
0
  6
CONTINUOUS
 62
4
 10
-136.413696403929010
 20
135.308174078695170
 11
-15.913696403908091
 21
135.308174078695170
  0
LINE
  8
0
  6
CONTINUOUS
 62
4
 10
-136.413696403929010
 20
130.922059286945230
 11
-15.913696403908091
 21
130.922059286945230
  0
LINE
  8
0
  6
CONTINUOUS
 62
4
 10
-136.413696403928780
 20
102.922059286945220
 11
-15.913696403908091
 21
102.922059286945220
  0
LINE
  8
0
  6
CONTINUOUS
 62
4
 10
-136.413696403928780
 20
98.535944495195281
 11
-15.913696403908091
 21
98.535944495195281
  0
LINE
  8
0
  6
CONTINUOUS
 62
4
 10
-136.413696403928780
 20
97.294024630307376
 11
-15.913696403908091
 21
97.294024630307376
  0
LINE
  8
0
  6
CONTINUOUS
 62
4
 10
-136.413696403928780
 20
94.083819606949078
 11
-15.913696403908091
 21
94.083819606949078
  0
LINE
  8
0
  6
CONTINUOUS
 62
4
 10
-136.413696403928780
 20
92.737417881450483
 11
-15.913696403908091
 21
92.737417881450483
  0
LINE
  8
0
  6
CONTINUOUS
 62
4
 10
-136.413696403928780
 20
89.644686889785248
 11
-15.913696403908091
 21
89.644686889785248
  0
LINE
  8
0
  6
CONTINUOUS
 62
4
 10
-136.413696403928780
 20
88.165663736308147
 11
-15.913696403908091
 21
88.165663736308147
  0
LINE
  8
0
  6
CONTINUOUS
 62
4
 10
-136.413696403928780
 20
83.618458335436571
 11
-15.913696403908091
 21
83.618458335436571
  0
LINE
  8
0
  6
CONTINUOUS
 62
4
 10
-136.413696403928780
 20
85.207668128175214
 11
-15.913696403908091
 21
85.207668128175214
  0
LINE
  8
0
  6
CONTINUOUS
 62
4
 10
-136.413696403928780
 20
75.880145516605467
 11
-15.913696403908091
 21
75.880145516605467
  0
LINE
  8
0
  6
CONTINUOUS
 62
4
 10
-136.413696403928780
 20
70.788976692062533
 11
-15.913696403908091
 21
70.788976692062647
  0
LINE
  8
0
  6
CONTINUOUS
 62
4
 10
-136.413696403928780
 20
66.422059286945228
 11
-15.913696403908091
 21
66.422059286945228
  0
LINE
  8
0
  6
CONTINUOUS
 62
4
 10
-136.413696403928780
 20
65.922059286945228
 11
-15.913696403908091
 21
65.922059286945228
  0
LINE
  8
0
  6
CONTINUOUS
 62
3
 10
-69.413696403907863
 20
64.422059286945341
 11
-136.647165098326520
 21
64.422059286945341
  0
LINE
  8
0
  6
CONTINUOUS
 62
3
 10
-144.413696403907860
 20
59.422059286945228
 11
-144.413696403907860
 21
62.410790050889887
  0
LINE
  8
0
  6
CONTINUOUS
 62
3
 10
-146.413696403929240
 20
57.922059286945228
 11
-165.918541353022020
 21
57.922059286945228
  0
LINE
  8
0
  6
CONTINUOUS
 62
3
 10
-136.413696403929240
 20
175.922059286945230
 11
-165.918541353022020
 21
175.922059286945230
  0
ARC
  8
0
  6
CONTINUOUS
 62
3
 10
-165.918541353022020
 20
78.522059286945250
 40
20.599999999999891
 50
235.000000000000400
 51
270.000000000000000
  0
ARC
  8
0
  6
CONTINUOUS
 62
3
 10
-183.813696403929330
 20
69.078439153315912
 40
2.600000000000136
 50
180.000000000000000
 51
234.999999999997390
  0
LINE
  8
0
  6
CONTINUOUS
 62
3
 10
-177.734215941853390
 20
61.647527174592028
 11
-185.304995138442170
 21
66.948643838164571
  0
LINE
  8
0
  6
CONTINUOUS
 62
3
 10
-186.413696403929460
 20
69.078439153315912
 11
-186.413696403929460
 21
116.922059286945220
  0
ARC
  8
0
  6
CONTINUOUS
 62
3
 10
-165.918541353022020
 20
155.322059286945200
 40
20.600000000000023
 50
90.000000000000000
 51
124.999999999999600
  0
ARC
  8
0
  6
CONTINUOUS
 62
3
 10
-183.813696403929330
 20
164.765679420574540
 40
2.600000000000131
 50
125.000000000001180
 51
180.000000000000000
  0
LINE
  8
0
  6
CONTINUOUS
 62
3
 10
-177.734215941853390
 20
172.196591399298540
 11
-185.304995138442170
 21
166.895474735725880
  0
LINE
  8
0
  6
CONTINUOUS
 62
3
 10
-186.413696403929460
 20
164.765679420574540
 11
-186.413696403929240
 21
116.922059286945220
  0
ARC
  8
0
  6
CONTINUOUS
 62
3
 10
-333.417689078289530
 20
-91.851089557812855
 40
64.999999999999901
 50
92.158403465040337
 51
109.980621488144640
  0
ARC
  8
0
  6
CONTINUOUS
 62
3
 10
-333.417689078289530
 20
-91.851089557812955
 40
65.000000000000028
 50
124.153073592938560
 51
180.000000000000000
  0
ARC
  8
0
  6
CONTINUOUS
 62
3
 10
-304.417689078289530
 20
-91.851089557812841
 40
65.000000000000000
 50
70.019378511855351
 51
87.841596534959663
  0
ARC
  8
0
  6
CONTINUOUS
 62
3
 10
-304.417689078289530
 20
-91.851089557812955
 40
65.000000000000014
 50
70.019378511855777
 51
87.841596534959464
  0
TEXT
  8
0
  6
CONTINUOUS
 62
3
 10
-343.530792236328120
 20
128.976104736328120
 40
10.000000000000000
  1
S036
 50
0.000002504478167
 41
0.470000016689301
  7
STANDARD1
  0
TEXT
  8
0
  6
CONTINUOUS
 62
3
 10
-343.530792236328120
 20
117.676101684570310
 40
10.000000000000000
  1
三菱ギヤードモートル
 50
0.000002504478167
 41
0.625000000000000
  7
STANDARD1
  0
TEXT
  8
0
  6
CONTINUOUS
 62
3
 10
-343.530792236328120
 20
106.376106262207030
 40
10.000000000000000
  1
GM-SS
 50
0.000002504478167
 41
0.470000016689301
  7
STANDARD1
  0
TEXT
  8
0
  6
CONTINUOUS
 62
3
 10
-343.530792236328120
 20
95.076103210449219
 40
10.000000000000000
  1
0.1kW
 50
0.000002504478167
 41
0.470000016689301
  7
STANDARD1
  0
TEXT
  8
0
  6
CONTINUOUS
 62
3
 10
-343.530792236328120
 20
83.776107788085938
 40
10.000000000000000
  1
1/270-1/450
 50
0.000002504478167
 41
0.470000016689301
  7
STANDARD1
  0
TEXT
  8
0
  6
CONTINUOUS
 62
3
 10
-343.530792236328120
 20
72.476104736328125
 40
10.000000000000000
  1
SCALE1/1
 50
0.000002504478167
 41
0.470000016689301
  7
STANDARD1
  0
LINE
  8
0
  6
CONTINUOUS
 62
3
 10
137.086303596082190
 20
171.922059286945230
 11
146.621208408956820
 21
171.755626904351740
  0
ARC
  8
0
  6
CONTINUOUS
 62
3
 10
137.086303596082190
 20
186.922059286945230
 40
15.000000000000197
 50
181.000000000000000
 51
270.000000000000000
  0
LINE
  8
0
  6
DASHDOT
 62
4
 10
137.086303596082190
 20
175.922059286945230
 11
137.086303596082190
 21
197.922059286945230
  0
CIRCLE
  8
0
  6
CONTINUOUS
 62
3
 10
137.086303596082190
 20
186.922059286945230
 40
6.000000000000000
  0
LINE
  8
0
  6
CONTINUOUS
 62
3
 10
148.586303596082190
 20
169.755931514038930
 11
148.586303596082190
 21
116.922059286945220
  0
LINE
  8
0
  6
CONTINUOUS
 62
3
 10
150.586303596082190
 20
197.456664760713580
 11
150.586303596082190
 21
116.922059286945220
  0
ARC
  8
0
  6
CONTINUOUS
 62
3
 10
149.586303596082190
 20
145.422059286945230
 40
1.000000000000000
 50
180.000000000000000
 51
270.000000000000000
  0
ARC
  8
0
  6
CONTINUOUS
 62
3
 10
149.586303596082190
 20
143.422059286945230
 40
1.000000000000000
 50
0.000000000000000
 51
90.000000000000000
  0
LINE
  8
0
  6
DASHDOT
 62
4
 10
-201.748750511142130
 20
116.922059286945220
 11
208.927186129481300
 21
116.922059286945220
  0
LINE
  8
0
  6
CONTINUOUS
 62
3
 10
148.586303596082190
 20
64.088187059851521
 11
148.586303596082190
 21
116.922059286945220
  0
LINE
  8
0
  6
CONTINUOUS
 62
3
 10
150.586303596082190
 20
36.387453813176876
 11
150.586303596082190
 21
116.922059286945220
  0
ARC
  8
0
  6
CONTINUOUS
 62
3
 10
149.586303596082190
 20
88.422059286945228
 40
1.000000000000000
 50
90.000000000000000
 51
180.000000000000000
  0
ARC
  8
0
  6
CONTINUOUS
 62
3
 10
149.586303596082190
 20
90.422059286945228
 40
1.000000000000000
 50
270.000000000000000
 51
0.000000000000000
  0
ARC
  8
0
  6
CONTINUOUS
 62
3
 10
146.586303596082190
 20
169.755931514038930
 40
2.000000000000000
 50
0.000000000000000
 51
88.999999999998238
  0
ARC
  8
0
  6
CONTINUOUS
 62
3
 10
194.186303596082150
 20
103.322059286944860
 40
0.399999999999636
 50
270.000000000000000
 51
0.000000000000000
  0
LINE
  8
0
  6
CONTINUOUS
 62
3
 10
194.186303596082150
 20
102.922059286945220
 11
155.146111217217140
 21
102.922059286945220
  0
LINE
  8
0
  6
CONTINUOUS
 62
3
 10
194.586303596082250
 20
103.322059286944860
 11
194.586303596082250
 21
116.922059286945220
  0
LINE
  8
0
  6
CONTINUOUS
 62
3
 10
194.586303596082250
 20
99.922059286945228
 11
158.586303596082190
 21
99.922059286945228
  0
LINE
  8
0
  6
CONTINUOUS
 62
3
 10
194.586303596082250
 20
99.922059286945228
 11
194.586303596082250
 21
103.322059286944860
  0
ARC
  8
0
  6
CONTINUOUS
 62
3
 10
194.186303596082150
 20
130.522059286945590
 40
0.400000000000091
 50
0.000000000000000
 51
90.000000000000000
  0
LINE
  8
0
  6
CONTINUOUS
 62
3
 10
194.186303596082150
 20
130.922059286945230
 11
155.146111217217140
 21
130.922059286945230
  0
LINE
  8
0
  6
CONTINUOUS
 62
3
 10
194.586303596082250
 20
130.522059286945590
 11
194.586303596082250
 21
116.922059286945220
  0
LINE
  8
0
  6
CONTINUOUS
 62
3
 10
158.586303596082190
 20
99.922059286945228
 11
158.586303596082190
 21
102.922059286945220
  0
LINE
  8
0
  6
CONTINUOUS
 62
3
 10
154.586303596082190
 20
130.772059286945590
 11
152.986303596081830
 21
130.772059286945590
  0
LINE
  8
0
  6
CONTINUOUS
 62
3
 10
155.146111217217140
 20
130.922059286945230
 11
154.586303596082190
 21
130.772059286945590
  0
ARC
  8
0
  6
CONTINUOUS
 62
3
 10
152.986303596081830
 20
131.172059286945230
 40
0.399999999999636
 50
180.000000000000000
 51
270.000000000000000
  0
LINE
  8
0
  6
CONTINUOUS
 62
3
 10
152.586303596082190
 20
131.222059286945410
 11
152.386303596081920
 21
131.422059286945230
  0
LINE
  8
0
  6
CONTINUOUS
 62
3
 10
152.586303596082190
 20
116.922059286945220
 11
152.586303596082190
 21
131.222059286945410
  0
LINE
  8
0
  6
CONTINUOUS
 62
3
 10
152.386303596081920
 20
131.422059286945230
 11
150.586303596082190
 21
131.422059286945230
  0
LINE
  8
0
  6
CONTINUOUS
 62
3
 10
154.586303596082190
 20
103.072059286944860
 11
152.986303596081830
 21
103.072059286944860
  0
LINE
  8
0
  6
CONTINUOUS
 62
3
 10
155.146111217217140
 20
102.922059286945220
 11
154.586303596082190
 21
103.072059286944860
  0
ARC
  8
0
  6
CONTINUOUS
 62
3
 10
152.986303596081830
 20
102.672059286945220
 40
0.399999999999636
 50
90.000000000000000
 51
180.000000000000000
  0
LINE
  8
0
  6
CONTINUOUS
 62
3
 10
152.586303596082190
 20
102.622059286945040
 11
152.386303596081920
 21
102.422059286945220
  0
LINE
  8
0
  6
CONTINUOUS
 62
3
 10
152.586303596082190
 20
116.922059286945220
 11
152.586303596082190
 21
102.622059286945040
  0
LINE
  8
0
  6
CONTINUOUS
 62
3
 10
152.386303596081920
 20
102.422059286945220
 11
150.586303596082190
 21
102.422059286945220
  0
LINE
  8
0
  6
CONTINUOUS
 62
3
 10
15.520561108733318
 20
34.358443458583793
 11
61.086303596082189
 21
32.859830975870068
  0
ARC
  8
0
  6
CONTINUOUS
 62
3
 10
97.951897177657656
 20
103.110362069240290
 40
65.000000000000426
 50
271.000000000000970
 51
290.519052046226990
  0
LINE
  8
0
  6
CONTINUOUS
 62
3
 10
137.086303596082190
 20
61.922059286945228
 11
146.621208408956820
 21
62.088491669538712
  0
ARC
  8
0
  6
CONTINUOUS
 62
3
 10
137.086303596082190
 20
46.922059286945228
 40
15.000000000000000
 50
90.000000000000000
 51
178.999999999999970
  0
LINE
  8
0
  6
CONTINUOUS
 62
3
 10
59.086303596082189
 20
37.422059286945228
 11
99.086303596082189
 21
38.120261884074466
  0
LINE
  8
0
  6
CONTINUOUS
 62
3
 10
61.086303596082189
 20
32.859830975870068
 11
148.621208408956820
 21
34.387758422864067
  0
LINE
  8
0
  6
DASHDOT
 62
4
 10
137.086303596082190
 20
57.922059286945228
 11
137.086303596082190
 21
35.922059286945228
  0
LINE
  8
0
  6
DASHDOT
 62
4
 10
148.086303596082190
 20
46.922059286945228
 11
126.086303596082180
 21
46.922059286945228
  0
CIRCLE
  8
0
  6
CONTINUOUS
 62
3
 10
137.086303596082190
 20
46.922059286945228
 40
6.000000000000000
  0
LINE
  8
0
  6
DASHDOT
 62
4
 10
38.086303596082189
 20
46.922059286945228
 11
16.086303596082189
 21
46.922059286945228
  0
ARC
  8
0
  6
CONTINUOUS
 62
3
 10
148.586303596082190
 20
36.387453813176876
 40
2.000000000000027
 50
271.000000000001760
 51
0.000000000000000
  0
ARC
  8
0
  6
CONTINUOUS
 62
3
 10
15.586303596082189
 20
36.357362647884770
 40
2.000000000000000
 50
180.000000000000000
 51
268.116277133244010
  0
ARC
  8
0
  6
CONTINUOUS
 62
3
 10
146.586303596082190
 20
64.088187059851521
 40
2.000000000000027
 50
271.000000000001760
 51
0.000000000000000
  0
LINE
  8
0
  6
CONTINUOUS
 62
3
 10
59.086303596082189
 20
196.430786819409260
 11
59.086303596082189
 21
116.985567613841450
  0
LINE
  8
0
  6
CONTINUOUS
 62
3
 10
59.086303596082189
 20
37.413331754481192
 11
59.086303596082189
 21
116.858550960049000
  0
ARC
  8
0
  6
CONTINUOUS
 62
3
 10
120.034583153003260
 20
44.107353839876964
 40
1.999999999999985
 50
290.519052046231990
 51
358.999999999998240
  0
LINE
  8
0
  6
CONTINUOUS
 62
3
 10
122.088588168736120
 20
47.183845383504490
 11
122.034278543316070
 21
44.072449027002335
  0
LINE
  8
0
  6
CONTINUOUS
 62
3
 10
15.520561108733318
 20
199.485675115306660
 11
61.086303596082189
 21
200.984287598020390
  0
ARC
  8
0
  6
CONTINUOUS
 62
3
 10
97.951897177657656
 20
130.733756504650160
 40
65.000000000000327
 50
69.480947953772983
 51
88.999999999999034
  0
LINE
  8
0
  6
CONTINUOUS
 62
3
 10
59.086303596082189
 20
196.422059286945230
 11
99.086303596082189
 21
195.723856689815990
  0
LINE
  8
0
  6
CONTINUOUS
 62
3
 10
61.086303596082189
 20
200.984287598020390
 11
148.621208408956820
 21
199.456360151026390
  0
LINE
  8
0
  6
DASHDOT
 62
4
 10
148.086303596082190
 20
186.922059286945230
 11
126.086303596082180
 21
186.922059286945230
  0
ARC
  8
0
  6
CONTINUOUS
 62
3
 10
15.586303596082189
 20
197.486755926005690
 40
1.999999999999623
 50
91.883722866755974
 51
180.000000000000000
  0
ARC
  8
0
  6
CONTINUOUS
 62
3
 10
148.586303596082190
 20
197.456664760713580
 40
2.000000000000000
 50
0.000000000000000
 51
88.999999999998238
  0
LINE
  8
0
  6
CONTINUOUS
 62
3
 10
122.088588168736120
 20
186.660273190385960
 11
122.034278543316070
 21
189.771669546888120
  0
ARC
  8
0
  6
CONTINUOUS
 62
3
 10
120.034583153003260
 20
189.736764734013490
 40
2.000000000000027
 50
1.000000000001762
 51
69.480947953768009
  0
ARC
  8
0
  6
CONTINUOUS
 62
3
 10
39.586303596078551
 20
52.655284757352206
 40
5.000000000000000
 50
0.000000000000000
 51
86.999999999993889
  0
LINE
  8
0
  6
CONTINUOUS
 62
3
 10
44.586303596078551
 20
52.655284757352206
 11
44.586303596078551
 21
39.422059286945228
  0
ARC
  8
0
  6
CONTINUOUS
 62
3
 10
49.586303596079460
 20
39.422059286945228
 40
2.000000000000000
 50
180.000000000000000
 51
270.000000000000000
  0
LINE
  8
0
  6
CONTINUOUS
 62
3
 10
58.586303596082189
 20
37.422059286945228
 11
46.586303596078551
 21
37.422059286945228
  0
ARC
  8
0
  6
CONTINUOUS
 62
3
 10
46.586303596078551
 20
39.422059286945228
 40
2.000000000000000
 50
180.000000000000000
 51
270.000000000000000
  0
LINE
  8
0
  6
CONTINUOUS
 62
3
 10
58.586303596082189
 20
37.422059286945228
 11
58.586303596082189
 21
116.922059286944310
  0
LINE
  8
0
  6
CONTINUOUS
 62
3
 10
47.586303596078551
 20
69.922059286944318
 11
47.586303596079460
 21
39.422059286945228
  0
LINE
  8
0
  6
CONTINUOUS
 62
3
 10
47.586303596076732
 20
116.922059286945220
 11
47.586303596076732
 21
79.922059286944318
  0
ARC
  8
0
  6
CONTINUOUS
 62
3
 10
51.586303596078551
 20
68.922059286945228
 40
1.000000000000000
 50
270.000000000000000
 51
0.000000000000000
  0
LINE
  8
0
  6
CONTINUOUS
 62
3
 10
52.586303596078551
 20
80.922059286943409
 11
52.586303596078551
 21
68.922059286945228
  0
LINE
  8
0
  6
CONTINUOUS
 62
3
 10
48.586303596078551
 20
67.922059286945228
 11
51.586303596078551
 21
67.922059286945228
  0
ARC
  8
0
  6
CONTINUOUS
 62
3
 10
51.586303596078551
 20
80.922059286943409
 40
1.000000000000000
 50
0.000000000000000
 51
90.000000000000000
  0
LINE
  8
0
  6
CONTINUOUS
 62
3
 10
48.586303596078551
 20
81.922059286943409
 11
51.586303596078551
 21
81.922059286943409
  0
ARC
  8
0
  6
CONTINUOUS
 62
3
 10
48.586303596078551
 20
82.922059286943409
 40
1.000000000000000
 50
180.000000000000000
 51
270.000000000000000
  0
LINE
  8
0
  6
CONTINUOUS
 62
3
 10
48.586290652461912
 20
79.922059286945228
 11
48.586289195611471
 21
79.922059286945228
  0
ARC
  8
0
  6
CONTINUOUS
 62
3
 10
48.586303596078551
 20
66.922059286945228
 40
1.000000000000000
 50
90.000000000000000
 51
180.000000000000000
  0
INSERT
  8
0
  2
SYM3
 10
52.586303596078551
 20
74.922059286944318
 41
-1.000000000000000
 50
179.999999999999970
  0
ARC
  8
0
  6
CONTINUOUS
 62
3
 10
42.586303596077641
 20
52.498061419502960
 40
5.000000000000000
 50
0.000000000000000
 51
86.999999999993889
  0
LINE
  8
0
  6
CONTINUOUS
 62
3
 10
48.586290652461003
 20
79.922059286946137
 11
48.586289195610561
 21
79.922059286946137
  0
ARC
  8
0
  6
CONTINUOUS
 62
3
 10
39.586303596078551
 20
181.188833816538250
 40
4.999999999999158
 50
273.000000000006140
 51
0.000000000000000
  0
LINE
  8
0
  6
CONTINUOUS
 62
3
 10
44.586303596078551
 20
181.188833816538250
 11
44.586303596078551
 21
194.422059286945230
  0
ARC
  8
0
  6
CONTINUOUS
 62
3
 10
49.586303596079460
 20
194.422059286945230
 40
2.000000000000000
 50
90.000000000000000
 51
180.000000000000000
  0
LINE
  8
0
  6
CONTINUOUS
 62
3
 10
58.586303596082189
 20
196.422059286945230
 11
46.586303596078551
 21
196.422059286945230
  0
ARC
  8
0
  6
CONTINUOUS
 62
3
 10
46.586303596078551
 20
194.422059286945230
 40
2.000000000000000
 50
90.000000000000000
 51
180.000000000000000
  0
LINE
  8
0
  6
CONTINUOUS
 62
3
 10
58.586303596082189
 20
196.422059286945230
 11
58.586303596082189
 21
116.922059286946130
  0
LINE
  8
0
  6
CONTINUOUS
 62
3
 10
47.586303596078551
 20
163.922059286946140
 11
47.586303596079460
 21
194.422059286945230
  0
LINE
  8
0
  6
CONTINUOUS
 62
3
 10
47.586303596076732
 20
116.922059286945220
 11
47.586303596076732
 21
153.922059286946140
  0
ARC
  8
0
  6
CONTINUOUS
 62
3
 10
51.586303596078551
 20
164.922059286945230
 40
1.000000000000000
 50
0.000000000000000
 51
90.000000000000000
  0
LINE
  8
0
  6
CONTINUOUS
 62
3
 10
52.586303596078551
 20
152.922059286947050
 11
52.586303596078551
 21
164.922059286945230
  0
LINE
  8
0
  6
CONTINUOUS
 62
3
 10
48.586303596078551
 20
165.922059286945230
 11
51.586303596078551
 21
165.922059286945230
  0
ARC
  8
0
  6
CONTINUOUS
 62
3
 10
51.586303596078551
 20
152.922059286947050
 40
1.000000000000000
 50
270.000000000000000
 51
0.000000000000000
  0
LINE
  8
0
  6
CONTINUOUS
 62
3
 10
48.586303596078551
 20
151.922059286947050
 11
51.586303596078551
 21
151.922059286947050
  0
ARC
  8
0
  6
CONTINUOUS
 62
3
 10
48.586303596078551
 20
150.922059286947050
 40
1.000000000000000
 50
90.000000000000000
 51
180.000000000000000
  0
LINE
  8
0
  6
CONTINUOUS
 62
3
 10
48.586290652461912
 20
153.922059286945230
 11
48.586289195611471
 21
153.922059286945230
  0
ARC
  8
0
  6
CONTINUOUS
 62
3
 10
48.586303596078551
 20
166.922059286945230
 40
1.000000000000000
 50
180.000000000000000
 51
270.000000000000000
  0
INSERT
  8
0
  2
SYM4
 10
52.586303596078551
 20
158.922059286946140
 50
0.000000000000014
  0
ARC
  8
0
  6
CONTINUOUS
 62
3
 10
42.586303596077641
 20
181.346057154387490
 40
4.999999999999158
 50
273.000000000006140
 51
0.000000000000000
  0
LINE
  8
0
  6
CONTINUOUS
 62
3
 10
48.586290652461003
 20
153.922059286944320
 11
48.586289195610561
 21
153.922059286944320
  0
LINE
  8
0
  6
CONTINUOUS
 62
3
 10
42.847983377291939
 20
176.352909480615490
 11
26.086303596093103
 21
175.474467066228610
  0
LINE
  8
0
  6
CONTINUOUS
 62
3
 10
26.086303596093103
 20
133.922059286948870
 11
47.586303596076732
 21
133.922059286948870
  0
LINE
  8
0
  6
CONTINUOUS
 62
3
 10
42.847983377291939
 20
57.491209093274961
 11
26.086303596093103
 21
58.369651507661843
  0
LINE
  8
0
  6
CONTINUOUS
 62
3
 10
26.086303596093103
 20
99.922059286941590
 11
47.586303596076732
 21
99.922059286941590
  0
LINE
  8
0
  6
DASHDOT
 62
4
 10
38.086303596082189
 20
186.922059286945230
 11
16.086303596082189
 21
186.922059286945230
  0
ARC
  8
0
  6
CONTINUOUS
 62
3
 10
15.586303596082189
 20
60.486755926005685
 40
2.000000000000017
 50
98.684910765406514
 51
180.000000000000000
  0
ARC
  8
0
  6
CONTINUOUS
 62
3
 10
15.586303596082189
 20
173.357362647884770
 40
2.000000000000000
 50
180.000000000000000
 51
261.315089234599950
  0
LINE
  8
0
  6
CONTINUOUS
 62
3
 10
13.586303596082189
 20
36.357362647884770
 11
13.586303596082189
 21
60.486755926005685
  0
CIRCLE
  8
0
  6
CONTINUOUS
 62
3
 10
27.086303596082189
 20
46.922059286945228
 40
6.000000000000000
  0
LINE
  8
0
  6
DASHDOT
 62
4
 10
27.086303596082189
 20
57.922059286945228
 11
27.086303596082189
 21
35.922059286945228
  0
LINE
  8
0
  6
CONTINUOUS
 62
3
 10
13.586303596082189
 20
197.486755926005690
 11
13.586303596082189
 21
173.357362647884770
  0
CIRCLE
  8
0
  6
CONTINUOUS
 62
3
 10
27.086303596082189
 20
186.922059286945230
 40
6.000000000000000
  0
LINE
  8
0
  6
DASHDOT
 62
4
 10
27.086303596082189
 20
175.922059286945230
 11
27.086303596082189
 21
197.922059286945230
  0
LINE
  8
0
  6
CONTINUOUS
 62
3
 10
16.086303596093330
 20
173.051087793970280
 11
16.086303596093330
 21
129.922059286945230
  0
LINE
  8
0
  6
CONTINUOUS
 62
3
 10
16.086303596093330
 20
147.352636210227960
 11
2.086303596058315
 21
147.352636210227960
  0
ARC
  8
0
  6
CONTINUOUS
 62
3
 10
2.086303596058315
 20
150.352636210227960
 40
3.000000000000000
 50
180.000000000000000
 51
270.000000000000000
  0
ARC
  8
0
  6
CONTINUOUS
 62
3
 10
21.086303596093103
 20
126.922059286945220
 40
3.000000000000000
 50
0.000000000000000
 51
90.000000000000000
  0
ARC
  8
0
  6
CONTINUOUS
 62
3
 10
2.086303596058315
 20
132.922059286945230
 40
3.000000000000000
 50
180.000000000000000
 51
270.000000000000000
  0
LINE
  8
0
  6
CONTINUOUS
 62
3
 10
-15.913696403908716
 20
129.922059286945230
 11
21.086303596093103
 21
129.922059286945230
  0
ARC
  8
0
  6
CONTINUOUS
 62
3
 10
13.086303596093330
 20
173.422059286945230
 40
3.000000000000000
 50
270.000000000000000
 51
0.000000000000000
  0
ARC
  8
0
  6
CONTINUOUS
 62
3
 10
-5.913696403941685
 20
162.922059286945230
 40
5.000000000000000
 50
0.000000000000000
 51
90.000000000000000
  0
LINE
  8
0
  6
CONTINUOUS
 62
3
 10
-15.913696403910535
 20
167.922059286945230
 11
-5.913696403941685
 21
167.922059286945230
  0
ARC
  8
0
  6
CONTINUOUS
 62
3
 10
-5.913696403941685
 20
165.422059286945230
 40
5.000000000000000
 50
0.000000000000000
 51
90.000000000000000
  0
LINE
  8
0
  6
CONTINUOUS
 62
3
 10
-15.913696403910649
 20
170.422059286945230
 11
13.086303596093330
 21
170.422059286945230
  0
ARC
  8
0
  6
CONTINUOUS
 62
3
 10
18.086303596093330
 20
145.352636210227960
 40
2.000000000000000
 50
90.000000000000000
 51
180.000000000000000
  0
ARC
  8
0
  6
CONTINUOUS
 62
3
 10
18.086303596093103
 20
149.352636210227960
 40
2.000000000000000
 50
270.000000000000000
 51
0.000000000000000
  0
ARC
  8
0
  6
CONTINUOUS
 62
3
 10
19.086303596093330
 20
173.051087793970280
 40
2.999999999999925
 50
92.999999999996973
 51
180.000000000000000
  0
LINE
  8
0
  6
CONTINUOUS
 62
3
 10
26.086303596093103
 20
176.422059286945230
 11
18.929295727364547
 21
176.046976398234050
  0
LINE
  8
0
  6
CONTINUOUS
 62
3
 10
26.086303596093103
 20
174.222059286943020
 11
26.086303596093103
 21
176.422059286945230
  0
LINE
  8
0
  6
CONTINUOUS
 62
3
 10
20.086303596093103
 20
174.209683477817290
 11
20.086303596093103
 21
149.352636210227960
  0
ARC
  8
0
  6
CONTINUOUS
 62
3
 10
22.086303596093103
 20
174.209683477817290
 40
1.999999999999992
 50
92.999999999999091
 51
180.000000000000000
  0
LINE
  8
0
  6
CONTINUOUS
 62
3
 10
-0.913696403941685
 20
165.422059286945230
 11
-0.913696403941685
 21
132.922059286945230
  0
LINE
  8
0
  6
CONTINUOUS
 62
3
 10
26.086303596093103
 20
174.222059286943020
 11
26.086303596093103
 21
116.922059286945220
  0
INSERT
  8
0
  2
SYM5
 10
20.086295734776286
 20
161.116233111104630
 41
-1.000000000000000
 50
180.000000000000000
  0
LINE
  8
0
  6
CONTINUOUS
 62
3
 10
24.086303596093103
 20
126.922059286945220
 11
24.086303596093103
 21
116.922059286945220
  0
LINE
  8
0
  6
CONTINUOUS
 62
3
 10
16.086303596093330
 20
60.422059286945228
 11
16.086303596093330
 21
103.922059286945220
  0
LINE
  8
0
  6
CONTINUOUS
 62
3
 10
16.086303596093330
 20
86.491482363662499
 11
2.086303596058315
 21
86.491482363662499
  0
ARC
  8
0
  6
CONTINUOUS
 62
3
 10
2.086303596058315
 20
83.491482363662499
 40
3.000000000000000
 50
90.000000000000000
 51
180.000000000000000
  0
ARC
  8
0
  6
CONTINUOUS
 62
3
 10
21.086303596093103
 20
106.922059286945220
 40
3.000000000000000
 50
270.000000000000000
 51
0.000000000000000
  0
LINE
  8
0
  6
CONTINUOUS
 62
3
 10
24.086303596093103
 20
106.922059286945220
 11
24.086303596093103
 21
116.922059286945220
  0
CIRCLE
  8
0
  6
CONTINUOUS
 62
3
 10
10.086303596093103
 20
116.922059286945220
 40
8.349999999999909
  0
ARC
  8
0
  6
CONTINUOUS
 62
3
 10
2.086303596058315
 20
100.922059286945220
 40
3.000000000000000
 50
90.000000000000000
 51
180.000000000000000
  0
LINE
  8
0
  6
CONTINUOUS
 62
3
 10
-15.913696403908716
 20
103.922059286945220
 11
21.086303596093103
 21
103.922059286945220
  0
ARC
  8
0
  6
CONTINUOUS
 62
3
 10
13.086303596093330
 20
60.422059286945228
 40
3.000000000000000
 50
0.000000000000000
 51
90.000000000000000
  0
ARC
  8
0
  6
CONTINUOUS
 62
3
 10
-5.913696403941685
 20
70.922059286945228
 40
5.000000000000000
 50
270.000000000000000
 51
0.000000000000000
  0
LINE
  8
0
  6
CONTINUOUS
 62
3
 10
-15.913696403910535
 20
65.922059286945228
 11
-5.913696403941685
 21
65.922059286945228
  0
ARC
  8
0
  6
CONTINUOUS
 62
3
 10
-5.913696403941685
 20
68.422059286945228
 40
5.000000000000000
 50
270.000000000000000
 51
0.000000000000000
  0
LINE
  8
0
  6
CONTINUOUS
 62
3
 10
-15.913696403910649
 20
63.422059286945228
 11
13.086303596093330
 21
63.422059286945228
  0
ARC
  8
0
  6
CONTINUOUS
 62
3
 10
18.086303596093330
 20
88.491482363662499
 40
2.000000000000000
 50
180.000000000000000
 51
270.000000000000000
  0
ARC
  8
0
  6
CONTINUOUS
 62
3
 10
18.086303596093103
 20
84.491482363662499
 40
2.000000000000000
 50
0.000000000000000
 51
90.000000000000000
  0
ARC
  8
0
  6
CONTINUOUS
 62
3
 10
19.086303596093330
 20
60.793030779920173
 40
3.000000000000000
 50
180.000000000000000
 51
267.000000000003010
  0
LINE
  8
0
  6
CONTINUOUS
 62
3
 10
26.086303596093103
 20
57.422059286945228
 11
18.929295727364547
 21
57.797142175656404
  0
LINE
  8
0
  6
DASHDOT
 62
4
 10
10.086303596093103
 20
107.221279928017450
 11
10.086303596093103
 21
128.081549230723450
  0
LINE
  8
0
  6
CONTINUOUS
 62
3
 10
26.086303596093103
 20
59.622059286947433
 11
26.086303596093103
 21
57.422059286945228
  0
LINE
  8
0
  6
CONTINUOUS
 62
3
 10
20.086303596093103
 20
59.634435096073162
 11
20.086303596093103
 21
84.491482363662499
  0
ARC
  8
0
  6
CONTINUOUS
 62
3
 10
22.086303596093103
 20
59.634435096073162
 40
2.000000000000000
 50
180.000000000000000
 51
267.000000000000910
  0
LINE
  8
0
  6
CONTINUOUS
 62
3
 10
-0.913696403941685
 20
68.422059286945228
 11
-0.913696403941685
 21
100.922059286945220
  0
LINE
  8
0
  6
CONTINUOUS
 62
3
 10
26.086303596093103
 20
59.622059286947433
 11
26.086303596093103
 21
116.922059286945220
  0
INSERT
  8
0
  2
SYM6
 10
20.086295734776286
 20
72.727885462785821
  0
LINE
  8
0
  6
CONTINUOUS
 62
3
 10
-282.917689078289530
 20
-179.077940713054830
 11
-282.917689078289530
 21
-179.577940713054830
  0
LINE
  8
0
  6
CONTINUOUS
 62
3
 10
-354.917689078289530
 20
-179.077940713054830
 11
-354.917689078289530
 21
-179.577940713054830
  0
INSERT
  8
0
  2
SYM7
 10
-361.917689078289530
 20
-179.077940713054830
  0
INSERT
  8
0
  2
SYM8
 10
-390.917689078289530
 20
-107.577940713054780
  0
INSERT
  8
0
  2
SYM9
 10
-275.917689078289530
 20
-179.077940713054830
  0
ARC
  8
0
  6
CONTINUOUS
 62
3
 10
-396.417689078289530
 20
-98.577940713054957
 40
2.000000000000000
 50
90.000000000000000
 51
180.000000000000000
  0
LINE
  8
0
  6
CONTINUOUS
 62
3
 10
-396.417689078289530
 20
-96.577940713054957
 11
-388.917689078289530
 21
-96.577940713054900
  0
ARC
  8
0
  6
CONTINUOUS
 62
3
 10
-388.917689078289530
 20
-88.577940713054900
 40
8.000000000000000
 50
270.000000000000000
 51
90.000000000000000
  0
LINE
  8
0
  6
CONTINUOUS
 62
3
 10
-395.003592658125970
 20
-80.577940713054957
 11
-388.917689078289530
 21
-80.577940713054900
  0
ARC
  8
0
  6
CONTINUOUS
 62
3
 10
-395.003592658125970
 20
-78.577940713054957
 40
1.999999999999977
 50
167.837507721111820
 51
270.000000000000000
  0
ARC
  8
0
  6
CONTINUOUS
 62
3
 10
-287.917689078289530
 20
-179.577940713054830
 40
5.000000000000000
 50
270.000000000000000
 51
0.000000000000000
  0
ARC
  8
0
  6
CONTINUOUS
 62
3
 10
-275.917689078289530
 20
-179.077940713054830
 40
7.000000000000020
 50
61.263962136561375
 51
180.000000000000000
  0
ARC
  8
0
  6
CONTINUOUS
 62
3
 10
-270.148387767187050
 20
-168.555813438510370
 40
5.000000000000031
 50
241.263962136560650
 51
316.112971245445520
  0
ARC
  8
0
  6
CONTINUOUS
 62
3
 10
-265.751102779196000
 20
-45.971953733619912
 40
4.999999999999965
 50
49.876065772937274
 51
101.642077717791770
  0
ARC
  8
0
  6
CONTINUOUS
 62
3
 10
-288.917689078289530
 20
-33.887739068042279
 40
4.999999999999353
 50
42.719327039978253
 51
75.028809004051297
  0
ARC
  8
0
  6
CONTINUOUS
 62
3
 10
-349.917689078289530
 20
-179.577940713054830
 40
5.000000000000000
 50
180.000000000000000
 51
270.000000000000000
  0
ARC
  8
0
  6
CONTINUOUS
 62
3
 10
-367.686990389392010
 20
-168.555813438510370
 40
4.999999999999870
 50
223.887028754554480
 51
298.736037863439320
  0
ARC
  8
0
  6
CONTINUOUS
 62
3
 10
-361.917689078289530
 20
-179.077940713054830
 40
7.000000000000000
 50
0.000000000000000
 51
118.736037863438630
  0
ARC
  8
0
  6
CONTINUOUS
 62
3
 10
-372.084275377383050
 20
-45.971953733619912
 40
5.000000000000004
 50
78.357922282207596
 51
130.123934227063560
  0
ARC
  8
0
  6
CONTINUOUS
 62
3
 10
-348.917689078289530
 20
-33.887739068042279
 40
5.000000000000014
 50
104.971190995948700
 51
137.280672960021290
  0
ARC
  8
0
  6
CONTINUOUS
 62
3
 10
-246.917689078289530
 20
-107.577940713054780
 40
7.000000000000012
 50
231.786789298261710
 51
270.000000000000000
  0
LINE
  8
0
  6
CONTINUOUS
 62
3
 10
-240.417689078289530
 20
-114.577940713054780
 11
-246.917689078289530
 21
-114.577940713054780
  0
ARC
  8
0
  6
CONTINUOUS
 62
3
 10
-240.417689078289530
 20
-115.577940713054780
 40
1.000000000000000
 50
0.000000000000000
 51
90.000000000000000
  0
LINE
  8
0
  6
CONTINUOUS
 62
3
 10
-397.417689078289530
 20
-114.577940713054780
 11
-390.917689078289530
 21
-114.577940713054780
  0
ARC
  8
0
  6
CONTINUOUS
 62
3
 10
-397.417689078289530
 20
-115.577940713054780
 40
1.000000000000000
 50
90.000000000000000
 51
180.000000000000000
  0
ARC
  8
0
  6
CONTINUOUS
 62
3
 10
-390.917689078289530
 20
-107.577940713054780
 40
7.000000000000000
 50
270.000000000000000
 51
90.000000000000000
  0
LINE
  8
0
  6
CONTINUOUS
 62
3
 10
-397.417689078289530
 20
-100.577940713054780
 11
-390.917689078289530
 21
-100.577940713054780
  0
ARC
  8
0
  6
CONTINUOUS
 62
3
 10
-397.417689078289530
 20
-99.577940713054787
 40
1.000000000000000
 50
180.000000000000000
 51
270.000000000000000
  0
ARC
  8
0
  6
CONTINUOUS
 62
3
 10
-262.220598963017550
 20
-176.181438965408690
 40
5.999999999999943
 50
129.571894934440370
 51
191.940334905755690
  0
ARC
  8
0
  6
CONTINUOUS
 62
3
 10
-275.917689078289530
 20
-179.077940713054830
 40
7.999999999999977
 50
316.567463442210060
 51
11.940334905756142
  0
ARC
  8
0
  6
CONTINUOUS
 62
3
 10
-361.917689078289530
 20
-179.077940713054830
 40
8.000000000000096
 50
168.059665094244200
 51
223.432536557789920
  0
ARC
  8
0
  6
CONTINUOUS
 62
3
 10
-375.614779193561500
 20
-176.181438965408690
 40
5.999999999999847
 50
348.059665094243880
 51
50.428105065559635
  0
ARC
  8
0
  6
CONTINUOUS
 62
3
 10
-272.602194910570350
 20
-160.964502692638800
 40
2.999999999999944
 50
45.000000000001542
 51
135.000000000002300
  0
LINE
  8
0
  6
CONTINUOUS
 62
3
 10
-270.480874567010800
 20
-158.843182349079140
 11
-264.116913536331940
 21
-165.207143379758070
  0
ARC
  8
0
  6
CONTINUOUS
 62
3
 10
-266.238233879891480
 20
-167.328463723317720
 40
3.000000000000064
 50
315.000000000002270
 51
45.000000000001542
  0
ARC
  8
0
  6
CONTINUOUS
 62
3
 10
-259.167166068025950
 20
-160.257395911452250
 40
3.000000000000105
 50
224.999999999998470
 51
315.000000000001530
  0
ARC
  8
0
  6
CONTINUOUS
 62
3
 10
-265.531127098704810
 20
-153.893434880773330
 40
3.000000000000064
 50
135.000000000002300
 51
224.999999999998470
  0
LINE
  8
0
  6
CONTINUOUS
 62
3
 10
-267.652447442264590
 20
-156.014755224332990
 11
-261.288486411585720
 21
-162.378716255011910
  0
ARC
  8
0
  6
CONTINUOUS
 62
3
 10
-365.233183246008710
 20
-160.964502692638800
 40
3.000000000000064
 50
44.999999999997698
 51
134.999999999999230
  0
LINE
  8
0
  6
CONTINUOUS
 62
3
 10
-367.354503589568250
 20
-158.843182349079200
 11
-373.718464620247120
 21
-165.207143379758070
  0
ARC
  8
0
  6
CONTINUOUS
 62
3
 10
-371.597144276687570
 20
-167.328463723317720
 40
2.999999999999944
 50
134.999999999998470
 51
224.999999999997700
  0
ARC
  8
0
  6
CONTINUOUS
 62
3
 10
-378.668212088553100
 20
-160.257395911452250
 40
3.000000000000105
 50
224.999999999998470
 51
315.000000000001530
  0
ARC
  8
0
  6
CONTINUOUS
 62
3
 10
-372.304251057874240
 20
-153.893434880773330
 40
3.000000000000105
 50
315.000000000001530
 51
44.999999999997698
  0
LINE
  8
0
  6
CONTINUOUS
 62
3
 10
-370.182930714314470
 20
-156.014755224332990
 11
-376.546891744993330
 21
-162.378716255011910
  0
ARC
  8
0
  6
CONTINUOUS
 62
3
 10
-378.668212088553100
 20
-54.898485514657310
 40
3.000000000000105
 50
44.999999999998472
 51
135.000000000001530
  0
LINE
  8
0
  6
CONTINUOUS
 62
3
 10
-376.401313276506700
 20
-52.922743639584333
 11
-376.546891744993330
 21
-52.777165171097650
  0
ARC
  8
0
  6
CONTINUOUS
 62
3
 10
-259.167166068025950
 20
-54.898485514657310
 40
2.999999999999944
 50
45.000000000001542
 51
134.999999999998470
  0
LINE
  8
0
  6
CONTINUOUS
 62
3
 10
-261.417689078289530
 20
-52.906367837801739
 11
-261.288486411585500
 21
-52.777165171097650
  0
ARC
  8
0
  6
CONTINUOUS
 62
3
 10
-318.917689078289530
 20
-107.577940713054780
 40
82.999999999999943
 50
197.813976466619150
 51
230.428105065559090
  0
ARC
  8
0
  6
CONTINUOUS
 62
3
 10
-388.417689078289530
 20
-129.910652147182130
 40
10.000000000000000
 50
180.000000000000000
 51
197.813976466619290
  0
LINE
  8
0
  6
CONTINUOUS
 62
3
 10
-398.417689078289530
 20
-91.851089557812955
 11
-398.417689078289530
 21
-129.910652147182130
  0
ARC
  8
0
  6
CONTINUOUS
 62
3
 10
-304.417689078289530
 20
-91.851089557812955
 40
65.000000000000014
 50
36.620350326697647
 51
55.916311411658235
  0
ARC
  8
0
  6
CONTINUOUS
 62
3
 10
-249.417689078289530
 20
-129.910652147182130
 40
10.000000000000151
 50
342.186023533381100
 51
0.000000000000000
  0
ARC
  8
0
  6
CONTINUOUS
 62
3
 10
-318.917689078289530
 20
-107.577940713054780
 40
83.000000000000028
 50
309.571894934440880
 51
342.186023533380880
  0
LINE
  8
0
  6
DASHDOT
 62
4
 10
-342.860286138409720
 20
-81.577940713054787
 11
-294.787542519999990
 21
-81.577940713054787
  0
LINE
  8
0
  6
DASHDOT
 62
4
 10
-318.917689078289530
 20
-24.005141030437599
 11
-318.917689078289530
 21
-81.577940713054787
  0
LINE
  8
0
  6
DASHDOT
 62
4
 10
-318.917689078289530
 20
-24.005141030437599
 11
-318.917689078289530
 21
-81.577940713054787
  0
LINE
  8
0
  6
DASHDOT
 62
4
 10
-318.917689078289530
 20
-24.005141030437599
 11
-318.917689078289530
 21
-186.869959043721740
  0
LINE
  8
0
  6
CONTINUOUS
 62
3
 10
-236.417689078289530
 20
-186.077940713054720
 11
-264.417689078289530
 21
-186.077940713054720
  0
LINE
  8
0
  6
CONTINUOUS
 62
3
 10
-373.417689078289530
 20
-186.077940713054770
 11
-401.417689078289530
 21
-186.077940713054770
  0
LINE
  8
0
  6
CONTINUOUS
 62
3
 10
-373.417689078289530
 20
-186.577940713054770
 11
-401.417689078289530
 21
-186.577940713054770
  0
ARC
  8
0
  6
CONTINUOUS
 62
3
 10
-401.417689078289530
 20
-166.381788290348310
 40
3.000000000000000
 50
299.999999999999940
 51
0.000000000000000
  0
ARC
  8
0
  6
CONTINUOUS
 62
3
 10
-236.417689078289530
 20
-166.381788290348310
 40
3.000000000000000
 50
180.000000000000000
 51
240.000000000000030
  0
ARC
  8
0
  6
CONTINUOUS
 62
3
 10
-380.764273462554570
 20
-171.577940713054720
 40
2.999999999999905
 50
45.980317320029776
 51
90.000000000000000
  0
ARC
  8
0
  6
CONTINUOUS
 62
3
 10
-376.417689078289530
 20
-175.509891958400200
 40
3.000000000000000
 50
0.000000000000000
 51
49.754246113653629
  0
ARC
  8
0
  6
CONTINUOUS
 62
3
 10
-261.417689078289530
 20
-175.509891958400200
 40
3.000000000000081
 50
130.245753886349660
 51
180.000000000000000
  0
ARC
  8
0
  6
CONTINUOUS
 62
3
 10
-257.071104694024710
 20
-171.577940713054660
 40
2.999999999999943
 50
90.000000000000000
 51
134.019682679973360
  0
POINT
  8
0
  6
DASHDOT
 62
4
 10
-318.917689078289530
 20
-107.577940713054730
  0
POINT
  8
0
  6
DASHDOT
 62
4
 10
-318.917689078289530
 20
-81.577940713054730
  0
LINE
  8
0
  6
DASHDOT
 62
4
 10
-222.403728326156850
 20
-83.077940713054787
 11
-410.635357382416260
 21
-83.077940713054787
  0
LINE
  8
0
  6
CONTINUOUS
 62
3
 10
-332.249980704262840
 20
-166.077940713054770
 11
-334.565139922047250
 21
-166.077940713054770
  0
LINE
  8
0
  6
CONTINUOUS
 62
3
 10
-305.585397452316220
 20
-166.077940713054770
 11
-303.270238234531800
 21
-166.077940713054770
  0
ARC
  8
0
  6
CONTINUOUS
 62
3
 10
-318.917689078289530
 20
-107.577940713054780
 40
59.999999999999972
 50
257.161431859015980
 51
282.838568140984020
  0
ARC
  8
0
  6
CONTINUOUS
 62
3
 10
-334.417689078289530
 20
-162.077940713054770
 40
3.000000000000000
 50
180.000000000000000
 51
270.000000000000000
  0
ARC
  8
0
  6
CONTINUOUS
 62
3
 10
-303.417689078289530
 20
-162.077940713054770
 40
3.000000000000000
 50
270.000000000000000
 51
0.000000000000000
  0
ARC
  8
0
  6
CONTINUOUS
 62
3
 10
-344.417689078289530
 20
-137.077940713054660
 40
3.000000000000000
 50
0.000000000000000
 51
12.243652867704167
  0
ARC
  8
0
  6
CONTINUOUS
 62
3
 10
-334.417689078289530
 20
-137.404999985136390
 40
3.000000000001071
 50
165.521193763425740
 51
180.000000000000000
  0
ARC
  8
0
  6
CONTINUOUS
 62
3
 10
-293.417689078289530
 20
-137.077940713054660
 40
3.000000000000743
 50
167.756347132295620
 51
180.000000000000000
  0
ARC
  8
0
  6
CONTINUOUS
 62
3
 10
-303.417689078289530
 20
-137.404999985136390
 40
3.000000000000000
 50
0.000000000000000
 51
14.478806236573991
  0
ARC
  8
0
  6
CONTINUOUS
 62
3
 10
-346.417689078289530
 20
-162.307388910528860
 40
5.000000000000000
 50
0.000000000000000
 51
63.321765549190943
  0
ARC
  8
0
  6
CONTINUOUS
 62
3
 10
-318.917689078289530
 20
-107.577940713054780
 40
56.250000000000064
 50
220.772804694042890
 51
243.321765549190360
  0
ARC
  8
0
  6
CONTINUOUS
 62
3
 10
-365.302627366488080
 20
-147.577940713054830
 40
4.999999999999867
 50
40.772804694044133
 51
90.000000000000000
  0
LINE
  8
0
  6
CONTINUOUS
 62
3
 10
-370.077286211776140
 20
-142.577940713054830
 11
-365.302627366488080
 21
-142.577940713054830
  0
ARC
  8
0
  6
CONTINUOUS
 62
3
 10
-370.077286211776140
 20
-137.577940713054830
 40
5.000000000000107
 50
190.000000000000280
 51
270.000000000000000
  0
ARC
  8
0
  6
CONTINUOUS
 62
3
 10
-291.417689078289530
 20
-162.307388910528860
 40
4.999999999999968
 50
116.678234450809050
 51
180.000000000000000
  0
ARC
  8
0
  6
CONTINUOUS
 62
3
 10
-318.917689078289530
 20
-107.577940713054780
 40
56.250000000000014
 50
296.678234450809610
 51
319.227195305957140
  0
ARC
  8
0
  6
CONTINUOUS
 62
3
 10
-272.532750790090970
 20
-147.577940713054770
 40
5.000000000000000
 50
90.000000000000000
 51
139.227195305956340
  0
LINE
  8
0
  6
CONTINUOUS
 62
3
 10
-267.758091944802910
 20
-142.577940713054770
 11
-272.532750790090970
 21
-142.577940713054770
  0
ARC
  8
0
  6
CONTINUOUS
 62
3
 10
-267.758091944802910
 20
-137.577940713054770
 40
5.000000000000000
 50
270.000000000000000
 51
349.999999999999030
  0
LINE
  8
0
  6
CONTINUOUS
 62
3
 10
-341.417689078289530
 20
-137.077940713054660
 11
-341.417689078289530
 21
-165.077940713054770
  0
LINE
  8
0
  6
CONTINUOUS
 62
3
 10
-296.417689078289530
 20
-137.077940713054660
 11
-296.417689078289530
 21
-165.077940713054770
  0
LINE
  8
0
  6
CONTINUOUS
 62
3
 10
-337.417689078289530
 20
-137.404999985136390
 11
-337.417689078289530
 21
-162.077940713054770
  0
LINE
  8
0
  6
CONTINUOUS
 62
3
 10
-300.417689078289530
 20
-137.404999985136390
 11
-300.417689078289530
 21
-162.077940713054770
  0
ARC
  8
0
  6
CONTINUOUS
 62
3
 10
-377.417689078289530
 20
-88.577940713054787
 40
0.999999999999173
 50
117.683035930750540
 51
180.000000000000000
  0
LINE
  8
0
  6
CONTINUOUS
 62
3
 10
-378.417689078289530
 20
-107.577940713054780
 11
-378.417689078289530
 21
-88.577940713054787
  0
ARC
  8
0
  6
CONTINUOUS
 62
3
 10
-377.762055620191290
 20
-128.548070578017640
 40
0.999999999999891
 50
10.000000000002947
 51
80.085216630856749
  0
ARC
  8
0
  6
CONTINUOUS
 62
3
 10
-377.417689078289530
 20
-126.577940713054780
 40
1.000000000000000
 50
180.000000000000000
 51
260.085216630857420
  0
LINE
  8
0
  6
CONTINUOUS
 62
3
 10
-376.777247867179200
 20
-128.374422400350680
 11
-374.001348015850790
 21
-144.117332760268140
  0
LINE
  8
0
  6
CONTINUOUS
 62
3
 10
-378.417689078289530
 20
-107.577940713054780
 11
-378.417689078289530
 21
-126.577940713054780
  0
LINE
  8
0
  6
CONTINUOUS
 62
3
 10
-401.417689078289530
 20
-171.577940713055000
 11
-401.417689078289530
 21
-186.577940713054770
  0
LINE
  8
0
  6
DASHDOT
 62
4
 10
-388.917689078289530
 20
-189.658444481975830
 11
-388.917689078289530
 21
-159.422623520977250
  0
LINE
  8
0
  6
CONTINUOUS
 62
3
 10
-373.417689078289530
 20
-186.577940713054770
 11
-373.417689078289530
 21
-175.509891958400260
  0
ARC
  8
0
  6
CONTINUOUS
 62
3
 10
-359.229231720667830
 20
-141.512610095264110
 40
14.999999999999863
 50
190.000000000000400
 51
225.000000000000140
  0
ARC
  8
0
  6
CONTINUOUS
 62
3
 10
-395.417689078289750
 20
-153.061454209705230
 40
3.000000000000144
 50
30.733842610394877
 51
180.000000000000000
  0
ARC
  8
0
  6
CONTINUOUS
 62
3
 10
-242.417689078289530
 20
-153.061454209705350
 40
3.000000000000000
 50
0.000000000000000
 51
149.266157389605130
  0
LINE
  8
0
  6
CONTINUOUS
 62
3
 10
-369.835833438466010
 20
-152.119211813062350
 11
-363.625783083081960
 21
-158.329262168446290
  0
ARC
  8
0
  6
CONTINUOUS
 62
3
 10
-353.019181365283770
 20
-147.722660450648050
 40
15.000000000000000
 50
225.000000000000140
 51
259.695153531234150
  0
LINE
  8
0
  6
CONTINUOUS
 62
3
 10
-355.702462938283470
 20
-162.480709102146650
 11
-337.248421495047180
 21
-165.835989364553370
  0
ARC
  8
0
  6
CONTINUOUS
 62
3
 10
-334.565139922047250
 20
-151.077940713054770
 40
15.000000000000020
 50
259.695153531233250
 51
270.000000000000000
  0
ARC
  8
0
  6
CONTINUOUS
 62
3
 10
-260.073322536387760
 20
-128.548070578017640
 40
0.999999999999958
 50
99.914783369143251
 51
169.999999999997070
  0
ARC
  8
0
  6
CONTINUOUS
 62
3
 10
-260.417689078289530
 20
-126.577940713054780
 40
1.000000000000028
 50
279.914783369142580
 51
0.000000000000000
  0
LINE
  8
0
  6
CONTINUOUS
 62
3
 10
-261.058130289399860
 20
-128.374422400350680
 11
-263.834030140728260
 21
-144.117332760268140
  0
LINE
  8
0
  6
CONTINUOUS
 62
3
 10
-259.417689078289580
 20
-113.077940713054800
 11
-259.417689078289530
 21
-126.577940713054780
  0
ARC
  8
0
  6
CONTINUOUS
 62
3
 10
-318.917689078289530
 20
-476.577940713278680
 40
449.999999999999890
 50
87.841596534959464
 51
90.000000000000000
  0
ARC
  8
0
  6
CONTINUOUS
 62
3
 10
-278.606146435911230
 20
-141.512610095264110
 40
15.000000000000000
 50
314.999999999999830
 51
349.999999999999600
  0
LINE
  8
0
  6
CONTINUOUS
 62
3
 10
-267.999544718113040
 20
-152.119211813062350
 11
-274.209595073497100
 21
-158.329262168446290
  0
ARC
  8
0
  6
CONTINUOUS
 62
3
 10
-284.816196791295280
 20
-147.722660450648050
 40
14.999999999999979
 50
280.304846468765850
 51
314.999999999999830
  0
LINE
  8
0
  6
CONTINUOUS
 62
3
 10
-239.417689078289530
 20
-112.866462758435980
 11
-239.417689078289530
 21
-166.381788290348310
  0
ARC
  8
0
  6
CONTINUOUS
 62
3
 10
-249.417689078289530
 20
-129.910652147182020
 40
9.999999999999934
 50
342.186023533380710
 51
0.000000000000000
  0
LINE
  8
0
  6
CONTINUOUS
 62
3
 10
-282.132915218295580
 20
-162.480709102146650
 11
-300.586956661531870
 21
-165.835989364553370
  0
ARC
  8
0
  6
CONTINUOUS
 62
3
 10
-303.270238234531800
 20
-151.077940713054770
 40
15.000000000000000
 50
270.000000000000000
 51
280.304846468766750
  0
ARC
  8
0
  6
CONTINUOUS
 62
3
 10
-304.417689078289530
 20
-91.851089557812841
 40
65.000000000000000
 50
36.620350326697533
 51
55.916311411658242
  0
LINE
  8
0
  6
CONTINUOUS
 62
3
 10
-398.417689078289530
 20
-91.851089557812898
 11
-398.417689078289530
 21
-166.381788290348310
  0
ARC
  8
0
  6
CONTINUOUS
 62
3
 10
-318.917689078289530
 20
-476.577940713278680
 40
449.999999999999940
 50
90.000000000000000
 51
92.158403465040607
  0
LINE
  8
0
  6
DASHDOT
 62
4
 10
-248.917689078289530
 20
-189.658444481975780
 11
-248.917689078289530
 21
-159.422623520977200
  0
POINT
  8
0
  6
CONTINUOUS
 62
3
 10
-318.917689078289530
 20
-81.577940713054730
  0
POINT
  8
0
  6
CONTINUOUS
 62
3
 10
-318.917689078289530
 20
-107.577940713054730
  0
LINE
  8
0
  6
CONTINUOUS
 62
3
 10
-266.417689078289530
 20
-184.577940713054720
 11
-318.917689078289530
 21
-184.577940713054720
  0
ARC
  8
0
  6
CONTINUOUS
 62
3
 10
-266.417689078289530
 20
-186.577940713054720
 40
2.000000000000000
 50
0.000000000000000
 51
90.000000000000000
  0
ARC
  8
0
  6
CONTINUOUS
 62
3
 10
-318.917689078289530
 20
-107.577940713054730
 40
85.999999999999886
 50
310.245753886347300
 51
329.266157389603450
  0
ARC
  8
0
  6
CONTINUOUS
 62
3
 10
-318.917689078289530
 20
-107.577940713054730
 40
85.999999999999986
 50
210.733842610396380
 51
229.754246113652610
  0
ARC
  8
0
  6
CONTINUOUS
 62
3
 10
-371.417689078289530
 20
-186.577940713054720
 40
2.000000000000000
 50
90.000000000000000
 51
180.000000000000000
  0
LINE
  8
0
  6
CONTINUOUS
 62
3
 10
-371.417689078289530
 20
-184.577940713054720
 11
-318.917689078289530
 21
-184.577940713054720
  0
POINT
  8
0
  6
CONTINUOUS
 62
3
 10
-318.917689078289530
 20
-81.577940713054730
  0
LINE
  8
0
  6
CONTINUOUS
 62
3
 10
-239.417689078289530
 20
-168.577940713054940
 11
-257.071104694024710
 21
-168.577940713054720
  0
LINE
  8
0
  6
CONTINUOUS
 62
3
 10
-398.417689078289530
 20
-168.577940713054940
 11
-380.764273462554570
 21
-168.577940713054720
  0
ARC
  8
0
  6
CONTINUOUS
 62
3
 10
-239.417689078289530
 20
-171.577940713054940
 40
3.000000000000000
 50
0.000000000000000
 51
90.000000000000000
  0
ARC
  8
0
  6
CONTINUOUS
 62
3
 10
-398.417689078289530
 20
-171.577940713054940
 40
3.000000000000000
 50
90.000000000000000
 51
180.000000000000000
  0
LINE
  8
0
  6
CONTINUOUS
 62
3
 10
-236.417689078289530
 20
-186.577940713054720
 11
-264.417689078289530
 21
-186.577940713054720
  0
LINE
  8
0
  6
CONTINUOUS
 62
3
 10
-236.417689078289530
 20
-171.577940713054940
 11
-236.417689078289530
 21
-186.577940713054720
  0
LINE
  8
0
  6
CONTINUOUS
 62
3
 10
-264.417689078289530
 20
-186.577940713054720
 11
-264.417689078289530
 21
-175.509891958400200
  0
INSERT
  8
0
  2
SYM10
 10
-274.723515254130120
 20
-151.772114537213890
  0
INSERT
  8
0
  2
SYM11
 10
-363.111862902448930
 20
-151.772114537213950
  0
ARC
  8
0
  6
CONTINUOUS
 62
3
 10
-315.417689078289530
 20
-65.421497130045182
 40
1.000000000000000
 50
180.000000000000000
 51
258.787728582356010
  0
LINE
  8
0
  6
CONTINUOUS
 62
3
 10
-316.417689078289530
 20
-62.371661472206270
 11
-316.417689078289530
 21
-65.421497130045182
  0
ARC
  8
0
  6
CONTINUOUS
 62
3
 10
-315.417689078289530
 20
-62.371661472206270
 40
1.000000000000268
 50
80.405931773124522
 51
180.000000000000000
  0
ARC
  8
0
  6
CONTINUOUS
 62
3
 10
-315.417689078289530
 20
-56.810089639927483
 40
1.000000000000000
 50
179.999999999986980
 51
262.410457608144040
  0
LINE
  8
0
  6
CONTINUOUS
 62
3
 10
-316.417689078289530
 20
-53.786303681301106
 11
-316.417689078289530
 21
-56.810089639927256
  0
ARC
  8
0
  6
CONTINUOUS
 62
3
 10
-315.417689078289530
 20
-53.786303681301106
 40
1.000000000000077
 50
83.186145655820312
 51
180.000000000000000
  0
ARC
  8
0
  6
CONTINUOUS
 62
3
 10
-315.417689078289530
 20
-48.253380414323047
 40
1.000000000000000
 50
180.000000000000000
 51
264.260829522738280
  0
LINE
  8
0
  6
CONTINUOUS
 62
3
 10
-316.417689078289530
 20
-45.239468228029764
 11
-316.417689078289530
 21
-48.253380414323047
  0
ARC
  8
0
  6
CONTINUOUS
 62
3
 10
-315.417689078289530
 20
-45.239468228029764
 40
1.000000000000042
 50
84.715267045464302
 51
180.000000000000000
  0
ARC
  8
0
  6
CONTINUOUS
 62
3
 10
-295.300387290357660
 20
-65.401033283932421
 40
1.000000000000082
 50
299.999999999997270
 51
36.813854344186687
  0
LINE
  8
0
  6
CONTINUOUS
 62
3
 10
-294.800387290357660
 20
-66.267058687716954
 11
-297.419062746135180
 21
-67.778951667030142
  0
ARC
  8
0
  6
CONTINUOUS
 62
3
 10
-297.919062746135180
 20
-66.912926263245609
 40
0.999999999999834
 50
217.589542391867670
 51
299.999999999997270
  0
ARC
  8
0
  6
CONTINUOUS
 62
3
 10
-287.898610665859340
 20
-61.127615557296750
 40
0.999999999999885
 50
300.000000000003810
 51
35.284732954544943
  0
LINE
  8
0
  6
CONTINUOUS
 62
3
 10
-287.398610665859340
 20
-61.993640961081056
 11
-290.008735183965090
 21
-63.500597054227811
  0
ARC
  8
0
  6
CONTINUOUS
 62
3
 10
-290.508735183965090
 20
-62.634571650443505
 40
0.999999999999940
 50
215.739170477274090
 51
300.000000000003810
  0
ARC
  8
0
  6
CONTINUOUS
 62
3
 10
-313.019159807900340
 20
-75.630971366645227
 40
0.999999999999961
 50
231.618272422159780
 51
299.999999999997270
  0
LINE
  8
0
  6
CONTINUOUS
 62
3
 10
-309.775384232876040
 20
-74.912877203593681
 11
-312.519159807900340
 21
-76.496996770429760
  0
ARC
  8
0
  6
CONTINUOUS
 62
3
 10
-305.376760394916690
 20
-71.218630008304572
 40
0.999999999999673
 50
221.212271417651210
 51
300.000000000003810
  0
LINE
  8
0
  6
CONTINUOUS
 62
3
 10
-302.235525237860540
 20
-70.559737583169309
 11
-304.876760394916690
 21
-72.084655412088878
  0
ARC
  8
0
  6
CONTINUOUS
 62
3
 10
-302.735525237860540
 20
-69.693712179384775
 40
1.000000000000082
 50
299.999999999997270
 51
39.594068226850403
  0
ARC
  8
0
  6
CONTINUOUS
 62
3
 10
-315.417689078289530
 20
-74.246179846726946
 40
1.000000000000000
 50
180.000000000000000
 51
248.381727577838030
  0
ARC
  8
0
  6
CONTINUOUS
 62
3
 10
-318.917689078289530
 20
-83.077940713054787
 40
8.500000000000128
 50
51.618272422158320
 51
68.381727577842284
  0
ARC
  8
0
  6
CONTINUOUS
 62
3
 10
-310.275384232876040
 20
-74.046851799809374
 40
0.999999999999885
 50
300.000000000003810
 51
46.260204708328693
  0
LINE
  8
0
  6
CONTINUOUS
 62
3
 10
-316.417689078289530
 20
-71.077940713054787
 11
-316.417689078289530
 21
-74.246179846726946
  0
ARC
  8
0
  6
CONTINUOUS
 62
3
 10
-315.417689078289530
 20
-71.077940713054787
 40
0.999999999999964
 50
73.739795291702634
 51
180.000000000000000
  0
ARC
  8
0
  6
CONTINUOUS
 62
3
 10
-318.917689078289530
 20
-83.077940713054787
 40
13.499999999999927
 50
46.260204708312145
 51
73.739795291689134
  0
ARC
  8
0
  6
CONTINUOUS
 62
3
 10
-318.917689078289530
 20
-83.077940713054787
 40
17.000000000000114
 50
41.212271417649760
 51
78.787728582349985
  0
ARC
  8
0
  6
CONTINUOUS
 62
3
 10
-318.917689078289530
 20
-83.077940713054787
 40
22.000000000000025
 50
39.594068226860820
 51
80.405931773138789
  0
ARC
  8
0
  6
CONTINUOUS
 62
3
 10
-318.917689078289530
 20
-83.077940713054787
 40
30.499999999999964
 50
36.813854344181067
 51
83.186145655818962
  0
ARC
  8
0
  6
CONTINUOUS
 62
3
 10
-318.917689078289530
 20
-83.077940713054787
 40
25.499999999999890
 50
37.589542391857961
 51
82.410457608141883
  0
ARC
  8
0
  6
CONTINUOUS
 62
3
 10
-318.917689078289530
 20
-83.077940713054787
 40
33.999999999999829
 50
35.739170477266640
 51
84.260829522733076
  0
ARC
  8
0
  6
CONTINUOUS
 62
3
 10
-318.917689078289530
 20
-83.077940713054787
 40
38.999999999999865
 50
35.284732954534789
 51
84.715267045465410
  0
ARC
  8
0
  6
CONTINUOUS
 62
3
 10
-291.800387290357660
 20
-71.463211110423472
 40
0.999999999999730
 50
23.186145655819850
 51
119.999999999997270
  0
LINE
  8
0
  6
CONTINUOUS
 62
3
 10
-292.300387290357660
 20
-70.597185706638939
 11
-294.919062746135180
 21
-72.109078685952127
  0
ARC
  8
0
  6
CONTINUOUS
 62
3
 10
-294.419062746135180
 20
-72.975104089736661
 40
1.000000000000082
 50
119.999999999997270
 51
202.410457608146060
  0
ARC
  8
0
  6
CONTINUOUS
 62
3
 10
-284.398610665859340
 20
-67.189793383787801
 40
1.000000000000248
 50
24.715267045455477
 51
119.999999999997270
  0
LINE
  8
0
  6
CONTINUOUS
 62
3
 10
-284.898610665859340
 20
-66.323767980003268
 11
-287.508735183965090
 21
-67.830724073150023
  0
ARC
  8
0
  6
CONTINUOUS
 62
3
 10
-287.008735183965090
 20
-68.696749476934329
 40
0.999999999999885
 50
120.000000000003780
 51
204.260829522745610
  0
ARC
  8
0
  6
CONTINUOUS
 62
3
 10
-309.519159807900340
 20
-81.693149193136506
 40
1.000000000000082
 50
119.999999999997270
 51
188.381727577832660
  0
LINE
  8
0
  6
CONTINUOUS
 62
3
 10
-307.275384232876040
 20
-79.243004222515893
 11
-310.019159807900340
 21
-80.827123789351973
  0
ARC
  8
0
  6
CONTINUOUS
 62
3
 10
-301.876760394916690
 20
-77.280807834795624
 40
1.000000000000082
 50
119.999999999997270
 51
198.787728582347000
  0
LINE
  8
0
  6
CONTINUOUS
 62
3
 10
-299.735525237860090
 20
-74.889864602091748
 11
-302.376760394916690
 21
-76.414782431011091
  0
ARC
  8
0
  6
CONTINUOUS
 62
3
 10
-299.235525237860090
 20
-75.755890005876054
 40
1.000000000000094
 50
20.405931773138686
 51
120.000000000003780
  0
ARC
  8
0
  6
CONTINUOUS
 62
3
 10
-309.519159807900340
 20
-84.462732232973295
 40
1.000000000000059
 50
171.618272422154460
 51
239.999999999996220
  0
ARC
  8
0
  6
CONTINUOUS
 62
3
 10
-318.917689078289530
 20
-83.077940713054787
 40
8.499999999999972
 50
351.618272422157820
 51
8.381727577842204
  0
ARC
  8
0
  6
CONTINUOUS
 62
3
 10
-306.775384232876040
 20
-80.109029626300199
 40
0.999999999999879
 50
13.739795291686027
 51
120.000000000003780
  0
LINE
  8
0
  6
CONTINUOUS
 62
3
 10
-307.275384232876040
 20
-86.912877203593681
 11
-310.019159807900340
 21
-85.328757636757601
  0
ARC
  8
0
  6
CONTINUOUS
 62
3
 10
-306.775384232876040
 20
-86.046851799809374
 40
0.999999999999885
 50
239.999999999996220
 51
346.260204708314010
  0
ARC
  8
0
  6
CONTINUOUS
 62
3
 10
-318.917689078289530
 20
-83.077940713054787
 40
13.500000000000130
 50
346.260204708311850
 51
13.739795291688171
  0
ARC
  8
0
  6
CONTINUOUS
 62
3
 10
-301.876760394916690
 20
-88.875073591313949
 40
0.999999999999646
 50
161.212271417644620
 51
239.999999999996220
  0
LINE
  8
0
  6
CONTINUOUS
 62
3
 10
-299.735525237860090
 20
-91.266016824017825
 11
-302.376760394916690
 21
-89.741098995098255
  0
ARC
  8
0
  6
CONTINUOUS
 62
3
 10
-318.917689078289530
 20
-83.077940713054787
 40
17.000000000000146
 50
341.212271417650070
 51
18.787728582350418
  0
ARC
  8
0
  6
CONTINUOUS
 62
3
 10
-299.235525237860090
 20
-90.399991420233519
 40
0.999999999999885
 50
239.999999999996220
 51
339.594068226861340
  0
ARC
  8
0
  6
CONTINUOUS
 62
3
 10
-294.419062746135180
 20
-93.180777336373140
 40
0.999999999999701
 50
157.589542391853940
 51
240.000000000002730
  0
ARC
  8
0
  6
CONTINUOUS
 62
3
 10
-287.008735183965090
 20
-97.459131949175017
 40
0.999999999999769
 50
155.739170477266270
 51
240.000000000002730
  0
ARC
  8
0
  6
CONTINUOUS
 62
3
 10
-318.917689078289530
 20
-83.077940713054787
 40
22.000000000000206
 50
339.594068226860770
 51
20.405931773139226
  0
LINE
  8
0
  6
CONTINUOUS
 62
3
 10
-292.300387290357660
 20
-95.558695719470634
 11
-294.919062746135180
 21
-94.046802740157673
  0
ARC
  8
0
  6
CONTINUOUS
 62
3
 10
-291.800387290357660
 20
-94.692670315686101
 40
1.000000000000082
 50
240.000000000002730
 51
336.813854344180130
  0
ARC
  8
0
  6
CONTINUOUS
 62
3
 10
-318.917689078289530
 20
-83.077940713054787
 40
30.499999999999947
 50
336.813854344181150
 51
23.186145655818844
  0
ARC
  8
0
  6
CONTINUOUS
 62
3
 10
-318.917689078289530
 20
-83.077940713054787
 40
25.500000000000085
 50
337.589542391857490
 51
22.410457608142021
  0
ARC
  8
0
  6
CONTINUOUS
 62
3
 10
-318.917689078289530
 20
-83.077940713054787
 40
34.000000000000007
 50
335.739170477266780
 51
24.260829522733218
  0
ARC
  8
0
  6
CONTINUOUS
 62
3
 10
-318.917689078289530
 20
-83.077940713054787
 40
39.000000000000220
 50
335.284732954534830
 51
24.715267045465190
  0
LINE
  8
0
  6
CONTINUOUS
 62
3
 10
-284.898610665859340
 20
-99.832113446106078
 11
-287.508735183965090
 21
-98.325157352959550
  0
ARC
  8
0
  6
CONTINUOUS
 62
3
 10
-284.398610665859340
 20
-98.966088042321772
 40
0.999999999999885
 50
239.999999999996220
 51
335.284732954544490
  0
CIRCLE
  8
0
  6
CONTINUOUS
 62
3
 10
-318.917689078289530
 20
-83.077940713054787
 40
5.000000000000000
  0
ARC
  8
0
  6
CONTINUOUS
 62
3
 10
-287.898610665859340
 20
-105.028265868813050
 40
0.999999999999776
 50
324.715267045465680
 51
60.000000000002721
  0
ARC
  8
0
  6
CONTINUOUS
 62
3
 10
-290.508735183965090
 20
-103.521309775666060
 40
0.999999999999885
 50
59.999999999996206
 51
144.260829522736490
  0
ARC
  8
0
  6
CONTINUOUS
 62
3
 10
-315.417689078289530
 20
-117.902501011786520
 40
0.999999999999973
 50
95.739170477261709
 51
180.000000000000000
  0
ARC
  8
0
  6
CONTINUOUS
 62
3
 10
-315.417689078289530
 20
-120.916413198079800
 40
1.000000000000000
 50
180.000000000000000
 51
275.284732954535740
  0
ARC
  8
0
  6
CONTINUOUS
 62
3
 10
-315.417689078289530
 20
-109.345791786182090
 40
0.999999999999975
 50
97.589542391854238
 51
180.000000000000000
  0
ARC
  8
0
  6
CONTINUOUS
 62
3
 10
-295.300387290357660
 20
-100.754848142176920
 40
0.999999999999911
 50
323.186145655802870
 51
59.999999999996206
  0
ARC
  8
0
  6
CONTINUOUS
 62
3
 10
-297.919062746134730
 20
-99.242955162863964
 40
1.000000000000082
 50
60.000000000002721
 51
142.410457608148220
  0
ARC
  8
0
  6
CONTINUOUS
 62
3
 10
-315.417689078289530
 20
-112.369577744808460
 40
1.000000000000000
 50
180.000000000000000
 51
276.813854344179670
  0
ARC
  8
0
  6
CONTINUOUS
 62
3
 10
-315.417689078289530
 20
-103.784219953903300
 40
1.000000000000000
 50
180.000000000000000
 51
279.594068226875490
  0
ARC
  8
0
  6
CONTINUOUS
 62
3
 10
-315.417689078289530
 20
-100.734384296064390
 40
0.999999999999982
 50
101.212271417644000
 51
180.000000000000000
  0
ARC
  8
0
  6
CONTINUOUS
 62
3
 10
-302.735525237860540
 20
-96.462169246724571
 40
1.000000000000318
 50
320.405931773139570
 51
59.999999999996206
  0
ARC
  8
0
  6
CONTINUOUS
 62
3
 10
-305.376760394916690
 20
-94.937251417805228
 40
1.000000000000082
 50
60.000000000002721
 51
138.787728582338990
  0
ARC
  8
0
  6
CONTINUOUS
 62
3
 10
-310.275384232876040
 20
-92.109029626300199
 40
0.999999999999858
 50
313.739795291671330
 51
59.999999999996206
  0
ARC
  8
0
  6
CONTINUOUS
 62
3
 10
-315.417689078289530
 20
-95.077940713054787
 40
1.000000000000000
 50
180.000000000000000
 51
286.260204708297350
  0
ARC
  8
0
  6
CONTINUOUS
 62
3
 10
-315.417689078289530
 20
-91.909701579382627
 40
1.000000000000090
 50
111.618272422161970
 51
180.000000000000000
  0
ARC
  8
0
  6
CONTINUOUS
 62
3
 10
-313.019159807900340
 20
-90.524910059464119
 40
0.999999999999885
 50
59.999999999996206
 51
128.381727577840220
  0
ARC
  8
0
  6
CONTINUOUS
 62
3
 10
-318.917689078289530
 20
-83.077940713054787
 40
38.999999999999986
 50
275.284732954534600
 51
324.715267045465230
  0
ARC
  8
0
  6
CONTINUOUS
 62
3
 10
-318.917689078289530
 20
-83.077940713054787
 40
30.500000000000135
 50
276.813854344181040
 51
323.186145655818900
  0
ARC
  8
0
  6
CONTINUOUS
 62
3
 10
-318.917689078289530
 20
-83.077940713054787
 40
34.000000000000071
 50
275.739170477266950
 51
324.260829522733050
  0
ARC
  8
0
  6
CONTINUOUS
 62
3
 10
-318.917689078289530
 20
-83.077940713054787
 40
25.499999999999932
 50
277.589542391858170
 51
322.410457608142050
  0
ARC
  8
0
  6
CONTINUOUS
 62
3
 10
-318.917689078289530
 20
-83.077940713054787
 40
22.000000000000131
 50
279.594068226861170
 51
320.405931773139170
  0
ARC
  8
0
  6
CONTINUOUS
 62
3
 10
-318.917689078289530
 20
-83.077940713054787
 40
17.000000000000046
 50
281.212271417650020
 51
318.787728582350210
  0
ARC
  8
0
  6
CONTINUOUS
 62
3
 10
-318.917689078289530
 20
-83.077940713054787
 40
13.499999999999963
 50
286.260204708310820
 51
313.739795291687870
  0
ARC
  8
0
  6
CONTINUOUS
 62
3
 10
-318.917689078289530
 20
-83.077940713054787
 40
8.499999999999904
 50
291.618272422157700
 51
308.381727577842640
  0
LINE
  8
0
  6
CONTINUOUS
 62
3
 10
-294.800387290357660
 20
-99.888822738392619
 11
-297.419062746134730
 21
-98.376929759079431
  0
LINE
  8
0
  6
CONTINUOUS
 62
3
 10
-316.417689078289530
 20
-120.916413198079800
 11
-316.417689078289530
 21
-117.902501011786520
  0
LINE
  8
0
  6
CONTINUOUS
 62
3
 10
-287.398610665859340
 20
-104.162240465028510
 11
-290.008735183965090
 21
-102.655284371881760
  0
LINE
  8
0
  6
CONTINUOUS
 62
3
 10
-302.235525237860540
 20
-95.596143842940265
 11
-304.876760394916690
 21
-94.071226014020695
  0
LINE
  8
0
  6
CONTINUOUS
 62
3
 10
-309.775384232876040
 20
-91.243004222515893
 11
-312.519159807900340
 21
-89.658884655679813
  0
LINE
  8
0
  6
CONTINUOUS
 62
3
 10
-316.417689078289530
 20
-95.077940713054787
 11
-316.417689078289530
 21
-91.909701579382627
  0
LINE
  8
0
  6
CONTINUOUS
 62
3
 10
-316.417689078289530
 20
-103.784219953903300
 11
-316.417689078289530
 21
-100.734384296064390
  0
LINE
  8
0
  6
CONTINUOUS
 62
3
 10
-316.417689078289530
 20
-112.369577744808460
 11
-316.417689078289530
 21
-109.345791786182090
  0
ARC
  8
0
  6
CONTINUOUS
 62
3
 10
-318.917689078289530
 20
-83.077940713054787
 40
39.000000000000220
 50
155.284732954534800
 51
204.715267045465200
  0
ARC
  8
0
  6
CONTINUOUS
 62
3
 10
-318.917689078289530
 20
-83.077940713054787
 40
34.000000000000007
 50
155.739170477266780
 51
204.260829522733220
  0
ARC
  8
0
  6
CONTINUOUS
 62
3
 10
-318.917689078289530
 20
-83.077940713054787
 40
25.500000000000000
 50
157.589542391857980
 51
202.410457608142480
  0
ARC
  8
0
  6
CONTINUOUS
 62
3
 10
-318.917689078289530
 20
-83.077940713054787
 40
30.499999999999947
 50
156.813854344181150
 51
203.186145655818850
  0
ARC
  8
0
  6
CONTINUOUS
 62
3
 10
-318.917689078289530
 20
-83.077940713054787
 40
22.000000000000206
 50
159.594068226860770
 51
200.405931773139230
  0
ARC
  8
0
  6
CONTINUOUS
 62
3
 10
-318.917689078289530
 20
-83.077940713054787
 40
16.999999999999716
 50
161.212271417649560
 51
198.787728582350440
  0
ARC
  8
0
  6
CONTINUOUS
 62
3
 10
-318.917689078289530
 20
-83.077940713054787
 40
13.499999999999687
 50
166.260204708311360
 51
193.739795291688180
  0
ARC
  8
0
  6
CONTINUOUS
 62
3
 10
-331.059993923703020
 20
-80.109029626300199
 40
0.999999999999885
 50
59.999999999996206
 51
166.260204708307780
  0
ARC
  8
0
  6
CONTINUOUS
 62
3
 10
-338.599852918718970
 20
-75.755890005876054
 40
0.999999999999885
 50
59.999999999996206
 51
159.594068226861310
  0
LINE
  8
0
  6
CONTINUOUS
 62
3
 10
-338.099852918718970
 20
-74.889864602091748
 11
-335.458617761662370
 21
-76.414782431011091
  0
ARC
  8
0
  6
CONTINUOUS
 62
3
 10
-335.958617761662370
 20
-77.280807834795624
 40
1.000000000000076
 50
341.212271417652970
 51
60.000000000002721
  0
LINE
  8
0
  6
CONTINUOUS
 62
3
 10
-330.559993923703020
 20
-79.243004222515893
 11
-327.816218348678720
 21
-80.827123789351973
  0
ARC
  8
0
  6
CONTINUOUS
 62
3
 10
-328.316218348678720
 20
-81.693149193136506
 40
1.000000000000026
 50
351.618272422167310
 51
60.000000000002721
  0
ARC
  8
0
  6
CONTINUOUS
 62
3
 10
-350.826642972613970
 20
-68.696749476934329
 40
0.999999999999863
 50
335.739170477254390
 51
59.999999999996206
  0
LINE
  8
0
  6
CONTINUOUS
 62
3
 10
-352.936767490719720
 20
-66.323767980003268
 11
-350.326642972613970
 21
-67.830724073150023
  0
ARC
  8
0
  6
CONTINUOUS
 62
3
 10
-353.436767490719720
 20
-67.189793383787801
 40
1.000000000000082
 50
60.000000000002721
 51
155.284732954544520
  0
ARC
  8
0
  6
CONTINUOUS
 62
3
 10
-343.416315410443870
 20
-72.975104089736661
 40
0.999999999999701
 50
337.589542391853970
 51
60.000000000002721
  0
LINE
  8
0
  6
CONTINUOUS
 62
3
 10
-345.534990866221390
 20
-70.597185706638939
 11
-342.916315410443870
 21
-72.109078685952127
  0
ARC
  8
0
  6
CONTINUOUS
 62
3
 10
-346.034990866221390
 20
-71.463211110423472
 40
1.000000000000082
 50
60.000000000002721
 51
156.813854344180160
  0
ARC
  8
0
  6
CONTINUOUS
 62
3
 10
-318.917689078289530
 20
-83.077940713054787
 40
38.999999999999986
 50
95.284732954534590
 51
144.715267045465200
  0
ARC
  8
0
  6
CONTINUOUS
 62
3
 10
-318.917689078289530
 20
-83.077940713054787
 40
34.000000000000071
 50
95.739170477266924
 51
144.260829522733360
  0
ARC
  8
0
  6
CONTINUOUS
 62
3
 10
-318.917689078289530
 20
-83.077940713054787
 40
25.500000000000160
 50
97.589542391858117
 51
142.410457608142050
  0
ARC
  8
0
  6
CONTINUOUS
 62
3
 10
-318.917689078289530
 20
-83.077940713054787
 40
30.500000000000135
 50
96.813854344181038
 51
143.186145655818930
  0
ARC
  8
0
  6
CONTINUOUS
 62
3
 10
-318.917689078289530
 20
-83.077940713054787
 40
22.000000000000131
 50
99.594068226861211
 51
140.405931773139200
  0
ARC
  8
0
  6
CONTINUOUS
 62
3
 10
-318.917689078289530
 20
-83.077940713054787
 40
17.000000000000046
 50
101.212271417650010
 51
138.787728582350240
  0
ARC
  8
0
  6
CONTINUOUS
 62
3
 10
-318.917689078289530
 20
-83.077940713054787
 40
13.499999999999963
 50
106.260204708310860
 51
133.739795291687870
  0
ARC
  8
0
  6
CONTINUOUS
 62
3
 10
-322.417689078289530
 20
-71.077940713054787
 40
1.000000000000000
 50
0.000000000000000
 51
106.260204708297360
  0
LINE
  8
0
  6
CONTINUOUS
 62
3
 10
-321.417689078289530
 20
-71.077940713054787
 11
-321.417689078289530
 21
-74.246179846726946
  0
ARC
  8
0
  6
CONTINUOUS
 62
3
 10
-327.559993923703020
 20
-74.046851799809374
 40
0.999999999999858
 50
133.739795291671300
 51
239.999999999996220
  0
ARC
  8
0
  6
CONTINUOUS
 62
3
 10
-318.917689078289530
 20
-83.077940713054787
 40
8.499999999999904
 50
111.618272422157710
 51
128.381727577841670
  0
ARC
  8
0
  6
CONTINUOUS
 62
3
 10
-322.417689078289530
 20
-74.246179846726946
 40
1.000000000000090
 50
291.618272422161970
 51
0.000000000000000
  0
ARC
  8
0
  6
CONTINUOUS
 62
3
 10
-335.099852918718510
 20
-69.693712179384775
 40
1.000000000000173
 50
140.405931773149600
 51
240.000000000002730
  0
LINE
  8
0
  6
CONTINUOUS
 62
3
 10
-335.599852918718510
 20
-70.559737583169309
 11
-332.958617761662370
 21
-72.084655412088878
  0
ARC
  8
0
  6
CONTINUOUS
 62
3
 10
-332.458617761662370
 20
-71.218630008304572
 40
0.999999999999885
 50
239.999999999996220
 51
318.787728582348790
  0
LINE
  8
0
  6
CONTINUOUS
 62
3
 10
-328.059993923703020
 20
-74.912877203593681
 11
-325.316218348678720
 21
-76.496996770429760
  0
ARC
  8
0
  6
CONTINUOUS
 62
3
 10
-324.816218348678720
 20
-75.630971366645227
 40
1.000000000000082
 50
240.000000000002730
 51
308.381727577840190
  0
ARC
  8
0
  6
CONTINUOUS
 62
3
 10
-347.326642972613970
 20
-62.634571650443505
 40
0.999999999999885
 50
239.999999999996220
 51
324.260829522725940
  0
LINE
  8
0
  6
CONTINUOUS
 62
3
 10
-350.436767490719720
 20
-61.993640961081056
 11
-347.826642972613970
 21
-63.500597054227811
  0
ARC
  8
0
  6
CONTINUOUS
 62
3
 10
-349.936767490719720
 20
-61.127615557296750
 40
0.999999999999908
 50
144.715267045455050
 51
239.999999999996220
  0
ARC
  8
0
  6
CONTINUOUS
 62
3
 10
-339.916315410443870
 20
-66.912926263245609
 40
1.000000000000082
 50
240.000000000002730
 51
322.410457608132330
  0
LINE
  8
0
  6
CONTINUOUS
 62
3
 10
-343.034990866221390
 20
-66.267058687716954
 11
-340.416315410443870
 21
-67.778951667030142
  0
ARC
  8
0
  6
CONTINUOUS
 62
3
 10
-342.534990866221390
 20
-65.401033283932421
 40
0.999999999999774
 50
143.186145655813330
 51
240.000000000002730
  0
ARC
  8
0
  6
CONTINUOUS
 62
3
 10
-322.417689078289530
 20
-45.239468228029764
 40
1.000000000000000
 50
0.000000000000000
 51
95.284732954535698
  0
LINE
  8
0
  6
CONTINUOUS
 62
3
 10
-321.417689078289530
 20
-45.239468228029764
 11
-321.417689078289530
 21
-48.253380414323047
  0
ARC
  8
0
  6
CONTINUOUS
 62
3
 10
-322.417689078289530
 20
-48.253380414323047
 40
0.999999999999973
 50
275.739170477261670
 51
0.000000000000000
  0
ARC
  8
0
  6
CONTINUOUS
 62
3
 10
-322.417689078289530
 20
-53.786303681301106
 40
1.000000000000000
 50
0.000000000000000
 51
96.813854344179688
  0
LINE
  8
0
  6
CONTINUOUS
 62
3
 10
-321.417689078289530
 20
-53.786303681301106
 11
-321.417689078289530
 21
-56.810089639927256
  0
ARC
  8
0
  6
CONTINUOUS
 62
3
 10
-322.417689078289530
 20
-56.810089639927483
 40
0.999999999999749
 50
277.589542391855960
 51
0.000000000013028
  0
ARC
  8
0
  6
CONTINUOUS
 62
3
 10
-322.417689078289530
 20
-62.371661472206270
 40
1.000000000000000
 50
0.000000000000000
 51
99.594068226875478
  0
LINE
  8
0
  6
CONTINUOUS
 62
3
 10
-321.417689078289530
 20
-62.371661472206270
 11
-321.417689078289530
 21
-65.421497130045182
  0
ARC
  8
0
  6
CONTINUOUS
 62
3
 10
-322.417689078289530
 20
-65.421497130045182
 40
0.999999999999982
 50
281.212271417643990
 51
0.000000000000000
  0
ARC
  8
0
  6
CONTINUOUS
 62
3
 10
-331.059993923703020
 20
-86.046851799809374
 40
0.999999999999879
 50
193.739795291686050
 51
300.000000000003810
  0
LINE
  8
0
  6
CONTINUOUS
 62
3
 10
-330.559993923703020
 20
-86.912877203593681
 11
-327.816218348678720
 21
-85.328757636757601
  0
ARC
  8
0
  6
CONTINUOUS
 62
3
 10
-318.917689078289530
 20
-83.077940713054787
 40
8.499999999999972
 50
171.618272422157790
 51
188.381727577842210
  0
ARC
  8
0
  6
CONTINUOUS
 62
3
 10
-328.316218348678720
 20
-84.462732232973295
 40
0.999999999999885
 50
300.000000000003810
 51
8.381727577845549
  0
LINE
  8
0
  6
CONTINUOUS
 62
3
 10
-321.417689078289530
 20
-112.369577744808460
 11
-321.417689078289530
 21
-109.345791786182090
  0
LINE
  8
0
  6
CONTINUOUS
 62
3
 10
-321.417689078289530
 20
-103.784219953903300
 11
-321.417689078289530
 21
-100.734384296064390
  0
LINE
  8
0
  6
CONTINUOUS
 62
3
 10
-321.417689078289530
 20
-95.077940713054787
 11
-321.417689078289530
 21
-91.909701579382627
  0
LINE
  8
0
  6
CONTINUOUS
 62
3
 10
-328.059993923703020
 20
-91.243004222515893
 11
-325.316218348678720
 21
-89.658884655679813
  0
LINE
  8
0
  6
CONTINUOUS
 62
3
 10
-335.599852918718510
 20
-95.596143842940265
 11
-332.958617761662370
 21
-94.071226014020695
  0
LINE
  8
0
  6
CONTINUOUS
 62
3
 10
-350.436767490719720
 20
-104.162240465028510
 11
-347.826642972613970
 21
-102.655284371881760
  0
LINE
  8
0
  6
CONTINUOUS
 62
3
 10
-343.034990866221390
 20
-99.888822738392619
 11
-340.416315410444330
 21
-98.376929759079431
  0
ARC
  8
0
  6
CONTINUOUS
 62
3
 10
-318.917689078289530
 20
-83.077940713054787
 40
8.499999999999948
 50
231.618272422157330
 51
248.381727577842330
  0
ARC
  8
0
  6
CONTINUOUS
 62
3
 10
-318.917689078289530
 20
-83.077940713054787
 40
13.499999999999927
 50
226.260204708312130
 51
253.739795291689150
  0
ARC
  8
0
  6
CONTINUOUS
 62
3
 10
-318.917689078289530
 20
-83.077940713054787
 40
16.999999999999773
 50
221.212271417650780
 51
258.787728582349980
  0
ARC
  8
0
  6
CONTINUOUS
 62
3
 10
-318.917689078289530
 20
-83.077940713054787
 40
22.000000000000025
 50
219.594068226860800
 51
260.405931773138780
  0
ARC
  8
0
  6
CONTINUOUS
 62
3
 10
-318.917689078289530
 20
-83.077940713054787
 40
25.499999999999890
 50
217.589542391857950
 51
262.410457608141830
  0
ARC
  8
0
  6
CONTINUOUS
 62
3
 10
-318.917689078289530
 20
-83.077940713054787
 40
33.999999999999964
 50
215.739170477266950
 51
264.260829522733050
  0
ARC
  8
0
  6
CONTINUOUS
 62
3
 10
-318.917689078289530
 20
-83.077940713054787
 40
30.499999999999964
 50
216.813854344181070
 51
263.186145655818960
  0
ARC
  8
0
  6
CONTINUOUS
 62
3
 10
-318.917689078289530
 20
-83.077940713054787
 40
38.999999999999865
 50
215.284732954534800
 51
264.715267045465400
  0
ARC
  8
0
  6
CONTINUOUS
 62
3
 10
-324.816218348678720
 20
-90.524910059464119
 40
0.999999999999961
 50
51.618272422159777
 51
120.000000000003780
  0
ARC
  8
0
  6
CONTINUOUS
 62
3
 10
-322.417689078289530
 20
-91.909701579382627
 40
1.000000000000000
 50
0.000000000000000
 51
68.381727577838021
  0
ARC
  8
0
  6
CONTINUOUS
 62
3
 10
-322.417689078289530
 20
-95.077940713054787
 40
0.999999999999964
 50
253.739795291702650
 51
0.000000000000000
  0
ARC
  8
0
  6
CONTINUOUS
 62
3
 10
-327.559993923703020
 20
-92.109029626300199
 40
0.999999999999885
 50
120.000000000003780
 51
226.260204708328700
  0
ARC
  8
0
  6
CONTINUOUS
 62
3
 10
-332.458617761662370
 20
-94.937251417805228
 40
1.000000000000165
 50
41.212271417643841
 51
119.999999999997270
  0
ARC
  8
0
  6
CONTINUOUS
 62
3
 10
-335.099852918718510
 20
-96.462169246724571
 40
0.999999999999885
 50
120.000000000003780
 51
219.594068226860460
  0
ARC
  8
0
  6
CONTINUOUS
 62
3
 10
-322.417689078289530
 20
-100.734384296064390
 40
1.000000000000000
 50
0.000000000000000
 51
78.787728582355996
  0
ARC
  8
0
  6
CONTINUOUS
 62
3
 10
-322.417689078289530
 20
-103.784219953903300
 40
1.000000000000268
 50
260.405931773124510
 51
0.000000000000000
  0
ARC
  8
0
  6
CONTINUOUS
 62
3
 10
-339.916315410444330
 20
-99.242955162863964
 40
1.000000000000194
 50
37.589542391851793
 51
119.999999999997270
  0
ARC
  8
0
  6
CONTINUOUS
 62
3
 10
-342.534990866221390
 20
-100.754848142176920
 40
0.999999999999885
 50
120.000000000003780
 51
216.813854344197100
  0
ARC
  8
0
  6
CONTINUOUS
 62
3
 10
-322.417689078289530
 20
-109.345791786182090
 40
1.000000000000000
 50
0.000000000000000
 51
82.410457608145762
  0
ARC
  8
0
  6
CONTINUOUS
 62
3
 10
-347.326642972613970
 20
-103.521309775666060
 40
0.999999999999807
 50
35.739170477263521
 51
120.000000000003780
  0
ARC
  8
0
  6
CONTINUOUS
 62
3
 10
-349.936767490719720
 20
-105.028265868813050
 40
1.000000000000082
 50
119.999999999997270
 51
215.284732954534320
  0
ARC
  8
0
  6
CONTINUOUS
 62
3
 10
-353.436767490719720
 20
-98.966088042321772
 40
1.000000000000248
 50
204.715267045455480
 51
300.000000000003810
  0
LINE
  8
0
  6
CONTINUOUS
 62
3
 10
-352.936767490719720
 20
-99.832113446106078
 11
-350.326642972613970
 21
-98.325157352959550
  0
ARC
  8
0
  6
CONTINUOUS
 62
3
 10
-346.034990866221390
 20
-94.692670315686101
 40
0.999999999999730
 50
203.186145655819840
 51
299.999999999997270
  0
LINE
  8
0
  6
CONTINUOUS
 62
3
 10
-345.534990866221390
 20
-95.558695719470634
 11
-342.916315410443870
 21
-94.046802740157673
  0
ARC
  8
0
  6
CONTINUOUS
 62
3
 10
-350.826642972613970
 20
-97.459131949175017
 40
1.000000000000082
 50
299.999999999997270
 51
24.260829522733715
  0
ARC
  8
0
  6
CONTINUOUS
 62
3
 10
-343.416315410443870
 20
-93.180777336373140
 40
1.000000000000082
 50
299.999999999997270
 51
22.410457608146043
  0
ARC
  8
0
  6
CONTINUOUS
 62
3
 10
-338.599852918718970
 20
-90.399991420233519
 40
1.000000000000094
 50
200.405931773138690
 51
300.000000000003810
  0
LINE
  8
0
  6
CONTINUOUS
 62
3
 10
-338.099852918718970
 20
-91.266016824017825
 11
-335.458617761662370
 21
-89.741098995098255
  0
ARC
  8
0
  6
CONTINUOUS
 62
3
 10
-335.958617761662370
 20
-88.875073591313949
 40
0.999999999999885
 50
300.000000000003810
 51
18.787728582346993
  0
LINE
  8
0
  6
CONTINUOUS
 62
3
 10
-321.417689078289530
 20
-120.916413198079800
 11
-321.417689078289530
 21
-117.902501011786520
  0
ARC
  8
0
  6
CONTINUOUS
 62
3
 10
-322.417689078289530
 20
-112.369577744808460
 40
1.000000000000077
 50
263.186145655820330
 51
0.000000000000000
  0
ARC
  8
0
  6
CONTINUOUS
 62
3
 10
-322.417689078289530
 20
-120.916413198079800
 40
1.000000000000042
 50
264.715267045464260
 51
0.000000000000000
  0
ARC
  8
0
  6
CONTINUOUS
 62
3
 10
-322.417689078289530
 20
-117.902501011786520
 40
1.000000000000000
 50
0.000000000000000
 51
84.260829522738291
  0
ARC
  8
0
  6
CONTINUOUS
 62
3
 10
-318.917689078289530
 20
-429.677940713054910
 40
400.599999999999910
 50
84.256318189006564
 51
90.000000000000000
  0
ARC
  8
0
  6
CONTINUOUS
 62
3
 10
-279.486822078202180
 20
-37.655993970756427
 40
6.600000000000278
 50
44.999999999997215
 51
84.256318189004901
  0
ARC
  8
0
  6
CONTINUOUS
 62
4
 10
-318.917689078289530
 20
-429.677940713054910
 40
390.797000000000030
 50
84.582036237639471
 51
90.000000000000000
  0
ARC
  8
0
  6
CONTINUOUS
 62
4
 10
-282.301724139271190
 20
-43.613458637088016
 40
3.000000000000346
 50
44.999999999996930
 51
84.582036237634313
  0
ARC
  8
0
  6
CONTINUOUS
 62
4
 10
-282.301724139271190
 20
-122.542422789021550
 40
3.000000000000067
 50
275.417963762365730
 51
315.000000000003070
  0
ARC
  8
0
  6
CONTINUOUS
 62
4
 10
-318.917689078289530
 20
263.522059286945360
 40
390.797000000000030
 50
270.000000000000000
 51
275.417963762360500
  0
ARC
  8
0
  6
CONTINUOUS
 62
4
 10
-291.545798490770150
 20
-106.617738370966790
 40
20.797000000000015
 50
315.000000000000000
 51
354.998349729064670
  0
LINE
  8
0
  6
CONTINUOUS
 62
4
 10
-276.840098762433510
 20
-121.323438099303430
 11
-280.180403795711190
 21
-124.663743132581330
  0
ARC
  8
0
  6
CONTINUOUS
 62
4
 10
-560.517689078289890
 20
-83.077940713054787
 40
290.797000000000140
 50
354.998349729065010
 51
0.000000000000000
  0
ARC
  8
0
  6
CONTINUOUS
 62
4
 10
-355.533654017307870
 20
-122.542422789021550
 40
3.000000000000346
 50
224.999999999996960
 51
264.582036237634270
  0
ARC
  8
0
  6
CONTINUOUS
 62
4
 10
-318.917689078289530
 20
263.522059286945360
 40
390.797000000000030
 50
264.582036237639500
 51
270.000000000000000
  0
ARC
  8
0
  6
CONTINUOUS
 62
4
 10
-346.289579665808900
 20
-106.617738370966790
 40
20.796999999999880
 50
185.001650270935330
 51
225.000000000000000
  0
LINE
  8
0
  6
CONTINUOUS
 62
4
 10
-360.995279394145540
 20
-121.323438099303430
 11
-357.654974360867870
 21
-124.663743132581330
  0
ARC
  8
0
  6
CONTINUOUS
 62
4
 10
-77.317689078289419
 20
-83.077940713054787
 40
290.797000000000250
 50
180.000000000000000
 51
185.001650270934930
  0
ARC
  8
0
  6
CONTINUOUS
 62
4
 10
-355.533654017307870
 20
-43.613458637088016
 40
3.000000000000067
 50
95.417963762365673
 51
135.000000000003040
  0
ARC
  8
0
  6
CONTINUOUS
 62
4
 10
-318.917689078289530
 20
-429.677940713054910
 40
390.797000000000030
 50
90.000000000000000
 51
95.417963762360529
  0
ARC
  8
0
  6
CONTINUOUS
 62
4
 10
-346.289579665808900
 20
-59.538143055142783
 40
20.797000000000015
 50
135.000000000000000
 51
174.998349729064670
  0
LINE
  8
0
  6
CONTINUOUS
 62
4
 10
-360.995279394145540
 20
-44.832443326806143
 11
-357.654974360867870
 21
-41.492138293528242
  0
ARC
  8
0
  6
CONTINUOUS
 62
4
 10
-77.317689078289419
 20
-83.077940713054787
 40
290.796999999999910
 50
174.998349729065040
 51
180.000000000000000
  0
ARC
  8
0
  6
CONTINUOUS
 62
3
 10
-237.978919944307900
 20
-108.077940713054780
 40
5.000000000000000
 50
270.000000000000000
 51
355.138594604201330
  0
ARC
  8
0
  6
CONTINUOUS
 62
3
 10
-237.978919944307900
 20
-58.077940713054787
 40
4.999999999999893
 50
4.861405395798621
 51
90.000000000000000
  0
LINE
  8
0
  6
CONTINUOUS
 62
3
 10
-261.417689078289530
 20
-113.077940713054780
 11
-237.978919944307900
 21
-113.077940713054780
  0
LINE
  8
0
  6
CONTINUOUS
 62
3
 10
-261.417689078289530
 20
-53.077940713054787
 11
-237.978919944307900
 21
-53.077940713054787
  0
ARC
  8
0
  6
CONTINUOUS
 62
3
 10
-531.917689078289530
 20
-83.077940713054787
 40
300.000000000000170
 50
355.138594604201960
 51
4.861405395798036
  0
LINE
  8
0
  6
CONTINUOUS
 62
3
 10
-231.928105925807240
 20
-80.577940713054787
 11
-231.417689078289530
 21
-80.577940713054787
  0
LINE
  8
0
  6
CONTINUOUS
 62
3
 10
-231.928105925807240
 20
-85.577940713054787
 11
-231.417689078289530
 21
-85.577940713054787
  0
LINE
  8
0
  6
CONTINUOUS
 62
3
 10
-231.417689078289530
 20
-85.577940713054787
 11
-231.417689078289530
 21
-80.577940713054787
  0
ARC
  8
0
  6
CONTINUOUS
 62
3
 10
-281.927621840143160
 20
-55.014184082039165
 40
20.599999999999916
 50
5.752282731536487
 51
44.999999999997321
  0
LINE
  8
0
  6
CONTINUOUS
 62
3
 10
-267.361222147699550
 20
-40.447784389596919
 11
-274.819917322370540
 21
-32.989089214925244
  0
ARC
  8
0
  6
CONTINUOUS
 62
3
 10
-560.517689078289890
 20
-83.077940713054787
 40
300.600000000000360
 50
0.000000000000000
 51
5.752282731536604
  0
LINE
  8
0
  6
CONTINUOUS
 62
3
 10
-261.616240018388340
 20
-51.577940713054787
 11
-261.417689078289530
 21
-51.577940713054787
  0
LINE
  8
0
  6
CONTINUOUS
 62
3
 10
-261.417689078289530
 20
-53.085441650792646
 11
-261.417689078289530
 21
-51.577940713054787
  0
ARC
  8
0
  6
CONTINUOUS
 62
4
 10
-281.927621840143160
 20
-55.014184082039165
 40
10.797000000000011
 50
5.752282731536912
 51
44.999999999998295
  0
ARC
  8
0
  6
CONTINUOUS
 62
4
 10
-560.517689078289890
 20
-83.077940713054787
 40
290.797000000000480
 50
0.000000000000000
 51
5.752282731536624
  0
ARC
  8
0
  6
CONTINUOUS
 62
3
 10
-560.517689078289890
 20
-83.077940713054787
 40
300.599999999999910
 50
354.247717268463420
 51
0.000000000000000
  0
LINE
  8
0
  6
CONTINUOUS
 62
3
 10
-267.361222147699550
 20
-125.708097036512650
 11
-274.819917322370540
 21
-133.166792211184320
  0
ARC
  8
0
  6
CONTINUOUS
 62
3
 10
-281.927621840143160
 20
-111.141697344070400
 40
20.600000000000069
 50
315.000000000002670
 51
354.247717268463480
  0
ARC
  8
0
  6
CONTINUOUS
 62
3
 10
-318.917689078289530
 20
263.522059286945360
 40
400.599999999999910
 50
270.000000000000000
 51
275.743681810993450
  0
ARC
  8
0
  6
CONTINUOUS
 62
3
 10
-279.486822078202180
 20
-128.499887455353130
 40
6.600000000000009
 50
275.743681810995100
 51
315.000000000002790
  0
ARC
  8
0
  6
CONTINUOUS
 62
3
 10
-77.317689078289192
 20
-83.077940713054787
 40
300.600000000000360
 50
180.000000000000000
 51
185.752282731536610
  0
LINE
  8
0
  6
CONTINUOUS
 62
3
 10
-370.474156008879500
 20
-125.708097036512650
 11
-363.015460834208510
 21
-133.166792211184320
  0
ARC
  8
0
  6
CONTINUOUS
 62
3
 10
-355.907756316435890
 20
-111.141697344070400
 40
20.599999999999916
 50
185.752282731536500
 51
224.999999999997330
  0
ARC
  8
0
  6
CONTINUOUS
 62
3
 10
-318.917689078289530
 20
263.522059286945360
 40
400.599999999999910
 50
264.256318189006550
 51
270.000000000000000
  0
ARC
  8
0
  6
CONTINUOUS
 62
3
 10
-358.348556078376870
 20
-128.499887455353130
 40
6.600000000000278
 50
224.999999999997190
 51
264.256318189004900
  0
ARC
  8
0
  6
CONTINUOUS
 62
3
 10
-77.317689078289192
 20
-83.077940713054787
 40
300.599999999999910
 50
174.247717268463390
 51
180.000000000000000
  0
LINE
  8
0
  6
CONTINUOUS
 62
3
 10
-370.474156008879500
 20
-40.447784389596919
 11
-363.015460834208510
 21
-32.989089214925244
  0
ARC
  8
0
  6
CONTINUOUS
 62
3
 10
-355.907756316435890
 20
-55.014184082039165
 40
20.600000000000069
 50
135.000000000002670
 51
174.247717268463500
  0
ARC
  8
0
  6
CONTINUOUS
 62
3
 10
-318.917689078289530
 20
-429.677940713054910
 40
400.599999999999910
 50
90.000000000000000
 51
95.743681810993436
  0
ARC
  8
0
  6
CONTINUOUS
 62
3
 10
-358.348556078376870
 20
-37.655993970756427
 40
6.600000000000009
 50
95.743681810995099
 51
135.000000000002790
  0
LINE
  8
0
  6
CONTINUOUS
 62
3
 10
-261.417689078289530
 20
-114.577940713054780
 11
-261.417689078289530
 21
-113.065926567485020
  0
LINE
  8
0
  6
CONTINUOUS
 62
3
 10
-261.616240018388340
 20
-114.577940713054780
 11
-261.417689078289530
 21
-114.577940713054780
  0
INSERT
  8
0
  2
SYM12
 10
52.586303596095007
 20
-107.577940713056710
  0
LINE
  8
0
  6
CONTINUOUS
 62
3
 10
47.586303596095917
 20
-46.577940713056705
 11
46.586303596096826
 21
-46.577940713056705
  0
LINE
  8
0
  6
CONTINUOUS
 62
3
 10
46.586303596096826
 20
-46.577940713056705
 11
46.586303596096826
 21
-36.577940713056705
  0
LINE
  8
0
  6
CONTINUOUS
 62
3
 10
52.586303596096826
 20
-35.477941285261295
 11
52.586303596096826
 21
-39.971953733621831
  0
LINE
  8
0
  6
CONTINUOUS
 62
3
 10
52.586303596096826
 20
-36.577940713056705
 11
46.586303596096826
 21
-36.577940713056705
  0
ARC
  8
0
  6
CONTINUOUS
 62
3
 10
51.586303596096826
 20
-31.168433972958155
 40
1.000000000000000
 50
0.000000000000000
 51
90.000000000000000
  0
ARC
  8
0
  6
CONTINUOUS
 62
3
 10
48.586303596096826
 20
-29.168433972958155
 40
1.000000000000000
 50
180.000000000000000
 51
270.000000000000000
  0
LINE
  8
0
  6
CONTINUOUS
 62
3
 10
48.586303596096826
 20
-30.168433972958155
 11
51.586303596096826
 21
-30.168433972958155
  0
ARC
  8
0
  6
CONTINUOUS
 62
3
 10
51.586303596096826
 20
-39.971953733621831
 40
1.000000000000000
 50
270.000000000000000
 51
0.000000000000000
  0
ARC
  8
0
  6
CONTINUOUS
 62
3
 10
48.586303596096826
 20
-41.971953733621831
 40
1.000000000000000
 50
90.000000000000000
 51
180.000000000000000
  0
LINE
  8
0
  6
CONTINUOUS
 62
3
 10
48.586303596096826
 20
-40.971953733621831
 11
51.586303596096826
 21
-40.971953733621831
  0
LINE
  8
0
  6
CONTINUOUS
 62
3
 10
52.586303596096826
 20
-39.971953733621831
 11
52.586303596096826
 21
-31.168433972958155
  0
LINE
  8
0
  6
DASHDOT
 62
4
 10
351.746610090387550
 20
-83.077940713055227
 11
312.600420300284900
 21
-83.077940713055227
  0
LINE
  8
0
  6
CONTINUOUS
 62
3
 10
58.586303596096826
 20
-26.577940713057160
 11
49.586304948837409
 21
-26.577940713056705
  0
LINE
  8
0
  6
CONTINUOUS
 62
3
 10
47.586303596094098
 20
-78.704957366850522
 11
47.586303596095917
 21
-41.971953733621831
  0
LINE
  8
0
  6
CONTINUOUS
 62
3
 10
47.586303596095007
 20
-98.450924059265162
 11
47.586303596095007
 21
-102.577940713056700
  0
ARC
  8
0
  6
CONTINUOUS
 62
3
 10
49.586303596096826
 20
-28.577940713057160
 40
2.000000000000000
 50
90.000000000000000
 51
180.000000000000000
  0
LINE
  8
0
  6
CONTINUOUS
 62
3
 10
58.586303596095007
 20
-107.577940713057160
 11
58.586303596094552
 21
-155.857696764557660
  0
LINE
  8
0
  6
CONTINUOUS
 62
3
 10
58.586303596085003
 20
-107.577940713057160
 11
58.586303596096826
 21
-26.577940713057160
  0
LINE
  8
0
  6
CONTINUOUS
 62
3
 10
47.586303596096826
 20
-36.577940713056705
 11
47.586303596096826
 21
-28.577940713056705
  0
LINE
  8
0
  6
CONTINUOUS
 62
3
 10
47.586303596095007
 20
-112.577940713056700
 11
47.586303596095007
 21
-165.051091665322470
  0
ARC
  8
0
  6
CONTINUOUS
 62
3
 10
51.586303596095007
 20
-101.577940713057610
 40
1.000000000000000
 50
0.000000000000000
 51
90.000000000000000
  0
ARC
  8
0
  6
CONTINUOUS
 62
3
 10
48.586303596095007
 20
-99.577940713057615
 40
1.000000000000000
 50
180.000000000000000
 51
270.000000000000000
  0
LINE
  8
0
  6
CONTINUOUS
 62
3
 10
52.586303596095007
 20
-113.577940713055790
 11
52.586303596095007
 21
-101.577940713057610
  0
LINE
  8
0
  6
CONTINUOUS
 62
3
 10
48.586303596095007
 20
-100.577940713057610
 11
51.586303596095007
 21
-100.577940713057610
  0
ARC
  8
0
  6
CONTINUOUS
 62
3
 10
45.586303596095007
 20
-98.450924059265162
 40
2.000000000000000
 50
0.000000000000000
 51
75.522487814070544
  0
LINE
  8
0
  6
CONTINUOUS
 62
3
 10
44.586303596095917
 20
-94.577940713057615
 11
44.586303596095917
 21
-82.577940713057615
  0
ARC
  8
0
  6
CONTINUOUS
 62
3
 10
46.586303596095917
 20
-94.577940713057615
 40
2.000000000000000
 50
180.000000000000000
 51
255.522487814045290
  0
ARC
  8
0
  6
CONTINUOUS
 62
3
 10
45.586303596095007
 20
-78.704957366850522
 40
2.000000000000063
 50
284.477512185929470
 51
359.999999999986980
  0
ARC
  8
0
  6
CONTINUOUS
 62
3
 10
46.586303596095917
 20
-82.577940713057615
 40
1.999999999999850
 50
104.477512185957940
 51
180.000000000000000
  0
ARC
  8
0
  6
CONTINUOUS
 62
3
 10
51.586303596095007
 20
-113.577940713055790
 40
1.000000000000000
 50
270.000000000000000
 51
0.000000000000000
  0
ARC
  8
0
  6
CONTINUOUS
 62
3
 10
48.586303596095007
 20
-115.577940713055790
 40
1.000000000000000
 50
90.000000000000000
 51
180.000000000000000
  0
LINE
  8
0
  6
CONTINUOUS
 62
3
 10
48.586303596095007
 20
-114.577940713055790
 11
51.586303596095007
 21
-114.577940713055790
  0
ARC
  8
0
  6
CONTINUOUS
 62
3
 10
42.586303596095007
 20
-172.001938580499880
 40
4.999999999999920
 50
65.063484552028228
 51
87.000000000004846
  0
ARC
  8
0
  6
CONTINUOUS
 62
3
 10
42.586303596095917
 20
-43.153942845614438
 40
5.000000000000066
 50
273.000000000005570
 51
316.780153221368550
  0
LINE
  8
0
  6
CONTINUOUS
 62
3
 10
288.026470089464280
 20
-163.177940713056610
 11
332.126470089464190
 21
-163.177940713056610
  0
ARC
  8
0
  6
CONTINUOUS
 62
3
 10
288.026470089464280
 20
-158.177940713056610
 40
5.000000000000000
 50
180.000000000000000
 51
270.000000000000000
  0
ARC
  8
0
  6
CONTINUOUS
 62
3
 10
376.226470089464100
 20
-158.177940713056610
 40
5.000000000000000
 50
270.000000000000000
 51
0.000000000000000
  0
LINE
  8
0
  6
CONTINUOUS
 62
3
 10
376.226470089464100
 20
-163.177940713056610
 11
332.126470089464190
 21
-163.177940713056610
  0
ARC
  8
0
  6
CONTINUOUS
 62
3
 10
274.557480436268860
 20
-165.577940713056710
 40
3.000000000000000
 50
270.000000000000000
 51
0.000000000000000
  0
ARC
  8
0
  6
CONTINUOUS
 62
3
 10
389.695459742659520
 20
-165.577940713056710
 40
3.000000000000000
 50
180.000000000000000
 51
270.000000000000000
  0
ARC
  8
0
  6
CONTINUOUS
 62
3
 10
249.626470089464190
 20
-166.381788290350410
 40
2.999999999999853
 50
300.000000000001590
 51
0.000000000000000
  0
ARC
  8
0
  6
CONTINUOUS
 62
3
 10
414.626470089464190
 20
-166.381788290350410
 40
3.000000000000000
 50
180.000000000000000
 51
239.999999999998410
  0
LINE
  8
0
  6
CONTINUOUS
 62
3
 10
414.626470089464190
 20
-186.577940713056710
 11
386.626470089464190
 21
-186.577940713056710
  0
LINE
  8
0
  6
DASHDOT
 62
4
 10
402.126470089464190
 20
-190.158444481977770
 11
402.126470089464190
 21
-159.922623520978960
  0
ARC
  8
0
  6
CONTINUOUS
 62
3
 10
279.626470089464190
 20
-186.577940713056710
 40
2.000000000000000
 50
90.000000000000000
 51
180.000000000000000
  0
LINE
  8
0
  6
CONTINUOUS
 62
3
 10
249.626470089464190
 20
-186.577940713056710
 11
277.626470089464190
 21
-186.577940713056710
  0
LINE
  8
0
  6
CONTINUOUS
 62
3
 10
249.626470089464190
 20
-171.577940713056710
 11
249.626470089464190
 21
-186.577940713056710
  0
ARC
  8
0
  6
CONTINUOUS
 62
3
 10
252.626470089464190
 20
-171.577940713056710
 40
3.000000000000000
 50
90.000000000000000
 51
180.000000000000000
  0
LINE
  8
0
  6
CONTINUOUS
 62
3
 10
252.626470089464190
 20
-168.577940713056710
 11
332.126470089464190
 21
-168.577940713056710
  0
LINE
  8
0
  6
DASHDOT
 62
4
 10
262.126470089464190
 20
-190.158444481977310
 11
262.126470089464190
 21
-160.422623520978960
  0
LINE
  8
0
  6
CONTINUOUS
 62
3
 10
414.626470089464190
 20
-171.577940713056710
 11
414.626470089464190
 21
-186.577940713056710
  0
ARC
  8
0
  6
CONTINUOUS
 62
3
 10
411.626470089464190
 20
-171.577940713056710
 40
3.000000000000000
 50
0.000000000000000
 51
90.000000000000000
  0
LINE
  8
0
  6
CONTINUOUS
 62
3
 10
411.626470089464190
 20
-168.577940713056710
 11
332.126470089464190
 21
-168.577940713056710
  0
ARC
  8
0
  6
CONTINUOUS
 62
3
 10
384.626470089464190
 20
-186.577940713056710
 40
2.000000000000000
 50
0.000000000000000
 51
90.000000000000000
  0
ARC
  8
0
  6
CONTINUOUS
 62
3
 10
407.231950505100710
 20
-165.577940713056710
 40
3.000000000000000
 50
180.000000000000000
 51
270.000000000000000
  0
ARC
  8
0
  6
CONTINUOUS
 62
3
 10
257.020989673827670
 20
-165.577940713056710
 40
3.000000000000000
 50
270.000000000000000
 51
0.000000000000000
  0
ARC
  8
0
  6
CONTINUOUS
 62
3
 10
389.930058641789170
 20
-165.577940713056710
 40
3.000000000000000
 50
180.000000000000000
 51
270.000000000000000
  0
ARC
  8
0
  6
CONTINUOUS
 62
3
 10
274.322881537139210
 20
-165.577940713056710
 40
3.000000000000000
 50
270.000000000000000
 51
0.000000000000000
  0
LINE
  8
0
  6
CONTINUOUS
 62
3
 10
279.626470089464190
 20
-184.577940713056710
 11
332.126470089464190
 21
-184.577940713056710
  0
LINE
  8
0
  6
CONTINUOUS
 62
3
 10
384.626470089464190
 20
-184.577940713056710
 11
332.126470089464190
 21
-184.577940713056710
  0
ARC
  8
0
  6
CONTINUOUS
 62
3
 10
332.126470089464190
 20
-476.577940713280440
 40
450.000000000000000
 50
90.000000000000000
 51
92.158403465040607
  0
ARC
  8
0
  6
CONTINUOUS
 62
3
 10
332.126470089464190
 20
-476.577940713280440
 40
449.999999999999830
 50
87.841596534959393
 51
90.000000000000000
  0
LINE
  8
0
  6
CONTINUOUS
 62
3
 10
411.626470089464190
 20
-91.851089557814703
 11
411.626470089464190
 21
-166.381788290350410
  0
LINE
  8
0
  6
CONTINUOUS
 62
3
 10
404.231950505100710
 20
-86.577940713280441
 11
404.231950505100710
 21
-165.577940713056710
  0
ARC
  8
0
  6
CONTINUOUS
 62
3
 10
332.126470089464190
 20
-81.577940713056705
 40
33.000000000000227
 50
183.275828959798100
 51
270.000000000000000
  0
ARC
  8
0
  6
CONTINUOUS
 62
3
 10
297.183659670152110
 20
-83.577940713056705
 40
1.999999999999555
 50
3.275828959803601
 51
90.000000000000000
  0
ARC
  8
0
  6
CONTINUOUS
 62
3
 10
378.726470089464100
 20
-84.077940713056705
 40
2.500000000000000
 50
0.000000000000000
 51
90.000000000000000
  0
ARC
  8
0
  6
CONTINUOUS
 62
3
 10
367.069280508776270
 20
-83.577940713056705
 40
2.000000000000000
 50
90.000000000000000
 51
176.724171040196380
  0
ARC
  8
0
  6
CONTINUOUS
 62
3
 10
332.126470089464190
 20
-81.577940713056705
 40
33.000000000000000
 50
270.000000000000000
 51
356.724171040201900
  0
LINE
  8
0
  6
CONTINUOUS
 62
3
 10
381.226470089464100
 20
-84.077940713056705
 11
381.226470089464100
 21
-158.177940713056610
  0
LINE
  8
0
  6
CONTINUOUS
 62
3
 10
367.069280508776270
 20
-81.577940713056705
 11
378.726470089464100
 21
-81.577940713056705
  0
CIRCLE
  8
0
  6
CONTINUOUS
 62
3
 10
332.126470089464190
 20
-81.577940713056705
 40
22.500000000000000
  0
ARC
  8
0
  6
CONTINUOUS
 62
3
 10
332.126470089464190
 20
-476.577940713280440
 40
425.068989653195330
 50
90.000000000000000
 51
92.456227365373124
  0
ARC
  8
0
  6
CONTINUOUS
 62
3
 10
346.626470089464190
 20
-91.851089557814703
 40
40.124128274671328
 50
3.004087123230390
 51
84.684912337861860
  0
LINE
  8
0
  6
CONTINUOUS
 62
3
 10
386.695459742659520
 20
-89.748296659214247
 11
386.695459742659520
 21
-165.577940713056710
  0
ARC
  8
0
  6
CONTINUOUS
 62
3
 10
346.626470089464190
 20
-91.851089557814703
 40
65.000000000000000
 50
0.000000000000000
 51
87.841596534959265
  0
ARC
  8
0
  6
CONTINUOUS
 62
3
 10
332.126470089464190
 20
-81.577940713056705
 40
27.499999999999865
 50
5.488856131040610
 51
82.579132733585610
  0
LINE
  8
0
  6
DASHDOT
 62
4
 10
332.126470089464190
 20
-17.217574598897045
 11
332.126470089464190
 21
-192.068071877685720
  0
ARC
  8
0
  6
CONTINUOUS
 62
3
 10
332.126470089464190
 20
-81.577940713056705
 40
27.499999999999805
 50
80.268362606910614
 51
8.578456121525797
  0
LINE
  8
0
  6
CONTINUOUS
 62
3
 10
386.930058641789170
 20
-86.577940713280441
 11
386.930058641789170
 21
-165.577940713056710
  0
ARC
  8
0
  6
CONTINUOUS
 62
3
 10
332.126470089464190
 20
-476.577940713280440
 40
425.068989653195440
 50
87.543772634626876
 51
90.000000000000000
  0
CIRCLE
  8
0
  6
CONTINUOUS
 62
3
 10
332.126470089464190
 20
-81.577940713056705
 40
3.323500000000024
  0
CIRCLE
  8
0
  6
CONTINUOUS
 62
4
 10
332.126470089464190
 20
-81.577940713056705
 40
4.000000000000000
  0
LINE
  8
0
  6
CONTINUOUS
 62
3
 10
315.126470089464190
 20
-85.577940713056705
 11
315.126470089464190
 21
-77.577940713056705
  0
LINE
  8
0
  6
CONTINUOUS
 62
3
 10
322.126470089464190
 20
-85.577940713056705
 11
322.126470089464190
 21
-77.577940713056705
  0
LINE
  8
0
  6
CONTINUOUS
 62
3
 10
315.126470089464190
 20
-85.577940713056705
 11
322.126470089464190
 21
-85.577940713056705
  0
LINE
  8
0
  6
CONTINUOUS
 62
3
 10
315.126470089464190
 20
-77.577940713056705
 11
322.126470089464190
 21
-77.577940713056705
  0
POLYLINE
  8
0
  6
CONTINUOUS
 62
3
 66
1
  0
VERTEX
  8
0
  6
CONTINUOUS
 62
3
 10
404.231950505100710
 20
-86.577940713280441
  0
VERTEX
  8
0
  6
CONTINUOUS
 62
3
 10
404.065725004777110
 20
-83.651585883038521
  0
VERTEX
  8
0
  6
CONTINUOUS
 62
3
 10
403.573436456563510
 20
-80.837689227804091
  0
VERTEX
  8
0
  6
CONTINUOUS
 62
3
 10
402.774003233289020
 20
-78.244387217986400
  0
VERTEX
  8
0
  6
CONTINUOUS
 62
3
 10
401.698147105396910
 20
-75.971338995482228
  0
VERTEX
  8
0
  6
CONTINUOUS
 62
3
 10
400.387212620534910
 20
-74.105896528742264
  0
VERTEX
  8
0
  6
CONTINUOUS
 62
3
 10
398.891578255775760
 20
-72.719747725611143
  0
VERTEX
  8
0
  6
CONTINUOUS
 62
3
 10
397.268720400995790
 20
-71.866161507231993
  0
VERTEX
  8
0
  6
CONTINUOUS
 62
3
 10
395.581004573444940
 20
-71.577940713280441
  0
VERTEX
  8
0
  6
CONTINUOUS
 62
3
 10
393.893288745894100
 20
-71.866161507231993
  0
VERTEX
  8
0
  6
CONTINUOUS
 62
3
 10
392.270430891114130
 20
-72.719747725611143
  0
VERTEX
  8
0
  6
CONTINUOUS
 62
3
 10
390.774796526354980
 20
-74.105896528742264
  0
VERTEX
  8
0
  6
CONTINUOUS
 62
3
 10
389.463862041492970
 20
-75.971338995482228
  0
VERTEX
  8
0
  6
CONTINUOUS
 62
3
 10
388.388005913600860
 20
-78.244387217986414
  0
VERTEX
  8
0
  6
CONTINUOUS
 62
3
 10
387.588572690326370
 20
-80.837689227804091
  0
VERTEX
  8
0
  6
CONTINUOUS
 62
3
 10
387.096284142112780
 20
-83.651585883038521
  0
VERTEX
  8
0
  6
CONTINUOUS
 62
3
 10
386.930058641789170
 20
-86.577940713280441
  0
SEQEND
  8
0
  6
CONTINUOUS
 62
3
  0
ARC
  8
0
  6
CONTINUOUS
 62
3
 10
332.126470089464190
 20
-81.577940713056705
 40
13.999999999999572
 50
196.601549599020760
 51
163.398450400979240
  0
ARC
  8
0
  6
CONTINUOUS
 62
3
 10
125.086303596081810
 20
-165.132379573255090
 40
3.000000000000000
 50
180.000000000000000
 51
268.999999999998410
  0
ARC
  8
0
  6
CONTINUOUS
 62
3
 10
149.338707897218090
 20
-165.787646042312640
 40
3.000000000000000
 50
180.000000000000000
 51
253.018232129918400
  0
ARC
  8
0
  6
CONTINUOUS
 62
3
 10
43.455150743309645
 20
-164.593961596577170
 40
2.999999999999905
 50
271.883722866764340
 51
309.887635324183690
  0
LINE
  8
0
  6
CONTINUOUS
 62
3
 10
148.586303596082270
 20
-186.577940713056710
 11
148.586303596082270
 21
-186.077940713056710
  0
LINE
  8
0
  6
CONTINUOUS
 62
3
 10
148.586303596082270
 20
-186.077940713056710
 11
150.586303596082270
 21
-186.077940713056710
  0
LINE
  8
0
  6
DASHDOT
 62
4
 10
137.086303596082270
 20
-164.821968995222050
 11
137.086303596082270
 21
-189.410231362470770
  0
LINE
  8
0
  6
CONTINUOUS
 62
3
 10
150.586303596082270
 20
-186.077940713056710
 11
150.586303596082270
 21
-171.026032502403720
  0
LINE
  8
0
  6
CONTINUOUS
 62
3
 10
147.638660815393760
 20
-168.526489416934960
 11
61.086303596082274
 21
-167.015712401980640
  0
ARC
  8
0
  6
CONTINUOUS
 62
3
 10
147.586303596082270
 20
-171.526032502403720
 40
3.000000000000000
 50
0.000000000000000
 51
89.000000000006764
  0
ARC
  8
0
  6
CONTINUOUS
 62
3
 10
149.586303596082270
 20
-168.061930887266040
 40
1.000000000000000
 50
180.000000000000000
 51
240.000000000002730
  0
LINE
  8
0
  6
CONTINUOUS
 62
3
 10
42.521225352584082
 20
-167.626299577334980
 11
61.086303596082274
 21
-167.015712401980640
  0
LINE
  8
0
  6
CONTINUOUS
 62
3
 10
59.086303596082274
 20
-81.577940713056705
 11
59.086303596082274
 21
-155.439815178169740
  0
LINE
  8
0
  6
CONTINUOUS
 62
3
 10
59.086303596082274
 20
-81.577940713056705
 11
59.086303596082274
 21
-26.577940713056705
  0
LINE
  8
0
  6
CONTINUOUS
 62
3
 10
58.586303596096826
 20
-26.569213180592840
 11
100.586303596082270
 21
-27.302325907578052
  0
LINE
  8
0
  6
CONTINUOUS
 62
3
 10
61.086303596082274
 20
-139.289049746547790
 11
61.086303596082274
 21
-152.833284855305460
  0
ARC
  8
0
  6
CONTINUOUS
 62
3
 10
59.086303596082274
 20
-139.289049746547790
 40
2.000000000000000
 50
0.000000000000000
 51
90.000000000000000
  0
ARC
  8
0
  6
CONTINUOUS
 62
3
 10
59.086303596082274
 20
-152.833284855305460
 40
1.999999999999287
 50
309.887635324181530
 51
0.000000000000000
  0
LINE
  8
0
  6
CONTINUOUS
 62
3
 10
60.368871714266419
 20
-154.367891978388170
 11
45.379002920586430
 21
-166.895872281201720
  0
LINE
  8
0
  6
CONTINUOUS
 62
3
 10
152.386303596082000
 20
-96.077940713056705
 11
150.586303596081820
 21
-96.077940713056705
  0
LINE
  8
0
  6
CONTINUOUS
 62
3
 10
152.586303596082270
 20
-81.577940713056705
 11
152.586303596082270
 21
-95.877940713056887
  0
LINE
  8
0
  6
CONTINUOUS
 62
3
 10
152.586303596082270
 20
-95.877940713056887
 11
152.386303596082000
 21
-96.077940713056705
  0
ARC
  8
0
  6
CONTINUOUS
 62
3
 10
152.986303596081910
 20
-95.827940713056705
 40
0.400000000000091
 50
90.000000000000000
 51
180.000000000000000
  0
LINE
  8
0
  6
CONTINUOUS
 62
3
 10
155.146111217217220
 20
-95.577940713056705
 11
154.586303596082270
 21
-95.427940713056614
  0
LINE
  8
0
  6
CONTINUOUS
 62
3
 10
154.586303596082270
 20
-95.427940713056614
 11
152.986303596081910
 21
-95.427940713056614
  0
LINE
  8
0
  6
CONTINUOUS
 62
3
 10
152.386303596082000
 20
-67.077940713056705
 11
150.586303596081820
 21
-67.077940713056705
  0
LINE
  8
0
  6
CONTINUOUS
 62
3
 10
152.586303596082270
 20
-81.577940713056705
 11
152.586303596082270
 21
-67.277940713056523
  0
LINE
  8
0
  6
CONTINUOUS
 62
3
 10
152.586303596082270
 20
-67.277940713056523
 11
152.386303596082000
 21
-67.077940713056705
  0
ARC
  8
0
  6
CONTINUOUS
 62
3
 10
152.986303596081910
 20
-67.327940713056705
 40
0.399999999999636
 50
180.000000000000000
 51
270.000000000000000
  0
LINE
  8
0
  6
CONTINUOUS
 62
3
 10
155.146111217217220
 20
-67.577940713056705
 11
154.586303596082270
 21
-67.727940713056796
  0
LINE
  8
0
  6
CONTINUOUS
 62
3
 10
154.586303596082270
 20
-67.727940713056796
 11
152.986303596081910
 21
-67.727940713056796
  0
LINE
  8
0
  6
CONTINUOUS
 62
3
 10
194.586303596082270
 20
-67.977940713056796
 11
194.586303596082270
 21
-81.577940713056705
  0
LINE
  8
0
  6
CONTINUOUS
 62
3
 10
194.186303596082180
 20
-67.577940713056705
 11
155.146111217217220
 21
-67.577940713056705
  0
ARC
  8
0
  6
CONTINUOUS
 62
3
 10
194.186303596082180
 20
-67.977940713056796
 40
0.400000000000091
 50
0.000000000000000
 51
90.000000000000000
  0
LINE
  8
0
  6
CONTINUOUS
 62
3
 10
194.586303596082270
 20
-95.177940713056614
 11
194.586303596082270
 21
-81.577940713056705
  0
LINE
  8
0
  6
CONTINUOUS
 62
3
 10
194.186303596082180
 20
-95.577940713056705
 11
155.146111217217220
 21
-95.577940713056705
  0
ARC
  8
0
  6
CONTINUOUS
 62
3
 10
194.186303596082180
 20
-95.177940713056614
 40
0.400000000000091
 50
270.000000000000000
 51
0.000000000000000
  0
POLYLINE
  8
0
  6
CONTINUOUS
 62
3
 66
1
  0
VERTEX
  8
0
  6
CONTINUOUS
 62
3
 10
146.338707897218540
 20
-86.577940713280441
  0
VERTEX
  8
0
  6
CONTINUOUS
 62
3
 10
146.105706323121640
 20
-83.651585883038521
  0
VERTEX
  8
0
  6
CONTINUOUS
 62
3
 10
145.415655720654660
 20
-80.837689227804091
  0
VERTEX
  8
0
  6
CONTINUOUS
 62
3
 10
144.295074347485580
 20
-78.244387217986400
  0
VERTEX
  8
0
  6
CONTINUOUS
 62
3
 10
142.787025517356030
 20
-75.971338995482228
  0
VERTEX
  8
0
  6
CONTINUOUS
 62
3
 10
140.949462701084340
 20
-74.105896528742264
  0
VERTEX
  8
0
  6
CONTINUOUS
 62
3
 10
138.853002407182740
 20
-72.719747725611143
  0
VERTEX
  8
0
  6
CONTINUOUS
 62
3
 10
136.578210429037400
 20
-71.866161507231993
  0
VERTEX
  8
0
  6
CONTINUOUS
 62
3
 10
134.212505746650410
 20
-71.577940713280441
  0
VERTEX
  8
0
  6
CONTINUOUS
 62
3
 10
131.846801064263420
 20
-71.866161507231993
  0
VERTEX
  8
0
  6
CONTINUOUS
 62
3
 10
129.572009086118070
 20
-72.719747725611143
  0
VERTEX
  8
0
  6
CONTINUOUS
 62
3
 10
127.475548792216470
 20
-74.105896528742264
  0
VERTEX
  8
0
  6
CONTINUOUS
 62
3
 10
125.637985975944780
 20
-75.971338995482228
  0
VERTEX
  8
0
  6
CONTINUOUS
 62
3
 10
124.129937145815230
 20
-78.244387217986414
  0
VERTEX
  8
0
  6
CONTINUOUS
 62
3
 10
123.009355772646170
 20
-80.837689227804091
  0
VERTEX
  8
0
  6
CONTINUOUS
 62
3
 10
122.319305170179190
 20
-83.651585883038521
  0
VERTEX
  8
0
  6
CONTINUOUS
 62
3
 10
122.086303596082280
 20
-86.577940713280441
  0
SEQEND
  8
0
  6
CONTINUOUS
 62
3
  0
LINE
  8
0
  6
CONTINUOUS
 62
3
 10
122.086303596081810
 20
-165.132379573255090
 11
122.086303596082270
 21
-86.577940713280441
  0
LINE
  8
0
  6
CONTINUOUS
 62
3
 10
146.338707897218540
 20
-86.577940713280441
 11
146.338707897218090
 21
-165.787646042312640
  0
ARC
  8
0
  6
CONTINUOUS
 62
3
 10
162.586303596082730
 20
-81.577940713057160
 40
4.000000000000000
 50
90.000000000000000
 51
270.000000000000000
  0
LINE
  8
0
  6
CONTINUOUS
 62
3
 10
194.586303596082730
 20
-85.577940713057160
 11
162.586303596082730
 21
-85.577940713057160
  0
LINE
  8
0
  6
CONTINUOUS
 62
3
 10
194.586303596082730
 20
-77.577940713057160
 11
162.586303596082730
 21
-77.577940713057160
  0
LINE
  8
0
  6
DASHDOT
 62
4
 10
208.557276997671580
 20
-81.577940713056705
 11
118.333664992938190
 21
-81.577940713056705
  0
LINE
  8
0
  6
CONTINUOUS
 62
3
 10
150.586303596082270
 20
-81.577940713056705
 11
150.586303596082270
 21
-108.077940713056700
  0
LINE
  8
0
  6
CONTINUOUS
 62
3
 10
150.586303596082270
 20
-81.577940713056705
 11
150.586303596082270
 21
-55.077940713056705
  0
LINE
  8
0
  6
CONTINUOUS
 62
3
 10
148.586303596082270
 20
-50.491137457310288
 11
148.586303596082270
 21
-81.577940713056705
  0
LINE
  8
0
  6
CONTINUOUS
 62
3
 10
148.586303596082270
 20
-168.061930887266040
 11
148.586303596082270
 21
-81.577940713056705
  0
ARC
  8
0
  6
CONTINUOUS
 62
3
 10
149.586303596082270
 20
-108.077940713056700
 40
1.000000000000000
 50
270.000000000000000
 51
0.000000000000000
  0
ARC
  8
0
  6
CONTINUOUS
 62
3
 10
149.586303596082270
 20
-55.077940713056705
 40
1.000000000000000
 50
0.000000000000000
 51
90.000000000000000
  0
ARC
  8
0
  6
CONTINUOUS
 62
3
 10
149.586303596082270
 20
-110.077940713056700
 40
1.000000000000000
 50
90.000000000000000
 51
180.000000000000000
  0
ARC
  8
0
  6
CONTINUOUS
 62
3
 10
149.586303596082270
 20
-53.077940713056705
 40
1.000000000000000
 50
180.000000000000000
 51
270.000000000000000
  0
ARC
  8
0
  6
CONTINUOUS
 62
3
 10
99.451897177657742
 20
-92.292426092743881
 40
65.000000000000014
 50
41.568310778586344
 51
88.999999999999034
  0
ARC
  8
0
  6
CONTINUOUS
 62
3
 10
146.586303596081820
 20
-50.491137457310288
 40
2.000000000000455
 50
0.000000000000000
 51
41.568310778590678
  0
LINE
  8
0
  6
CONTINUOUS
 62
3
 10
283.026470089464280
 20
-84.077940713056705
 11
283.026470089464280
 21
-158.177940713056610
  0
ARC
  8
0
  6
CONTINUOUS
 62
3
 10
285.526470089464280
 20
-84.077940713056705
 40
2.500000000000000
 50
90.000000000000000
 51
180.000000000000000
  0
LINE
  8
0
  6
CONTINUOUS
 62
3
 10
297.183659670152110
 20
-81.577940713056705
 11
285.526470089464280
 21
-81.577940713056705
  0
ENDSEC
  0
EOF
