  0
SECTION
  2
HEADER
  9
$FILLMODE
 70
1
  9
$TEXTSTYLE
  7
STANDARD1
  9
$ACADVER
  1
AC1009
  9
$DIMASZ
 40
1.931851648807023
  9
$DIMEXE
 40
2.000000000000000
  9
$DIMEXO
 40
1.000000000000000
  9
$DIMLFAC
 40
1.000000000000000
  9
$DIMSCALE
 40
1.000000000000000
  9
$DIMTAD
 70
1
  9
$DIMTFAC
 40
0.714285731315613
  9
$DIMTXT
 40
3.200000047683716
  9
$LUPREC
 70
3
  9
$TEXTSIZE
 40
2.799999952316284
  9
$REGENMODE
 70
1
  0
ENDSEC
  0
SECTION
  2
TABLES
  0
TABLE
  2
LTYPE
 70
4
  0
LTYPE
  2
CONTINUOUS
 70
64
  3
Solid line
 72
65
 73
0
 40
0.0
  0
LTYPE
  2
DASHED
 70
64
  3
-- -- -- -- -- -- -- -- -- -- -- -- -- -- --
 72
65
 73
2
 40
0.75
 49
0.5
 49
-0.25
  0
LTYPE
  2
DASHDOT
 70
64
  3
__ . __ . __ . __ . __ . __ . __ . __ . __ . __
 72
65
 73
4
 40
1.0
 49
0.5
 49
-0.25
 49
0.0
 49
-0.25
  0
LTYPE
  2
DIVIDE
 70
64
  3
__ . . __ . . __ . . __ . . __ . . __ . . __
 72
65
 73
6
 40
1.25
 49
0.5
 49
-0.25
 49
0.0
 49
-0.25
 49
0.0
 49
-0.25
  0
ENDTAB
  0
TABLE
  2
LAYER
 70
1
  0
LAYER
  2
0
 70
64
 62
2
  6
CONTINUOUS
  0
ENDTAB
  0
TABLE
  2
STYLE
 70
4
  0
STYLE
  2
STANDARD1
 70
64
 40
0.0
 41
1.0
 50
0.0
 71
0
 42
2.799999952316284
  3
MONOTXT
  4
BIGFONT
  0
STYLE
  2
STANDARD2
 70
68
 40
0.0
 41
1.0
 50
0.0
 71
0
 42
2.799999952316284
  3
MONOTXT
  4
BIGFONT
  0
STYLE
  2
STANDARD3
 70
64
 40
0.0
 41
1.0
 50
0.0
 71
0
 42
2.799999952316284
  3
MONOTXT
  4

  0
STYLE
  2
STANDARD4
 70
68
 40
0.0
 41
1.0
 50
0.0
 71
0
 42
2.799999952316284
  3
MONOTXT
  4

  0
ENDTAB
  0
TABLE
  2
VIEW
 70
0
  0
ENDTAB
  0
ENDSEC
  0
SECTION
  2
BLOCKS
  0
BLOCK
  8
0
  2
SYM1
 70
64
 10
0.000000000000000
 20
0.000000000000000
  0
LINE
  8
0
  6
CONTINUOUS
 62
3
 10
-7.499999046325684
 20
6.500000000000000
 11
-7.499999046325684
 21
-6.500000000000000
  0
LINE
  8
0
  6
CONTINUOUS
 62
3
 10
-7.499997911632022
 20
-6.499999445138201
 11
-7.999998623386432
 21
-5.634070287011241
  0
LINE
  8
0
  6
CONTINUOUS
 62
3
 10
-7.499999203818277
 20
6.499999909101064
 11
-7.999999021366804
 21
5.633876130311293
  0
LINE
  8
0
  6
CONTINUOUS
 62
3
 10
-0.000000000000000
 20
-6.500000000000000
 11
-7.499998092651367
 21
-6.500000000000000
  0
LINE
  8
0
  6
CONTINUOUS
 62
3
 10
0.000000000000000
 20
6.500000000000000
 11
-7.499999046325684
 21
6.500000000000000
  0
LINE
  8
0
  6
CONTINUOUS
 62
3
 10
-7.999999046325684
 20
5.633875846862793
 11
-7.999999046325684
 21
-5.634070396423340
  0
LINE
  8
0
  6
CONTINUOUS
 62
3
 10
0.000000000000000
 20
-6.500000000000000
 11
-0.000000000000000
 21
6.500000000000000
  0
POINT
  8
0
  6
CONTINUOUS
 62
3
 10
0.000000000000000
 20
0.000000000000000
  0
ENDBLK
  8
0
  0
BLOCK
  8
0
  2
SYM2
 70
64
 10
0.000000000000000
 20
0.000000000000000
  0
LINE
  8
0
  6
CONTINUOUS
 62
3
 10
-7.499999046325684
 20
6.500000000000000
 11
-7.499999046325684
 21
-6.500000000000000
  0
LINE
  8
0
  6
CONTINUOUS
 62
3
 10
-7.499997911632022
 20
-6.499999445138201
 11
-7.999998623386432
 21
-5.634070287011241
  0
LINE
  8
0
  6
CONTINUOUS
 62
3
 10
-7.499999203818277
 20
6.499999909101064
 11
-7.999999021366804
 21
5.633876130311293
  0
LINE
  8
0
  6
CONTINUOUS
 62
3
 10
-0.000000000000000
 20
-6.500000000000000
 11
-7.499998092651367
 21
-6.500000000000000
  0
LINE
  8
0
  6
CONTINUOUS
 62
3
 10
0.000000000000000
 20
6.500000000000000
 11
-7.499999046325684
 21
6.500000000000000
  0
LINE
  8
0
  6
CONTINUOUS
 62
3
 10
-7.999999046325684
 20
5.633875846862793
 11
-7.999999046325684
 21
-5.634070396423340
  0
LINE
  8
0
  6
CONTINUOUS
 62
3
 10
0.000000000000000
 20
-6.500000000000000
 11
-0.000000000000000
 21
6.500000000000000
  0
POINT
  8
0
  6
CONTINUOUS
 62
3
 10
0.000000000000000
 20
0.000000000000000
  0
ENDBLK
  8
0
  0
BLOCK
  8
0
  2
SYM3
 70
64
 10
0.000000000000000
 20
0.000000000000000
  0
POINT
  8
0
  6
CONTINUOUS
 62
3
 10
0.000000000000000
 20
0.000000000000000
  0
LINE
  8
0
  6
CONTINUOUS
 62
3
 10
-0.000017659877873
 20
-4.599998474126673
 11
-3.000017102555891
 21
-4.599986076361044
  0
LINE
  8
0
  6
CONTINUOUS
 62
3
 10
-2.999996095884057
 20
-4.599969847145871
 11
-3.499991138206155
 21
-3.899966512616629
  0
LINE
  8
0
  6
CONTINUOUS
 62
3
 10
-3.500011920918244
 20
-3.899979774771439
 11
-3.499980449679529
 21
3.900009925545944
  0
LINE
  8
0
  6
CONTINUOUS
 62
3
 10
-3.499965125831864
 20
3.900000017678906
 11
-2.999963510759926
 21
4.599997551336457
  0
LINE
  8
0
  6
CONTINUOUS
 62
3
 10
-2.999979146307184
 20
4.600011825551216
 11
0.000019104623546
 21
4.600001335133485
  0
LINE
  8
0
  6
CONTINUOUS
 62
3
 10
0.000018950048186
 20
4.600000381469727
 11
-0.000018950048186
 21
-4.600000381469727
  0
LINE
  8
0
  6
CONTINUOUS
 62
3
 10
-3.000007597599688
 20
-2.299985885626180
 11
-0.000008155921205
 21
-2.299998283391806
  0
LINE
  8
0
  6
CONTINUOUS
 62
3
 10
-2.999989096318101
 20
2.300010681148706
 11
0.000009475023974
 21
2.300000190729854
  0
ARC
  8
0
  6
CONTINUOUS
 62
3
 10
-1.930013656616211
 20
-3.449991226196289
 40
1.569999694824219
 50
132.899744492600430
 51
179.999745461767870
  0
ARC
  8
0
  6
CONTINUOUS
 62
3
 10
-1.929986000061035
 20
3.450007438659668
 40
1.569999694824219
 50
179.999745461767870
 51
227.099746430935310
  0
ARC
  8
0
  6
CONTINUOUS
 62
3
 10
2.040000915527344
 20
-0.000008403939319
 40
5.539999008178711
 50
155.470186567177590
 51
204.529249714844780
  0
ENDBLK
  8
0
  0
BLOCK
  8
0
  2
SYM4
 70
64
 10
0.000000000000000
 20
0.000000000000000
  0
POINT
  8
0
  6
CONTINUOUS
 62
3
 10
0.000000000000000
 20
0.000000000000000
  0
LINE
  8
0
  6
CONTINUOUS
 62
3
 10
-0.000017659877873
 20
-4.599998474126673
 11
-3.000017102555891
 21
-4.599986076361044
  0
LINE
  8
0
  6
CONTINUOUS
 62
3
 10
-2.999996095884057
 20
-4.599969847145871
 11
-3.499991138206155
 21
-3.899966512616629
  0
LINE
  8
0
  6
CONTINUOUS
 62
3
 10
-3.500011920918244
 20
-3.899979774771439
 11
-3.499980449679529
 21
3.900009925545944
  0
LINE
  8
0
  6
CONTINUOUS
 62
3
 10
-3.499965125831864
 20
3.900000017678906
 11
-2.999963510759926
 21
4.599997551336457
  0
LINE
  8
0
  6
CONTINUOUS
 62
3
 10
-2.999979146307184
 20
4.600011825551216
 11
0.000019104623546
 21
4.600001335133485
  0
LINE
  8
0
  6
CONTINUOUS
 62
3
 10
0.000018950048186
 20
4.600000381469727
 11
-0.000018950048186
 21
-4.600000381469727
  0
LINE
  8
0
  6
CONTINUOUS
 62
3
 10
-3.000007597599688
 20
-2.299985885626180
 11
-0.000008155921205
 21
-2.299998283391806
  0
LINE
  8
0
  6
CONTINUOUS
 62
3
 10
-2.999989096318101
 20
2.300010681148706
 11
0.000009475023974
 21
2.300000190729854
  0
ARC
  8
0
  6
CONTINUOUS
 62
3
 10
-1.930013656616211
 20
-3.449991226196289
 40
1.569999694824219
 50
132.899744492600430
 51
179.999745461767870
  0
ARC
  8
0
  6
CONTINUOUS
 62
3
 10
-1.929986000061035
 20
3.450007438659668
 40
1.569999694824219
 50
179.999745461767870
 51
227.099746430935310
  0
ARC
  8
0
  6
CONTINUOUS
 62
3
 10
2.040000915527344
 20
-0.000008403939319
 40
5.539999008178711
 50
155.470186567177590
 51
204.529249714844780
  0
ENDBLK
  8
0
  0
BLOCK
  8
0
  2
SYM5
 70
64
 10
0.000000000000000
 20
0.000000000000000
  0
LINE
  8
0
  6
CONTINUOUS
 62
3
 10
-7.499999046325684
 20
6.500000000000000
 11
-7.499999046325684
 21
-6.500000000000000
  0
LINE
  8
0
  6
CONTINUOUS
 62
3
 10
-7.499997911632022
 20
-6.499999445138201
 11
-7.999998623386432
 21
-5.634070287011241
  0
LINE
  8
0
  6
CONTINUOUS
 62
3
 10
-7.499999203818277
 20
6.499999909101064
 11
-7.999999021366804
 21
5.633876130311293
  0
LINE
  8
0
  6
CONTINUOUS
 62
3
 10
-0.000000000000000
 20
-6.500000000000000
 11
-7.499998092651367
 21
-6.500000000000000
  0
LINE
  8
0
  6
CONTINUOUS
 62
3
 10
0.000000000000000
 20
6.500000000000000
 11
-7.499999046325684
 21
6.500000000000000
  0
LINE
  8
0
  6
CONTINUOUS
 62
3
 10
-7.999999046325684
 20
5.633875846862793
 11
-7.999999046325684
 21
-5.634070396423340
  0
LINE
  8
0
  6
CONTINUOUS
 62
3
 10
0.000000000000000
 20
-6.500000000000000
 11
-0.000000000000000
 21
6.500000000000000
  0
POINT
  8
0
  6
CONTINUOUS
 62
3
 10
0.000000000000000
 20
0.000000000000000
  0
ENDBLK
  8
0
  0
BLOCK
  8
0
  2
SYM6
 70
64
 10
0.000000000000000
 20
0.000000000000000
  0
POINT
  8
0
  6
CONTINUOUS
 62
3
 10
0.000000000000000
 20
0.000000000000000
  0
LINE
  8
0
  6
CONTINUOUS
 62
3
 10
-0.000017659877873
 20
-4.599998474126673
 11
-3.000017102555891
 21
-4.599986076361044
  0
LINE
  8
0
  6
CONTINUOUS
 62
3
 10
-2.999996095884057
 20
-4.599969847145871
 11
-3.499991138206155
 21
-3.899966512616629
  0
LINE
  8
0
  6
CONTINUOUS
 62
3
 10
-3.500011920918244
 20
-3.899979774771439
 11
-3.499980449679529
 21
3.900009925545944
  0
LINE
  8
0
  6
CONTINUOUS
 62
3
 10
-3.499965125831864
 20
3.900000017678906
 11
-2.999963510759926
 21
4.599997551336457
  0
LINE
  8
0
  6
CONTINUOUS
 62
3
 10
-2.999979146307184
 20
4.600011825551216
 11
0.000019104623546
 21
4.600001335133485
  0
LINE
  8
0
  6
CONTINUOUS
 62
3
 10
0.000018950048186
 20
4.600000381469727
 11
-0.000018950048186
 21
-4.600000381469727
  0
LINE
  8
0
  6
CONTINUOUS
 62
3
 10
-3.000007597599688
 20
-2.299985885626180
 11
-0.000008155921205
 21
-2.299998283391806
  0
LINE
  8
0
  6
CONTINUOUS
 62
3
 10
-2.999989096318101
 20
2.300010681148706
 11
0.000009475023974
 21
2.300000190729854
  0
ARC
  8
0
  6
CONTINUOUS
 62
3
 10
-1.930013656616211
 20
-3.449991226196289
 40
1.569999694824219
 50
132.899744492600430
 51
179.999745461767870
  0
ARC
  8
0
  6
CONTINUOUS
 62
3
 10
-1.929986000061035
 20
3.450007438659668
 40
1.569999694824219
 50
179.999745461767870
 51
227.099746430935310
  0
ARC
  8
0
  6
CONTINUOUS
 62
3
 10
2.040000915527344
 20
-0.000008403939319
 40
5.539999008178711
 50
155.470186567177590
 51
204.529249714844780
  0
ENDBLK
  8
0
  0
BLOCK
  8
0
  2
SYM7
 70
64
 10
0.000000000000000
 20
0.000000000000000
  0
POINT
  8
0
  6
CONTINUOUS
 62
3
 10
0.000000000000000
 20
0.000000000000000
  0
LINE
  8
0
  6
CONTINUOUS
 62
3
 10
-0.000017659877873
 20
-4.599998474126673
 11
-3.000017102555891
 21
-4.599986076361044
  0
LINE
  8
0
  6
CONTINUOUS
 62
3
 10
-2.999996095884057
 20
-4.599969847145871
 11
-3.499991138206155
 21
-3.899966512616629
  0
LINE
  8
0
  6
CONTINUOUS
 62
3
 10
-3.500011920918244
 20
-3.899979774771439
 11
-3.499980449679529
 21
3.900009925545944
  0
LINE
  8
0
  6
CONTINUOUS
 62
3
 10
-3.499965125831864
 20
3.900000017678906
 11
-2.999963510759926
 21
4.599997551336457
  0
LINE
  8
0
  6
CONTINUOUS
 62
3
 10
-2.999979146307184
 20
4.600011825551216
 11
0.000019104623546
 21
4.600001335133485
  0
LINE
  8
0
  6
CONTINUOUS
 62
3
 10
0.000018950048186
 20
4.600000381469727
 11
-0.000018950048186
 21
-4.600000381469727
  0
LINE
  8
0
  6
CONTINUOUS
 62
3
 10
-3.000007597599688
 20
-2.299985885626180
 11
-0.000008155921205
 21
-2.299998283391806
  0
LINE
  8
0
  6
CONTINUOUS
 62
3
 10
-2.999989096318101
 20
2.300010681148706
 11
0.000009475023974
 21
2.300000190729854
  0
ARC
  8
0
  6
CONTINUOUS
 62
3
 10
-1.930013656616211
 20
-3.449991226196289
 40
1.569999694824219
 50
132.899744492600430
 51
179.999745461767870
  0
ARC
  8
0
  6
CONTINUOUS
 62
3
 10
-1.929986000061035
 20
3.450007438659668
 40
1.569999694824219
 50
179.999745461767870
 51
227.099746430935310
  0
ARC
  8
0
  6
CONTINUOUS
 62
3
 10
2.040000915527344
 20
-0.000008403939319
 40
5.539999008178711
 50
155.470186567177590
 51
204.529249714844780
  0
ENDBLK
  8
0
  0
BLOCK
  8
0
  2
SYM8
 70
64
 10
0.000000000000000
 20
0.000000000000000
  0
LINE
  8
0
  6
CONTINUOUS
 62
3
 10
-7.499999046325684
 20
6.500000000000000
 11
-7.499999046325684
 21
-6.500000000000000
  0
LINE
  8
0
  6
CONTINUOUS
 62
3
 10
-7.499997911632022
 20
-6.499999445138201
 11
-7.999998623386432
 21
-5.634070287011241
  0
LINE
  8
0
  6
CONTINUOUS
 62
3
 10
-7.499999203818277
 20
6.499999909101064
 11
-7.999999021366804
 21
5.633876130311293
  0
LINE
  8
0
  6
CONTINUOUS
 62
3
 10
-0.000000000000000
 20
-6.500000000000000
 11
-7.499998092651367
 21
-6.500000000000000
  0
LINE
  8
0
  6
CONTINUOUS
 62
3
 10
0.000000000000000
 20
6.500000000000000
 11
-7.499999046325684
 21
6.500000000000000
  0
LINE
  8
0
  6
CONTINUOUS
 62
3
 10
-7.999999046325684
 20
5.633875846862793
 11
-7.999999046325684
 21
-5.634070396423340
  0
LINE
  8
0
  6
CONTINUOUS
 62
3
 10
0.000000000000000
 20
-6.500000000000000
 11
-0.000000000000000
 21
6.500000000000000
  0
POINT
  8
0
  6
CONTINUOUS
 62
3
 10
0.000000000000000
 20
0.000000000000000
  0
ENDBLK
  8
0
  0
BLOCK
  8
0
  2
SYM9
 70
64
 10
0.000000000000000
 20
0.000000000000000
  0
LINE
  8
0
  6
CONTINUOUS
 62
3
 10
-7.499999046325684
 20
6.500000000000000
 11
-7.499999046325684
 21
-6.500000000000000
  0
LINE
  8
0
  6
CONTINUOUS
 62
3
 10
-7.499997911632022
 20
-6.499999445138201
 11
-7.999998623386432
 21
-5.634070287011241
  0
LINE
  8
0
  6
CONTINUOUS
 62
3
 10
-7.499999203818277
 20
6.499999909101064
 11
-7.999999021366804
 21
5.633876130311293
  0
LINE
  8
0
  6
CONTINUOUS
 62
3
 10
-0.000000000000000
 20
-6.500000000000000
 11
-7.499998092651367
 21
-6.500000000000000
  0
LINE
  8
0
  6
CONTINUOUS
 62
3
 10
0.000000000000000
 20
6.500000000000000
 11
-7.499999046325684
 21
6.500000000000000
  0
LINE
  8
0
  6
CONTINUOUS
 62
3
 10
-7.999999046325684
 20
5.633875846862793
 11
-7.999999046325684
 21
-5.634070396423340
  0
LINE
  8
0
  6
CONTINUOUS
 62
3
 10
0.000000000000000
 20
-6.500000000000000
 11
-0.000000000000000
 21
6.500000000000000
  0
POINT
  8
0
  6
CONTINUOUS
 62
3
 10
0.000000000000000
 20
0.000000000000000
  0
ENDBLK
  8
0
  0
BLOCK
  8
0
  2
SYM10
 70
64
 10
0.000000000000000
 20
0.000000000000000
  0
LINE
  8
0
  6
CONTINUOUS
 62
3
 10
-7.499999046325684
 20
6.500000000000000
 11
-7.499999046325684
 21
-6.500000000000000
  0
LINE
  8
0
  6
CONTINUOUS
 62
3
 10
-7.499997911632022
 20
-6.499999445138201
 11
-7.999998623386432
 21
-5.634070287011241
  0
LINE
  8
0
  6
CONTINUOUS
 62
3
 10
-7.499999203818277
 20
6.499999909101064
 11
-7.999999021366804
 21
5.633876130311293
  0
LINE
  8
0
  6
CONTINUOUS
 62
3
 10
-0.000000000000000
 20
-6.500000000000000
 11
-7.499998092651367
 21
-6.500000000000000
  0
LINE
  8
0
  6
CONTINUOUS
 62
3
 10
0.000000000000000
 20
6.500000000000000
 11
-7.499999046325684
 21
6.500000000000000
  0
LINE
  8
0
  6
CONTINUOUS
 62
3
 10
-7.999999046325684
 20
5.633875846862793
 11
-7.999999046325684
 21
-5.634070396423340
  0
LINE
  8
0
  6
CONTINUOUS
 62
3
 10
0.000000000000000
 20
-6.500000000000000
 11
-0.000000000000000
 21
6.500000000000000
  0
POINT
  8
0
  6
CONTINUOUS
 62
3
 10
0.000000000000000
 20
0.000000000000000
  0
ENDBLK
  8
0
  0
BLOCK
  8
0
  2
SYM11
 70
64
 10
0.000000000000000
 20
0.000000000000000
  0
LINE
  8
0
  6
CONTINUOUS
 62
3
 10
-7.499999046325684
 20
6.500000000000000
 11
-7.499999046325684
 21
-6.500000000000000
  0
LINE
  8
0
  6
CONTINUOUS
 62
3
 10
-7.499997911632022
 20
-6.499999445138201
 11
-7.999998623386432
 21
-5.634070287011241
  0
LINE
  8
0
  6
CONTINUOUS
 62
3
 10
-7.499999203818277
 20
6.499999909101064
 11
-7.999999021366804
 21
5.633876130311293
  0
LINE
  8
0
  6
CONTINUOUS
 62
3
 10
-0.000000000000000
 20
-6.500000000000000
 11
-7.499998092651367
 21
-6.500000000000000
  0
LINE
  8
0
  6
CONTINUOUS
 62
3
 10
0.000000000000000
 20
6.500000000000000
 11
-7.499999046325684
 21
6.500000000000000
  0
LINE
  8
0
  6
CONTINUOUS
 62
3
 10
-7.999999046325684
 20
5.633875846862793
 11
-7.999999046325684
 21
-5.634070396423340
  0
LINE
  8
0
  6
CONTINUOUS
 62
3
 10
0.000000000000000
 20
-6.500000000000000
 11
-0.000000000000000
 21
6.500000000000000
  0
POINT
  8
0
  6
CONTINUOUS
 62
3
 10
0.000000000000000
 20
0.000000000000000
  0
ENDBLK
  8
0
  0
BLOCK
  8
0
  2
SYM12
 70
64
 10
0.000000000000000
 20
0.000000000000000
  0
CIRCLE
  8
0
  6
CONTINUOUS
 62
3
 10
0.000000000000000
 20
0.000000000000000
 40
4.000000000000000
  0
LINE
  8
0
  6
CONTINUOUS
 62
3
 10
4.000000476834402
 20
2.299992229627764
 11
3.999995708466355
 21
-2.300002429796065
  0
LINE
  8
0
  6
CONTINUOUS
 62
3
 10
0.000007291900715
 20
4.600000131531601
 11
4.000000535118602
 21
2.299995435993480
  0
LINE
  8
0
  6
CONTINUOUS
 62
3
 10
-3.999993333512748
 20
2.300001902428903
 11
0.000004858421221
 21
4.599995671750889
  0
LINE
  8
0
  6
CONTINUOUS
 62
3
 10
-4.000000476834402
 20
-2.299992229627764
 11
-3.999995708466355
 21
2.300002429796065
  0
LINE
  8
0
  6
CONTINUOUS
 62
3
 10
-0.000007291900715
 20
-4.600000131531601
 11
-4.000000535118602
 21
-2.299995435993480
  0
LINE
  8
0
  6
CONTINUOUS
 62
3
 10
3.999993333512748
 20
-2.300001902428903
 11
-0.000004858421221
 21
-4.599995671750889
  0
POINT
  8
0
  6
CONTINUOUS
 62
3
 10
0.000000000000000
 20
0.000000000000000
  0
ENDBLK
  8
0
  0
BLOCK
  8
0
  2
SYM13
 70
64
 10
0.000000000000000
 20
0.000000000000000
  0
CIRCLE
  8
0
  6
CONTINUOUS
 62
3
 10
0.000000000000000
 20
0.000000000000000
 40
4.000000000000000
  0
LINE
  8
0
  6
CONTINUOUS
 62
3
 10
4.000000476834402
 20
2.299992229627764
 11
3.999995708466355
 21
-2.300002429796065
  0
LINE
  8
0
  6
CONTINUOUS
 62
3
 10
0.000007291900715
 20
4.600000131531601
 11
4.000000535118602
 21
2.299995435993480
  0
LINE
  8
0
  6
CONTINUOUS
 62
3
 10
-3.999993333512748
 20
2.300001902428903
 11
0.000004858421221
 21
4.599995671750889
  0
LINE
  8
0
  6
CONTINUOUS
 62
3
 10
-4.000000476834402
 20
-2.299992229627764
 11
-3.999995708466355
 21
2.300002429796065
  0
LINE
  8
0
  6
CONTINUOUS
 62
3
 10
-0.000007291900715
 20
-4.600000131531601
 11
-4.000000535118602
 21
-2.299995435993480
  0
LINE
  8
0
  6
CONTINUOUS
 62
3
 10
3.999993333512748
 20
-2.300001902428903
 11
-0.000004858421221
 21
-4.599995671750889
  0
POINT
  8
0
  6
CONTINUOUS
 62
3
 10
0.000000000000000
 20
0.000000000000000
  0
ENDBLK
  8
0
  0
BLOCK
  8
0
  2
SYM14
 70
64
 10
0.000000000000000
 20
0.000000000000000
  0
POINT
  8
0
  6
CONTINUOUS
 62
3
 10
0.000000000000000
 20
5.633955001831055
  0
POINT
  8
0
  6
CONTINUOUS
 62
3
 10
0.500000119209290
 20
6.500000000000000
  0
LINE
  8
0
  6
CONTINUOUS
 62
3
 10
-0.000004704988612
 20
-3.464098175748802
 11
-2.999997577100373
 21
-1.732046218032735
  0
LINE
  8
0
  6
CONTINUOUS
 62
3
 10
0.000006618601731
 20
3.464096896385627
 11
2.999997425948948
 21
1.732046782136365
  0
LINE
  8
0
  6
CONTINUOUS
 62
3
 10
2.999998112093635
 20
-1.732051392778772
 11
-0.000004464412200
 21
-3.464098365415111
  0
LINE
  8
0
  6
CONTINUOUS
 62
3
 10
0.000006701720849
 20
3.464096999935236
 11
-2.999997939551520
 21
1.732051821705568
  0
LINE
  8
0
  6
CONTINUOUS
 62
3
 10
2.999996662140697
 20
1.732046953225571
 11
2.999997615814979
 21
-1.732051023458999
  0
LINE
  8
0
  6
CONTINUOUS
 62
3
 10
-2.999996662140960
 20
-1.732045999551255
 11
-2.999997615815242
 21
1.732051977133316
  0
POINT
  8
0
  6
CONTINUOUS
 62
3
 10
0.000000000000000
 20
0.000000000000000
  0
CIRCLE
  8
0
  6
CONTINUOUS
 62
3
 10
0.000000000000000
 20
0.000000000000000
 40
6.500000000000000
  0
CIRCLE
  8
0
  6
CONTINUOUS
 62
3
 10
0.000000000000000
 20
0.000000000000000
 40
5.633955001831055
  0
ENDBLK
  8
0
  0
BLOCK
  8
0
  2
SYM15
 70
64
 10
0.000000000000000
 20
0.000000000000000
  0
POINT
  8
0
  6
CONTINUOUS
 62
3
 10
0.000000000000000
 20
5.633955001831055
  0
POINT
  8
0
  6
CONTINUOUS
 62
3
 10
0.500000119209290
 20
6.500000000000000
  0
LINE
  8
0
  6
CONTINUOUS
 62
3
 10
-0.000004704988612
 20
-3.464098175748802
 11
-2.999997577100373
 21
-1.732046218032735
  0
LINE
  8
0
  6
CONTINUOUS
 62
3
 10
0.000006618601731
 20
3.464096896385627
 11
2.999997425948948
 21
1.732046782136365
  0
LINE
  8
0
  6
CONTINUOUS
 62
3
 10
2.999998112093635
 20
-1.732051392778772
 11
-0.000004464412200
 21
-3.464098365415111
  0
LINE
  8
0
  6
CONTINUOUS
 62
3
 10
0.000006701720849
 20
3.464096999935236
 11
-2.999997939551520
 21
1.732051821705568
  0
LINE
  8
0
  6
CONTINUOUS
 62
3
 10
2.999996662140697
 20
1.732046953225571
 11
2.999997615814979
 21
-1.732051023458999
  0
LINE
  8
0
  6
CONTINUOUS
 62
3
 10
-2.999996662140960
 20
-1.732045999551255
 11
-2.999997615815242
 21
1.732051977133316
  0
POINT
  8
0
  6
CONTINUOUS
 62
3
 10
0.000000000000000
 20
0.000000000000000
  0
CIRCLE
  8
0
  6
CONTINUOUS
 62
3
 10
0.000000000000000
 20
0.000000000000000
 40
6.500000000000000
  0
CIRCLE
  8
0
  6
CONTINUOUS
 62
3
 10
0.000000000000000
 20
0.000000000000000
 40
5.633955001831055
  0
ENDBLK
  8
0
  0
BLOCK
  8
0
  2
SYM16
 70
64
 10
0.000000000000000
 20
0.000000000000000
  0
POINT
  8
0
  6
CONTINUOUS
 62
3
 10
0.000000000000000
 20
5.633955001831055
  0
POINT
  8
0
  6
CONTINUOUS
 62
3
 10
0.500000119209290
 20
6.500000000000000
  0
LINE
  8
0
  6
CONTINUOUS
 62
3
 10
-0.000004704988612
 20
-3.464098175748802
 11
-2.999997577100373
 21
-1.732046218032735
  0
LINE
  8
0
  6
CONTINUOUS
 62
3
 10
0.000006618601731
 20
3.464096896385627
 11
2.999997425948948
 21
1.732046782136365
  0
LINE
  8
0
  6
CONTINUOUS
 62
3
 10
2.999998112093635
 20
-1.732051392778772
 11
-0.000004464412200
 21
-3.464098365415111
  0
LINE
  8
0
  6
CONTINUOUS
 62
3
 10
0.000006701720849
 20
3.464096999935236
 11
-2.999997939551520
 21
1.732051821705568
  0
LINE
  8
0
  6
CONTINUOUS
 62
3
 10
2.999996662140697
 20
1.732046953225571
 11
2.999997615814979
 21
-1.732051023458999
  0
LINE
  8
0
  6
CONTINUOUS
 62
3
 10
-2.999996662140960
 20
-1.732045999551255
 11
-2.999997615815242
 21
1.732051977133316
  0
POINT
  8
0
  6
CONTINUOUS
 62
3
 10
0.000000000000000
 20
0.000000000000000
  0
CIRCLE
  8
0
  6
CONTINUOUS
 62
3
 10
0.000000000000000
 20
0.000000000000000
 40
6.500000000000000
  0
CIRCLE
  8
0
  6
CONTINUOUS
 62
3
 10
0.000000000000000
 20
0.000000000000000
 40
5.633955001831055
  0
ENDBLK
  8
0
  0
BLOCK
  8
0
  2
SYM17
 70
64
 10
0.000000000000000
 20
0.000000000000000
  0
POINT
  8
0
  6
CONTINUOUS
 62
3
 10
0.000000000000000
 20
5.633955001831055
  0
POINT
  8
0
  6
CONTINUOUS
 62
3
 10
0.500000119209290
 20
6.500000000000000
  0
LINE
  8
0
  6
CONTINUOUS
 62
3
 10
-0.000004704988612
 20
-3.464098175748802
 11
-2.999997577100373
 21
-1.732046218032735
  0
LINE
  8
0
  6
CONTINUOUS
 62
3
 10
0.000006618601731
 20
3.464096896385627
 11
2.999997425948948
 21
1.732046782136365
  0
LINE
  8
0
  6
CONTINUOUS
 62
3
 10
2.999998112093635
 20
-1.732051392778772
 11
-0.000004464412200
 21
-3.464098365415111
  0
LINE
  8
0
  6
CONTINUOUS
 62
3
 10
0.000006701720849
 20
3.464096999935236
 11
-2.999997939551520
 21
1.732051821705568
  0
LINE
  8
0
  6
CONTINUOUS
 62
3
 10
2.999996662140697
 20
1.732046953225571
 11
2.999997615814979
 21
-1.732051023458999
  0
LINE
  8
0
  6
CONTINUOUS
 62
3
 10
-2.999996662140960
 20
-1.732045999551255
 11
-2.999997615815242
 21
1.732051977133316
  0
POINT
  8
0
  6
CONTINUOUS
 62
3
 10
0.000000000000000
 20
0.000000000000000
  0
CIRCLE
  8
0
  6
CONTINUOUS
 62
3
 10
0.000000000000000
 20
0.000000000000000
 40
6.500000000000000
  0
CIRCLE
  8
0
  6
CONTINUOUS
 62
3
 10
0.000000000000000
 20
0.000000000000000
 40
5.633955001831055
  0
ENDBLK
  8
0
  0
BLOCK
  8
0
  2
SYM18
 70
64
 10
0.000000000000000
 20
0.000000000000000
  0
POINT
  8
0
  6
CONTINUOUS
 62
3
 10
0.000000000000000
 20
5.633955001831055
  0
POINT
  8
0
  6
CONTINUOUS
 62
3
 10
0.500000119209290
 20
6.500000000000000
  0
LINE
  8
0
  6
CONTINUOUS
 62
3
 10
-0.000004704988612
 20
-3.464098175748802
 11
-2.999997577100373
 21
-1.732046218032735
  0
LINE
  8
0
  6
CONTINUOUS
 62
3
 10
0.000006618601731
 20
3.464096896385627
 11
2.999997425948948
 21
1.732046782136365
  0
LINE
  8
0
  6
CONTINUOUS
 62
3
 10
2.999998112093635
 20
-1.732051392778772
 11
-0.000004464412200
 21
-3.464098365415111
  0
LINE
  8
0
  6
CONTINUOUS
 62
3
 10
0.000006701720849
 20
3.464096999935236
 11
-2.999997939551520
 21
1.732051821705568
  0
LINE
  8
0
  6
CONTINUOUS
 62
3
 10
2.999996662140697
 20
1.732046953225571
 11
2.999997615814979
 21
-1.732051023458999
  0
LINE
  8
0
  6
CONTINUOUS
 62
3
 10
-2.999996662140960
 20
-1.732045999551255
 11
-2.999997615815242
 21
1.732051977133316
  0
POINT
  8
0
  6
CONTINUOUS
 62
3
 10
0.000000000000000
 20
0.000000000000000
  0
CIRCLE
  8
0
  6
CONTINUOUS
 62
3
 10
0.000000000000000
 20
0.000000000000000
 40
6.500000000000000
  0
CIRCLE
  8
0
  6
CONTINUOUS
 62
3
 10
0.000000000000000
 20
0.000000000000000
 40
5.633955001831055
  0
ENDBLK
  8
0
  0
BLOCK
  8
0
  2
SYM19
 70
64
 10
0.000000000000000
 20
0.000000000000000
  0
POINT
  8
0
  6
CONTINUOUS
 62
3
 10
0.000000000000000
 20
5.633955001831055
  0
POINT
  8
0
  6
CONTINUOUS
 62
3
 10
0.500000119209290
 20
6.500000000000000
  0
LINE
  8
0
  6
CONTINUOUS
 62
3
 10
-0.000004704988612
 20
-3.464098175748802
 11
-2.999997577100373
 21
-1.732046218032735
  0
LINE
  8
0
  6
CONTINUOUS
 62
3
 10
0.000006618601731
 20
3.464096896385627
 11
2.999997425948948
 21
1.732046782136365
  0
LINE
  8
0
  6
CONTINUOUS
 62
3
 10
2.999998112093635
 20
-1.732051392778772
 11
-0.000004464412200
 21
-3.464098365415111
  0
LINE
  8
0
  6
CONTINUOUS
 62
3
 10
0.000006701720849
 20
3.464096999935236
 11
-2.999997939551520
 21
1.732051821705568
  0
LINE
  8
0
  6
CONTINUOUS
 62
3
 10
2.999996662140697
 20
1.732046953225571
 11
2.999997615814979
 21
-1.732051023458999
  0
LINE
  8
0
  6
CONTINUOUS
 62
3
 10
-2.999996662140960
 20
-1.732045999551255
 11
-2.999997615815242
 21
1.732051977133316
  0
POINT
  8
0
  6
CONTINUOUS
 62
3
 10
0.000000000000000
 20
0.000000000000000
  0
CIRCLE
  8
0
  6
CONTINUOUS
 62
3
 10
0.000000000000000
 20
0.000000000000000
 40
6.500000000000000
  0
CIRCLE
  8
0
  6
CONTINUOUS
 62
3
 10
0.000000000000000
 20
0.000000000000000
 40
5.633955001831055
  0
ENDBLK
  8
0
  0
BLOCK
  8
0
  2
SYM20
 70
64
 10
0.000000000000000
 20
0.000000000000000
  0
POINT
  8
0
  6
CONTINUOUS
 62
3
 10
0.000000000000000
 20
5.633955001831055
  0
POINT
  8
0
  6
CONTINUOUS
 62
3
 10
0.500000119209290
 20
6.500000000000000
  0
LINE
  8
0
  6
CONTINUOUS
 62
3
 10
-0.000004704988612
 20
-3.464098175748802
 11
-2.999997577100373
 21
-1.732046218032735
  0
LINE
  8
0
  6
CONTINUOUS
 62
3
 10
0.000006618601731
 20
3.464096896385627
 11
2.999997425948948
 21
1.732046782136365
  0
LINE
  8
0
  6
CONTINUOUS
 62
3
 10
2.999998112093635
 20
-1.732051392778772
 11
-0.000004464412200
 21
-3.464098365415111
  0
LINE
  8
0
  6
CONTINUOUS
 62
3
 10
0.000006701720849
 20
3.464096999935236
 11
-2.999997939551520
 21
1.732051821705568
  0
LINE
  8
0
  6
CONTINUOUS
 62
3
 10
2.999996662140697
 20
1.732046953225571
 11
2.999997615814979
 21
-1.732051023458999
  0
LINE
  8
0
  6
CONTINUOUS
 62
3
 10
-2.999996662140960
 20
-1.732045999551255
 11
-2.999997615815242
 21
1.732051977133316
  0
POINT
  8
0
  6
CONTINUOUS
 62
3
 10
0.000000000000000
 20
0.000000000000000
  0
CIRCLE
  8
0
  6
CONTINUOUS
 62
3
 10
0.000000000000000
 20
0.000000000000000
 40
6.500000000000000
  0
CIRCLE
  8
0
  6
CONTINUOUS
 62
3
 10
0.000000000000000
 20
0.000000000000000
 40
5.633955001831055
  0
ENDBLK
  8
0
  0
ENDSEC
  0
SECTION
  2
ENTITIES
  0
ARC
  8
0
  6
CONTINUOUS
 62
3
 10
-388.230196016088880
 20
-90.108386890889818
 40
6.099999427795419
 50
84.601927898108485
 51
185.398089404735120
  0
POINT
  8
0
  6
CONTINUOUS
 62
3
 10
-390.492937581015890
 20
-87.845645325962778
  0
LINE
  8
0
  6
CONTINUOUS
 62
3
 10
-393.816339317722740
 20
-91.169047062669634
 11
-387.169535844309050
 21
-84.522243589255922
  0
LINE
  8
0
  6
CONTINUOUS
 62
3
 10
-394.129477926691550
 20
-90.916500111819261
 11
-387.452378624218620
 21
-84.239400809346350
  0
LINE
  8
0
  6
CONTINUOUS
 62
3
 10
-387.169535844309050
 20
-84.522243589255922
 11
-387.656339236014670
 21
-84.035440197550301
  0
LINE
  8
0
  6
CONTINUOUS
 62
3
 10
-393.816339317722740
 20
-91.169047062669634
 11
-394.303142709428360
 21
-90.682243670964013
  0
ARC
  8
0
  6
CONTINUOUS
 62
3
 10
-388.230196016088880
 20
-179.769527015083810
 40
6.099999427795398
 50
174.601910595264880
 51
275.398072101891500
  0
POINT
  8
0
  6
CONTINUOUS
 62
3
 10
-390.492937581015890
 20
-182.032268580010850
  0
LINE
  8
0
  6
CONTINUOUS
 62
3
 10
-393.816339317722740
 20
-178.708866843303980
 11
-387.169535844309050
 21
-185.355670316717720
  0
LINE
  8
0
  6
CONTINUOUS
 62
3
 10
-394.129477926691550
 20
-178.961413794154370
 11
-387.452378624218620
 21
-185.638513096627290
  0
LINE
  8
0
  6
CONTINUOUS
 62
3
 10
-387.169535844309050
 20
-185.355670316717720
 11
-387.656339236014670
 21
-185.842473708423310
  0
LINE
  8
0
  6
CONTINUOUS
 62
3
 10
-393.816339317722740
 20
-178.708866843303980
 11
-394.303142709428360
 21
-179.195670235009600
  0
ARC
  8
0
  6
CONTINUOUS
 62
3
 10
-298.569055891895000
 20
-179.769527015083810
 40
6.099999427795406
 50
264.601927898108500
 51
5.398089404735109
  0
POINT
  8
0
  6
CONTINUOUS
 62
3
 10
-296.306314326967990
 20
-182.032268580010850
  0
LINE
  8
0
  6
CONTINUOUS
 62
3
 10
-292.982912590261150
 20
-178.708866843303980
 11
-299.629716063674830
 21
-185.355670316717720
  0
LINE
  8
0
  6
CONTINUOUS
 62
3
 10
-292.669773981292340
 20
-178.961413794154370
 11
-299.346873283765260
 21
-185.638513096627290
  0
LINE
  8
0
  6
CONTINUOUS
 62
3
 10
-299.629716063674830
 20
-185.355670316717720
 11
-299.142912671969210
 21
-185.842473708423310
  0
LINE
  8
0
  6
CONTINUOUS
 62
3
 10
-292.982912590261150
 20
-178.708866843303980
 11
-292.496109198555530
 21
-179.195670235009600
  0
ARC
  8
0
  6
CONTINUOUS
 62
3
 10
-298.569055891895000
 20
-90.108386890889818
 40
6.099999427795398
 50
354.601910595264880
 51
95.398072101891515
  0
POINT
  8
0
  6
CONTINUOUS
 62
3
 10
-296.306314326967990
 20
-87.845645325962778
  0
LINE
  8
0
  6
CONTINUOUS
 62
3
 10
-292.982912590261150
 20
-91.169047062669634
 11
-299.629716063674830
 21
-84.522243589255922
  0
LINE
  8
0
  6
CONTINUOUS
 62
3
 10
-292.669773981292340
 20
-90.916500111819261
 11
-299.346873283765260
 21
-84.239400809346350
  0
LINE
  8
0
  6
CONTINUOUS
 62
3
 10
-299.629716063674830
 20
-84.522243589255922
 11
-299.142912671969210
 21
-84.035440197550301
  0
LINE
  8
0
  6
CONTINUOUS
 62
3
 10
-292.982912590261150
 20
-91.169047062669634
 11
-292.496109198555530
 21
-90.682243670964013
  0
LINE
  8
0
  6
DASHDOT
 62
4
 10
-149.872262922020130
 20
34.116885789337005
 11
-149.872262922020130
 21
55.665374769868663
  0
LINE
  8
0
  6
DASHDOT
 62
4
 10
-99.872262922020127
 20
34.116885789337005
 11
-99.872262922020127
 21
56.096387921871951
  0
LINE
  8
0
  6
DASHED
 62
4
 10
-92.872262922020127
 20
43.061043047013129
 11
-92.872262922020127
 21
57.561043047013129
  0
LINE
  8
0
  6
DASHED
 62
4
 10
-106.872262922020120
 20
43.061043047013129
 11
-106.872262922020120
 21
57.561043047013129
  0
LINE
  8
0
  6
DASHED
 62
4
 10
-142.872262922020130
 20
43.061043047013129
 11
-142.872262922020130
 21
57.561043047013129
  0
LINE
  8
0
  6
DASHED
 62
4
 10
-156.872262922020130
 20
43.061043047013129
 11
-156.872262922020130
 21
57.561043047013129
  0
LINE
  8
0
  6
DASHDOT
 62
4
 10
-158.957952028603700
 20
43.061043047013129
 11
-138.471363794894390
 21
43.061043047013129
  0
ARC
  8
0
  6
DASHED
 62
4
 10
-99.872262922020127
 20
43.061043047013129
 40
7.000000000000000
 50
180.000000000000000
 51
0.000000000000000
  0
ARC
  8
0
  6
DASHED
 62
4
 10
-149.872262922020130
 20
43.061043047013129
 40
7.000000000000000
 50
180.000000000000000
 51
0.000000000000000
  0
CIRCLE
  8
0
  6
DASHED
 62
4
 10
-99.872262922020127
 20
43.061043047013129
 40
6.000000000000000
  0
LINE
  8
0
  6
DASHDOT
 62
4
 10
-111.155792337746780
 20
43.061043047013129
 11
-89.388814929218483
 21
43.061043047013129
  0
LINE
  8
0
  6
CONTINUOUS
 62
3
 10
8.127737077978736
 20
-215.738956952986710
 11
8.127737077978736
 21
-100.938956952988800
  0
LINE
  8
0
  6
CONTINUOUS
 62
3
 10
8.127737077978736
 20
-215.738956952986710
 11
8.127737077978736
 21
-217.938956952988920
  0
LINE
  8
0
  6
CONTINUOUS
 62
3
 10
19.627737077982829
 20
-77.438956952990281
 11
19.627737077983738
 21
-62.438956952988462
  0
LINE
  8
0
  6
CONTINUOUS
 62
3
 10
42.627737077983738
 20
-59.438956952990281
 11
22.627737077983738
 21
-59.438956952988917
  0
LINE
  8
0
  6
CONTINUOUS
 62
3
 10
8.127737077979191
 20
-159.438956952988920
 11
8.127737077979191
 21
-100.938956952988910
  0
LINE
  8
0
  6
CONTINUOUS
 62
3
 10
8.127737077979191
 20
-159.438956952988920
 11
8.127737077979191
 21
-220.931851200074500
  0
LINE
  8
0
  6
CONTINUOUS
 62
3
 10
8.127737077979191
 20
-220.931851200074500
 11
27.784744946706496
 21
-221.962031329823670
  0
LINE
  8
0
  6
CONTINUOUS
 62
3
 10
22.627737077981919
 20
-97.332150453240445
 11
22.627737077983852
 21
-84.073024855916515
  0
LINE
  8
0
  6
CONTINUOUS
 62
3
 10
27.784744946711044
 20
-99.908776823239748
 11
8.127737077979191
 21
-100.938956952989370
  0
ARC
  8
0
  6
CONTINUOUS
 62
3
 10
22.627737077982829
 20
-77.438956952990281
 40
3.000000000000000
 50
180.000000000000000
 51
270.000000000000000
  0
ARC
  8
0
  6
CONTINUOUS
 62
3
 10
22.627737077983738
 20
-62.438956952988917
 40
3.000000000000000
 50
90.000000000000000
 51
179.999999999991330
  0
ARC
  8
0
  6
CONTINUOUS
 62
3
 10
19.627737077981919
 20
-97.332150453240445
 40
2.999999999999901
 50
272.999999999988290
 51
0.000000000000000
  0
LINE
  8
0
  6
CONTINUOUS
 62
3
 10
20.127737077980100
 20
-234.415389263520350
 11
-7.074160913775586
 21
-236.250218659132710
  0
ARC
  8
0
  6
CONTINUOUS
 62
3
 10
-6.872262922019900
 20
-239.243417149197680
 40
3.000000000000365
 50
93.858884296478166
 51
180.000000000000000
  0
LINE
  8
0
  6
CONTINUOUS
 62
3
 10
45.046929353763289
 20
-232.734533518954720
 11
20.127737077980100
 21
-234.415389263520350
  0
LINE
  8
0
  6
DASHDOT
 62
4
 10
3.127737077980100
 20
-232.216917730273000
 11
3.127737077980100
 21
-261.141098943651680
  0
LINE
  8
0
  6
CONTINUOUS
 62
3
 10
-9.872262922019900
 20
-239.243417149197680
 11
-9.872262922019900
 21
-254.438956952990280
  0
ARC
  8
0
  6
CONTINUOUS
 62
3
 10
23.095288531710821
 20
-229.203859613643030
 40
4.999999999999822
 50
273.858884296473550
 51
311.410957896502510
  0
LINE
  8
0
  6
CONTINUOUS
 62
3
 10
34.127737077980100
 20
-254.438956952990280
 11
-9.872262922019900
 21
-254.438956952990280
  0
LINE
  8
0
  6
CONTINUOUS
 62
3
 10
15.127737077980100
 20
-78.438956952990281
 11
19.627737077980100
 21
-78.438956952990281
  0
LINE
  8
0
  6
CONTINUOUS
 62
3
 10
8.127737077979191
 20
-179.438956952990280
 11
30.627737077977372
 21
-179.438956952990280
  0
LINE
  8
0
  6
CONTINUOUS
 62
3
 10
15.127737077980100
 20
-78.438956952990281
 11
15.127737077983738
 21
-24.438956952990281
  0
LINE
  8
0
  6
CONTINUOUS
 62
3
 10
8.127737077979191
 20
-139.438956952990280
 11
28.627737077977372
 21
-139.438956952990280
  0
LINE
  8
0
  6
CONTINUOUS
 62
3
 10
19.627737077983738
 20
-24.438956952990281
 11
19.627737077983738
 21
-78.438956952990281
  0
LINE
  8
0
  6
CONTINUOUS
 62
3
 10
-33.872262922025868
 20
-187.438956952986930
 11
-154.372262922046730
 21
-187.438956952986930
  0
LINE
  8
0
  6
CONTINUOUS
 62
4
 10
-154.372262922046730
 20
-185.938956952986930
 11
-33.872262922025868
 21
-185.938956952986930
  0
INSERT
  8
0
  2
SYM1
 10
15.127737077981010
 20
-68.438956952990281
  0
INSERT
  8
0
  2
SYM2
 10
30.627737077977372
 20
-78.438956952990281
  0
INSERT
  8
0
  2
SYM3
 10
2.127737077979191
 20
-203.633130777147870
  0
INSERT
  8
0
  2
SYM4
 10
2.127737077979191
 20
-115.244783128829960
  0
INSERT
  8
0
  2
SYM5
 10
30.627737077977827
 20
-154.438956952990280
  0
LINE
  8
0
  6
CONTINUOUS
 62
4
 10
-87.372262922025641
 20
-106.182561402349840
 11
-33.872262922025868
 21
-106.182561402349840
  0
LINE
  8
0
  6
CONTINUOUS
 62
4
 10
-87.372262922025641
 20
-107.661584555826940
 11
-33.872262922025868
 21
-107.661584555826940
  0
LINE
  8
0
  6
CONTINUOUS
 62
4
 10
-87.372262922025641
 20
-110.754315547492180
 11
-33.872262922025868
 21
-110.754315547492180
  0
LINE
  8
0
  6
CONTINUOUS
 62
4
 10
-87.372262922025641
 20
-112.100717272990770
 11
-33.872262922025868
 21
-112.100717272990770
  0
LINE
  8
0
  6
CONTINUOUS
 62
4
 10
-87.372262922025641
 20
-114.938956952986920
 11
-33.872262922025868
 21
-114.938956952986920
  0
LINE
  8
0
  6
CONTINUOUS
 62
4
 10
-154.529863268418010
 20
-94.898521546462462
 11
-33.872262922025868
 21
-94.898521546462462
  0
LINE
  8
0
  6
CONTINUOUS
 62
4
 10
-154.372262922046730
 20
-90.434301425882040
 11
-33.872262922025868
 21
-90.434301425882040
  0
LINE
  8
0
  6
CONTINUOUS
 62
4
 10
-164.372262922046730
 20
-103.224565794216910
 11
-33.872262922025868
 21
-103.224565794216910
  0
LINE
  8
0
  6
CONTINUOUS
 62
4
 10
-164.372262922046730
 20
-101.635356001478150
 11
-33.872262922025868
 21
-101.635356001478150
  0
LINE
  8
0
  6
CONTINUOUS
 62
4
 10
-154.372262922046730
 20
-93.897043182647167
 11
-33.872262922025868
 21
-93.897043182647167
  0
LINE
  8
0
  6
CONTINUOUS
 62
4
 10
-154.372262922046730
 20
-88.805874358104234
 11
-33.872262922025868
 21
-88.805874358104234
  0
LINE
  8
0
  6
CONTINUOUS
 62
4
 10
-154.372262922046730
 20
-83.938956952986814
 11
-33.872262922025868
 21
-83.938956952986814
  0
LINE
  8
0
  6
CONTINUOUS
 62
4
 10
-154.372262922046730
 20
-84.438956952986928
 11
-33.872262922025868
 21
-84.438956952986928
  0
LINE
  8
0
  6
DASHDOT
 62
4
 10
-8.484986074923654
 20
-134.938956952986930
 11
-217.816243898862010
 21
-134.938956952986930
  0
LINE
  8
0
  6
CONTINUOUS
 62
3
 10
-33.872262922025868
 20
-82.438956952986928
 11
-154.372262922046730
 21
-82.438956952986928
  0
LINE
  8
0
  6
CONTINUOUS
 62
4
 10
-164.372262922046730
 20
-166.653348111756940
 11
-33.872262922025868
 21
-166.653348111756940
  0
LINE
  8
0
  6
CONTINUOUS
 62
4
 10
-164.372262922046730
 20
-168.242557904495580
 11
-33.872262922025868
 21
-168.242557904495580
  0
LINE
  8
0
  6
CONTINUOUS
 62
4
 10
-154.529863268418010
 20
-174.979392359511280
 11
-33.872262922025868
 21
-174.979392359511280
  0
LINE
  8
0
  6
CONTINUOUS
 62
4
 10
-154.372262922046730
 20
-175.980870723326570
 11
-33.872262922025868
 21
-175.980870723326570
  0
LINE
  8
0
  6
CONTINUOUS
 62
4
 10
-154.372262922046730
 20
-179.443612480091820
 11
-33.872262922025868
 21
-179.443612480091820
  0
LINE
  8
0
  6
CONTINUOUS
 62
4
 10
-154.372262922046730
 20
-181.072039547869620
 11
-33.872262922025868
 21
-181.072039547869620
  0
LINE
  8
0
  6
CONTINUOUS
 62
4
 10
-154.372262922046730
 20
-185.438956952986930
 11
-33.872262922025868
 21
-185.438956952986930
  0
LINE
  8
0
  6
CONTINUOUS
 62
4
 10
-87.372262922025641
 20
-163.695352503624010
 11
-33.872262922025868
 21
-163.695352503624010
  0
LINE
  8
0
  6
CONTINUOUS
 62
4
 10
-87.372262922025641
 20
-162.216329350146910
 11
-33.872262922025868
 21
-162.216329350146910
  0
LINE
  8
0
  6
CONTINUOUS
 62
4
 10
-87.372262922025641
 20
-159.123598358481670
 11
-33.872262922025868
 21
-159.123598358481670
  0
LINE
  8
0
  6
CONTINUOUS
 62
4
 10
-87.372262922025641
 20
-157.777196632983080
 11
-33.872262922025868
 21
-157.777196632983080
  0
LINE
  8
0
  6
CONTINUOUS
 62
4
 10
-87.372262922025641
 20
-154.938956952986930
 11
-33.872262922025868
 21
-154.938956952986930
  0
ARC
  8
0
  6
CONTINUOUS
 62
3
 10
4.127752432108309
 20
-217.226581143860760
 40
2.000000000000000
 50
180.000000000000000
 51
267.000000000000170
  0
ARC
  8
0
  6
CONTINUOUS
 62
3
 10
4.127752432108309
 20
-101.232070527852500
 40
2.000000000000051
 50
86.999999999999773
 51
180.000000000000000
  0
ARC
  8
0
  6
CONTINUOUS
 62
3
 10
0.127752432108650
 20
-126.438956952988800
 40
2.000000000000000
 50
90.000000000000000
 51
180.000000000000000
  0
ARC
  8
0
  6
CONTINUOUS
 62
3
 10
0.127752432108309
 20
-122.438956952988800
 40
2.000000000000000
 50
270.000000000000000
 51
0.000000000000000
  0
LINE
  8
0
  6
CONTINUOUS
 62
3
 10
2.127752432108309
 20
-122.438956952988800
 11
2.127752432108309
 21
-101.232070527852500
  0
ARC
  8
0
  6
CONTINUOUS
 62
3
 10
0.127752432108650
 20
-192.438956952988800
 40
2.000000000000000
 50
180.000000000000000
 51
270.000000000000000
  0
ARC
  8
0
  6
CONTINUOUS
 62
3
 10
0.127752432108309
 20
-196.438956952988800
 40
2.000000000000000
 50
0.000000000000000
 51
90.000000000000000
  0
LINE
  8
0
  6
CONTINUOUS
 62
3
 10
2.127752432108309
 20
-217.226581143860760
 11
2.127752432108309
 21
-196.438956952988800
  0
LINE
  8
0
  6
CONTINUOUS
 62
3
 10
-15.746368145433280
 20
-170.485014900248640
 11
-4.255409375609361
 21
-170.485014900248640
  0
LINE
  8
0
  6
CONTINUOUS
 62
3
 10
-15.837566230909488
 20
-167.438956952988750
 11
-4.437805546558138
 21
-167.438956952988750
  0
LINE
  8
0
  6
CONTINUOUS
 62
3
 10
-15.275180579470089
 20
-124.438956952988800
 11
-4.554225006309480
 21
-124.438956952988800
  0
LINE
  8
0
  6
CONTINUOUS
 62
3
 10
-15.062820826029110
 20
-110.653072724044080
 11
-4.386236065614412
 21
-110.653072724044080
  0
LINE
  8
0
  6
CONTINUOUS
 62
3
 10
-18.872247567926514
 20
-101.025093466166700
 11
-18.872247567926308
 21
-87.843593523636230
  0
ARC
  8
0
  6
CONTINUOUS
 62
3
 10
-19.872247567926813
 20
-120.976833936398690
 40
0.999999999999986
 50
0.000000000000000
 51
59.999999999998764
  0
ARC
  8
0
  6
CONTINUOUS
 62
3
 10
-18.872247567926784
 20
-119.244783128829790
 40
1.000000000000000
 50
180.000000000000000
 51
240.000000000000400
  0
ARC
  8
0
  6
CONTINUOUS
 62
3
 10
-19.872247567926514
 20
-101.025093466166700
 40
1.000000000000026
 50
299.999999999998180
 51
0.000000000000000
  0
ARC
  8
0
  6
CONTINUOUS
 62
3
 10
-18.872247567926543
 20
-102.757144273735600
 40
0.999999999999976
 50
119.999999999999810
 51
180.000000000000000
  0
LINE
  8
0
  6
CONTINUOUS
 62
3
 10
-19.872247567926784
 20
-119.244783128829790
 11
-19.872247567926550
 21
-102.757144273735600
  0
LINE
  8
0
  6
CONTINUOUS
 62
3
 10
-18.872247567927353
 20
-154.938956952988750
 11
-33.872247567897801
 21
-154.938956952988750
  0
LINE
  8
0
  6
CONTINUOUS
 62
3
 10
-19.872247567926728
 20
-114.938956952988740
 11
-33.872247567895776
 21
-114.938956952988740
  0
LINE
  8
0
  6
CONTINUOUS
 62
3
 10
8.127752432108309
 20
-179.424021885470270
 11
-1.872247567891350
 21
-179.424021885470270
  0
LINE
  8
0
  6
CONTINUOUS
 62
3
 10
8.127752432108309
 20
-139.453892020507340
 11
-1.872247567891350
 21
-139.453892020507340
  0
POINT
  8
0
  6
CONTINUOUS
 62
3
 10
-28.872247567894362
 20
-187.534959542084780
  0
ARC
  8
0
  6
CONTINUOUS
 62
3
 10
-6.858984320454738
 20
-216.528459178322920
 40
5.000000000000021
 50
3.299723825004901
 51
45.102043218056437
  0
ARC
  8
0
  6
CONTINUOUS
 62
3
 10
-30.974156418526235
 20
-192.499032226843330
 40
4.999999999999986
 50
45.102043218056664
 51
89.000000000000497
  0
LINE
  8
0
  6
CONTINUOUS
 62
3
 10
-3.329752769423777
 20
-212.986634131936850
 11
-27.444924867495303
 21
-188.957207180457260
  0
ARC
  8
0
  6
CONTINUOUS
 62
3
 10
1.127752432108650
 20
-216.067985460013800
 40
3.000000000000000
 50
180.000000000000000
 51
266.999999999999830
  0
ARC
  8
0
  6
CONTINUOUS
 62
3
 10
-4.872247567891350
 20
-190.954338352501000
 40
3.000000000000000
 50
0.000000000000000
 51
89.000000000000398
  0
ARC
  8
0
  6
CONTINUOUS
 62
3
 10
3.127752432108309
 20
-86.732854593256263
 40
3.000000000000000
 50
0.000000000000000
 51
88.000000000000156
  0
ARC
  8
0
  6
CONTINUOUS
 62
3
 10
-23.872232213794632
 20
-87.843593523636116
 40
5.000000000000000
 50
359.999999999998690
 51
87.999999999999915
  0
ARC
  8
0
  6
CONTINUOUS
 62
3
 10
-13.872247567926422
 20
-93.279124078770451
 40
5.000000000000000
 50
179.999999999999350
 51
266.999999999999940
  0
ARC
  8
0
  6
CONTINUOUS
 62
3
 10
8.127752432108309
 20
-97.438956952988804
 40
2.000000000000000
 50
180.000000000000000
 51
270.000000000000000
  0
LINE
  8
0
  6
CONTINUOUS
 62
3
 10
8.127752432108309
 20
-219.438956952988800
 11
0.970744563379810
 21
-219.063874064277510
  0
LINE
  8
0
  6
CONTINUOUS
 62
3
 10
8.127752432108309
 20
-99.438956952988804
 11
-14.133927349141146
 21
-98.272271752543304
  0
LINE
  8
0
  6
CONTINUOUS
 62
3
 10
-18.872247567927865
 20
-187.709510191366350
 11
-18.872247567926820
 21
-120.976833936398690
  0
LINE
  8
0
  6
CONTINUOUS
 62
3
 10
6.127752432108309
 20
-97.438956952988804
 11
6.127752432108309
 21
-86.732854593256263
  0
LINE
  8
0
  6
CONTINUOUS
 62
3
 10
8.127752432108309
 20
-219.438956952988800
 11
8.127752432108309
 21
-99.438956952988804
  0
LINE
  8
0
  6
DASHDOT
 62
4
 10
-7.872247567891691
 20
-104.506307681993570
 11
-7.872247567891691
 21
-80.043166683890604
  0
LINE
  8
0
  6
CONTINUOUS
 62
3
 10
-33.872247567894135
 20
-82.438956952986928
 11
-33.872247567899443
 21
-187.447684217443620
  0
LINE
  8
0
  6
CONTINUOUS
 62
3
 10
-18.372275865643019
 20
-97.938956952987382
 11
-18.372277322493460
 21
-97.938956952987382
  0
LINE
  8
0
  6
CONTINUOUS
 62
3
 10
-1.872247567891350
 20
-216.067985460013800
 11
-1.872247567891350
 21
-102.938956952988860
  0
LINE
  8
0
  6
CONTINUOUS
 62
3
 10
-4.819874994447844
 20
-187.954795267031840
 11
-33.872232213759673
 21
-187.447684485451130
  0
LINE
  8
0
  6
CONTINUOUS
 62
3
 10
3.232450922215804
 20
-83.734682112198982
 11
-33.872262922025868
 21
-82.438956952986928
  0
LINE
  8
0
  6
CONTINUOUS
 62
3
 10
8.127752432108309
 20
-215.738956952986540
 11
8.127752432108309
 21
-217.938956952988800
  0
LINE
  8
0
  6
DASHDOT
 62
4
 10
24.760089158913615
 20
-68.438956952990281
 11
-4.052943616276025
 21
-68.438956952990281
  0
LINE
  8
0
  6
CONTINUOUS
 62
3
 10
-164.372262922046730
 20
-134.938956952986930
 11
-164.372262922046730
 21
-169.938956952986930
  0
LINE
  8
0
  6
CONTINUOUS
 62
3
 10
-157.372262922046730
 20
-172.938956952986930
 11
-161.372262922046730
 21
-172.938956952986930
  0
ARC
  8
0
  6
CONTINUOUS
 62
3
 10
-161.372262922046730
 20
-169.938956952986930
 40
3.000000000000000
 50
180.000000000000000
 51
270.000000000000000
  0
LINE
  8
0
  6
CONTINUOUS
 62
3
 10
-154.372262922046730
 20
-188.938956952987160
 11
-154.372262922046730
 21
-175.938956952986930
  0
ARC
  8
0
  6
CONTINUOUS
 62
3
 10
-157.372262922046730
 20
-175.938956952986930
 40
3.000000000000000
 50
0.000000000000000
 51
90.000000000000000
  0
POLYLINE
  8
0
  6
CONTINUOUS
 62
3
 66
1
 70
1
  0
VERTEX
  8
0
  6
CONTINUOUS
 62
3
 10
-160.672262922046510
 20
-182.266287907334460
  0
VERTEX
  8
0
  6
CONTINUOUS
 62
3
 10
-160.762572104151330
 20
-181.563330941134100
  0
VERTEX
  8
0
  6
CONTINUOUS
 62
3
 10
-161.030029119243470
 20
-180.887388216922010
  0
VERTEX
  8
0
  6
CONTINUOUS
 62
3
 10
-161.464355744224550
 20
-180.264435834516600
  0
VERTEX
  8
0
  6
CONTINUOUS
 62
3
 10
-162.048861050469720
 20
-179.718413504618010
  0
VERTEX
  8
0
  6
CONTINUOUS
 62
3
 10
-162.761082826854390
 20
-179.270304559151380
  0
VERTEX
  8
0
  6
CONTINUOUS
 62
3
 10
-163.573650789930580
 20
-178.937329573588640
  0
VERTEX
  8
0
  6
CONTINUOUS
 62
3
 10
-164.455338408570700
 20
-178.732284589890380
  0
VERTEX
  8
0
  6
CONTINUOUS
 62
3
 10
-165.372262922046500
 20
-178.663049371789610
  0
VERTEX
  8
0
  6
CONTINUOUS
 62
3
 10
-166.289187435522310
 20
-178.732284589890380
  0
VERTEX
  8
0
  6
CONTINUOUS
 62
3
 10
-167.170875054162420
 20
-178.937329573588640
  0
VERTEX
  8
0
  6
CONTINUOUS
 62
3
 10
-167.983443017238610
 20
-179.270304559151380
  0
VERTEX
  8
0
  6
CONTINUOUS
 62
3
 10
-168.695664793623280
 20
-179.718413504618010
  0
VERTEX
  8
0
  6
CONTINUOUS
 62
3
 10
-169.280170099868460
 20
-180.264435834516600
  0
VERTEX
  8
0
  6
CONTINUOUS
 62
3
 10
-169.714496724849540
 20
-180.887388216922010
  0
VERTEX
  8
0
  6
CONTINUOUS
 62
3
 10
-169.981953739941670
 20
-181.563330941134100
  0
VERTEX
  8
0
  6
CONTINUOUS
 62
3
 10
-170.072262922046490
 20
-182.266287907334460
  0
VERTEX
  8
0
  6
CONTINUOUS
 62
3
 10
-169.981953739941670
 20
-182.969244873534820
  0
VERTEX
  8
0
  6
CONTINUOUS
 62
3
 10
-169.714496724849540
 20
-183.645187597746910
  0
VERTEX
  8
0
  6
CONTINUOUS
 62
3
 10
-169.280170099868460
 20
-184.268139980152310
  0
VERTEX
  8
0
  6
CONTINUOUS
 62
3
 10
-168.695664793623250
 20
-184.814162310050900
  0
VERTEX
  8
0
  6
CONTINUOUS
 62
3
 10
-167.983443017238610
 20
-185.262271255517530
  0
VERTEX
  8
0
  6
CONTINUOUS
 62
3
 10
-167.170875054162420
 20
-185.595246241080280
  0
VERTEX
  8
0
  6
CONTINUOUS
 62
3
 10
-166.289187435522310
 20
-185.800291224778530
  0
VERTEX
  8
0
  6
CONTINUOUS
 62
3
 10
-165.372262922046500
 20
-185.869526442879310
  0
VERTEX
  8
0
  6
CONTINUOUS
 62
3
 10
-164.455338408570700
 20
-185.800291224778530
  0
VERTEX
  8
0
  6
CONTINUOUS
 62
3
 10
-163.573650789930580
 20
-185.595246241080280
  0
VERTEX
  8
0
  6
CONTINUOUS
 62
3
 10
-162.761082826854390
 20
-185.262271255517530
  0
VERTEX
  8
0
  6
CONTINUOUS
 62
3
 10
-162.048861050469750
 20
-184.814162310050900
  0
VERTEX
  8
0
  6
CONTINUOUS
 62
3
 10
-161.464355744224550
 20
-184.268139980152310
  0
VERTEX
  8
0
  6
CONTINUOUS
 62
3
 10
-161.030029119243470
 20
-183.645187597746910
  0
VERTEX
  8
0
  6
CONTINUOUS
 62
3
 10
-160.762572104151330
 20
-182.969244873534820
  0
SEQEND
  8
0
  6
CONTINUOUS
 62
3
  0
LINE
  8
0
  6
CONTINUOUS
 62
3
 10
-167.372262922046730
 20
-185.258663461334890
 11
-165.372262922046960
 21
-184.082877975711990
  0
LINE
  8
0
  6
CONTINUOUS
 62
3
 10
-165.372262922046960
 20
-184.082877975711990
 11
-163.372262922046730
 21
-182.430236336588680
  0
LINE
  8
0
  6
CONTINUOUS
 62
3
 10
-163.372262922046730
 20
-185.258663461334890
 11
-165.372262922046960
 21
-184.082877975711990
  0
LINE
  8
0
  6
CONTINUOUS
 62
3
 10
-165.372262922046960
 20
-184.082877975711990
 11
-167.372262922046730
 21
-182.430236336588680
  0
LINE
  8
0
  6
CONTINUOUS
 62
4
 10
-164.372262922046730
 20
-163.695352503624010
 11
-162.372262922025580
 21
-163.695352503624010
  0
LINE
  8
0
  6
CONTINUOUS
 62
4
 10
-164.372262922046730
 20
-162.216329350146910
 11
-162.372262922025580
 21
-162.216329350146910
  0
LINE
  8
0
  6
CONTINUOUS
 62
4
 10
-164.372262922046730
 20
-159.123598358481670
 11
-162.372262922025580
 21
-159.123598358481670
  0
LINE
  8
0
  6
CONTINUOUS
 62
4
 10
-164.372262922046730
 20
-157.777196632983080
 11
-162.372262922025580
 21
-157.777196632983080
  0
LINE
  8
0
  6
CONTINUOUS
 62
4
 10
-164.372262922046730
 20
-154.938956952986930
 11
-162.372262922025580
 21
-154.938956952986930
  0
LINE
  8
0
  6
CONTINUOUS
 62
3
 10
-164.372262922046730
 20
-134.938956952986930
 11
-164.372262922046730
 21
-99.938956952986928
  0
LINE
  8
0
  6
CONTINUOUS
 62
3
 10
-157.372262922046730
 20
-96.938956952986928
 11
-161.372262922046730
 21
-96.938956952986928
  0
ARC
  8
0
  6
CONTINUOUS
 62
3
 10
-161.372262922046730
 20
-99.938956952986928
 40
3.000000000000000
 50
90.000000000000000
 51
180.000000000000000
  0
LINE
  8
0
  6
CONTINUOUS
 62
3
 10
-154.372262922046730
 20
-80.938956952986700
 11
-154.372262922046730
 21
-93.938956952986928
  0
ARC
  8
0
  6
CONTINUOUS
 62
3
 10
-157.372262922046730
 20
-93.938956952986928
 40
3.000000000000000
 50
270.000000000000000
 51
0.000000000000000
  0
POLYLINE
  8
0
  6
CONTINUOUS
 62
3
 66
1
 70
1
  0
VERTEX
  8
0
  6
CONTINUOUS
 62
3
 10
-160.672262922046510
 20
-87.611625998639283
  0
VERTEX
  8
0
  6
CONTINUOUS
 62
3
 10
-160.762572104151330
 20
-86.908669032438922
  0
VERTEX
  8
0
  6
CONTINUOUS
 62
3
 10
-161.030029119243470
 20
-86.232726308226830
  0
VERTEX
  8
0
  6
CONTINUOUS
 62
3
 10
-161.464355744224550
 20
-85.609773925821429
  0
VERTEX
  8
0
  6
CONTINUOUS
 62
3
 10
-162.048861050469720
 20
-85.063751595922852
  0
VERTEX
  8
0
  6
CONTINUOUS
 62
3
 10
-162.761082826854390
 20
-84.615642650456238
  0
VERTEX
  8
0
  6
CONTINUOUS
 62
3
 10
-163.573650789930580
 20
-84.282667664893467
  0
VERTEX
  8
0
  6
CONTINUOUS
 62
3
 10
-164.455338408570700
 20
-84.077622681195223
  0
VERTEX
  8
0
  6
CONTINUOUS
 62
3
 10
-165.372262922046500
 20
-84.008387463094451
  0
VERTEX
  8
0
  6
CONTINUOUS
 62
3
 10
-166.289187435522310
 20
-84.077622681195223
  0
VERTEX
  8
0
  6
CONTINUOUS
 62
3
 10
-167.170875054162420
 20
-84.282667664893467
  0
VERTEX
  8
0
  6
CONTINUOUS
 62
3
 10
-167.983443017238610
 20
-84.615642650456238
  0
VERTEX
  8
0
  6
CONTINUOUS
 62
3
 10
-168.695664793623280
 20
-85.063751595922852
  0
VERTEX
  8
0
  6
CONTINUOUS
 62
3
 10
-169.280170099868460
 20
-85.609773925821429
  0
VERTEX
  8
0
  6
CONTINUOUS
 62
3
 10
-169.714496724849540
 20
-86.232726308226830
  0
VERTEX
  8
0
  6
CONTINUOUS
 62
3
 10
-169.981953739941670
 20
-86.908669032438922
  0
VERTEX
  8
0
  6
CONTINUOUS
 62
3
 10
-170.072262922046490
 20
-87.611625998639283
  0
VERTEX
  8
0
  6
CONTINUOUS
 62
3
 10
-169.981953739941670
 20
-88.314582964839644
  0
VERTEX
  8
0
  6
CONTINUOUS
 62
3
 10
-169.714496724849540
 20
-88.990525689051736
  0
VERTEX
  8
0
  6
CONTINUOUS
 62
3
 10
-169.280170099868460
 20
-89.613478071457138
  0
VERTEX
  8
0
  6
CONTINUOUS
 62
3
 10
-168.695664793623250
 20
-90.159500401355714
  0
VERTEX
  8
0
  6
CONTINUOUS
 62
3
 10
-167.983443017238610
 20
-90.607609346822329
  0
VERTEX
  8
0
  6
CONTINUOUS
 62
3
 10
-167.170875054162420
 20
-90.940584332385100
  0
VERTEX
  8
0
  6
CONTINUOUS
 62
3
 10
-166.289187435522310
 20
-91.145629316083344
  0
VERTEX
  8
0
  6
CONTINUOUS
 62
3
 10
-165.372262922046500
 20
-91.214864534184116
  0
VERTEX
  8
0
  6
CONTINUOUS
 62
3
 10
-164.455338408570700
 20
-91.145629316083344
  0
VERTEX
  8
0
  6
CONTINUOUS
 62
3
 10
-163.573650789930580
 20
-90.940584332385100
  0
VERTEX
  8
0
  6
CONTINUOUS
 62
3
 10
-162.761082826854390
 20
-90.607609346822329
  0
VERTEX
  8
0
  6
CONTINUOUS
 62
3
 10
-162.048861050469750
 20
-90.159500401355714
  0
VERTEX
  8
0
  6
CONTINUOUS
 62
3
 10
-161.464355744224550
 20
-89.613478071457138
  0
VERTEX
  8
0
  6
CONTINUOUS
 62
3
 10
-161.030029119243470
 20
-88.990525689051736
  0
VERTEX
  8
0
  6
CONTINUOUS
 62
3
 10
-160.762572104151330
 20
-88.314582964839644
  0
SEQEND
  8
0
  6
CONTINUOUS
 62
3
  0
LINE
  8
0
  6
CONTINUOUS
 62
3
 10
-167.372262922046730
 20
-84.619250444638965
 11
-165.372262922046960
 21
-85.795035930261747
  0
LINE
  8
0
  6
CONTINUOUS
 62
3
 10
-165.372262922046960
 20
-85.795035930261747
 11
-163.372262922046730
 21
-87.447677569385178
  0
LINE
  8
0
  6
CONTINUOUS
 62
3
 10
-163.372262922046730
 20
-84.619250444638965
 11
-165.372262922046960
 21
-85.795035930261747
  0
LINE
  8
0
  6
CONTINUOUS
 62
3
 10
-165.372262922046960
 20
-85.795035930261747
 11
-167.372262922046730
 21
-87.447677569385178
  0
LINE
  8
0
  6
CONTINUOUS
 62
3
 10
-154.372262922046730
 20
-80.938956952986700
 11
-183.877107871139740
 21
-80.938956952986700
  0
LINE
  8
0
  6
CONTINUOUS
 62
4
 10
-164.372262922046730
 20
-114.938956952986920
 11
-162.372262922025580
 21
-114.938956952986920
  0
LINE
  8
0
  6
CONTINUOUS
 62
4
 10
-164.372262922046730
 20
-106.182561402349840
 11
-162.372262922025580
 21
-106.182561402349840
  0
LINE
  8
0
  6
CONTINUOUS
 62
4
 10
-164.372262922046730
 20
-107.661584555826940
 11
-162.372262922025580
 21
-107.661584555826940
  0
LINE
  8
0
  6
CONTINUOUS
 62
4
 10
-164.372262922046730
 20
-110.754315547492180
 11
-162.372262922025580
 21
-110.754315547492180
  0
LINE
  8
0
  6
CONTINUOUS
 62
4
 10
-164.372262922046730
 20
-112.100717272990770
 11
-162.372262922025580
 21
-112.100717272990770
  0
LINE
  8
0
  6
CONTINUOUS
 62
3
 10
-87.372262922025641
 20
-134.938956952986930
 11
-87.372262922025641
 21
-105.438956952986920
  0
LINE
  8
0
  6
CONTINUOUS
 62
3
 10
-87.372262922025641
 20
-134.938956952986930
 11
-87.372262922025641
 21
-164.438956952986930
  0
ARC
  8
0
  6
CONTINUOUS
 62
3
 10
-89.372262922025641
 20
-164.438956952986930
 40
2.000000000000000
 50
270.000000000000000
 51
0.000000000000000
  0
LINE
  8
0
  6
CONTINUOUS
 62
3
 10
-89.372262922025641
 20
-166.438956952986930
 11
-160.372262922025580
 21
-166.438956952986930
  0
ARC
  8
0
  6
CONTINUOUS
 62
3
 10
-160.372262922025580
 20
-164.438956952986930
 40
2.000000000000000
 50
180.000000000000000
 51
270.000000000000000
  0
LINE
  8
0
  6
CONTINUOUS
 62
3
 10
-162.372262922025580
 20
-134.938956952986930
 11
-162.372262922025580
 21
-164.438956952986930
  0
LINE
  8
0
  6
CONTINUOUS
 62
3
 10
-162.372262922025580
 20
-134.938956952986930
 11
-162.372262922025580
 21
-105.438956952986920
  0
ARC
  8
0
  6
CONTINUOUS
 62
3
 10
-160.372262922025580
 20
-105.438956952986920
 40
2.000000000000000
 50
90.000000000000000
 51
180.000000000000000
  0
LINE
  8
0
  6
CONTINUOUS
 62
3
 10
-89.372262922025641
 20
-103.438956952986920
 11
-160.372262922025580
 21
-103.438956952986920
  0
ARC
  8
0
  6
CONTINUOUS
 62
3
 10
-89.372262922025641
 20
-105.438956952986920
 40
2.000000000000000
 50
0.000000000000000
 51
90.000000000000000
  0
LINE
  8
0
  6
CONTINUOUS
 62
3
 10
-88.372262922025641
 20
-105.938956952986920
 11
-88.372262922025641
 21
-134.938956952986930
  0
LINE
  8
0
  6
CONTINUOUS
 62
3
 10
-88.372262922025641
 20
-163.938956952986930
 11
-88.372262922025641
 21
-134.938956952986930
  0
ARC
  8
0
  6
CONTINUOUS
 62
3
 10
-89.372262922025641
 20
-163.938956952986930
 40
1.000000000000000
 50
270.000000000000000
 51
0.000000000000000
  0
LINE
  8
0
  6
CONTINUOUS
 62
3
 10
-89.372262922025641
 20
-164.938956952986930
 11
-160.372262922025580
 21
-164.938956952986930
  0
ARC
  8
0
  6
CONTINUOUS
 62
3
 10
-160.372262922025580
 20
-163.938956952986930
 40
1.000000000000000
 50
180.000000000000000
 51
270.000000000000000
  0
LINE
  8
0
  6
CONTINUOUS
 62
3
 10
-161.372262922025580
 20
-134.938956952986930
 11
-161.372262922025580
 21
-163.938956952986930
  0
LINE
  8
0
  6
CONTINUOUS
 62
3
 10
-161.372262922025580
 20
-134.938956952986930
 11
-161.372262922025580
 21
-105.938956952986920
  0
ARC
  8
0
  6
CONTINUOUS
 62
3
 10
-160.372262922025580
 20
-105.938956952986920
 40
1.000000000000000
 50
90.000000000000000
 51
180.000000000000000
  0
LINE
  8
0
  6
CONTINUOUS
 62
3
 10
-89.372262922025641
 20
-104.938956952986920
 11
-160.372262922025580
 21
-104.938956952986920
  0
ARC
  8
0
  6
CONTINUOUS
 62
3
 10
-89.372262922025641
 20
-105.938956952986920
 40
1.000000000000000
 50
0.000000000000000
 51
90.000000000000000
  0
ARC
  8
0
  6
CONTINUOUS
 62
3
 10
328.170025631386350
 20
-139.672355137171450
 40
52.746750336799941
 50
91.910213171710112
 51
180.000000000000000
  0
LINE
  8
0
  6
CONTINUOUS
 62
3
 10
275.423025631386050
 20
-139.438956952990280
 11
275.423025631386050
 21
-233.438956952990280
  0
LINE
  8
0
  6
CONTINUOUS
 62
3
 10
271.798551492296840
 20
-129.438957553919810
 11
271.798551492296840
 21
-233.438956952990280
  0
LINE
  8
0
  6
CONTINUOUS
 62
3
 10
256.379236180080850
 20
-129.438956952990280
 11
256.379236180080850
 21
-233.438956952990280
  0
LINE
  8
0
  6
DASHDOT
 62
4
 10
234.880405651365440
 20
-129.438956952990280
 11
445.087247048396650
 21
-129.438956952990280
  0
LINE
  8
0
  6
CONTINUOUS
 62
3
 10
248.170025631386350
 20
-139.672355137171450
 11
248.170025631386350
 21
-233.438956952990280
  0
ARC
  8
0
  6
CONTINUOUS
 62
3
 10
342.170025631386350
 20
-129.438956952990280
 40
40.000000000000249
 50
184.000629961571520
 51
270.000000000000000
  0
ARC
  8
0
  6
CONTINUOUS
 62
3
 10
299.274804452331640
 20
-132.438956952990280
 40
3.000000000000032
 50
4.000629961575198
 51
90.000000000000000
  0
LINE
  8
0
  6
CONTINUOUS
 62
3
 10
282.170025631386350
 20
-132.938956952990280
 11
282.170025631386350
 21
-222.838956952990370
  0
ARC
  8
0
  6
CONTINUOUS
 62
3
 10
285.670025631386350
 20
-132.938956952990280
 40
3.500000000000000
 50
90.000000000000000
 51
180.000000000000000
  0
LINE
  8
0
  6
CONTINUOUS
 62
3
 10
299.274804452331640
 20
-129.438956952990280
 11
285.670025631386350
 21
-129.438956952990280
  0
POLYLINE
  8
0
  6
CONTINUOUS
 62
3
 66
1
  0
VERTEX
  8
0
  6
CONTINUOUS
 62
3
 10
271.798551492296780
 20
-129.438957553919810
  0
VERTEX
  8
0
  6
CONTINUOUS
 62
3
 10
271.667280000037750
 20
-127.601462330775220
  0
VERTEX
  8
0
  6
CONTINUOUS
 62
3
 10
271.277935646396370
 20
-125.826540785545300
  0
VERTEX
  8
0
  6
CONTINUOUS
 62
3
 10
270.643777086874650
 20
-124.174635744974850
  0
VERTEX
  8
0
  6
CONTINUOUS
 62
3
 10
269.786399831451550
 20
-122.702000856124690
  0
VERTEX
  8
0
  6
CONTINUOUS
 62
3
 10
268.735000835363620
 20
-121.458784935816790
  0
VERTEX
  8
0
  6
CONTINUOUS
 62
3
 10
267.525384231774300
 20
-120.487324212759120
  0
VERTEX
  8
0
  6
CONTINUOUS
 62
3
 10
266.198742064915050
 20
-119.820700617998660
  0
VERTEX
  8
0
  6
CONTINUOUS
 62
3
 10
264.800251544369700
 20
-119.481615219394110
  0
VERTEX
  8
0
  6
CONTINUOUS
 62
3
 10
263.377536589327750
 20
-119.481615163947330
  0
VERTEX
  8
0
  6
CONTINUOUS
 62
3
 10
261.979046053072690
 20
-119.820700453546490
  0
VERTEX
  8
0
  6
CONTINUOUS
 62
3
 10
260.652403855329060
 20
-120.487323944901770
  0
VERTEX
  8
0
  6
CONTINUOUS
 62
3
 10
259.442787206732360
 20
-121.458784573675840
  0
VERTEX
  8
0
  6
CONTINUOUS
 62
3
 10
258.391388153046710
 20
-122.702000412032400
  0
VERTEX
  8
0
  6
CONTINUOUS
 62
3
 10
257.534010829396950
 20
-124.174635234054260
  0
VERTEX
  8
0
  6
CONTINUOUS
 62
3
 10
256.899852193343120
 20
-125.826540225195210
  0
VERTEX
  8
0
  6
CONTINUOUS
 62
3
 10
256.510507757470350
 20
-127.601461740077660
  0
VERTEX
  8
0
  6
CONTINUOUS
 62
3
 10
256.379236180080910
 20
-129.438956952990280
  0
SEQEND
  8
0
  6
CONTINUOUS
 62
3
  0
CIRCLE
  8
0
  6
CONTINUOUS
 62
3
 10
342.170025631386350
 20
-129.438956952990280
 40
33.500000000000000
  0
LINE
  8
0
  6
DASHDOT
 62
4
 10
372.423173970451900
 20
-134.938956952987440
 11
311.674882928542500
 21
-134.938956952987440
  0
LINE
  8
0
  6
DASHDOT
 62
4
 10
100.057358690087540
 20
-129.438956952990280
 11
219.253396681080630
 21
-129.438956952990280
  0
LINE
  8
0
  6
DASHED
 62
3
 10
288.170025631386350
 20
-155.238956952987390
 11
288.170025631386350
 21
-114.638956952987480
  0
ARC
  8
0
  6
DASHED
 62
3
 10
288.370025631386170
 20
-155.238956952987390
 40
0.199999999999818
 50
180.000000000000000
 51
270.000000000000000
  0
LINE
  8
0
  6
DASHED
 62
3
 10
289.670025631386350
 20
-155.438956952987440
 11
288.370025631386170
 21
-155.438956952987440
  0
LINE
  8
0
  6
DASHED
 62
3
 10
289.670025631386350
 20
-155.438956952987440
 11
289.670025631386350
 21
-166.438956952987440
  0
LINE
  8
0
  6
DASHED
 62
3
 10
289.670025631386350
 20
-166.438956952987440
 11
284.670025631386350
 21
-166.438956952987440
  0
LINE
  8
0
  6
DASHED
 62
3
 10
284.670025631386350
 20
-166.438956952987440
 11
284.670025631386350
 21
-103.438956952987430
  0
LINE
  8
0
  6
DASHED
 62
3
 10
289.670025631386350
 20
-103.438956952987430
 11
284.670025631386350
 21
-103.438956952987430
  0
LINE
  8
0
  6
DASHED
 62
3
 10
289.670025631386350
 20
-114.438956952987430
 11
289.670025631386350
 21
-103.438956952987430
  0
LINE
  8
0
  6
DASHED
 62
3
 10
289.670025631386350
 20
-114.438956952987430
 11
288.370025631386170
 21
-114.438956952987430
  0
ARC
  8
0
  6
DASHED
 62
3
 10
288.370025631386170
 20
-114.638956952987480
 40
0.200000000000045
 50
90.000000000000000
 51
180.000000000000000
  0
ARC
  8
0
  6
DASHED
 62
3
 10
261.231256497404730
 20
-109.938956952987430
 40
5.000000000000000
 50
90.000000000000000
 51
175.138594604201390
  0
LINE
  8
0
  6
DASHED
 62
3
 10
284.670025631386350
 20
-104.938956952987430
 11
261.231256497404730
 21
-104.938956952987430
  0
ARC
  8
0
  6
DASHED
 62
3
 10
261.231256497404730
 20
-159.938956952987440
 40
4.999999999999893
 50
184.861405395798610
 51
270.000000000000000
  0
LINE
  8
0
  6
DASHED
 62
3
 10
284.670025631386350
 20
-164.938956952987440
 11
261.231256497404730
 21
-164.938956952987440
  0
LINE
  8
0
  6
DASHED
 62
3
 10
255.180442478904070
 20
-132.438956952987440
 11
254.670025631386350
 21
-132.438956952987440
  0
LINE
  8
0
  6
DASHED
 62
3
 10
254.670025631386350
 20
-137.438956952987440
 11
254.670025631386350
 21
-132.438956952987440
  0
ARC
  8
0
  6
DASHED
 62
3
 10
555.170025631386350
 20
-134.938956952987470
 40
300.000000000000170
 50
175.138594604201960
 51
184.861405395798040
  0
LINE
  8
0
  6
DASHED
 62
3
 10
255.180442478904070
 20
-137.438956952987440
 11
254.670025631386350
 21
-137.438956952987440
  0
ARC
  8
0
  6
CONTINUOUS
 62
3
 10
328.170025631386350
 20
-139.672355137171450
 40
79.999999999999844
 50
91.910213171710154
 51
180.000000000000000
  0
ARC
  8
0
  6
CONTINUOUS
 62
3
 10
-353.899625953991970
 20
-68.438956952990281
 40
10.000000000000000
 50
180.000000000000000
 51
270.000000000000000
  0
LINE
  8
0
  6
CONTINUOUS
 62
3
 10
-332.899625953991970
 20
-78.438956952990281
 11
-353.899625953991970
 21
-78.438956952990281
  0
ARC
  8
0
  6
CONTINUOUS
 62
3
 10
-332.899625953991970
 20
-68.438956952990281
 40
10.000000000000000
 50
270.000000000000000
 51
0.000000000000000
  0
LINE
  8
0
  6
CONTINUOUS
 62
3
 10
-256.908953244591940
 20
-152.412850625292070
 11
-256.399628528043190
 21
-152.706910170850560
  0
LINE
  8
0
  6
CONTINUOUS
 62
3
 10
-256.399627841898510
 20
-156.171008345765700
 11
-257.184394193961680
 21
-156.624092018080770
  0
LINE
  8
0
  6
CONTINUOUS
 62
3
 10
-256.399629291851450
 20
-152.706909999761360
 11
-256.399628338177140
 21
-156.171007976445940
  0
ARC
  8
0
  6
CONTINUOUS
 62
3
 10
-259.399625953992140
 20
-154.438956952986930
 40
6.499999999999998
 50
286.872984417731230
 51
65.530959446318107
  0
ARC
  8
0
  6
CONTINUOUS
 62
3
 10
-259.399625953992140
 20
-154.438956952986930
 40
5.633955001830949
 50
290.522594742972100
 51
61.964500161419281
  0
TEXT
  8
0
  6
CONTINUOUS
 62
3
 10
-353.326507568359380
 20
137.286361694335940
 40
10.000000000000000
  1
S037
 50
0.000002504478167
 41
0.470000016689301
  7
STANDARD1
  0
TEXT
  8
0
  6
CONTINUOUS
 62
3
 10
-353.326507568359380
 20
125.986358642578120
 40
10.000000000000000
  1
三菱ギヤードモートル
 50
0.000002504478167
 41
0.625000000000000
  7
STANDARD1
  0
TEXT
  8
0
  6
CONTINUOUS
 62
3
 10
-353.326507568359380
 20
114.686363220214840
 40
10.000000000000000
  1
GM-SS
 50
0.000002504478167
 41
0.470000016689301
  7
STANDARD1
  0
TEXT
  8
0
  6
CONTINUOUS
 62
3
 10
-353.326507568359380
 20
103.386360168457030
 40
10.000000000000000
  1
0.1kW
 50
0.000002504478167
 41
0.470000016689301
  7
STANDARD1
  0
TEXT
  8
0
  6
CONTINUOUS
 62
3
 10
-353.326507568359380
 20
92.086364746093750
 40
10.000000000000000
  1
1/540-1/900
 50
0.000002504478167
 41
0.470000016689301
  7
STANDARD1
  0
TEXT
  8
0
  6
CONTINUOUS
 62
3
 10
-353.326507568359380
 20
80.786361694335938
 40
10.000000000000000
  1
SCALE1/1
 50
0.000002504478167
 41
0.470000016689301
  7
STANDARD1
  0
LINE
  8
0
  6
CONTINUOUS
 62
3
 10
6.127737077980555
 20
125.061043047013070
 11
6.127737077980555
 21
105.061043047013070
  0
ARC
  8
0
  6
CONTINUOUS
 62
3
 10
3.127737077980555
 20
105.061043047013070
 40
3.000000000000000
 50
270.000000000000000
 51
0.000000000000000
  0
ARC
  8
0
  6
CONTINUOUS
 62
3
 10
3.127737077980555
 20
125.061043047013070
 40
3.000000000000000
 50
0.000000000000000
 51
90.000000000000000
  0
LINE
  8
0
  6
DASHDOT
 62
4
 10
-218.361182496231780
 20
115.061043047013070
 11
221.208435290344140
 21
115.061043047013070
  0
LINE
  8
0
  6
CONTINUOUS
 62
3
 10
8.127737077981919
 20
132.061043047014440
 11
8.127737077984648
 21
174.561043047014440
  0
LINE
  8
0
  6
CONTINUOUS
 62
3
 10
8.127737077981919
 20
98.061043047011708
 11
8.127737077984648
 21
55.561043047011708
  0
LINE
  8
0
  6
CONTINUOUS
 62
3
 10
-1.872262922018990
 20
171.190071554038240
 11
-1.872262922018990
 21
128.061043047013070
  0
LINE
  8
0
  6
CONTINUOUS
 62
3
 10
-1.872262922018990
 20
145.491619970295910
 11
-15.872262922054006
 21
145.491619970295910
  0
ARC
  8
0
  6
CONTINUOUS
 62
3
 10
-15.872262922054006
 20
148.491619970295910
 40
3.000000000000000
 50
180.000000000000000
 51
270.000000000000000
  0
ARC
  8
0
  6
CONTINUOUS
 62
3
 10
-15.872262922054006
 20
131.061043047013070
 40
3.000000000000000
 50
180.000000000000000
 51
270.000000000000000
  0
LINE
  8
0
  6
CONTINUOUS
 62
3
 10
-33.872262922020809
 20
128.061043047013070
 11
3.127737077980555
 21
128.061043047013070
  0
ARC
  8
0
  6
CONTINUOUS
 62
3
 10
-4.872262922018990
 20
171.561043047013070
 40
3.000000000000000
 50
270.000000000000000
 51
0.000000000000000
  0
ARC
  8
0
  6
CONTINUOUS
 62
3
 10
-23.872262922054006
 20
161.061043047013070
 40
5.000000000000000
 50
0.000000000000000
 51
90.000000000000000
  0
LINE
  8
0
  6
CONTINUOUS
 62
3
 10
-33.872262922022628
 20
166.061043047013070
 11
-23.872262922054006
 21
166.061043047013070
  0
ARC
  8
0
  6
CONTINUOUS
 62
3
 10
-23.872262922054006
 20
163.561043047013070
 40
5.000000000000000
 50
0.000000000000000
 51
90.000000000000000
  0
LINE
  8
0
  6
CONTINUOUS
 62
3
 10
-33.872262922023083
 20
168.561043047013070
 11
-4.872262922018990
 21
168.561043047013070
  0
ARC
  8
0
  6
CONTINUOUS
 62
3
 10
0.127737077981010
 20
143.491619970295910
 40
2.000000000000000
 50
90.000000000000000
 51
180.000000000000000
  0
ARC
  8
0
  6
CONTINUOUS
 62
3
 10
0.127737077980555
 20
147.491619970295910
 40
2.000000000000000
 50
270.000000000000000
 51
0.000000000000000
  0
ARC
  8
0
  6
CONTINUOUS
 62
3
 10
1.127737077981010
 20
171.190071554038240
 40
2.999999999999925
 50
92.999999999996973
 51
180.000000000000000
  0
LINE
  8
0
  6
CONTINUOUS
 62
3
 10
8.127737077980555
 20
174.561043047013070
 11
0.970729209252340
 21
174.185960158301900
  0
LINE
  8
0
  6
CONTINUOUS
 62
3
 10
8.127737077980555
 20
172.361043047010980
 11
8.127737077980555
 21
174.561043047013070
  0
LINE
  8
0
  6
CONTINUOUS
 62
3
 10
2.127737077980555
 20
172.348667237885140
 11
2.127737077980555
 21
147.491619970295910
  0
ARC
  8
0
  6
CONTINUOUS
 62
3
 10
4.127737077980555
 20
172.348667237885140
 40
2.000000000000093
 50
92.999999999992411
 51
180.000000000000000
  0
LINE
  8
0
  6
CONTINUOUS
 62
3
 10
-18.872262922054006
 20
163.561043047013070
 11
-18.872262922054006
 21
131.061043047013070
  0
INSERT
  8
0
  2
SYM6
 10
2.127729216663965
 20
159.255216871172480
 41
-1.000000000000000
 50
180.000000000000000
  0
LINE
  8
0
  6
CONTINUOUS
 62
3
 10
-1.872262922018990
 20
58.932014539988131
 11
-1.872262922018990
 21
102.061043047013070
  0
LINE
  8
0
  6
CONTINUOUS
 62
3
 10
-1.872262922018990
 20
84.630466123730457
 11
-15.872262922054006
 21
84.630466123730457
  0
ARC
  8
0
  6
CONTINUOUS
 62
3
 10
-15.872262922054006
 20
81.630466123730457
 40
3.000000000000000
 50
90.000000000000000
 51
180.000000000000000
  0
CIRCLE
  8
0
  6
CONTINUOUS
 62
3
 10
-7.872262922019445
 20
115.061043047013070
 40
8.349999999999909
  0
ARC
  8
0
  6
CONTINUOUS
 62
3
 10
-15.872262922054006
 20
99.061043047013072
 40
3.000000000000000
 50
90.000000000000000
 51
180.000000000000000
  0
LINE
  8
0
  6
CONTINUOUS
 62
3
 10
-33.872262922020809
 20
102.061043047013070
 11
3.127737077980555
 21
102.061043047013070
  0
ARC
  8
0
  6
CONTINUOUS
 62
3
 10
-4.872262922018990
 20
58.561043047013072
 40
3.000000000000000
 50
0.000000000000000
 51
90.000000000000000
  0
ARC
  8
0
  6
CONTINUOUS
 62
3
 10
-23.872262922054006
 20
69.061043047013072
 40
5.000000000000000
 50
270.000000000000000
 51
0.000000000000000
  0
LINE
  8
0
  6
CONTINUOUS
 62
3
 10
-33.872262922022628
 20
64.061043047013072
 11
-23.872262922054006
 21
64.061043047013072
  0
ARC
  8
0
  6
CONTINUOUS
 62
3
 10
-23.872262922054006
 20
66.561043047013072
 40
5.000000000000000
 50
270.000000000000000
 51
0.000000000000000
  0
LINE
  8
0
  6
CONTINUOUS
 62
3
 10
-33.872262922023083
 20
61.561043047013072
 11
-4.872262922018990
 21
61.561043047013072
  0
ARC
  8
0
  6
CONTINUOUS
 62
3
 10
0.127737077981010
 20
86.630466123730457
 40
2.000000000000000
 50
180.000000000000000
 51
270.000000000000000
  0
ARC
  8
0
  6
CONTINUOUS
 62
3
 10
0.127737077980555
 20
82.630466123730457
 40
2.000000000000000
 50
0.000000000000000
 51
90.000000000000000
  0
ARC
  8
0
  6
CONTINUOUS
 62
3
 10
1.127737077981010
 20
58.932014539988131
 40
3.000000000000000
 50
180.000000000000000
 51
267.000000000003010
  0
LINE
  8
0
  6
CONTINUOUS
 62
3
 10
8.127737077980555
 20
55.561043047013072
 11
0.970729209252340
 21
55.936125935724249
  0
LINE
  8
0
  6
DASHDOT
 62
4
 10
-7.872262922019445
 20
105.360263688085290
 11
-7.872262922019445
 21
126.220532990791290
  0
LINE
  8
0
  6
CONTINUOUS
 62
3
 10
8.127737077980555
 20
57.761043047015391
 11
8.127737077980555
 21
55.561043047013072
  0
LINE
  8
0
  6
CONTINUOUS
 62
3
 10
2.127737077980555
 20
57.773418856141006
 11
2.127737077980555
 21
82.630466123730457
  0
ARC
  8
0
  6
CONTINUOUS
 62
3
 10
4.127737077980555
 20
57.773418856141006
 40
2.000000000000000
 50
180.000000000000000
 51
267.000000000007280
  0
LINE
  8
0
  6
CONTINUOUS
 62
3
 10
-18.872262922054006
 20
66.561043047013072
 11
-18.872262922054006
 21
99.061043047013072
  0
INSERT
  8
0
  2
SYM7
 10
2.127729216663965
 20
70.866869222853666
  0
LINE
  8
0
  6
DASHDOT
 62
4
 10
12.538623975987093
 20
27.561043047013072
 11
-5.282602385089604
 21
27.561043047013072
  0
LINE
  8
0
  6
DASHDOT
 62
4
 10
3.127737077979191
 20
18.240009677320586
 11
3.127737077979191
 21
37.546338235130634
  0
LINE
  8
0
  6
DASHDOT
 62
4
 10
148.672992011958510
 20
27.561043047013072
 11
127.525755522718780
 21
27.561043047013072
  0
LINE
  8
0
  6
DASHDOT
 62
4
 10
138.127737077979190
 20
17.249941546150467
 11
138.127737077979190
 21
37.793855267926801
  0
LINE
  8
0
  6
CONTINUOUS
 62
3
 10
42.627737077979191
 20
115.061043047013070
 11
42.627737077979191
 21
21.061043047014437
  0
ARC
  8
0
  6
CONTINUOUS
 62
3
 10
32.627737077979191
 20
23.061043047014437
 40
2.000000000000000
 50
180.000000000000000
 51
270.000000000000000
  0
ARC
  8
0
  6
CONTINUOUS
 62
3
 10
22.627737077985103
 20
97.561043047014437
 40
3.000000000000000
 50
180.000000000000000
 51
270.000000000000000
  0
LINE
  8
0
  6
CONTINUOUS
 62
3
 10
27.627737077979191
 20
94.561043047014437
 11
22.627737077985103
 21
94.561043047014437
  0
ARC
  8
0
  6
CONTINUOUS
 62
3
 10
27.627737077979191
 20
91.561043047014437
 40
3.000000000000000
 50
0.000000000000000
 51
90.000000000000000
  0
INSERT
  8
0
  2
SYM8
 10
30.627737077979191
 20
65.061043047014437
  0
LINE
  8
0
  6
CONTINUOUS
 62
3
 10
15.127737077984193
 20
115.061043047014430
 11
15.127737077984193
 21
94.561043047014437
  0
LINE
  8
0
  6
CONTINUOUS
 62
3
 10
19.627737077985103
 20
115.061043047013980
 11
19.627737077985103
 21
94.561043047014437
  0
LINE
  8
0
  6
CONTINUOUS
 62
3
 10
19.627737077985103
 20
94.561043047014437
 11
15.127737077984193
 21
94.561043047014437
  0
INSERT
  8
0
  2
SYM9
 10
15.127737077984648
 20
104.561043047014430
  0
LINE
  8
0
  6
CONTINUOUS
 62
3
 10
8.127737077981010
 20
119.061043047014430
 11
8.127737077981010
 21
111.061043047014430
  0
ARC
  8
0
  6
CONTINUOUS
 62
3
 10
28.627737077979191
 20
39.793093854583503
 40
2.000000000000164
 50
299.999999999997270
 51
0.000000000000000
  0
ARC
  8
0
  6
CONTINUOUS
 62
3
 10
30.627737077979191
 20
36.328992239445370
 40
2.000000000000164
 50
119.999999999997270
 51
180.000000000000000
  0
LINE
  8
0
  6
CONTINUOUS
 62
3
 10
43.127737077979191
 20
21.061043047014437
 11
30.627737077979191
 21
21.061043047014437
  0
ARC
  8
0
  6
CONTINUOUS
 62
3
 10
30.627737077979191
 20
23.061043047014437
 40
2.000000000000000
 50
180.000000000000000
 51
270.000000000000000
  0
LINE
  8
0
  6
CONTINUOUS
 62
3
 10
22.627738031653507
 20
36.694918893877229
 11
22.627738031653507
 21
25.426972650591097
  0
LINE
  8
0
  6
CONTINUOUS
 62
3
 10
29.052284505678699
 20
37.561043047014437
 11
23.127738031653507
 21
37.561043047014437
  0
LINE
  8
0
  6
CONTINUOUS
 62
3
 10
28.627737077979191
 20
24.561043047014437
 11
23.127738985327824
 21
24.561043047014437
  0
LINE
  8
0
  6
CONTINUOUS
 62
3
 10
23.127738669511245
 20
37.561043071082395
 11
22.627738643364182
 21
36.694918930948688
  0
LINE
  8
0
  6
CONTINUOUS
 62
3
 10
23.127739296138543
 20
24.561043069715424
 11
22.627738345945318
 21
25.426972640784015
  0
LINE
  8
0
  6
CONTINUOUS
 62
3
 10
23.127738031653507
 20
37.561043047014437
 11
23.127738031653507
 21
24.561043047014437
  0
LINE
  8
0
  6
CONTINUOUS
 62
3
 10
28.627737077979191
 20
36.328992239445370
 11
28.627737077979191
 21
23.061043047014437
  0
LINE
  8
0
  6
CONTINUOUS
 62
3
 10
30.627737077979191
 20
91.561043047014437
 11
30.627737077979191
 21
23.061043047014437
  0
ARC
  8
0
  6
CONTINUOUS
 62
3
 10
27.627737077979191
 20
51.534974313001612
 40
3.000000000000000
 50
0.000000000000000
 51
86.999999999994344
  0
LINE
  8
0
  6
CONTINUOUS
 62
3
 10
8.127737077981010
 20
55.561043047014437
 11
27.784744946708315
 21
54.530862917265267
  0
LINE
  8
0
  6
CONTINUOUS
 62
3
 10
42.627737077979191
 20
115.061043047013520
 11
42.627737077985103
 21
209.061043047012160
  0
ARC
  8
0
  6
CONTINUOUS
 62
3
 10
32.627737077985103
 20
207.061043047013070
 40
2.000000000000000
 50
90.000000000000000
 51
180.000000000000000
  0
ARC
  8
0
  6
CONTINUOUS
 62
3
 10
22.627737077986012
 20
132.561043047013530
 40
3.000000000000000
 50
90.000000000000000
 51
179.999999999991330
  0
LINE
  8
0
  6
CONTINUOUS
 62
3
 10
27.627737077980100
 20
135.561043047013530
 11
22.627737077986012
 21
135.561043047013530
  0
ARC
  8
0
  6
CONTINUOUS
 62
3
 10
27.627737077980555
 20
138.561043047013530
 40
3.000000000000000
 50
270.000000000000000
 51
359.999999999991300
  0
INSERT
  8
0
  2
SYM10
 10
30.627737077982374
 20
165.061043047013070
 41
-1.000000000000000
 50
179.999999999996310
  0
LINE
  8
0
  6
CONTINUOUS
 62
3
 10
15.127737077984193
 20
115.061043047013980
 11
15.127737077985103
 21
135.561043047013980
  0
LINE
  8
0
  6
CONTINUOUS
 62
3
 10
19.627737077985103
 20
115.061043047014430
 11
19.627737077986012
 21
135.561043047013980
  0
LINE
  8
0
  6
CONTINUOUS
 62
3
 10
19.627737077986012
 20
135.561043047013980
 11
15.127737077985103
 21
135.561043047013980
  0
INSERT
  8
0
  2
SYM11
 10
15.127737077985103
 20
125.561043047013980
 41
-1.000000000000000
 50
179.999999999996310
  0
ARC
  8
0
  6
CONTINUOUS
 62
3
 10
28.627737077983738
 20
190.328992239444010
 40
2.000000000000000
 50
0.000000000000000
 51
60.000000000002721
  0
ARC
  8
0
  6
CONTINUOUS
 62
3
 10
30.627737077984193
 20
193.793093854582140
 40
2.000000000000000
 50
180.000000000000000
 51
239.999999999991450
  0
LINE
  8
0
  6
CONTINUOUS
 62
3
 10
43.127737077979191
 20
209.061043047012050
 11
30.627737077985103
 21
209.061043047013070
  0
ARC
  8
0
  6
CONTINUOUS
 62
3
 10
30.627737077985103
 20
207.061043047013070
 40
2.000000000000000
 50
90.000000000000000
 51
180.000000000000000
  0
LINE
  8
0
  6
CONTINUOUS
 62
3
 10
22.627738031658509
 20
193.427167200151190
 11
22.627738031658964
 21
204.695113443437320
  0
LINE
  8
0
  6
CONTINUOUS
 62
3
 10
29.052284505683474
 20
192.561043047013190
 11
23.127738031658509
 21
192.561043047013530
  0
LINE
  8
0
  6
CONTINUOUS
 62
3
 10
28.627737077984875
 20
205.561043047013190
 11
23.127738985333281
 21
205.561043047013530
  0
LINE
  8
0
  6
CONTINUOUS
 62
3
 10
23.127738669516248
 20
192.561043022945570
 11
22.627738643369185
 21
193.427167163079730
  0
LINE
  8
0
  6
CONTINUOUS
 62
3
 10
23.127739296144000
 20
205.561043024312540
 11
22.627738345950775
 21
204.695113453244400
  0
LINE
  8
0
  6
CONTINUOUS
 62
3
 10
23.127738031658509
 20
192.561043047013530
 11
23.127738031658964
 21
205.561043047013530
  0
LINE
  8
0
  6
CONTINUOUS
 62
3
 10
28.627737077983966
 20
193.793093854582370
 11
28.627737077985103
 21
207.061043047013070
  0
LINE
  8
0
  6
CONTINUOUS
 62
3
 10
30.627737077980555
 20
138.561043047013530
 11
30.627737077985103
 21
207.061043047013070
  0
ARC
  8
0
  6
CONTINUOUS
 62
3
 10
27.627737077983284
 20
178.587111781026350
 40
2.999999999999925
 50
272.999999999996990
 51
359.999999999991300
  0
LINE
  8
0
  6
CONTINUOUS
 62
3
 10
8.127737077984648
 20
174.561043047014440
 11
27.784744946711953
 21
175.591223176762700
  0
ARC
  8
0
  6
CONTINUOUS
 62
3
 10
202.727737078001840
 20
99.461043047012708
 40
0.400000000000091
 50
270.000000000000000
 51
0.000000000000000
  0
LINE
  8
0
  6
CONTINUOUS
 62
3
 10
203.127737078001930
 20
115.061043047013070
 11
203.127737078001930
 21
130.661043047012980
  0
LINE
  8
0
  6
CONTINUOUS
 62
3
 10
153.127737078001930
 20
98.261043047012890
 11
152.927737078002110
 21
98.061043047012618
  0
ARC
  8
0
  6
CONTINUOUS
 62
3
 10
153.927737078002110
 20
98.411043047012527
 40
0.800000000000182
 50
90.000000000000000
 51
176.296803365719710
  0
LINE
  8
0
  6
CONTINUOUS
 62
3
 10
153.127737078001930
 20
98.261043047012890
 11
153.127737078001930
 21
115.061043047012610
  0
LINE
  8
0
  6
CONTINUOUS
 62
3
 10
155.127737078001930
 20
99.211043047012708
 11
153.927737078002110
 21
99.211043047012708
  0
LINE
  8
0
  6
CONTINUOUS
 62
3
 10
202.727737078001840
 20
99.061043047012618
 11
155.687544699137330
 21
99.061043047012618
  0
LINE
  8
0
  6
CONTINUOUS
 62
3
 10
151.127737077979650
 20
98.061043047012163
 11
152.927737078002110
 21
98.061043047012618
  0
LINE
  8
0
  6
CONTINUOUS
 62
3
 10
155.127737078001930
 20
99.211043047012708
 11
155.687544699137330
 21
99.061043047012618
  0
LINE
  8
0
  6
CONTINUOUS
 62
3
 10
153.127737078001930
 20
131.861043047012800
 11
152.927737078002110
 21
132.061043047012620
  0
ARC
  8
0
  6
CONTINUOUS
 62
3
 10
153.927737078002110
 20
131.711043047012710
 40
0.800000000000237
 50
183.703196634280290
 51
270.000000000000000
  0
LINE
  8
0
  6
CONTINUOUS
 62
3
 10
153.127737078001930
 20
131.861043047012800
 11
153.127737078001930
 21
115.061043047012610
  0
LINE
  8
0
  6
CONTINUOUS
 62
3
 10
151.127737077979650
 20
132.061043047013070
 11
152.927737078002110
 21
132.061043047012620
  0
LINE
  8
0
  6
CONTINUOUS
 62
3
 10
155.127737078001930
 20
130.911043047012530
 11
153.927737078002110
 21
130.911043047012530
  0
LINE
  8
0
  6
CONTINUOUS
 62
3
 10
155.127737078001930
 20
130.911043047012530
 11
155.687544699137330
 21
131.061043047012620
  0
LINE
  8
0
  6
CONTINUOUS
 62
3
 10
158.127737078001930
 20
99.061043047013072
 11
158.127737078001930
 21
96.061043047013072
  0
LINE
  8
0
  6
CONTINUOUS
 62
3
 10
202.727737078001840
 20
131.061043047012620
 11
155.687544699137330
 21
131.061043047012620
  0
LINE
  8
0
  6
CONTINUOUS
 62
3
 10
203.127737078001930
 20
96.061043047013072
 11
158.127737078001930
 21
96.061043047013072
  0
ARC
  8
0
  6
CONTINUOUS
 62
3
 10
202.727737078001840
 20
130.661043047012530
 40
0.400000000000091
 50
0.000000000000000
 51
90.000000000000000
  0
LINE
  8
0
  6
CONTINUOUS
 62
3
 10
203.127737078001930
 20
115.061043047013070
 11
203.127737078001930
 21
96.061043047013072
  0
LINE
  8
0
  6
CONTINUOUS
 62
3
 10
48.127737077979191
 20
13.263171359406215
 11
146.214999110164850
 21
14.975290886809262
  0
ARC
  8
0
  6
CONTINUOUS
 62
3
 10
146.127737077979190
 20
180.797219790627200
 40
3.000000000000000
 50
0.000000000000000
 51
39.469308363515758
  0
ARC
  8
0
  6
CONTINUOUS
 62
3
 10
144.727579050528450
 20
182.442795815987890
 40
3.000000000000300
 50
41.317082812093204
 51
88.999999999989555
  0
ARC
  8
0
  6
CONTINUOUS
 62
3
 10
118.201960355967680
 20
200.839583775195710
 40
2.999999999999899
 50
4.937727294942317
 51
69.196592175621532
  0
ARC
  8
0
  6
CONTINUOUS
 62
3
 10
94.406068627368995
 20
138.207678672118390
 40
70.000000000000043
 50
39.469308363516802
 51
41.317082812097503
  0
ARC
  8
0
  6
CONTINUOUS
 62
3
 10
94.406068627368995
 20
138.207678672118390
 40
70.000000000000156
 50
69.196592175610675
 51
88.999999999999716
  0
CIRCLE
  8
0
  6
CONTINUOUS
 62
3
 10
3.127737077979191
 20
202.561043047013070
 40
6.000000000000000
  0
ARC
  8
0
  6
CONTINUOUS
 62
3
 10
150.127737077980100
 20
149.561043047013070
 40
1.000000000000000
 50
180.000000000000000
 51
270.000000000000000
  0
ARC
  8
0
  6
CONTINUOUS
 62
3
 10
138.127737077979190
 20
202.561043047013070
 40
16.999999999999638
 50
184.937727294950460
 51
268.999999999999770
  0
ARC
  8
0
  6
CONTINUOUS
 62
3
 10
138.127737077979190
 20
27.561043047013072
 40
16.999999999999773
 50
91.000000000000256
 51
175.062272705051070
  0
ARC
  8
0
  6
CONTINUOUS
 62
3
 10
150.127737077979190
 20
80.561043047013072
 40
1.000000000000000
 50
90.000000000000000
 51
180.000000000000000
  0
CIRCLE
  8
0
  6
CONTINUOUS
 62
3
 10
138.127737077979190
 20
27.561043047013072
 40
6.000000000000000
  0
CIRCLE
  8
0
  6
CONTINUOUS
 62
3
 10
3.127737077979191
 20
27.561043047013072
 40
6.000000000000000
  0
ARC
  8
0
  6
CONTINUOUS
 62
3
 10
94.406068627368995
 20
91.914407421907299
 40
70.000000000000014
 50
271.000000000000280
 51
290.803407824389690
  0
ARC
  8
0
  6
CONTINUOUS
 62
3
 10
94.406068627368995
 20
91.914407421907299
 40
70.000000000000327
 50
318.682917187902550
 51
320.530691636482910
  0
ARC
  8
0
  6
CONTINUOUS
 62
3
 10
118.201960355967680
 20
29.282502318830439
 40
3.000000000000189
 50
290.803407824383500
 51
355.062272705049050
  0
ARC
  8
0
  6
CONTINUOUS
 62
3
 10
144.727579050528450
 20
47.679290278037797
 40
3.000000000000049
 50
271.000000000010400
 51
318.682917187906810
  0
ARC
  8
0
  6
CONTINUOUS
 62
3
 10
146.127737077979190
 20
49.324866303398039
 40
3.000000000000058
 50
320.530691636484220
 51
0.000000000000000
  0
CIRCLE
  8
0
  6
CONTINUOUS
 62
3
 10
138.127737077979190
 20
202.561043047013070
 40
6.000000000000000
  0
LINE
  8
0
  6
DASHDOT
 62
4
 10
3.127737077979191
 20
211.882076416705560
 11
3.127737077979191
 21
192.575747858895510
  0
LINE
  8
0
  6
DASHDOT
 62
4
 10
12.538623975987093
 20
202.561043047013070
 11
-5.282602385089604
 21
202.561043047013070
  0
LINE
  8
0
  6
CONTINUOUS
 62
3
 10
43.127737077979191
 20
115.061043047013070
 11
43.127737077979191
 21
209.061043047012050
  0
LINE
  8
0
  6
CONTINUOUS
 62
3
 10
43.127737077979191
 20
209.113408241797630
 11
95.627737077979191
 21
208.197017333065790
  0
LINE
  8
0
  6
CONTINUOUS
 62
3
 10
137.831046168545300
 20
185.563632229354200
 11
144.779936269840850
 21
185.442338901457110
  0
LINE
  8
0
  6
CONTINUOUS
 62
3
 10
149.127737077979190
 20
115.061043047013070
 11
149.127737077979190
 21
180.797219790627200
  0
LINE
  8
0
  6
CONTINUOUS
 62
3
 10
151.127737077980560
 20
115.061043047013070
 11
151.127737077978280
 21
210.147556731434410
  0
LINE
  8
0
  6
CONTINUOUS
 62
3
 10
151.127737077979190
 20
40.061043047012618
 11
151.127737077978280
 21
20.061046018608749
  0
LINE
  8
0
  6
CONTINUOUS
 62
3
 10
151.127737077980100
 20
115.061043047013070
 11
151.127737077978280
 21
19.974529362591284
  0
LINE
  8
0
  6
CONTINUOUS
 62
3
 10
149.127737077979190
 20
115.061043047013070
 11
149.127737077979190
 21
49.324866303398039
  0
LINE
  8
0
  6
CONTINUOUS
 62
3
 10
137.831046168545300
 20
44.558453864671492
 11
144.779936269840850
 21
44.679747192568584
  0
LINE
  8
0
  6
CONTINUOUS
 62
3
 10
43.127737077979191
 20
21.008677852228516
 11
95.627737077979191
 21
21.925068760959903
  0
LINE
  8
0
  6
CONTINUOUS
 62
3
 10
43.127737077979191
 20
115.061043047013070
 11
43.127737077979191
 21
21.008677852228516
  0
LINE
  8
0
  6
DASHDOT
 62
4
 10
148.672992011958510
 20
202.561043047013070
 11
127.525755522718780
 21
202.561043047013070
  0
LINE
  8
0
  6
DASHDOT
 62
4
 10
138.127737077979190
 20
212.872144547875680
 11
138.127737077979190
 21
192.328230826099340
  0
LINE
  8
0
  6
CONTINUOUS
 62
3
 10
-9.872262922020809
 20
189.760575957324140
 11
-9.872262922020809
 21
210.213630405249890
  0
LINE
  8
0
  6
CONTINUOUS
 62
3
 10
48.127737077979191
 20
216.858914734619020
 11
146.214999110164850
 21
215.146795207216430
  0
LINE
  8
0
  6
CONTINUOUS
 62
3
 10
-9.872262922020809
 20
40.361510136701099
 11
-9.872262922020809
 21
19.908455688775348
  0
ARC
  8
0
  6
CONTINUOUS
 62
3
 10
9.763059095541166
 20
50.404540507935280
 40
5.000000000000068
 50
271.000000000001760
 51
273.824403028645630
  0
LINE
  8
0
  6
CONTINUOUS
 62
3
 10
10.096553451489626
 20
45.415674753623307
 11
30.627737077979191
 21
46.788137793835972
  0
ARC
  8
0
  6
CONTINUOUS
 62
3
 10
-4.872262922020809
 20
40.147556731434406
 40
4.999999999999606
 50
90.999999999996646
 51
180.000000000000000
  0
LINE
  8
0
  6
CONTINUOUS
 62
3
 10
-4.959524954206927
 20
45.146795207215973
 11
9.850321127727739
 21
45.405302032153259
  0
LINE
  8
0
  6
CONTINUOUS
 62
3
 10
10.096553451489626
 20
184.706411340402840
 11
30.627737077983284
 21
183.333948300189260
  0
ARC
  8
0
  6
CONTINUOUS
 62
3
 10
9.763059095541166
 20
179.717545586090410
 40
5.000000000000079
 50
86.175596971354679
 51
88.999999999998138
  0
ARC
  8
0
  6
CONTINUOUS
 62
3
 10
-4.872262922020809
 20
189.974529362591280
 40
5.000000000000000
 50
180.000000000000000
 51
269.000000000003410
  0
LINE
  8
0
  6
CONTINUOUS
 62
3
 10
-4.959524954206927
 20
184.975290886809260
 11
9.850321127727739
 21
184.716784061871980
  0
LINE
  8
0
  6
CONTINUOUS
 62
4
 10
-4.864190765309331
 20
41.286906279391360
 11
23.891923644265489
 21
41.788846123494068
  0
LINE
  8
0
  6
CONTINUOUS
 62
4
 10
-4.864190765309331
 20
188.835179814634330
 11
23.891923644265489
 21
188.333239970532080
  0
ARC
  8
0
  6
CONTINUOUS
 62
3
 10
-4.872262922020809
 20
19.908455688775348
 40
5.000000000000000
 50
180.000000000000000
 51
268.224526106217870
  0
LINE
  8
0
  6
CONTINUOUS
 62
3
 10
-5.027177452668866
 20
14.910856116161767
 11
48.127737077979191
 21
13.263171359406215
  0
ARC
  8
0
  6
CONTINUOUS
 62
3
 10
146.127737077978280
 20
19.974529362591284
 40
5.000000000000068
 50
271.000000000001760
 51
359.999999999994830
  0
LINE
  8
0
  6
CONTINUOUS
 62
3
 10
150.127737077979190
 20
81.561043047013072
 11
151.127737077979190
 21
81.561043047013072
  0
LINE
  8
0
  6
CONTINUOUS
 62
3
 10
150.127737077980100
 20
148.561043047013070
 11
151.127737077980100
 21
148.561043047013070
  0
LINE
  8
0
  6
CONTINUOUS
 62
3
 10
-5.027177452668866
 20
215.211229977864380
 11
48.127737077979191
 21
216.858914734619020
  0
ARC
  8
0
  6
CONTINUOUS
 62
3
 10
-4.872262922020809
 20
210.213630405249890
 40
5.000000000000244
 50
91.775473893781850
 51
180.000000000000000
  0
ARC
  8
0
  6
CONTINUOUS
 62
3
 10
146.127737077978280
 20
210.147556731434410
 40
5.000000000000000
 50
0.000000000000000
 51
88.999999999998238
  0
LINE
  8
0
  6
CONTINUOUS
 62
3
 10
-413.399625953992430
 20
-240.160701235429200
 11
-413.399625953992430
 21
-254.438956952986930
  0
LINE
  8
0
  6
CONTINUOUS
 62
3
 10
-440.899625953992430
 20
-236.438956952986930
 11
-417.237285721891340
 21
-236.438956952986930
  0
ARC
  8
0
  6
CONTINUOUS
 62
3
 10
-275.399625953991920
 20
-254.438956952986930
 40
2.000000000000000
 50
0.000000000000000
 51
90.000000000000000
  0
ARC
  8
0
  6
CONTINUOUS
 62
3
 10
-245.899625953991920
 20
-238.938956952986930
 40
2.500000000000000
 50
0.000000000000000
 51
90.000000000000000
  0
ARC
  8
0
  6
CONTINUOUS
 62
3
 10
-411.399625953991970
 20
-254.438956952986930
 40
2.000000000000000
 50
90.000000000000000
 51
180.000000000000000
  0
ARC
  8
0
  6
CONTINUOUS
 62
3
 10
-440.899625953991970
 20
-238.938956952986930
 40
2.500000000000000
 50
90.000000000000000
 51
180.000000000000000
  0
ARC
  8
0
  6
CONTINUOUS
 62
3
 10
-246.399625953991920
 20
-233.438956952986930
 40
3.000000000000000
 50
180.000000000000000
 51
270.000000000000000
  0
ARC
  8
0
  6
CONTINUOUS
 62
3
 10
-440.399625953992430
 20
-233.438956952986930
 40
3.000000000000000
 50
270.000000000000000
 51
0.000000000000000
  0
LINE
  8
0
  6
CONTINUOUS
 62
3
 10
-273.399625953991920
 20
-240.160701235429200
 11
-273.399625953991920
 21
-254.438956952986930
  0
LINE
  8
0
  6
CONTINUOUS
 62
3
 10
-243.399625953991920
 20
-238.938956952986930
 11
-243.399625953991920
 21
-254.438956952986930
  0
LINE
  8
0
  6
DASHDOT
 62
4
 10
-255.899625953991920
 20
-232.278678098616870
 11
-255.899625953991920
 21
-258.855748792586610
  0
LINE
  8
0
  6
CONTINUOUS
 62
3
 10
-243.399625953991920
 20
-254.438956952986930
 11
-273.399625953991920
 21
-254.438956952986930
  0
LINE
  8
0
  6
CONTINUOUS
 62
3
 10
-245.899625953991920
 20
-236.438956952986930
 11
-269.561966186093000
 21
-236.438956952986930
  0
LINE
  8
0
  6
CONTINUOUS
 62
3
 10
-443.399625953991970
 20
-238.938956952986930
 11
-443.399625953991970
 21
-254.438956952986930
  0
LINE
  8
0
  6
DASHDOT
 62
4
 10
-430.899625953991970
 20
-232.278678098616870
 11
-430.899625953991970
 21
-258.855748792586610
  0
LINE
  8
0
  6
CONTINUOUS
 62
3
 10
-443.399625953991970
 20
-254.438956952986930
 11
-413.399625953991970
 21
-254.438956952986930
  0
LINE
  8
0
  6
CONTINUOUS
 62
3
 10
-275.399625953991920
 20
-252.438956952986930
 11
-343.399625953991970
 21
-252.438956952986930
  0
LINE
  8
0
  6
CONTINUOUS
 62
3
 10
-411.399625953991970
 20
-252.438956952986930
 11
-343.399625953991970
 21
-252.438956952986930
  0
LINE
  8
0
  6
CONTINUOUS
 62
3
 10
-249.399625953991920
 20
-139.672355137168550
 11
-249.399625953991920
 21
-233.438956952986930
  0
LINE
  8
0
  6
CONTINUOUS
 62
3
 10
-437.399625953992430
 20
-139.672355137168550
 11
-437.399625953992430
 21
-233.438956952986930
  0
ARC
  8
0
  6
CONTINUOUS
 62
3
 10
-268.388728013435130
 20
-245.283963739353790
 40
7.999999999999961
 50
131.146783655315550
 51
180.000000000000000
  0
ARC
  8
0
  6
CONTINUOUS
 62
3
 10
-418.410523894549210
 20
-245.283963739353790
 40
8.000000000000000
 50
0.000000000000000
 51
48.853216344683936
  0
ARC
  8
0
  6
CONTINUOUS
 62
3
 10
-434.399625953992430
 20
-219.438956952986930
 40
2.999999999999921
 50
33.398488467987271
 51
180.000000000000000
  0
ARC
  8
0
  6
CONTINUOUS
 62
3
 10
-412.410523894549210
 20
-250.568803809534070
 40
1.999999999999997
 50
284.638791943256820
 51
0.000000000000000
  0
LINE
  8
0
  6
CONTINUOUS
 62
3
 10
-410.410523894549210
 20
-245.283963739353790
 11
-410.410523894549210
 21
-250.568803809534070
  0
ARC
  8
0
  6
CONTINUOUS
 62
3
 10
-415.899625953992430
 20
-240.160701235429200
 40
2.500000000000000
 50
0.000000000000000
 51
48.071495567384105
  0
ARC
  8
0
  6
CONTINUOUS
 62
3
 10
-343.399625953992430
 20
-159.438956952986930
 40
106.000000000000010
 50
228.671341353656600
 51
228.853216344683940
  0
ARC
  8
0
  6
CONTINUOUS
 62
3
 10
-417.237285721891340
 20
-238.938956952986930
 40
2.499999999999925
 50
47.114815451044294
 51
90.000000000000000
  0
ARC
  8
0
  6
CONTINUOUS
 62
3
 10
-343.399625953992430
 20
-159.438956952986930
 40
106.000000000000070
 50
213.398488467987250
 51
228.671341353656600
  0
ARC
  8
0
  6
CONTINUOUS
 62
3
 10
-343.399625953991970
 20
-159.438956952986930
 40
106.000000000000050
 50
311.328658646343400
 51
326.601511532012810
  0
ARC
  8
0
  6
CONTINUOUS
 62
3
 10
-270.899625953991920
 20
-240.160701235429200
 40
2.499999999999884
 50
131.928504432615880
 51
180.000000000000000
  0
ARC
  8
0
  6
CONTINUOUS
 62
3
 10
-269.561966186093000
 20
-238.938956952986930
 40
2.500000000000000
 50
90.000000000000000
 51
132.885184548955720
  0
ARC
  8
0
  6
CONTINUOUS
 62
3
 10
-274.388728013435130
 20
-250.568803809534070
 40
2.000000000000000
 50
180.000000000000000
 51
255.361208056743180
  0
LINE
  8
0
  6
CONTINUOUS
 62
3
 10
-276.388728013435130
 20
-245.283963739353790
 11
-276.388728013435130
 21
-250.568803809534070
  0
ARC
  8
0
  6
CONTINUOUS
 62
3
 10
-252.399625953991920
 20
-219.438956952986930
 40
3.000000000000000
 50
0.000000000000000
 51
146.601511532010900
  0
ARC
  8
0
  6
CONTINUOUS
 62
3
 10
-343.399625953991970
 20
-159.438956952986930
 40
106.000000000000070
 50
311.146783655316090
 51
311.328658646343400
  0
LINE
  8
0
  6
DASHDOT
 62
4
 10
-239.497661579236590
 20
-134.938956952986930
 11
-449.361197831920440
 21
-134.938956952986930
  0
INSERT
  8
0
  2
SYM12
 10
-299.205452129832510
 20
-203.633130777145880
 41
-1.000000000000000
  0
INSERT
  8
0
  2
SYM13
 10
-387.593799778151380
 20
-203.633130777145880
  0
ARC
  8
0
  6
CONTINUOUS
 62
3
 10
-329.180249234603480
 20
-197.979523960505280
 40
27.000000000000025
 50
232.492357161294510
 51
319.848912341650300
  0
LINE
  8
0
  6
CONTINUOUS
 62
3
 10
-356.731917579965060
 20
-217.938956952986930
 11
-359.047076797749700
 21
-217.938956952986930
  0
LINE
  8
0
  6
CONTINUOUS
 62
3
 10
-330.067334328018430
 20
-217.938956952986930
 11
-327.752175110234250
 21
-217.938956952986930
  0
ARC
  8
0
  6
CONTINUOUS
 62
3
 10
-343.399625953991970
 20
-159.438956952986930
 40
59.999999999999929
 50
257.161431859016260
 51
282.838568140984190
  0
ARC
  8
0
  6
CONTINUOUS
 62
3
 10
-358.899625953991970
 20
-213.938956952986930
 40
3.000000000000000
 50
180.000000000000000
 51
270.000000000000000
  0
ARC
  8
0
  6
CONTINUOUS
 62
3
 10
-327.899625953991970
 20
-213.938956952986930
 40
3.000000000000000
 50
270.000000000000000
 51
0.000000000000000
  0
ARC
  8
0
  6
CONTINUOUS
 62
3
 10
-368.899625953991970
 20
-188.938956952986930
 40
3.000000000000000
 50
0.000000000000000
 51
12.243652867706290
  0
ARC
  8
0
  6
CONTINUOUS
 62
3
 10
-358.899625953991970
 20
-189.266016225068600
 40
3.000000000000101
 50
165.521193763419260
 51
180.000000000000000
  0
ARC
  8
0
  6
CONTINUOUS
 62
3
 10
-317.899625953991920
 20
-188.938956952986930
 40
3.000000000000767
 50
167.756347132293480
 51
180.000000000000000
  0
ARC
  8
0
  6
CONTINUOUS
 62
3
 10
-327.899625953991970
 20
-189.266016225068370
 40
3.000000000000000
 50
0.000000000000000
 51
14.478806236573211
  0
ARC
  8
0
  6
CONTINUOUS
 62
3
 10
-370.899625953991970
 20
-214.168405150461010
 40
5.000000000000000
 50
0.000000000000000
 51
63.321765549190360
  0
ARC
  8
0
  6
CONTINUOUS
 62
3
 10
-343.399625953991970
 20
-159.438956952986930
 40
56.249999999999901
 50
220.772804694043030
 51
243.321765549190420
  0
ARC
  8
0
  6
CONTINUOUS
 62
3
 10
-389.784564242190070
 20
-199.438956952986930
 40
4.999999999999657
 50
40.772804694045341
 51
90.000000000000000
  0
LINE
  8
0
  6
CONTINUOUS
 62
3
 10
-394.559223087478360
 20
-194.438956952986930
 11
-389.784564242190070
 21
-194.438956952986930
  0
ARC
  8
0
  6
CONTINUOUS
 62
3
 10
-394.559223087478360
 20
-189.438956952986930
 40
5.000000000000097
 50
189.999999999999660
 51
270.000000000000000
  0
ARC
  8
0
  6
CONTINUOUS
 62
3
 10
-315.899625953991920
 20
-214.168405150461010
 40
4.999999999999867
 50
116.678234450809640
 51
180.000000000000000
  0
ARC
  8
0
  6
CONTINUOUS
 62
3
 10
-343.399625953991970
 20
-159.438956952986930
 40
56.250000000000156
 50
296.678234450809610
 51
319.227195305957310
  0
ARC
  8
0
  6
CONTINUOUS
 62
3
 10
-297.014687665793130
 20
-199.438956952986930
 40
5.000000000000000
 50
90.000000000000000
 51
139.227195305956340
  0
LINE
  8
0
  6
CONTINUOUS
 62
3
 10
-292.240028820505070
 20
-194.438956952986930
 11
-297.014687665793130
 21
-194.438956952986930
  0
ARC
  8
0
  6
CONTINUOUS
 62
3
 10
-292.240028820505070
 20
-189.438956952986930
 40
5.000000000000000
 50
270.000000000000000
 51
350.000000000000340
  0
LINE
  8
0
  6
CONTINUOUS
 62
3
 10
-365.899625953991970
 20
-188.938956952986930
 11
-365.899625953991970
 21
-216.938956952986930
  0
LINE
  8
0
  6
CONTINUOUS
 62
3
 10
-320.899625953991970
 20
-188.938956952986930
 11
-320.899625953991970
 21
-216.938956952986930
  0
LINE
  8
0
  6
CONTINUOUS
 62
3
 10
-361.899625953991970
 20
-189.266016225068600
 11
-361.899625953991970
 21
-213.938956952986930
  0
LINE
  8
0
  6
CONTINUOUS
 62
3
 10
-324.899625953991970
 20
-189.266016225068370
 11
-324.899625953991970
 21
-213.938956952986930
  0
ARC
  8
0
  6
CONTINUOUS
 62
3
 10
-401.899625953991970
 20
-140.438956952986930
 40
0.999999999999173
 50
117.683035930750540
 51
180.000000000000000
  0
LINE
  8
0
  6
CONTINUOUS
 62
3
 10
-402.899625953991970
 20
-159.438956952986930
 11
-402.899625953991970
 21
-140.438956952986930
  0
ARC
  8
0
  6
CONTINUOUS
 62
3
 10
-402.243992495893740
 20
-180.409086817949860
 40
1.000000000000125
 50
10.000000000003892
 51
80.085216630857445
  0
ARC
  8
0
  6
CONTINUOUS
 62
3
 10
-401.899625953991970
 20
-178.438956952986930
 40
1.000000000000000
 50
180.000000000000000
 51
260.085216630857420
  0
LINE
  8
0
  6
CONTINUOUS
 62
3
 10
-401.259184742881420
 20
-180.235438640282840
 11
-398.483284891553240
 21
-195.978349000200300
  0
LINE
  8
0
  6
CONTINUOUS
 62
3
 10
-402.899625953991970
 20
-159.438956952986930
 11
-402.899625953991970
 21
-178.438956952986930
  0
ARC
  8
0
  6
CONTINUOUS
 62
3
 10
-383.711168596370270
 20
-193.373626335196380
 40
14.999999999999844
 50
189.999999999999970
 51
225.000000000000000
  0
LINE
  8
0
  6
CONTINUOUS
 62
3
 10
-394.317770314168460
 20
-203.980228052994560
 11
-388.107719958784170
 21
-210.190278408378390
  0
ARC
  8
0
  6
CONTINUOUS
 62
3
 10
-377.501118240985990
 20
-199.583676690580210
 40
14.999999999999961
 50
225.000000000000000
 51
259.695153531233190
  0
LINE
  8
0
  6
CONTINUOUS
 62
3
 10
-380.184399813985920
 20
-214.341725342078690
 11
-361.730358370749170
 21
-217.697005604485410
  0
ARC
  8
0
  6
CONTINUOUS
 62
3
 10
-359.047076797749700
 20
-202.938956952986930
 40
14.999999999999826
 50
259.695153531234890
 51
270.000000000000000
  0
ARC
  8
0
  6
CONTINUOUS
 62
3
 10
-284.555259412089920
 20
-180.409086817949860
 40
1.000000000000028
 50
99.914783369142555
 51
169.999999999993860
  0
ARC
  8
0
  6
CONTINUOUS
 62
3
 10
-284.899625953991690
 20
-178.438956952986930
 40
1.000000000000028
 50
279.914783369142580
 51
0.000000000000000
  0
LINE
  8
0
  6
CONTINUOUS
 62
3
 10
-285.540067165102020
 20
-180.235438640282840
 11
-288.315967016430420
 21
-195.978349000200300
  0
LINE
  8
0
  6
CONTINUOUS
 62
3
 10
-283.899625953991690
 20
-164.938956952986930
 11
-283.899625953991690
 21
-178.438956952986930
  0
ARC
  8
0
  6
CONTINUOUS
 62
3
 10
-303.088083311613390
 20
-193.373626335196380
 40
14.999999999999961
 50
315.000000000000000
 51
350.000000000000000
  0
LINE
  8
0
  6
CONTINUOUS
 62
3
 10
-292.481481593815200
 20
-203.980228052994560
 11
-298.691531949199260
 21
-210.190278408378390
  0
ARC
  8
0
  6
CONTINUOUS
 62
3
 10
-309.298133666997440
 20
-199.583676690580210
 40
14.999999999999867
 50
280.304846468765960
 51
315.000000000000000
  0
LINE
  8
0
  6
CONTINUOUS
 62
3
 10
-306.614852093997740
 20
-214.341725342078690
 11
-325.068893537233860
 21
-217.697005604485410
  0
ARC
  8
0
  6
CONTINUOUS
 62
3
 10
-327.752175110234250
 20
-202.938956952986930
 40
15.000000000000000
 50
270.000000000000000
 51
280.304846468768520
  0
INSERT
  8
0
  2
SYM14
 10
-393.399625953991970
 20
-78.438956952986928
 41
-1.000000000000000
  0
INSERT
  8
0
  2
SYM15
 10
-427.399625953991520
 20
-154.438956952986930
 41
-1.000000000000000
  0
INSERT
  8
0
  2
SYM16
 10
-395.399625953991970
 20
-242.438956952986930
 41
-1.000000000000000
  0
INSERT
  8
0
  2
SYM17
 10
-291.399625953991920
 20
-242.438956952986930
  0
INSERT
  8
0
  2
SYM18
 10
-293.399625953991920
 20
-78.438956952986928
  0
LINE
  8
0
  6
CONTINUOUS
 62
3
 10
-322.899625953991970
 20
-34.438956952986928
 11
-322.899625953991970
 21
-77.438956952986928
  0
LINE
  8
0
  6
DASHDOT
 62
4
 10
-320.231712955110370
 20
-44.438956952986928
 11
-367.254226856645120
 21
-44.438956952986928
  0
CIRCLE
  8
0
  6
CONTINUOUS
 62
3
 10
-343.399625953991970
 20
-44.438956952986928
 40
10.000000000000000
  0
LINE
  8
0
  6
CONTINUOUS
 62
3
 10
-363.899625953991970
 20
-34.438956952986928
 11
-363.899625953991970
 21
-77.438956952986928
  0
ARC
  8
0
  6
CONTINUOUS
 62
3
 10
-353.899625953991970
 20
-34.438956952986928
 40
10.000000000000000
 50
90.000000000000000
 51
180.000000000000000
  0
LINE
  8
0
  6
CONTINUOUS
 62
3
 10
-332.899625953991970
 20
-24.438956952986928
 11
-353.899625953991970
 21
-24.438956952986928
  0
ARC
  8
0
  6
CONTINUOUS
 62
3
 10
-332.899625953991970
 20
-34.438956952986928
 40
10.000000000000000
 50
0.000000000000000
 51
90.000000000000000
  0
LINE
  8
0
  6
DASHDOT
 62
4
 10
-362.621287812499080
 20
-129.438956952986930
 11
-323.857764640624960
 21
-129.438956952986930
  0
LINE
  8
0
  6
DASHDOT
 62
4
 10
-343.399625953991970
 20
-18.290355888228305
 11
-343.399625953991970
 21
-260.622545512949730
  0
ARC
  8
0
  6
CONTINUOUS
 62
3
 10
-357.399625953991970
 20
-139.672355137168320
 40
79.999999999999957
 50
94.660419384114789
 51
180.000000000000000
  0
ARC
  8
0
  6
CONTINUOUS
 62
3
 10
-329.399625953991970
 20
-139.672355137168320
 40
80.000000000000284
 50
0.000000000000000
 51
85.339580615885211
  0
ARC
  8
0
  6
CONTINUOUS
 62
3
 10
-405.899625953991970
 20
-169.319801106387100
 40
3.000000000000168
 50
322.203357465589990
 51
0.000000000000000
  0
ARC
  8
0
  6
CONTINUOUS
 62
3
 10
-379.249885482387300
 20
-217.560820644414660
 40
2.999999999999921
 50
79.695153531234737
 51
95.631713938407302
  0
ARC
  8
0
  6
CONTINUOUS
 62
3
 10
-382.193898154351020
 20
-187.705623619653350
 40
26.999999999999797
 50
142.203357465588340
 51
275.631713938414800
  0
ARC
  8
0
  6
CONTINUOUS
 62
3
 10
-306.249846270264410
 20
-217.323686384684610
 40
2.999999999999886
 50
99.749988138587184
 51
139.848912341650620
  0
ARC
  8
0
  6
CONTINUOUS
 62
3
 10
-343.399625953991970
 20
-159.438956952986930
 40
101.000000000000220
 50
309.950233661982510
 51
337.984630459603180
  0
ARC
  8
0
  6
CONTINUOUS
 62
3
 10
-343.399625953991970
 20
-159.438956952986930
 40
101.000000000000310
 50
202.015369540396850
 51
230.049766338017580
  0
ARC
  8
0
  6
CONTINUOUS
 62
3
 10
-432.399625953991970
 20
-195.425065383880110
 40
5.000000000000000
 50
180.000000000000000
 51
202.015369540396080
  0
ARC
  8
0
  6
CONTINUOUS
 62
3
 10
-254.399625953991690
 20
-195.425065383880110
 40
4.999999999999877
 50
337.984630459601990
 51
0.000000000000000
  0
ARC
  8
0
  6
CONTINUOUS
 62
3
 10
-413.390923024202720
 20
-242.998626258397050
 40
8.000000000000107
 50
1.781769897912753
 51
50.049766338017157
  0
ARC
  8
0
  6
CONTINUOUS
 62
3
 10
-395.399625953991970
 20
-242.438956952986930
 40
9.999999999999675
 50
181.781769897911860
 51
270.000000000000000
  0
ARC
  8
0
  6
CONTINUOUS
 62
3
 10
-291.399625953991920
 20
-242.438956952986930
 40
10.000000000000000
 50
270.000000000000000
 51
358.218230102088230
  0
ARC
  8
0
  6
CONTINUOUS
 62
3
 10
-273.408328883780940
 20
-242.998626258397050
 40
7.999999999999901
 50
129.950233661982820
 51
178.218230102087230
  0
ARC
  8
0
  6
CONTINUOUS
 62
3
 10
-252.901628726860450
 20
-124.438956952986920
 40
2.000000000000000
 50
270.000000000000000
 51
11.262247925640054
  0
ARC
  8
0
  6
CONTINUOUS
 62
3
 10
-251.399625953991690
 20
-144.438956952986930
 40
2.000000000000000
 50
0.000000000000000
 51
90.000000000000000
  0
ARC
  8
0
  6
CONTINUOUS
 62
3
 10
-433.897623181123210
 20
-124.438956952986920
 40
2.000000000000145
 50
168.737752074361230
 51
270.000000000000000
  0
ARC
  8
0
  6
CONTINUOUS
 62
3
 10
-428.399625953991970
 20
-134.438956952986930
 40
8.000000000000000
 50
270.000000000000000
 51
90.000000000000000
  0
ARC
  8
0
  6
CONTINUOUS
 62
3
 10
-435.399625953991970
 20
-144.438956952986930
 40
2.000000000000000
 50
90.000000000000000
 51
180.000000000000000
  0
LINE
  8
0
  6
CONTINUOUS
 62
3
 10
-251.399625953991690
 20
-142.438956952986930
 11
-256.493390607008910
 21
-142.438956952986930
  0
LINE
  8
0
  6
CONTINUOUS
 62
3
 10
-252.901628726860450
 20
-126.438956952986920
 11
-256.520066797319880
 21
-126.438956952986920
  0
LINE
  8
0
  6
CONTINUOUS
 62
3
 10
-433.897623181123210
 20
-126.438956952986920
 11
-428.399625953991970
 21
-126.438956952986920
  0
LINE
  8
0
  6
CONTINUOUS
 62
3
 10
-435.399625953991970
 20
-142.438956952986930
 11
-428.399625953991970
 21
-142.438956952986930
  0
ARC
  8
0
  6
CONTINUOUS
 62
3
 10
-327.899625953991970
 20
-77.438956952986928
 40
4.999999999999671
 50
308.158322091870670
 51
0.000000000000000
  0
ARC
  8
0
  6
CONTINUOUS
 62
3
 10
-358.899625953991970
 20
-77.438956952986928
 40
5.000000000000000
 50
180.000000000000000
 51
231.841677908129360
  0
INSERT
  8
0
  2
SYM19
 10
-353.899625953991520
 20
-68.438956952988292
 41
-1.000000000000000
  0
INSERT
  8
0
  2
SYM20
 10
-332.899625953991970
 20
-68.438956952988292
  0
ARC
  8
0
  6
CONTINUOUS
 62
3
 10
-339.899625953991970
 20
-117.282513369977320
 40
1.000000000000000
 50
180.000000000000000
 51
258.787728582356010
  0
LINE
  8
0
  6
CONTINUOUS
 62
3
 10
-340.899625953991970
 20
-114.232677712138410
 11
-340.899625953991970
 21
-117.282513369977320
  0
ARC
  8
0
  6
CONTINUOUS
 62
3
 10
-339.899625953991970
 20
-114.232677712138410
 40
1.000000000000268
 50
80.405931773124522
 51
180.000000000000000
  0
ARC
  8
0
  6
CONTINUOUS
 62
3
 10
-339.899625953991970
 20
-108.671105879859620
 40
1.000000000000000
 50
179.999999999986980
 51
262.410457608144040
  0
LINE
  8
0
  6
CONTINUOUS
 62
3
 10
-340.899625953991970
 20
-105.647319921233240
 11
-340.899625953991970
 21
-108.671105879859390
  0
ARC
  8
0
  6
CONTINUOUS
 62
3
 10
-339.899625953991970
 20
-105.647319921233240
 40
1.000000000000077
 50
83.186145655820312
 51
180.000000000000000
  0
ARC
  8
0
  6
CONTINUOUS
 62
3
 10
-339.899625953991970
 20
-100.114396654255180
 40
1.000000000000000
 50
180.000000000000000
 51
264.260829522738280
  0
LINE
  8
0
  6
CONTINUOUS
 62
3
 10
-340.899625953991970
 20
-97.100484467961905
 11
-340.899625953991970
 21
-100.114396654255180
  0
ARC
  8
0
  6
CONTINUOUS
 62
3
 10
-339.899625953991970
 20
-97.100484467961905
 40
1.000000000000042
 50
84.715267045464302
 51
180.000000000000000
  0
ARC
  8
0
  6
CONTINUOUS
 62
3
 10
-319.782324166060050
 20
-117.262049523864560
 40
1.000000000000082
 50
299.999999999997270
 51
36.813854344186687
  0
LINE
  8
0
  6
CONTINUOUS
 62
3
 10
-319.282324166060050
 20
-118.128074927649090
 11
-321.900999621837630
 21
-119.639967906962280
  0
ARC
  8
0
  6
CONTINUOUS
 62
3
 10
-322.400999621837630
 20
-118.773942503177750
 40
0.999999999999834
 50
217.589542391867670
 51
299.999999999997270
  0
ARC
  8
0
  6
CONTINUOUS
 62
3
 10
-312.380547541561730
 20
-112.988631797228890
 40
0.999999999999885
 50
300.000000000003810
 51
35.284732954544943
  0
LINE
  8
0
  6
CONTINUOUS
 62
3
 10
-311.880547541561730
 20
-113.854657201013190
 11
-314.490672059667470
 21
-115.361613294159950
  0
ARC
  8
0
  6
CONTINUOUS
 62
3
 10
-314.990672059667470
 20
-114.495587890375640
 40
0.999999999999940
 50
215.739170477274090
 51
300.000000000003810
  0
ARC
  8
0
  6
CONTINUOUS
 62
3
 10
-337.501096683602780
 20
-127.491987606577360
 40
0.999999999999961
 50
231.618272422159780
 51
299.999999999997270
  0
LINE
  8
0
  6
CONTINUOUS
 62
3
 10
-334.257321108578480
 20
-126.773893443525820
 11
-337.001096683602780
 21
-128.358013010361900
  0
ARC
  8
0
  6
CONTINUOUS
 62
3
 10
-329.858697270619130
 20
-123.079646248236710
 40
0.999999999999673
 50
221.212271417651210
 51
300.000000000003810
  0
LINE
  8
0
  6
CONTINUOUS
 62
3
 10
-326.717462113562990
 20
-122.420753823101450
 11
-329.358697270619130
 21
-123.945671652021010
  0
ARC
  8
0
  6
CONTINUOUS
 62
3
 10
-327.217462113562990
 20
-121.554728419316910
 40
1.000000000000082
 50
299.999999999997270
 51
39.594068226850403
  0
ARC
  8
0
  6
CONTINUOUS
 62
3
 10
-339.899625953991970
 20
-126.107196086659080
 40
1.000000000000000
 50
180.000000000000000
 51
248.381727577838030
  0
ARC
  8
0
  6
CONTINUOUS
 62
3
 10
-343.399625953991970
 20
-134.938956952986930
 40
8.500000000000128
 50
51.618272422158320
 51
68.381727577842284
  0
ARC
  8
0
  6
CONTINUOUS
 62
3
 10
-334.757321108578480
 20
-125.907868039741510
 40
0.999999999999885
 50
300.000000000003810
 51
46.260204708328693
  0
LINE
  8
0
  6
CONTINUOUS
 62
3
 10
-340.899625953991970
 20
-122.938956952986920
 11
-340.899625953991970
 21
-126.107196086659080
  0
ARC
  8
0
  6
CONTINUOUS
 62
3
 10
-339.899625953991970
 20
-122.938956952986920
 40
0.999999999999964
 50
73.739795291702634
 51
180.000000000000000
  0
ARC
  8
0
  6
CONTINUOUS
 62
3
 10
-343.399625953991970
 20
-134.938956952986930
 40
13.499999999999927
 50
46.260204708312145
 51
73.739795291689134
  0
ARC
  8
0
  6
CONTINUOUS
 62
3
 10
-343.399625953991970
 20
-134.938956952986930
 40
17.000000000000114
 50
41.212271417649760
 51
78.787728582349985
  0
ARC
  8
0
  6
CONTINUOUS
 62
3
 10
-343.399625953991970
 20
-134.938956952986930
 40
22.000000000000025
 50
39.594068226860820
 51
80.405931773138789
  0
ARC
  8
0
  6
CONTINUOUS
 62
3
 10
-343.399625953991970
 20
-134.938956952986930
 40
30.500000000000007
 50
36.813854344181003
 51
83.186145655818962
  0
ARC
  8
0
  6
CONTINUOUS
 62
3
 10
-343.399625953991970
 20
-134.938956952986930
 40
25.499999999999890
 50
37.589542391857961
 51
82.410457608141883
  0
ARC
  8
0
  6
CONTINUOUS
 62
3
 10
-343.399625953991970
 20
-134.938956952986930
 40
33.999999999999879
 50
35.739170477266583
 51
84.260829522733076
  0
ARC
  8
0
  6
CONTINUOUS
 62
3
 10
-343.399625953991970
 20
-134.938956952986930
 40
38.999999999999908
 50
35.284732954534746
 51
84.715267045465410
  0
ARC
  8
0
  6
CONTINUOUS
 62
3
 10
-316.282324166060050
 20
-123.324227350355610
 40
0.999999999999730
 50
23.186145655819850
 51
119.999999999997270
  0
LINE
  8
0
  6
CONTINUOUS
 62
3
 10
-316.782324166060050
 20
-122.458201946571080
 11
-319.400999621837570
 21
-123.970094925884260
  0
ARC
  8
0
  6
CONTINUOUS
 62
3
 10
-318.900999621837570
 20
-124.836120329668800
 40
1.000000000000082
 50
119.999999999997270
 51
202.410457608146060
  0
ARC
  8
0
  6
CONTINUOUS
 62
3
 10
-308.880547541561730
 20
-119.050809623719940
 40
1.000000000000248
 50
24.715267045455477
 51
119.999999999997270
  0
LINE
  8
0
  6
CONTINUOUS
 62
3
 10
-309.380547541561730
 20
-118.184784219935400
 11
-311.990672059667470
 21
-119.691740313082160
  0
ARC
  8
0
  6
CONTINUOUS
 62
3
 10
-311.490672059667470
 20
-120.557765716866470
 40
0.999999999999885
 50
120.000000000003780
 51
204.260829522745610
  0
ARC
  8
0
  6
CONTINUOUS
 62
3
 10
-334.001096683602780
 20
-133.554165433068650
 40
1.000000000000082
 50
119.999999999997270
 51
188.381727577832660
  0
LINE
  8
0
  6
CONTINUOUS
 62
3
 10
-331.757321108578480
 20
-131.104020462448030
 11
-334.501096683602780
 21
-132.688140029284110
  0
ARC
  8
0
  6
CONTINUOUS
 62
3
 10
-326.358697270619130
 20
-129.141824074727770
 40
1.000000000000082
 50
119.999999999997270
 51
198.787728582347000
  0
LINE
  8
0
  6
CONTINUOUS
 62
3
 10
-324.217462113562530
 20
-126.750880842023880
 11
-326.858697270619130
 21
-128.275798670943230
  0
ARC
  8
0
  6
CONTINUOUS
 62
3
 10
-323.717462113562530
 20
-127.616906245808190
 40
1.000000000000094
 50
20.405931773138686
 51
120.000000000003780
  0
ARC
  8
0
  6
CONTINUOUS
 62
3
 10
-334.001096683602780
 20
-136.323748472905440
 40
1.000000000000059
 50
171.618272422154460
 51
239.999999999996220
  0
ARC
  8
0
  6
CONTINUOUS
 62
3
 10
-343.399625953991970
 20
-134.938956952986930
 40
8.499999999999972
 50
351.618272422157820
 51
8.381727577842204
  0
ARC
  8
0
  6
CONTINUOUS
 62
3
 10
-331.257321108578480
 20
-131.970045866232340
 40
0.999999999999879
 50
13.739795291686027
 51
120.000000000003780
  0
LINE
  8
0
  6
CONTINUOUS
 62
3
 10
-331.757321108578480
 20
-138.773893443525820
 11
-334.501096683602780
 21
-137.189773876689740
  0
ARC
  8
0
  6
CONTINUOUS
 62
3
 10
-331.257321108578480
 20
-137.907868039741520
 40
0.999999999999885
 50
239.999999999996220
 51
346.260204708314010
  0
ARC
  8
0
  6
CONTINUOUS
 62
3
 10
-343.399625953991970
 20
-134.938956952986930
 40
13.500000000000130
 50
346.260204708311850
 51
13.739795291688171
  0
ARC
  8
0
  6
CONTINUOUS
 62
3
 10
-326.358697270619130
 20
-140.736089831246090
 40
0.999999999999646
 50
161.212271417644620
 51
239.999999999996220
  0
LINE
  8
0
  6
CONTINUOUS
 62
3
 10
-324.217462113562530
 20
-143.127033063949970
 11
-326.858697270619130
 21
-141.602115235030400
  0
ARC
  8
0
  6
CONTINUOUS
 62
3
 10
-343.399625953991970
 20
-134.938956952986930
 40
17.000000000000146
 50
341.212271417650070
 51
18.787728582350418
  0
ARC
  8
0
  6
CONTINUOUS
 62
3
 10
-323.717462113562530
 20
-142.261007660165660
 40
0.999999999999885
 50
239.999999999996220
 51
339.594068226861340
  0
ARC
  8
0
  6
CONTINUOUS
 62
3
 10
-318.900999621837570
 20
-145.041793576305280
 40
0.999999999999701
 50
157.589542391853940
 51
240.000000000002730
  0
ARC
  8
0
  6
CONTINUOUS
 62
3
 10
-311.490672059667470
 20
-149.320148189107160
 40
0.999999999999769
 50
155.739170477266270
 51
240.000000000002730
  0
ARC
  8
0
  6
CONTINUOUS
 62
3
 10
-343.399625953991970
 20
-134.938956952986930
 40
22.000000000000206
 50
339.594068226860770
 51
20.405931773139226
  0
LINE
  8
0
  6
CONTINUOUS
 62
3
 10
-316.782324166060050
 20
-147.419711959402780
 11
-319.400999621837570
 21
-145.907818980089810
  0
ARC
  8
0
  6
CONTINUOUS
 62
3
 10
-316.282324166060050
 20
-146.553686555618240
 40
1.000000000000082
 50
240.000000000002730
 51
336.813854344180130
  0
ARC
  8
0
  6
CONTINUOUS
 62
3
 10
-343.399625953991970
 20
-134.938956952986930
 40
30.500000000000000
 50
336.813854344181210
 51
23.186145655818802
  0
ARC
  8
0
  6
CONTINUOUS
 62
3
 10
-343.399625953991970
 20
-134.938956952986930
 40
25.500000000000142
 50
337.589542391857550
 51
22.410457608141972
  0
ARC
  8
0
  6
CONTINUOUS
 62
3
 10
-343.399625953991970
 20
-134.938956952986930
 40
34.000000000000057
 50
335.739170477266840
 51
24.260829522733179
  0
ARC
  8
0
  6
CONTINUOUS
 62
3
 10
-343.399625953991970
 20
-134.938956952986930
 40
39.000000000000270
 50
335.284732954534830
 51
24.715267045465158
  0
LINE
  8
0
  6
CONTINUOUS
 62
3
 10
-309.380547541561730
 20
-151.693129686038220
 11
-311.990672059667470
 21
-150.186173592891690
  0
ARC
  8
0
  6
CONTINUOUS
 62
3
 10
-308.880547541561730
 20
-150.827104282253910
 40
0.999999999999885
 50
239.999999999996220
 51
335.284732954544490
  0
CIRCLE
  8
0
  6
CONTINUOUS
 62
3
 10
-343.399625953991970
 20
-134.938956952986930
 40
5.000000000000000
  0
ARC
  8
0
  6
CONTINUOUS
 62
3
 10
-312.380547541561730
 20
-156.889282108745190
 40
0.999999999999776
 50
324.715267045465680
 51
60.000000000002721
  0
ARC
  8
0
  6
CONTINUOUS
 62
3
 10
-314.990672059667470
 20
-155.382326015598210
 40
0.999999999999885
 50
59.999999999996206
 51
144.260829522736490
  0
ARC
  8
0
  6
CONTINUOUS
 62
3
 10
-339.899625953991970
 20
-169.763517251718670
 40
0.999999999999973
 50
95.739170477261709
 51
180.000000000000000
  0
ARC
  8
0
  6
CONTINUOUS
 62
3
 10
-339.899625953991970
 20
-172.777429438011950
 40
1.000000000000000
 50
180.000000000000000
 51
275.284732954535740
  0
ARC
  8
0
  6
CONTINUOUS
 62
3
 10
-339.899625953991970
 20
-161.206808026114230
 40
0.999999999999975
 50
97.589542391854238
 51
180.000000000000000
  0
ARC
  8
0
  6
CONTINUOUS
 62
3
 10
-319.782324166060050
 20
-152.615864382109070
 40
0.999999999999911
 50
323.186145655802870
 51
59.999999999996206
  0
ARC
  8
0
  6
CONTINUOUS
 62
3
 10
-322.400999621837170
 20
-151.103971402796110
 40
1.000000000000082
 50
60.000000000002721
 51
142.410457608148220
  0
ARC
  8
0
  6
CONTINUOUS
 62
3
 10
-339.899625953991970
 20
-164.230593984740610
 40
1.000000000000000
 50
180.000000000000000
 51
276.813854344179670
  0
ARC
  8
0
  6
CONTINUOUS
 62
3
 10
-339.899625953991970
 20
-155.645236193835440
 40
1.000000000000000
 50
180.000000000000000
 51
279.594068226875490
  0
ARC
  8
0
  6
CONTINUOUS
 62
3
 10
-339.899625953991970
 20
-152.595400535996530
 40
0.999999999999982
 50
101.212271417644000
 51
180.000000000000000
  0
ARC
  8
0
  6
CONTINUOUS
 62
3
 10
-327.217462113562990
 20
-148.323185486656710
 40
1.000000000000318
 50
320.405931773139570
 51
59.999999999996206
  0
ARC
  8
0
  6
CONTINUOUS
 62
3
 10
-329.858697270619130
 20
-146.798267657737370
 40
1.000000000000082
 50
60.000000000002721
 51
138.787728582338990
  0
ARC
  8
0
  6
CONTINUOUS
 62
3
 10
-334.757321108578480
 20
-143.970045866232340
 40
0.999999999999858
 50
313.739795291671330
 51
59.999999999996206
  0
ARC
  8
0
  6
CONTINUOUS
 62
3
 10
-339.899625953991970
 20
-146.938956952986930
 40
1.000000000000000
 50
180.000000000000000
 51
286.260204708297350
  0
ARC
  8
0
  6
CONTINUOUS
 62
3
 10
-339.899625953991970
 20
-143.770717819314770
 40
1.000000000000090
 50
111.618272422161970
 51
180.000000000000000
  0
ARC
  8
0
  6
CONTINUOUS
 62
3
 10
-337.501096683602780
 20
-142.385926299396260
 40
0.999999999999885
 50
59.999999999996206
 51
128.381727577840220
  0
ARC
  8
0
  6
CONTINUOUS
 62
3
 10
-343.399625953991970
 20
-134.938956952986930
 40
38.999999999999986
 50
275.284732954534600
 51
324.715267045465230
  0
ARC
  8
0
  6
CONTINUOUS
 62
3
 10
-343.399625953991970
 20
-134.938956952986930
 40
30.500000000000135
 50
276.813854344181040
 51
323.186145655818960
  0
ARC
  8
0
  6
CONTINUOUS
 62
3
 10
-343.399625953991970
 20
-134.938956952986930
 40
34.000000000000071
 50
275.739170477266950
 51
324.260829522733100
  0
ARC
  8
0
  6
CONTINUOUS
 62
3
 10
-343.399625953991970
 20
-134.938956952986930
 40
25.499999999999932
 50
277.589542391858170
 51
322.410457608142050
  0
ARC
  8
0
  6
CONTINUOUS
 62
3
 10
-343.399625953991970
 20
-134.938956952986930
 40
22.000000000000131
 50
279.594068226861170
 51
320.405931773139170
  0
ARC
  8
0
  6
CONTINUOUS
 62
3
 10
-343.399625953991970
 20
-134.938956952986930
 40
17.000000000000046
 50
281.212271417650020
 51
318.787728582350210
  0
ARC
  8
0
  6
CONTINUOUS
 62
3
 10
-343.399625953991970
 20
-134.938956952986930
 40
13.499999999999963
 50
286.260204708310820
 51
313.739795291687870
  0
ARC
  8
0
  6
CONTINUOUS
 62
3
 10
-343.399625953991970
 20
-134.938956952986930
 40
8.499999999999904
 50
291.618272422157700
 51
308.381727577842640
  0
LINE
  8
0
  6
CONTINUOUS
 62
3
 10
-319.282324166060050
 20
-151.749838978324760
 11
-321.900999621837170
 21
-150.237945999011570
  0
LINE
  8
0
  6
CONTINUOUS
 62
3
 10
-340.899625953991970
 20
-172.777429438011950
 11
-340.899625953991970
 21
-169.763517251718670
  0
LINE
  8
0
  6
CONTINUOUS
 62
3
 10
-311.880547541561730
 20
-156.023256704960660
 11
-314.490672059667470
 21
-154.516300611813900
  0
LINE
  8
0
  6
CONTINUOUS
 62
3
 10
-326.717462113562990
 20
-147.457160082872410
 11
-329.358697270619130
 21
-145.932242253952840
  0
LINE
  8
0
  6
CONTINUOUS
 62
3
 10
-334.257321108578480
 20
-143.104020462448030
 11
-337.001096683602780
 21
-141.519900895611950
  0
LINE
  8
0
  6
CONTINUOUS
 62
3
 10
-340.899625953991970
 20
-146.938956952986930
 11
-340.899625953991970
 21
-143.770717819314770
  0
LINE
  8
0
  6
CONTINUOUS
 62
3
 10
-340.899625953991970
 20
-155.645236193835440
 11
-340.899625953991970
 21
-152.595400535996530
  0
LINE
  8
0
  6
CONTINUOUS
 62
3
 10
-340.899625953991970
 20
-164.230593984740610
 11
-340.899625953991970
 21
-161.206808026114230
  0
ARC
  8
0
  6
CONTINUOUS
 62
3
 10
-343.399625953991970
 20
-134.938956952986930
 40
39.000000000000220
 50
155.284732954534800
 51
204.715267045465200
  0
ARC
  8
0
  6
CONTINUOUS
 62
3
 10
-343.399625953991970
 20
-134.938956952986930
 40
34.000000000000007
 50
155.739170477266780
 51
204.260829522733220
  0
ARC
  8
0
  6
CONTINUOUS
 62
3
 10
-343.399625953991970
 20
-134.938956952986930
 40
25.500000000000000
 50
157.589542391857980
 51
202.410457608142480
  0
ARC
  8
0
  6
CONTINUOUS
 62
3
 10
-343.399625953991970
 20
-134.938956952986930
 40
30.499999999999947
 50
156.813854344181150
 51
203.186145655818850
  0
ARC
  8
0
  6
CONTINUOUS
 62
3
 10
-343.399625953991970
 20
-134.938956952986930
 40
22.000000000000206
 50
159.594068226860770
 51
200.405931773139230
  0
ARC
  8
0
  6
CONTINUOUS
 62
3
 10
-343.399625953991970
 20
-134.938956952986930
 40
16.999999999999716
 50
161.212271417649560
 51
198.787728582350440
  0
ARC
  8
0
  6
CONTINUOUS
 62
3
 10
-343.399625953991970
 20
-134.938956952986930
 40
13.499999999999687
 50
166.260204708311360
 51
193.739795291688180
  0
ARC
  8
0
  6
CONTINUOUS
 62
3
 10
-355.541930799405460
 20
-131.970045866232340
 40
0.999999999999885
 50
59.999999999996206
 51
166.260204708307780
  0
ARC
  8
0
  6
CONTINUOUS
 62
3
 10
-363.081789794421410
 20
-127.616906245808190
 40
0.999999999999885
 50
59.999999999996206
 51
159.594068226861310
  0
LINE
  8
0
  6
CONTINUOUS
 62
3
 10
-362.581789794421410
 20
-126.750880842023880
 11
-359.940554637364810
 21
-128.275798670943230
  0
ARC
  8
0
  6
CONTINUOUS
 62
3
 10
-360.440554637364810
 20
-129.141824074727770
 40
1.000000000000076
 50
341.212271417652970
 51
60.000000000002721
  0
LINE
  8
0
  6
CONTINUOUS
 62
3
 10
-355.041930799405460
 20
-131.104020462448030
 11
-352.298155224381160
 21
-132.688140029284110
  0
ARC
  8
0
  6
CONTINUOUS
 62
3
 10
-352.798155224381160
 20
-133.554165433068650
 40
1.000000000000026
 50
351.618272422167310
 51
60.000000000002721
  0
ARC
  8
0
  6
CONTINUOUS
 62
3
 10
-375.308579848316410
 20
-120.557765716866470
 40
0.999999999999863
 50
335.739170477254390
 51
59.999999999996206
  0
LINE
  8
0
  6
CONTINUOUS
 62
3
 10
-377.418704366422160
 20
-118.184784219935400
 11
-374.808579848316410
 21
-119.691740313082160
  0
ARC
  8
0
  6
CONTINUOUS
 62
3
 10
-377.918704366422160
 20
-119.050809623719940
 40
1.000000000000082
 50
60.000000000002721
 51
155.284732954544520
  0
ARC
  8
0
  6
CONTINUOUS
 62
3
 10
-367.898252286146320
 20
-124.836120329668800
 40
0.999999999999701
 50
337.589542391853970
 51
60.000000000002721
  0
LINE
  8
0
  6
CONTINUOUS
 62
3
 10
-370.016927741923840
 20
-122.458201946571080
 11
-367.398252286146320
 21
-123.970094925884260
  0
ARC
  8
0
  6
CONTINUOUS
 62
3
 10
-370.516927741923840
 20
-123.324227350355610
 40
1.000000000000082
 50
60.000000000002721
 51
156.813854344180160
  0
ARC
  8
0
  6
CONTINUOUS
 62
3
 10
-343.399625953991970
 20
-134.938956952986930
 40
38.999999999999986
 50
95.284732954534590
 51
144.715267045465200
  0
ARC
  8
0
  6
CONTINUOUS
 62
3
 10
-343.399625953991970
 20
-134.938956952986930
 40
34.000000000000071
 50
95.739170477266924
 51
144.260829522733360
  0
ARC
  8
0
  6
CONTINUOUS
 62
3
 10
-343.399625953991970
 20
-134.938956952986930
 40
25.500000000000160
 50
97.589542391858117
 51
142.410457608142050
  0
ARC
  8
0
  6
CONTINUOUS
 62
3
 10
-343.399625953991970
 20
-134.938956952986930
 40
30.500000000000135
 50
96.813854344181038
 51
143.186145655818930
  0
ARC
  8
0
  6
CONTINUOUS
 62
3
 10
-343.399625953991970
 20
-134.938956952986930
 40
22.000000000000131
 50
99.594068226861211
 51
140.405931773139200
  0
ARC
  8
0
  6
CONTINUOUS
 62
3
 10
-343.399625953991970
 20
-134.938956952986930
 40
17.000000000000046
 50
101.212271417650010
 51
138.787728582350240
  0
ARC
  8
0
  6
CONTINUOUS
 62
3
 10
-343.399625953991970
 20
-134.938956952986930
 40
13.499999999999963
 50
106.260204708310860
 51
133.739795291687870
  0
ARC
  8
0
  6
CONTINUOUS
 62
3
 10
-346.899625953991970
 20
-122.938956952986920
 40
1.000000000000000
 50
0.000000000000000
 51
106.260204708297360
  0
LINE
  8
0
  6
CONTINUOUS
 62
3
 10
-345.899625953991970
 20
-122.938956952986920
 11
-345.899625953991970
 21
-126.107196086659080
  0
ARC
  8
0
  6
CONTINUOUS
 62
3
 10
-352.041930799405460
 20
-125.907868039741510
 40
0.999999999999858
 50
133.739795291671300
 51
239.999999999996220
  0
ARC
  8
0
  6
CONTINUOUS
 62
3
 10
-343.399625953991970
 20
-134.938956952986930
 40
8.499999999999904
 50
111.618272422157710
 51
128.381727577841670
  0
ARC
  8
0
  6
CONTINUOUS
 62
3
 10
-346.899625953991970
 20
-126.107196086659080
 40
1.000000000000090
 50
291.618272422161970
 51
0.000000000000000
  0
ARC
  8
0
  6
CONTINUOUS
 62
3
 10
-359.581789794420960
 20
-121.554728419316910
 40
1.000000000000173
 50
140.405931773149600
 51
240.000000000002730
  0
LINE
  8
0
  6
CONTINUOUS
 62
3
 10
-360.081789794420960
 20
-122.420753823101450
 11
-357.440554637364810
 21
-123.945671652021010
  0
ARC
  8
0
  6
CONTINUOUS
 62
3
 10
-356.940554637364810
 20
-123.079646248236710
 40
0.999999999999885
 50
239.999999999996220
 51
318.787728582348790
  0
LINE
  8
0
  6
CONTINUOUS
 62
3
 10
-352.541930799405460
 20
-126.773893443525820
 11
-349.798155224381160
 21
-128.358013010361900
  0
ARC
  8
0
  6
CONTINUOUS
 62
3
 10
-349.298155224381160
 20
-127.491987606577360
 40
1.000000000000082
 50
240.000000000002730
 51
308.381727577840190
  0
ARC
  8
0
  6
CONTINUOUS
 62
3
 10
-371.808579848316410
 20
-114.495587890375640
 40
0.999999999999885
 50
239.999999999996220
 51
324.260829522725940
  0
LINE
  8
0
  6
CONTINUOUS
 62
3
 10
-374.918704366422160
 20
-113.854657201013190
 11
-372.308579848316410
 21
-115.361613294159950
  0
ARC
  8
0
  6
CONTINUOUS
 62
3
 10
-374.418704366422160
 20
-112.988631797228890
 40
0.999999999999908
 50
144.715267045455050
 51
239.999999999996220
  0
ARC
  8
0
  6
CONTINUOUS
 62
3
 10
-364.398252286146320
 20
-118.773942503177750
 40
1.000000000000082
 50
240.000000000002730
 51
322.410457608132330
  0
LINE
  8
0
  6
CONTINUOUS
 62
3
 10
-367.516927741923840
 20
-118.128074927649090
 11
-364.898252286146320
 21
-119.639967906962280
  0
ARC
  8
0
  6
CONTINUOUS
 62
3
 10
-367.016927741923840
 20
-117.262049523864560
 40
0.999999999999774
 50
143.186145655813330
 51
240.000000000002730
  0
ARC
  8
0
  6
CONTINUOUS
 62
3
 10
-346.899625953991970
 20
-97.100484467961905
 40
1.000000000000000
 50
0.000000000000000
 51
95.284732954535698
  0
LINE
  8
0
  6
CONTINUOUS
 62
3
 10
-345.899625953991970
 20
-97.100484467961905
 11
-345.899625953991970
 21
-100.114396654255180
  0
ARC
  8
0
  6
CONTINUOUS
 62
3
 10
-346.899625953991970
 20
-100.114396654255180
 40
0.999999999999973
 50
275.739170477261670
 51
0.000000000000000
  0
ARC
  8
0
  6
CONTINUOUS
 62
3
 10
-346.899625953991970
 20
-105.647319921233240
 40
1.000000000000000
 50
0.000000000000000
 51
96.813854344179688
  0
LINE
  8
0
  6
CONTINUOUS
 62
3
 10
-345.899625953991970
 20
-105.647319921233240
 11
-345.899625953991970
 21
-108.671105879859390
  0
ARC
  8
0
  6
CONTINUOUS
 62
3
 10
-346.899625953991970
 20
-108.671105879859620
 40
0.999999999999749
 50
277.589542391855960
 51
0.000000000013028
  0
ARC
  8
0
  6
CONTINUOUS
 62
3
 10
-346.899625953991970
 20
-114.232677712138410
 40
1.000000000000000
 50
0.000000000000000
 51
99.594068226875478
  0
LINE
  8
0
  6
CONTINUOUS
 62
3
 10
-345.899625953991970
 20
-114.232677712138410
 11
-345.899625953991970
 21
-117.282513369977320
  0
ARC
  8
0
  6
CONTINUOUS
 62
3
 10
-346.899625953991970
 20
-117.282513369977320
 40
0.999999999999982
 50
281.212271417643990
 51
0.000000000000000
  0
ARC
  8
0
  6
CONTINUOUS
 62
3
 10
-355.541930799405460
 20
-137.907868039741520
 40
0.999999999999879
 50
193.739795291686050
 51
300.000000000003810
  0
LINE
  8
0
  6
CONTINUOUS
 62
3
 10
-355.041930799405460
 20
-138.773893443525820
 11
-352.298155224381160
 21
-137.189773876689740
  0
ARC
  8
0
  6
CONTINUOUS
 62
3
 10
-343.399625953991970
 20
-134.938956952986930
 40
8.499999999999972
 50
171.618272422157790
 51
188.381727577842210
  0
ARC
  8
0
  6
CONTINUOUS
 62
3
 10
-352.798155224381160
 20
-136.323748472905440
 40
0.999999999999885
 50
300.000000000003810
 51
8.381727577845549
  0
LINE
  8
0
  6
CONTINUOUS
 62
3
 10
-345.899625953991970
 20
-164.230593984740610
 11
-345.899625953991970
 21
-161.206808026114230
  0
LINE
  8
0
  6
CONTINUOUS
 62
3
 10
-345.899625953991970
 20
-155.645236193835440
 11
-345.899625953991970
 21
-152.595400535996530
  0
LINE
  8
0
  6
CONTINUOUS
 62
3
 10
-345.899625953991970
 20
-146.938956952986930
 11
-345.899625953991970
 21
-143.770717819314770
  0
LINE
  8
0
  6
CONTINUOUS
 62
3
 10
-352.541930799405460
 20
-143.104020462448030
 11
-349.798155224381160
 21
-141.519900895611950
  0
LINE
  8
0
  6
CONTINUOUS
 62
3
 10
-360.081789794420960
 20
-147.457160082872410
 11
-357.440554637364810
 21
-145.932242253952840
  0
LINE
  8
0
  6
CONTINUOUS
 62
3
 10
-374.918704366422160
 20
-156.023256704960660
 11
-372.308579848316410
 21
-154.516300611813900
  0
LINE
  8
0
  6
CONTINUOUS
 62
3
 10
-367.516927741923840
 20
-151.749838978324760
 11
-364.898252286146770
 21
-150.237945999011570
  0
ARC
  8
0
  6
CONTINUOUS
 62
3
 10
-343.399625953991970
 20
-134.938956952986930
 40
8.499999999999948
 50
231.618272422157330
 51
248.381727577842330
  0
ARC
  8
0
  6
CONTINUOUS
 62
3
 10
-343.399625953991970
 20
-134.938956952986930
 40
13.499999999999927
 50
226.260204708312130
 51
253.739795291689150
  0
ARC
  8
0
  6
CONTINUOUS
 62
3
 10
-343.399625953991970
 20
-134.938956952986930
 40
16.999999999999773
 50
221.212271417650780
 51
258.787728582349980
  0
ARC
  8
0
  6
CONTINUOUS
 62
3
 10
-343.399625953991970
 20
-134.938956952986930
 40
22.000000000000025
 50
219.594068226860800
 51
260.405931773138780
  0
ARC
  8
0
  6
CONTINUOUS
 62
3
 10
-343.399625953991970
 20
-134.938956952986930
 40
25.499999999999890
 50
217.589542391857950
 51
262.410457608141830
  0
ARC
  8
0
  6
CONTINUOUS
 62
3
 10
-343.399625953991970
 20
-134.938956952986930
 40
33.999999999999964
 50
215.739170477266950
 51
264.260829522733050
  0
ARC
  8
0
  6
CONTINUOUS
 62
3
 10
-343.399625953991970
 20
-134.938956952986930
 40
30.499999999999964
 50
216.813854344181070
 51
263.186145655818960
  0
ARC
  8
0
  6
CONTINUOUS
 62
3
 10
-343.399625953991970
 20
-134.938956952986930
 40
38.999999999999865
 50
215.284732954534800
 51
264.715267045465400
  0
ARC
  8
0
  6
CONTINUOUS
 62
3
 10
-349.298155224381160
 20
-142.385926299396260
 40
0.999999999999961
 50
51.618272422159777
 51
120.000000000003780
  0
ARC
  8
0
  6
CONTINUOUS
 62
3
 10
-346.899625953991970
 20
-143.770717819314770
 40
1.000000000000000
 50
0.000000000000000
 51
68.381727577838021
  0
ARC
  8
0
  6
CONTINUOUS
 62
3
 10
-346.899625953991970
 20
-146.938956952986930
 40
0.999999999999964
 50
253.739795291702650
 51
0.000000000000000
  0
ARC
  8
0
  6
CONTINUOUS
 62
3
 10
-352.041930799405460
 20
-143.970045866232340
 40
0.999999999999885
 50
120.000000000003780
 51
226.260204708328700
  0
ARC
  8
0
  6
CONTINUOUS
 62
3
 10
-356.940554637364810
 20
-146.798267657737370
 40
1.000000000000165
 50
41.212271417643841
 51
119.999999999997270
  0
ARC
  8
0
  6
CONTINUOUS
 62
3
 10
-359.581789794420960
 20
-148.323185486656710
 40
0.999999999999885
 50
120.000000000003780
 51
219.594068226860460
  0
ARC
  8
0
  6
CONTINUOUS
 62
3
 10
-346.899625953991970
 20
-152.595400535996530
 40
1.000000000000000
 50
0.000000000000000
 51
78.787728582355996
  0
ARC
  8
0
  6
CONTINUOUS
 62
3
 10
-346.899625953991970
 20
-155.645236193835440
 40
1.000000000000268
 50
260.405931773124510
 51
0.000000000000000
  0
ARC
  8
0
  6
CONTINUOUS
 62
3
 10
-364.398252286146770
 20
-151.103971402796110
 40
1.000000000000194
 50
37.589542391851793
 51
119.999999999997270
  0
ARC
  8
0
  6
CONTINUOUS
 62
3
 10
-367.016927741923840
 20
-152.615864382109070
 40
0.999999999999885
 50
120.000000000003780
 51
216.813854344197100
  0
ARC
  8
0
  6
CONTINUOUS
 62
3
 10
-346.899625953991970
 20
-161.206808026114230
 40
1.000000000000000
 50
0.000000000000000
 51
82.410457608145762
  0
ARC
  8
0
  6
CONTINUOUS
 62
3
 10
-371.808579848316410
 20
-155.382326015598210
 40
0.999999999999807
 50
35.739170477263521
 51
120.000000000003780
  0
ARC
  8
0
  6
CONTINUOUS
 62
3
 10
-374.418704366422160
 20
-156.889282108745190
 40
1.000000000000082
 50
119.999999999997270
 51
215.284732954534320
  0
ARC
  8
0
  6
CONTINUOUS
 62
3
 10
-377.918704366422160
 20
-150.827104282253910
 40
1.000000000000248
 50
204.715267045455480
 51
300.000000000003810
  0
LINE
  8
0
  6
CONTINUOUS
 62
3
 10
-377.418704366422160
 20
-151.693129686038220
 11
-374.808579848316410
 21
-150.186173592891690
  0
ARC
  8
0
  6
CONTINUOUS
 62
3
 10
-370.516927741923840
 20
-146.553686555618240
 40
0.999999999999730
 50
203.186145655819840
 51
299.999999999997270
  0
LINE
  8
0
  6
CONTINUOUS
 62
3
 10
-370.016927741923840
 20
-147.419711959402780
 11
-367.398252286146320
 21
-145.907818980089810
  0
ARC
  8
0
  6
CONTINUOUS
 62
3
 10
-375.308579848316410
 20
-149.320148189107160
 40
1.000000000000082
 50
299.999999999997270
 51
24.260829522733715
  0
ARC
  8
0
  6
CONTINUOUS
 62
3
 10
-367.898252286146320
 20
-145.041793576305280
 40
1.000000000000082
 50
299.999999999997270
 51
22.410457608146043
  0
ARC
  8
0
  6
CONTINUOUS
 62
3
 10
-363.081789794421410
 20
-142.261007660165660
 40
1.000000000000094
 50
200.405931773138690
 51
300.000000000003810
  0
LINE
  8
0
  6
CONTINUOUS
 62
3
 10
-362.581789794421410
 20
-143.127033063949970
 11
-359.940554637364810
 21
-141.602115235030400
  0
ARC
  8
0
  6
CONTINUOUS
 62
3
 10
-360.440554637364810
 20
-140.736089831246090
 40
0.999999999999885
 50
300.000000000003810
 51
18.787728582346993
  0
LINE
  8
0
  6
CONTINUOUS
 62
3
 10
-345.899625953991970
 20
-172.777429438011950
 11
-345.899625953991970
 21
-169.763517251718670
  0
ARC
  8
0
  6
CONTINUOUS
 62
3
 10
-346.899625953991970
 20
-164.230593984740610
 40
1.000000000000077
 50
263.186145655820330
 51
0.000000000000000
  0
ARC
  8
0
  6
CONTINUOUS
 62
3
 10
-346.899625953991970
 20
-172.777429438011950
 40
1.000000000000042
 50
264.715267045464260
 51
0.000000000000000
  0
ARC
  8
0
  6
CONTINUOUS
 62
3
 10
-346.899625953991970
 20
-169.763517251718670
 40
1.000000000000000
 50
0.000000000000000
 51
84.260829522738291
  0
ARC
  8
0
  6
CONTINUOUS
 62
3
 10
-343.399625953991970
 20
-481.538956952987060
 40
400.599999999999910
 50
84.256318189006564
 51
90.000000000000000
  0
ARC
  8
0
  6
CONTINUOUS
 62
3
 10
-303.968758953904570
 20
-89.517010210688568
 40
6.600000000000278
 50
44.999999999997215
 51
84.256318189004901
  0
ARC
  8
0
  6
CONTINUOUS
 62
4
 10
-343.399625953991970
 20
-481.538956952987060
 40
390.797000000000080
 50
84.582036237639457
 51
90.000000000000000
  0
ARC
  8
0
  6
CONTINUOUS
 62
4
 10
-306.783661014973570
 20
-95.474474877020157
 40
3.000000000000346
 50
44.999999999996930
 51
84.582036237634313
  0
ARC
  8
0
  6
CONTINUOUS
 62
4
 10
-306.783661014973570
 20
-174.403439028953700
 40
3.000000000000067
 50
275.417963762365730
 51
315.000000000003070
  0
ARC
  8
0
  6
CONTINUOUS
 62
4
 10
-343.399625953991970
 20
211.661043047013210
 40
390.797000000000030
 50
270.000000000000000
 51
275.417963762360500
  0
ARC
  8
0
  6
CONTINUOUS
 62
4
 10
-316.027735366472540
 20
-158.478754610898930
 40
20.797000000000015
 50
315.000000000000000
 51
354.998349729064670
  0
LINE
  8
0
  6
CONTINUOUS
 62
4
 10
-301.322035638135900
 20
-173.184454339235570
 11
-304.662340671413570
 21
-176.524759372513470
  0
ARC
  8
0
  6
CONTINUOUS
 62
4
 10
-584.999625953992340
 20
-134.938956952986930
 40
290.797000000000140
 50
354.998349729065010
 51
0.000000000000000
  0
ARC
  8
0
  6
CONTINUOUS
 62
4
 10
-380.015590893010310
 20
-174.403439028953700
 40
3.000000000000346
 50
224.999999999996960
 51
264.582036237634270
  0
ARC
  8
0
  6
CONTINUOUS
 62
4
 10
-343.399625953991970
 20
211.661043047013210
 40
390.797000000000030
 50
264.582036237639500
 51
270.000000000000000
  0
ARC
  8
0
  6
CONTINUOUS
 62
4
 10
-370.771516541511350
 20
-158.478754610898930
 40
20.796999999999880
 50
185.001650270935330
 51
225.000000000000000
  0
LINE
  8
0
  6
CONTINUOUS
 62
4
 10
-385.477216269847990
 20
-173.184454339235570
 11
-382.136911236570310
 21
-176.524759372513470
  0
ARC
  8
0
  6
CONTINUOUS
 62
4
 10
-101.799625953991770
 20
-134.938956952986930
 40
290.797000000000310
 50
180.000000000000000
 51
185.001650270934930
  0
ARC
  8
0
  6
CONTINUOUS
 62
4
 10
-380.015590893010310
 20
-95.474474877020157
 40
3.000000000000067
 50
95.417963762365673
 51
135.000000000003040
  0
ARC
  8
0
  6
CONTINUOUS
 62
4
 10
-343.399625953991970
 20
-481.538956952987060
 40
390.797000000000030
 50
90.000000000000000
 51
95.417963762360529
  0
ARC
  8
0
  6
CONTINUOUS
 62
4
 10
-370.771516541511350
 20
-111.399159295074920
 40
20.797000000000015
 50
135.000000000000000
 51
174.998349729064670
  0
LINE
  8
0
  6
CONTINUOUS
 62
4
 10
-385.477216269847990
 20
-96.693459566738284
 11
-382.136911236570310
 21
-93.353154533460383
  0
ARC
  8
0
  6
CONTINUOUS
 62
4
 10
-101.799625953991770
 20
-134.938956952986930
 40
290.796999999999970
 50
174.998349729065040
 51
180.000000000000000
  0
ARC
  8
0
  6
CONTINUOUS
 62
3
 10
-262.460856820010290
 20
-159.938956952986930
 40
5.000000000000000
 50
270.000000000000000
 51
355.138594604201330
  0
ARC
  8
0
  6
CONTINUOUS
 62
3
 10
-262.460856820010290
 20
-109.938956952986920
 40
4.999999999999893
 50
4.861405395798621
 51
90.000000000000000
  0
LINE
  8
0
  6
CONTINUOUS
 62
3
 10
-285.899625953991920
 20
-164.938956952986930
 11
-262.460856820010290
 21
-164.938956952986930
  0
LINE
  8
0
  6
CONTINUOUS
 62
3
 10
-285.899625953991920
 20
-104.938956952986920
 11
-262.460856820010290
 21
-104.938956952986920
  0
ARC
  8
0
  6
CONTINUOUS
 62
3
 10
-556.399625953991970
 20
-134.938956952986930
 40
300.000000000000230
 50
355.138594604201960
 51
4.861405395798035
  0
LINE
  8
0
  6
CONTINUOUS
 62
3
 10
-256.410042801509630
 20
-132.438956952986930
 11
-255.899625953991920
 21
-132.438956952986930
  0
LINE
  8
0
  6
CONTINUOUS
 62
3
 10
-256.410042801509630
 20
-137.438956952986930
 11
-255.899625953991920
 21
-137.438956952986930
  0
LINE
  8
0
  6
CONTINUOUS
 62
3
 10
-255.899625953991920
 20
-137.438956952986930
 11
-255.899625953991920
 21
-132.438956952986930
  0
ARC
  8
0
  6
CONTINUOUS
 62
3
 10
-306.409558715845550
 20
-106.875200321971300
 40
20.599999999999916
 50
5.752282731536487
 51
44.999999999997321
  0
LINE
  8
0
  6
CONTINUOUS
 62
3
 10
-291.843159023401940
 20
-92.308800629529060
 11
-299.301854198072930
 21
-84.850105454857385
  0
ARC
  8
0
  6
CONTINUOUS
 62
3
 10
-584.999625953992340
 20
-134.938956952986930
 40
300.600000000000420
 50
0.000000000000000
 51
5.752282731536603
  0
LINE
  8
0
  6
CONTINUOUS
 62
3
 10
-286.098176894090730
 20
-103.438956952986920
 11
-285.899625953991920
 21
-103.438956952986920
  0
LINE
  8
0
  6
CONTINUOUS
 62
3
 10
-285.899625953991920
 20
-104.946457890724780
 11
-285.899625953991920
 21
-103.438956952986920
  0
ARC
  8
0
  6
CONTINUOUS
 62
4
 10
-306.409558715845550
 20
-106.875200321971300
 40
10.797000000000011
 50
5.752282731536912
 51
44.999999999998295
  0
LINE
  8
0
  6
CONTINUOUS
 62
4
 10
-298.774926799374210
 20
-99.240568405500426
 11
-304.662340671413570
 21
-93.353154533460383
  0
ARC
  8
0
  6
CONTINUOUS
 62
4
 10
-584.999625953992340
 20
-134.938956952986930
 40
290.797000000000540
 50
0.000000000000000
 51
5.752282731536623
  0
ARC
  8
0
  6
CONTINUOUS
 62
3
 10
-584.999625953992340
 20
-134.938956952986930
 40
300.599999999999970
 50
354.247717268463420
 51
0.000000000000000
  0
LINE
  8
0
  6
CONTINUOUS
 62
3
 10
-291.843159023401940
 20
-177.569113276444800
 11
-299.301854198072930
 21
-185.027808451116470
  0
ARC
  8
0
  6
CONTINUOUS
 62
3
 10
-306.409558715845550
 20
-163.002713584002550
 40
20.600000000000069
 50
315.000000000002670
 51
354.247717268463480
  0
ARC
  8
0
  6
CONTINUOUS
 62
3
 10
-343.399625953991970
 20
211.661043047013210
 40
400.599999999999910
 50
270.000000000000000
 51
275.743681810993450
  0
ARC
  8
0
  6
CONTINUOUS
 62
3
 10
-303.968758953904570
 20
-180.360903695285290
 40
6.600000000000009
 50
275.743681810995100
 51
315.000000000002790
  0
ARC
  8
0
  6
CONTINUOUS
 62
3
 10
-101.799625953991550
 20
-134.938956952986930
 40
300.600000000000420
 50
180.000000000000000
 51
185.752282731536610
  0
LINE
  8
0
  6
CONTINUOUS
 62
3
 10
-394.956092884581950
 20
-177.569113276444800
 11
-387.497397709910960
 21
-185.027808451116470
  0
ARC
  8
0
  6
CONTINUOUS
 62
3
 10
-380.389693192138340
 20
-163.002713584002550
 40
20.599999999999916
 50
185.752282731536500
 51
224.999999999997330
  0
ARC
  8
0
  6
CONTINUOUS
 62
3
 10
-343.399625953991970
 20
211.661043047013210
 40
400.599999999999910
 50
264.256318189006550
 51
270.000000000000000
  0
ARC
  8
0
  6
CONTINUOUS
 62
3
 10
-382.830492954079320
 20
-180.360903695285290
 40
6.600000000000278
 50
224.999999999997190
 51
264.256318189004900
  0
ARC
  8
0
  6
CONTINUOUS
 62
3
 10
-101.799625953991550
 20
-134.938956952986930
 40
300.599999999999970
 50
174.247717268463390
 51
180.000000000000000
  0
LINE
  8
0
  6
CONTINUOUS
 62
3
 10
-394.956092884581950
 20
-92.308800629529060
 11
-387.497397709910960
 21
-84.850105454857385
  0
ARC
  8
0
  6
CONTINUOUS
 62
3
 10
-380.389693192138340
 20
-106.875200321971300
 40
20.600000000000069
 50
135.000000000002670
 51
174.247717268463500
  0
ARC
  8
0
  6
CONTINUOUS
 62
3
 10
-343.399625953991970
 20
-481.538956952987060
 40
400.599999999999910
 50
90.000000000000000
 51
95.743681810993436
  0
ARC
  8
0
  6
CONTINUOUS
 62
3
 10
-382.830492954079320
 20
-89.517010210688568
 40
6.600000000000009
 50
95.743681810995099
 51
135.000000000002790
  0
LINE
  8
0
  6
CONTINUOUS
 62
3
 10
-285.899625953991920
 20
-166.438956952986930
 11
-285.899625953991920
 21
-164.926942807417160
  0
LINE
  8
0
  6
CONTINUOUS
 62
3
 10
-286.098176894090730
 20
-166.438956952986930
 11
-285.899625953991920
 21
-166.438956952986930
  0
LINE
  8
0
  6
CONTINUOUS
 62
3
 10
-204.372262922041730
 20
162.904663180642270
 11
-204.372262922041500
 21
115.061043047013070
  0
LINE
  8
0
  6
CONTINUOUS
 62
3
 10
-195.692782459965660
 20
170.335575159366270
 11
-203.263561656554430
 21
165.034458495793610
  0
ARC
  8
0
  6
CONTINUOUS
 62
3
 10
-201.772262922041590
 20
162.904663180642270
 40
2.600000000000224
 50
124.999999999999730
 51
180.000000000000000
  0
ARC
  8
0
  6
CONTINUOUS
 62
3
 10
-183.877107871134290
 20
153.461043047012940
 40
20.600000000000136
 50
90.000000000000000
 51
124.999999999999400
  0
LINE
  8
0
  6
CONTINUOUS
 62
3
 10
-204.372262922041730
 20
67.217422913383700
 11
-204.372262922041730
 21
115.061043047013070
  0
LINE
  8
0
  6
CONTINUOUS
 62
3
 10
-195.692782459965660
 20
59.786510934659816
 11
-203.263561656554430
 21
65.087627598232359
  0
ARC
  8
0
  6
CONTINUOUS
 62
3
 10
-201.772262922041590
 20
67.217422913383700
 40
2.600000000000136
 50
180.000000000000000
 51
234.999999999997390
  0
ARC
  8
0
  6
CONTINUOUS
 62
3
 10
-183.877107871134290
 20
76.661043047013038
 40
20.599999999999891
 50
235.000000000000400
 51
270.000000000000000
  0
LINE
  8
0
  6
CONTINUOUS
 62
3
 10
-154.372262922041500
 20
174.061043047013070
 11
-183.877107871134290
 21
174.061043047013070
  0
LINE
  8
0
  6
CONTINUOUS
 62
3
 10
-164.372262922041500
 20
56.061043047013015
 11
-183.877107871134290
 21
56.061043047013015
  0
LINE
  8
0
  6
CONTINUOUS
 62
3
 10
-162.372262922020130
 20
57.561043047013015
 11
-162.372262922020130
 21
60.549773810957674
  0
LINE
  8
0
  6
CONTINUOUS
 62
3
 10
-87.372262922020127
 20
62.561043047013129
 11
-154.605731616438790
 21
62.561043047013129
  0
LINE
  8
0
  6
CONTINUOUS
 62
4
 10
-154.372262922041050
 20
64.061043047013015
 11
-33.872262922020354
 21
64.061043047013015
  0
LINE
  8
0
  6
CONTINUOUS
 62
4
 10
-154.372262922041050
 20
64.561043047013015
 11
-33.872262922020354
 21
64.561043047013015
  0
LINE
  8
0
  6
CONTINUOUS
 62
4
 10
-154.372262922041050
 20
68.927960452130321
 11
-33.872262922020354
 21
68.927960452130435
  0
LINE
  8
0
  6
CONTINUOUS
 62
4
 10
-154.372262922041050
 20
74.019129276673254
 11
-33.872262922020354
 21
74.019129276673254
  0
LINE
  8
0
  6
CONTINUOUS
 62
4
 10
-154.372262922041050
 20
83.346651888243002
 11
-33.872262922020354
 21
83.346651888243002
  0
LINE
  8
0
  6
CONTINUOUS
 62
4
 10
-154.372262922041050
 20
81.757442095504359
 11
-33.872262922020354
 21
81.757442095504359
  0
LINE
  8
0
  6
CONTINUOUS
 62
4
 10
-154.372262922041050
 20
86.304647496375935
 11
-33.872262922020354
 21
86.304647496375935
  0
LINE
  8
0
  6
CONTINUOUS
 62
4
 10
-154.372262922041050
 20
87.783670649853036
 11
-33.872262922020354
 21
87.783670649853036
  0
LINE
  8
0
  6
CONTINUOUS
 62
4
 10
-154.372262922041050
 20
90.876401641518271
 11
-33.872262922020354
 21
90.876401641518271
  0
LINE
  8
0
  6
CONTINUOUS
 62
4
 10
-154.372262922041050
 20
92.222803367016866
 11
-33.872262922020354
 21
92.222803367016866
  0
LINE
  8
0
  6
CONTINUOUS
 62
4
 10
-154.372262922041050
 20
95.433008390375164
 11
-33.872262922020354
 21
95.433008390375164
  0
LINE
  8
0
  6
CONTINUOUS
 62
4
 10
-154.372262922041050
 20
96.674928255263069
 11
-33.872262922020354
 21
96.674928255263069
  0
LINE
  8
0
  6
CONTINUOUS
 62
4
 10
-154.372262922041050
 20
101.061043047013010
 11
-33.872262922020354
 21
101.061043047013010
  0
LINE
  8
0
  6
CONTINUOUS
 62
4
 10
-154.372262922041270
 20
129.061043047013070
 11
-33.872262922020354
 21
129.061043047013070
  0
LINE
  8
0
  6
CONTINUOUS
 62
4
 10
-154.372262922041270
 20
133.447157838762910
 11
-33.872262922020354
 21
133.447157838762910
  0
LINE
  8
0
  6
CONTINUOUS
 62
4
 10
-154.372262922041270
 20
134.689077703650810
 11
-33.872262922020354
 21
134.689077703650810
  0
LINE
  8
0
  6
CONTINUOUS
 62
4
 10
-154.372262922041270
 20
137.899282727009220
 11
-33.872262922020354
 21
137.899282727009220
  0
LINE
  8
0
  6
CONTINUOUS
 62
4
 10
-154.372262922041270
 20
139.245684452507700
 11
-33.872262922020354
 21
139.245684452507700
  0
LINE
  8
0
  6
CONTINUOUS
 62
4
 10
-154.372262922041270
 20
142.338415444173050
 11
-33.872262922020354
 21
142.338415444173050
  0
LINE
  8
0
  6
CONTINUOUS
 62
4
 10
-154.372262922041270
 20
143.817438597650150
 11
-33.872262922020354
 21
143.817438597650150
  0
LINE
  8
0
  6
CONTINUOUS
 62
4
 10
-154.372262922041270
 20
146.775434205783090
 11
-33.872262922020354
 21
146.775434205783090
  0
LINE
  8
0
  6
CONTINUOUS
 62
4
 10
-154.372262922041270
 20
148.364643998521840
 11
-33.872262922020354
 21
148.364643998521840
  0
LINE
  8
0
  6
CONTINUOUS
 62
4
 10
-154.372262922041270
 20
156.102956817352830
 11
-33.872262922020354
 21
156.102956817352830
  0
LINE
  8
0
  6
CONTINUOUS
 62
4
 10
-154.372262922041270
 20
161.194125641895650
 11
-33.872262922020354
 21
161.194125641895650
  0
LINE
  8
0
  6
CONTINUOUS
 62
4
 10
-154.372262922041270
 20
165.561043047013070
 11
-33.872262922020354
 21
165.561043047013070
  0
LINE
  8
0
  6
CONTINUOUS
 62
4
 10
-154.372262922041270
 20
166.061043047013070
 11
-33.872262922020354
 21
166.061043047013070
  0
LINE
  8
0
  6
CONTINUOUS
 62
3
 10
-33.872262922020354
 20
168.561043047013070
 11
-154.372262922041270
 21
168.561043047013070
  0
LINE
  8
0
  6
CONTINUOUS
 62
3
 10
-165.372262922041500
 20
164.204964069738250
 11
-167.372262922041500
 21
162.552322430614820
  0
LINE
  8
0
  6
CONTINUOUS
 62
3
 10
-163.372262922041500
 20
165.380749555361040
 11
-165.372262922041500
 21
164.204964069738250
  0
LINE
  8
0
  6
CONTINUOUS
 62
3
 10
-165.372262922041500
 20
164.204964069738250
 11
-163.372262922041500
 21
162.552322430614820
  0
LINE
  8
0
  6
CONTINUOUS
 62
3
 10
-167.372262922041500
 20
165.380749555361040
 11
-165.372262922041500
 21
164.204964069738250
  0
POLYLINE
  8
0
  6
CONTINUOUS
 62
3
 66
1
 70
1
  0
VERTEX
  8
0
  6
CONTINUOUS
 62
3
 10
-160.672262922041280
 20
162.388374001360490
  0
VERTEX
  8
0
  6
CONTINUOUS
 62
3
 10
-160.762572104146100
 20
163.091330967560850
  0
VERTEX
  8
0
  6
CONTINUOUS
 62
3
 10
-161.030029119238240
 20
163.767273691772940
  0
VERTEX
  8
0
  6
CONTINUOUS
 62
3
 10
-161.464355744219320
 20
164.390226074178340
  0
VERTEX
  8
0
  6
CONTINUOUS
 62
3
 10
-162.048861050464500
 20
164.936248404076930
  0
VERTEX
  8
0
  6
CONTINUOUS
 62
3
 10
-162.761082826849160
 20
165.384357349543560
  0
VERTEX
  8
0
  6
CONTINUOUS
 62
3
 10
-163.573650789925350
 20
165.717332335106310
  0
VERTEX
  8
0
  6
CONTINUOUS
 62
3
 10
-164.455338408565470
 20
165.922377318804560
  0
VERTEX
  8
0
  6
CONTINUOUS
 62
3
 10
-165.372262922041270
 20
165.991612536905340
  0
VERTEX
  8
0
  6
CONTINUOUS
 62
3
 10
-166.289187435517080
 20
165.922377318804560
  0
VERTEX
  8
0
  6
CONTINUOUS
 62
3
 10
-167.170875054157190
 20
165.717332335106310
  0
VERTEX
  8
0
  6
CONTINUOUS
 62
3
 10
-167.983443017233380
 20
165.384357349543560
  0
VERTEX
  8
0
  6
CONTINUOUS
 62
3
 10
-168.695664793618050
 20
164.936248404076930
  0
VERTEX
  8
0
  6
CONTINUOUS
 62
3
 10
-169.280170099863230
 20
164.390226074178340
  0
VERTEX
  8
0
  6
CONTINUOUS
 62
3
 10
-169.714496724844310
 20
163.767273691772940
  0
VERTEX
  8
0
  6
CONTINUOUS
 62
3
 10
-169.981953739936440
 20
163.091330967560850
  0
VERTEX
  8
0
  6
CONTINUOUS
 62
3
 10
-170.072262922041260
 20
162.388374001360490
  0
VERTEX
  8
0
  6
CONTINUOUS
 62
3
 10
-169.981953739936440
 20
161.685417035160130
  0
VERTEX
  8
0
  6
CONTINUOUS
 62
3
 10
-169.714496724844310
 20
161.009474310948040
  0
VERTEX
  8
0
  6
CONTINUOUS
 62
3
 10
-169.280170099863230
 20
160.386521928542630
  0
VERTEX
  8
0
  6
CONTINUOUS
 62
3
 10
-168.695664793618020
 20
159.840499598644040
  0
VERTEX
  8
0
  6
CONTINUOUS
 62
3
 10
-167.983443017233380
 20
159.392390653177420
  0
VERTEX
  8
0
  6
CONTINUOUS
 62
3
 10
-167.170875054157190
 20
159.059415667614670
  0
VERTEX
  8
0
  6
CONTINUOUS
 62
3
 10
-166.289187435517080
 20
158.854370683916410
  0
VERTEX
  8
0
  6
CONTINUOUS
 62
3
 10
-165.372262922041270
 20
158.785135465815640
  0
VERTEX
  8
0
  6
CONTINUOUS
 62
3
 10
-164.455338408565470
 20
158.854370683916410
  0
VERTEX
  8
0
  6
CONTINUOUS
 62
3
 10
-163.573650789925350
 20
159.059415667614670
  0
VERTEX
  8
0
  6
CONTINUOUS
 62
3
 10
-162.761082826849160
 20
159.392390653177420
  0
VERTEX
  8
0
  6
CONTINUOUS
 62
3
 10
-162.048861050464520
 20
159.840499598644040
  0
VERTEX
  8
0
  6
CONTINUOUS
 62
3
 10
-161.464355744219320
 20
160.386521928542630
  0
VERTEX
  8
0
  6
CONTINUOUS
 62
3
 10
-161.030029119238240
 20
161.009474310948040
  0
VERTEX
  8
0
  6
CONTINUOUS
 62
3
 10
-160.762572104146100
 20
161.685417035160130
  0
SEQEND
  8
0
  6
CONTINUOUS
 62
3
  0
LINE
  8
0
  6
CONTINUOUS
 62
3
 10
-154.372262922041500
 20
174.061043047013070
 11
-154.372262922041270
 21
115.061043047013070
  0
LINE
  8
0
  6
CONTINUOUS
 62
3
 10
-164.372262922041500
 20
56.061043047013015
 11
-164.372262922041500
 21
57.721346686204072
  0
ARC
  8
0
  6
CONTINUOUS
 62
3
 10
-161.372262922041500
 20
57.721346686204072
 40
3.000000000000000
 50
90.000000000000000
 51
180.000000000000000
  0
LINE
  8
0
  6
CONTINUOUS
 62
3
 10
-165.372262922041500
 20
65.917122024287949
 11
-167.372262922041500
 21
67.569763663411265
  0
LINE
  8
0
  6
CONTINUOUS
 62
3
 10
-163.372262922041500
 20
64.741336538665053
 11
-165.372262922041500
 21
65.917122024287949
  0
LINE
  8
0
  6
CONTINUOUS
 62
3
 10
-165.372262922041500
 20
65.917122024287949
 11
-163.372262922041500
 21
67.569763663411265
  0
LINE
  8
0
  6
CONTINUOUS
 62
3
 10
-167.372262922041500
 20
64.741336538665053
 11
-165.372262922041500
 21
65.917122024287949
  0
POLYLINE
  8
0
  6
CONTINUOUS
 62
3
 66
1
 70
1
  0
VERTEX
  8
0
  6
CONTINUOUS
 62
3
 10
-160.672262922041280
 20
67.733712092665485
  0
VERTEX
  8
0
  6
CONTINUOUS
 62
3
 10
-160.762572104146100
 20
68.436669058865846
  0
VERTEX
  8
0
  6
CONTINUOUS
 62
3
 10
-161.030029119238240
 20
69.112611783077938
  0
VERTEX
  8
0
  6
CONTINUOUS
 62
3
 10
-161.464355744219320
 20
69.735564165483339
  0
VERTEX
  8
0
  6
CONTINUOUS
 62
3
 10
-162.048861050464500
 20
70.281586495381916
  0
VERTEX
  8
0
  6
CONTINUOUS
 62
3
 10
-162.761082826849160
 20
70.729695440848531
  0
VERTEX
  8
0
  6
CONTINUOUS
 62
3
 10
-163.573650789925350
 20
71.062670426411302
  0
VERTEX
  8
0
  6
CONTINUOUS
 62
3
 10
-164.455338408565470
 20
71.267715410109545
  0
VERTEX
  8
0
  6
CONTINUOUS
 62
3
 10
-165.372262922041270
 20
71.336950628210317
  0
VERTEX
  8
0
  6
CONTINUOUS
 62
3
 10
-166.289187435517080
 20
71.267715410109545
  0
VERTEX
  8
0
  6
CONTINUOUS
 62
3
 10
-167.170875054157190
 20
71.062670426411302
  0
VERTEX
  8
0
  6
CONTINUOUS
 62
3
 10
-167.983443017233380
 20
70.729695440848531
  0
VERTEX
  8
0
  6
CONTINUOUS
 62
3
 10
-168.695664793618050
 20
70.281586495381916
  0
VERTEX
  8
0
  6
CONTINUOUS
 62
3
 10
-169.280170099863230
 20
69.735564165483339
  0
VERTEX
  8
0
  6
CONTINUOUS
 62
3
 10
-169.714496724844310
 20
69.112611783077938
  0
VERTEX
  8
0
  6
CONTINUOUS
 62
3
 10
-169.981953739936440
 20
68.436669058865846
  0
VERTEX
  8
0
  6
CONTINUOUS
 62
3
 10
-170.072262922041260
 20
67.733712092665485
  0
VERTEX
  8
0
  6
CONTINUOUS
 62
3
 10
-169.981953739936440
 20
67.030755126465124
  0
VERTEX
  8
0
  6
CONTINUOUS
 62
3
 10
-169.714496724844310
 20
66.354812402253032
  0
VERTEX
  8
0
  6
CONTINUOUS
 62
3
 10
-169.280170099863230
 20
65.731860019847630
  0
VERTEX
  8
0
  6
CONTINUOUS
 62
3
 10
-168.695664793618020
 20
65.185837689949054
  0
VERTEX
  8
0
  6
CONTINUOUS
 62
3
 10
-167.983443017233380
 20
64.737728744482439
  0
VERTEX
  8
0
  6
CONTINUOUS
 62
3
 10
-167.170875054157190
 20
64.404753758919668
  0
VERTEX
  8
0
  6
CONTINUOUS
 62
3
 10
-166.289187435517080
 20
64.199708775221424
  0
VERTEX
  8
0
  6
CONTINUOUS
 62
3
 10
-165.372262922041270
 20
64.130473557120652
  0
VERTEX
  8
0
  6
CONTINUOUS
 62
3
 10
-164.455338408565470
 20
64.199708775221424
  0
VERTEX
  8
0
  6
CONTINUOUS
 62
3
 10
-163.573650789925350
 20
64.404753758919668
  0
VERTEX
  8
0
  6
CONTINUOUS
 62
3
 10
-162.761082826849160
 20
64.737728744482439
  0
VERTEX
  8
0
  6
CONTINUOUS
 62
3
 10
-162.048861050464520
 20
65.185837689949054
  0
VERTEX
  8
0
  6
CONTINUOUS
 62
3
 10
-161.464355744219320
 20
65.731860019847630
  0
VERTEX
  8
0
  6
CONTINUOUS
 62
3
 10
-161.030029119238240
 20
66.354812402253032
  0
VERTEX
  8
0
  6
CONTINUOUS
 62
3
 10
-160.762572104146100
 20
67.030755126465124
  0
SEQEND
  8
0
  6
CONTINUOUS
 62
3
  0
LINE
  8
0
  6
CONTINUOUS
 62
3
 10
-161.372262922041500
 20
60.721346686204072
 11
-157.372262922041500
 21
60.721346686204072
  0
ARC
  8
0
  6
CONTINUOUS
 62
3
 10
-157.372262922041500
 20
63.721346686204072
 40
3.000000000000000
 50
270.000000000000000
 51
0.000000000000000
  0
LINE
  8
0
  6
CONTINUOUS
 62
3
 10
-154.372262922041500
 20
63.721346686204072
 11
-154.372262922041270
 21
115.061043047013070
  0
LINE
  8
0
  6
CONTINUOUS
 62
3
 10
-89.372262922020127
 20
28.061043047013015
 11
-160.372262922020130
 21
28.061043047013015
  0
LINE
  8
0
  6
CONTINUOUS
 62
3
 10
-103.372262922020120
 20
27.561043047013015
 11
-103.372262922020120
 21
28.061043047013015
  0
LINE
  8
0
  6
CONTINUOUS
 62
3
 10
-103.372262922020120
 20
27.561043047013015
 11
-95.372262922020127
 21
27.561043047013015
  0
LINE
  8
0
  6
CONTINUOUS
 62
3
 10
-95.372262922020127
 20
27.561043047013015
 11
-95.372262922020127
 21
28.061043047013015
  0
LINE
  8
0
  6
CONTINUOUS
 62
3
 10
-33.872262922020354
 20
168.561043047013070
 11
-33.872262922020354
 21
115.061043047013070
  0
LINE
  8
0
  6
CONTINUOUS
 62
3
 10
-33.872262922020354
 20
61.561043047013015
 11
-87.372262922020127
 21
61.561043047013015
  0
ARC
  8
0
  6
CONTINUOUS
 62
3
 10
-89.372262922020127
 20
29.061043047013015
 40
1.000000000000000
 50
270.000000000000000
 51
0.000000000000000
  0
ARC
  8
0
  6
CONTINUOUS
 62
3
 10
-160.372262922020130
 20
29.061043047013015
 40
1.000000000000000
 50
180.000000000000000
 51
270.000000000000000
  0
LINE
  8
0
  6
CONTINUOUS
 62
3
 10
-161.372262922020130
 20
29.061043047013015
 11
-161.372262922020130
 21
57.561043047013015
  0
LINE
  8
0
  6
CONTINUOUS
 62
3
 10
-88.372262922020127
 20
29.061043047013015
 11
-88.372262922020127
 21
57.561043047013015
  0
LINE
  8
0
  6
CONTINUOUS
 62
3
 10
-87.372262922020127
 20
57.561043047013015
 11
-87.372262922020127
 21
62.561043047013129
  0
LINE
  8
0
  6
CONTINUOUS
 62
3
 10
-162.372262922020130
 20
57.561043047013015
 11
-87.372262922020127
 21
57.561043047013015
  0
LINE
  8
0
  6
CONTINUOUS
 62
3
 10
-33.872262922020354
 20
61.561043047013015
 11
-33.872262922020354
 21
115.061043047013070
  0
LINE
  8
0
  6
CONTINUOUS
 62
3
 10
-195.692782459971110
 20
-84.664424840633387
 11
-203.263561656559890
 21
-89.965541504205930
  0
LINE
  8
0
  6
CONTINUOUS
 62
3
 10
-204.372262922046960
 20
-92.095336819357385
 11
-204.372262922046960
 21
-134.938956952986930
  0
ARC
  8
0
  6
CONTINUOUS
 62
3
 10
-201.772262922047050
 20
-92.095336819357385
 40
2.600000000000131
 50
125.000000000001180
 51
180.000000000000000
  0
ARC
  8
0
  6
CONTINUOUS
 62
3
 10
-183.877107871139740
 20
-101.538956952986720
 40
20.600000000000023
 50
90.000000000000000
 51
124.999999999999600
  0
LINE
  8
0
  6
CONTINUOUS
 62
3
 10
-195.692782459971110
 20
-185.213489065340350
 11
-203.263561656559890
 21
-179.912372401767810
  0
LINE
  8
0
  6
CONTINUOUS
 62
3
 10
-204.372262922046960
 20
-177.782577086616470
 11
-204.372262922046960
 21
-134.938956952986930
  0
ARC
  8
0
  6
CONTINUOUS
 62
3
 10
-201.772262922047050
 20
-177.782577086616470
 40
2.599999999999909
 50
180.000000000000000
 51
234.999999999997390
  0
ARC
  8
0
  6
CONTINUOUS
 62
3
 10
-183.877107871139740
 20
-168.338956952987130
 40
20.599999999999891
 50
235.000000000000400
 51
270.000000000000000
  0
LINE
  8
0
  6
CONTINUOUS
 62
3
 10
-154.372262922046730
 20
-188.938956952987160
 11
-183.877107871139740
 21
-188.938956952987160
  0
LINE
  8
0
  6
CONTINUOUS
 62
3
 10
28.627737077977372
 20
-128.438956952990280
 11
28.627737077977372
 21
-140.438956952990280
  0
ARC
  8
0
  6
CONTINUOUS
 62
3
 10
28.627737077977372
 20
-124.974855337852600
 40
1.999999999999770
 50
300.000000000003810
 51
0.000000000000000
  0
LINE
  8
0
  6
CONTINUOUS
 62
3
 10
15.127737077983738
 20
-24.438956952990281
 11
19.627737077983738
 21
-24.438956952990281
  0
LINE
  8
0
  6
DASHDOT
 62
4
 10
9.397489677167187
 20
-44.438956952990281
 11
27.496755692458692
 21
-44.438956952990281
  0
ARC
  8
0
  6
CONTINUOUS
 62
3
 10
30.627737077977372
 20
-128.438956952990280
 40
2.000000000000164
 50
119.999999999997270
 51
180.000000000000000
  0
ARC
  8
0
  6
CONTINUOUS
 62
3
 10
30.627737077977372
 20
-140.438956952990280
 40
2.000000000000000
 50
180.000000000000000
 51
240.000000000002730
  0
ARC
  8
0
  6
CONTINUOUS
 62
3
 10
28.627737077977372
 20
-143.903058568127960
 40
2.000000000000000
 50
0.000000000000000
 51
59.999999999996206
  0
CIRCLE
  8
0
  6
CONTINUOUS
 62
3
 10
342.170025631386350
 20
-129.438956952990280
 40
23.500000000000000
  0
LINE
  8
0
  6
CONTINUOUS
 62
3
 10
151.127737077980100
 20
-254.438956952990280
 11
34.127737077980100
 21
-254.438956952990280
  0
LINE
  8
0
  6
CONTINUOUS
 62
3
 10
242.170025631386350
 20
-254.438956952990280
 11
272.170025631386350
 21
-254.438956952990280
  0
LINE
  8
0
  6
CONTINUOUS
 62
3
 10
442.170025631386350
 20
-254.438956952990280
 11
412.170025631386350
 21
-254.438956952990280
  0
LINE
  8
0
  6
CONTINUOUS
 62
3
 10
242.170025631386350
 20
-254.438956952990280
 11
272.170025631386350
 21
-254.438956952990280
  0
POLYLINE
  8
0
  6
CONTINUOUS
 62
3
 66
1
  0
VERTEX
  8
0
  6
CONTINUOUS
 62
3
 10
427.960815082691790
 20
-129.438956952990280
  0
VERTEX
  8
0
  6
CONTINUOUS
 62
3
 10
427.829543505302350
 20
-127.601461740077660
  0
VERTEX
  8
0
  6
CONTINUOUS
 62
3
 10
427.440199069429580
 20
-125.826540225195210
  0
VERTEX
  8
0
  6
CONTINUOUS
 62
3
 10
426.806040433375700
 20
-124.174635234054260
  0
VERTEX
  8
0
  6
CONTINUOUS
 62
3
 10
425.948663109726000
 20
-122.702000412032400
  0
VERTEX
  8
0
  6
CONTINUOUS
 62
3
 10
424.897264056040340
 20
-121.458784573675840
  0
VERTEX
  8
0
  6
CONTINUOUS
 62
3
 10
423.687647407443650
 20
-120.487323944901770
  0
VERTEX
  8
0
  6
CONTINUOUS
 62
3
 10
422.361005209700010
 20
-119.820700453546490
  0
VERTEX
  8
0
  6
CONTINUOUS
 62
3
 10
420.962514673444960
 20
-119.481615163947330
  0
VERTEX
  8
0
  6
CONTINUOUS
 62
3
 10
419.539799718403000
 20
-119.481615219394110
  0
VERTEX
  8
0
  6
CONTINUOUS
 62
3
 10
418.141309197857650
 20
-119.820700617998660
  0
VERTEX
  8
0
  6
CONTINUOUS
 62
3
 10
416.814667030998410
 20
-120.487324212759120
  0
VERTEX
  8
0
  6
CONTINUOUS
 62
3
 10
415.605050427409080
 20
-121.458784935816790
  0
VERTEX
  8
0
  6
CONTINUOUS
 62
3
 10
414.553651431321160
 20
-122.702000856124690
  0
VERTEX
  8
0
  6
CONTINUOUS
 62
3
 10
413.696274175898050
 20
-124.174635744974860
  0
VERTEX
  8
0
  6
CONTINUOUS
 62
3
 10
413.062115616376330
 20
-125.826540785545310
  0
VERTEX
  8
0
  6
CONTINUOUS
 62
3
 10
412.672771262734950
 20
-127.601462330775230
  0
VERTEX
  8
0
  6
CONTINUOUS
 62
3
 10
412.541499770475920
 20
-129.438957553919810
  0
SEQEND
  8
0
  6
CONTINUOUS
 62
3
  0
POLYLINE
  8
0
  6
CONTINUOUS
 62
3
 66
1
  0
VERTEX
  8
0
  6
CONTINUOUS
 62
3
 10
145.342621965645090
 20
-129.438956952990280
  0
VERTEX
  8
0
  6
CONTINUOUS
 62
3
 10
145.110808449293390
 20
-127.488053732829000
  0
VERTEX
  8
0
  6
CONTINUOUS
 62
3
 10
144.424276363669180
 20
-125.612122629339380
  0
VERTEX
  8
0
  6
CONTINUOUS
 62
3
 10
143.309408751811360
 20
-123.883254622794250
  0
VERTEX
  8
0
  6
CONTINUOUS
 62
3
 10
141.809049350818640
 20
-122.367889141124800
  0
VERTEX
  8
0
  6
CONTINUOUS
 62
3
 10
139.980856131059970
 20
-121.124260829964820
  0
VERTEX
  8
0
  6
CONTINUOUS
 62
3
 10
137.895085532708090
 20
-120.200161627877420
  0
VERTEX
  8
0
  6
CONTINUOUS
 62
3
 10
135.631892550144020
 20
-119.631104148957970
  0
VERTEX
  8
0
  6
CONTINUOUS
 62
3
 10
133.278250420474480
 20
-119.438956952990280
  0
VERTEX
  8
0
  6
CONTINUOUS
 62
3
 10
130.924608290804940
 20
-119.631104148957970
  0
VERTEX
  8
0
  6
CONTINUOUS
 62
3
 10
128.661415308240860
 20
-120.200161627877420
  0
VERTEX
  8
0
  6
CONTINUOUS
 62
3
 10
126.575644709888990
 20
-121.124260829964820
  0
VERTEX
  8
0
  6
CONTINUOUS
 62
3
 10
124.747451490130310
 20
-122.367889141124800
  0
VERTEX
  8
0
  6
CONTINUOUS
 62
3
 10
123.247092089137610
 20
-123.883254622794250
  0
VERTEX
  8
0
  6
CONTINUOUS
 62
3
 10
122.132224477279770
 20
-125.612122629339380
  0
VERTEX
  8
0
  6
CONTINUOUS
 62
3
 10
121.445692391655570
 20
-127.488053732829000
  0
VERTEX
  8
0
  6
CONTINUOUS
 62
3
 10
121.213878875303860
 20
-129.438956952990280
  0
SEQEND
  8
0
  6
CONTINUOUS
 62
3
  0
LINE
  8
0
  6
CONTINUOUS
 62
3
 10
395.170025631386350
 20
-229.838956952990370
 11
342.170025631386350
 21
-229.838956952990370
  0
LINE
  8
0
  6
CONTINUOUS
 62
3
 10
402.170025631386350
 20
-132.938956952990280
 11
402.170025631386350
 21
-222.838956952990370
  0
LINE
  8
0
  6
CONTINUOUS
 62
3
 10
385.065246810441070
 20
-129.438956952990280
 11
398.670025631386350
 21
-129.438956952990280
  0
ARC
  8
0
  6
CONTINUOUS
 62
3
 10
342.170025631386350
 20
-129.438956952990280
 40
40.000000000000000
 50
270.000000000000000
 51
355.999370038428480
  0
ARC
  8
0
  6
CONTINUOUS
 62
3
 10
395.170025631386350
 20
-222.838956952990370
 40
7.000000000000000
 50
270.000000000000000
 51
0.000000000000000
  0
ARC
  8
0
  6
CONTINUOUS
 62
3
 10
398.670025631386350
 20
-132.938956952990280
 40
3.500000000000000
 50
0.000000000000000
 51
90.000000000000000
  0
ARC
  8
0
  6
CONTINUOUS
 62
3
 10
385.065246810441070
 20
-132.438956952990280
 40
3.000000000000000
 50
90.000000000000000
 51
175.999370038424810
  0
ARC
  8
0
  6
CONTINUOUS
 62
3
 10
289.170025631386350
 20
-222.838956952990370
 40
7.000000000000000
 50
180.000000000000000
 51
270.000000000000000
  0
LINE
  8
0
  6
CONTINUOUS
 62
3
 10
289.170025631386350
 20
-229.838956952990370
 11
342.170025631386350
 21
-229.838956952990370
  0
ARC
  8
0
  6
CONTINUOUS
 62
3
 10
43.127737077980100
 20
-215.536152558262020
 40
1.999999999999916
 50
311.410957896496880
 51
0.000000000000000
  0
LINE
  8
0
  6
CONTINUOUS
 62
3
 10
44.450647703980621
 20
-217.036121716483140
 11
26.402565096712578
 21
-232.953782509195610
  0
LINE
  8
0
  6
CONTINUOUS
 62
3
 10
149.127737077980100
 20
-99.688956952990281
 11
149.127737077980100
 21
-87.755145404160373
  0
LINE
  8
0
  6
CONTINUOUS
 62
3
 10
151.127737077980100
 20
-239.336023277411580
 11
151.127737077980100
 21
-254.438956952990280
  0
LINE
  8
0
  6
CONTINUOUS
 62
3
 10
43.127737077980100
 20
-59.438956952990281
 11
95.627737077980100
 21
-60.355347861721782
  0
LINE
  8
0
  6
CONTINUOUS
 62
3
 10
149.127737077980100
 20
-163.688945669293330
 11
149.127737077980100
 21
-94.688956952990281
  0
LINE
  8
0
  6
CONTINUOUS
 62
3
 10
151.127737077980100
 20
-95.688956952990281
 11
151.127737077980100
 21
-162.688945669293330
  0
LINE
  8
0
  6
DASHDOT
 62
4
 10
138.127737077980100
 20
-232.216917730273000
 11
138.127737077980100
 21
-260.657641340197130
  0
LINE
  8
0
  6
CONTINUOUS
 62
3
 10
149.127737077980100
 20
-163.688945669293330
 11
149.127737077980100
 21
-235.336023277411580
  0
LINE
  8
0
  6
CONTINUOUS
 62
3
 10
151.127737077980100
 20
-239.285850653134670
 11
151.127737077980100
 21
-241.085129390132750
  0
LINE
  8
0
  6
CONTINUOUS
 62
3
 10
151.127737077980100
 20
-162.688945669293330
 11
150.127737077980100
 21
-162.688945669293330
  0
LINE
  8
0
  6
CONTINUOUS
 62
3
 10
150.127737077980100
 20
-95.688956952990281
 11
151.127737077980100
 21
-95.688956952990281
  0
LINE
  8
0
  6
CONTINUOUS
 62
4
 10
43.127737077980100
 20
-59.438956952990281
 11
63.484798234857635
 21
-59.438956952990281
  0
LINE
  8
0
  6
CONTINUOUS
 62
3
 10
45.046929353763289
 20
-232.734533518954720
 11
121.127737077980100
 21
-235.391333868237720
  0
LINE
  8
0
  6
DASHDOT
 62
4
 10
254.670025631386350
 20
-232.278678098620220
 11
254.670025631386350
 21
-258.855748792589960
  0
LINE
  8
0
  6
CONTINUOUS
 62
3
 10
145.342621965645090
 20
-129.438956952990280
 11
145.342621965645090
 21
-233.339869957248030
  0
LINE
  8
0
  6
CONTINUOUS
 62
3
 10
121.213878875303860
 20
-129.438956952990280
 11
121.213878875303860
 21
-232.497275681664580
  0
LINE
  8
0
  6
CONTINUOUS
 62
3
 10
43.127737077980100
 20
-59.438956952990281
 11
43.127737077980100
 21
-218.202874055885270
  0
LINE
  8
0
  6
CONTINUOUS
 62
3
 10
410.170025631386350
 20
-252.438956952990280
 11
342.170025631386350
 21
-252.438956952990280
  0
LINE
  8
0
  6
CONTINUOUS
 62
3
 10
439.670025631386350
 20
-236.438956952990280
 11
342.170025631386350
 21
-236.438956952990280
  0
LINE
  8
0
  6
CONTINUOUS
 62
3
 10
274.170025631386350
 20
-252.438956952990280
 11
342.170025631386350
 21
-252.438956952990280
  0
LINE
  8
0
  6
CONTINUOUS
 62
3
 10
436.170025631386350
 20
-139.672355137171450
 11
436.170025631386350
 21
-233.438956952990280
  0
LINE
  8
0
  6
CONTINUOUS
 62
3
 10
442.170025631386350
 20
-238.938956952990280
 11
442.170025631386350
 21
-254.438956952990280
  0
LINE
  8
0
  6
DASHDOT
 62
4
 10
429.670025631386350
 20
-232.278678098620220
 11
429.670025631386350
 21
-258.855748792589960
  0
LINE
  8
0
  6
CONTINUOUS
 62
3
 10
242.170025631386350
 20
-238.938956952990280
 11
242.170025631386350
 21
-254.438956952990280
  0
LINE
  8
0
  6
CONTINUOUS
 62
3
 10
244.670025631386350
 20
-236.438956952990280
 11
342.170025631386350
 21
-236.438956952990280
  0
LINE
  8
0
  6
DASHDOT
 62
4
 10
342.170025631386350
 20
-10.903987360261397
 11
342.170025631386350
 21
-265.141034899790550
  0
LINE
  8
0
  6
CONTINUOUS
 62
3
 10
412.541499770475870
 20
-129.438957553919810
 11
412.541499770475870
 21
-233.438956952990280
  0
LINE
  8
0
  6
CONTINUOUS
 62
3
 10
427.960815082691850
 20
-129.438956952990280
 11
427.960815082691850
 21
-233.438956952990280
  0
LINE
  8
0
  6
CONTINUOUS
 62
3
 10
408.917025631386650
 20
-139.438956952990280
 11
408.917025631386650
 21
-233.438956952990280
  0
ARC
  8
0
  6
CONTINUOUS
 62
3
 10
94.406068627369905
 20
-130.344686522669180
 40
70.000000000000341
 50
39.469308363517086
 51
88.999999999999716
  0
ARC
  8
0
  6
CONTINUOUS
 62
3
 10
150.127737077980100
 20
-163.688945669293330
 40
1.000000000000000
 50
90.000000000000000
 51
180.000000000000000
  0
ARC
  8
0
  6
CONTINUOUS
 62
3
 10
124.213878875303860
 20
-232.497275681664580
 40
3.000000000000000
 50
180.000000000000000
 51
268.000000000005000
  0
ARC
  8
0
  6
CONTINUOUS
 62
3
 10
148.342621965645090
 20
-233.339869957248030
 40
3.000000000000000
 50
180.000000000000000
 51
268.000000000005000
  0
ARC
  8
0
  6
CONTINUOUS
 62
3
 10
151.127737077980100
 20
-235.336023277411580
 40
2.000000000000000
 50
180.000000000000000
 51
233.130102354158570
  0
ARC
  8
0
  6
CONTINUOUS
 62
3
 10
148.127737077980100
 20
-239.336023277411580
 40
3.000000000000000
 50
0.000000000000000
 51
87.999999999996348
  0
ARC
  8
0
  6
CONTINUOUS
 62
3
 10
146.127737077980100
 20
-87.755145404160373
 40
3.000000000000000
 50
0.000000000000000
 51
39.469308363522465
  0
ARC
  8
0
  6
CONTINUOUS
 62
3
 10
150.127737077980100
 20
-94.688956952990281
 40
1.000000000000000
 50
180.000000000000000
 51
270.000000000000000
  0
ARC
  8
0
  6
CONTINUOUS
 62
3
 10
342.170025631386350
 20
-559.438956952990340
 40
472.746750336799830
 50
90.000000000000000
 51
91.910213171709955
  0
ARC
  8
0
  6
CONTINUOUS
 62
3
 10
356.170025631386350
 20
-139.672355137171450
 40
52.746750336800233
 50
0.000000000000000
 51
88.089786828289888
  0
ARC
  8
0
  6
CONTINUOUS
 62
3
 10
342.170025631386350
 20
-559.438956952990340
 40
472.746750336800230
 50
88.089786828290045
 51
90.000000000000000
  0
ARC
  8
0
  6
CONTINUOUS
 62
3
 10
342.170025631386350
 20
-559.438956952990340
 40
500.000000000000060
 50
90.000000000000000
 51
91.910213171709970
  0
ARC
  8
0
  6
CONTINUOUS
 62
3
 10
342.170025631386350
 20
-559.438956952990340
 40
500.000000000000110
 50
88.089786828290030
 51
90.000000000000000
  0
ARC
  8
0
  6
CONTINUOUS
 62
3
 10
356.170025631386350
 20
-139.672355137171450
 40
80.000000000000000
 50
0.000000000000000
 51
88.089786828289846
  0
ARC
  8
0
  6
CONTINUOUS
 62
3
 10
439.170025631386350
 20
-233.438956952990280
 40
3.000000000000000
 50
180.000000000000000
 51
270.000000000000000
  0
ARC
  8
0
  6
CONTINUOUS
 62
3
 10
245.170025631386350
 20
-233.438956952990280
 40
3.000000000000000
 50
270.000000000000000
 51
0.000000000000000
  0
ARC
  8
0
  6
CONTINUOUS
 62
3
 10
439.670025631386350
 20
-238.938956952990280
 40
2.500000000000000
 50
0.000000000000000
 51
90.000000000000000
  0
ARC
  8
0
  6
CONTINUOUS
 62
3
 10
410.170025631386350
 20
-254.438956952990280
 40
2.000000000000000
 50
0.000000000000000
 51
90.000000000000000
  0
ARC
  8
0
  6
CONTINUOUS
 62
3
 10
244.670025631386350
 20
-238.938956952990280
 40
2.500000000000000
 50
90.000000000000000
 51
180.000000000000000
  0
ARC
  8
0
  6
CONTINUOUS
 62
3
 10
274.170025631386350
 20
-254.438956952990280
 40
2.000000000000000
 50
90.000000000000000
 51
180.000000000000000
  0
ARC
  8
0
  6
CONTINUOUS
 62
3
 10
253.379236180080850
 20
-233.438956952990280
 40
3.000000000000000
 50
270.000000000000000
 51
0.000000000000000
  0
ARC
  8
0
  6
CONTINUOUS
 62
3
 10
268.798551492296840
 20
-233.438956952990280
 40
3.000000000000000
 50
270.000000000000000
 51
0.000000000000000
  0
ARC
  8
0
  6
CONTINUOUS
 62
3
 10
415.541499770475870
 20
-233.438956952990280
 40
3.000000000000000
 50
180.000000000000000
 51
270.000000000000000
  0
ARC
  8
0
  6
CONTINUOUS
 62
3
 10
430.960815082691850
 20
-233.438956952990280
 40
3.000000000000000
 50
180.000000000000000
 51
270.000000000000000
  0
ARC
  8
0
  6
CONTINUOUS
 62
3
 10
272.423025631386050
 20
-233.438956952990280
 40
3.000000000000000
 50
270.000000000000000
 51
0.000000000000000
  0
ARC
  8
0
  6
CONTINUOUS
 62
3
 10
411.917025631386650
 20
-233.438956952990280
 40
3.000000000000000
 50
180.000000000000000
 51
270.000000000000000
  0
LINE
  8
0
  6
CONTINUOUS
 62
3
 10
121.127737077980100
 20
-235.391333868237720
 11
148.232435568087790
 21
-236.337850796354300
  0
LINE
  8
0
  6
CONTINUOUS
 62
3
 10
45.127737077980100
 20
-198.384863356812670
 11
45.127737077980100
 21
-215.536152558262020
  0
ARC
  8
0
  6
CONTINUOUS
 62
3
 10
43.127737077980100
 20
-198.384863356812670
 40
2.000000000000000
 50
0.000000000000000
 51
90.000000000000000
  0
LINE
  8
0
  6
DASHDOT
 62
4
 10
365.337938630267900
 20
-44.438956952990281
 11
318.315424728733210
 21
-44.438956952990281
  0
ARC
  8
0
  6
CONTINUOUS
 62
3
 10
352.670025631386350
 20
-34.438956952990281
 40
10.000000000000000
 50
0.000000000000000
 51
90.000000000000000
  0
LINE
  8
0
  6
CONTINUOUS
 62
3
 10
362.670025631386350
 20
-34.438956952990281
 11
362.670025631386350
 21
-59.438949992125742
  0
CIRCLE
  8
0
  6
CONTINUOUS
 62
3
 10
342.170025631386350
 20
-44.438956952990281
 40
10.000000000000000
  0
LINE
  8
0
  6
CONTINUOUS
 62
3
 10
321.670025631386350
 20
-34.438956952990281
 11
321.670025631386350
 21
-59.936854887910101
  0
ARC
  8
0
  6
CONTINUOUS
 62
3
 10
331.670025631386350
 20
-34.438956952990281
 40
10.000000000000000
 50
90.000000000000000
 51
180.000000000000000
  0
LINE
  8
0
  6
CONTINUOUS
 62
3
 10
352.670025631386350
 20
-24.438956952990281
 11
331.670025631386350
 21
-24.438956952990281
  0
LINE
  8
0
  6
CONTINUOUS
 62
3
 10
323.170025631385440
 20
-134.438956952990280
 11
331.170025631385440
 21
-134.438956952990280
  0
LINE
  8
0
  6
CONTINUOUS
 62
3
 10
331.170025631385440
 20
-134.438956952990280
 11
331.170025631385440
 21
-124.438956952990280
  0
ARC
  8
0
  6
CONTINUOUS
 62
3
 10
342.170025631385440
 20
-129.438956952990280
 40
16.000000000000192
 50
198.209956864282790
 51
161.790043135717210
  0
LINE
  8
0
  6
CONTINUOUS
 62
3
 10
323.170025631385440
 20
-134.438956952990280
 11
323.170025631385440
 21
-124.438956952990280
  0
LINE
  8
0
  6
CONTINUOUS
 62
3
 10
323.170025631385440
 20
-124.438956952990280
 11
331.170025631385440
 21
-124.438956952990280
  0
LINE
  8
0
  6
CONTINUOUS
 62
3
 10
203.127737078001930
 20
-129.438956952990280
 11
203.127737078001930
 21
-113.838956952989910
  0
ARC
  8
0
  6
CONTINUOUS
 62
3
 10
202.727737078001840
 20
-113.838956952989910
 40
0.400000000000091
 50
0.000000000000000
 51
90.000000000000000
  0
LINE
  8
0
  6
CONTINUOUS
 62
3
 10
202.727737078001840
 20
-113.438956952990280
 11
155.687544699137330
 21
-113.438956952990280
  0
LINE
  8
0
  6
CONTINUOUS
 62
3
 10
155.127737078001930
 20
-113.588956952989910
 11
155.687544699137330
 21
-113.438956952990280
  0
LINE
  8
0
  6
CONTINUOUS
 62
3
 10
155.127737078001930
 20
-113.588956952989910
 11
153.927737078002110
 21
-113.588956952989910
  0
LINE
  8
0
  6
CONTINUOUS
 62
3
 10
151.127737077980100
 20
-112.438956952990280
 11
152.927737078002110
 21
-112.438956952990280
  0
LINE
  8
0
  6
CONTINUOUS
 62
3
 10
153.127737078001930
 20
-112.638956952990100
 11
153.127737078001930
 21
-129.438956952990280
  0
ARC
  8
0
  6
CONTINUOUS
 62
3
 10
153.927737078002110
 20
-112.788956952990190
 40
0.800000000000237
 50
183.703196634280290
 51
270.000000000000000
  0
LINE
  8
0
  6
CONTINUOUS
 62
3
 10
153.127737078001930
 20
-112.638956952990100
 11
152.927737078002110
 21
-112.438956952990280
  0
LINE
  8
0
  6
CONTINUOUS
 62
3
 10
155.127737078001930
 20
-145.288956952990190
 11
155.687544699137330
 21
-145.438956952990280
  0
LINE
  8
0
  6
CONTINUOUS
 62
3
 10
151.127737077980100
 20
-146.438956952990280
 11
152.927737078002110
 21
-146.438956952990280
  0
LINE
  8
0
  6
CONTINUOUS
 62
3
 10
202.727737078001840
 20
-145.438956952990280
 11
155.687544699137330
 21
-145.438956952990280
  0
LINE
  8
0
  6
CONTINUOUS
 62
3
 10
155.127737078001930
 20
-145.288956952990190
 11
153.927737078002110
 21
-145.288956952990190
  0
LINE
  8
0
  6
CONTINUOUS
 62
3
 10
153.127737078001930
 20
-146.238956952990010
 11
153.127737078001930
 21
-129.438956952990280
  0
ARC
  8
0
  6
CONTINUOUS
 62
3
 10
153.927737078002110
 20
-146.088956952989920
 40
0.799999999999727
 50
90.000000000000000
 51
176.296803365752200
  0
LINE
  8
0
  6
CONTINUOUS
 62
3
 10
153.127737078001930
 20
-146.238956952990010
 11
152.927737078002110
 21
-146.438956952990280
  0
LINE
  8
0
  6
CONTINUOUS
 62
3
 10
203.127737078001930
 20
-129.438956952990280
 11
203.127737078001930
 21
-145.038956952990190
  0
ARC
  8
0
  6
CONTINUOUS
 62
3
 10
202.727737078001840
 20
-145.038956952990190
 40
0.400000000000091
 50
270.000000000000000
 51
0.000000000000000
  0
CIRCLE
  8
0
  6
CONTINUOUS
 62
3
 10
342.170025631386350
 20
-129.438956952990280
 40
3.323500000000024
  0
CIRCLE
  8
0
  6
CONTINUOUS
 62
4
 10
342.170025631386350
 20
-129.438956952990280
 40
4.000000000000000
  0
LINE
  8
0
  6
CONTINUOUS
 62
3
 10
30.627737077977372
 20
-143.903058568127960
 11
30.627737077977372
 21
-229.227355948982170
  0
LINE
  8
0
  6
CONTINUOUS
 62
3
 10
203.127737078001930
 20
-124.438956952990280
 11
163.127737078002840
 21
-124.438956952990280
  0
LINE
  8
0
  6
CONTINUOUS
 62
3
 10
203.127737078001930
 20
-134.438956952990280
 11
163.127737078002840
 21
-134.438956952990280
  0
ARC
  8
0
  6
CONTINUOUS
 62
3
 10
163.127737078002840
 20
-129.438956952990280
 40
5.000000000000000
 50
90.000000000000000
 51
270.000000000000000
  0
ARC
  8
0
  6
CONTINUOUS
 62
3
 10
27.627737077981919
 20
-96.912888218976093
 40
2.999999999999901
 50
272.999999999988290
 51
0.000000000000000
  0
ARC
  8
0
  6
CONTINUOUS
 62
3
 10
27.627737077977372
 20
-224.957919934087330
 40
3.000000000000000
 50
0.000000000000000
 51
86.999999999994344
  0
ARC
  8
0
  6
DASHED
 62
3
 10
33.627737077983738
 20
-62.438956952989372
 40
3.000000000000000
 50
90.000000000000000
 51
180.000000000000000
  0
LINE
  8
0
  6
CONTINUOUS
 62
3
 10
30.627737077977372
 20
-62.438956952989372
 11
30.627737077977372
 21
-124.974855337852600
  0
LINE
  8
0
  6
CONTINUOUS
 62
3
 10
42.627737077977372
 20
-159.438956952990280
 11
42.627737077977372
 21
-218.643853331611300
  0
LINE
  8
0
  6
CONTINUOUS
 62
3
 10
42.627737077979191
 20
-159.438956952990280
 11
42.627737077983738
 21
-59.438956952990281
  0
ENDSEC
  0
EOF
