  0
SECTION
  2
HEADER
  9
$FILLMODE
 70
1
  9
$TEXTSTYLE
  7
STANDARD1
  9
$ACADVER
  1
AC1009
  9
$DIMASZ
 40
1.931851648807023
  9
$DIMEXE
 40
2.000000000000000
  9
$DIMEXO
 40
1.000000000000000
  9
$DIMLFAC
 40
1.000000000000000
  9
$DIMSCALE
 40
1.000000000000000
  9
$DIMTAD
 70
1
  9
$DIMTFAC
 40
0.714285731315613
  9
$DIMTXT
 40
3.200000047683716
  9
$LUPREC
 70
3
  9
$TEXTSIZE
 40
2.799999952316284
  9
$REGENMODE
 70
1
  0
ENDSEC
  0
SECTION
  2
TABLES
  0
TABLE
  2
LTYPE
 70
4
  0
LTYPE
  2
CONTINUOUS
 70
64
  3
Solid line
 72
65
 73
0
 40
0.0
  0
LTYPE
  2
DASHED
 70
64
  3
-- -- -- -- -- -- -- -- -- -- -- -- -- -- --
 72
65
 73
2
 40
0.75
 49
0.5
 49
-0.25
  0
LTYPE
  2
DASHDOT
 70
64
  3
__ . __ . __ . __ . __ . __ . __ . __ . __ . __
 72
65
 73
4
 40
1.0
 49
0.5
 49
-0.25
 49
0.0
 49
-0.25
  0
LTYPE
  2
DIVIDE
 70
64
  3
__ . . __ . . __ . . __ . . __ . . __ . . __
 72
65
 73
6
 40
1.25
 49
0.5
 49
-0.25
 49
0.0
 49
-0.25
 49
0.0
 49
-0.25
  0
ENDTAB
  0
TABLE
  2
LAYER
 70
1
  0
LAYER
  2
0
 70
64
 62
2
  6
CONTINUOUS
  0
ENDTAB
  0
TABLE
  2
STYLE
 70
4
  0
STYLE
  2
STANDARD1
 70
64
 40
0.0
 41
1.0
 50
0.0
 71
0
 42
2.799999952316284
  3
MONOTXT
  4
BIGFONT
  0
STYLE
  2
STANDARD2
 70
68
 40
0.0
 41
1.0
 50
0.0
 71
0
 42
2.799999952316284
  3
MONOTXT
  4
BIGFONT
  0
STYLE
  2
STANDARD3
 70
64
 40
0.0
 41
1.0
 50
0.0
 71
0
 42
2.799999952316284
  3
MONOTXT
  4

  0
STYLE
  2
STANDARD4
 70
68
 40
0.0
 41
1.0
 50
0.0
 71
0
 42
2.799999952316284
  3
MONOTXT
  4

  0
ENDTAB
  0
TABLE
  2
VIEW
 70
0
  0
ENDTAB
  0
ENDSEC
  0
SECTION
  2
BLOCKS
  0
BLOCK
  8
0
  2
SYM1
 70
64
 10
0.000000000000000
 20
0.000000000000000
  0
LINE
  8
0
  6
CONTINUOUS
 62
3
 10
-7.499999046325684
 20
6.500000000000000
 11
-7.499999046325684
 21
-6.500000000000000
  0
LINE
  8
0
  6
CONTINUOUS
 62
3
 10
-7.499997911632022
 20
-6.499999445138201
 11
-7.999998623386432
 21
-5.634070287011241
  0
LINE
  8
0
  6
CONTINUOUS
 62
3
 10
-7.499999203818277
 20
6.499999909101064
 11
-7.999999021366804
 21
5.633876130311293
  0
LINE
  8
0
  6
CONTINUOUS
 62
3
 10
-0.000000000000000
 20
-6.500000000000000
 11
-7.499998092651367
 21
-6.500000000000000
  0
LINE
  8
0
  6
CONTINUOUS
 62
3
 10
0.000000000000000
 20
6.500000000000000
 11
-7.499999046325684
 21
6.500000000000000
  0
LINE
  8
0
  6
CONTINUOUS
 62
3
 10
-7.999999046325684
 20
5.633875846862793
 11
-7.999999046325684
 21
-5.634070396423340
  0
LINE
  8
0
  6
CONTINUOUS
 62
3
 10
0.000000000000000
 20
-6.500000000000000
 11
-0.000000000000000
 21
6.500000000000000
  0
POINT
  8
0
  6
CONTINUOUS
 62
3
 10
0.000000000000000
 20
0.000000000000000
  0
ENDBLK
  8
0
  0
BLOCK
  8
0
  2
SYM2
 70
64
 10
0.000000000000000
 20
0.000000000000000
  0
LINE
  8
0
  6
CONTINUOUS
 62
3
 10
-7.499999046325684
 20
6.500000000000000
 11
-7.499999046325684
 21
-6.500000000000000
  0
LINE
  8
0
  6
CONTINUOUS
 62
3
 10
-7.499997911632022
 20
-6.499999445138201
 11
-7.999998623386432
 21
-5.634070287011241
  0
LINE
  8
0
  6
CONTINUOUS
 62
3
 10
-7.499999203818277
 20
6.499999909101064
 11
-7.999999021366804
 21
5.633876130311293
  0
LINE
  8
0
  6
CONTINUOUS
 62
3
 10
-0.000000000000000
 20
-6.500000000000000
 11
-7.499998092651367
 21
-6.500000000000000
  0
LINE
  8
0
  6
CONTINUOUS
 62
3
 10
0.000000000000000
 20
6.500000000000000
 11
-7.499999046325684
 21
6.500000000000000
  0
LINE
  8
0
  6
CONTINUOUS
 62
3
 10
-7.999999046325684
 20
5.633875846862793
 11
-7.999999046325684
 21
-5.634070396423340
  0
LINE
  8
0
  6
CONTINUOUS
 62
3
 10
0.000000000000000
 20
-6.500000000000000
 11
-0.000000000000000
 21
6.500000000000000
  0
POINT
  8
0
  6
CONTINUOUS
 62
3
 10
0.000000000000000
 20
0.000000000000000
  0
ENDBLK
  8
0
  0
BLOCK
  8
0
  2
SYM3
 70
64
 10
0.000000000000000
 20
0.000000000000000
  0
POINT
  8
0
  6
CONTINUOUS
 62
3
 10
0.000000000000000
 20
0.000000000000000
  0
LINE
  8
0
  6
CONTINUOUS
 62
3
 10
-0.000017659877873
 20
-4.599998474126673
 11
-3.000017102555891
 21
-4.599986076361044
  0
LINE
  8
0
  6
CONTINUOUS
 62
3
 10
-2.999996095884057
 20
-4.599969847145871
 11
-3.499991138206155
 21
-3.899966512616629
  0
LINE
  8
0
  6
CONTINUOUS
 62
3
 10
-3.500011920918244
 20
-3.899979774771439
 11
-3.499980449679529
 21
3.900009925545944
  0
LINE
  8
0
  6
CONTINUOUS
 62
3
 10
-3.499965125831864
 20
3.900000017678906
 11
-2.999963510759926
 21
4.599997551336457
  0
LINE
  8
0
  6
CONTINUOUS
 62
3
 10
-2.999979146307184
 20
4.600011825551216
 11
0.000019104623546
 21
4.600001335133485
  0
LINE
  8
0
  6
CONTINUOUS
 62
3
 10
0.000018950048186
 20
4.600000381469727
 11
-0.000018950048186
 21
-4.600000381469727
  0
LINE
  8
0
  6
CONTINUOUS
 62
3
 10
-3.000007597599688
 20
-2.299985885626180
 11
-0.000008155921205
 21
-2.299998283391806
  0
LINE
  8
0
  6
CONTINUOUS
 62
3
 10
-2.999989096318101
 20
2.300010681148706
 11
0.000009475023974
 21
2.300000190729854
  0
ARC
  8
0
  6
CONTINUOUS
 62
3
 10
-1.930013656616211
 20
-3.449991226196289
 40
1.569999694824219
 50
132.899744492600430
 51
179.999745461767870
  0
ARC
  8
0
  6
CONTINUOUS
 62
3
 10
-1.929986000061035
 20
3.450007438659668
 40
1.569999694824219
 50
179.999745461767870
 51
227.099746430935310
  0
ARC
  8
0
  6
CONTINUOUS
 62
3
 10
2.040000915527344
 20
-0.000008403939319
 40
5.539999008178711
 50
155.470186567177590
 51
204.529249714844780
  0
ENDBLK
  8
0
  0
BLOCK
  8
0
  2
SYM4
 70
64
 10
0.000000000000000
 20
0.000000000000000
  0
LINE
  8
0
  6
CONTINUOUS
 62
3
 10
-7.499999046325684
 20
6.500000000000000
 11
-7.499999046325684
 21
-6.500000000000000
  0
LINE
  8
0
  6
CONTINUOUS
 62
3
 10
-7.499997911632022
 20
-6.499999445138201
 11
-7.999998623386432
 21
-5.634070287011241
  0
LINE
  8
0
  6
CONTINUOUS
 62
3
 10
-7.499999203818277
 20
6.499999909101064
 11
-7.999999021366804
 21
5.633876130311293
  0
LINE
  8
0
  6
CONTINUOUS
 62
3
 10
-0.000000000000000
 20
-6.500000000000000
 11
-7.499998092651367
 21
-6.500000000000000
  0
LINE
  8
0
  6
CONTINUOUS
 62
3
 10
0.000000000000000
 20
6.500000000000000
 11
-7.499999046325684
 21
6.500000000000000
  0
LINE
  8
0
  6
CONTINUOUS
 62
3
 10
-7.999999046325684
 20
5.633875846862793
 11
-7.999999046325684
 21
-5.634070396423340
  0
LINE
  8
0
  6
CONTINUOUS
 62
3
 10
0.000000000000000
 20
-6.500000000000000
 11
-0.000000000000000
 21
6.500000000000000
  0
POINT
  8
0
  6
CONTINUOUS
 62
3
 10
0.000000000000000
 20
0.000000000000000
  0
ENDBLK
  8
0
  0
BLOCK
  8
0
  2
SYM5
 70
64
 10
0.000000000000000
 20
0.000000000000000
  0
POINT
  8
0
  6
CONTINUOUS
 62
3
 10
0.000000000000000
 20
0.000000000000000
  0
LINE
  8
0
  6
CONTINUOUS
 62
3
 10
-0.000017659877873
 20
-4.599998474126673
 11
-3.000017102555891
 21
-4.599986076361044
  0
LINE
  8
0
  6
CONTINUOUS
 62
3
 10
-2.999996095884057
 20
-4.599969847145871
 11
-3.499991138206155
 21
-3.899966512616629
  0
LINE
  8
0
  6
CONTINUOUS
 62
3
 10
-3.500011920918244
 20
-3.899979774771439
 11
-3.499980449679529
 21
3.900009925545944
  0
LINE
  8
0
  6
CONTINUOUS
 62
3
 10
-3.499965125831864
 20
3.900000017678906
 11
-2.999963510759926
 21
4.599997551336457
  0
LINE
  8
0
  6
CONTINUOUS
 62
3
 10
-2.999979146307184
 20
4.600011825551216
 11
0.000019104623546
 21
4.600001335133485
  0
LINE
  8
0
  6
CONTINUOUS
 62
3
 10
0.000018950048186
 20
4.600000381469727
 11
-0.000018950048186
 21
-4.600000381469727
  0
LINE
  8
0
  6
CONTINUOUS
 62
3
 10
-3.000007597599688
 20
-2.299985885626180
 11
-0.000008155921205
 21
-2.299998283391806
  0
LINE
  8
0
  6
CONTINUOUS
 62
3
 10
-2.999989096318101
 20
2.300010681148706
 11
0.000009475023974
 21
2.300000190729854
  0
ARC
  8
0
  6
CONTINUOUS
 62
3
 10
-1.930013656616211
 20
-3.449991226196289
 40
1.569999694824219
 50
132.899744492600430
 51
179.999745461767870
  0
ARC
  8
0
  6
CONTINUOUS
 62
3
 10
-1.929986000061035
 20
3.450007438659668
 40
1.569999694824219
 50
179.999745461767870
 51
227.099746430935310
  0
ARC
  8
0
  6
CONTINUOUS
 62
3
 10
2.040000915527344
 20
-0.000008403939319
 40
5.539999008178711
 50
155.470186567177590
 51
204.529249714844780
  0
ENDBLK
  8
0
  0
BLOCK
  8
0
  2
SYM6
 70
64
 10
0.000000000000000
 20
0.000000000000000
  0
POINT
  8
0
  6
CONTINUOUS
 62
3
 10
0.000000000000000
 20
0.000000000000000
  0
LINE
  8
0
  6
CONTINUOUS
 62
3
 10
-0.000017659877873
 20
-4.599998474126673
 11
-3.000017102555891
 21
-4.599986076361044
  0
LINE
  8
0
  6
CONTINUOUS
 62
3
 10
-2.999996095884057
 20
-4.599969847145871
 11
-3.499991138206155
 21
-3.899966512616629
  0
LINE
  8
0
  6
CONTINUOUS
 62
3
 10
-3.500011920918244
 20
-3.899979774771439
 11
-3.499980449679529
 21
3.900009925545944
  0
LINE
  8
0
  6
CONTINUOUS
 62
3
 10
-3.499965125831864
 20
3.900000017678906
 11
-2.999963510759926
 21
4.599997551336457
  0
LINE
  8
0
  6
CONTINUOUS
 62
3
 10
-2.999979146307184
 20
4.600011825551216
 11
0.000019104623546
 21
4.600001335133485
  0
LINE
  8
0
  6
CONTINUOUS
 62
3
 10
0.000018950048186
 20
4.600000381469727
 11
-0.000018950048186
 21
-4.600000381469727
  0
LINE
  8
0
  6
CONTINUOUS
 62
3
 10
-3.000007597599688
 20
-2.299985885626180
 11
-0.000008155921205
 21
-2.299998283391806
  0
LINE
  8
0
  6
CONTINUOUS
 62
3
 10
-2.999989096318101
 20
2.300010681148706
 11
0.000009475023974
 21
2.300000190729854
  0
ARC
  8
0
  6
CONTINUOUS
 62
3
 10
-1.930013656616211
 20
-3.449991226196289
 40
1.569999694824219
 50
132.899744492600430
 51
179.999745461767870
  0
ARC
  8
0
  6
CONTINUOUS
 62
3
 10
-1.929986000061035
 20
3.450007438659668
 40
1.569999694824219
 50
179.999745461767870
 51
227.099746430935310
  0
ARC
  8
0
  6
CONTINUOUS
 62
3
 10
2.040000915527344
 20
-0.000008403939319
 40
5.539999008178711
 50
155.470186567177590
 51
204.529249714844780
  0
ENDBLK
  8
0
  0
BLOCK
  8
0
  2
SYM7
 70
64
 10
0.000000000000000
 20
0.000000000000000
  0
POINT
  8
0
  6
CONTINUOUS
 62
3
 10
0.000000000000000
 20
0.000000000000000
  0
LINE
  8
0
  6
CONTINUOUS
 62
3
 10
-0.000017659877873
 20
-4.599998474126673
 11
-3.000017102555891
 21
-4.599986076361044
  0
LINE
  8
0
  6
CONTINUOUS
 62
3
 10
-2.999996095884057
 20
-4.599969847145871
 11
-3.499991138206155
 21
-3.899966512616629
  0
LINE
  8
0
  6
CONTINUOUS
 62
3
 10
-3.500011920918244
 20
-3.899979774771439
 11
-3.499980449679529
 21
3.900009925545944
  0
LINE
  8
0
  6
CONTINUOUS
 62
3
 10
-3.499965125831864
 20
3.900000017678906
 11
-2.999963510759926
 21
4.599997551336457
  0
LINE
  8
0
  6
CONTINUOUS
 62
3
 10
-2.999979146307184
 20
4.600011825551216
 11
0.000019104623546
 21
4.600001335133485
  0
LINE
  8
0
  6
CONTINUOUS
 62
3
 10
0.000018950048186
 20
4.600000381469727
 11
-0.000018950048186
 21
-4.600000381469727
  0
LINE
  8
0
  6
CONTINUOUS
 62
3
 10
-3.000007597599688
 20
-2.299985885626180
 11
-0.000008155921205
 21
-2.299998283391806
  0
LINE
  8
0
  6
CONTINUOUS
 62
3
 10
-2.999989096318101
 20
2.300010681148706
 11
0.000009475023974
 21
2.300000190729854
  0
ARC
  8
0
  6
CONTINUOUS
 62
3
 10
-1.930013656616211
 20
-3.449991226196289
 40
1.569999694824219
 50
132.899744492600430
 51
179.999745461767870
  0
ARC
  8
0
  6
CONTINUOUS
 62
3
 10
-1.929986000061035
 20
3.450007438659668
 40
1.569999694824219
 50
179.999745461767870
 51
227.099746430935310
  0
ARC
  8
0
  6
CONTINUOUS
 62
3
 10
2.040000915527344
 20
-0.000008403939319
 40
5.539999008178711
 50
155.470186567177590
 51
204.529249714844780
  0
ENDBLK
  8
0
  0
BLOCK
  8
0
  2
SYM8
 70
64
 10
0.000000000000000
 20
0.000000000000000
  0
LINE
  8
0
  6
CONTINUOUS
 62
3
 10
-7.499999046325684
 20
6.500000000000000
 11
-7.499999046325684
 21
-6.500000000000000
  0
LINE
  8
0
  6
CONTINUOUS
 62
3
 10
-7.499997911632022
 20
-6.499999445138201
 11
-7.999998623386432
 21
-5.634070287011241
  0
LINE
  8
0
  6
CONTINUOUS
 62
3
 10
-7.499999203818277
 20
6.499999909101064
 11
-7.999999021366804
 21
5.633876130311293
  0
LINE
  8
0
  6
CONTINUOUS
 62
3
 10
-0.000000000000000
 20
-6.500000000000000
 11
-7.499998092651367
 21
-6.500000000000000
  0
LINE
  8
0
  6
CONTINUOUS
 62
3
 10
0.000000000000000
 20
6.500000000000000
 11
-7.499999046325684
 21
6.500000000000000
  0
LINE
  8
0
  6
CONTINUOUS
 62
3
 10
-7.999999046325684
 20
5.633875846862793
 11
-7.999999046325684
 21
-5.634070396423340
  0
LINE
  8
0
  6
CONTINUOUS
 62
3
 10
0.000000000000000
 20
-6.500000000000000
 11
-0.000000000000000
 21
6.500000000000000
  0
POINT
  8
0
  6
CONTINUOUS
 62
3
 10
0.000000000000000
 20
0.000000000000000
  0
ENDBLK
  8
0
  0
BLOCK
  8
0
  2
SYM9
 70
64
 10
0.000000000000000
 20
0.000000000000000
  0
LINE
  8
0
  6
CONTINUOUS
 62
3
 10
-7.499999046325684
 20
6.500000000000000
 11
-7.499999046325684
 21
-6.500000000000000
  0
LINE
  8
0
  6
CONTINUOUS
 62
3
 10
-7.499997911632022
 20
-6.499999445138201
 11
-7.999998623386432
 21
-5.634070287011241
  0
LINE
  8
0
  6
CONTINUOUS
 62
3
 10
-7.499999203818277
 20
6.499999909101064
 11
-7.999999021366804
 21
5.633876130311293
  0
LINE
  8
0
  6
CONTINUOUS
 62
3
 10
-0.000000000000000
 20
-6.500000000000000
 11
-7.499998092651367
 21
-6.500000000000000
  0
LINE
  8
0
  6
CONTINUOUS
 62
3
 10
0.000000000000000
 20
6.500000000000000
 11
-7.499999046325684
 21
6.500000000000000
  0
LINE
  8
0
  6
CONTINUOUS
 62
3
 10
-7.999999046325684
 20
5.633875846862793
 11
-7.999999046325684
 21
-5.634070396423340
  0
LINE
  8
0
  6
CONTINUOUS
 62
3
 10
0.000000000000000
 20
-6.500000000000000
 11
-0.000000000000000
 21
6.500000000000000
  0
POINT
  8
0
  6
CONTINUOUS
 62
3
 10
0.000000000000000
 20
0.000000000000000
  0
ENDBLK
  8
0
  0
BLOCK
  8
0
  2
SYM10
 70
64
 10
0.000000000000000
 20
0.000000000000000
  0
LINE
  8
0
  6
CONTINUOUS
 62
3
 10
-7.499999046325684
 20
6.500000000000000
 11
-7.499999046325684
 21
-6.500000000000000
  0
LINE
  8
0
  6
CONTINUOUS
 62
3
 10
-7.499997911632022
 20
-6.499999445138201
 11
-7.999998623386432
 21
-5.634070287011241
  0
LINE
  8
0
  6
CONTINUOUS
 62
3
 10
-7.499999203818277
 20
6.499999909101064
 11
-7.999999021366804
 21
5.633876130311293
  0
LINE
  8
0
  6
CONTINUOUS
 62
3
 10
-0.000000000000000
 20
-6.500000000000000
 11
-7.499998092651367
 21
-6.500000000000000
  0
LINE
  8
0
  6
CONTINUOUS
 62
3
 10
0.000000000000000
 20
6.500000000000000
 11
-7.499999046325684
 21
6.500000000000000
  0
LINE
  8
0
  6
CONTINUOUS
 62
3
 10
-7.999999046325684
 20
5.633875846862793
 11
-7.999999046325684
 21
-5.634070396423340
  0
LINE
  8
0
  6
CONTINUOUS
 62
3
 10
0.000000000000000
 20
-6.500000000000000
 11
-0.000000000000000
 21
6.500000000000000
  0
POINT
  8
0
  6
CONTINUOUS
 62
3
 10
0.000000000000000
 20
0.000000000000000
  0
ENDBLK
  8
0
  0
BLOCK
  8
0
  2
SYM11
 70
64
 10
0.000000000000000
 20
0.000000000000000
  0
LINE
  8
0
  6
CONTINUOUS
 62
3
 10
-7.499999046325684
 20
6.500000000000000
 11
-7.499999046325684
 21
-6.500000000000000
  0
LINE
  8
0
  6
CONTINUOUS
 62
3
 10
-7.499997911632022
 20
-6.499999445138201
 11
-7.999998623386432
 21
-5.634070287011241
  0
LINE
  8
0
  6
CONTINUOUS
 62
3
 10
-7.499999203818277
 20
6.499999909101064
 11
-7.999999021366804
 21
5.633876130311293
  0
LINE
  8
0
  6
CONTINUOUS
 62
3
 10
-0.000000000000000
 20
-6.500000000000000
 11
-7.499998092651367
 21
-6.500000000000000
  0
LINE
  8
0
  6
CONTINUOUS
 62
3
 10
0.000000000000000
 20
6.500000000000000
 11
-7.499999046325684
 21
6.500000000000000
  0
LINE
  8
0
  6
CONTINUOUS
 62
3
 10
-7.999999046325684
 20
5.633875846862793
 11
-7.999999046325684
 21
-5.634070396423340
  0
LINE
  8
0
  6
CONTINUOUS
 62
3
 10
0.000000000000000
 20
-6.500000000000000
 11
-0.000000000000000
 21
6.500000000000000
  0
POINT
  8
0
  6
CONTINUOUS
 62
3
 10
0.000000000000000
 20
0.000000000000000
  0
ENDBLK
  8
0
  0
BLOCK
  8
0
  2
SYM12
 70
64
 10
0.000000000000000
 20
0.000000000000000
  0
POINT
  8
0
  6
CONTINUOUS
 62
3
 10
0.000000000000000
 20
5.633955001831055
  0
POINT
  8
0
  6
CONTINUOUS
 62
3
 10
0.500000119209290
 20
6.500000000000000
  0
LINE
  8
0
  6
CONTINUOUS
 62
3
 10
-0.000004704988612
 20
-3.464098175748802
 11
-2.999997577100373
 21
-1.732046218032735
  0
LINE
  8
0
  6
CONTINUOUS
 62
3
 10
0.000006618601731
 20
3.464096896385627
 11
2.999997425948948
 21
1.732046782136365
  0
LINE
  8
0
  6
CONTINUOUS
 62
3
 10
2.999998112093635
 20
-1.732051392778772
 11
-0.000004464412200
 21
-3.464098365415111
  0
LINE
  8
0
  6
CONTINUOUS
 62
3
 10
0.000006701720849
 20
3.464096999935236
 11
-2.999997939551520
 21
1.732051821705568
  0
LINE
  8
0
  6
CONTINUOUS
 62
3
 10
2.999996662140697
 20
1.732046953225571
 11
2.999997615814979
 21
-1.732051023458999
  0
LINE
  8
0
  6
CONTINUOUS
 62
3
 10
-2.999996662140960
 20
-1.732045999551255
 11
-2.999997615815242
 21
1.732051977133316
  0
POINT
  8
0
  6
CONTINUOUS
 62
3
 10
0.000000000000000
 20
0.000000000000000
  0
CIRCLE
  8
0
  6
CONTINUOUS
 62
3
 10
0.000000000000000
 20
0.000000000000000
 40
6.500000000000000
  0
CIRCLE
  8
0
  6
CONTINUOUS
 62
3
 10
0.000000000000000
 20
0.000000000000000
 40
5.633955001831055
  0
ENDBLK
  8
0
  0
BLOCK
  8
0
  2
SYM13
 70
64
 10
0.000000000000000
 20
0.000000000000000
  0
POINT
  8
0
  6
CONTINUOUS
 62
3
 10
0.000000000000000
 20
5.633955001831055
  0
POINT
  8
0
  6
CONTINUOUS
 62
3
 10
0.500000119209290
 20
6.500000000000000
  0
LINE
  8
0
  6
CONTINUOUS
 62
3
 10
-0.000004704988612
 20
-3.464098175748802
 11
-2.999997577100373
 21
-1.732046218032735
  0
LINE
  8
0
  6
CONTINUOUS
 62
3
 10
0.000006618601731
 20
3.464096896385627
 11
2.999997425948948
 21
1.732046782136365
  0
LINE
  8
0
  6
CONTINUOUS
 62
3
 10
2.999998112093635
 20
-1.732051392778772
 11
-0.000004464412200
 21
-3.464098365415111
  0
LINE
  8
0
  6
CONTINUOUS
 62
3
 10
0.000006701720849
 20
3.464096999935236
 11
-2.999997939551520
 21
1.732051821705568
  0
LINE
  8
0
  6
CONTINUOUS
 62
3
 10
2.999996662140697
 20
1.732046953225571
 11
2.999997615814979
 21
-1.732051023458999
  0
LINE
  8
0
  6
CONTINUOUS
 62
3
 10
-2.999996662140960
 20
-1.732045999551255
 11
-2.999997615815242
 21
1.732051977133316
  0
POINT
  8
0
  6
CONTINUOUS
 62
3
 10
0.000000000000000
 20
0.000000000000000
  0
CIRCLE
  8
0
  6
CONTINUOUS
 62
3
 10
0.000000000000000
 20
0.000000000000000
 40
6.500000000000000
  0
CIRCLE
  8
0
  6
CONTINUOUS
 62
3
 10
0.000000000000000
 20
0.000000000000000
 40
5.633955001831055
  0
ENDBLK
  8
0
  0
BLOCK
  8
0
  2
SYM14
 70
64
 10
0.000000000000000
 20
0.000000000000000
  0
POINT
  8
0
  6
CONTINUOUS
 62
3
 10
0.000000000000000
 20
5.633955001831055
  0
POINT
  8
0
  6
CONTINUOUS
 62
3
 10
0.500000119209290
 20
6.500000000000000
  0
LINE
  8
0
  6
CONTINUOUS
 62
3
 10
-0.000004704988612
 20
-3.464098175748802
 11
-2.999997577100373
 21
-1.732046218032735
  0
LINE
  8
0
  6
CONTINUOUS
 62
3
 10
0.000006618601731
 20
3.464096896385627
 11
2.999997425948948
 21
1.732046782136365
  0
LINE
  8
0
  6
CONTINUOUS
 62
3
 10
2.999998112093635
 20
-1.732051392778772
 11
-0.000004464412200
 21
-3.464098365415111
  0
LINE
  8
0
  6
CONTINUOUS
 62
3
 10
0.000006701720849
 20
3.464096999935236
 11
-2.999997939551520
 21
1.732051821705568
  0
LINE
  8
0
  6
CONTINUOUS
 62
3
 10
2.999996662140697
 20
1.732046953225571
 11
2.999997615814979
 21
-1.732051023458999
  0
LINE
  8
0
  6
CONTINUOUS
 62
3
 10
-2.999996662140960
 20
-1.732045999551255
 11
-2.999997615815242
 21
1.732051977133316
  0
POINT
  8
0
  6
CONTINUOUS
 62
3
 10
0.000000000000000
 20
0.000000000000000
  0
CIRCLE
  8
0
  6
CONTINUOUS
 62
3
 10
0.000000000000000
 20
0.000000000000000
 40
6.500000000000000
  0
CIRCLE
  8
0
  6
CONTINUOUS
 62
3
 10
0.000000000000000
 20
0.000000000000000
 40
5.633955001831055
  0
ENDBLK
  8
0
  0
BLOCK
  8
0
  2
SYM15
 70
64
 10
0.000000000000000
 20
0.000000000000000
  0
CIRCLE
  8
0
  6
CONTINUOUS
 62
3
 10
0.000000000000000
 20
0.000000000000000
 40
4.000000000000000
  0
LINE
  8
0
  6
CONTINUOUS
 62
3
 10
4.000000476834402
 20
2.299992229627764
 11
3.999995708466355
 21
-2.300002429796065
  0
LINE
  8
0
  6
CONTINUOUS
 62
3
 10
0.000007291900715
 20
4.600000131531601
 11
4.000000535118602
 21
2.299995435993480
  0
LINE
  8
0
  6
CONTINUOUS
 62
3
 10
-3.999993333512748
 20
2.300001902428903
 11
0.000004858421221
 21
4.599995671750889
  0
LINE
  8
0
  6
CONTINUOUS
 62
3
 10
-4.000000476834402
 20
-2.299992229627764
 11
-3.999995708466355
 21
2.300002429796065
  0
LINE
  8
0
  6
CONTINUOUS
 62
3
 10
-0.000007291900715
 20
-4.600000131531601
 11
-4.000000535118602
 21
-2.299995435993480
  0
LINE
  8
0
  6
CONTINUOUS
 62
3
 10
3.999993333512748
 20
-2.300001902428903
 11
-0.000004858421221
 21
-4.599995671750889
  0
POINT
  8
0
  6
CONTINUOUS
 62
3
 10
0.000000000000000
 20
0.000000000000000
  0
ENDBLK
  8
0
  0
BLOCK
  8
0
  2
SYM16
 70
64
 10
0.000000000000000
 20
0.000000000000000
  0
CIRCLE
  8
0
  6
CONTINUOUS
 62
3
 10
0.000000000000000
 20
0.000000000000000
 40
4.000000000000000
  0
LINE
  8
0
  6
CONTINUOUS
 62
3
 10
4.000000476834402
 20
2.299992229627764
 11
3.999995708466355
 21
-2.300002429796065
  0
LINE
  8
0
  6
CONTINUOUS
 62
3
 10
0.000007291900715
 20
4.600000131531601
 11
4.000000535118602
 21
2.299995435993480
  0
LINE
  8
0
  6
CONTINUOUS
 62
3
 10
-3.999993333512748
 20
2.300001902428903
 11
0.000004858421221
 21
4.599995671750889
  0
LINE
  8
0
  6
CONTINUOUS
 62
3
 10
-4.000000476834402
 20
-2.299992229627764
 11
-3.999995708466355
 21
2.300002429796065
  0
LINE
  8
0
  6
CONTINUOUS
 62
3
 10
-0.000007291900715
 20
-4.600000131531601
 11
-4.000000535118602
 21
-2.299995435993480
  0
LINE
  8
0
  6
CONTINUOUS
 62
3
 10
3.999993333512748
 20
-2.300001902428903
 11
-0.000004858421221
 21
-4.599995671750889
  0
POINT
  8
0
  6
CONTINUOUS
 62
3
 10
0.000000000000000
 20
0.000000000000000
  0
ENDBLK
  8
0
  0
ENDSEC
  0
SECTION
  2
ENTITIES
  0
ARC
  8
0
  6
CONTINUOUS
 62
3
 10
-295.971490536476780
 20
-151.108218716174090
 40
6.099999427795406
 50
264.601927898108500
 51
5.398089404735109
  0
POINT
  8
0
  6
CONTINUOUS
 62
3
 10
-293.708748971549770
 20
-153.370960281101130
  0
LINE
  8
0
  6
CONTINUOUS
 62
3
 10
-290.385347234842920
 20
-150.047558544394260
 11
-297.032150708256610
 21
-156.694362017808000
  0
LINE
  8
0
  6
CONTINUOUS
 62
3
 10
-290.072208625874110
 20
-150.300105495244650
 11
-296.749307928347040
 21
-156.977204797717580
  0
LINE
  8
0
  6
CONTINUOUS
 62
3
 10
-297.032150708256610
 20
-156.694362017808000
 11
-296.545347316550990
 21
-157.181165409513600
  0
LINE
  8
0
  6
CONTINUOUS
 62
3
 10
-290.385347234842920
 20
-150.047558544394260
 11
-289.898543843137300
 21
-150.534361936099880
  0
ARC
  8
0
  6
CONTINUOUS
 62
3
 10
-385.632630660670600
 20
-151.108218716174090
 40
6.099999427795398
 50
174.601910595264880
 51
275.398072101891500
  0
POINT
  8
0
  6
CONTINUOUS
 62
3
 10
-387.895372225597610
 20
-153.370960281101130
  0
LINE
  8
0
  6
CONTINUOUS
 62
3
 10
-391.218773962304450
 20
-150.047558544394260
 11
-384.571970488890770
 21
-156.694362017808000
  0
LINE
  8
0
  6
CONTINUOUS
 62
3
 10
-391.531912571273270
 20
-150.300105495244650
 11
-384.854813268800340
 21
-156.977204797717580
  0
LINE
  8
0
  6
CONTINUOUS
 62
3
 10
-384.571970488890770
 20
-156.694362017808000
 11
-385.058773880596390
 21
-157.181165409513600
  0
LINE
  8
0
  6
CONTINUOUS
 62
3
 10
-391.218773962304450
 20
-150.047558544394260
 11
-391.705577354010070
 21
-150.534361936099880
  0
ARC
  8
0
  6
CONTINUOUS
 62
3
 10
-385.632630660670600
 20
-61.447078591980095
 40
6.099999427795406
 50
84.601927898108471
 51
185.398089404735260
  0
POINT
  8
0
  6
CONTINUOUS
 62
3
 10
-387.895372225597610
 20
-59.184337027053061
  0
LINE
  8
0
  6
CONTINUOUS
 62
3
 10
-391.218773962304450
 20
-62.507738763759917
 11
-384.571970488890770
 21
-55.860935290346205
  0
LINE
  8
0
  6
CONTINUOUS
 62
3
 10
-391.531912571273270
 20
-62.255191812909551
 11
-384.854813268800340
 21
-55.578092510436626
  0
LINE
  8
0
  6
CONTINUOUS
 62
3
 10
-384.571970488890770
 20
-55.860935290346205
 11
-385.058773880596390
 21
-55.374131898640584
  0
LINE
  8
0
  6
CONTINUOUS
 62
3
 10
-391.218773962304450
 20
-62.507738763759917
 11
-391.705577354010070
 21
-62.020935372054296
  0
ARC
  8
0
  6
CONTINUOUS
 62
3
 10
-295.971490536476780
 20
-61.447078591980095
 40
6.099999427795398
 50
354.601910595264830
 51
95.398072101891529
  0
POINT
  8
0
  6
CONTINUOUS
 62
3
 10
-293.708748971549770
 20
-59.184337027053061
  0
LINE
  8
0
  6
CONTINUOUS
 62
3
 10
-290.385347234842920
 20
-62.507738763759917
 11
-297.032150708256610
 21
-55.860935290346205
  0
LINE
  8
0
  6
CONTINUOUS
 62
3
 10
-290.072208625874110
 20
-62.255191812909551
 11
-296.749307928347040
 21
-55.578092510436626
  0
LINE
  8
0
  6
CONTINUOUS
 62
3
 10
-297.032150708256610
 20
-55.860935290346205
 11
-296.545347316550990
 21
-55.374131898640584
  0
LINE
  8
0
  6
CONTINUOUS
 62
3
 10
-290.385347234842920
 20
-62.507738763759917
 11
-289.898543843137300
 21
-62.020935372054296
  0
LINE
  8
0
  6
CONTINUOUS
 62
3
 10
-13.281807446399455
 20
130.722351345922790
 11
5.718192553600545
 21
130.722351345922790
  0
LINE
  8
0
  6
CONTINUOUS
 62
3
 10
-13.281807446399455
 20
156.722351345922790
 11
5.718192553600545
 21
156.722351345922790
  0
LINE
  8
0
  6
DASHDOT
 62
4
 10
-147.281807446395130
 20
62.778194088246778
 11
-147.281807446395130
 21
84.326683068778436
  0
LINE
  8
0
  6
DASHDOT
 62
4
 10
-97.281807446395135
 20
62.778194088246778
 11
-97.281807446395135
 21
84.757696220781725
  0
LINE
  8
0
  6
DASHED
 62
4
 10
-90.281807446395135
 20
71.722351345922903
 11
-90.281807446395135
 21
86.222351345922903
  0
LINE
  8
0
  6
DASHED
 62
4
 10
-104.281807446395130
 20
71.722351345922903
 11
-104.281807446395130
 21
86.222351345922903
  0
LINE
  8
0
  6
DASHED
 62
4
 10
-140.281807446395130
 20
71.722351345922903
 11
-140.281807446395130
 21
86.222351345922903
  0
LINE
  8
0
  6
DASHED
 62
4
 10
-154.281807446395130
 20
71.722351345922903
 11
-154.281807446395130
 21
86.222351345922903
  0
LINE
  8
0
  6
DASHDOT
 62
4
 10
-156.367496552978710
 20
71.722351345922903
 11
-135.880908319269390
 21
71.722351345922903
  0
ARC
  8
0
  6
DASHED
 62
4
 10
-97.281807446395135
 20
71.722351345922903
 40
7.000000000000000
 50
180.000000000000000
 51
0.000000000000000
  0
ARC
  8
0
  6
DASHED
 62
4
 10
-147.281807446395130
 20
71.722351345922903
 40
7.000000000000000
 50
180.000000000000000
 51
0.000000000000000
  0
CIRCLE
  8
0
  6
DASHED
 62
4
 10
-97.281807446395135
 20
71.722351345922903
 40
6.000000000000000
  0
LINE
  8
0
  6
DASHDOT
 62
4
 10
-108.565336862121790
 20
71.722351345922903
 11
-86.798359453593491
 21
71.722351345922903
  0
LINE
  8
0
  6
CONTINUOUS
 62
3
 10
31.218192553596907
 20
-106.277648654080500
 11
31.218192553596907
 21
-118.277648654080500
  0
LINE
  8
0
  6
CONTINUOUS
 62
3
 10
22.218192553603274
 20
-2.277648654080451
 11
22.218192553603274
 21
-56.277648654080451
  0
ARC
  8
0
  6
CONTINUOUS
 62
3
 10
31.218192553596907
 20
-102.813547038942820
 40
1.999999999999770
 50
300.000000000003810
 51
0.000000000000000
  0
LINE
  8
0
  6
CONTINUOUS
 62
3
 10
17.718192553603274
 20
-2.277648654080451
 11
22.218192553603274
 21
-2.277648654080451
  0
LINE
  8
0
  6
DASHDOT
 62
4
 10
11.987945152786722
 20
-22.277648654080451
 11
30.087211168078227
 21
-22.277648654080451
  0
LINE
  8
0
  6
CONTINUOUS
 62
3
 10
10.718192553598726
 20
-117.277648654080500
 11
31.218192553596907
 21
-117.277648654080500
  0
ARC
  8
0
  6
CONTINUOUS
 62
3
 10
33.218192553596907
 20
-106.277648654080500
 40
2.000000000000164
 50
119.999999999997270
 51
180.000000000000000
  0
LINE
  8
0
  6
CONTINUOUS
 62
3
 10
17.718192553599636
 20
-56.277648654080451
 11
17.718192553603274
 21
-2.277648654080451
  0
ARC
  8
0
  6
CONTINUOUS
 62
3
 10
33.218192553596907
 20
-118.277648654080500
 40
2.000000000000000
 50
180.000000000000000
 51
240.000000000002730
  0
LINE
  8
0
  6
CONTINUOUS
 62
3
 10
10.718192553598726
 20
-157.277648654080510
 11
33.218192553596907
 21
-157.277648654080510
  0
ARC
  8
0
  6
CONTINUOUS
 62
3
 10
31.218192553596907
 20
-121.741750269218180
 40
2.000000000000000
 50
0.000000000000000
 51
59.999999999996206
  0
LINE
  8
0
  6
CONTINUOUS
 62
3
 10
17.718192553599636
 20
-56.277648654080451
 11
22.218192553599636
 21
-56.277648654080451
  0
LINE
  8
0
  6
CONTINUOUS
 62
3
 10
36.718192553599636
 20
-232.277648654080510
 11
-7.281807446400364
 21
-232.277648654080510
  0
LINE
  8
0
  6
CONTINUOUS
 62
3
 10
153.718192553599640
 20
-232.277648654080510
 11
36.718192553599636
 21
-232.277648654080510
  0
ARC
  8
0
  6
CONTINUOUS
 62
3
 10
45.718192553599636
 20
-193.374844259352240
 40
1.999999999999916
 50
311.410957896496880
 51
0.000000000000000
  0
LINE
  8
0
  6
CONTINUOUS
 62
3
 10
47.041103179600157
 20
-194.874813417573360
 11
28.993020572332114
 21
-210.792474210285830
  0
ARC
  8
0
  6
CONTINUOUS
 62
3
 10
25.685744007330356
 20
-207.042551314733260
 40
4.999999999999822
 50
273.858884296473550
 51
311.410957896502510
  0
LINE
  8
0
  6
CONTINUOUS
 62
3
 10
45.718192553599636
 20
-37.277648654080451
 11
98.218192553599636
 21
-38.194039562811952
  0
LINE
  8
0
  6
CONTINUOUS
 62
3
 10
-7.281807446400364
 20
-217.082108850287910
 11
-7.281807446400364
 21
-232.277648654080510
  0
LINE
  8
0
  6
DASHDOT
 62
4
 10
5.718192553599636
 20
-210.055609431363220
 11
5.718192553599636
 21
-238.979790644741910
  0
LINE
  8
0
  6
CONTINUOUS
 62
3
 10
47.637384829382825
 20
-210.573225220044950
 11
22.718192553599636
 21
-212.254080964610580
  0
LINE
  8
0
  6
CONTINUOUS
 62
4
 10
45.718192553599636
 20
-37.277648654080451
 11
66.075253710477170
 21
-37.277648654080451
  0
LINE
  8
0
  6
CONTINUOUS
 62
3
 10
47.637384829382825
 20
-210.573225220044950
 11
123.718192553599630
 21
-213.230025569327950
  0
LINE
  8
0
  6
CONTINUOUS
 62
3
 10
45.718192553599636
 20
-37.277648654080451
 11
45.718192553599636
 21
-196.041565756975500
  0
ARC
  8
0
  6
CONTINUOUS
 62
3
 10
-4.281807446400364
 20
-217.082108850287910
 40
3.000000000000365
 50
93.858884296478166
 51
180.000000000000000
  0
LINE
  8
0
  6
CONTINUOUS
 62
3
 10
22.718192553599636
 20
-212.254080964610580
 11
-4.483705438156051
 21
-214.088910360222940
  0
LINE
  8
0
  6
CONTINUOUS
 62
3
 10
47.718192553599636
 20
-176.223555057902900
 11
47.718192553599636
 21
-193.374844259352240
  0
ARC
  8
0
  6
CONTINUOUS
 62
3
 10
45.718192553599636
 20
-176.223555057902900
 40
2.000000000000000
 50
0.000000000000000
 51
90.000000000000000
  0
LINE
  8
0
  6
CONTINUOUS
 62
3
 10
33.218192553596907
 20
-121.741750269218180
 11
33.218192553596907
 21
-207.066047650072390
  0
ARC
  8
0
  6
CONTINUOUS
 62
3
 10
30.218192553601455
 20
-74.751579920066320
 40
2.999999999999901
 50
272.999999999988290
 51
0.000000000000000
  0
ARC
  8
0
  6
CONTINUOUS
 62
3
 10
30.218192553596907
 20
-202.796611635177560
 40
3.000000000000000
 50
0.000000000000000
 51
86.999999999994344
  0
ARC
  8
0
  6
CONTINUOUS
 62
3
 10
22.218192553601455
 20
-75.170842154330671
 40
2.999999999999901
 50
272.999999999988290
 51
0.000000000000000
  0
ARC
  8
0
  6
CONTINUOUS
 62
3
 10
25.218192553603274
 20
-40.277648654079087
 40
3.000000000000000
 50
90.000000000000000
 51
179.999999999991330
  0
ARC
  8
0
  6
DASHED
 62
3
 10
36.218192553603274
 20
-40.277648654079542
 40
3.000000000000000
 50
90.000000000000000
 51
180.000000000000000
  0
ARC
  8
0
  6
CONTINUOUS
 62
3
 10
25.218192553602364
 20
-55.277648654080451
 40
3.000000000000000
 50
180.000000000000000
 51
270.000000000000000
  0
LINE
  8
0
  6
CONTINUOUS
 62
3
 10
33.218192553596907
 20
-40.277648654079542
 11
33.218192553596907
 21
-102.813547038942820
  0
LINE
  8
0
  6
CONTINUOUS
 62
3
 10
30.375200422330579
 20
-77.747468524329975
 11
10.718192553598726
 21
-78.777648654079599
  0
LINE
  8
0
  6
CONTINUOUS
 62
3
 10
25.218192553601455
 20
-75.170842154330671
 11
25.218192553603387
 21
-61.911719050503848
  0
LINE
  8
0
  6
CONTINUOUS
 62
3
 10
10.718192553598271
 20
-198.770542901164620
 11
30.375200422326031
 21
-199.800723030913900
  0
LINE
  8
0
  6
CONTINUOUS
 62
3
 10
45.218192553596907
 20
-137.277648654080510
 11
45.218192553596907
 21
-196.482545032701520
  0
LINE
  8
0
  6
CONTINUOUS
 62
3
 10
45.218192553598726
 20
-137.277648654080510
 11
45.218192553603274
 21
-37.277648654080451
  0
LINE
  8
0
  6
CONTINUOUS
 62
3
 10
45.218192553603274
 20
-37.277648654080451
 11
25.218192553603274
 21
-37.277648654079087
  0
LINE
  8
0
  6
CONTINUOUS
 62
3
 10
22.218192553602364
 20
-55.277648654080451
 11
22.218192553603274
 21
-40.277648654078632
  0
LINE
  8
0
  6
CONTINUOUS
 62
3
 10
10.718192553598271
 20
-198.770542901164620
 11
10.718192553598271
 21
-78.777648654078916
  0
LINE
  8
0
  6
CONTINUOUS
 62
3
 10
4.718192553598271
 20
-193.565272844950980
 11
4.718192553598271
 21
-175.471822478238100
  0
LINE
  8
0
  6
CONTINUOUS
 62
3
 10
0.718192553598271
 20
-193.355641727819030
 11
0.718192553598271
 21
-186.071800215531200
  0
LINE
  8
0
  6
CONTINUOUS
 62
3
 10
10.718192553598271
 20
-195.777648654079140
 11
10.718192553598271
 21
-78.777648654078916
  0
LINE
  8
0
  6
CONTINUOUS
 62
3
 10
-31.281807446401672
 20
-158.777648654077210
 11
-151.781807446422590
 21
-158.777648654077210
  0
LINE
  8
0
  6
CONTINUOUS
 62
4
 10
-151.781807446422590
 20
-156.777648654077210
 11
-31.281807446401672
 21
-156.777648654077210
  0
LINE
  8
0
  6
CONTINUOUS
 62
4
 10
-151.781807446422590
 20
-157.277648654077210
 11
-31.281807446401672
 21
-157.277648654077210
  0
LINE
  8
0
  6
CONTINUOUS
 62
4
 10
-151.781807446422590
 20
-152.410731248959910
 11
-31.281807446401672
 21
-152.410731248959910
  0
LINE
  8
0
  6
CONTINUOUS
 62
4
 10
-151.781807446422590
 20
-150.782304181182100
 11
-31.281807446401672
 21
-150.782304181182100
  0
LINE
  8
0
  6
CONTINUOUS
 62
4
 10
-151.781807446422590
 20
-147.319562424416860
 11
-31.281807446401672
 21
-147.319562424416860
  0
LINE
  8
0
  6
CONTINUOUS
 62
4
 10
-151.939407792793870
 20
-146.318084060601560
 11
-31.281807446401672
 21
-146.318084060601560
  0
LINE
  8
0
  6
CONTINUOUS
 62
3
 10
-31.281807446401672
 20
-53.777648654077211
 11
-151.781807446422590
 21
-53.777648654077211
  0
LINE
  8
0
  6
CONTINUOUS
 62
4
 10
-151.781807446422590
 20
-55.777648654077211
 11
-31.281807446401672
 21
-55.777648654077211
  0
LINE
  8
0
  6
CONTINUOUS
 62
4
 10
-151.781807446422590
 20
-55.277648654077097
 11
-31.281807446401672
 21
-55.277648654077097
  0
LINE
  8
0
  6
CONTINUOUS
 62
4
 10
-151.781807446422590
 20
-60.144566059194517
 11
-31.281807446401672
 21
-60.144566059194517
  0
LINE
  8
0
  6
CONTINUOUS
 62
4
 10
-151.781807446422590
 20
-65.235734883737450
 11
-31.281807446401672
 21
-65.235734883737450
  0
LINE
  8
0
  6
CONTINUOUS
 62
4
 10
-151.781807446422590
 20
-61.772993126972324
 11
-31.281807446401672
 21
-61.772993126972324
  0
LINE
  8
0
  6
CONTINUOUS
 62
4
 10
-151.939407792793870
 20
-66.237213247552745
 11
-31.281807446401672
 21
-66.237213247552745
  0
INSERT
  8
0
  2
SYM1
 10
17.718192553600545
 20
-46.277648654080508
  0
INSERT
  8
0
  2
SYM2
 10
33.218192553596907
 20
-56.277648654080508
  0
INSERT
  8
0
  2
SYM3
 10
4.718192553598271
 20
-93.083474829920192
  0
INSERT
  8
0
  2
SYM4
 10
33.218192553596907
 20
-132.277648654080510
  0
INSERT
  8
0
  2
SYM5
 10
4.718192553598271
 20
-181.471822478238100
  0
LINE
  8
0
  6
CONTINUOUS
 62
3
 10
-31.281807446395362
 20
90.222351345922789
 11
-31.281807446395362
 21
143.722351345922790
  0
LINE
  8
0
  6
CONTINUOUS
 62
3
 10
-31.281807446395362
 20
90.222351345922789
 11
-84.781807446395135
 21
90.222351345922789
  0
LINE
  8
0
  6
CONTINUOUS
 62
3
 10
-31.281807446395362
 20
197.222351345922790
 11
-31.281807446395362
 21
143.722351345922790
  0
LINE
  8
0
  6
CONTINUOUS
 62
3
 10
-31.281807446395362
 20
197.222351345922790
 11
-151.781807446416280
 21
197.222351345922790
  0
LINE
  8
0
  6
CONTINUOUS
 62
4
 10
-151.781807446416280
 20
194.722351345922790
 11
-31.281807446395362
 21
194.722351345922790
  0
LINE
  8
0
  6
CONTINUOUS
 62
4
 10
-151.781807446416280
 20
194.222351345922790
 11
-31.281807446395362
 21
194.222351345922790
  0
LINE
  8
0
  6
CONTINUOUS
 62
4
 10
-151.781807446416280
 20
189.855433940805480
 11
-31.281807446395362
 21
189.855433940805480
  0
LINE
  8
0
  6
CONTINUOUS
 62
4
 10
-151.781807446416280
 20
184.764265116262550
 11
-31.281807446395362
 21
184.764265116262550
  0
LINE
  8
0
  6
CONTINUOUS
 62
4
 10
-151.781807446416280
 20
177.025952297431560
 11
-31.281807446395362
 21
177.025952297431560
  0
LINE
  8
0
  6
CONTINUOUS
 62
4
 10
-151.781807446416280
 20
175.436742504692800
 11
-31.281807446395362
 21
175.436742504692800
  0
LINE
  8
0
  6
CONTINUOUS
 62
4
 10
-151.781807446416280
 20
172.478746896559870
 11
-31.281807446395362
 21
172.478746896559870
  0
LINE
  8
0
  6
CONTINUOUS
 62
4
 10
-151.781807446416280
 20
170.999723743082880
 11
-31.281807446395362
 21
170.999723743082880
  0
LINE
  8
0
  6
CONTINUOUS
 62
4
 10
-151.781807446416280
 20
167.906992751417530
 11
-31.281807446395362
 21
167.906992751417530
  0
LINE
  8
0
  6
CONTINUOUS
 62
4
 10
-151.781807446416280
 20
166.560591025918940
 11
-31.281807446395362
 21
166.560591025918940
  0
LINE
  8
0
  6
CONTINUOUS
 62
4
 10
-151.781807446416280
 20
163.350386002560640
 11
-31.281807446395362
 21
163.350386002560640
  0
LINE
  8
0
  6
CONTINUOUS
 62
4
 10
-151.781807446416280
 20
162.108466137672740
 11
-31.281807446395362
 21
162.108466137672740
  0
LINE
  8
0
  6
CONTINUOUS
 62
4
 10
-151.781807446416280
 20
157.722351345922790
 11
-31.281807446395362
 21
157.722351345922790
  0
LINE
  8
0
  6
CONTINUOUS
 62
4
 10
-151.781807446416050
 20
129.722351345922790
 11
-31.281807446395362
 21
129.722351345922790
  0
LINE
  8
0
  6
CONTINUOUS
 62
4
 10
-151.781807446416050
 20
125.336236554172840
 11
-31.281807446395362
 21
125.336236554172840
  0
LINE
  8
0
  6
CONTINUOUS
 62
4
 10
-151.781807446416050
 20
124.094316689284930
 11
-31.281807446395362
 21
124.094316689284930
  0
LINE
  8
0
  6
CONTINUOUS
 62
4
 10
-151.781807446416050
 20
120.884111665926630
 11
-31.281807446395362
 21
120.884111665926630
  0
LINE
  8
0
  6
CONTINUOUS
 62
4
 10
-151.781807446416050
 20
119.537709940428040
 11
-31.281807446395362
 21
119.537709940428040
  0
LINE
  8
0
  6
CONTINUOUS
 62
4
 10
-151.781807446416050
 20
116.444978948762810
 11
-31.281807446395362
 21
116.444978948762810
  0
LINE
  8
0
  6
CONTINUOUS
 62
4
 10
-151.781807446416050
 20
114.965955795285700
 11
-31.281807446395362
 21
114.965955795285700
  0
LINE
  8
0
  6
CONTINUOUS
 62
4
 10
-151.781807446416050
 20
110.418750394414130
 11
-31.281807446395362
 21
110.418750394414130
  0
LINE
  8
0
  6
CONTINUOUS
 62
4
 10
-151.781807446416050
 20
112.007960187152770
 11
-31.281807446395362
 21
112.007960187152770
  0
LINE
  8
0
  6
CONTINUOUS
 62
4
 10
-151.781807446416050
 20
102.680437575583020
 11
-31.281807446395362
 21
102.680437575583020
  0
LINE
  8
0
  6
CONTINUOUS
 62
4
 10
-151.781807446416050
 20
97.589268751040095
 11
-31.281807446395362
 21
97.589268751040208
  0
LINE
  8
0
  6
CONTINUOUS
 62
4
 10
-151.781807446416050
 20
93.222351345922789
 11
-31.281807446395362
 21
93.222351345922789
  0
LINE
  8
0
  6
CONTINUOUS
 62
4
 10
-151.781807446416050
 20
92.722351345922789
 11
-31.281807446395362
 21
92.722351345922789
  0
INSERT
  8
0
  2
SYM6
 10
4.718192553600545
 20
99.528177521763837
  0
INSERT
  8
0
  2
SYM7
 10
4.718192553600545
 20
187.916525170081740
 41
-1.000000000000000
 50
180.000000000000000
  0
CIRCLE
  8
0
  6
CONTINUOUS
 62
3
 10
-5.281807446399455
 20
143.722351345922790
 40
8.462876856846833
  0
LINE
  8
0
  6
DASHDOT
 62
4
 10
-5.281807446399455
 20
132.302198246292160
 11
-5.281807446399455
 21
156.345312619890820
  0
LINE
  8
0
  6
CONTINUOUS
 62
3
 10
10.718192553601455
 20
126.722351345921420
 11
10.718192553604183
 21
84.222351345921425
  0
LINE
  8
0
  6
DASHDOT
 62
4
 10
15.129079451606628
 20
56.222351345922789
 11
-2.692146909470068
 21
56.222351345922789
  0
LINE
  8
0
  6
DASHDOT
 62
4
 10
5.718192553598726
 20
46.901317976230303
 11
5.718192553598726
 21
66.207646534040350
  0
LINE
  8
0
  6
CONTINUOUS
 62
3
 10
45.218192553598726
 20
143.722351345922790
 11
45.218192553598726
 21
49.722351345924153
  0
ARC
  8
0
  6
CONTINUOUS
 62
3
 10
35.218192553598726
 20
51.722351345924153
 40
2.000000000000000
 50
180.000000000000000
 51
270.000000000000000
  0
ARC
  8
0
  6
CONTINUOUS
 62
3
 10
25.218192553604638
 20
126.222351345924150
 40
3.000000000000000
 50
180.000000000000000
 51
270.000000000000000
  0
LINE
  8
0
  6
CONTINUOUS
 62
3
 10
30.218192553598726
 20
123.222351345924150
 11
25.218192553604638
 21
123.222351345924150
  0
ARC
  8
0
  6
CONTINUOUS
 62
3
 10
30.218192553598726
 20
120.222351345924150
 40
3.000000000000000
 50
0.000000000000000
 51
90.000000000000000
  0
INSERT
  8
0
  2
SYM8
 10
33.218192553598726
 20
93.722351345924153
  0
LINE
  8
0
  6
CONTINUOUS
 62
3
 10
17.718192553603728
 20
143.722351345924150
 11
17.718192553603728
 21
123.222351345924150
  0
LINE
  8
0
  6
CONTINUOUS
 62
3
 10
22.218192553604638
 20
143.722351345923700
 11
22.218192553604638
 21
123.222351345924150
  0
LINE
  8
0
  6
CONTINUOUS
 62
3
 10
22.218192553604638
 20
123.222351345924150
 11
17.718192553603728
 21
123.222351345924150
  0
INSERT
  8
0
  2
SYM9
 10
17.718192553604183
 20
133.222351345924150
  0
LINE
  8
0
  6
CONTINUOUS
 62
3
 10
10.718192553600545
 20
147.722351345924150
 11
10.718192553600545
 21
139.722351345924150
  0
ARC
  8
0
  6
CONTINUOUS
 62
3
 10
31.218192553598726
 20
68.454402153493220
 40
2.000000000000164
 50
299.999999999997270
 51
0.000000000000000
  0
ARC
  8
0
  6
CONTINUOUS
 62
3
 10
33.218192553598726
 20
64.990300538355086
 40
2.000000000000164
 50
119.999999999997270
 51
180.000000000000000
  0
LINE
  8
0
  6
CONTINUOUS
 62
3
 10
45.218192553598726
 20
49.722351345924153
 11
33.218192553598726
 21
49.722351345924153
  0
ARC
  8
0
  6
CONTINUOUS
 62
3
 10
33.218192553598726
 20
51.722351345924153
 40
2.000000000000000
 50
180.000000000000000
 51
270.000000000000000
  0
LINE
  8
0
  6
CONTINUOUS
 62
3
 10
25.218193507273043
 20
65.356227192786946
 11
25.218193507273043
 21
54.088280949500813
  0
LINE
  8
0
  6
CONTINUOUS
 62
3
 10
31.642739981298121
 20
66.222351345924153
 11
25.718193507273043
 21
66.222351345924153
  0
LINE
  8
0
  6
CONTINUOUS
 62
3
 10
31.218192553598726
 20
53.222351345924153
 11
25.718194460947359
 21
53.222351345924153
  0
LINE
  8
0
  6
CONTINUOUS
 62
3
 10
25.718194145130781
 20
66.222351369992111
 11
25.218194118983718
 21
65.356227229858405
  0
LINE
  8
0
  6
CONTINUOUS
 62
3
 10
25.718194771758078
 20
53.222351368625141
 11
25.218193821564853
 21
54.088280939693732
  0
LINE
  8
0
  6
CONTINUOUS
 62
3
 10
25.718193507273043
 20
66.222351345924153
 11
25.718193507273043
 21
53.222351345924153
  0
LINE
  8
0
  6
CONTINUOUS
 62
3
 10
31.218192553598726
 20
64.990300538355086
 11
31.218192553598726
 21
51.722351345924153
  0
LINE
  8
0
  6
CONTINUOUS
 62
3
 10
33.218192553598726
 20
120.222351345924150
 11
33.218192553598726
 21
51.722351345924153
  0
ARC
  8
0
  6
CONTINUOUS
 62
3
 10
30.218192553598726
 20
80.196282611911329
 40
3.000000000000000
 50
0.000000000000000
 51
86.999999999994344
  0
LINE
  8
0
  6
CONTINUOUS
 62
3
 10
10.718192553600545
 20
84.222351345924153
 11
30.375200422327850
 21
83.192171216174984
  0
LINE
  8
0
  6
CONTINUOUS
 62
3
 10
45.218192553598726
 20
143.722351345923240
 11
45.218192553604638
 21
237.722351345921880
  0
ARC
  8
0
  6
CONTINUOUS
 62
3
 10
35.218192553604638
 20
235.722351345922790
 40
2.000000000000000
 50
90.000000000000000
 51
180.000000000000000
  0
ARC
  8
0
  6
CONTINUOUS
 62
3
 10
25.218192553605547
 20
161.222351345923240
 40
3.000000000000000
 50
90.000000000000000
 51
179.999999999991330
  0
LINE
  8
0
  6
CONTINUOUS
 62
3
 10
30.218192553599636
 20
164.222351345923240
 11
25.218192553605547
 21
164.222351345923240
  0
ARC
  8
0
  6
CONTINUOUS
 62
3
 10
30.218192553600090
 20
167.222351345923240
 40
3.000000000000000
 50
270.000000000000000
 51
359.999999999991300
  0
INSERT
  8
0
  2
SYM10
 10
33.218192553601909
 20
193.722351345922790
 41
-1.000000000000000
 50
179.999999999996310
  0
LINE
  8
0
  6
CONTINUOUS
 62
3
 10
17.718192553603728
 20
143.722351345923700
 11
17.718192553604638
 21
164.222351345923700
  0
LINE
  8
0
  6
CONTINUOUS
 62
3
 10
22.218192553604638
 20
143.722351345924150
 11
22.218192553605547
 21
164.222351345923700
  0
LINE
  8
0
  6
CONTINUOUS
 62
3
 10
22.218192553605547
 20
164.222351345923700
 11
17.718192553604638
 21
164.222351345923700
  0
INSERT
  8
0
  2
SYM11
 10
17.718192553604638
 20
154.222351345923700
 41
-1.000000000000000
 50
179.999999999996310
  0
ARC
  8
0
  6
CONTINUOUS
 62
3
 10
31.218192553603274
 20
218.990300538353720
 40
2.000000000000000
 50
0.000000000000000
 51
60.000000000002721
  0
ARC
  8
0
  6
CONTINUOUS
 62
3
 10
33.218192553603728
 20
222.454402153491860
 40
2.000000000000000
 50
180.000000000000000
 51
239.999999999991450
  0
LINE
  8
0
  6
CONTINUOUS
 62
3
 10
45.718192553598726
 20
237.722351345921770
 11
33.218192553604638
 21
237.722351345922790
  0
ARC
  8
0
  6
CONTINUOUS
 62
3
 10
33.218192553604638
 20
235.722351345922790
 40
2.000000000000000
 50
90.000000000000000
 51
180.000000000000000
  0
LINE
  8
0
  6
CONTINUOUS
 62
3
 10
25.218193507278045
 20
222.088475499060910
 11
25.218193507278500
 21
233.356421742347040
  0
LINE
  8
0
  6
CONTINUOUS
 62
3
 10
31.642739981303009
 20
221.222351345922900
 11
25.718193507278045
 21
221.222351345923240
  0
LINE
  8
0
  6
CONTINUOUS
 62
3
 10
31.218192553604410
 20
234.222351345922900
 11
25.718194460952816
 21
234.222351345923240
  0
LINE
  8
0
  6
CONTINUOUS
 62
3
 10
25.718194145135783
 20
221.222351321855290
 11
25.218194118988720
 21
222.088475461989450
  0
LINE
  8
0
  6
CONTINUOUS
 62
3
 10
25.718194771763535
 20
234.222351323222260
 11
25.218193821570310
 21
233.356421752154120
  0
LINE
  8
0
  6
CONTINUOUS
 62
3
 10
25.718193507278045
 20
221.222351345923240
 11
25.718193507278500
 21
234.222351345923240
  0
LINE
  8
0
  6
CONTINUOUS
 62
3
 10
31.218192553603501
 20
222.454402153492080
 11
31.218192553604638
 21
235.722351345922790
  0
LINE
  8
0
  6
CONTINUOUS
 62
3
 10
33.218192553600090
 20
167.222351345923240
 11
33.218192553604638
 21
235.722351345922790
  0
ARC
  8
0
  6
CONTINUOUS
 62
3
 10
30.218192553602819
 20
207.248420079936070
 40
2.999999999999925
 50
272.999999999996990
 51
359.999999999991300
  0
LINE
  8
0
  6
CONTINUOUS
 62
3
 10
10.718192553604183
 20
203.222351345924150
 11
30.375200422331488
 21
204.252531475672410
  0
LINE
  8
0
  6
CONTINUOUS
 62
3
 10
10.718192553601455
 20
160.722351345924150
 11
10.718192553604183
 21
203.222351345924150
  0
LINE
  8
0
  6
CONTINUOUS
 62
3
 10
50.718192553598726
 20
41.924479658315931
 11
148.805454585784390
 21
43.636599185718978
  0
CIRCLE
  8
0
  6
CONTINUOUS
 62
3
 10
5.718192553598726
 20
231.222351345922790
 40
6.000000000000000
  0
CIRCLE
  8
0
  6
CONTINUOUS
 62
3
 10
5.718192553598726
 20
56.222351345922789
 40
6.000000000000000
  0
LINE
  8
0
  6
DASHDOT
 62
4
 10
-212.864144540693870
 20
143.722351345922790
 11
223.798890765963680
 21
143.722351345922790
  0
LINE
  8
0
  6
DASHDOT
 62
4
 10
5.718192553598726
 20
240.543384715615280
 11
5.718192553598726
 21
221.237056157805230
  0
LINE
  8
0
  6
DASHDOT
 62
4
 10
15.129079451606628
 20
231.222351345922790
 11
-2.692146909470068
 21
231.222351345922790
  0
LINE
  8
0
  6
CONTINUOUS
 62
3
 10
45.718192553598726
 20
143.722351345922790
 11
45.718192553598726
 21
237.722351345922790
  0
LINE
  8
0
  6
CONTINUOUS
 62
3
 10
45.718192553598726
 20
237.774716540707460
 11
98.218192553598726
 21
236.858325631975500
  0
LINE
  8
0
  6
CONTINUOUS
 62
3
 10
45.218192553598726
 20
49.661258618674083
 11
98.218192553598726
 21
50.586377059869619
  0
LINE
  8
0
  6
CONTINUOUS
 62
3
 10
45.718192553598726
 20
143.722351345922790
 11
45.718192553598726
 21
49.722351345922789
  0
LINE
  8
0
  6
CONTINUOUS
 62
3
 10
-7.281807446401274
 20
218.421884256233850
 11
-7.281807446401274
 21
238.874938704159600
  0
LINE
  8
0
  6
CONTINUOUS
 62
3
 10
50.718192553598726
 20
245.520223033528740
 11
148.805454585784390
 21
243.808103506126140
  0
LINE
  8
0
  6
CONTINUOUS
 62
3
 10
-7.281807446401274
 20
69.022818435610816
 11
-7.281807446401274
 21
48.569763987685064
  0
ARC
  8
0
  6
CONTINUOUS
 62
3
 10
12.353514571160702
 20
79.065848806844997
 40
5.000000000000068
 50
271.000000000001760
 51
273.824403028645630
  0
LINE
  8
0
  6
CONTINUOUS
 62
3
 10
12.687008927109162
 20
74.076983052533024
 11
33.218192553598726
 21
75.449446092745575
  0
ARC
  8
0
  6
CONTINUOUS
 62
3
 10
-2.281807446401274
 20
68.808865030344123
 40
4.999999999999606
 50
90.999999999996646
 51
180.000000000000000
  0
LINE
  8
0
  6
CONTINUOUS
 62
3
 10
-2.369069478587392
 20
73.808103506125690
 11
12.440776603347274
 21
74.066610331062975
  0
LINE
  8
0
  6
CONTINUOUS
 62
3
 10
12.687008927109162
 20
213.367719639312550
 11
33.218192553603046
 21
211.995256599098980
  0
ARC
  8
0
  6
CONTINUOUS
 62
3
 10
12.353514571160702
 20
208.378853885000130
 40
5.000000000000079
 50
86.175596971354679
 51
88.999999999998138
  0
ARC
  8
0
  6
CONTINUOUS
 62
3
 10
-2.281807446401274
 20
218.635837661501000
 40
5.000000000000000
 50
180.000000000000000
 51
269.000000000003410
  0
LINE
  8
0
  6
CONTINUOUS
 62
3
 10
-2.369069478587392
 20
213.636599185718980
 11
12.440776603347274
 21
213.378092360781690
  0
LINE
  8
0
  6
CONTINUOUS
 62
4
 10
-2.273735289689796
 20
69.948214578301076
 11
26.482379119885024
 21
70.450154422403784
  0
LINE
  8
0
  6
CONTINUOUS
 62
4
 10
-2.273735289689796
 20
217.496488113544050
 11
26.482379119885024
 21
216.994548269441790
  0
ARC
  8
0
  6
CONTINUOUS
 62
3
 10
-2.281807446401274
 20
48.569763987685064
 40
5.000000000000000
 50
180.000000000000000
 51
268.224526106217870
  0
LINE
  8
0
  6
CONTINUOUS
 62
3
 10
-2.436721977049331
 20
43.572164415071484
 11
50.718192553598726
 21
41.924479658315931
  0
LINE
  8
0
  6
CONTINUOUS
 62
3
 10
-2.436721977049331
 20
243.872538276774090
 11
50.718192553598726
 21
245.520223033528740
  0
ARC
  8
0
  6
CONTINUOUS
 62
3
 10
-2.281807446401274
 20
238.874938704159600
 40
5.000000000000244
 50
91.775473893781850
 51
180.000000000000000
  0
LINE
  8
0
  6
CONTINUOUS
 62
4
 10
-84.781807446401444
 20
-77.521253103440131
 11
-31.281807446401672
 21
-77.521253103440131
  0
LINE
  8
0
  6
CONTINUOUS
 62
4
 10
-84.781807446401444
 20
-79.000276256917232
 11
-31.281807446401672
 21
-79.000276256917232
  0
LINE
  8
0
  6
CONTINUOUS
 62
4
 10
-84.781807446401444
 20
-82.093007248582467
 11
-31.281807446401672
 21
-82.093007248582467
  0
LINE
  8
0
  6
CONTINUOUS
 62
4
 10
-84.781807446401444
 20
-83.439408974081061
 11
-31.281807446401672
 21
-83.439408974081061
  0
LINE
  8
0
  6
CONTINUOUS
 62
4
 10
-84.781807446401444
 20
-86.277648654077211
 11
-31.281807446401672
 21
-86.277648654077211
  0
LINE
  8
0
  6
CONTINUOUS
 62
4
 10
-161.781807446422590
 20
-74.563257495307198
 11
-31.281807446401672
 21
-74.563257495307198
  0
LINE
  8
0
  6
CONTINUOUS
 62
4
 10
-161.781807446422590
 20
-72.974047702568441
 11
-31.281807446401672
 21
-72.974047702568441
  0
LINE
  8
0
  6
DASHDOT
 62
4
 10
-8.337411863765738
 20
-106.277648654077210
 11
-211.736755016740060
 21
-106.277648654077210
  0
LINE
  8
0
  6
CONTINUOUS
 62
4
 10
-161.781807446422590
 20
-137.992039812847220
 11
-31.281807446401672
 21
-137.992039812847220
  0
LINE
  8
0
  6
CONTINUOUS
 62
4
 10
-161.781807446422590
 20
-139.581249605585870
 11
-31.281807446401672
 21
-139.581249605585870
  0
LINE
  8
0
  6
CONTINUOUS
 62
4
 10
-84.781807446401444
 20
-135.034044204714290
 11
-31.281807446401672
 21
-135.034044204714290
  0
LINE
  8
0
  6
CONTINUOUS
 62
4
 10
-84.781807446401444
 20
-133.555021051237190
 11
-31.281807446401672
 21
-133.555021051237190
  0
LINE
  8
0
  6
CONTINUOUS
 62
4
 10
-84.781807446401444
 20
-130.462290059571960
 11
-31.281807446401672
 21
-130.462290059571960
  0
LINE
  8
0
  6
CONTINUOUS
 62
4
 10
-84.781807446401444
 20
-129.115888334073360
 11
-31.281807446401672
 21
-129.115888334073360
  0
LINE
  8
0
  6
CONTINUOUS
 62
4
 10
-84.781807446401444
 20
-126.277648654077210
 11
-31.281807446401672
 21
-126.277648654077210
  0
LINE
  8
0
  6
DASHDOT
 62
4
 10
27.830333700741903
 20
-46.277648654080508
 11
-1.224255141914909
 21
-46.277648654080508
  0
LINE
  8
0
  6
CONTINUOUS
 62
3
 10
-19.755929401403904
 20
-157.277649190257080
 11
-31.281807446401672
 21
-157.277649190257080
  0
ARC
  8
0
  6
CONTINUOUS
 62
3
 10
-21.281807446401700
 20
-153.960165731782180
 40
4.999999999999951
 50
269.000000000000340
 51
0.000000000000000
  0
LINE
  8
0
  6
CONTINUOUS
 62
3
 10
-16.281807446401700
 20
-153.960165731782180
 11
-16.281807446401700
 21
-60.120561008034883
  0
ARC
  8
0
  6
CONTINUOUS
 62
3
 10
6.718192553598300
 20
-79.070762765120890
 40
1.999999999999993
 50
87.000000000000099
 51
180.000000000000000
  0
LINE
  8
0
  6
CONTINUOUS
 62
3
 10
-13.330971893892041
 20
-88.491764961312413
 11
-3.003928625277098
 21
-88.491764961312413
  0
LINE
  8
0
  6
CONTINUOUS
 62
3
 10
-14.004474715756572
 20
-139.277649190257190
 11
-2.283260638743144
 21
-139.277649190257190
  0
LINE
  8
0
  6
CONTINUOUS
 62
3
 10
-13.330971893892041
 20
-102.277649190257190
 11
-2.779427684648311
 21
-102.277649190257190
  0
LINE
  8
0
  6
CONTINUOUS
 62
3
 10
-13.952069380449160
 20
-142.159201281503840
 11
-2.320617857142992
 21
-142.159201281503840
  0
LINE
  8
0
  6
CONTINUOUS
 62
3
 10
-31.281807446401672
 20
-126.277649190257190
 11
-16.281807446401700
 21
-126.277649190257190
  0
LINE
  8
0
  6
CONTINUOUS
 62
3
 10
-31.281807446401672
 20
-86.277649190257193
 11
-16.281807446401700
 21
-86.277649190257193
  0
LINE
  8
0
  6
CONTINUOUS
 62
3
 10
-11.781807446401359
 20
-168.275658249074580
 11
-11.781807446401359
 21
-164.040236804398210
  0
LINE
  8
0
  6
CONTINUOUS
 62
3
 10
10.718192553598300
 20
-117.292584257775840
 11
0.718192553598300
 21
-117.292584257775780
  0
LINE
  8
0
  6
CONTINUOUS
 62
3
 10
10.718192553598300
 20
-157.262714122738600
 11
0.718192553598300
 21
-157.262714122738600
  0
LINE
  8
0
  6
CONTINUOUS
 62
3
 10
-7.610139364006812
 20
-165.645765095265740
 11
-0.558622762431099
 21
-165.645765095265740
  0
LINE
  8
0
  6
CONTINUOUS
 62
3
 10
-8.938815315130171
 20
-171.271546853338350
 11
-6.879373472103637
 21
-171.379477626893960
  0
ARC
  8
0
  6
CONTINUOUS
 62
3
 10
-10.947237716724871
 20
-168.645765095265740
 40
2.999999999999984
 50
18.355737695026161
 51
90.000000000000000
  0
LINE
  8
0
  6
CONTINUOUS
 62
3
 10
0.718192553598300
 20
-194.277649190257190
 11
-8.099878992904593
 21
-167.701017352275870
  0
ARC
  8
0
  6
CONTINUOUS
 62
3
 10
6.718192553598300
 20
-195.065273381129260
 40
2.000000000000000
 50
180.000000000000000
 51
267.000000000000400
  0
LINE
  8
0
  6
CONTINUOUS
 62
3
 10
0.718192553598300
 20
-194.855642263997080
 11
0.718192553598300
 21
-80.777649190257193
  0
ARC
  8
0
  6
CONTINUOUS
 62
3
 10
-11.281807446401700
 20
-71.117816316040717
 40
5.000000000000000
 50
180.000000000000000
 51
266.999999999999940
  0
LINE
  8
0
  6
CONTINUOUS
 62
3
 10
-15.781835744153028
 20
-75.777649190255829
 11
-15.781837201003469
 21
-75.777649190255829
  0
LINE
  8
0
  6
CONTINUOUS
 62
3
 10
10.718192553598300
 20
-77.277649190257193
 11
-11.543487227616424
 21
-76.110963989813570
  0
LINE
  8
0
  6
CONTINUOUS
 62
3
 10
-31.281807446401672
 20
-158.786376722719580
 11
-31.281807446401672
 21
-53.777648654077211
  0
ARC
  8
0
  6
CONTINUOUS
 62
3
 10
-13.281807446401700
 20
-60.120561008034883
 40
3.000000000000000
 50
180.000000000000000
 51
266.999999999999260
  0
POINT
  8
0
  6
CONTINUOUS
 62
3
 10
0.718192553598300
 20
-194.277649190257190
  0
LINE
  8
0
  6
DASHDOT
 62
4
 10
-5.281807446401700
 20
-85.804800596310429
 11
-5.281807446401729
 21
-61.713528944379846
  0
LINE
  8
0
  6
CONTINUOUS
 62
3
 10
-16.281807446401700
 20
-60.120561008034883
 11
-16.281807446401700
 21
-58.431488680653842
  0
ARC
  8
0
  6
CONTINUOUS
 62
3
 10
-2.281777484226325
 20
-194.872951823671880
 40
3.000000000000012
 50
0.198353339126269
 51
22.444622314741274
  0
ARC
  8
0
  6
CONTINUOUS
 62
3
 10
-21.281807446401672
 20
-58.431488680653842
 40
4.999999999999972
 50
0.000000000000000
 51
92.000000000000398
  0
ARC
  8
0
  6
CONTINUOUS
 62
3
 10
2.718192553598300
 20
-194.855642263997080
 40
2.000000000000000
 50
180.000000000000000
 51
267.000000000000060
  0
ARC
  8
0
  6
CONTINUOUS
 62
3
 10
10.718192553598300
 20
-75.277649190257193
 40
2.000000000000000
 50
180.000000000000000
 51
270.000000000000000
  0
LINE
  8
0
  6
CONTINUOUS
 62
3
 10
8.718192553598300
 20
-75.277649190257193
 11
8.718192553598300
 21
-67.124542890400392
  0
ARC
  8
0
  6
CONTINUOUS
 62
3
 10
5.718192553598300
 20
-67.124542890400392
 40
3.000000000000000
 50
0.000000000000000
 51
86.999999999999289
  0
LINE
  8
0
  6
CONTINUOUS
 62
3
 10
5.875200422327168
 20
-64.128654286136680
 11
-13.438815315130569
 21
-63.116449612298595
  0
LINE
  8
0
  6
CONTINUOUS
 62
3
 10
-16.694545414214986
 20
-159.040998328616240
 11
-31.281807446401331
 21
-158.786376722719580
  0
ARC
  8
0
  6
CONTINUOUS
 62
3
 10
-16.781807446401331
 20
-164.040236804398210
 40
4.999999999999972
 50
0.000000000000000
 51
89.000000000000838
  0
LINE
  8
0
  6
CONTINUOUS
 62
3
 10
10.718192553598300
 20
-197.277649190257190
 11
2.613520641112416
 21
-196.852901333506220
  0
ARC
  8
0
  6
CONTINUOUS
 62
3
 10
-8.781807446401359
 20
-168.275658249074580
 40
3.000000000000000
 50
180.000000000000000
 51
267.000000000000450
  0
POINT
  8
0
  6
CONTINUOUS
 62
3
 10
0.718192553598300
 20
-171.777649190257190
  0
LINE
  8
0
  6
CONTINUOUS
 62
3
 10
-21.456304929914211
 20
-53.434534545558392
 11
-31.281822800535906
 21
-53.777649190255374
  0
LINE
  8
0
  6
CONTINUOUS
 62
3
 10
10.718192553598300
 20
-197.277649190257190
 11
10.718192553598300
 21
-77.277649190257193
  0
ARC
  8
0
  6
CONTINUOUS
 62
3
 10
1.718192553598300
 20
-103.277649190257190
 40
1.000000000000000
 50
90.000000000000000
 51
180.000000000000000
  0
LINE
  8
0
  6
CONTINUOUS
 62
3
 10
4.718192553598300
 20
-101.277649190257190
 11
4.718192553598300
 21
-79.070762765120890
  0
LINE
  8
0
  6
CONTINUOUS
 62
3
 10
3.718192553598300
 20
-102.277649190257190
 11
1.718192553598300
 21
-102.277649190257190
  0
ARC
  8
0
  6
CONTINUOUS
 62
3
 10
3.718192553598300
 20
-101.277649190257190
 40
1.000000000000000
 50
270.000000000000000
 51
0.000000000000000
  0
LINE
  8
0
  6
CONTINUOUS
 62
3
 10
4.718192553598300
 20
-195.065273381129260
 11
4.718192553598300
 21
-173.277649190257190
  0
ARC
  8
0
  6
CONTINUOUS
 62
3
 10
3.718192553598300
 20
-173.277649190257190
 40
1.000000000000000
 50
0.000000000000000
 51
90.000000000000000
  0
LINE
  8
0
  6
CONTINUOUS
 62
3
 10
1.718192553598300
 20
-172.277649190257190
 11
3.718192553598300
 21
-172.277649190257190
  0
ARC
  8
0
  6
CONTINUOUS
 62
3
 10
1.718192553598300
 20
-171.277649190257190
 40
1.000000000000000
 50
180.000000000000000
 51
270.000000000000000
  0
ARC
  8
0
  6
CONTINUOUS
 62
3
 10
-2.281807446399000
 20
87.222351345922789
 40
3.000000000000000
 50
0.000000000000000
 51
90.000000000000000
  0
ARC
  8
0
  6
CONTINUOUS
 62
3
 10
3.718192553601000
 20
87.222351345922789
 40
3.000000000000000
 50
180.000000000000000
 51
270.000000000000000
  0
ARC
  8
0
  6
CONTINUOUS
 62
3
 10
6.718192553600545
 20
86.222351345922789
 40
2.000000000000000
 50
180.000000000000000
 51
270.000000000000000
  0
LINE
  8
0
  6
CONTINUOUS
 62
3
 10
3.718192553601000
 20
84.222351345922789
 11
10.718192553600545
 21
84.222351345922789
  0
ARC
  8
0
  6
CONTINUOUS
 62
3
 10
-21.281807446399455
 20
95.222351345922789
 40
5.000000000000000
 50
270.000000000000000
 51
0.000000000000000
  0
LINE
  8
0
  6
CONTINUOUS
 62
3
 10
-31.281807446403093
 20
90.222351345922789
 11
-2.281807446399000
 21
90.222351345922789
  0
LINE
  8
0
  6
CONTINUOUS
 62
3
 10
0.718192553601000
 20
113.291774422639940
 11
-13.281807446434016
 21
113.291774422639940
  0
ARC
  8
0
  6
CONTINUOUS
 62
3
 10
2.718192553601000
 20
115.291774422639940
 40
2.000000000000000
 50
180.000000000000000
 51
270.000000000000000
  0
ARC
  8
0
  6
CONTINUOUS
 62
3
 10
2.718192553600545
 20
111.291774422639940
 40
2.000000000000000
 50
0.000000000000000
 51
90.000000000000000
  0
LINE
  8
0
  6
CONTINUOUS
 62
3
 10
4.718192553600545
 20
86.222351345922789
 11
4.718192553600545
 21
111.291774422639940
  0
LINE
  8
0
  6
CONTINUOUS
 62
3
 10
0.718192553601000
 20
87.222351345922789
 11
0.718192553601000
 21
130.722351345922790
  0
ARC
  8
0
  6
CONTINUOUS
 62
3
 10
-13.281807446399455
 20
127.722351345922780
 40
3.000000000000000
 50
90.000000000000000
 51
180.000000000000000
  0
LINE
  8
0
  6
CONTINUOUS
 62
3
 10
-16.281807446399455
 20
95.222351345922789
 11
-16.281807446399455
 21
143.722351345922790
  0
ARC
  8
0
  6
CONTINUOUS
 62
3
 10
-13.281807446434016
 20
110.291774422639940
 40
3.000000000000000
 50
90.000000000000000
 51
180.000000000000000
  0
LINE
  8
0
  6
CONTINUOUS
 62
3
 10
-31.281807446395362
 20
130.722351345922790
 11
-16.281807446399455
 21
130.722351345922790
  0
ARC
  8
0
  6
CONTINUOUS
 62
3
 10
5.718192553600545
 20
133.722351345922790
 40
3.000000000000000
 50
270.000000000000000
 51
0.000000000000000
  0
LINE
  8
0
  6
CONTINUOUS
 62
3
 10
8.718192553600545
 20
133.722351345922790
 11
8.718192553600545
 21
153.722351345922790
  0
ARC
  8
0
  6
CONTINUOUS
 62
3
 10
5.718192553600545
 20
153.722351345922790
 40
3.000000000000000
 50
0.000000000000000
 51
90.000000000000000
  0
ARC
  8
0
  6
CONTINUOUS
 62
3
 10
-13.281807446399455
 20
159.722351345922790
 40
3.000000000000000
 50
180.000000000000000
 51
270.000000000000000
  0
LINE
  8
0
  6
CONTINUOUS
 62
3
 10
-31.281807446395362
 20
156.722351345922790
 11
-16.281807446399455
 21
156.722351345922790
  0
ARC
  8
0
  6
CONTINUOUS
 62
3
 10
-21.281807446399455
 20
192.222351345922790
 40
5.000000000000000
 50
0.000000000000000
 51
90.000000000000000
  0
LINE
  8
0
  6
CONTINUOUS
 62
3
 10
-16.281807446399455
 20
192.222351345922790
 11
-16.281807446399455
 21
143.722351345922790
  0
ARC
  8
0
  6
CONTINUOUS
 62
3
 10
-13.281807446434016
 20
177.152928269205630
 40
3.000000000000000
 50
180.000000000000000
 51
270.000000000000000
  0
LINE
  8
0
  6
CONTINUOUS
 62
3
 10
0.718192553601000
 20
174.152928269205630
 11
-13.281807446434016
 21
174.152928269205630
  0
ARC
  8
0
  6
CONTINUOUS
 62
3
 10
2.718192553600545
 20
176.152928269205630
 40
2.000000000000000
 50
270.000000000000000
 51
0.000000000000000
  0
ARC
  8
0
  6
CONTINUOUS
 62
3
 10
2.718192553601000
 20
172.152928269205630
 40
2.000000000000000
 50
90.000000000000000
 51
180.000000000000000
  0
ARC
  8
0
  6
CONTINUOUS
 62
3
 10
6.718192553600545
 20
201.222351345922790
 40
2.000000000000000
 50
90.000000000000000
 51
180.000000000000000
  0
LINE
  8
0
  6
CONTINUOUS
 62
3
 10
3.718192553601000
 20
203.222351345922790
 11
10.718192553600545
 21
203.222351345922790
  0
LINE
  8
0
  6
CONTINUOUS
 62
3
 10
4.718192553600545
 20
201.222351345922790
 11
4.718192553600545
 21
176.152928269205630
  0
LINE
  8
0
  6
CONTINUOUS
 62
3
 10
-31.281807446403093
 20
197.222351345922790
 11
-2.281807446399000
 21
197.222351345922790
  0
ARC
  8
0
  6
CONTINUOUS
 62
3
 10
-2.281807446399000
 20
200.222351345922790
 40
3.000000000000000
 50
270.000000000000000
 51
0.000000000000000
  0
LINE
  8
0
  6
CONTINUOUS
 62
3
 10
0.718192553601000
 20
200.222351345922790
 11
0.718192553601000
 21
156.722351345922790
  0
ARC
  8
0
  6
CONTINUOUS
 62
3
 10
3.718192553601000
 20
200.222351345922790
 40
3.000000000000000
 50
90.000000000000000
 51
180.000000000000000
  0
LINE
  8
0
  6
CONTINUOUS
 62
3
 10
-161.781807446422590
 20
-106.277648654077210
 11
-161.781807446422590
 21
-141.277648654077210
  0
ARC
  8
0
  6
CONTINUOUS
 62
3
 10
-158.781807446422590
 20
-141.277648654077210
 40
3.000000000000000
 50
180.000000000000000
 51
270.000000000000000
  0
LINE
  8
0
  6
CONTINUOUS
 62
4
 10
-161.781807446422590
 20
-135.034044204714290
 11
-159.781807446401440
 21
-135.034044204714290
  0
LINE
  8
0
  6
CONTINUOUS
 62
4
 10
-161.781807446422590
 20
-133.555021051237190
 11
-159.781807446401440
 21
-133.555021051237190
  0
LINE
  8
0
  6
CONTINUOUS
 62
4
 10
-161.781807446422590
 20
-130.462290059571960
 11
-159.781807446401440
 21
-130.462290059571960
  0
LINE
  8
0
  6
CONTINUOUS
 62
4
 10
-161.781807446422590
 20
-129.115888334073360
 11
-159.781807446401440
 21
-129.115888334073360
  0
LINE
  8
0
  6
CONTINUOUS
 62
4
 10
-161.781807446422590
 20
-126.277648654077210
 11
-159.781807446401440
 21
-126.277648654077210
  0
LINE
  8
0
  6
CONTINUOUS
 62
3
 10
-161.781807446422590
 20
-106.277648654077210
 11
-161.781807446422590
 21
-71.277648654077211
  0
ARC
  8
0
  6
CONTINUOUS
 62
3
 10
-158.781807446422590
 20
-71.277648654077211
 40
3.000000000000000
 50
90.000000000000000
 51
180.000000000000000
  0
LINE
  8
0
  6
CONTINUOUS
 62
4
 10
-161.781807446422590
 20
-86.277648654077211
 11
-159.781807446401440
 21
-86.277648654077211
  0
LINE
  8
0
  6
CONTINUOUS
 62
4
 10
-161.781807446422590
 20
-77.521253103440131
 11
-159.781807446401440
 21
-77.521253103440131
  0
LINE
  8
0
  6
CONTINUOUS
 62
4
 10
-161.781807446422590
 20
-79.000276256917232
 11
-159.781807446401440
 21
-79.000276256917232
  0
LINE
  8
0
  6
CONTINUOUS
 62
4
 10
-161.781807446422590
 20
-82.093007248582467
 11
-159.781807446401440
 21
-82.093007248582467
  0
LINE
  8
0
  6
CONTINUOUS
 62
4
 10
-161.781807446422590
 20
-83.439408974081061
 11
-159.781807446401440
 21
-83.439408974081061
  0
LINE
  8
0
  6
CONTINUOUS
 62
3
 10
-84.781807446401444
 20
-106.277648654077210
 11
-84.781807446401444
 21
-135.777648654077210
  0
LINE
  8
0
  6
CONTINUOUS
 62
3
 10
-84.781807446401444
 20
-106.277648654077210
 11
-84.781807446401444
 21
-76.777648654077211
  0
ARC
  8
0
  6
CONTINUOUS
 62
3
 10
-86.781807446401444
 20
-76.777648654077211
 40
2.000000000000000
 50
0.000000000000000
 51
90.000000000000000
  0
LINE
  8
0
  6
CONTINUOUS
 62
3
 10
-86.781807446401444
 20
-74.777648654077211
 11
-157.781807446401440
 21
-74.777648654077211
  0
ARC
  8
0
  6
CONTINUOUS
 62
3
 10
-157.781807446401440
 20
-76.777648654077211
 40
2.000000000000000
 50
90.000000000000000
 51
180.000000000000000
  0
LINE
  8
0
  6
CONTINUOUS
 62
3
 10
-159.781807446401440
 20
-106.277648654077210
 11
-159.781807446401440
 21
-76.777648654077211
  0
LINE
  8
0
  6
CONTINUOUS
 62
3
 10
-159.781807446401440
 20
-106.277648654077210
 11
-159.781807446401440
 21
-135.777648654077210
  0
ARC
  8
0
  6
CONTINUOUS
 62
3
 10
-157.781807446401440
 20
-135.777648654077210
 40
2.000000000000000
 50
180.000000000000000
 51
270.000000000000000
  0
LINE
  8
0
  6
CONTINUOUS
 62
3
 10
-86.781807446401444
 20
-137.777648654077210
 11
-157.781807446401440
 21
-137.777648654077210
  0
ARC
  8
0
  6
CONTINUOUS
 62
3
 10
-86.781807446401444
 20
-135.777648654077210
 40
2.000000000000000
 50
270.000000000000000
 51
0.000000000000000
  0
LINE
  8
0
  6
CONTINUOUS
 62
3
 10
-85.781807446401444
 20
-135.277648654077210
 11
-85.781807446401444
 21
-106.277648654077210
  0
LINE
  8
0
  6
CONTINUOUS
 62
3
 10
-85.781807446401444
 20
-77.277648654077211
 11
-85.781807446401444
 21
-106.277648654077210
  0
ARC
  8
0
  6
CONTINUOUS
 62
3
 10
-86.781807446401444
 20
-77.277648654077211
 40
1.000000000000000
 50
0.000000000000000
 51
90.000000000000000
  0
LINE
  8
0
  6
CONTINUOUS
 62
3
 10
-86.781807446401444
 20
-76.277648654077211
 11
-157.781807446401440
 21
-76.277648654077211
  0
ARC
  8
0
  6
CONTINUOUS
 62
3
 10
-157.781807446401440
 20
-77.277648654077211
 40
1.000000000000000
 50
90.000000000000000
 51
180.000000000000000
  0
LINE
  8
0
  6
CONTINUOUS
 62
3
 10
-158.781807446401440
 20
-106.277648654077210
 11
-158.781807446401440
 21
-77.277648654077211
  0
LINE
  8
0
  6
CONTINUOUS
 62
3
 10
-158.781807446401440
 20
-106.277648654077210
 11
-158.781807446401440
 21
-135.277648654077210
  0
ARC
  8
0
  6
CONTINUOUS
 62
3
 10
-157.781807446401440
 20
-135.277648654077210
 40
1.000000000000000
 50
180.000000000000000
 51
270.000000000000000
  0
LINE
  8
0
  6
CONTINUOUS
 62
3
 10
-86.781807446401444
 20
-136.277648654077210
 11
-157.781807446401440
 21
-136.277648654077210
  0
ARC
  8
0
  6
CONTINUOUS
 62
3
 10
-86.781807446401444
 20
-135.277648654077210
 40
1.000000000000000
 50
270.000000000000000
 51
0.000000000000000
  0
ARC
  8
0
  6
CONTINUOUS
 62
3
 10
330.760481107010490
 20
-117.511046838261670
 40
79.999999999999844
 50
91.910213171710154
 51
180.000000000000000
  0
ARC
  8
0
  6
CONTINUOUS
 62
3
 10
330.760481107010490
 20
-117.511046838261670
 40
52.746750336799941
 50
91.910213171710112
 51
180.000000000000000
  0
LINE
  8
0
  6
CONTINUOUS
 62
3
 10
278.013481107010190
 20
-117.277648654080500
 11
278.013481107010190
 21
-211.277648654080510
  0
LINE
  8
0
  6
CONTINUOUS
 62
3
 10
274.389006967920980
 20
-107.277649255010030
 11
274.389006967920980
 21
-211.277648654080510
  0
LINE
  8
0
  6
CONTINUOUS
 62
3
 10
258.969691655704990
 20
-107.277648654080500
 11
258.969691655704990
 21
-211.277648654080510
  0
LINE
  8
0
  6
DASHDOT
 62
4
 10
243.241224178897030
 20
-107.277648654080500
 11
447.677702524020790
 21
-107.277648654080500
  0
LINE
  8
0
  6
CONTINUOUS
 62
3
 10
250.760481107010490
 20
-117.511046838261670
 11
250.760481107010490
 21
-211.277648654080510
  0
LINE
  8
0
  6
CONTINUOUS
 62
3
 10
284.760481107010490
 20
-110.777648654080500
 11
284.760481107010490
 21
-200.677648654080600
  0
ARC
  8
0
  6
CONTINUOUS
 62
3
 10
288.260481107010490
 20
-110.777648654080500
 40
3.500000000000000
 50
90.000000000000000
 51
180.000000000000000
  0
LINE
  8
0
  6
CONTINUOUS
 62
3
 10
301.865259927955780
 20
-107.277648654080500
 11
288.260481107010490
 21
-107.277648654080500
  0
POLYLINE
  8
0
  6
CONTINUOUS
 62
3
 66
1
  0
VERTEX
  8
0
  6
CONTINUOUS
 62
3
 10
274.389006967920920
 20
-107.277649255010030
  0
VERTEX
  8
0
  6
CONTINUOUS
 62
3
 10
274.257735475661890
 20
-105.440154031865440
  0
VERTEX
  8
0
  6
CONTINUOUS
 62
3
 10
273.868391122020510
 20
-103.665232486635530
  0
VERTEX
  8
0
  6
CONTINUOUS
 62
3
 10
273.234232562498790
 20
-102.013327446065070
  0
VERTEX
  8
0
  6
CONTINUOUS
 62
3
 10
272.376855307075690
 20
-100.540692557214920
  0
VERTEX
  8
0
  6
CONTINUOUS
 62
3
 10
271.325456310987760
 20
-99.297476636907021
  0
VERTEX
  8
0
  6
CONTINUOUS
 62
3
 10
270.115839707398440
 20
-98.326015913849346
  0
VERTEX
  8
0
  6
CONTINUOUS
 62
3
 10
268.789197540539190
 20
-97.659392319088894
  0
VERTEX
  8
0
  6
CONTINUOUS
 62
3
 10
267.390707019993840
 20
-97.320306920484342
  0
VERTEX
  8
0
  6
CONTINUOUS
 62
3
 10
265.967992064951890
 20
-97.320306865037566
  0
VERTEX
  8
0
  6
CONTINUOUS
 62
3
 10
264.569501528696830
 20
-97.659392154636720
  0
VERTEX
  8
0
  6
CONTINUOUS
 62
3
 10
263.242859330953190
 20
-98.326015645992001
  0
VERTEX
  8
0
  6
CONTINUOUS
 62
3
 10
262.033242682356500
 20
-99.297476274766069
  0
VERTEX
  8
0
  6
CONTINUOUS
 62
3
 10
260.981843628670840
 20
-100.540692113122630
  0
VERTEX
  8
0
  6
CONTINUOUS
 62
3
 10
260.124466305021090
 20
-102.013326935144490
  0
VERTEX
  8
0
  6
CONTINUOUS
 62
3
 10
259.490307668967260
 20
-103.665231926285440
  0
VERTEX
  8
0
  6
CONTINUOUS
 62
3
 10
259.100963233094490
 20
-105.440153441167890
  0
VERTEX
  8
0
  6
CONTINUOUS
 62
3
 10
258.969691655705050
 20
-107.277648654080500
  0
SEQEND
  8
0
  6
CONTINUOUS
 62
3
  0
LINE
  8
0
  6
DASHED
 62
3
 10
292.260481107010490
 20
-126.777648654077660
 11
292.260481107010490
 21
-137.777648654077670
  0
LINE
  8
0
  6
DASHED
 62
3
 10
292.260481107010490
 20
-126.777648654077660
 11
290.960481107010310
 21
-126.777648654077660
  0
ARC
  8
0
  6
DASHED
 62
3
 10
290.960481107010310
 20
-126.577648654077620
 40
0.199999999999818
 50
180.000000000000000
 51
270.000000000000000
  0
LINE
  8
0
  6
DASHED
 62
3
 10
290.760481107010490
 20
-126.577648654077620
 11
290.760481107010490
 21
-85.977648654077711
  0
ARC
  8
0
  6
DASHED
 62
3
 10
290.960481107010310
 20
-85.977648654077711
 40
0.200000000000045
 50
90.000000000000000
 51
180.000000000000000
  0
LINE
  8
0
  6
DASHED
 62
3
 10
292.260481107010490
 20
-85.777648654077666
 11
290.960481107010310
 21
-85.777648654077666
  0
LINE
  8
0
  6
DASHED
 62
3
 10
292.260481107010490
 20
-85.777648654077666
 11
292.260481107010490
 21
-74.777648654077666
  0
LINE
  8
0
  6
DASHED
 62
3
 10
292.260481107010490
 20
-74.777648654077666
 11
287.260481107010490
 21
-74.777648654077666
  0
LINE
  8
0
  6
DASHED
 62
3
 10
287.260481107010490
 20
-137.777648654077670
 11
287.260481107010490
 21
-74.777648654077666
  0
LINE
  8
0
  6
DASHED
 62
3
 10
292.260481107010490
 20
-137.777648654077670
 11
287.260481107010490
 21
-137.777648654077670
  0
LINE
  8
0
  6
DASHED
 62
3
 10
287.260481107010490
 20
-76.277648654077666
 11
263.821711973028870
 21
-76.277648654077666
  0
ARC
  8
0
  6
DASHED
 62
3
 10
263.821711973028870
 20
-81.277648654077666
 40
5.000000000000000
 50
90.000000000000000
 51
111.370237415241170
  0
ARC
  8
0
  6
CONTINUOUS
 62
3
 10
557.760481107010490
 20
-106.277648654077690
 40
300.000000000000170
 50
175.138594604201960
 51
175.512736396763530
  0
ARC
  8
0
  6
DASHED
 62
3
 10
263.821711973028870
 20
-131.277648654077670
 40
4.999999999999893
 50
184.861405395798610
 51
270.000000000000000
  0
LINE
  8
0
  6
DASHED
 62
3
 10
287.260481107010490
 20
-136.277648654077670
 11
263.821711973028870
 21
-136.277648654077670
  0
LINE
  8
0
  6
DASHED
 62
3
 10
257.770897954528210
 20
-103.777648654077660
 11
257.260481107010490
 21
-103.777648654077660
  0
LINE
  8
0
  6
DASHED
 62
3
 10
257.260481107010490
 20
-108.777648654077660
 11
257.260481107010490
 21
-103.777648654077660
  0
LINE
  8
0
  6
DASHED
 62
3
 10
257.770897954528210
 20
-108.777648654077660
 11
257.260481107010490
 21
-108.777648654077660
  0
ARC
  8
0
  6
CONTINUOUS
 62
3
 10
263.821711973028870
 20
-81.277648654077666
 40
5.000000000000037
 50
111.370237415241170
 51
175.138594604201390
  0
ARC
  8
0
  6
DASHED
 62
3
 10
557.760481107010490
 20
-106.277648654077690
 40
300.000000000000000
 50
175.512736396763530
 51
184.861405395798040
  0
LINE
  8
0
  6
CONTINUOUS
 62
3
 10
-387.802063299750330
 20
-55.697027865671622
 11
-387.802062982758460
 21
-54.545596676943894
  0
LINE
  8
0
  6
CONTINUOUS
 62
3
 10
-256.802065303562300
 20
-135.741746829826130
 11
-257.202236304513120
 21
-135.510707292345440
  0
LINE
  8
0
  6
CONTINUOUS
 62
3
 10
-254.741694186121550
 20
-130.003104208183630
 11
-253.802063172624740
 21
-130.545601871940960
  0
LINE
  8
0
  6
CONTINUOUS
 62
3
 10
-253.802062486480050
 20
-134.009700046856100
 11
-256.802065062985890
 21
-135.741747019492440
  0
LINE
  8
0
  6
CONTINUOUS
 62
3
 10
-253.802063936433000
 20
-130.545601700851730
 11
-253.802062982758680
 21
-134.009699677536300
  0
ARC
  8
0
  6
CONTINUOUS
 62
3
 10
-256.802060598573690
 20
-132.277648654077320
 40
6.500000000000013
 50
217.979872444850630
 51
68.928606981454536
  0
ARC
  8
0
  6
CONTINUOUS
 62
3
 10
-256.802060598573690
 20
-132.277648654077320
 40
5.633955001831044
 50
225.233354927603590
 51
66.185261471734876
  0
LINE
  8
0
  6
CONTINUOUS
 62
3
 10
-351.302055893584570
 20
-49.741746829827377
 11
-348.302063021472800
 21
-48.009694872111311
  0
LINE
  8
0
  6
CONTINUOUS
 62
3
 10
-351.302067217175020
 20
-42.813551757692949
 11
-354.302058024522240
 21
-44.545601871942210
  0
LINE
  8
0
  6
CONTINUOUS
 62
3
 10
-354.302058710666870
 20
-48.009700046857347
 11
-351.302056134161030
 21
-49.741747019493687
  0
LINE
  8
0
  6
CONTINUOUS
 62
3
 10
-351.302067300294080
 20
-42.813551654143339
 11
-348.302062659021660
 21
-44.545596832373008
  0
LINE
  8
0
  6
CONTINUOUS
 62
3
 10
-354.302057260713920
 20
-44.545601700853005
 11
-354.302058214388240
 21
-48.009699677537576
  0
LINE
  8
0
  6
CONTINUOUS
 62
3
 10
-348.302063936432320
 20
-48.009694653629829
 11
-348.302062982758000
 21
-44.545596676945259
  0
ARC
  8
0
  6
CONTINUOUS
 62
3
 10
-351.302060598573230
 20
-46.277648654078575
 40
6.499999999999885
 50
290.604957506376820
 51
252.353586549805040
  0
CIRCLE
  8
0
  6
CONTINUOUS
 62
3
 10
-351.302060598573230
 20
-46.277648654078575
 40
5.633955001831055
  0
LINE
  8
0
  6
CONTINUOUS
 62
3
 10
-330.302065303562360
 20
-49.741746829827377
 11
-333.302058175674120
 21
-48.009694872111311
  0
LINE
  8
0
  6
CONTINUOUS
 62
3
 10
-330.302053979972020
 20
-42.813551757692949
 11
-327.302063172624680
 21
-44.545601871942210
  0
LINE
  8
0
  6
CONTINUOUS
 62
3
 10
-327.302062486480050
 20
-48.009700046857347
 11
-330.302065062985890
 21
-49.741747019493687
  0
LINE
  8
0
  6
CONTINUOUS
 62
3
 10
-330.302053896852840
 20
-42.813551654143339
 11
-333.302058538125270
 21
-44.545596832373008
  0
LINE
  8
0
  6
CONTINUOUS
 62
3
 10
-327.302063936433000
 20
-44.545601700853005
 11
-327.302062982758680
 21
-48.009699677537576
  0
LINE
  8
0
  6
CONTINUOUS
 62
3
 10
-333.302057260714610
 20
-48.009694653629829
 11
-333.302058214388920
 21
-44.545596676945259
  0
ARC
  8
0
  6
CONTINUOUS
 62
3
 10
-330.302060598573690
 20
-46.277648654078575
 40
6.499999999999873
 50
287.646413450194930
 51
249.395042493623210
  0
CIRCLE
  8
0
  6
CONTINUOUS
 62
3
 10
-330.302060598573690
 20
-46.277648654078575
 40
5.633955001831055
  0
LINE
  8
0
  6
CONTINUOUS
 62
3
 10
-290.802053979971900
 20
-52.813551757691584
 11
-287.802063172624800
 21
-54.545601871940846
  0
LINE
  8
0
  6
CONTINUOUS
 62
3
 10
-287.802062486480050
 20
-58.009700046855983
 11
-290.222663494678840
 21
-59.407230396011350
  0
LINE
  8
0
  6
CONTINUOUS
 62
3
 10
-290.802053896852840
 20
-52.813551654141975
 11
-293.802058538125150
 21
-54.545596832371643
  0
LINE
  8
0
  6
CONTINUOUS
 62
3
 10
-287.802063936433000
 20
-54.545601700851641
 11
-287.802062982758680
 21
-58.009699677536211
  0
LINE
  8
0
  6
CONTINUOUS
 62
3
 10
-293.802057883945450
 20
-55.745889682179346
 11
-293.802058214388920
 21
-54.545596676943894
  0
ARC
  8
0
  6
CONTINUOUS
 62
3
 10
-290.802060598573690
 20
-56.277648654077211
 40
6.499999999999994
 50
275.771698093012960
 51
174.732859401949500
  0
ARC
  8
0
  6
CONTINUOUS
 62
3
 10
-290.802060598573690
 20
-56.277648654077211
 40
5.633955001831062
 50
279.194274751128770
 51
170.620935134146040
  0
LINE
  8
0
  6
CONTINUOUS
 62
3
 10
-390.802067217175480
 20
-52.813551757691584
 11
-393.802058024522580
 21
-54.545601871940846
  0
LINE
  8
0
  6
CONTINUOUS
 62
3
 10
-393.802058710667320
 20
-58.009700046855983
 11
-391.424723292685370
 21
-59.382251072613045
  0
LINE
  8
0
  6
CONTINUOUS
 62
3
 10
-390.802067300294540
 20
-52.813551654141975
 11
-387.802062659022230
 21
-54.545596832371643
  0
LINE
  8
0
  6
CONTINUOUS
 62
3
 10
-393.802057260714380
 20
-54.545601700851641
 11
-393.802058214388690
 21
-58.009699677536211
  0
ARC
  8
0
  6
CONTINUOUS
 62
3
 10
-390.802060598573690
 20
-56.277648654077211
 40
6.500000000000066
 50
5.267140598050450
 51
264.228301906986530
  0
ARC
  8
0
  6
CONTINUOUS
 62
3
 10
-390.802060598573690
 20
-56.277648654077211
 40
5.633955001831026
 50
9.379064865854064
 51
260.542060050072340
  0
ARC
  8
0
  6
CONTINUOUS
 62
3
 10
-326.802060598573690
 20
-117.511046838258830
 40
80.000000000000028
 50
30.738481478504223
 51
85.339580615885225
  0
TEXT
  8
0
  6
CONTINUOUS
 62
3
 10
-350.713562011718750
 20
137.500350952148440
 40
10.000000000000000
  1
S038
 50
0.000002504478167
 41
0.470000016689301
  7
STANDARD1
  0
TEXT
  8
0
  6
CONTINUOUS
 62
3
 10
-350.713562011718750
 20
126.200355529785150
 40
10.000000000000000
  1
三菱ギヤードモートル
 50
0.000002504478167
 41
0.625000000000000
  7
STANDARD1
  0
TEXT
  8
0
  6
CONTINUOUS
 62
3
 10
-350.713562011718750
 20
114.900360107421870
 40
10.000000000000000
  1
GM-SS
 50
0.000002504478167
 41
0.470000016689301
  7
STANDARD1
  0
TEXT
  8
0
  6
CONTINUOUS
 62
3
 10
-350.713562011718750
 20
103.600357055664060
 40
10.000000000000000
  1
0.1kW
 50
0.000002504478167
 41
0.470000016689301
  7
STANDARD1
  0
TEXT
  8
0
  6
CONTINUOUS
 62
3
 10
-350.713562011718750
 20
92.300361633300781
 40
10.000000000000000
  1
1/1200
 50
0.000002504478167
 41
0.470000016689301
  7
STANDARD1
  0
TEXT
  8
0
  6
CONTINUOUS
 62
3
 10
-350.713562011718750
 20
81.000358581542969
 40
10.000000000000000
  1
SCALE1/1
 50
0.000002504478167
 41
0.470000016689301
  7
STANDARD1
  0
ARC
  8
0
  6
CONTINUOUS
 62
3
 10
-403.302060598573690
 20
-147.158492807477270
 40
3.000000000000168
 50
322.203357465589990
 51
0.000000000000000
  0
ARC
  8
0
  6
CONTINUOUS
 62
3
 10
-376.652320126968560
 20
-195.399512345504830
 40
2.999999999999921
 50
79.695153531234737
 51
95.631713938415942
  0
ARC
  8
0
  6
CONTINUOUS
 62
3
 10
-379.596332798932740
 20
-165.544315320743520
 40
26.999999999999797
 50
142.203357465588340
 51
275.631713938414800
  0
ARC
  8
0
  6
CONTINUOUS
 62
3
 10
-303.652280914846190
 20
-195.162378085774780
 40
2.999999999999886
 50
99.749988138587184
 51
139.848912341650620
  0
ARC
  8
0
  6
CONTINUOUS
 62
3
 10
-326.582683879185200
 20
-175.818215661595450
 40
26.999999999999847
 50
232.492357161294190
 51
319.848912341650250
  0
ARC
  8
0
  6
CONTINUOUS
 62
3
 10
-340.802060598573230
 20
-137.277648654077100
 40
101.000000000000050
 50
309.950233661982400
 51
337.984630459603070
  0
ARC
  8
0
  6
CONTINUOUS
 62
3
 10
-340.802060598573690
 20
-137.277648654077100
 40
101.000000000000310
 50
202.015369540396850
 51
230.049766338017580
  0
ARC
  8
0
  6
CONTINUOUS
 62
3
 10
-429.802060598573690
 20
-173.263757084970280
 40
5.000000000000000
 50
180.000000000000000
 51
202.015369540398010
  0
ARC
  8
0
  6
CONTINUOUS
 62
3
 10
-251.802060598573230
 20
-173.263757084970280
 40
4.999999999999877
 50
337.984630459601990
 51
0.000000000000000
  0
ARC
  8
0
  6
CONTINUOUS
 62
3
 10
-410.793357668784440
 20
-220.837317959487220
 40
8.000000000000107
 50
1.781769897912753
 51
50.049766338017157
  0
ARC
  8
0
  6
CONTINUOUS
 62
3
 10
-392.802060598573690
 20
-220.277648654077100
 40
9.999999999999675
 50
181.781769897911860
 51
270.000000000000000
  0
ARC
  8
0
  6
CONTINUOUS
 62
3
 10
-288.802060598573690
 20
-220.277648654077100
 40
10.000000000000000
 50
270.000000000000000
 51
358.218230102088230
  0
ARC
  8
0
  6
CONTINUOUS
 62
3
 10
-270.810763528362490
 20
-220.837317959487220
 40
7.999999999999901
 50
129.950233661982820
 51
178.218230102087230
  0
ARC
  8
0
  6
CONTINUOUS
 62
3
 10
-250.304063371442000
 20
-102.277648654077210
 40
2.000000000000000
 50
270.000000000000000
 51
11.262247925638780
  0
ARC
  8
0
  6
CONTINUOUS
 62
3
 10
-248.802060598573230
 20
-122.277648654077210
 40
2.000000000000000
 50
0.000000000000000
 51
90.000000000000000
  0
ARC
  8
0
  6
CONTINUOUS
 62
3
 10
-431.300057825704930
 20
-102.277648654077210
 40
2.000000000000145
 50
168.737752074361230
 51
270.000000000000000
  0
ARC
  8
0
  6
CONTINUOUS
 62
3
 10
-425.802060598573690
 20
-112.277648654077210
 40
8.000000000000000
 50
270.000000000000000
 51
90.000000000000000
  0
ARC
  8
0
  6
CONTINUOUS
 62
3
 10
-432.802060598573690
 20
-122.277648654077210
 40
2.000000000000000
 50
90.000000000000000
 51
180.000000000000000
  0
LINE
  8
0
  6
CONTINUOUS
 62
4
 10
-340.802060598573690
 20
-137.277648654077100
 11
-340.418655370548320
 21
-136.894243426051960
  0
LINE
  8
0
  6
DASHDOT
 62
4
 10
-340.802060598573690
 20
6.098607728278921
 11
-340.802060598573690
 21
-234.033902391722340
  0
LINE
  8
0
  6
DASHDOT
 62
4
 10
-317.316958631188750
 20
-107.277648654077210
 11
-364.147013874571710
 21
-107.277648654077210
  0
LINE
  8
0
  6
CONTINUOUS
 62
3
 10
-248.802060598573230
 20
-120.277648654077210
 11
-254.083859616384420
 21
-120.277648654077210
  0
LINE
  8
0
  6
CONTINUOUS
 62
3
 10
-250.304063371442000
 20
-104.277648654077210
 11
-253.817060973592450
 21
-104.277648654077210
  0
LINE
  8
0
  6
CONTINUOUS
 62
3
 10
-431.300057825704930
 20
-104.277648654077210
 11
-425.802060598573690
 21
-104.277648654077210
  0
LINE
  8
0
  6
CONTINUOUS
 62
3
 10
-432.802060598573690
 20
-120.277648654077210
 11
-425.802060598573690
 21
-120.277648654077210
  0
LINE
  8
0
  6
CONTINUOUS
 62
3
 10
-410.802060598574140
 20
-217.999392936519260
 11
-410.802060598574140
 21
-232.277648654077100
  0
LINE
  8
0
  6
CONTINUOUS
 62
3
 10
-438.302060598574140
 20
-214.277648654077100
 11
-414.639720366473060
 21
-214.277648654077100
  0
ARC
  8
0
  6
CONTINUOUS
 62
3
 10
-272.802060598573690
 20
-232.277648654077100
 40
2.000000000000000
 50
0.000000000000000
 51
90.000000000000000
  0
ARC
  8
0
  6
CONTINUOUS
 62
3
 10
-243.302060598573690
 20
-216.777648654077100
 40
2.500000000000000
 50
0.000000000000000
 51
90.000000000000000
  0
ARC
  8
0
  6
CONTINUOUS
 62
3
 10
-408.802060598573690
 20
-232.277648654077100
 40
2.000000000000000
 50
90.000000000000000
 51
180.000000000000000
  0
ARC
  8
0
  6
CONTINUOUS
 62
3
 10
-438.302060598573690
 20
-216.777648654077100
 40
2.500000000000000
 50
90.000000000000000
 51
180.000000000000000
  0
ARC
  8
0
  6
CONTINUOUS
 62
3
 10
-243.802060598573690
 20
-211.277648654077100
 40
3.000000000000000
 50
180.000000000000000
 51
270.000000000000000
  0
ARC
  8
0
  6
CONTINUOUS
 62
3
 10
-437.802060598574140
 20
-211.277648654077100
 40
3.000000000000000
 50
270.000000000000000
 51
0.000000000000000
  0
ARC
  8
0
  6
CONTINUOUS
 62
3
 10
-326.802060598573690
 20
-117.511046838258830
 40
80.000000000000000
 50
0.000000000000000
 51
25.868477777668005
  0
ARC
  8
0
  6
CONTINUOUS
 62
3
 10
-354.802060598574140
 20
-117.511046838258830
 40
80.000000000000142
 50
94.660419384114462
 51
180.000000000000000
  0
LINE
  8
0
  6
CONTINUOUS
 62
3
 10
-270.802060598573690
 20
-217.999392936519260
 11
-270.802060598573690
 21
-232.277648654077100
  0
LINE
  8
0
  6
CONTINUOUS
 62
3
 10
-240.802060598573690
 20
-216.777648654077100
 11
-240.802060598573690
 21
-232.277648654077100
  0
LINE
  8
0
  6
DASHDOT
 62
4
 10
-253.302060598573690
 20
-210.117369799707030
 11
-253.302060598573690
 21
-236.694440493676780
  0
LINE
  8
0
  6
CONTINUOUS
 62
3
 10
-240.802060598573690
 20
-232.277648654077100
 11
-270.802060598573690
 21
-232.277648654077100
  0
LINE
  8
0
  6
CONTINUOUS
 62
3
 10
-243.302060598573690
 20
-214.277648654077100
 11
-266.964400830674780
 21
-214.277648654077100
  0
LINE
  8
0
  6
CONTINUOUS
 62
3
 10
-440.802060598573690
 20
-216.777648654077100
 11
-440.802060598573690
 21
-232.277648654077100
  0
LINE
  8
0
  6
DASHDOT
 62
4
 10
-428.302060598573690
 20
-210.117369799707030
 11
-428.302060598573690
 21
-236.694440493676780
  0
LINE
  8
0
  6
CONTINUOUS
 62
3
 10
-440.802060598573690
 20
-232.277648654077100
 11
-410.802060598573690
 21
-232.277648654077100
  0
LINE
  8
0
  6
CONTINUOUS
 62
3
 10
-272.802060598573690
 20
-230.277648654077100
 11
-340.802060598573690
 21
-230.277648654077100
  0
LINE
  8
0
  6
CONTINUOUS
 62
3
 10
-408.802060598573690
 20
-230.277648654077100
 11
-340.802060598573690
 21
-230.277648654077100
  0
LINE
  8
0
  6
CONTINUOUS
 62
3
 10
-246.802060598573690
 20
-117.511046838258830
 11
-246.802060598573690
 21
-211.277648654077100
  0
LINE
  8
0
  6
CONTINUOUS
 62
3
 10
-434.802060598574140
 20
-117.511046838258830
 11
-434.802060598574140
 21
-211.277648654077100
  0
ARC
  8
0
  6
CONTINUOUS
 62
3
 10
-265.791162658016900
 20
-223.122655440443960
 40
7.999999999999876
 50
131.146783655316060
 51
180.000000000000000
  0
ARC
  8
0
  6
CONTINUOUS
 62
3
 10
-415.812958539130930
 20
-223.122655440443960
 40
8.000000000000000
 50
0.000000000000000
 51
48.853216344683936
  0
ARC
  8
0
  6
CONTINUOUS
 62
3
 10
-431.802060598574140
 20
-197.277648654077100
 40
2.999999999999984
 50
33.398488467989075
 51
180.000000000000000
  0
ARC
  8
0
  6
CONTINUOUS
 62
3
 10
-409.812958539130930
 20
-228.407495510624240
 40
2.000000000000107
 50
284.638791943256020
 51
0.000000000000000
  0
LINE
  8
0
  6
CONTINUOUS
 62
3
 10
-407.812958539130930
 20
-223.122655440443960
 11
-407.812958539130930
 21
-228.407495510624240
  0
ARC
  8
0
  6
CONTINUOUS
 62
3
 10
-413.302060598574140
 20
-217.999392936519260
 40
2.500000000000000
 50
0.000000000000000
 51
48.071495567382364
  0
ARC
  8
0
  6
CONTINUOUS
 62
3
 10
-340.802060598574140
 20
-137.277648654077100
 40
105.999999999999920
 50
228.671341353656570
 51
228.853216344683940
  0
ARC
  8
0
  6
CONTINUOUS
 62
3
 10
-414.639720366473060
 20
-216.777648654077100
 40
2.499999999999925
 50
47.114815451044294
 51
90.000000000000000
  0
ARC
  8
0
  6
CONTINUOUS
 62
3
 10
-340.802060598574140
 20
-137.277648654077100
 40
106.000000000000010
 50
213.398488467987190
 51
228.671341353656570
  0
ARC
  8
0
  6
CONTINUOUS
 62
3
 10
-340.802060598573690
 20
-137.277648654077100
 40
105.999999999999920
 50
311.328658646343400
 51
326.601511532012810
  0
ARC
  8
0
  6
CONTINUOUS
 62
3
 10
-268.302060598573690
 20
-217.999392936519260
 40
2.499999999999799
 50
131.928504432617640
 51
180.000000000000000
  0
ARC
  8
0
  6
CONTINUOUS
 62
3
 10
-266.964400830674780
 20
-216.777648654077100
 40
2.500000000000000
 50
90.000000000000000
 51
132.885184548955720
  0
ARC
  8
0
  6
CONTINUOUS
 62
3
 10
-271.791162658016900
 20
-228.407495510624240
 40
2.000000000000000
 50
180.000000000000000
 51
255.361208056743980
  0
LINE
  8
0
  6
CONTINUOUS
 62
3
 10
-273.791162658016900
 20
-223.122655440443960
 11
-273.791162658016900
 21
-228.407495510624240
  0
ARC
  8
0
  6
CONTINUOUS
 62
3
 10
-249.802060598573690
 20
-197.277648654077100
 40
3.000000000000000
 50
0.000000000000000
 51
146.601511532010900
  0
ARC
  8
0
  6
CONTINUOUS
 62
3
 10
-340.802060598573690
 20
-137.277648654077100
 40
106.000000000000110
 50
311.146783655316030
 51
311.328658646343400
  0
LINE
  8
0
  6
DASHDOT
 62
4
 10
-317.634147599692140
 20
-22.277648654077211
 11
-364.656661501226840
 21
-22.277648654077211
  0
CIRCLE
  8
0
  6
CONTINUOUS
 62
3
 10
-340.802060598573690
 20
-22.277648654077211
 40
10.000000000000000
  0
LINE
  8
0
  6
CONTINUOUS
 62
3
 10
-361.302060598573690
 20
-12.277648654077211
 11
-361.302060598573690
 21
-52.802518209806919
  0
ARC
  8
0
  6
CONTINUOUS
 62
3
 10
-351.302060598573690
 20
-12.277648654077211
 40
10.000000000000000
 50
90.000000000000000
 51
180.000000000000000
  0
LINE
  8
0
  6
CONTINUOUS
 62
3
 10
-330.302060598573690
 20
-2.277648654077211
 11
-351.302060598573690
 21
-2.277648654077211
  0
ARC
  8
0
  6
CONTINUOUS
 62
3
 10
-330.302060598573690
 20
-12.277648654077211
 40
10.000000000000000
 50
0.000000000000000
 51
90.000000000000000
  0
LINE
  8
0
  6
CONTINUOUS
 62
3
 10
-320.302060598573690
 20
-12.277648654077211
 11
-320.302060598573690
 21
-52.802518209806919
  0
INSERT
  8
0
  2
SYM12
 10
-288.802060598573690
 20
-220.277648654077100
  0
INSERT
  8
0
  2
SYM13
 10
-424.802060598573690
 20
-132.277648654077320
 41
-1.000000000000000
  0
INSERT
  8
0
  2
SYM14
 10
-392.802060598573690
 20
-220.277648654077100
 41
-1.000000000000000
  0
INSERT
  8
0
  2
SYM15
 10
-384.996234422733100
 20
-181.471822478236050
  0
INSERT
  8
0
  2
SYM16
 10
-296.607886774414280
 20
-181.471822478236050
  0
ARC
  8
0
  6
CONTINUOUS
 62
3
 10
-364.302060598573690
 20
-167.139832097355450
 40
3.000000000000000
 50
0.000000000000000
 51
51.799077169162757
  0
ARC
  8
0
  6
CONTINUOUS
 62
3
 10
-354.302060598573690
 20
-172.798769131900030
 40
2.999999999999950
 50
69.190426422324265
 51
180.000000000000000
  0
ARC
  8
0
  6
CONTINUOUS
 62
3
 10
-327.302060598573690
 20
-172.798769131900030
 40
3.000000000000000
 50
0.000000000000000
 51
110.809573577675730
  0
ARC
  8
0
  6
CONTINUOUS
 62
3
 10
-317.302060598573690
 20
-167.139832097355450
 40
2.999999999999980
 50
128.200922830837240
 51
180.000000000000000
  0
ARC
  8
0
  6
CONTINUOUS
 62
3
 10
-340.802060598573690
 20
-137.277648654077100
 40
35.000000000000007
 50
219.109992212758270
 51
270.000000000000000
  0
ARC
  8
0
  6
CONTINUOUS
 62
3
 10
-340.802060598573690
 20
-137.277648654077100
 40
35.000000000000000
 50
270.000000000000000
 51
320.890007787241700
  0
ARC
  8
0
  6
CONTINUOUS
 62
3
 10
-340.802060598573690
 20
-137.277648654077100
 40
60.000000000000036
 50
257.161431859015810
 51
282.838568140984190
  0
ARC
  8
0
  6
CONTINUOUS
 62
3
 10
-387.186998886772240
 20
-177.277648654077100
 40
5.000000000000002
 50
40.772804694041938
 51
90.000000000000000
  0
ARC
  8
0
  6
CONTINUOUS
 62
3
 10
-391.961657732060530
 20
-167.277648654077100
 40
4.999999999999689
 50
190.000000000003150
 51
270.000000000000000
  0
ARC
  8
0
  6
CONTINUOUS
 62
3
 10
-366.302060598573690
 20
-192.967077633013670
 40
5.000000000000000
 50
0.000000000000000
 51
65.397117751181796
  0
ARC
  8
0
  6
CONTINUOUS
 62
3
 10
-315.302060598573690
 20
-192.967077633013670
 40
5.000000000000226
 50
114.602882248818190
 51
180.000000000000000
  0
ARC
  8
0
  6
CONTINUOUS
 62
3
 10
-289.642463465086850
 20
-167.277648654077100
 40
5.000000000000000
 50
270.000000000000000
 51
349.999999999996870
  0
ARC
  8
0
  6
CONTINUOUS
 62
3
 10
-381.113603240951990
 20
-171.212318036286550
 40
14.999999999999844
 50
189.999999999999970
 51
225.000000000000000
  0
LINE
  8
0
  6
CONTINUOUS
 62
3
 10
-398.661619387463590
 20
-158.074130341373010
 11
-395.885719536134960
 21
-173.817040701290470
  0
ARC
  8
0
  6
CONTINUOUS
 62
3
 10
-340.802060598573690
 20
-137.277648654077100
 40
56.249999999999901
 50
220.772804694043030
 51
245.397117751180330
  0
LINE
  8
0
  6
CONTINUOUS
 62
3
 10
-391.961657732060530
 20
-172.277648654077100
 11
-387.186998886772240
 21
-172.277648654077100
  0
LINE
  8
0
  6
CONTINUOUS
 62
3
 10
-354.134352224547230
 20
-195.777648654077100
 11
-356.449511442331410
 21
-195.777648654077100
  0
ARC
  8
0
  6
CONTINUOUS
 62
3
 10
-356.449511442331410
 20
-180.777648654077100
 40
14.999999999999908
 50
259.695153531233190
 51
270.000000000000000
  0
LINE
  8
0
  6
CONTINUOUS
 62
3
 10
-377.586834458567640
 20
-192.180417043168860
 11
-359.132793015331340
 21
-195.535697305575580
  0
ARC
  8
0
  6
CONTINUOUS
 62
3
 10
-354.302060598573690
 20
-191.777648654077100
 40
3.000000000000000
 50
180.000000000000000
 51
270.000000000000000
  0
LINE
  8
0
  6
CONTINUOUS
 62
3
 10
-357.302060598573690
 20
-172.798769131900030
 11
-357.302060598573690
 21
-191.777648654077100
  0
LINE
  8
0
  6
CONTINUOUS
 62
3
 10
-361.302060598573690
 20
-167.139832097355450
 11
-361.302060598573690
 21
-195.141285017713590
  0
LINE
  8
0
  6
CONTINUOUS
 62
3
 10
-327.469768972600150
 20
-195.777648654077100
 11
-325.154609754815970
 21
-195.777648654077100
  0
ARC
  8
0
  6
CONTINUOUS
 62
3
 10
-325.154609754815970
 20
-180.777648654077100
 40
15.000000000000000
 50
270.000000000000000
 51
280.304846468766810
  0
LINE
  8
0
  6
CONTINUOUS
 62
3
 10
-304.017286738579740
 20
-192.180417043168860
 11
-322.471328181816030
 21
-195.535697305575580
  0
LINE
  8
0
  6
CONTINUOUS
 62
3
 10
-324.302060598573690
 20
-172.798769131900030
 11
-324.302060598573690
 21
-191.777648654077100
  0
ARC
  8
0
  6
CONTINUOUS
 62
3
 10
-327.302060598573690
 20
-191.777648654077100
 40
3.000000000000000
 50
270.000000000000000
 51
0.000000000000000
  0
LINE
  8
0
  6
CONTINUOUS
 62
3
 10
-320.302060598573690
 20
-167.139832097355450
 11
-320.302060598573690
 21
-195.141285017713590
  0
ARC
  8
0
  6
CONTINUOUS
 62
3
 10
-340.802060598573690
 20
-137.277648654077100
 40
56.249999999999943
 50
294.602882248819700
 51
319.227195305956970
  0
ARC
  8
0
  6
CONTINUOUS
 62
3
 10
-294.417122310375130
 20
-177.277648654077100
 40
5.000000000000000
 50
90.000000000000000
 51
139.227195305958050
  0
LINE
  8
0
  6
CONTINUOUS
 62
3
 10
-289.642463465086850
 20
-172.277648654077100
 11
-294.417122310375130
 21
-172.277648654077100
  0
ARC
  8
0
  6
CONTINUOUS
 62
3
 10
-399.302060598573690
 20
-118.277648654077210
 40
1.000000000000087
 50
109.373802159153490
 51
180.000000000000000
  0
LINE
  8
0
  6
CONTINUOUS
 62
3
 10
-400.302060598573690
 20
-137.277648654077100
 11
-400.302060598573690
 21
-118.277648654077210
  0
ARC
  8
0
  6
CONTINUOUS
 62
3
 10
-399.646427140475450
 20
-158.247778519040030
 40
0.999999999999677
 50
10.000000000008416
 51
80.085216630857445
  0
ARC
  8
0
  6
CONTINUOUS
 62
3
 10
-399.302060598573690
 20
-156.277648654077100
 40
1.000000000000000
 50
180.000000000000000
 51
260.085216630857420
  0
LINE
  8
0
  6
CONTINUOUS
 62
3
 10
-400.302060598573690
 20
-137.277648654077100
 11
-400.302060598573690
 21
-156.277648654077100
  0
LINE
  8
0
  6
CONTINUOUS
 62
3
 10
-391.720204958750170
 20
-181.818919754084730
 11
-385.510154603365890
 21
-188.028970109468560
  0
ARC
  8
0
  6
CONTINUOUS
 62
3
 10
-374.903552885567710
 20
-177.422368391670370
 40
14.999999999999961
 50
225.000000000000000
 51
259.695153531233190
  0
ARC
  8
0
  6
CONTINUOUS
 62
3
 10
-281.957694056671930
 20
-158.247778519040030
 40
1.000000000000028
 50
99.914783369142555
 51
169.999999999991590
  0
ARC
  8
0
  6
CONTINUOUS
 62
3
 10
-282.302060598573690
 20
-156.277648654077100
 40
1.000000000000028
 50
279.914783369142580
 51
0.000000000000000
  0
LINE
  8
0
  6
CONTINUOUS
 62
3
 10
-282.942501809683790
 20
-158.074130341373010
 11
-285.718401661012420
 21
-173.817040701290470
  0
LINE
  8
0
  6
CONTINUOUS
 62
3
 10
-281.302060598573690
 20
-136.277648654077210
 11
-281.302060598573690
 21
-156.277648654077100
  0
ARC
  8
0
  6
CONTINUOUS
 62
3
 10
-300.490517956195390
 20
-171.212318036286550
 40
14.999999999999961
 50
315.000000000000000
 51
350.000000000000000
  0
LINE
  8
0
  6
CONTINUOUS
 62
3
 10
-289.883916238397210
 20
-181.818919754084730
 11
-296.093966593781490
 21
-188.028970109468560
  0
ARC
  8
0
  6
CONTINUOUS
 62
3
 10
-306.700568311579670
 20
-177.422368391670370
 40
14.999999999999908
 50
280.304846468766810
 51
315.000000000000000
  0
LINE
  8
0
  6
DASHDOT
 62
4
 10
-445.470219797160100
 20
-106.277648654077210
 11
-231.264937230131180
 21
-106.277648654077210
  0
ARC
  8
0
  6
CONTINUOUS
 62
3
 10
148.718192553597820
 20
238.808865030344120
 40
5.000000000000000
 50
0.000000000000000
 51
88.999999999998238
  0
LINE
  8
0
  6
CONTINUOUS
 62
3
 10
152.718192553599640
 20
177.222351345922790
 11
153.718192553599640
 21
177.222351345922790
  0
LINE
  8
0
  6
CONTINUOUS
 62
3
 10
152.718192553598730
 20
110.222351345922780
 11
153.718192553598730
 21
110.222351345922780
  0
ARC
  8
0
  6
CONTINUOUS
 62
3
 10
148.718192553597820
 20
48.635837661501000
 40
5.000000000000068
 50
271.000000000001760
 51
359.999999999994830
  0
LINE
  8
0
  6
DASHDOT
 62
4
 10
140.718192553598730
 20
241.533452846785390
 11
140.718192553598730
 21
220.989539125009060
  0
LINE
  8
0
  6
DASHDOT
 62
4
 10
151.263447487578050
 20
231.222351345922790
 11
130.116210998338320
 21
231.222351345922790
  0
LINE
  8
0
  6
CONTINUOUS
 62
3
 10
140.421501644164830
 20
73.219762163581208
 11
147.370391745460380
 21
73.341055491478301
  0
LINE
  8
0
  6
CONTINUOUS
 62
3
 10
151.718192553598730
 20
143.722351345922790
 11
151.718192553598730
 21
77.986174602307756
  0
LINE
  8
0
  6
CONTINUOUS
 62
3
 10
153.718192553599640
 20
143.722351345922790
 11
153.718192553597820
 21
48.635837661501000
  0
LINE
  8
0
  6
CONTINUOUS
 62
3
 10
153.718192553598730
 20
68.722351345922334
 11
153.718192553597820
 21
48.722354317518466
  0
LINE
  8
0
  6
CONTINUOUS
 62
3
 10
153.718192553600090
 20
143.722351345922790
 11
153.718192553597820
 21
238.808865030344120
  0
LINE
  8
0
  6
CONTINUOUS
 62
3
 10
151.718192553598730
 20
143.722351345922790
 11
151.718192553598730
 21
209.458528089536910
  0
LINE
  8
0
  6
CONTINUOUS
 62
3
 10
140.421501644164830
 20
214.224940528263910
 11
147.370391745460380
 21
214.103647200366820
  0
CIRCLE
  8
0
  6
CONTINUOUS
 62
3
 10
140.718192553598730
 20
231.222351345922790
 40
6.000000000000000
  0
ARC
  8
0
  6
CONTINUOUS
 62
3
 10
148.718192553598730
 20
77.986174602307756
 40
3.000000000000058
 50
320.530691636484220
 51
0.000000000000000
  0
ARC
  8
0
  6
CONTINUOUS
 62
3
 10
147.318034526147980
 20
76.340598576947514
 40
3.000000000000049
 50
271.000000000010400
 51
318.682917187906810
  0
ARC
  8
0
  6
CONTINUOUS
 62
3
 10
120.792415831587220
 20
57.943810617740155
 40
3.000000000000189
 50
290.803407824383500
 51
355.062272705049050
  0
ARC
  8
0
  6
CONTINUOUS
 62
3
 10
96.996524102988531
 20
120.575715720817010
 40
70.000000000000327
 50
318.682917187902550
 51
320.530691636482910
  0
ARC
  8
0
  6
CONTINUOUS
 62
3
 10
96.996524102988531
 20
120.575715720817010
 40
70.000000000000014
 50
271.000000000000280
 51
290.803407824389690
  0
CIRCLE
  8
0
  6
CONTINUOUS
 62
3
 10
140.718192553598730
 20
56.222351345922789
 40
6.000000000000000
  0
ARC
  8
0
  6
CONTINUOUS
 62
3
 10
152.718192553598730
 20
109.222351345922780
 40
1.000000000000000
 50
90.000000000000000
 51
180.000000000000000
  0
ARC
  8
0
  6
CONTINUOUS
 62
3
 10
140.718192553598730
 20
56.222351345922789
 40
16.999999999999773
 50
91.000000000000256
 51
175.062272705051070
  0
ARC
  8
0
  6
CONTINUOUS
 62
3
 10
140.718192553598730
 20
231.222351345922790
 40
16.999999999999638
 50
184.937727294950460
 51
268.999999999999770
  0
ARC
  8
0
  6
CONTINUOUS
 62
3
 10
152.718192553599640
 20
178.222351345922790
 40
1.000000000000000
 50
180.000000000000000
 51
270.000000000000000
  0
ARC
  8
0
  6
CONTINUOUS
 62
3
 10
96.996524102988531
 20
166.868986971028110
 40
70.000000000000156
 50
69.196592175610675
 51
88.999999999999716
  0
ARC
  8
0
  6
CONTINUOUS
 62
3
 10
96.996524102988531
 20
166.868986971028110
 40
70.000000000000043
 50
39.469308363516802
 51
41.317082812097503
  0
ARC
  8
0
  6
CONTINUOUS
 62
3
 10
120.792415831587220
 20
229.500892074105420
 40
2.999999999999899
 50
4.937727294942317
 51
69.196592175621532
  0
ARC
  8
0
  6
CONTINUOUS
 62
3
 10
147.318034526147980
 20
211.104104114897610
 40
3.000000000000300
 50
41.317082812093204
 51
88.999999999989555
  0
ARC
  8
0
  6
CONTINUOUS
 62
3
 10
148.718192553598730
 20
209.458528089536910
 40
3.000000000000000
 50
0.000000000000000
 51
39.469308363515758
  0
LINE
  8
0
  6
CONTINUOUS
 62
3
 10
205.718192553621460
 20
143.722351345922790
 11
205.718192553621460
 21
124.722351345922780
  0
ARC
  8
0
  6
CONTINUOUS
 62
3
 10
205.318192553621370
 20
159.322351345922240
 40
0.400000000000091
 50
0.000000000000000
 51
90.000000000000000
  0
LINE
  8
0
  6
CONTINUOUS
 62
3
 10
205.718192553621460
 20
124.722351345922780
 11
160.718192553621460
 21
124.722351345922780
  0
LINE
  8
0
  6
CONTINUOUS
 62
3
 10
205.318192553621370
 20
159.722351345922330
 11
158.278000174756870
 21
159.722351345922330
  0
LINE
  8
0
  6
CONTINUOUS
 62
3
 10
160.718192553621460
 20
127.722351345922780
 11
160.718192553621460
 21
124.722351345922780
  0
LINE
  8
0
  6
CONTINUOUS
 62
3
 10
157.718192553621460
 20
159.572351345922240
 11
158.278000174756870
 21
159.722351345922330
  0
LINE
  8
0
  6
CONTINUOUS
 62
3
 10
157.718192553621460
 20
159.572351345922240
 11
156.518192553621650
 21
159.572351345922240
  0
LINE
  8
0
  6
CONTINUOUS
 62
3
 10
153.718192553599180
 20
160.722351345922790
 11
155.518192553621650
 21
160.722351345922330
  0
LINE
  8
0
  6
CONTINUOUS
 62
3
 10
155.718192553621460
 20
160.522351345922520
 11
155.718192553621460
 21
143.722351345922330
  0
ARC
  8
0
  6
CONTINUOUS
 62
3
 10
156.518192553621650
 20
160.372351345922430
 40
0.800000000000237
 50
183.703196634280290
 51
270.000000000000000
  0
LINE
  8
0
  6
CONTINUOUS
 62
3
 10
155.718192553621460
 20
160.522351345922520
 11
155.518192553621650
 21
160.722351345922330
  0
LINE
  8
0
  6
CONTINUOUS
 62
3
 10
157.718192553621460
 20
127.872351345922420
 11
158.278000174756870
 21
127.722351345922330
  0
LINE
  8
0
  6
CONTINUOUS
 62
3
 10
153.718192553599180
 20
126.722351345921870
 11
155.518192553621650
 21
126.722351345922330
  0
LINE
  8
0
  6
CONTINUOUS
 62
3
 10
205.318192553621370
 20
127.722351345922330
 11
158.278000174756870
 21
127.722351345922330
  0
LINE
  8
0
  6
CONTINUOUS
 62
3
 10
157.718192553621460
 20
127.872351345922420
 11
156.518192553621650
 21
127.872351345922420
  0
LINE
  8
0
  6
CONTINUOUS
 62
3
 10
155.718192553621460
 20
126.922351345922600
 11
155.718192553621460
 21
143.722351345922330
  0
ARC
  8
0
  6
CONTINUOUS
 62
3
 10
156.518192553621650
 20
127.072351345922240
 40
0.800000000000182
 50
90.000000000000000
 51
176.296803365719710
  0
LINE
  8
0
  6
CONTINUOUS
 62
3
 10
155.718192553621460
 20
126.922351345922600
 11
155.518192553621650
 21
126.722351345922330
  0
LINE
  8
0
  6
CONTINUOUS
 62
3
 10
205.718192553621460
 20
143.722351345922790
 11
205.718192553621460
 21
159.322351345922700
  0
ARC
  8
0
  6
CONTINUOUS
 62
3
 10
205.318192553621370
 20
128.122351345922430
 40
0.400000000000091
 50
270.000000000000000
 51
0.000000000000000
  0
LINE
  8
0
  6
DASHDOT
 62
4
 10
140.718192553598730
 20
45.911249845060183
 11
140.718192553598730
 21
66.455163566836518
  0
LINE
  8
0
  6
DASHDOT
 62
4
 10
151.263447487578050
 20
56.222351345922789
 11
130.116210998338320
 21
56.222351345922789
  0
ARC
  8
0
  6
CONTINUOUS
 62
3
 10
-337.302060598573690
 20
-88.621205071067607
 40
1.000000000000000
 50
180.000000000000000
 51
258.787728582356010
  0
LINE
  8
0
  6
CONTINUOUS
 62
3
 10
-338.302060598573690
 20
-85.571369413228695
 11
-338.302060598573690
 21
-88.621205071067607
  0
ARC
  8
0
  6
CONTINUOUS
 62
3
 10
-337.302060598573690
 20
-85.571369413228695
 40
1.000000000000268
 50
80.405931773124522
 51
180.000000000000000
  0
ARC
  8
0
  6
CONTINUOUS
 62
3
 10
-337.302060598573690
 20
-80.009797580949908
 40
1.000000000000000
 50
179.999999999986980
 51
262.410457608144040
  0
LINE
  8
0
  6
CONTINUOUS
 62
3
 10
-338.302060598573690
 20
-76.986011622323531
 11
-338.302060598573690
 21
-80.009797580949680
  0
ARC
  8
0
  6
CONTINUOUS
 62
3
 10
-337.302060598573690
 20
-76.986011622323531
 40
1.000000000000077
 50
83.186145655820312
 51
180.000000000000000
  0
ARC
  8
0
  6
CONTINUOUS
 62
3
 10
-337.302060598573690
 20
-71.453088355345471
 40
1.000000000000000
 50
180.000000000000000
 51
264.260829522738280
  0
LINE
  8
0
  6
CONTINUOUS
 62
3
 10
-338.302060598573690
 20
-68.439176169052189
 11
-338.302060598573690
 21
-71.453088355345471
  0
ARC
  8
0
  6
CONTINUOUS
 62
3
 10
-337.302060598573690
 20
-68.439176169052189
 40
1.000000000000042
 50
84.715267045464302
 51
180.000000000000000
  0
ARC
  8
0
  6
CONTINUOUS
 62
3
 10
-317.184758810641820
 20
-88.600741224954845
 40
1.000000000000082
 50
299.999999999997270
 51
36.813854344186687
  0
LINE
  8
0
  6
CONTINUOUS
 62
3
 10
-316.684758810641820
 20
-89.466766628739379
 11
-319.303434266419340
 21
-90.978659608052567
  0
ARC
  8
0
  6
CONTINUOUS
 62
3
 10
-319.803434266419340
 20
-90.112634204268033
 40
0.999999999999834
 50
217.589542391867670
 51
299.999999999997270
  0
ARC
  8
0
  6
CONTINUOUS
 62
3
 10
-309.782982186143500
 20
-84.327323498319174
 40
0.999999999999885
 50
300.000000000003810
 51
35.284732954544943
  0
LINE
  8
0
  6
CONTINUOUS
 62
3
 10
-309.282982186143500
 20
-85.193348902103480
 11
-311.893106704249250
 21
-86.700304995250235
  0
ARC
  8
0
  6
CONTINUOUS
 62
3
 10
-312.393106704249250
 20
-85.834279591465929
 40
0.999999999999940
 50
215.739170477274090
 51
300.000000000003810
  0
ARC
  8
0
  6
CONTINUOUS
 62
3
 10
-334.903531328184500
 20
-98.830679307667651
 40
0.999999999999961
 50
231.618272422159780
 51
299.999999999997270
  0
LINE
  8
0
  6
CONTINUOUS
 62
3
 10
-331.659755753160200
 20
-98.112585144616105
 11
-334.403531328184500
 21
-99.696704711452185
  0
ARC
  8
0
  6
CONTINUOUS
 62
3
 10
-327.261131915200850
 20
-94.418337949326997
 40
0.999999999999673
 50
221.212271417651210
 51
300.000000000003810
  0
LINE
  8
0
  6
CONTINUOUS
 62
3
 10
-324.119896758144710
 20
-93.759445524191733
 11
-326.761131915200850
 21
-95.284363353111303
  0
ARC
  8
0
  6
CONTINUOUS
 62
3
 10
-324.619896758144710
 20
-92.893420120407200
 40
1.000000000000082
 50
299.999999999997270
 51
39.594068226850403
  0
ARC
  8
0
  6
CONTINUOUS
 62
3
 10
-337.302060598573690
 20
-97.445887787749371
 40
1.000000000000000
 50
180.000000000000000
 51
248.381727577838030
  0
ARC
  8
0
  6
CONTINUOUS
 62
3
 10
-340.802060598573690
 20
-106.277648654077210
 40
8.500000000000128
 50
51.618272422158320
 51
68.381727577842284
  0
ARC
  8
0
  6
CONTINUOUS
 62
3
 10
-332.159755753160200
 20
-97.246559740831799
 40
0.999999999999885
 50
300.000000000003810
 51
46.260204708328693
  0
LINE
  8
0
  6
CONTINUOUS
 62
3
 10
-338.302060598573690
 20
-94.277648654077211
 11
-338.302060598573690
 21
-97.445887787749371
  0
ARC
  8
0
  6
CONTINUOUS
 62
3
 10
-337.302060598573690
 20
-94.277648654077211
 40
0.999999999999964
 50
73.739795291702634
 51
180.000000000000000
  0
ARC
  8
0
  6
CONTINUOUS
 62
3
 10
-340.802060598573690
 20
-106.277648654077210
 40
13.499999999999927
 50
46.260204708312145
 51
73.739795291689134
  0
ARC
  8
0
  6
CONTINUOUS
 62
3
 10
-340.802060598573690
 20
-106.277648654077210
 40
17.000000000000114
 50
41.212271417649760
 51
78.787728582349985
  0
ARC
  8
0
  6
CONTINUOUS
 62
3
 10
-340.802060598573690
 20
-106.277648654077210
 40
22.000000000000025
 50
39.594068226860820
 51
80.405931773138789
  0
ARC
  8
0
  6
CONTINUOUS
 62
3
 10
-340.802060598573690
 20
-106.277648654077210
 40
30.499999999999964
 50
36.813854344181067
 51
83.186145655818962
  0
ARC
  8
0
  6
CONTINUOUS
 62
3
 10
-340.802060598573690
 20
-106.277648654077210
 40
25.499999999999890
 50
37.589542391857961
 51
82.410457608141883
  0
ARC
  8
0
  6
CONTINUOUS
 62
3
 10
-340.802060598573690
 20
-106.277648654077210
 40
33.999999999999829
 50
35.739170477266640
 51
84.260829522733076
  0
ARC
  8
0
  6
CONTINUOUS
 62
3
 10
-340.802060598573690
 20
-106.277648654077210
 40
38.999999999999865
 50
35.284732954534789
 51
84.715267045465410
  0
ARC
  8
0
  6
CONTINUOUS
 62
3
 10
-313.684758810641820
 20
-94.662919051445897
 40
0.999999999999730
 50
23.186145655819850
 51
119.999999999997270
  0
LINE
  8
0
  6
CONTINUOUS
 62
3
 10
-314.184758810641820
 20
-93.796893647661364
 11
-316.803434266419340
 21
-95.308786626974552
  0
ARC
  8
0
  6
CONTINUOUS
 62
3
 10
-316.303434266419340
 20
-96.174812030759085
 40
1.000000000000082
 50
119.999999999997270
 51
202.410457608146060
  0
ARC
  8
0
  6
CONTINUOUS
 62
3
 10
-306.282982186143500
 20
-90.389501324810226
 40
1.000000000000248
 50
24.715267045455477
 51
119.999999999997270
  0
LINE
  8
0
  6
CONTINUOUS
 62
3
 10
-306.782982186143500
 20
-89.523475921025693
 11
-309.393106704249250
 21
-91.030432014172447
  0
ARC
  8
0
  6
CONTINUOUS
 62
3
 10
-308.893106704249250
 20
-91.896457417956753
 40
0.999999999999885
 50
120.000000000003780
 51
204.260829522745610
  0
ARC
  8
0
  6
CONTINUOUS
 62
3
 10
-331.403531328184500
 20
-104.892857134158930
 40
1.000000000000082
 50
119.999999999997270
 51
188.381727577832660
  0
LINE
  8
0
  6
CONTINUOUS
 62
3
 10
-329.159755753160200
 20
-102.442712163538310
 11
-331.903531328184500
 21
-104.026831730374390
  0
ARC
  8
0
  6
CONTINUOUS
 62
3
 10
-323.761131915200850
 20
-100.480515775818040
 40
1.000000000000082
 50
119.999999999997270
 51
198.787728582347000
  0
LINE
  8
0
  6
CONTINUOUS
 62
3
 10
-321.619896758144250
 20
-98.089572543114173
 11
-324.261131915200850
 21
-99.614490372033515
  0
ARC
  8
0
  6
CONTINUOUS
 62
3
 10
-321.119896758144250
 20
-98.955597946898479
 40
1.000000000000094
 50
20.405931773138686
 51
120.000000000003780
  0
ARC
  8
0
  6
CONTINUOUS
 62
3
 10
-331.403531328184500
 20
-107.662440173995710
 40
1.000000000000059
 50
171.618272422154460
 51
239.999999999996220
  0
ARC
  8
0
  6
CONTINUOUS
 62
3
 10
-340.802060598573690
 20
-106.277648654077210
 40
8.499999999999972
 50
351.618272422157820
 51
8.381727577842204
  0
ARC
  8
0
  6
CONTINUOUS
 62
3
 10
-328.659755753160200
 20
-103.308737567322620
 40
0.999999999999879
 50
13.739795291686027
 51
120.000000000003780
  0
LINE
  8
0
  6
CONTINUOUS
 62
3
 10
-329.159755753160200
 20
-110.112585144616100
 11
-331.903531328184500
 21
-108.528465577780020
  0
ARC
  8
0
  6
CONTINUOUS
 62
3
 10
-328.659755753160200
 20
-109.246559740831790
 40
0.999999999999885
 50
239.999999999996220
 51
346.260204708314010
  0
ARC
  8
0
  6
CONTINUOUS
 62
3
 10
-340.802060598573690
 20
-106.277648654077210
 40
13.500000000000130
 50
346.260204708311850
 51
13.739795291688171
  0
ARC
  8
0
  6
CONTINUOUS
 62
3
 10
-323.761131915200850
 20
-112.074781532336370
 40
0.999999999999646
 50
161.212271417644620
 51
239.999999999996220
  0
LINE
  8
0
  6
CONTINUOUS
 62
3
 10
-321.619896758144250
 20
-114.465724765040250
 11
-324.261131915200850
 21
-112.940806936120680
  0
ARC
  8
0
  6
CONTINUOUS
 62
3
 10
-340.802060598573690
 20
-106.277648654077210
 40
17.000000000000146
 50
341.212271417650070
 51
18.787728582350418
  0
ARC
  8
0
  6
CONTINUOUS
 62
3
 10
-321.119896758144250
 20
-113.599699361255940
 40
0.999999999999885
 50
239.999999999996220
 51
339.594068226861340
  0
ARC
  8
0
  6
CONTINUOUS
 62
3
 10
-316.303434266419340
 20
-116.380485277395560
 40
0.999999999999701
 50
157.589542391853940
 51
240.000000000002730
  0
ARC
  8
0
  6
CONTINUOUS
 62
3
 10
-308.893106704249250
 20
-120.658839890197440
 40
0.999999999999769
 50
155.739170477266270
 51
240.000000000002730
  0
ARC
  8
0
  6
CONTINUOUS
 62
3
 10
-340.802060598573690
 20
-106.277648654077210
 40
22.000000000000206
 50
339.594068226860770
 51
20.405931773139226
  0
LINE
  8
0
  6
CONTINUOUS
 62
3
 10
-314.184758810641820
 20
-118.758403660493050
 11
-316.803434266419340
 21
-117.246510681180090
  0
ARC
  8
0
  6
CONTINUOUS
 62
3
 10
-313.684758810641820
 20
-117.892378256708520
 40
1.000000000000082
 50
240.000000000002730
 51
336.813854344180130
  0
ARC
  8
0
  6
CONTINUOUS
 62
3
 10
-340.802060598573690
 20
-106.277648654077210
 40
30.499999999999947
 50
336.813854344181150
 51
23.186145655818844
  0
ARC
  8
0
  6
CONTINUOUS
 62
3
 10
-340.802060598573690
 20
-106.277648654077210
 40
25.500000000000085
 50
337.589542391857490
 51
22.410457608142021
  0
ARC
  8
0
  6
CONTINUOUS
 62
3
 10
-340.802060598573690
 20
-106.277648654077210
 40
34.000000000000007
 50
335.739170477266780
 51
24.260829522733218
  0
ARC
  8
0
  6
CONTINUOUS
 62
3
 10
-340.802060598573690
 20
-106.277648654077210
 40
39.000000000000220
 50
335.284732954534830
 51
24.715267045465190
  0
LINE
  8
0
  6
CONTINUOUS
 62
3
 10
-306.782982186143500
 20
-123.031821387128500
 11
-309.393106704249250
 21
-121.524865293981970
  0
ARC
  8
0
  6
CONTINUOUS
 62
3
 10
-306.282982186143500
 20
-122.165795983344190
 40
0.999999999999885
 50
239.999999999996220
 51
335.284732954544490
  0
CIRCLE
  8
0
  6
CONTINUOUS
 62
3
 10
-340.802060598573690
 20
-106.277648654077210
 40
5.000000000000000
  0
ARC
  8
0
  6
CONTINUOUS
 62
3
 10
-309.782982186143500
 20
-128.227973809835480
 40
0.999999999999776
 50
324.715267045465680
 51
60.000000000002721
  0
ARC
  8
0
  6
CONTINUOUS
 62
3
 10
-312.393106704249250
 20
-126.721017716688490
 40
0.999999999999885
 50
59.999999999996206
 51
144.260829522736490
  0
ARC
  8
0
  6
CONTINUOUS
 62
3
 10
-337.302060598573690
 20
-141.102208952808950
 40
0.999999999999973
 50
95.739170477261709
 51
180.000000000000000
  0
ARC
  8
0
  6
CONTINUOUS
 62
3
 10
-337.302060598573690
 20
-144.116121139102230
 40
1.000000000000000
 50
180.000000000000000
 51
275.284732954535740
  0
ARC
  8
0
  6
CONTINUOUS
 62
3
 10
-337.302060598573690
 20
-132.545499727204510
 40
0.999999999999975
 50
97.589542391854238
 51
180.000000000000000
  0
ARC
  8
0
  6
CONTINUOUS
 62
3
 10
-317.184758810641820
 20
-123.954556083199350
 40
0.999999999999911
 50
323.186145655802870
 51
59.999999999996206
  0
ARC
  8
0
  6
CONTINUOUS
 62
3
 10
-319.803434266418890
 20
-122.442663103886380
 40
1.000000000000082
 50
60.000000000002721
 51
142.410457608148220
  0
ARC
  8
0
  6
CONTINUOUS
 62
3
 10
-337.302060598573690
 20
-135.569285685830890
 40
1.000000000000000
 50
180.000000000000000
 51
276.813854344179670
  0
ARC
  8
0
  6
CONTINUOUS
 62
3
 10
-337.302060598573690
 20
-126.983927894925720
 40
1.000000000000000
 50
180.000000000000000
 51
279.594068226875490
  0
ARC
  8
0
  6
CONTINUOUS
 62
3
 10
-337.302060598573690
 20
-123.934092237086810
 40
0.999999999999982
 50
101.212271417644000
 51
180.000000000000000
  0
ARC
  8
0
  6
CONTINUOUS
 62
3
 10
-324.619896758144710
 20
-119.661877187746990
 40
1.000000000000318
 50
320.405931773139570
 51
59.999999999996206
  0
ARC
  8
0
  6
CONTINUOUS
 62
3
 10
-327.261131915200850
 20
-118.136959358827650
 40
1.000000000000082
 50
60.000000000002721
 51
138.787728582338990
  0
ARC
  8
0
  6
CONTINUOUS
 62
3
 10
-332.159755753160200
 20
-115.308737567322620
 40
0.999999999999858
 50
313.739795291671330
 51
59.999999999996206
  0
ARC
  8
0
  6
CONTINUOUS
 62
3
 10
-337.302060598573690
 20
-118.277648654077210
 40
1.000000000000000
 50
180.000000000000000
 51
286.260204708297350
  0
ARC
  8
0
  6
CONTINUOUS
 62
3
 10
-337.302060598573690
 20
-115.109409520405050
 40
1.000000000000090
 50
111.618272422161970
 51
180.000000000000000
  0
ARC
  8
0
  6
CONTINUOUS
 62
3
 10
-334.903531328184500
 20
-113.724618000486540
 40
0.999999999999885
 50
59.999999999996206
 51
128.381727577840220
  0
ARC
  8
0
  6
CONTINUOUS
 62
3
 10
-340.802060598573690
 20
-106.277648654077210
 40
38.999999999999986
 50
275.284732954534600
 51
324.715267045465230
  0
ARC
  8
0
  6
CONTINUOUS
 62
3
 10
-340.802060598573690
 20
-106.277648654077210
 40
30.500000000000135
 50
276.813854344181040
 51
323.186145655818900
  0
ARC
  8
0
  6
CONTINUOUS
 62
3
 10
-340.802060598573690
 20
-106.277648654077210
 40
34.000000000000071
 50
275.739170477266950
 51
324.260829522733050
  0
ARC
  8
0
  6
CONTINUOUS
 62
3
 10
-340.802060598573690
 20
-106.277648654077210
 40
25.499999999999932
 50
277.589542391858170
 51
322.410457608142050
  0
ARC
  8
0
  6
CONTINUOUS
 62
3
 10
-340.802060598573690
 20
-106.277648654077210
 40
22.000000000000131
 50
279.594068226861170
 51
320.405931773139170
  0
ARC
  8
0
  6
CONTINUOUS
 62
3
 10
-340.802060598573690
 20
-106.277648654077210
 40
17.000000000000046
 50
281.212271417650020
 51
318.787728582350210
  0
ARC
  8
0
  6
CONTINUOUS
 62
3
 10
-340.802060598573690
 20
-106.277648654077210
 40
13.499999999999963
 50
286.260204708310820
 51
313.739795291687870
  0
ARC
  8
0
  6
CONTINUOUS
 62
3
 10
-340.802060598573690
 20
-106.277648654077210
 40
8.499999999999904
 50
291.618272422157700
 51
308.381727577842640
  0
LINE
  8
0
  6
CONTINUOUS
 62
3
 10
-316.684758810641820
 20
-123.088530679415040
 11
-319.303434266418890
 21
-121.576637700101850
  0
LINE
  8
0
  6
CONTINUOUS
 62
3
 10
-338.302060598573690
 20
-144.116121139102230
 11
-338.302060598573690
 21
-141.102208952808950
  0
LINE
  8
0
  6
CONTINUOUS
 62
3
 10
-309.282982186143500
 20
-127.361948406050940
 11
-311.893106704249250
 21
-125.854992312904180
  0
LINE
  8
0
  6
CONTINUOUS
 62
3
 10
-324.119896758144710
 20
-118.795851783962680
 11
-326.761131915200850
 21
-117.270933955043120
  0
LINE
  8
0
  6
CONTINUOUS
 62
3
 10
-331.659755753160200
 20
-114.442712163538310
 11
-334.403531328184500
 21
-112.858592596702230
  0
LINE
  8
0
  6
CONTINUOUS
 62
3
 10
-338.302060598573690
 20
-118.277648654077210
 11
-338.302060598573690
 21
-115.109409520405050
  0
LINE
  8
0
  6
CONTINUOUS
 62
3
 10
-338.302060598573690
 20
-126.983927894925720
 11
-338.302060598573690
 21
-123.934092237086810
  0
LINE
  8
0
  6
CONTINUOUS
 62
3
 10
-338.302060598573690
 20
-135.569285685830890
 11
-338.302060598573690
 21
-132.545499727204510
  0
ARC
  8
0
  6
CONTINUOUS
 62
3
 10
-340.802060598573690
 20
-106.277648654077210
 40
39.000000000000220
 50
155.284732954534800
 51
204.715267045465200
  0
ARC
  8
0
  6
CONTINUOUS
 62
3
 10
-340.802060598573690
 20
-106.277648654077210
 40
34.000000000000007
 50
155.739170477266780
 51
204.260829522733220
  0
ARC
  8
0
  6
CONTINUOUS
 62
3
 10
-340.802060598573690
 20
-106.277648654077210
 40
25.500000000000000
 50
157.589542391857980
 51
202.410457608142480
  0
ARC
  8
0
  6
CONTINUOUS
 62
3
 10
-340.802060598573690
 20
-106.277648654077210
 40
30.499999999999947
 50
156.813854344181150
 51
203.186145655818850
  0
ARC
  8
0
  6
CONTINUOUS
 62
3
 10
-340.802060598573690
 20
-106.277648654077210
 40
22.000000000000206
 50
159.594068226860770
 51
200.405931773139230
  0
ARC
  8
0
  6
CONTINUOUS
 62
3
 10
-340.802060598573690
 20
-106.277648654077210
 40
16.999999999999716
 50
161.212271417649560
 51
198.787728582350440
  0
ARC
  8
0
  6
CONTINUOUS
 62
3
 10
-340.802060598573690
 20
-106.277648654077210
 40
13.499999999999687
 50
166.260204708311360
 51
193.739795291688180
  0
ARC
  8
0
  6
CONTINUOUS
 62
3
 10
-352.944365443987180
 20
-103.308737567322620
 40
0.999999999999885
 50
59.999999999996206
 51
166.260204708307780
  0
ARC
  8
0
  6
CONTINUOUS
 62
3
 10
-360.484224439003130
 20
-98.955597946898479
 40
0.999999999999885
 50
59.999999999996206
 51
159.594068226861310
  0
LINE
  8
0
  6
CONTINUOUS
 62
3
 10
-359.984224439003130
 20
-98.089572543114173
 11
-357.342989281946530
 21
-99.614490372033515
  0
ARC
  8
0
  6
CONTINUOUS
 62
3
 10
-357.842989281946530
 20
-100.480515775818040
 40
1.000000000000076
 50
341.212271417652970
 51
60.000000000002721
  0
LINE
  8
0
  6
CONTINUOUS
 62
3
 10
-352.444365443987180
 20
-102.442712163538310
 11
-349.700589868962880
 21
-104.026831730374390
  0
ARC
  8
0
  6
CONTINUOUS
 62
3
 10
-350.200589868962880
 20
-104.892857134158930
 40
1.000000000000026
 50
351.618272422167310
 51
60.000000000002721
  0
ARC
  8
0
  6
CONTINUOUS
 62
3
 10
-372.711014492898130
 20
-91.896457417956753
 40
0.999999999999863
 50
335.739170477254390
 51
59.999999999996206
  0
LINE
  8
0
  6
CONTINUOUS
 62
3
 10
-374.821139011003880
 20
-89.523475921025693
 11
-372.211014492898130
 21
-91.030432014172447
  0
ARC
  8
0
  6
CONTINUOUS
 62
3
 10
-375.321139011003880
 20
-90.389501324810226
 40
1.000000000000082
 50
60.000000000002721
 51
155.284732954544520
  0
ARC
  8
0
  6
CONTINUOUS
 62
3
 10
-365.300686930728030
 20
-96.174812030759085
 40
0.999999999999701
 50
337.589542391853970
 51
60.000000000002721
  0
LINE
  8
0
  6
CONTINUOUS
 62
3
 10
-367.419362386505550
 20
-93.796893647661364
 11
-364.800686930728030
 21
-95.308786626974552
  0
ARC
  8
0
  6
CONTINUOUS
 62
3
 10
-367.919362386505550
 20
-94.662919051445897
 40
1.000000000000082
 50
60.000000000002721
 51
156.813854344180160
  0
ARC
  8
0
  6
CONTINUOUS
 62
3
 10
-340.802060598573690
 20
-106.277648654077210
 40
38.999999999999986
 50
95.284732954534590
 51
144.715267045465200
  0
ARC
  8
0
  6
CONTINUOUS
 62
3
 10
-340.802060598573690
 20
-106.277648654077210
 40
34.000000000000071
 50
95.739170477266924
 51
144.260829522733360
  0
ARC
  8
0
  6
CONTINUOUS
 62
3
 10
-340.802060598573690
 20
-106.277648654077210
 40
25.500000000000160
 50
97.589542391858117
 51
142.410457608142050
  0
ARC
  8
0
  6
CONTINUOUS
 62
3
 10
-340.802060598573690
 20
-106.277648654077210
 40
30.500000000000135
 50
96.813854344181038
 51
143.186145655818930
  0
ARC
  8
0
  6
CONTINUOUS
 62
3
 10
-340.802060598573690
 20
-106.277648654077210
 40
22.000000000000131
 50
99.594068226861211
 51
140.405931773139200
  0
ARC
  8
0
  6
CONTINUOUS
 62
3
 10
-340.802060598573690
 20
-106.277648654077210
 40
17.000000000000046
 50
101.212271417650010
 51
138.787728582350240
  0
ARC
  8
0
  6
CONTINUOUS
 62
3
 10
-340.802060598573690
 20
-106.277648654077210
 40
13.499999999999963
 50
106.260204708310860
 51
133.739795291687870
  0
ARC
  8
0
  6
CONTINUOUS
 62
3
 10
-344.302060598573690
 20
-94.277648654077211
 40
1.000000000000000
 50
0.000000000000000
 51
106.260204708297360
  0
LINE
  8
0
  6
CONTINUOUS
 62
3
 10
-343.302060598573690
 20
-94.277648654077211
 11
-343.302060598573690
 21
-97.445887787749371
  0
ARC
  8
0
  6
CONTINUOUS
 62
3
 10
-349.444365443987180
 20
-97.246559740831799
 40
0.999999999999858
 50
133.739795291671300
 51
239.999999999996220
  0
ARC
  8
0
  6
CONTINUOUS
 62
3
 10
-340.802060598573690
 20
-106.277648654077210
 40
8.499999999999904
 50
111.618272422157710
 51
128.381727577841670
  0
ARC
  8
0
  6
CONTINUOUS
 62
3
 10
-344.302060598573690
 20
-97.445887787749371
 40
1.000000000000090
 50
291.618272422161970
 51
0.000000000000000
  0
ARC
  8
0
  6
CONTINUOUS
 62
3
 10
-356.984224439002670
 20
-92.893420120407200
 40
1.000000000000173
 50
140.405931773149600
 51
240.000000000002730
  0
LINE
  8
0
  6
CONTINUOUS
 62
3
 10
-357.484224439002670
 20
-93.759445524191733
 11
-354.842989281946530
 21
-95.284363353111303
  0
ARC
  8
0
  6
CONTINUOUS
 62
3
 10
-354.342989281946530
 20
-94.418337949326997
 40
0.999999999999885
 50
239.999999999996220
 51
318.787728582348790
  0
LINE
  8
0
  6
CONTINUOUS
 62
3
 10
-349.944365443987180
 20
-98.112585144616105
 11
-347.200589868962880
 21
-99.696704711452185
  0
ARC
  8
0
  6
CONTINUOUS
 62
3
 10
-346.700589868962880
 20
-98.830679307667651
 40
1.000000000000082
 50
240.000000000002730
 51
308.381727577840190
  0
ARC
  8
0
  6
CONTINUOUS
 62
3
 10
-369.211014492898130
 20
-85.834279591465929
 40
0.999999999999885
 50
239.999999999996220
 51
324.260829522725940
  0
LINE
  8
0
  6
CONTINUOUS
 62
3
 10
-372.321139011003880
 20
-85.193348902103480
 11
-369.711014492898130
 21
-86.700304995250235
  0
ARC
  8
0
  6
CONTINUOUS
 62
3
 10
-371.821139011003880
 20
-84.327323498319174
 40
0.999999999999908
 50
144.715267045455050
 51
239.999999999996220
  0
ARC
  8
0
  6
CONTINUOUS
 62
3
 10
-361.800686930728030
 20
-90.112634204268033
 40
1.000000000000082
 50
240.000000000002730
 51
322.410457608132330
  0
LINE
  8
0
  6
CONTINUOUS
 62
3
 10
-364.919362386505550
 20
-89.466766628739379
 11
-362.300686930728030
 21
-90.978659608052567
  0
ARC
  8
0
  6
CONTINUOUS
 62
3
 10
-364.419362386505550
 20
-88.600741224954845
 40
0.999999999999774
 50
143.186145655813330
 51
240.000000000002730
  0
ARC
  8
0
  6
CONTINUOUS
 62
3
 10
-344.302060598573690
 20
-68.439176169052189
 40
1.000000000000000
 50
0.000000000000000
 51
95.284732954535698
  0
LINE
  8
0
  6
CONTINUOUS
 62
3
 10
-343.302060598573690
 20
-68.439176169052189
 11
-343.302060598573690
 21
-71.453088355345471
  0
ARC
  8
0
  6
CONTINUOUS
 62
3
 10
-344.302060598573690
 20
-71.453088355345471
 40
0.999999999999973
 50
275.739170477261670
 51
0.000000000000000
  0
ARC
  8
0
  6
CONTINUOUS
 62
3
 10
-344.302060598573690
 20
-76.986011622323531
 40
1.000000000000000
 50
0.000000000000000
 51
96.813854344179688
  0
LINE
  8
0
  6
CONTINUOUS
 62
3
 10
-343.302060598573690
 20
-76.986011622323531
 11
-343.302060598573690
 21
-80.009797580949680
  0
ARC
  8
0
  6
CONTINUOUS
 62
3
 10
-344.302060598573690
 20
-80.009797580949908
 40
0.999999999999749
 50
277.589542391855960
 51
0.000000000013028
  0
ARC
  8
0
  6
CONTINUOUS
 62
3
 10
-344.302060598573690
 20
-85.571369413228695
 40
1.000000000000000
 50
0.000000000000000
 51
99.594068226875478
  0
LINE
  8
0
  6
CONTINUOUS
 62
3
 10
-343.302060598573690
 20
-85.571369413228695
 11
-343.302060598573690
 21
-88.621205071067607
  0
ARC
  8
0
  6
CONTINUOUS
 62
3
 10
-344.302060598573690
 20
-88.621205071067607
 40
0.999999999999982
 50
281.212271417643990
 51
0.000000000000000
  0
ARC
  8
0
  6
CONTINUOUS
 62
3
 10
-352.944365443987180
 20
-109.246559740831790
 40
0.999999999999879
 50
193.739795291686050
 51
300.000000000003810
  0
LINE
  8
0
  6
CONTINUOUS
 62
3
 10
-352.444365443987180
 20
-110.112585144616100
 11
-349.700589868962880
 21
-108.528465577780020
  0
ARC
  8
0
  6
CONTINUOUS
 62
3
 10
-340.802060598573690
 20
-106.277648654077210
 40
8.499999999999972
 50
171.618272422157790
 51
188.381727577842210
  0
ARC
  8
0
  6
CONTINUOUS
 62
3
 10
-350.200589868962880
 20
-107.662440173995710
 40
0.999999999999885
 50
300.000000000003810
 51
8.381727577845549
  0
LINE
  8
0
  6
CONTINUOUS
 62
3
 10
-343.302060598573690
 20
-135.569285685830890
 11
-343.302060598573690
 21
-132.545499727204510
  0
LINE
  8
0
  6
CONTINUOUS
 62
3
 10
-343.302060598573690
 20
-126.983927894925720
 11
-343.302060598573690
 21
-123.934092237086810
  0
LINE
  8
0
  6
CONTINUOUS
 62
3
 10
-343.302060598573690
 20
-118.277648654077210
 11
-343.302060598573690
 21
-115.109409520405050
  0
LINE
  8
0
  6
CONTINUOUS
 62
3
 10
-349.944365443987180
 20
-114.442712163538310
 11
-347.200589868962880
 21
-112.858592596702230
  0
LINE
  8
0
  6
CONTINUOUS
 62
3
 10
-357.484224439002670
 20
-118.795851783962680
 11
-354.842989281946530
 21
-117.270933955043120
  0
LINE
  8
0
  6
CONTINUOUS
 62
3
 10
-372.321139011003880
 20
-127.361948406050940
 11
-369.711014492898130
 21
-125.854992312904180
  0
LINE
  8
0
  6
CONTINUOUS
 62
3
 10
-364.919362386505550
 20
-123.088530679415040
 11
-362.300686930728490
 21
-121.576637700101850
  0
ARC
  8
0
  6
CONTINUOUS
 62
3
 10
-340.802060598573690
 20
-106.277648654077210
 40
8.499999999999948
 50
231.618272422157330
 51
248.381727577842330
  0
ARC
  8
0
  6
CONTINUOUS
 62
3
 10
-340.802060598573690
 20
-106.277648654077210
 40
13.499999999999927
 50
226.260204708312130
 51
253.739795291689150
  0
ARC
  8
0
  6
CONTINUOUS
 62
3
 10
-340.802060598573690
 20
-106.277648654077210
 40
16.999999999999773
 50
221.212271417650780
 51
258.787728582349980
  0
ARC
  8
0
  6
CONTINUOUS
 62
3
 10
-340.802060598573690
 20
-106.277648654077210
 40
22.000000000000025
 50
219.594068226860800
 51
260.405931773138780
  0
ARC
  8
0
  6
CONTINUOUS
 62
3
 10
-340.802060598573690
 20
-106.277648654077210
 40
25.499999999999890
 50
217.589542391857950
 51
262.410457608141830
  0
ARC
  8
0
  6
CONTINUOUS
 62
3
 10
-340.802060598573690
 20
-106.277648654077210
 40
33.999999999999964
 50
215.739170477266950
 51
264.260829522733050
  0
ARC
  8
0
  6
CONTINUOUS
 62
3
 10
-340.802060598573690
 20
-106.277648654077210
 40
30.499999999999964
 50
216.813854344181070
 51
263.186145655818960
  0
ARC
  8
0
  6
CONTINUOUS
 62
3
 10
-340.802060598573690
 20
-106.277648654077210
 40
38.999999999999865
 50
215.284732954534800
 51
264.715267045465400
  0
ARC
  8
0
  6
CONTINUOUS
 62
3
 10
-346.700589868962880
 20
-113.724618000486540
 40
0.999999999999961
 50
51.618272422159777
 51
120.000000000003780
  0
ARC
  8
0
  6
CONTINUOUS
 62
3
 10
-344.302060598573690
 20
-115.109409520405050
 40
1.000000000000000
 50
0.000000000000000
 51
68.381727577838021
  0
ARC
  8
0
  6
CONTINUOUS
 62
3
 10
-344.302060598573690
 20
-118.277648654077210
 40
0.999999999999964
 50
253.739795291702650
 51
0.000000000000000
  0
ARC
  8
0
  6
CONTINUOUS
 62
3
 10
-349.444365443987180
 20
-115.308737567322620
 40
0.999999999999885
 50
120.000000000003780
 51
226.260204708328700
  0
ARC
  8
0
  6
CONTINUOUS
 62
3
 10
-354.342989281946530
 20
-118.136959358827650
 40
1.000000000000165
 50
41.212271417643841
 51
119.999999999997270
  0
ARC
  8
0
  6
CONTINUOUS
 62
3
 10
-356.984224439002670
 20
-119.661877187746990
 40
0.999999999999885
 50
120.000000000003780
 51
219.594068226860460
  0
ARC
  8
0
  6
CONTINUOUS
 62
3
 10
-344.302060598573690
 20
-123.934092237086810
 40
1.000000000000000
 50
0.000000000000000
 51
78.787728582355996
  0
ARC
  8
0
  6
CONTINUOUS
 62
3
 10
-344.302060598573690
 20
-126.983927894925720
 40
1.000000000000268
 50
260.405931773124510
 51
0.000000000000000
  0
ARC
  8
0
  6
CONTINUOUS
 62
3
 10
-361.800686930728490
 20
-122.442663103886380
 40
1.000000000000194
 50
37.589542391851793
 51
119.999999999997270
  0
ARC
  8
0
  6
CONTINUOUS
 62
3
 10
-364.419362386505550
 20
-123.954556083199350
 40
0.999999999999885
 50
120.000000000003780
 51
216.813854344197100
  0
ARC
  8
0
  6
CONTINUOUS
 62
3
 10
-344.302060598573690
 20
-132.545499727204510
 40
1.000000000000000
 50
0.000000000000000
 51
82.410457608145762
  0
ARC
  8
0
  6
CONTINUOUS
 62
3
 10
-369.211014492898130
 20
-126.721017716688490
 40
0.999999999999807
 50
35.739170477263521
 51
120.000000000003780
  0
ARC
  8
0
  6
CONTINUOUS
 62
3
 10
-371.821139011003880
 20
-128.227973809835480
 40
1.000000000000082
 50
119.999999999997270
 51
215.284732954534320
  0
ARC
  8
0
  6
CONTINUOUS
 62
3
 10
-375.321139011003880
 20
-122.165795983344190
 40
1.000000000000248
 50
204.715267045455480
 51
300.000000000003810
  0
LINE
  8
0
  6
CONTINUOUS
 62
3
 10
-374.821139011003880
 20
-123.031821387128500
 11
-372.211014492898130
 21
-121.524865293981970
  0
ARC
  8
0
  6
CONTINUOUS
 62
3
 10
-367.919362386505550
 20
-117.892378256708520
 40
0.999999999999730
 50
203.186145655819840
 51
299.999999999997270
  0
LINE
  8
0
  6
CONTINUOUS
 62
3
 10
-367.419362386505550
 20
-118.758403660493050
 11
-364.800686930728030
 21
-117.246510681180090
  0
ARC
  8
0
  6
CONTINUOUS
 62
3
 10
-372.711014492898130
 20
-120.658839890197440
 40
1.000000000000082
 50
299.999999999997270
 51
24.260829522733715
  0
ARC
  8
0
  6
CONTINUOUS
 62
3
 10
-365.300686930728030
 20
-116.380485277395560
 40
1.000000000000082
 50
299.999999999997270
 51
22.410457608146043
  0
ARC
  8
0
  6
CONTINUOUS
 62
3
 10
-360.484224439003130
 20
-113.599699361255940
 40
1.000000000000094
 50
200.405931773138690
 51
300.000000000003810
  0
LINE
  8
0
  6
CONTINUOUS
 62
3
 10
-359.984224439003130
 20
-114.465724765040250
 11
-357.342989281946530
 21
-112.940806936120680
  0
ARC
  8
0
  6
CONTINUOUS
 62
3
 10
-357.842989281946530
 20
-112.074781532336370
 40
0.999999999999885
 50
300.000000000003810
 51
18.787728582346993
  0
LINE
  8
0
  6
CONTINUOUS
 62
3
 10
-343.302060598573690
 20
-144.116121139102230
 11
-343.302060598573690
 21
-141.102208952808950
  0
ARC
  8
0
  6
CONTINUOUS
 62
3
 10
-344.302060598573690
 20
-135.569285685830890
 40
1.000000000000077
 50
263.186145655820330
 51
0.000000000000000
  0
ARC
  8
0
  6
CONTINUOUS
 62
3
 10
-344.302060598573690
 20
-144.116121139102230
 40
1.000000000000042
 50
264.715267045464260
 51
0.000000000000000
  0
ARC
  8
0
  6
CONTINUOUS
 62
3
 10
-344.302060598573690
 20
-141.102208952808950
 40
1.000000000000000
 50
0.000000000000000
 51
84.260829522738291
  0
ARC
  8
0
  6
CONTINUOUS
 62
3
 10
-340.802060598573690
 20
-452.877648654077350
 40
400.599999999999910
 50
84.256318189006564
 51
90.000000000000000
  0
ARC
  8
0
  6
CONTINUOUS
 62
3
 10
-301.371193598486340
 20
-60.855701911778851
 40
6.600000000000278
 50
44.999999999997215
 51
84.256318189004901
  0
ARC
  8
0
  6
CONTINUOUS
 62
4
 10
-340.802060598573690
 20
-452.877648654077350
 40
390.797000000000030
 50
84.582036237639471
 51
90.000000000000000
  0
ARC
  8
0
  6
CONTINUOUS
 62
4
 10
-304.186095659555350
 20
-66.813166578110440
 40
3.000000000000346
 50
44.999999999996930
 51
84.582036237634313
  0
ARC
  8
0
  6
CONTINUOUS
 62
4
 10
-304.186095659555350
 20
-145.742130730043980
 40
3.000000000000067
 50
275.417963762365730
 51
315.000000000003070
  0
ARC
  8
0
  6
CONTINUOUS
 62
4
 10
-340.802060598573690
 20
240.322351345922930
 40
390.797000000000030
 50
270.000000000000000
 51
275.417963762360500
  0
ARC
  8
0
  6
CONTINUOUS
 62
4
 10
-313.430170011054320
 20
-129.817446311989220
 40
20.797000000000015
 50
315.000000000000000
 51
354.998349729064670
  0
LINE
  8
0
  6
CONTINUOUS
 62
4
 10
-298.724470282717680
 20
-144.523146040325860
 11
-302.064775315995350
 21
-147.863451073603760
  0
ARC
  8
0
  6
CONTINUOUS
 62
4
 10
-582.402060598574050
 20
-106.277648654077210
 40
290.797000000000140
 50
354.998349729065010
 51
0.000000000000000
  0
ARC
  8
0
  6
CONTINUOUS
 62
4
 10
-377.418025537592030
 20
-145.742130730043980
 40
3.000000000000346
 50
224.999999999996960
 51
264.582036237634270
  0
ARC
  8
0
  6
CONTINUOUS
 62
4
 10
-340.802060598573690
 20
240.322351345922930
 40
390.797000000000030
 50
264.582036237639500
 51
270.000000000000000
  0
ARC
  8
0
  6
CONTINUOUS
 62
4
 10
-368.173951186093060
 20
-129.817446311989220
 40
20.796999999999880
 50
185.001650270935330
 51
225.000000000000000
  0
LINE
  8
0
  6
CONTINUOUS
 62
4
 10
-382.879650914429700
 20
-144.523146040325860
 11
-379.539345881152030
 21
-147.863451073603760
  0
ARC
  8
0
  6
CONTINUOUS
 62
4
 10
-99.202060598573553
 20
-106.277648654077210
 40
290.797000000000250
 50
180.000000000000000
 51
185.001650270934930
  0
ARC
  8
0
  6
CONTINUOUS
 62
4
 10
-377.418025537592030
 20
-66.813166578110440
 40
3.000000000000067
 50
95.417963762365673
 51
135.000000000003040
  0
ARC
  8
0
  6
CONTINUOUS
 62
4
 10
-340.802060598573690
 20
-452.877648654077350
 40
390.797000000000030
 50
90.000000000000000
 51
95.417963762360529
  0
ARC
  8
0
  6
CONTINUOUS
 62
4
 10
-368.173951186093060
 20
-82.737850996165207
 40
20.797000000000015
 50
135.000000000000000
 51
174.998349729064670
  0
LINE
  8
0
  6
CONTINUOUS
 62
4
 10
-382.879650914429700
 20
-68.032151267828567
 11
-379.539345881152030
 21
-64.691846234550667
  0
ARC
  8
0
  6
CONTINUOUS
 62
4
 10
-99.202060598573553
 20
-106.277648654077210
 40
290.796999999999910
 50
174.998349729065040
 51
180.000000000000000
  0
ARC
  8
0
  6
CONTINUOUS
 62
3
 10
-259.863291464592070
 20
-131.277648654077210
 40
5.000000000000000
 50
270.000000000000000
 51
355.138594604201330
  0
ARC
  8
0
  6
CONTINUOUS
 62
3
 10
-259.863291464592070
 20
-81.277648654077211
 40
4.999999999999893
 50
4.861405395798621
 51
90.000000000000000
  0
LINE
  8
0
  6
CONTINUOUS
 62
3
 10
-283.302060598573690
 20
-136.277648654077210
 11
-259.863291464592070
 21
-136.277648654077210
  0
LINE
  8
0
  6
CONTINUOUS
 62
3
 10
-283.302060598573690
 20
-76.277648654077211
 11
-259.863291464592070
 21
-76.277648654077211
  0
ARC
  8
0
  6
CONTINUOUS
 62
3
 10
-553.802060598573690
 20
-106.277648654077210
 40
300.000000000000170
 50
355.138594604201960
 51
4.861405395798036
  0
LINE
  8
0
  6
CONTINUOUS
 62
3
 10
-253.812477446091410
 20
-103.777648654077210
 11
-253.302060598573690
 21
-103.777648654077210
  0
LINE
  8
0
  6
CONTINUOUS
 62
3
 10
-253.812477446091410
 20
-108.777648654077210
 11
-253.302060598573690
 21
-108.777648654077210
  0
LINE
  8
0
  6
CONTINUOUS
 62
3
 10
-253.302060598573690
 20
-108.777648654077210
 11
-253.302060598573690
 21
-103.777648654077210
  0
ARC
  8
0
  6
CONTINUOUS
 62
3
 10
-303.811993360427320
 20
-78.213892023061589
 40
20.599999999999916
 50
5.752282731536487
 51
44.999999999997321
  0
LINE
  8
0
  6
CONTINUOUS
 62
3
 10
-289.245593667983710
 20
-63.647492330619343
 11
-296.704288842654710
 21
-56.188797155947668
  0
ARC
  8
0
  6
CONTINUOUS
 62
3
 10
-582.402060598574050
 20
-106.277648654077210
 40
300.600000000000360
 50
0.000000000000000
 51
5.752282731536604
  0
LINE
  8
0
  6
CONTINUOUS
 62
3
 10
-283.500611538672500
 20
-75.777648654077211
 11
-283.302060598573690
 21
-75.777648654077211
  0
LINE
  8
0
  6
CONTINUOUS
 62
3
 10
-283.302060598573690
 20
-77.285149591815070
 11
-283.302060598573690
 21
-75.777648654077211
  0
ARC
  8
0
  6
CONTINUOUS
 62
4
 10
-303.811993360427320
 20
-78.213892023061589
 40
10.797000000000011
 50
5.752282731536912
 51
44.999999999998295
  0
LINE
  8
0
  6
CONTINUOUS
 62
4
 10
-296.177361443955990
 20
-70.579260106590709
 11
-302.064775315995350
 21
-64.691846234550667
  0
ARC
  8
0
  6
CONTINUOUS
 62
4
 10
-582.402060598574050
 20
-106.277648654077210
 40
290.797000000000480
 50
0.000000000000000
 51
5.752282731536624
  0
ARC
  8
0
  6
CONTINUOUS
 62
3
 10
-582.402060598574050
 20
-106.277648654077210
 40
300.599999999999910
 50
354.247717268463420
 51
0.000000000000000
  0
LINE
  8
0
  6
CONTINUOUS
 62
3
 10
-289.245593667983710
 20
-148.907804977535080
 11
-296.704288842654710
 21
-156.366500152206750
  0
ARC
  8
0
  6
CONTINUOUS
 62
3
 10
-303.811993360427320
 20
-134.341405285092830
 40
20.600000000000069
 50
315.000000000002670
 51
354.247717268463480
  0
ARC
  8
0
  6
CONTINUOUS
 62
3
 10
-340.802060598573690
 20
240.322351345922930
 40
400.599999999999910
 50
270.000000000000000
 51
275.743681810993450
  0
ARC
  8
0
  6
CONTINUOUS
 62
3
 10
-301.371193598486340
 20
-151.699595396375570
 40
6.600000000000009
 50
275.743681810995100
 51
315.000000000002790
  0
ARC
  8
0
  6
CONTINUOUS
 62
3
 10
-99.202060598573325
 20
-106.277648654077210
 40
300.600000000000360
 50
180.000000000000000
 51
185.752282731536610
  0
LINE
  8
0
  6
CONTINUOUS
 62
3
 10
-392.358527529163670
 20
-148.907804977535080
 11
-384.899832354492670
 21
-156.366500152206750
  0
ARC
  8
0
  6
CONTINUOUS
 62
3
 10
-377.792127836720060
 20
-134.341405285092830
 40
20.599999999999916
 50
185.752282731536500
 51
224.999999999997330
  0
ARC
  8
0
  6
CONTINUOUS
 62
3
 10
-340.802060598573690
 20
240.322351345922930
 40
400.599999999999910
 50
264.256318189006550
 51
270.000000000000000
  0
ARC
  8
0
  6
CONTINUOUS
 62
3
 10
-380.232927598661040
 20
-151.699595396375570
 40
6.600000000000278
 50
224.999999999997190
 51
264.256318189004900
  0
ARC
  8
0
  6
CONTINUOUS
 62
3
 10
-99.202060598573325
 20
-106.277648654077210
 40
300.599999999999910
 50
174.247717268463390
 51
180.000000000000000
  0
LINE
  8
0
  6
CONTINUOUS
 62
3
 10
-392.358527529163670
 20
-63.647492330619343
 11
-384.899832354492670
 21
-56.188797155947668
  0
ARC
  8
0
  6
CONTINUOUS
 62
3
 10
-377.792127836720060
 20
-78.213892023061589
 40
20.600000000000069
 50
135.000000000002670
 51
174.247717268463500
  0
ARC
  8
0
  6
CONTINUOUS
 62
3
 10
-340.802060598573690
 20
-452.877648654077350
 40
400.599999999999910
 50
90.000000000000000
 51
95.743681810993436
  0
ARC
  8
0
  6
CONTINUOUS
 62
3
 10
-380.232927598661040
 20
-60.855701911778851
 40
6.600000000000009
 50
95.743681810995099
 51
135.000000000002790
  0
LINE
  8
0
  6
CONTINUOUS
 62
3
 10
-283.302060598573690
 20
-138.777648654077210
 11
-283.302060598573690
 21
-137.265634508507450
  0
LINE
  8
0
  6
CONTINUOUS
 62
3
 10
-283.500611538672500
 20
-138.777648654077210
 11
-283.302060598573690
 21
-138.777648654077210
  0
LINE
  8
0
  6
CONTINUOUS
 62
3
 10
-201.781807446416740
 20
191.565971479552100
 11
-201.781807446416510
 21
143.722351345922790
  0
LINE
  8
0
  6
CONTINUOUS
 62
3
 10
-193.102326984340660
 20
198.996883458276100
 11
-200.673106180929440
 21
193.695766794703450
  0
ARC
  8
0
  6
CONTINUOUS
 62
3
 10
-199.181807446416600
 20
191.565971479552100
 40
2.600000000000131
 50
125.000000000001180
 51
180.000000000000000
  0
ARC
  8
0
  6
CONTINUOUS
 62
3
 10
-181.286652395509290
 20
182.122351345922770
 40
20.600000000000023
 50
90.000000000000000
 51
124.999999999999600
  0
LINE
  8
0
  6
CONTINUOUS
 62
3
 10
-201.781807446416740
 20
95.878731212293474
 11
-201.781807446416740
 21
143.722351345922790
  0
LINE
  8
0
  6
CONTINUOUS
 62
3
 10
-193.102326984340660
 20
88.447819233569589
 11
-200.673106180929440
 21
93.748935897142132
  0
ARC
  8
0
  6
CONTINUOUS
 62
3
 10
-199.181807446416600
 20
95.878731212293474
 40
2.600000000000136
 50
180.000000000000000
 51
234.999999999997390
  0
ARC
  8
0
  6
CONTINUOUS
 62
3
 10
-181.286652395509290
 20
105.322351345922810
 40
20.599999999999891
 50
235.000000000000400
 51
270.000000000000000
  0
LINE
  8
0
  6
CONTINUOUS
 62
3
 10
-151.781807446416510
 20
202.722351345922790
 11
-181.286652395509290
 21
202.722351345922790
  0
LINE
  8
0
  6
CONTINUOUS
 62
3
 10
-161.781807446416510
 20
84.722351345922789
 11
-181.286652395509290
 21
84.722351345922789
  0
LINE
  8
0
  6
CONTINUOUS
 62
3
 10
-159.781807446395130
 20
86.222351345922789
 11
-159.781807446395130
 21
89.211082109867448
  0
LINE
  8
0
  6
CONTINUOUS
 62
3
 10
-84.781807446395135
 20
91.222351345922903
 11
-152.015276140813800
 21
91.222351345922903
  0
LINE
  8
0
  6
CONTINUOUS
 62
3
 10
-162.781807446416510
 20
192.866272368647970
 11
-164.781807446416510
 21
191.213630729524540
  0
LINE
  8
0
  6
CONTINUOUS
 62
3
 10
-160.781807446416510
 20
194.042057854270750
 11
-162.781807446416510
 21
192.866272368647970
  0
LINE
  8
0
  6
CONTINUOUS
 62
3
 10
-162.781807446416510
 20
192.866272368647970
 11
-160.781807446416510
 21
191.213630729524540
  0
LINE
  8
0
  6
CONTINUOUS
 62
3
 10
-164.781807446416510
 20
194.042057854270750
 11
-162.781807446416510
 21
192.866272368647970
  0
POLYLINE
  8
0
  6
CONTINUOUS
 62
3
 66
1
 70
1
  0
VERTEX
  8
0
  6
CONTINUOUS
 62
3
 10
-158.081807446416290
 20
191.049682300270320
  0
VERTEX
  8
0
  6
CONTINUOUS
 62
3
 10
-158.172116628521110
 20
191.752639266470680
  0
VERTEX
  8
0
  6
CONTINUOUS
 62
3
 10
-158.439573643613240
 20
192.428581990682770
  0
VERTEX
  8
0
  6
CONTINUOUS
 62
3
 10
-158.873900268594330
 20
193.051534373088170
  0
VERTEX
  8
0
  6
CONTINUOUS
 62
3
 10
-159.458405574839500
 20
193.597556702986760
  0
VERTEX
  8
0
  6
CONTINUOUS
 62
3
 10
-160.170627351224170
 20
194.045665648453390
  0
VERTEX
  8
0
  6
CONTINUOUS
 62
3
 10
-160.983195314300360
 20
194.378640634016140
  0
VERTEX
  8
0
  6
CONTINUOUS
 62
3
 10
-161.864882932940470
 20
194.583685617714390
  0
VERTEX
  8
0
  6
CONTINUOUS
 62
3
 10
-162.781807446416280
 20
194.652920835815170
  0
VERTEX
  8
0
  6
CONTINUOUS
 62
3
 10
-163.698731959892090
 20
194.583685617714390
  0
VERTEX
  8
0
  6
CONTINUOUS
 62
3
 10
-164.580419578532200
 20
194.378640634016140
  0
VERTEX
  8
0
  6
CONTINUOUS
 62
3
 10
-165.392987541608390
 20
194.045665648453390
  0
VERTEX
  8
0
  6
CONTINUOUS
 62
3
 10
-166.105209317993060
 20
193.597556702986760
  0
VERTEX
  8
0
  6
CONTINUOUS
 62
3
 10
-166.689714624238230
 20
193.051534373088170
  0
VERTEX
  8
0
  6
CONTINUOUS
 62
3
 10
-167.124041249219320
 20
192.428581990682770
  0
VERTEX
  8
0
  6
CONTINUOUS
 62
3
 10
-167.391498264311450
 20
191.752639266470680
  0
VERTEX
  8
0
  6
CONTINUOUS
 62
3
 10
-167.481807446416270
 20
191.049682300270320
  0
VERTEX
  8
0
  6
CONTINUOUS
 62
3
 10
-167.391498264311450
 20
190.346725334069960
  0
VERTEX
  8
0
  6
CONTINUOUS
 62
3
 10
-167.124041249219320
 20
189.670782609857870
  0
VERTEX
  8
0
  6
CONTINUOUS
 62
3
 10
-166.689714624238230
 20
189.047830227452470
  0
VERTEX
  8
0
  6
CONTINUOUS
 62
3
 10
-166.105209317993030
 20
188.501807897553870
  0
VERTEX
  8
0
  6
CONTINUOUS
 62
3
 10
-165.392987541608390
 20
188.053698952087250
  0
VERTEX
  8
0
  6
CONTINUOUS
 62
3
 10
-164.580419578532200
 20
187.720723966524500
  0
VERTEX
  8
0
  6
CONTINUOUS
 62
3
 10
-163.698731959892090
 20
187.515678982826240
  0
VERTEX
  8
0
  6
CONTINUOUS
 62
3
 10
-162.781807446416280
 20
187.446443764725470
  0
VERTEX
  8
0
  6
CONTINUOUS
 62
3
 10
-161.864882932940470
 20
187.515678982826240
  0
VERTEX
  8
0
  6
CONTINUOUS
 62
3
 10
-160.983195314300360
 20
187.720723966524500
  0
VERTEX
  8
0
  6
CONTINUOUS
 62
3
 10
-160.170627351224170
 20
188.053698952087250
  0
VERTEX
  8
0
  6
CONTINUOUS
 62
3
 10
-159.458405574839530
 20
188.501807897553870
  0
VERTEX
  8
0
  6
CONTINUOUS
 62
3
 10
-158.873900268594330
 20
189.047830227452470
  0
VERTEX
  8
0
  6
CONTINUOUS
 62
3
 10
-158.439573643613240
 20
189.670782609857870
  0
VERTEX
  8
0
  6
CONTINUOUS
 62
3
 10
-158.172116628521110
 20
190.346725334069960
  0
SEQEND
  8
0
  6
CONTINUOUS
 62
3
  0
LINE
  8
0
  6
CONTINUOUS
 62
3
 10
-151.781807446416510
 20
202.722351345922790
 11
-151.781807446416280
 21
143.722351345922790
  0
LINE
  8
0
  6
CONTINUOUS
 62
3
 10
-161.781807446416510
 20
84.722351345922789
 11
-161.781807446416510
 21
86.382654985113845
  0
ARC
  8
0
  6
CONTINUOUS
 62
3
 10
-158.781807446416510
 20
86.382654985113845
 40
3.000000000000000
 50
90.000000000000000
 51
180.000000000000000
  0
LINE
  8
0
  6
CONTINUOUS
 62
3
 10
-162.781807446416510
 20
94.578430323197722
 11
-164.781807446416510
 21
96.231071962321039
  0
LINE
  8
0
  6
CONTINUOUS
 62
3
 10
-160.781807446416510
 20
93.402644837574826
 11
-162.781807446416510
 21
94.578430323197722
  0
LINE
  8
0
  6
CONTINUOUS
 62
3
 10
-162.781807446416510
 20
94.578430323197722
 11
-160.781807446416510
 21
96.231071962321039
  0
LINE
  8
0
  6
CONTINUOUS
 62
3
 10
-164.781807446416510
 20
93.402644837574826
 11
-162.781807446416510
 21
94.578430323197722
  0
POLYLINE
  8
0
  6
CONTINUOUS
 62
3
 66
1
 70
1
  0
VERTEX
  8
0
  6
CONTINUOUS
 62
3
 10
-158.081807446416290
 20
96.395020391575258
  0
VERTEX
  8
0
  6
CONTINUOUS
 62
3
 10
-158.172116628521110
 20
97.097977357775619
  0
VERTEX
  8
0
  6
CONTINUOUS
 62
3
 10
-158.439573643613240
 20
97.773920081987711
  0
VERTEX
  8
0
  6
CONTINUOUS
 62
3
 10
-158.873900268594330
 20
98.396872464393113
  0
VERTEX
  8
0
  6
CONTINUOUS
 62
3
 10
-159.458405574839500
 20
98.942894794291689
  0
VERTEX
  8
0
  6
CONTINUOUS
 62
3
 10
-160.170627351224170
 20
99.391003739758304
  0
VERTEX
  8
0
  6
CONTINUOUS
 62
3
 10
-160.983195314300360
 20
99.723978725321075
  0
VERTEX
  8
0
  6
CONTINUOUS
 62
3
 10
-161.864882932940470
 20
99.929023709019319
  0
VERTEX
  8
0
  6
CONTINUOUS
 62
3
 10
-162.781807446416280
 20
99.998258927120091
  0
VERTEX
  8
0
  6
CONTINUOUS
 62
3
 10
-163.698731959892090
 20
99.929023709019319
  0
VERTEX
  8
0
  6
CONTINUOUS
 62
3
 10
-164.580419578532200
 20
99.723978725321075
  0
VERTEX
  8
0
  6
CONTINUOUS
 62
3
 10
-165.392987541608390
 20
99.391003739758304
  0
VERTEX
  8
0
  6
CONTINUOUS
 62
3
 10
-166.105209317993060
 20
98.942894794291689
  0
VERTEX
  8
0
  6
CONTINUOUS
 62
3
 10
-166.689714624238230
 20
98.396872464393113
  0
VERTEX
  8
0
  6
CONTINUOUS
 62
3
 10
-167.124041249219320
 20
97.773920081987711
  0
VERTEX
  8
0
  6
CONTINUOUS
 62
3
 10
-167.391498264311450
 20
97.097977357775619
  0
VERTEX
  8
0
  6
CONTINUOUS
 62
3
 10
-167.481807446416270
 20
96.395020391575258
  0
VERTEX
  8
0
  6
CONTINUOUS
 62
3
 10
-167.391498264311450
 20
95.692063425374897
  0
VERTEX
  8
0
  6
CONTINUOUS
 62
3
 10
-167.124041249219320
 20
95.016120701162805
  0
VERTEX
  8
0
  6
CONTINUOUS
 62
3
 10
-166.689714624238230
 20
94.393168318757404
  0
VERTEX
  8
0
  6
CONTINUOUS
 62
3
 10
-166.105209317993030
 20
93.847145988858827
  0
VERTEX
  8
0
  6
CONTINUOUS
 62
3
 10
-165.392987541608390
 20
93.399037043392212
  0
VERTEX
  8
0
  6
CONTINUOUS
 62
3
 10
-164.580419578532200
 20
93.066062057829441
  0
VERTEX
  8
0
  6
CONTINUOUS
 62
3
 10
-163.698731959892090
 20
92.861017074131198
  0
VERTEX
  8
0
  6
CONTINUOUS
 62
3
 10
-162.781807446416280
 20
92.791781856030426
  0
VERTEX
  8
0
  6
CONTINUOUS
 62
3
 10
-161.864882932940470
 20
92.861017074131198
  0
VERTEX
  8
0
  6
CONTINUOUS
 62
3
 10
-160.983195314300360
 20
93.066062057829441
  0
VERTEX
  8
0
  6
CONTINUOUS
 62
3
 10
-160.170627351224170
 20
93.399037043392212
  0
VERTEX
  8
0
  6
CONTINUOUS
 62
3
 10
-159.458405574839530
 20
93.847145988858827
  0
VERTEX
  8
0
  6
CONTINUOUS
 62
3
 10
-158.873900268594330
 20
94.393168318757404
  0
VERTEX
  8
0
  6
CONTINUOUS
 62
3
 10
-158.439573643613240
 20
95.016120701162805
  0
VERTEX
  8
0
  6
CONTINUOUS
 62
3
 10
-158.172116628521110
 20
95.692063425374897
  0
SEQEND
  8
0
  6
CONTINUOUS
 62
3
  0
LINE
  8
0
  6
CONTINUOUS
 62
3
 10
-158.781807446416510
 20
89.382654985113845
 11
-154.781807446416510
 21
89.382654985113845
  0
ARC
  8
0
  6
CONTINUOUS
 62
3
 10
-154.781807446416510
 20
92.382654985113845
 40
3.000000000000000
 50
270.000000000000000
 51
0.000000000000000
  0
LINE
  8
0
  6
CONTINUOUS
 62
3
 10
-151.781807446416510
 20
92.382654985113845
 11
-151.781807446416280
 21
143.722351345922790
  0
LINE
  8
0
  6
CONTINUOUS
 62
3
 10
-86.781807446395135
 20
56.722351345922789
 11
-157.781807446395130
 21
56.722351345922789
  0
LINE
  8
0
  6
CONTINUOUS
 62
3
 10
-100.781807446395130
 20
56.222351345922789
 11
-100.781807446395130
 21
56.722351345922789
  0
LINE
  8
0
  6
CONTINUOUS
 62
3
 10
-100.781807446395130
 20
56.222351345922789
 11
-92.781807446395135
 21
56.222351345922789
  0
LINE
  8
0
  6
CONTINUOUS
 62
3
 10
-92.781807446395135
 20
56.222351345922789
 11
-92.781807446395135
 21
56.722351345922789
  0
ARC
  8
0
  6
CONTINUOUS
 62
3
 10
-86.781807446395135
 20
57.722351345922789
 40
1.000000000000000
 50
270.000000000000000
 51
0.000000000000000
  0
ARC
  8
0
  6
CONTINUOUS
 62
3
 10
-157.781807446395130
 20
57.722351345922789
 40
1.000000000000000
 50
180.000000000000000
 51
270.000000000000000
  0
LINE
  8
0
  6
CONTINUOUS
 62
3
 10
-158.781807446395130
 20
57.722351345922789
 11
-158.781807446395130
 21
86.222351345922789
  0
LINE
  8
0
  6
CONTINUOUS
 62
3
 10
-85.781807446395135
 20
57.722351345922789
 11
-85.781807446395135
 21
86.222351345922789
  0
LINE
  8
0
  6
CONTINUOUS
 62
3
 10
-84.781807446395135
 20
86.222351345922789
 11
-84.781807446395135
 21
91.222351345922903
  0
LINE
  8
0
  6
CONTINUOUS
 62
3
 10
-159.781807446395130
 20
86.222351345922789
 11
-84.781807446395135
 21
86.222351345922789
  0
LINE
  8
0
  6
CONTINUOUS
 62
3
 10
-151.781807446422590
 20
-52.277648654076984
 11
-181.286652395515600
 21
-52.277648654076984
  0
LINE
  8
0
  6
CONTINUOUS
 62
3
 10
-193.102326984346970
 20
-56.003116541723671
 11
-200.673106180935750
 21
-61.304233205296214
  0
LINE
  8
0
  6
CONTINUOUS
 62
3
 10
-201.781807446422820
 20
-63.434028520447669
 11
-201.781807446422820
 21
-106.277648654077210
  0
ARC
  8
0
  6
CONTINUOUS
 62
3
 10
-199.181807446422910
 20
-63.434028520447669
 40
2.600000000000131
 50
125.000000000001180
 51
180.000000000000000
  0
ARC
  8
0
  6
CONTINUOUS
 62
3
 10
-181.286652395515600
 20
-72.877648654077007
 40
20.600000000000023
 50
90.000000000000000
 51
124.999999999999600
  0
LINE
  8
0
  6
CONTINUOUS
 62
3
 10
-162.781807446422820
 20
-57.133727631352031
 11
-164.781807446422590
 21
-58.786369270475461
  0
LINE
  8
0
  6
CONTINUOUS
 62
3
 10
-160.781807446422590
 20
-55.957942145729248
 11
-162.781807446422820
 21
-57.133727631352031
  0
LINE
  8
0
  6
CONTINUOUS
 62
3
 10
-162.781807446422820
 20
-57.133727631352031
 11
-160.781807446422590
 21
-58.786369270475461
  0
LINE
  8
0
  6
CONTINUOUS
 62
3
 10
-164.781807446422590
 20
-55.957942145729248
 11
-162.781807446422820
 21
-57.133727631352031
  0
POLYLINE
  8
0
  6
CONTINUOUS
 62
3
 66
1
 70
1
  0
VERTEX
  8
0
  6
CONTINUOUS
 62
3
 10
-158.081807446422370
 20
-58.950317699729567
  0
VERTEX
  8
0
  6
CONTINUOUS
 62
3
 10
-158.172116628527190
 20
-58.247360733529206
  0
VERTEX
  8
0
  6
CONTINUOUS
 62
3
 10
-158.439573643619330
 20
-57.571418009317114
  0
VERTEX
  8
0
  6
CONTINUOUS
 62
3
 10
-158.873900268600410
 20
-56.948465626911712
  0
VERTEX
  8
0
  6
CONTINUOUS
 62
3
 10
-159.458405574845590
 20
-56.402443297013129
  0
VERTEX
  8
0
  6
CONTINUOUS
 62
3
 10
-160.170627351230250
 20
-55.954334351546514
  0
VERTEX
  8
0
  6
CONTINUOUS
 62
3
 10
-160.983195314306440
 20
-55.621359365983757
  0
VERTEX
  8
0
  6
CONTINUOUS
 62
3
 10
-161.864882932946560
 20
-55.416314382285506
  0
VERTEX
  8
0
  6
CONTINUOUS
 62
3
 10
-162.781807446422360
 20
-55.347079164184734
  0
VERTEX
  8
0
  6
CONTINUOUS
 62
3
 10
-163.698731959898170
 20
-55.416314382285506
  0
VERTEX
  8
0
  6
CONTINUOUS
 62
3
 10
-164.580419578538280
 20
-55.621359365983757
  0
VERTEX
  8
0
  6
CONTINUOUS
 62
3
 10
-165.392987541614470
 20
-55.954334351546514
  0
VERTEX
  8
0
  6
CONTINUOUS
 62
3
 10
-166.105209317999140
 20
-56.402443297013129
  0
VERTEX
  8
0
  6
CONTINUOUS
 62
3
 10
-166.689714624244320
 20
-56.948465626911712
  0
VERTEX
  8
0
  6
CONTINUOUS
 62
3
 10
-167.124041249225400
 20
-57.571418009317114
  0
VERTEX
  8
0
  6
CONTINUOUS
 62
3
 10
-167.391498264317530
 20
-58.247360733529206
  0
VERTEX
  8
0
  6
CONTINUOUS
 62
3
 10
-167.481807446422350
 20
-58.950317699729567
  0
VERTEX
  8
0
  6
CONTINUOUS
 62
3
 10
-167.391498264317530
 20
-59.653274665929928
  0
VERTEX
  8
0
  6
CONTINUOUS
 62
3
 10
-167.124041249225400
 20
-60.329217390142020
  0
VERTEX
  8
0
  6
CONTINUOUS
 62
3
 10
-166.689714624244320
 20
-60.952169772547421
  0
VERTEX
  8
0
  6
CONTINUOUS
 62
3
 10
-166.105209317999110
 20
-61.498192102445998
  0
VERTEX
  8
0
  6
CONTINUOUS
 62
3
 10
-165.392987541614470
 20
-61.946301047912620
  0
VERTEX
  8
0
  6
CONTINUOUS
 62
3
 10
-164.580419578538280
 20
-62.279276033475377
  0
VERTEX
  8
0
  6
CONTINUOUS
 62
3
 10
-163.698731959898170
 20
-62.484321017173627
  0
VERTEX
  8
0
  6
CONTINUOUS
 62
3
 10
-162.781807446422360
 20
-62.553556235274399
  0
VERTEX
  8
0
  6
CONTINUOUS
 62
3
 10
-161.864882932946560
 20
-62.484321017173627
  0
VERTEX
  8
0
  6
CONTINUOUS
 62
3
 10
-160.983195314306440
 20
-62.279276033475377
  0
VERTEX
  8
0
  6
CONTINUOUS
 62
3
 10
-160.170627351230250
 20
-61.946301047912620
  0
VERTEX
  8
0
  6
CONTINUOUS
 62
3
 10
-159.458405574845610
 20
-61.498192102445998
  0
VERTEX
  8
0
  6
CONTINUOUS
 62
3
 10
-158.873900268600410
 20
-60.952169772547421
  0
VERTEX
  8
0
  6
CONTINUOUS
 62
3
 10
-158.439573643619330
 20
-60.329217390142020
  0
VERTEX
  8
0
  6
CONTINUOUS
 62
3
 10
-158.172116628527190
 20
-59.653274665929928
  0
SEQEND
  8
0
  6
CONTINUOUS
 62
3
  0
ARC
  8
0
  6
CONTINUOUS
 62
3
 10
-154.781807446422590
 20
-65.277648654077211
 40
3.000000000000000
 50
270.000000000000000
 51
0.000000000000000
  0
LINE
  8
0
  6
CONTINUOUS
 62
3
 10
-151.781807446422590
 20
-52.277648654076984
 11
-151.781807446422590
 21
-65.277648654077211
  0
LINE
  8
0
  6
CONTINUOUS
 62
3
 10
-154.781807446422590
 20
-68.277648654077211
 11
-158.781807446422590
 21
-68.277648654077211
  0
LINE
  8
0
  6
CONTINUOUS
 62
3
 10
-193.102326984346970
 20
-156.552180766430640
 11
-200.673106180935750
 21
-151.251064102858090
  0
LINE
  8
0
  6
CONTINUOUS
 62
3
 10
-201.781807446422820
 20
-149.121268787706750
 11
-201.781807446422820
 21
-106.277648654077210
  0
ARC
  8
0
  6
CONTINUOUS
 62
3
 10
-199.181807446422910
 20
-149.121268787706750
 40
2.599999999999909
 50
180.000000000000000
 51
234.999999999997390
  0
ARC
  8
0
  6
CONTINUOUS
 62
3
 10
-181.286652395515600
 20
-139.677648654077420
 40
20.599999999999891
 50
235.000000000000400
 51
270.000000000000000
  0
LINE
  8
0
  6
CONTINUOUS
 62
3
 10
-151.781807446422590
 20
-160.277648654077440
 11
-181.286652395515600
 21
-160.277648654077440
  0
LINE
  8
0
  6
CONTINUOUS
 62
3
 10
-162.781807446422820
 20
-155.421569676802280
 11
-164.781807446422590
 21
-153.768928037678960
  0
LINE
  8
0
  6
CONTINUOUS
 62
3
 10
-160.781807446422590
 20
-156.597355162425170
 11
-162.781807446422820
 21
-155.421569676802280
  0
LINE
  8
0
  6
CONTINUOUS
 62
3
 10
-162.781807446422820
 20
-155.421569676802280
 11
-160.781807446422590
 21
-153.768928037678960
  0
LINE
  8
0
  6
CONTINUOUS
 62
3
 10
-164.781807446422590
 20
-156.597355162425170
 11
-162.781807446422820
 21
-155.421569676802280
  0
POLYLINE
  8
0
  6
CONTINUOUS
 62
3
 66
1
 70
1
  0
VERTEX
  8
0
  6
CONTINUOUS
 62
3
 10
-158.081807446422370
 20
-153.604979608424740
  0
VERTEX
  8
0
  6
CONTINUOUS
 62
3
 10
-158.172116628527190
 20
-152.902022642224380
  0
VERTEX
  8
0
  6
CONTINUOUS
 62
3
 10
-158.439573643619330
 20
-152.226079918012290
  0
VERTEX
  8
0
  6
CONTINUOUS
 62
3
 10
-158.873900268600410
 20
-151.603127535606890
  0
VERTEX
  8
0
  6
CONTINUOUS
 62
3
 10
-159.458405574845590
 20
-151.057105205708300
  0
VERTEX
  8
0
  6
CONTINUOUS
 62
3
 10
-160.170627351230250
 20
-150.608996260241670
  0
VERTEX
  8
0
  6
CONTINUOUS
 62
3
 10
-160.983195314306440
 20
-150.276021274678930
  0
VERTEX
  8
0
  6
CONTINUOUS
 62
3
 10
-161.864882932946560
 20
-150.070976290980670
  0
VERTEX
  8
0
  6
CONTINUOUS
 62
3
 10
-162.781807446422360
 20
-150.001741072879900
  0
VERTEX
  8
0
  6
CONTINUOUS
 62
3
 10
-163.698731959898170
 20
-150.070976290980670
  0
VERTEX
  8
0
  6
CONTINUOUS
 62
3
 10
-164.580419578538280
 20
-150.276021274678930
  0
VERTEX
  8
0
  6
CONTINUOUS
 62
3
 10
-165.392987541614470
 20
-150.608996260241670
  0
VERTEX
  8
0
  6
CONTINUOUS
 62
3
 10
-166.105209317999140
 20
-151.057105205708300
  0
VERTEX
  8
0
  6
CONTINUOUS
 62
3
 10
-166.689714624244320
 20
-151.603127535606890
  0
VERTEX
  8
0
  6
CONTINUOUS
 62
3
 10
-167.124041249225400
 20
-152.226079918012290
  0
VERTEX
  8
0
  6
CONTINUOUS
 62
3
 10
-167.391498264317530
 20
-152.902022642224380
  0
VERTEX
  8
0
  6
CONTINUOUS
 62
3
 10
-167.481807446422350
 20
-153.604979608424740
  0
VERTEX
  8
0
  6
CONTINUOUS
 62
3
 10
-167.391498264317530
 20
-154.307936574625100
  0
VERTEX
  8
0
  6
CONTINUOUS
 62
3
 10
-167.124041249225400
 20
-154.983879298837190
  0
VERTEX
  8
0
  6
CONTINUOUS
 62
3
 10
-166.689714624244320
 20
-155.606831681242600
  0
VERTEX
  8
0
  6
CONTINUOUS
 62
3
 10
-166.105209317999110
 20
-156.152854011141190
  0
VERTEX
  8
0
  6
CONTINUOUS
 62
3
 10
-165.392987541614470
 20
-156.600962956607820
  0
VERTEX
  8
0
  6
CONTINUOUS
 62
3
 10
-164.580419578538280
 20
-156.933937942170560
  0
VERTEX
  8
0
  6
CONTINUOUS
 62
3
 10
-163.698731959898170
 20
-157.138982925868820
  0
VERTEX
  8
0
  6
CONTINUOUS
 62
3
 10
-162.781807446422360
 20
-157.208218143969590
  0
VERTEX
  8
0
  6
CONTINUOUS
 62
3
 10
-161.864882932946560
 20
-157.138982925868820
  0
VERTEX
  8
0
  6
CONTINUOUS
 62
3
 10
-160.983195314306440
 20
-156.933937942170560
  0
VERTEX
  8
0
  6
CONTINUOUS
 62
3
 10
-160.170627351230250
 20
-156.600962956607820
  0
VERTEX
  8
0
  6
CONTINUOUS
 62
3
 10
-159.458405574845610
 20
-156.152854011141190
  0
VERTEX
  8
0
  6
CONTINUOUS
 62
3
 10
-158.873900268600410
 20
-155.606831681242600
  0
VERTEX
  8
0
  6
CONTINUOUS
 62
3
 10
-158.439573643619330
 20
-154.983879298837190
  0
VERTEX
  8
0
  6
CONTINUOUS
 62
3
 10
-158.172116628527190
 20
-154.307936574625100
  0
SEQEND
  8
0
  6
CONTINUOUS
 62
3
  0
ARC
  8
0
  6
CONTINUOUS
 62
3
 10
-154.781807446422590
 20
-147.277648654077210
 40
3.000000000000000
 50
0.000000000000000
 51
90.000000000000000
  0
LINE
  8
0
  6
CONTINUOUS
 62
3
 10
-151.781807446422590
 20
-160.277648654077440
 11
-151.781807446422590
 21
-147.277648654077210
  0
LINE
  8
0
  6
CONTINUOUS
 62
3
 10
-154.781807446422590
 20
-144.277648654077210
 11
-158.781807446422590
 21
-144.277648654077210
  0
LINE
  8
0
  6
DASHDOT
 62
4
 10
376.238974437983420
 20
-106.277648654077660
 11
313.260970201841700
 21
-106.277648654077660
  0
CIRCLE
  8
0
  6
CONTINUOUS
 62
3
 10
344.760481107010490
 20
-107.277648654080500
 40
33.500000000000000
  0
ARC
  8
0
  6
CONTINUOUS
 62
3
 10
301.865259927955780
 20
-110.277648654080500
 40
3.000000000000032
 50
4.000629961575198
 51
90.000000000000000
  0
ARC
  8
0
  6
CONTINUOUS
 62
3
 10
344.760481107010490
 20
-107.277648654080500
 40
40.000000000000249
 50
184.000629961571520
 51
270.000000000000000
  0
CIRCLE
  8
0
  6
CONTINUOUS
 62
4
 10
344.760481107010490
 20
-107.277648654080500
 40
4.000000000000000
  0
CIRCLE
  8
0
  6
CONTINUOUS
 62
3
 10
344.760481107010490
 20
-107.277648654080500
 40
3.323500000000024
  0
LINE
  8
0
  6
CONTINUOUS
 62
3
 10
325.760481107009580
 20
-102.277648654080500
 11
333.760481107009580
 21
-102.277648654080500
  0
LINE
  8
0
  6
CONTINUOUS
 62
3
 10
325.760481107009580
 20
-112.277648654080500
 11
325.760481107009580
 21
-102.277648654080500
  0
ARC
  8
0
  6
CONTINUOUS
 62
3
 10
344.760481107009580
 20
-107.277648654080500
 40
16.000000000000192
 50
198.209956864282790
 51
161.790043135717210
  0
LINE
  8
0
  6
CONTINUOUS
 62
3
 10
333.760481107009580
 20
-112.277648654080500
 11
333.760481107009580
 21
-102.277648654080500
  0
LINE
  8
0
  6
CONTINUOUS
 62
3
 10
325.760481107009580
 20
-112.277648654080500
 11
333.760481107009580
 21
-112.277648654080500
  0
LINE
  8
0
  6
CONTINUOUS
 62
3
 10
355.260481107010490
 20
-2.277648654080508
 11
334.260481107010490
 21
-2.277648654080508
  0
ARC
  8
0
  6
CONTINUOUS
 62
3
 10
334.260481107010490
 20
-12.277648654080508
 40
10.000000000000000
 50
90.000000000000000
 51
180.000000000000000
  0
LINE
  8
0
  6
CONTINUOUS
 62
3
 10
324.260481107010490
 20
-12.277648654080508
 11
324.260481107010490
 21
-37.775546589000328
  0
CIRCLE
  8
0
  6
CONTINUOUS
 62
3
 10
344.760481107010490
 20
-22.277648654080508
 40
10.000000000000000
  0
LINE
  8
0
  6
CONTINUOUS
 62
3
 10
365.260481107010490
 20
-12.277648654080508
 11
365.260481107010490
 21
-37.277641693215969
  0
ARC
  8
0
  6
CONTINUOUS
 62
3
 10
355.260481107010490
 20
-12.277648654080508
 40
10.000000000000000
 50
0.000000000000000
 51
90.000000000000000
  0
LINE
  8
0
  6
DASHDOT
 62
4
 10
367.928394105892040
 20
-22.277648654080508
 11
320.905880204357350
 21
-22.277648654080508
  0
ARC
  8
0
  6
CONTINUOUS
 62
3
 10
414.507481107010790
 20
-211.277648654080510
 40
3.000000000000000
 50
180.000000000000000
 51
270.000000000000000
  0
ARC
  8
0
  6
CONTINUOUS
 62
3
 10
275.013481107010190
 20
-211.277648654080510
 40
3.000000000000000
 50
270.000000000000000
 51
0.000000000000000
  0
ARC
  8
0
  6
CONTINUOUS
 62
3
 10
433.551270558315990
 20
-211.277648654080510
 40
3.000000000000000
 50
180.000000000000000
 51
270.000000000000000
  0
ARC
  8
0
  6
CONTINUOUS
 62
3
 10
418.131955246100010
 20
-211.277648654080510
 40
3.000000000000000
 50
180.000000000000000
 51
270.000000000000000
  0
ARC
  8
0
  6
CONTINUOUS
 62
3
 10
271.389006967920980
 20
-211.277648654080510
 40
3.000000000000000
 50
270.000000000000000
 51
0.000000000000000
  0
ARC
  8
0
  6
CONTINUOUS
 62
3
 10
255.969691655704990
 20
-211.277648654080510
 40
3.000000000000000
 50
270.000000000000000
 51
0.000000000000000
  0
ARC
  8
0
  6
CONTINUOUS
 62
3
 10
276.760481107010490
 20
-232.277648654080510
 40
2.000000000000000
 50
90.000000000000000
 51
180.000000000000000
  0
ARC
  8
0
  6
CONTINUOUS
 62
3
 10
247.260481107010490
 20
-216.777648654080510
 40
2.500000000000000
 50
90.000000000000000
 51
180.000000000000000
  0
ARC
  8
0
  6
CONTINUOUS
 62
3
 10
412.760481107010490
 20
-232.277648654080510
 40
2.000000000000000
 50
0.000000000000000
 51
90.000000000000000
  0
ARC
  8
0
  6
CONTINUOUS
 62
3
 10
442.260481107010490
 20
-216.777648654080510
 40
2.500000000000000
 50
0.000000000000000
 51
90.000000000000000
  0
ARC
  8
0
  6
CONTINUOUS
 62
3
 10
247.760481107010490
 20
-211.277648654080510
 40
3.000000000000000
 50
270.000000000000000
 51
0.000000000000000
  0
ARC
  8
0
  6
CONTINUOUS
 62
3
 10
441.760481107010490
 20
-211.277648654080510
 40
3.000000000000000
 50
180.000000000000000
 51
270.000000000000000
  0
ARC
  8
0
  6
CONTINUOUS
 62
3
 10
358.760481107010490
 20
-117.511046838261670
 40
80.000000000000000
 50
0.000000000000000
 51
88.089786828289846
  0
ARC
  8
0
  6
CONTINUOUS
 62
3
 10
344.760481107010490
 20
-537.277648654080510
 40
500.000000000000060
 50
88.089786828290030
 51
90.000000000000000
  0
ARC
  8
0
  6
CONTINUOUS
 62
3
 10
344.760481107010490
 20
-537.277648654080510
 40
500.000000000000000
 50
90.000000000000000
 51
91.910213171709970
  0
ARC
  8
0
  6
CONTINUOUS
 62
3
 10
344.760481107010490
 20
-537.277648654080510
 40
472.746750336800180
 50
88.089786828290045
 51
90.000000000000000
  0
ARC
  8
0
  6
CONTINUOUS
 62
3
 10
358.760481107010490
 20
-117.511046838261670
 40
52.746750336800233
 50
0.000000000000000
 51
88.089786828289888
  0
ARC
  8
0
  6
CONTINUOUS
 62
3
 10
344.760481107010490
 20
-537.277648654080510
 40
472.746750336799780
 50
90.000000000000000
 51
91.910213171709955
  0
LINE
  8
0
  6
CONTINUOUS
 62
3
 10
411.507481107010790
 20
-117.277648654080500
 11
411.507481107010790
 21
-211.277648654080510
  0
LINE
  8
0
  6
CONTINUOUS
 62
3
 10
430.551270558315990
 20
-107.277648654080500
 11
430.551270558315990
 21
-211.277648654080510
  0
LINE
  8
0
  6
CONTINUOUS
 62
3
 10
415.131955246100010
 20
-107.277649255010030
 11
415.131955246100010
 21
-211.277648654080510
  0
LINE
  8
0
  6
DASHDOT
 62
4
 10
344.760481107010490
 20
11.257320938648377
 11
344.760481107010490
 21
-242.979726600880780
  0
LINE
  8
0
  6
CONTINUOUS
 62
3
 10
247.260481107010490
 20
-214.277648654080510
 11
344.760481107010490
 21
-214.277648654080510
  0
LINE
  8
0
  6
CONTINUOUS
 62
3
 10
244.760481107010490
 20
-216.777648654080510
 11
244.760481107010490
 21
-232.277648654080510
  0
LINE
  8
0
  6
DASHDOT
 62
4
 10
432.260481107010490
 20
-210.117369799710450
 11
432.260481107010490
 21
-236.694440493680190
  0
LINE
  8
0
  6
CONTINUOUS
 62
3
 10
444.760481107010490
 20
-216.777648654080510
 11
444.760481107010490
 21
-232.277648654080510
  0
LINE
  8
0
  6
CONTINUOUS
 62
3
 10
438.760481107010490
 20
-117.511046838261670
 11
438.760481107010490
 21
-211.277648654080510
  0
LINE
  8
0
  6
CONTINUOUS
 62
3
 10
276.760481107010490
 20
-230.277648654080510
 11
344.760481107010490
 21
-230.277648654080510
  0
LINE
  8
0
  6
CONTINUOUS
 62
3
 10
442.260481107010490
 20
-214.277648654080510
 11
344.760481107010490
 21
-214.277648654080510
  0
LINE
  8
0
  6
CONTINUOUS
 62
3
 10
412.760481107010490
 20
-230.277648654080510
 11
344.760481107010490
 21
-230.277648654080510
  0
LINE
  8
0
  6
DASHDOT
 62
4
 10
257.260481107010490
 20
-210.117369799710450
 11
257.260481107010490
 21
-236.694440493680190
  0
LINE
  8
0
  6
CONTINUOUS
 62
3
 10
291.760481107010490
 20
-207.677648654080600
 11
344.760481107010490
 21
-207.677648654080600
  0
ARC
  8
0
  6
CONTINUOUS
 62
3
 10
291.760481107010490
 20
-200.677648654080600
 40
7.000000000000000
 50
180.000000000000000
 51
270.000000000000000
  0
ARC
  8
0
  6
CONTINUOUS
 62
3
 10
387.655702286065210
 20
-110.277648654080500
 40
3.000000000000000
 50
90.000000000000000
 51
175.999370038424810
  0
ARC
  8
0
  6
CONTINUOUS
 62
3
 10
401.260481107010490
 20
-110.777648654080500
 40
3.500000000000000
 50
0.000000000000000
 51
90.000000000000000
  0
ARC
  8
0
  6
CONTINUOUS
 62
3
 10
397.760481107010490
 20
-200.677648654080600
 40
7.000000000000000
 50
270.000000000000000
 51
0.000000000000000
  0
ARC
  8
0
  6
CONTINUOUS
 62
3
 10
344.760481107010490
 20
-107.277648654080500
 40
40.000000000000000
 50
270.000000000000000
 51
355.999370038428480
  0
LINE
  8
0
  6
CONTINUOUS
 62
3
 10
387.655702286065210
 20
-107.277648654080500
 11
401.260481107010490
 21
-107.277648654080500
  0
LINE
  8
0
  6
CONTINUOUS
 62
3
 10
404.760481107010490
 20
-110.777648654080500
 11
404.760481107010490
 21
-200.677648654080600
  0
LINE
  8
0
  6
CONTINUOUS
 62
3
 10
397.760481107010490
 20
-207.677648654080600
 11
344.760481107010490
 21
-207.677648654080600
  0
POLYLINE
  8
0
  6
CONTINUOUS
 62
3
 66
1
  0
VERTEX
  8
0
  6
CONTINUOUS
 62
3
 10
430.551270558315930
 20
-107.277648654080500
  0
VERTEX
  8
0
  6
CONTINUOUS
 62
3
 10
430.419998980926490
 20
-105.440153441167890
  0
VERTEX
  8
0
  6
CONTINUOUS
 62
3
 10
430.030654545053720
 20
-103.665231926285440
  0
VERTEX
  8
0
  6
CONTINUOUS
 62
3
 10
429.396495908999840
 20
-102.013326935144490
  0
VERTEX
  8
0
  6
CONTINUOUS
 62
3
 10
428.539118585350140
 20
-100.540692113122630
  0
VERTEX
  8
0
  6
CONTINUOUS
 62
3
 10
427.487719531664480
 20
-99.297476274766069
  0
VERTEX
  8
0
  6
CONTINUOUS
 62
3
 10
426.278102883067790
 20
-98.326015645992001
  0
VERTEX
  8
0
  6
CONTINUOUS
 62
3
 10
424.951460685324150
 20
-97.659392154636720
  0
VERTEX
  8
0
  6
CONTINUOUS
 62
3
 10
423.552970149069100
 20
-97.320306865037566
  0
VERTEX
  8
0
  6
CONTINUOUS
 62
3
 10
422.130255194027140
 20
-97.320306920484342
  0
VERTEX
  8
0
  6
CONTINUOUS
 62
3
 10
420.731764673481790
 20
-97.659392319088894
  0
VERTEX
  8
0
  6
CONTINUOUS
 62
3
 10
419.405122506622550
 20
-98.326015913849346
  0
VERTEX
  8
0
  6
CONTINUOUS
 62
3
 10
418.195505903033220
 20
-99.297476636907021
  0
VERTEX
  8
0
  6
CONTINUOUS
 62
3
 10
417.144106906945300
 20
-100.540692557214920
  0
VERTEX
  8
0
  6
CONTINUOUS
 62
3
 10
416.286729651522190
 20
-102.013327446065090
  0
VERTEX
  8
0
  6
CONTINUOUS
 62
3
 10
415.652571092000470
 20
-103.665232486635540
  0
VERTEX
  8
0
  6
CONTINUOUS
 62
3
 10
415.263226738359090
 20
-105.440154031865460
  0
VERTEX
  8
0
  6
CONTINUOUS
 62
3
 10
415.131955246100060
 20
-107.277649255010030
  0
SEQEND
  8
0
  6
CONTINUOUS
 62
3
  0
LINE
  8
0
  6
CONTINUOUS
 62
3
 10
244.760481107010490
 20
-232.277648654080510
 11
274.760481107010490
 21
-232.277648654080510
  0
LINE
  8
0
  6
CONTINUOUS
 62
3
 10
444.760481107010490
 20
-232.277648654080510
 11
414.760481107010490
 21
-232.277648654080510
  0
LINE
  8
0
  6
CONTINUOUS
 62
3
 10
244.760481107010490
 20
-232.277648654080510
 11
274.760481107010490
 21
-232.277648654080510
  0
CIRCLE
  8
0
  6
CONTINUOUS
 62
3
 10
344.760481107010490
 20
-107.277648654080500
 40
23.500000000000000
  0
ARC
  8
0
  6
CONTINUOUS
 62
3
 10
165.718192553622370
 20
-107.277648654080500
 40
5.000000000000000
 50
90.000000000000000
 51
270.000000000000000
  0
LINE
  8
0
  6
CONTINUOUS
 62
3
 10
205.718192553621460
 20
-112.277648654080500
 11
165.718192553622370
 21
-112.277648654080500
  0
LINE
  8
0
  6
CONTINUOUS
 62
3
 10
205.718192553621460
 20
-102.277648654080500
 11
165.718192553622370
 21
-102.277648654080500
  0
ARC
  8
0
  6
CONTINUOUS
 62
3
 10
205.318192553621370
 20
-122.877648654080410
 40
0.400000000000091
 50
270.000000000000000
 51
0.000000000000000
  0
LINE
  8
0
  6
CONTINUOUS
 62
3
 10
205.718192553621460
 20
-107.277648654080500
 11
205.718192553621460
 21
-122.877648654080410
  0
LINE
  8
0
  6
CONTINUOUS
 62
3
 10
155.718192553621460
 20
-124.077648654080230
 11
155.518192553621650
 21
-124.277648654080500
  0
ARC
  8
0
  6
CONTINUOUS
 62
3
 10
156.518192553621650
 20
-123.927648654080140
 40
0.799999999999727
 50
90.000000000000000
 51
176.296803365752200
  0
LINE
  8
0
  6
CONTINUOUS
 62
3
 10
155.718192553621460
 20
-124.077648654080230
 11
155.718192553621460
 21
-107.277648654080500
  0
LINE
  8
0
  6
CONTINUOUS
 62
3
 10
157.718192553621460
 20
-123.127648654080410
 11
156.518192553621650
 21
-123.127648654080410
  0
LINE
  8
0
  6
CONTINUOUS
 62
3
 10
205.318192553621370
 20
-123.277648654080500
 11
158.278000174756870
 21
-123.277648654080500
  0
LINE
  8
0
  6
CONTINUOUS
 62
3
 10
153.718192553599640
 20
-124.277648654080500
 11
155.518192553621650
 21
-124.277648654080500
  0
LINE
  8
0
  6
CONTINUOUS
 62
3
 10
157.718192553621460
 20
-123.127648654080410
 11
158.278000174756870
 21
-123.277648654080500
  0
LINE
  8
0
  6
CONTINUOUS
 62
3
 10
155.718192553621460
 20
-90.477648654080326
 11
155.518192553621650
 21
-90.277648654080508
  0
ARC
  8
0
  6
CONTINUOUS
 62
3
 10
156.518192553621650
 20
-90.627648654080417
 40
0.800000000000237
 50
183.703196634280290
 51
270.000000000000000
  0
LINE
  8
0
  6
CONTINUOUS
 62
3
 10
155.718192553621460
 20
-90.477648654080326
 11
155.718192553621460
 21
-107.277648654080500
  0
LINE
  8
0
  6
CONTINUOUS
 62
3
 10
153.718192553599640
 20
-90.277648654080508
 11
155.518192553621650
 21
-90.277648654080508
  0
LINE
  8
0
  6
CONTINUOUS
 62
3
 10
157.718192553621460
 20
-91.427648654080144
 11
156.518192553621650
 21
-91.427648654080144
  0
LINE
  8
0
  6
CONTINUOUS
 62
3
 10
157.718192553621460
 20
-91.427648654080144
 11
158.278000174756870
 21
-91.277648654080508
  0
LINE
  8
0
  6
CONTINUOUS
 62
3
 10
205.318192553621370
 20
-91.277648654080508
 11
158.278000174756870
 21
-91.277648654080508
  0
ARC
  8
0
  6
CONTINUOUS
 62
3
 10
205.318192553621370
 20
-91.677648654080144
 40
0.400000000000091
 50
0.000000000000000
 51
90.000000000000000
  0
LINE
  8
0
  6
CONTINUOUS
 62
3
 10
205.718192553621460
 20
-107.277648654080500
 11
205.718192553621460
 21
-91.677648654080144
  0
LINE
  8
0
  6
CONTINUOUS
 62
3
 10
123.718192553599630
 20
-213.230025569327950
 11
150.822891043707330
 21
-214.176542497444530
  0
ARC
  8
0
  6
CONTINUOUS
 62
3
 10
152.718192553599640
 20
-72.527648654080508
 40
1.000000000000000
 50
180.000000000000000
 51
270.000000000000000
  0
ARC
  8
0
  6
CONTINUOUS
 62
3
 10
148.718192553599640
 20
-65.593837105250600
 40
3.000000000000000
 50
0.000000000000000
 51
39.469308363522465
  0
ARC
  8
0
  6
CONTINUOUS
 62
3
 10
150.718192553599640
 20
-217.174714978501810
 40
3.000000000000000
 50
0.000000000000000
 51
87.999999999996348
  0
ARC
  8
0
  6
CONTINUOUS
 62
3
 10
153.718192553599640
 20
-213.174714978501810
 40
2.000000000000000
 50
180.000000000000000
 51
233.130102354158570
  0
ARC
  8
0
  6
CONTINUOUS
 62
3
 10
150.933077441264630
 20
-211.178561658338250
 40
3.000000000000000
 50
180.000000000000000
 51
268.000000000005000
  0
ARC
  8
0
  6
CONTINUOUS
 62
3
 10
126.804334350923390
 20
-210.335967382754800
 40
3.000000000000000
 50
180.000000000000000
 51
268.000000000005000
  0
ARC
  8
0
  6
CONTINUOUS
 62
3
 10
152.718192553599640
 20
-141.527637370383560
 40
1.000000000000000
 50
90.000000000000000
 51
180.000000000000000
  0
ARC
  8
0
  6
CONTINUOUS
 62
3
 10
96.996524102989440
 20
-108.183378223759400
 40
70.000000000000341
 50
39.469308363517086
 51
88.999999999999716
  0
LINE
  8
0
  6
CONTINUOUS
 62
3
 10
123.804334350923390
 20
-107.277648654080500
 11
123.804334350923390
 21
-210.335967382754800
  0
LINE
  8
0
  6
CONTINUOUS
 62
3
 10
147.933077441264630
 20
-107.277648654080500
 11
147.933077441264630
 21
-211.178561658338250
  0
LINE
  8
0
  6
DASHDOT
 62
4
 10
102.647814165707070
 20
-107.277648654080500
 11
221.536807974761300
 21
-107.277648654080500
  0
LINE
  8
0
  6
CONTINUOUS
 62
3
 10
152.718192553599640
 20
-73.527648654080508
 11
153.718192553599640
 21
-73.527648654080508
  0
LINE
  8
0
  6
CONTINUOUS
 62
3
 10
153.718192553599640
 20
-140.527637370383560
 11
152.718192553599640
 21
-140.527637370383560
  0
LINE
  8
0
  6
CONTINUOUS
 62
3
 10
153.718192553599640
 20
-217.124542354224900
 11
153.718192553599640
 21
-218.923821091222980
  0
LINE
  8
0
  6
CONTINUOUS
 62
3
 10
151.718192553599640
 20
-141.527637370383560
 11
151.718192553599640
 21
-213.174714978501810
  0
LINE
  8
0
  6
DASHDOT
 62
4
 10
140.718192553599640
 20
-210.055609431363220
 11
140.718192553599640
 21
-238.496333041287360
  0
LINE
  8
0
  6
CONTINUOUS
 62
3
 10
153.718192553599640
 20
-73.527648654080508
 11
153.718192553599640
 21
-140.527637370383560
  0
LINE
  8
0
  6
CONTINUOUS
 62
3
 10
151.718192553599640
 20
-141.527637370383560
 11
151.718192553599640
 21
-72.527648654080508
  0
LINE
  8
0
  6
CONTINUOUS
 62
3
 10
153.718192553599640
 20
-217.174714978501810
 11
153.718192553599640
 21
-232.277648654080510
  0
LINE
  8
0
  6
CONTINUOUS
 62
3
 10
151.718192553599640
 20
-77.527648654080508
 11
151.718192553599640
 21
-65.593837105250600
  0
POLYLINE
  8
0
  6
CONTINUOUS
 62
3
 66
1
  0
VERTEX
  8
0
  6
CONTINUOUS
 62
3
 10
147.933077441264630
 20
-107.277648654080500
  0
VERTEX
  8
0
  6
CONTINUOUS
 62
3
 10
147.701263924912920
 20
-105.326745433919220
  0
VERTEX
  8
0
  6
CONTINUOUS
 62
3
 10
147.014731839288710
 20
-103.450814330429600
  0
VERTEX
  8
0
  6
CONTINUOUS
 62
3
 10
145.899864227430900
 20
-101.721946323884480
  0
VERTEX
  8
0
  6
CONTINUOUS
 62
3
 10
144.399504826438180
 20
-100.206580842215030
  0
VERTEX
  8
0
  6
CONTINUOUS
 62
3
 10
142.571311606679500
 20
-98.962952531055052
  0
VERTEX
  8
0
  6
CONTINUOUS
 62
3
 10
140.485541008327630
 20
-98.038853328967647
  0
VERTEX
  8
0
  6
CONTINUOUS
 62
3
 10
138.222348025763550
 20
-97.469795850048200
  0
VERTEX
  8
0
  6
CONTINUOUS
 62
3
 10
135.868705896094010
 20
-97.277648654080508
  0
VERTEX
  8
0
  6
CONTINUOUS
 62
3
 10
133.515063766424480
 20
-97.469795850048200
  0
VERTEX
  8
0
  6
CONTINUOUS
 62
3
 10
131.251870783860400
 20
-98.038853328967647
  0
VERTEX
  8
0
  6
CONTINUOUS
 62
3
 10
129.166100185508530
 20
-98.962952531055052
  0
VERTEX
  8
0
  6
CONTINUOUS
 62
3
 10
127.337906965749850
 20
-100.206580842215030
  0
VERTEX
  8
0
  6
CONTINUOUS
 62
3
 10
125.837547564757140
 20
-101.721946323884480
  0
VERTEX
  8
0
  6
CONTINUOUS
 62
3
 10
124.722679952899310
 20
-103.450814330429600
  0
VERTEX
  8
0
  6
CONTINUOUS
 62
3
 10
124.036147867275100
 20
-105.326745433919220
  0
VERTEX
  8
0
  6
CONTINUOUS
 62
3
 10
123.804334350923390
 20
-107.277648654080500
  0
SEQEND
  8
0
  6
CONTINUOUS
 62
3
  0
ENDSEC
  0
EOF
