  0
SECTION
  2
HEADER
  9
$TEXTSIZE
 40
2.5
  9
$ACADVER
  1
AC1009
  9
$DIMASZ
 40
3.863703297614046
  9
$DIMEXE
 40
2.000000000000000
  9
$DIMEXO
 40
1.000000000000000
  9
$DIMLFAC
 40
1.000000000000000
  9
$DIMSCALE
 40
1.000000000000000
  9
$DIMTAD
 70
1
  9
$DIMTFAC
 40
0.625000000000000
  9
$DIMTXT
 40
3.200000047683716
  9
$LUPREC
 70
3
  9
$REGENMODE
 70
1
  9
$TEXTSTYLE
  7
STANDARD1
  0
ENDSEC
  0
SECTION
  2
TABLES
  0
TABLE
  2
LTYPE
 70
4
  0
LTYPE
  2
CONTINUOUS
 70
64
  3
Solid line
 72
65
 73
0
 40
0.0
  0
LTYPE
  2
DASHED
 70
64
  3
-- -- -- -- -- -- -- -- -- -- -- -- -- -- --
 72
65
 73
2
 40
0.75
 49
0.5
 49
-0.25
  0
LTYPE
  2
DASHDOT
 70
64
  3
__ . __ . __ . __ . __ . __ . __ . __ . __ . __
 72
65
 73
4
 40
1.0
 49
0.5
 49
-0.25
 49
0.0
 49
-0.25
  0
LTYPE
  2
DIVIDE
 70
64
  3
__ . . __ . . __ . . __ . . __ . . __ . . __
 72
65
 73
6
 40
1.25
 49
0.5
 49
-0.25
 49
0.0
 49
-0.25
 49
0.0
 49
-0.25
  0
ENDTAB
  0
TABLE
  2
LAYER
 70
1
  0
LAYER
  2
0
 70
64
 62
2
  6
CONTINUOUS
  0
ENDTAB
  0
TABLE
  2
STYLE
 70
4
  0
STYLE
  2
STANDARD1
 70
64
 40
0.0
 41
1.0
 50
0.0
 71
0
 42
3.200000047683716
  3
MONOTXT
  4
BIGFONT
  0
STYLE
  2
STANDARD2
 70
68
 40
0.0
 41
1.0
 50
0.0
 71
0
 42
3.200000047683716
  3
MONOTXT
  4
BIGFONT
  0
STYLE
  2
STANDARD3
 70
64
 40
0.0
 41
1.0
 50
0.0
 71
0
 42
3.200000047683716
  3
MONOTXT
  4

  0
STYLE
  2
STANDARD4
 70
68
 40
0.0
 41
1.0
 50
0.0
 71
0
 42
3.200000047683716
  3
MONOTXT
  4

  0
ENDTAB
  0
TABLE
  2
VIEW
 70
0
  0
ENDTAB
  0
ENDSEC
  0
SECTION
  2
BLOCKS
  0
BLOCK
  8
0
  2
ZU_SYM_1
 70
64
 10
0.000000000000000
 20
0.000000000000000
  0
ARC
  8
0
  6
CONTINUOUS
 62
256
 10
6.399999618530273
 20
0.000000000000000
 40
9.000000000000000
 50
163.398451589674950
 51
196.601531107481040
  0
POINT
  8
0
  6
CONTINUOUS
 62
256
 10
0.000000000000000
 20
0.000000000000000
  0
LINE
  8
0
  6
CONTINUOUS
 62
256
 10
0.000000000000000
 20
-3.500000000000000
 11
0.000000000000000
 21
3.500000000000000
  0
LINE
  8
0
  6
CONTINUOUS
 62
256
 10
0.000000000000000
 20
-3.500000000000000
 11
0.000000000000000
 21
3.500000000000000
  0
LINE
  8
0
  6
CONTINUOUS
 62
256
 10
0.000000000000000
 20
3.500000000000000
 11
-0.979025304317474
 21
3.500000000000000
  0
LINE
  8
0
  6
CONTINUOUS
 62
256
 10
0.000000000000000
 20
-3.500000000000000
 11
-0.979025304317474
 21
-3.500000000000000
  0
ARC
  8
0
  6
CONTINUOUS
 62
256
 10
-0.979025304317474
 20
2.200000762939453
 40
1.299999237060547
 50
90.000000000000000
 51
163.398451589674950
  0
ARC
  8
0
  6
CONTINUOUS
 62
256
 10
-0.979025304317474
 20
-2.200000762939453
 40
1.299999237060547
 50
196.601531107481040
 51
270.000000000000000
  0
ENDBLK
  8
0
  0
BLOCK
  8
0
  2
ZU_SYM_2
 70
64
 10
0.000000000000000
 20
0.000000000000000
  0
LINE
  8
0
  6
CONTINUOUS
 62
256
 10
0.000000000000000
 20
-4.249999046325684
 11
-5.000000000000000
 21
-4.249999046325684
  0
LINE
  8
0
  6
CONTINUOUS
 62
256
 10
0.000000000000000
 20
4.249999046325684
 11
-5.000000000000000
 21
4.249999046325684
  0
LINE
  8
0
  6
CONTINUOUS
 62
256
 10
-5.000000000000000
 20
-4.249999046325684
 11
-5.000000000000000
 21
4.249999046325684
  0
LINE
  8
0
  6
CONTINUOUS
 62
256
 10
0.000000000000000
 20
-4.249999046325684
 11
0.000000000000000
 21
4.249999046325684
  0
POINT
  8
0
  6
CONTINUOUS
 62
256
 10
0.000000000000000
 20
0.000000000000000
  0
ENDBLK
  8
0
  0
BLOCK
  8
0
  2
ZU_SYM_3
 70
64
 10
0.000000000000000
 20
0.000000000000000
  0
ARC
  8
0
  6
CONTINUOUS
 62
256
 10
-0.979025304317474
 20
-2.200000762939453
 40
1.299999237060547
 50
196.601531107481040
 51
270.000000000000000
  0
ARC
  8
0
  6
CONTINUOUS
 62
256
 10
-0.979025304317474
 20
2.200000762939453
 40
1.299999237060547
 50
90.000000000000000
 51
163.398451589674950
  0
LINE
  8
0
  6
CONTINUOUS
 62
256
 10
0.000000000000000
 20
-3.500000000000000
 11
-0.979025304317474
 21
-3.500000000000000
  0
LINE
  8
0
  6
CONTINUOUS
 62
256
 10
0.000000000000000
 20
3.500000000000000
 11
-0.979025304317474
 21
3.500000000000000
  0
LINE
  8
0
  6
CONTINUOUS
 62
256
 10
0.000000000000000
 20
-3.500000000000000
 11
0.000000000000000
 21
3.500000000000000
  0
LINE
  8
0
  6
CONTINUOUS
 62
256
 10
0.000000000000000
 20
-3.500000000000000
 11
0.000000000000000
 21
3.500000000000000
  0
POINT
  8
0
  6
CONTINUOUS
 62
256
 10
0.000000000000000
 20
0.000000000000000
  0
ARC
  8
0
  6
CONTINUOUS
 62
256
 10
6.399999618530273
 20
0.000000000000000
 40
9.000000000000000
 50
163.398451589674950
 51
196.601531107481040
  0
ENDBLK
  8
0
  0
ENDSEC
  0
SECTION
  2
ENTITIES
  0
ARC
  8
0
  6
CONTINUOUS
 62
256
 10
131.376077467058620
 20
-72.818313685529517
 40
0.399999999999977
 50
180.000000000000000
 51
270.000000000000000
  0
ARC
  8
0
  6
CONTINUOUS
 62
256
 10
158.576077467058440
 20
-73.468313685529495
 40
0.399999999999977
 50
0.000000000000000
 51
90.000000000000000
  0
LINE
  8
0
  6
CONTINUOUS
 62
256
 10
133.535885088193940
 20
-73.068313685529517
 11
132.976077467058530
 21
-73.218313685529495
  0
LINE
  8
0
  6
CONTINUOUS
 62
256
 10
132.976077467058530
 20
-73.218313685529495
 11
131.376077467058620
 21
-73.218313685529495
  0
LINE
  8
0
  6
CONTINUOUS
 62
256
 10
158.576077467058440
 20
-73.068313685529517
 11
133.535885088193940
 21
-73.068313685529517
  0
LINE
  8
0
  6
CONTINUOUS
 62
256
 10
158.976077467058530
 20
-82.568313685529574
 11
158.976077467058530
 21
-73.468313685529495
  0
LINE
  8
0
  6
CONTINUOUS
 62
256
 10
158.976077467058530
 20
106.728641045076090
 11
158.976077467058530
 21
115.828641045076450
  0
ARC
  8
0
  6
CONTINUOUS
 62
256
 10
158.576077467058440
 20
115.828641045076450
 40
0.400000000000091
 50
0.000000000000000
 51
90.000000000000000
  0
LINE
  8
0
  6
CONTINUOUS
 62
256
 10
158.976077467058530
 20
106.728641045076090
 11
158.976077467058530
 21
94.728641045076117
  0
LINE
  8
0
  6
CONTINUOUS
 62
256
 10
158.976077467058530
 20
94.728641045076103
 11
133.976078480923210
 21
94.728641045076103
  0
LINE
  8
0
  6
CONTINUOUS
 62
256
 10
133.976077467058530
 20
97.228641045076103
 11
133.976077467058530
 21
94.728641045076103
  0
LINE
  8
0
  6
CONTINUOUS
 62
256
 10
130.776077467058710
 20
117.800564565126490
 11
130.976077467058530
 21
117.600564565126670
  0
LINE
  8
0
  6
CONTINUOUS
 62
256
 10
130.976077467058530
 20
106.728641045076090
 11
130.976077467058530
 21
117.600564565126670
  0
ARC
  8
0
  6
CONTINUOUS
 62
256
 10
131.376077467058620
 20
116.478641045076540
 40
0.400000000000091
 50
180.000000000000000
 51
270.000000000000000
  0
LINE
  8
0
  6
CONTINUOUS
 62
256
 10
158.576077467058440
 20
116.228641045076090
 11
133.535885088193940
 21
116.228641045076090
  0
LINE
  8
0
  6
CONTINUOUS
 62
256
 10
130.776077467058710
 20
95.728641045076074
 11
130.976077467058530
 21
95.928641045075906
  0
LINE
  8
0
  6
CONTINUOUS
 62
256
 10
132.976077467058530
 20
116.078641045076450
 11
131.376077467058620
 21
116.078641045076450
  0
LINE
  8
0
  6
CONTINUOUS
 62
256
 10
133.535885088193940
 20
116.228641045076090
 11
132.976077467058530
 21
116.078641045076450
  0
LINE
  8
0
  6
CONTINUOUS
 62
256
 10
130.976077467058530
 20
106.728641045076090
 11
130.976077467058530
 21
95.928641045075906
  0
LINE
  8
0
  6
CONTINUOUS
 62
256
 10
133.535885088193940
 20
97.228641045076088
 11
132.976077467058530
 21
97.378641045075724
  0
LINE
  8
0
  6
CONTINUOUS
 62
256
 10
132.976077467058530
 20
97.378641045075724
 11
131.376077467058620
 21
97.378641045075724
  0
LINE
  8
0
  6
CONTINUOUS
 62
256
 10
158.576077467058440
 20
97.228641045076088
 11
133.535885088193940
 21
97.228641045076088
  0
ARC
  8
0
  6
CONTINUOUS
 62
256
 10
131.376077467058620
 20
96.978641045075634
 40
0.400000000000091
 50
90.000000000000000
 51
180.000000000000000
  0
ARC
  8
0
  6
CONTINUOUS
 62
256
 10
158.576077467058440
 20
97.628641045075724
 40
0.400000000000091
 50
270.000000000000000
 51
0.000000000000000
  0
LINE
  8
0
  6
CONTINUOUS
 62
256
 10
136.864122575646890
 20
-79.568069544904574
 11
158.976077467058530
 21
-79.568069544904574
  0
ARC
  8
0
  6
CONTINUOUS
 62
256
 10
136.864122575646890
 20
-82.456114653492477
 40
2.888045108587903
 50
90.000000000000000
 51
182.226471171998070
  0
LINE
  8
0
  6
CONTINUOUS
 62
256
 10
32.976060574350413
 20
-162.038557826154600
 11
30.976060574350413
 21
-162.038557826154600
  0
LINE
  8
0
  6
CONTINUOUS
 62
256
 10
32.976060574350413
 20
-162.568557826154570
 11
32.976060574350413
 21
-162.038557826154600
  0
LINE
  8
0
  6
CONTINUOUS
 62
256
 10
65.976060574350413
 20
-82.568313685529574
 11
65.976060574350413
 21
-35.068313685529574
  0
LINE
  8
0
  6
CONTINUOUS
 62
256
 10
65.976060574350413
 20
-134.712078784952040
 11
65.976060574350413
 21
-82.568313685529574
  0
LINE
  8
0
  6
CONTINUOUS
 62
256
 10
67.976060574350413
 20
-131.356876791794430
 11
67.976060574350413
 21
-116.946903734404490
  0
LINE
  8
0
  6
CONTINUOUS
 62
256
 10
67.581896866226089
 20
-132.549055387347720
 11
57.844296081089851
 21
-145.665372686528830
  0
LINE
  8
0
  6
CONTINUOUS
 62
256
 10
30.976060574350413
 20
-162.038557826154600
 11
30.976060574350413
 21
-149.963675956971660
  0
LINE
  8
0
  6
CONTINUOUS
 62
256
 10
67.976060574349958
 20
-146.524744943445970
 11
32.991670991792944
 21
-147.511051498904520
  0
LINE
  8
0
  6
CONTINUOUS
 62
256
 10
82.976060574350413
 20
-35.365049789309069
 11
65.976060574350413
 21
-35.068313685529574
  0
LINE
  8
0
  6
DASHDOT
 62
256
 10
43.476060574350413
 20
-165.791006861799130
 11
43.476060574350413
 21
-145.228831333977610
  0
LINE
  8
0
  6
CONTINUOUS
 62
256
 10
67.638862608798263
 20
-35.068313685529574
 11
65.976060574350413
 21
-35.068313685529574
  0
LINE
  8
0
  6
CONTINUOUS
 62
256
 10
82.976060574350413
 20
-35.365049789309182
 11
65.976060574350413
 21
-35.068313685529574
  0
LINE
  8
0
  6
CONTINUOUS
 62
256
 10
65.476060574350413
 20
-35.033403555673203
 11
55.976060574350413
 21
-35.033403555672976
  0
LINE
  8
0
  6
CONTINUOUS
 62
256
 10
65.476060574350413
 20
-100.568313685529500
 11
65.476060574350413
 21
-35.024676023208940
  0
LINE
  8
0
  6
CONTINUOUS
 62
256
 10
37.976060574350413
 20
-48.068313685529574
 11
37.976060574350413
 21
-100.568313685529500
  0
LINE
  8
0
  6
CONTINUOUS
 62
256
 10
60.076060574350777
 20
-92.318313685529517
 11
56.476060574350413
 21
-92.318313685529517
  0
LINE
  8
0
  6
CONTINUOUS
 62
256
 10
60.076060574350777
 20
-102.818313685529500
 11
56.476060574350413
 21
-102.818313685529500
  0
LINE
  8
0
  6
CONTINUOUS
 62
256
 10
60.476060574350413
 20
-92.718313685529495
 11
60.476060574350413
 21
-102.418313685529540
  0
LINE
  8
0
  6
CONTINUOUS
 62
256
 10
60.076060574350777
 20
-39.478378754885853
 11
56.476060574350413
 21
-39.478378754885853
  0
LINE
  8
0
  6
CONTINUOUS
 62
256
 10
60.076060574350777
 20
-36.007178199261944
 11
56.476060574350413
 21
-36.007178199261944
  0
LINE
  8
0
  6
CONTINUOUS
 62
256
 10
60.476060574350413
 20
-36.407178199261807
 11
60.476060574350413
 21
-39.078378754885875
  0
LINE
  8
0
  6
CONTINUOUS
 62
256
 10
55.476060574350413
 20
-47.596967097284221
 11
37.976060574350413
 21
-48.055220724744913
  0
LINE
  8
0
  6
CONTINUOUS
 62
256
 10
55.476060574350413
 20
-93.318314639203834
 11
55.476060574350413
 21
-35.533403555672976
  0
LINE
  8
0
  6
CONTINUOUS
 62
256
 10
65.476060574350413
 20
-135.385566925850300
 11
65.476060574350413
 21
-100.568313685529500
  0
LINE
  8
0
  6
CONTINUOUS
 62
256
 10
55.476060574350413
 20
-101.818312731855200
 11
55.476060574350413
 21
-146.876831150089690
  0
LINE
  8
0
  6
CONTINUOUS
 62
256
 10
37.976060574350868
 20
-147.370527791648330
 11
37.976060574350413
 21
-100.568313685529500
  0
LINE
  8
0
  6
CONTINUOUS
 62
256
 10
128.976060574350410
 20
-162.038557826154600
 11
126.976060574350410
 21
-162.038557826154600
  0
LINE
  8
0
  6
CONTINUOUS
 62
256
 10
126.976060574350410
 20
-162.568557826154570
 11
126.976060574350410
 21
-162.038557826154600
  0
LINE
  8
0
  6
CONTINUOUS
 62
256
 10
126.976060574350410
 20
-146.661926381566450
 11
126.976060574350410
 21
-146.883969401689340
  0
LINE
  8
0
  6
CONTINUOUS
 62
256
 10
128.976060574350410
 20
-162.038557826154600
 11
128.976060574350410
 21
-150.046247061857680
  0
LINE
  8
0
  6
CONTINUOUS
 62
256
 10
126.976060574350410
 20
-82.568313685529574
 11
126.976060574350410
 21
-146.883969401689340
  0
LINE
  8
0
  6
CONTINUOUS
 62
256
 10
126.519691590443470
 20
-147.546627823966670
 11
67.976060574350413
 21
-146.524744943445970
  0
LINE
  8
0
  6
CONTINUOUS
 62
256
 10
128.976060574350410
 20
-82.568313685529574
 11
128.976060574350410
 21
-104.068313685529570
  0
LINE
  8
0
  6
CONTINUOUS
 62
256
 10
128.976060574350410
 20
-82.568313685529574
 11
128.976060574350410
 21
-61.068313685529574
  0
LINE
  8
0
  6
CONTINUOUS
 62
256
 10
126.976060574350410
 20
-82.568313685529574
 11
126.976060574350410
 21
-56.485056604691636
  0
LINE
  8
0
  6
DASHDOT
 62
256
 10
116.476060574350410
 20
-165.791006861799130
 11
116.476060574350410
 21
-145.228831333977610
  0
LINE
  8
0
  6
CONTINUOUS
 62
256
 10
32.976060574350413
 20
-162.568557826154570
 11
126.976060574350410
 21
-162.568557826154570
  0
LINE
  8
0
  6
CONTINUOUS
 62
256
 10
104.685011086742630
 20
-92.568313397490897
 11
104.685011086742630
 21
-145.222799116262420
  0
LINE
  8
0
  6
CONTINUOUS
 62
256
 10
125.615085654223530
 20
-92.568313398947453
 11
125.615085654223530
 21
-145.715477739420180
  0
LINE
  8
0
  6
CONTINUOUS
 62
256
 10
130.776077467058710
 20
-71.496390165478999
 11
130.976077467058530
 21
-71.696390165479045
  0
LINE
  8
0
  6
CONTINUOUS
 62
256
 10
130.976077467058530
 20
-82.496390165478999
 11
130.976077467058530
 21
-71.696390165479045
  0
LINE
  8
0
  6
CONTINUOUS
 62
256
 10
158.576077467058440
 20
-92.068313685529631
 11
133.535885088193940
 21
-92.068313685529631
  0
LINE
  8
0
  6
CONTINUOUS
 62
256
 10
130.776077467058710
 20
-93.568313685529631
 11
130.976077467058530
 21
-93.368313685529586
  0
LINE
  8
0
  6
CONTINUOUS
 62
256
 10
132.976077467058530
 20
-91.918313685529654
 11
131.376077467058620
 21
-91.918313685529654
  0
LINE
  8
0
  6
CONTINUOUS
 62
256
 10
133.535885088193940
 20
-92.068313685529631
 11
132.976077467058530
 21
-91.918313685529654
  0
LINE
  8
0
  6
CONTINUOUS
 62
256
 10
130.976077467058530
 20
-82.568313685529631
 11
130.976077467058530
 21
-93.368313685529586
  0
LINE
  8
0
  6
CONTINUOUS
 62
256
 10
130.776077467058710
 20
-71.496390165478999
 11
128.976060574350410
 21
-71.496390165478942
  0
LINE
  8
0
  6
CONTINUOUS
 62
256
 10
130.776077467058710
 20
-93.568313685529631
 11
128.976060574350410
 21
-93.568313685529631
  0
LINE
  8
0
  6
CONTINUOUS
 62
256
 10
158.976077467058530
 20
-82.568313685529574
 11
158.976077467058530
 21
-91.668313685529654
  0
LINE
  8
0
  6
DASHDOT
 62
256
 10
169.290906773125700
 20
-82.568313685529574
 11
90.038186804906672
 21
-82.568313685529574
  0
LINE
  8
0
  6
CONTINUOUS
 62
256
 10
136.864122575646890
 20
-85.568557826154574
 11
158.976077467058530
 21
-85.568557826154574
  0
LINE
  8
0
  6
CONTINUOUS
 62
256
 10
283.392731831829220
 20
-142.268313685529620
 11
244.692731831828950
 21
-142.268313685529620
  0
LINE
  8
0
  6
CONTINUOUS
 62
256
 10
239.692731831828950
 20
-137.268313685529620
 11
239.692731831828950
 21
-85.068313685529574
  0
LINE
  8
0
  6
CONTINUOUS
 62
256
 10
253.659921672007390
 20
-82.568313685529574
 11
242.192731831828950
 21
-82.568313685529574
  0
LINE
  8
0
  6
CONTINUOUS
 62
256
 10
313.125541991651060
 20
-82.568313685529574
 11
324.592731831829500
 21
-82.568313685529574
  0
LINE
  8
0
  6
CONTINUOUS
 62
256
 10
283.392731831829220
 20
-142.268313685529620
 11
322.092731831829500
 21
-142.268313685529620
  0
LINE
  8
0
  6
CONTINUOUS
 62
256
 10
327.092731831829500
 20
-137.268313685529620
 11
327.092731831829500
 21
-85.068313685529574
  0
LINE
  8
0
  6
CONTINUOUS
 62
256
 10
218.579592320246770
 20
-85.611950172143224
 11
218.579592320246770
 21
-145.568313685529570
  0
LINE
  8
0
  6
CONTINUOUS
 62
256
 10
348.205871343411670
 20
-85.611950172143224
 11
348.205871343411670
 21
-145.568313685529570
  0
LINE
  8
0
  6
DASHED
 62
256
 10
252.791711317395770
 20
-161.568313685529570
 11
243.892731831829220
 21
-161.568313685529570
  0
LINE
  8
0
  6
DASHED
 62
256
 10
283.392731831829220
 20
-160.568313685529570
 11
253.637294478367490
 21
-160.568313685529570
  0
LINE
  8
0
  6
DASHED
 62
256
 10
283.392731831829220
 20
-160.568313685529570
 11
313.148169185291410
 21
-160.568313685529570
  0
LINE
  8
0
  6
DASHED
 62
256
 10
313.993752346263140
 20
-161.568313685529570
 11
322.892731831829220
 21
-161.568313685529570
  0
LINE
  8
0
  6
CONTINUOUS
 62
256
 10
283.392731831829220
 20
-147.568313685529570
 11
213.392731831829220
 21
-147.568313685529570
  0
LINE
  8
0
  6
DASHDOT
 62
256
 10
283.392731831829220
 20
-172.720639815033790
 11
283.392731831829220
 21
-24.338252059095339
  0
LINE
  8
0
  6
DASHDOT
 62
256
 10
301.844338854801210
 20
-100.568313685529570
 11
265.129031216435580
 21
-100.568313685529570
  0
LINE
  8
0
  6
DASHDOT
 62
256
 10
184.644835107200380
 20
-82.568313685529574
 11
394.438917145741470
 21
-82.568313685529574
  0
LINE
  8
0
  6
CONTINUOUS
 62
256
 10
283.392731831829220
 20
-160.568313685529570
 11
313.148169185291410
 21
-160.568313685529570
  0
LINE
  8
0
  6
CONTINUOUS
 62
256
 10
283.392731831829220
 20
-160.568313685529570
 11
253.637294478367490
 21
-160.568313685529570
  0
LINE
  8
0
  6
CONTINUOUS
 62
256
 10
355.892731831829220
 20
-162.568313685529570
 11
355.892731831829220
 21
-150.068313685529570
  0
LINE
  8
0
  6
CONTINUOUS
 62
256
 10
210.892731831829220
 20
-162.568313685529570
 11
210.892731831829220
 21
-150.068313685529570
  0
LINE
  8
0
  6
DASHDOT
 62
256
 10
345.892731831829220
 20
-166.865708018415260
 11
345.892731831829220
 21
-143.605073311198790
  0
LINE
  8
0
  6
DASHDOT
 62
256
 10
220.892731831829220
 20
-166.865708018415260
 11
220.892731831829220
 21
-143.605073311198790
  0
LINE
  8
0
  6
CONTINUOUS
 62
256
 10
283.392731831829220
 20
-147.568313685529570
 11
353.392731831829220
 21
-147.568313685529570
  0
LINE
  8
0
  6
CONTINUOUS
 62
256
 10
331.892731831829220
 20
-162.568313685529570
 11
355.892731831829220
 21
-162.568313685529570
  0
LINE
  8
0
  6
CONTINUOUS
 62
256
 10
234.892731831829220
 20
-162.568313685529570
 11
210.892731831829220
 21
-162.568313685529570
  0
LINE
  8
0
  6
CONTINUOUS
 62
256
 10
213.892731831829220
 20
-145.825672998410250
 11
213.892731831829220
 21
-85.611950172143224
  0
LINE
  8
0
  6
CONTINUOUS
 62
256
 10
352.892731831829220
 20
-145.825672998410250
 11
352.892731831829220
 21
-85.068313685529574
  0
LINE
  8
0
  6
CONTINUOUS
 62
256
 10
234.547336638729120
 20
-145.568313685529570
 11
234.547336638729120
 21
-85.611950172143224
  0
LINE
  8
0
  6
CONTINUOUS
 62
256
 10
332.238127024929330
 20
-145.568313685529570
 11
332.238127024929330
 21
-85.611950172143224
  0
LINE
  8
0
  6
CONTINUOUS
 62
256
 10
313.993752346263140
 20
-161.568313685529570
 11
330.892731831829220
 21
-161.568313685529570
  0
LINE
  8
0
  6
CONTINUOUS
 62
256
 10
252.791711317395770
 20
-161.568313685529570
 11
235.892731831829220
 21
-161.568313685529570
  0
LINE
  8
0
  6
CONTINUOUS
 62
256
 10
233.076010013575340
 20
-75.687376466424894
 11
233.076010013575340
 21
-145.568313685529570
  0
LINE
  8
0
  6
CONTINUOUS
 62
256
 10
218.697849597112050
 20
-82.568313685529574
 11
218.579592320246770
 21
-85.611950172143224
  0
LINE
  8
0
  6
CONTINUOUS
 62
256
 10
348.087614066546390
 20
-82.568313685529574
 11
348.205871343411670
 21
-85.611950172143224
  0
LINE
  8
0
  6
CONTINUOUS
 62
256
 10
333.709453650083110
 20
-75.687376466424894
 11
333.709453650083110
 21
-145.568313685529570
  0
LINE
  8
0
  6
CONTINUOUS
 62
256
 10
277.392731831829220
 20
-85.568313685529574
 11
271.392731831829220
 21
-85.568313685529574
  0
LINE
  8
0
  6
CONTINUOUS
 62
256
 10
277.392731831829220
 20
-79.568313685529574
 11
271.392731831829220
 21
-79.568313685529574
  0
LINE
  8
0
  6
CONTINUOUS
 62
256
 10
271.392731831829220
 20
-85.568313685529574
 11
271.392731831829220
 21
-79.568313685529574
  0
LINE
  8
0
  6
CONTINUOUS
 62
256
 10
277.392731831829220
 20
-85.568313685529574
 11
277.392731831829220
 21
-79.568313685529574
  0
LINE
  8
0
  6
CONTINUOUS
 62
256
 10
213.892731831829220
 20
-130.568313685529520
 11
202.453962697847600
 21
-130.568313685529550
  0
LINE
  8
0
  6
CONTINUOUS
 62
256
 10
216.209516742464420
 20
-70.568313685529574
 11
202.453962697847600
 21
-70.568313685529574
  0
LINE
  8
0
  6
CONTINUOUS
 62
256
 10
196.403148679346940
 20
-98.068313685529574
 11
195.892731831829220
 21
-98.068313685529574
  0
LINE
  8
0
  6
CONTINUOUS
 62
256
 10
196.403148679346940
 20
-103.068313685529570
 11
195.892731831829220
 21
-103.068313685529570
  0
LINE
  8
0
  6
CONTINUOUS
 62
256
 10
195.892731831829220
 20
-103.068313685529570
 11
195.892731831829220
 21
-98.068313685529574
  0
LINE
  8
0
  6
DASHDOT
 62
256
 10
76.639897486390055
 20
-100.568313685529500
 11
-172.909233643241810
 21
-100.568313685529500
  0
LINE
  8
0
  6
CONTINUOUS
 62
256
 10
37.976060574350413
 20
-100.568313685529500
 11
37.976060574350413
 21
-48.068313685529517
  0
LINE
  8
0
  6
CONTINUOUS
 62
256
 10
37.976060574350413
 20
-100.568313685529500
 11
37.976060574350413
 21
-48.068313685529517
  0
ARC
  8
0
  6
CONTINUOUS
 62
256
 10
65.976060574350413
 20
-131.356876791794430
 40
2.000000000000039
 50
323.409675317168760
 51
0.000000000000000
  0
ARC
  8
0
  6
CONTINUOUS
 62
256
 10
55.435541643276338
 20
-143.877104793199010
 40
3.000000000000088
 50
271.614898485974210
 51
323.409675317167850
  0
ARC
  8
0
  6
CONTINUOUS
 62
256
 10
33.476060574350413
 20
-149.963675956971660
 40
2.499999999999949
 50
101.172051984157560
 51
180.000000000000000
  0
ARC
  8
0
  6
CONTINUOUS
 62
256
 10
65.976060574350413
 20
-116.946903734404490
 40
2.000000000000000
 50
0.000000000000000
 51
90.000000000000000
  0
ARC
  8
0
  6
CONTINUOUS
 62
256
 10
55.976060574350413
 20
-35.533403555672976
 40
0.500000000000000
 50
90.000000000000000
 51
180.000000000000000
  0
ARC
  8
0
  6
CONTINUOUS
 62
256
 10
60.076060574350777
 20
-92.718313685529495
 40
0.399999999999636
 50
0.000000000000000
 51
90.000000000000000
  0
ARC
  8
0
  6
CONTINUOUS
 62
256
 10
56.476060574350413
 20
-91.318313685529574
 40
1.000000000000000
 50
180.000000000000000
 51
270.000000000000000
  0
ARC
  8
0
  6
CONTINUOUS
 62
256
 10
60.076060574350777
 20
-102.418313685529540
 40
0.399999999999977
 50
270.000000000000000
 51
0.000000000000000
  0
ARC
  8
0
  6
CONTINUOUS
 62
256
 10
56.476060574350413
 20
-103.818313685529500
 40
1.000000000000000
 50
90.000000000000000
 51
180.000000000000000
  0
ARC
  8
0
  6
CONTINUOUS
 62
256
 10
60.076060574350777
 20
-39.078378754885875
 40
0.399999999999977
 50
270.000000000000000
 51
0.000000000000000
  0
ARC
  8
0
  6
CONTINUOUS
 62
256
 10
56.476060574350413
 20
-40.478378754885853
 40
1.000000000000000
 50
90.000000000000000
 51
180.000000000000000
  0
ARC
  8
0
  6
CONTINUOUS
 62
256
 10
56.476060574350413
 20
-37.007178199261944
 40
1.000000000000000
 50
90.000000000000000
 51
180.000000000000000
  0
ARC
  8
0
  6
CONTINUOUS
 62
256
 10
60.076060574350322
 20
-36.407178199261807
 40
0.400000000000091
 50
0.000000000000000
 51
90.000000000000000
  0
ARC
  8
0
  6
CONTINUOUS
 62
256
 10
127.976060574350410
 20
-146.883969401689340
 40
1.000000000000000
 50
180.000000000000000
 51
244.623066474839110
  0
ARC
  8
0
  6
CONTINUOUS
 62
256
 10
126.476060574350410
 20
-150.046247061857680
 40
2.500000000000000
 50
0.000000000000000
 51
89.000000000003439
  0
ARC
  8
0
  6
CONTINUOUS
 62
256
 10
81.928916188113362
 20
-95.355911498692649
 40
60.000000000000156
 50
42.081511029704792
 51
88.999999999999957
  0
ARC
  8
0
  6
CONTINUOUS
 62
256
 10
81.928916188113362
 20
-95.355911498692649
 40
60.000000000000156
 50
42.081511029704792
 51
88.999999999999957
  0
ARC
  8
0
  6
CONTINUOUS
 62
256
 10
127.976060574350410
 20
-106.068313685529570
 40
1.000000000000000
 50
90.000000000000000
 51
180.000000000000000
  0
ARC
  8
0
  6
CONTINUOUS
 62
256
 10
127.976060574350410
 20
-104.068313685529570
 40
1.000000000000000
 50
270.000000000000000
 51
0.000000000000000
  0
ARC
  8
0
  6
CONTINUOUS
 62
256
 10
127.976060574350410
 20
-61.068313685529574
 40
1.000000000000000
 50
0.000000000000000
 51
90.000000000000000
  0
ARC
  8
0
  6
CONTINUOUS
 62
256
 10
127.976060574350410
 20
-59.068313685529574
 40
1.000000000000000
 50
180.000000000000000
 51
270.000000000000000
  0
ARC
  8
0
  6
CONTINUOUS
 62
256
 10
124.976060574350410
 20
-56.485056604691636
 40
2.000000000000000
 50
0.000000000000000
 51
42.081511029705844
  0
ARC
  8
0
  6
CONTINUOUS
 62
256
 10
106.685011086742630
 20
-145.222799116262420
 40
2.000000000000000
 50
180.000000000000000
 51
268.999999999998240
  0
ARC
  8
0
  6
CONTINUOUS
 62
256
 10
127.615085654223530
 20
-145.715477739420180
 40
2.000000000000000
 50
180.000000000000000
 51
255.337981530188980
  0
ARC
  8
0
  6
CONTINUOUS
 62
256
 10
158.576077467058440
 20
-91.668313685529654
 40
0.399999999999977
 50
270.000000000000000
 51
0.000000000000000
  0
ARC
  8
0
  6
CONTINUOUS
 62
256
 10
131.376077467058620
 20
-92.318313685529631
 40
0.399999999999977
 50
90.000000000000000
 51
180.000000000000000
  0
ARC
  8
0
  6
CONTINUOUS
 62
256
 10
136.864122575646890
 20
-82.680512717566671
 40
2.888045108587921
 50
177.773528828001930
 51
270.000000000000000
  0
ARC
  8
0
  6
CONTINUOUS
 62
256
 10
244.692731831828950
 20
-137.268313685529620
 40
5.000000000000000
 50
180.000000000000000
 51
270.000000000000000
  0
ARC
  8
0
  6
CONTINUOUS
 62
256
 10
242.192731831828950
 20
-85.068313685529574
 40
2.500000000000000
 50
90.000000000000000
 51
180.000000000000000
  0
ARC
  8
0
  6
CONTINUOUS
 62
256
 10
253.659921672007390
 20
-84.568313685529574
 40
2.000000000000042
 50
3.848246969390999
 51
90.000000000000000
  0
ARC
  8
0
  6
CONTINUOUS
 62
256
 10
283.392731831829220
 20
-82.568313685529574
 40
27.800000000000036
 50
183.848246969391080
 51
270.000000000000000
  0
ARC
  8
0
  6
CONTINUOUS
 62
256
 10
324.592731831829500
 20
-85.068313685529574
 40
2.500000000000000
 50
0.000000000000000
 51
90.000000000000000
  0
ARC
  8
0
  6
CONTINUOUS
 62
256
 10
313.125541991651060
 20
-84.568313685529574
 40
2.000000000000000
 50
90.000000000000000
 51
176.151753030608890
  0
ARC
  8
0
  6
CONTINUOUS
 62
256
 10
283.392731831829220
 20
-82.568313685529574
 40
27.799999999999955
 50
270.000000000000000
 51
356.151753030608800
  0
ARC
  8
0
  6
CONTINUOUS
 62
256
 10
322.092731831829500
 20
-137.268313685529620
 40
5.000000000000000
 50
270.000000000000000
 51
0.000000000000000
  0
CIRCLE
  8
0
  6
CONTINUOUS
 62
256
 10
283.392731831829220
 20
-82.568313685529574
 40
17.500244140625000
  0
ARC
  8
0
  6
CONTINUOUS
 62
256
 10
216.579592320246770
 20
-145.568313685529570
 40
2.000000000000000
 50
270.000000000000000
 51
0.000000000000000
  0
ARC
  8
0
  6
DASHED
 62
256
 10
247.892731831829220
 20
-156.568313685529570
 40
7.000000000000130
 50
314.415308597194040
 51
325.150095420954590
  0
ARC
  8
0
  6
DASHED
 62
256
 10
318.892731831829220
 20
-156.568313685529570
 40
6.999999999999825
 50
214.849904579047490
 51
225.584691402808570
  0
ARC
  8
0
  6
CONTINUOUS
 62
256
 10
353.392731831829220
 20
-150.068313685529570
 40
2.500000000000000
 50
0.000000000000000
 51
90.000000000000000
  0
ARC
  8
0
  6
CONTINUOUS
 62
256
 10
213.392731831829220
 20
-150.068313685529570
 40
2.500000000000000
 50
90.000000000000000
 51
180.000000000000000
  0
CIRCLE
  8
0
  6
CONTINUOUS
 62
256
 10
283.392731831829220
 20
-82.568313685529574
 40
22.500000000000000
  0
ARC
  8
0
  6
CONTINUOUS
 62
256
 10
302.892731831829220
 20
-85.321856541516127
 40
50.000000000000000
 50
0.000000000000000
 51
88.510141843145860
  0
ARC
  8
0
  6
CONTINUOUS
 62
256
 10
211.892731831829220
 20
-145.825672998410250
 40
1.999999999999973
 50
289.471220634500180
 51
0.000000000000000
  0
ARC
  8
0
  6
CONTINUOUS
 62
256
 10
354.892731831829220
 20
-145.825672998410250
 40
2.000000000000000
 50
180.000000000000000
 51
250.528779365512210
  0
ARC
  8
0
  6
CONTINUOUS
 62
256
 10
350.205871343411670
 20
-145.568313685529570
 40
2.000000000000000
 50
180.000000000000000
 51
270.000000000000000
  0
ARC
  8
0
  6
CONTINUOUS
 62
256
 10
263.892731831829220
 20
-85.611950172143224
 40
49.999999999999936
 50
93.193847212620867
 51
180.000000000000000
  0
ARC
  8
0
  6
CONTINUOUS
 62
256
 10
283.392731831829220
 20
-435.068313685529570
 40
379.345395193100100
 50
90.000000000000000
 51
93.193847212620952
  0
ARC
  8
0
  6
CONTINUOUS
 62
256
 10
302.892731831829220
 20
-85.611950172143224
 40
29.345395193100103
 50
0.000000000000000
 51
86.806152787378878
  0
ARC
  8
0
  6
CONTINUOUS
 62
256
 10
232.547336638729120
 20
-145.568313685529570
 40
2.000000000000000
 50
270.000000000000000
 51
0.000000000000000
  0
ARC
  8
0
  6
CONTINUOUS
 62
256
 10
263.892731831829220
 20
-85.611950172143224
 40
29.345395193099971
 50
93.193847212621137
 51
180.000000000000000
  0
ARC
  8
0
  6
CONTINUOUS
 62
256
 10
283.392731831829220
 20
-435.068313685529570
 40
379.345395193099990
 50
86.806152787379048
 51
90.000000000000000
  0
ARC
  8
0
  6
CONTINUOUS
 62
256
 10
334.238127024929330
 20
-145.568313685529570
 40
2.000000000000000
 50
180.000000000000000
 51
270.000000000000000
  0
ARC
  8
0
  6
CONTINUOUS
 62
256
 10
318.892731831829220
 20
-156.568313685529570
 40
6.999999999999825
 50
214.849904579047490
 51
225.584691402808570
  0
ARC
  8
0
  6
CONTINUOUS
 62
256
 10
330.892731831829220
 20
-162.568313685529570
 40
1.000000000000000
 50
0.000000000000000
 51
90.000000000000000
  0
ARC
  8
0
  6
CONTINUOUS
 62
256
 10
235.892731831829220
 20
-162.568313685529570
 40
1.000000000000000
 50
90.000000000000000
 51
180.000000000000000
  0
ARC
  8
0
  6
CONTINUOUS
 62
256
 10
247.892731831829220
 20
-156.568313685529570
 40
7.000000000000130
 50
314.415308597194040
 51
325.150095420954590
  0
ARC
  8
0
  6
CONTINUOUS
 62
256
 10
283.392731831829220
 20
-835.068313685529570
 40
799.999999999999890
 50
88.510141843146059
 51
90.000000000000000
  0
ARC
  8
0
  6
CONTINUOUS
 62
256
 10
283.392731831829220
 20
-435.068313685529570
 40
400.000000000000000
 50
90.000000000000000
 51
93.193847212620923
  0
ARC
  8
0
  6
CONTINUOUS
 62
256
 10
231.076010013575340
 20
-145.568313685529570
 40
2.000000000000000
 50
270.000000000000000
 51
0.000000000000000
  0
ARC
  8
0
  6
CONTINUOUS
 62
256
 10
335.709453650083110
 20
-145.568313685529570
 40
2.000000000000000
 50
180.000000000000000
 51
270.000000000000000
  0
ARC
  8
0
  6
CONTINUOUS
 62
256
 10
228.076009989722020
 20
-75.687376476383292
 40
5.000000023853318
 50
0.000000114114841
 51
8.835352103582073
  0
ARC
  8
0
  6
CONTINUOUS
 62
256
 10
338.709453673936420
 20
-75.687376476383292
 40
5.000000000000124
 50
171.164647896417900
 51
179.999999885885160
  0
ARC
  8
0
  6
CONTINUOUS
 62
256
 10
283.392731831829220
 20
-82.568313685529574
 40
9.500000000000016
 50
198.434948822922880
 51
161.591512067614100
  0
CIRCLE
  8
0
  6
CONTINUOUS
 62
256
 10
283.392731831829220
 20
-82.568313685529574
 40
3.000000000000000
  0
CIRCLE
  8
0
  6
CONTINUOUS
 62
256
 10
283.392731831829220
 20
-82.568313685529574
 40
2.458500000000015
  0
ARC
  8
0
  6
CONTINUOUS
 62
256
 10
202.453962697847600
 20
-125.568313685529570
 40
4.999999999999893
 50
184.861405395798610
 51
270.000000000000000
  0
ARC
  8
0
  6
CONTINUOUS
 62
256
 10
202.453962697847600
 20
-75.568313685529574
 40
5.000000000000000
 50
90.000000000000000
 51
175.138594604201330
  0
ARC
  8
0
  6
CONTINUOUS
 62
256
 10
496.392731831829220
 20
-100.568313685529570
 40
300.000000000000170
 50
175.138594604201960
 51
184.861405395798040
  0
LINE
  8
0
  6
CONTINUOUS
 62
256
 10
104.886093843719450
 20
-87.331084522130638
 11
104.685011086742630
 21
-92.568313685529574
  0
LINE
  8
0
  6
CONTINUOUS
 62
256
 10
105.481614617067780
 20
-82.295119138409163
 11
104.886093843719450
 21
-87.331084522130638
  0
LINE
  8
0
  6
CONTINUOUS
 62
256
 10
106.448687877439720
 20
-77.653946859859659
 11
105.481614617067780
 21
-82.295119138409163
  0
LINE
  8
0
  6
CONTINUOUS
 62
256
 10
107.750149541780170
 20
-73.585925334347380
 11
106.448687877439720
 21
-77.653946859859659
  0
LINE
  8
0
  6
CONTINUOUS
 62
256
 10
109.335985168196590
 20
-70.247386347724984
 11
107.750149541780170
 21
-73.585925334347380
  0
LINE
  8
0
  6
CONTINUOUS
 62
256
 10
111.145251982912650
 20
-67.766628080974172
 11
109.335985168196590
 21
-70.247386347724984
  0
LINE
  8
0
  6
CONTINUOUS
 62
256
 10
113.108420876887370
 20
-66.238984683060892
 11
111.145251982912650
 21
-67.766628080974172
  0
LINE
  8
0
  6
CONTINUOUS
 62
256
 10
115.150048370483090
 20
-65.723162633054656
 11
113.108420876887370
 21
-66.238984683060892
  0
LINE
  8
0
  6
CONTINUOUS
 62
256
 10
117.191675864078800
 20
-66.238984683060892
 11
115.150048370483090
 21
-65.723162633054656
  0
LINE
  8
0
  6
CONTINUOUS
 62
256
 10
119.154844758053510
 20
-67.766628080974158
 11
117.191675864078800
 21
-66.238984683060892
  0
LINE
  8
0
  6
CONTINUOUS
 62
256
 10
120.964111572769600
 20
-70.247386347724984
 11
119.154844758053510
 21
-67.766628080974158
  0
LINE
  8
0
  6
CONTINUOUS
 62
256
 10
122.549947199186020
 20
-73.585925334347365
 11
120.964111572769600
 21
-70.247386347724984
  0
LINE
  8
0
  6
CONTINUOUS
 62
256
 10
123.851408863526440
 20
-77.653946859859659
 11
122.549947199186020
 21
-73.585925334347365
  0
LINE
  8
0
  6
CONTINUOUS
 62
256
 10
124.818482123898410
 20
-82.295119138409163
 11
123.851408863526440
 21
-77.653946859859659
  0
LINE
  8
0
  6
CONTINUOUS
 62
256
 10
125.414002897246730
 20
-87.331084522130638
 11
124.818482123898410
 21
-82.295119138409163
  0
LINE
  8
0
  6
CONTINUOUS
 62
256
 10
125.615085654223530
 20
-92.568313685529574
 11
125.414002897246730
 21
-87.331084522130638
  0
LINE
  8
0
  6
CONTINUOUS
 62
256
 10
218.992951867008880
 20
-79.483448232356622
 11
218.697849597111850
 21
-82.568313685529546
  0
LINE
  8
0
  6
CONTINUOUS
 62
256
 10
219.552790181297810
 20
-76.491185902697467
 11
218.992951867008880
 21
-79.483448232356622
  0
LINE
  8
0
  6
CONTINUOUS
 62
256
 10
220.356231328960630
 20
-73.704480936410462
 11
219.552790181297810
 21
-76.491185902697467
  0
LINE
  8
0
  6
CONTINUOUS
 62
256
 10
221.372946390234660
 20
-71.228528034527216
 11
220.356231328960630
 21
-73.704480936410462
  0
LINE
  8
0
  6
CONTINUOUS
 62
256
 10
222.564555616205300
 20
-69.156791388066438
 11
221.372946390234660
 21
-71.228528034527216
  0
LINE
  8
0
  6
CONTINUOUS
 62
256
 10
223.886077217343680
 20
-67.567476519240643
 11
222.564555616205300
 21
-69.156791388066438
  0
LINE
  8
0
  6
CONTINUOUS
 62
256
 10
225.287625370995410
 20
-66.520578118730668
 11
223.886077217343680
 21
-67.567476519240643
  0
LINE
  8
0
  6
CONTINUOUS
 62
256
 10
226.716293350116050
 20
-66.055615319557205
 11
225.287625370995410
 21
-66.520578118730668
  0
LINE
  8
0
  6
CONTINUOUS
 62
256
 10
228.118150687449290
 20
-66.190139898187994
 11
226.716293350116050
 21
-66.055615319557205
  0
LINE
  8
0
  6
CONTINUOUS
 62
256
 10
229.440278984645350
 20
-66.919073716462862
 11
228.118150687449290
 21
-66.190139898187994
  0
LINE
  8
0
  6
CONTINUOUS
 62
256
 10
230.632769517016190
 20
-68.214900415092657
 11
229.440278984645350
 21
-66.919073716462862
  0
LINE
  8
0
  6
CONTINUOUS
 62
256
 10
231.650607226795270
 20
-70.028704122537249
 11
230.632769517016190
 21
-68.214900415092657
  0
LINE
  8
0
  6
CONTINUOUS
 62
256
 10
232.455369986461360
 20
-72.292015969274090
 11
231.650607226795270
 21
-70.028704122537249
  0
LINE
  8
0
  6
CONTINUOUS
 62
256
 10
233.016678987016460
 20
-74.919398703803964
 11
232.455369986461360
 21
-72.292015969274090
  0
LINE
  8
0
  6
CONTINUOUS
 62
256
 10
334.330093677197110
 20
-72.292015969274090
 11
333.768784676641990
 21
-74.919398703803964
  0
LINE
  8
0
  6
CONTINUOUS
 62
256
 10
335.134856436863170
 20
-70.028704122537263
 11
334.330093677197110
 21
-72.292015969274090
  0
LINE
  8
0
  6
CONTINUOUS
 62
256
 10
336.152694146642320
 20
-68.214900415092657
 11
335.134856436863170
 21
-70.028704122537263
  0
LINE
  8
0
  6
CONTINUOUS
 62
256
 10
337.345184679013130
 20
-66.919073716462876
 11
336.152694146642320
 21
-68.214900415092657
  0
LINE
  8
0
  6
CONTINUOUS
 62
256
 10
338.667312976209130
 20
-66.190139898187994
 11
337.345184679013130
 21
-66.919073716462876
  0
LINE
  8
0
  6
CONTINUOUS
 62
256
 10
340.069170313542430
 20
-66.055615319557205
 11
338.667312976209130
 21
-66.190139898187994
  0
LINE
  8
0
  6
CONTINUOUS
 62
256
 10
341.497838292663000
 20
-66.520578118730683
 11
340.069170313542430
 21
-66.055615319557205
  0
LINE
  8
0
  6
CONTINUOUS
 62
256
 10
342.899386446314740
 20
-67.567476519240657
 11
341.497838292663000
 21
-66.520578118730683
  0
LINE
  8
0
  6
CONTINUOUS
 62
256
 10
344.220908047453180
 20
-69.156791388066452
 11
342.899386446314740
 21
-67.567476519240657
  0
LINE
  8
0
  6
CONTINUOUS
 62
256
 10
345.412517273423760
 20
-71.228528034527216
 11
344.220908047453180
 21
-69.156791388066452
  0
LINE
  8
0
  6
CONTINUOUS
 62
256
 10
346.429232334697760
 20
-73.704480936410462
 11
345.412517273423760
 21
-71.228528034527216
  0
LINE
  8
0
  6
CONTINUOUS
 62
256
 10
347.232673482360550
 20
-76.491185902697467
 11
346.429232334697760
 21
-73.704480936410462
  0
LINE
  8
0
  6
CONTINUOUS
 62
256
 10
347.792511796649530
 20
-79.483448232356622
 11
347.232673482360550
 21
-76.491185902697467
  0
LINE
  8
0
  6
CONTINUOUS
 62
256
 10
348.087614066546510
 20
-82.568313685529560
 11
347.792511796649530
 21
-79.483448232356622
  0
INSERT
  8
0
  2
ZU_SYM_1
 10
364.837554038172580
 20
-138.487270296790030
 41
-1.000000000000000
 42
1.000000000000000
 43
1.000000000000000
 50
2.862405226113666
  0
ARC
  8
0
  6
CONTINUOUS
 62
256
 10
362.692731831829180
 20
-111.610813685529590
 40
20.799999999999919
 50
334.359929784105190
 51
5.724810452223412
  0
ARC
  8
0
  6
CONTINUOUS
 62
256
 10
362.692731831829180
 20
-111.610813685529590
 40
20.800000000000040
 50
279.916536608230560
 51
334.359929784105190
  0
ARC
  8
0
  6
CONTINUOUS
 62
256
 10
362.692731831829180
 20
-111.610813685529590
 40
20.799999999999919
 50
334.359929784105190
 51
5.724810452223412
  0
ARC
  8
0
  6
CONTINUOUS
 62
256
 10
360.692731831829180
 20
-71.610813685529592
 40
18.799999999999983
 50
100.598785266066060
 51
141.577493876600270
  0
ARC
  8
0
  6
CONTINUOUS
 62
256
 10
356.866977197742240
 20
-51.165677308391878
 40
1.999999999999958
 50
280.598785266065990
 51
2.862405226112642
  0
ARC
  8
0
  6
CONTINUOUS
 62
256
 10
362.459990295458060
 20
-50.886026653506065
 40
1.999999999999927
 50
182.862405226112710
 51
265.126025186159040
  0
ARC
  8
0
  6
CONTINUOUS
 62
256
 10
361.026184565445650
 20
-134.349824662458900
 40
1.999999999999927
 50
2.862405226112724
 51
85.808273843998279
  0
LINE
  8
0
  6
CONTINUOUS
 62
256
 10
359.194603323512410
 20
-41.648243519194352
 11
364.288240251789380
 21
-143.520982084734440
  0
ARC
  8
0
  6
CONTINUOUS
 62
256
 10
366.619197663161460
 20
-134.070174007573090
 40
1.999999999999995
 50
99.916536608232732
 51
182.862405226112630
  0
LINE
  8
0
  6
CONTINUOUS
 62
256
 10
383.388991183450120
 20
-109.536000717948580
 11
379.398966245794100
 21
-69.735501964831315
  0
ARC
  8
0
  6
CONTINUOUS
 62
256
 10
362.692731831829180
 20
-111.610813685529590
 40
20.800000000000015
 50
241.890778717390650
 51
265.808273843992540
  0
ARC
  8
0
  6
CONTINUOUS
 62
256
 10
360.692731831829180
 20
-71.610813685529592
 40
18.799999999999933
 50
35.808626813495742
 51
85.126025186157236
  0
ARC
  8
0
  6
CONTINUOUS
 62
256
 10
360.692731831829180
 20
-71.610813685529592
 40
18.799999999999837
 50
5.724810452223617
 51
35.808626813495707
  0
LINE
  8
0
  6
CONTINUOUS
 62
256
 10
359.993605194614700
 20
-41.608293425639204
 11
358.395601452410120
 21
-41.688193612749387
  0
ARC
  8
0
  6
CONTINUOUS
 62
256
 10
353.851278691509150
 20
-46.921655849419494
 40
8.999999999999949
 50
346.260856815786500
 51
19.463936333592208
  0
POINT
  8
0
  6
CONTINUOUS
 62
256
 10
360.243293279333560
 20
-46.602055120028240
  0
LINE
  8
0
  6
CONTINUOUS
 62
256
 10
360.068511620029990
 20
-43.106421933955858
 11
360.418074938637120
 21
-50.097688306100736
  0
LINE
  8
0
  6
CONTINUOUS
 62
256
 10
360.068511620029990
 20
-43.106421933955858
 11
360.418074938637120
 21
-50.097688306100736
  0
LINE
  8
0
  6
CONTINUOUS
 62
256
 10
360.418074938637120
 20
-50.097688306100736
 11
361.395878751144890
 21
-50.048798115475392
  0
LINE
  8
0
  6
CONTINUOUS
 62
256
 10
360.068511620029990
 20
-43.106421933955858
 11
361.046315432537540
 21
-43.057531743330514
  0
ARC
  8
0
  6
CONTINUOUS
 62
256
 10
361.330959887217200
 20
-48.750420836921762
 40
1.299999237060550
 50
272.862387240019760
 51
346.260856815788600
  0
ARC
  8
0
  6
CONTINUOUS
 62
256
 10
361.111234296465230
 20
-44.355909021884031
 40
1.299999237060645
 50
19.463936333587128
 51
92.862405909347800
  0
LINE
  8
0
  6
CONTINUOUS
 62
256
 10
359.993605194614700
 20
-41.608293425639204
 11
365.087242122891670
 21
-143.481031991179180
  0
LINE
  8
0
  6
CONTINUOUS
 62
256
 10
363.489238380687080
 20
-143.560932178290160
 11
365.087242122891670
 21
-143.481031991179180
  0
LINE
  8
0
  6
CONTINUOUS
 62
256
 10
358.395601452410120
 20
-41.688193612749387
 11
363.489238380687080
 21
-143.560932178290160
  0
LINE
  8
0
  6
CONTINUOUS
 62
256
 10
-35.523939425649360
 20
-120.568313685529500
 11
55.476060574350406
 21
-120.568313685529530
  0
LINE
  8
0
  6
CONTINUOUS
 62
256
 10
-35.523939425649360
 20
-123.406553365525650
 11
55.476060574350406
 21
-123.406553365525680
  0
LINE
  8
0
  6
CONTINUOUS
 62
256
 10
-35.523939425649360
 20
-124.752955091024260
 11
55.476060574350406
 21
-124.752955091024230
  0
LINE
  8
0
  6
CONTINUOUS
 62
256
 10
-35.523939425649360
 20
-127.845686082689500
 11
55.476060574350406
 21
-127.845686082689500
  0
LINE
  8
0
  6
CONTINUOUS
 62
256
 10
-35.523939425649360
 20
-129.324709236166600
 11
55.476060574350406
 21
-129.324709236166600
  0
LINE
  8
0
  6
CONTINUOUS
 62
256
 10
30.976060574350413
 20
-153.068313685529520
 11
-102.523939425670510
 21
-153.068313685529520
  0
LINE
  8
0
  6
CONTINUOUS
 62
256
 10
-102.523939425670510
 20
-151.068313685529520
 11
30.976060574350413
 21
-151.068313685529520
  0
LINE
  8
0
  6
CONTINUOUS
 62
256
 10
-102.523939425670510
 20
-151.568313685529520
 11
30.976060574350413
 21
-151.568313685529520
  0
LINE
  8
0
  6
CONTINUOUS
 62
256
 10
-102.523939425670510
 20
-146.701396280412210
 11
55.476060574350406
 21
-146.701396280412210
  0
LINE
  8
0
  6
CONTINUOUS
 62
256
 10
-102.523939425670510
 20
-145.072969212634400
 11
55.476060574350406
 21
-145.072969212634400
  0
LINE
  8
0
  6
CONTINUOUS
 62
256
 10
-102.523939425670510
 20
-141.610227455869160
 11
55.476060574350406
 21
-141.610227455869160
  0
LINE
  8
0
  6
CONTINUOUS
 62
256
 10
-102.681539772041770
 20
-140.608749092053870
 11
55.476060574350406
 21
-140.608749092053870
  0
LINE
  8
0
  6
CONTINUOUS
 62
256
 10
-112.523939425670510
 20
-133.871914637038170
 11
55.476060574350406
 21
-133.871914637038170
  0
LINE
  8
0
  6
CONTINUOUS
 62
256
 10
-112.523939425670510
 20
-132.282704844299530
 11
55.476060574350406
 21
-132.282704844299530
  0
LINE
  8
0
  6
CONTINUOUS
 62
256
 10
37.976060574350413
 20
-48.068313685529517
 11
-102.523939425670510
 21
-48.068313685529517
  0
LINE
  8
0
  6
CONTINUOUS
 62
256
 10
-102.523939425670510
 20
-50.068313685529517
 11
55.476060574350406
 21
-50.068313685529517
  0
LINE
  8
0
  6
CONTINUOUS
 62
256
 10
-102.523939425670510
 20
-49.568313685529404
 11
55.476060574350406
 21
-49.568313685529404
  0
LINE
  8
0
  6
CONTINUOUS
 62
256
 10
-102.523939425670510
 20
-54.435231090646823
 11
55.476060574350406
 21
-54.435231090646823
  0
LINE
  8
0
  6
CONTINUOUS
 62
256
 10
-102.523939425670510
 20
-59.526399915189756
 11
55.476060574350406
 21
-59.526399915189756
  0
LINE
  8
0
  6
CONTINUOUS
 62
256
 10
-112.523939425670510
 20
-67.264712734020748
 11
55.476060574350406
 21
-67.264712734020748
  0
LINE
  8
0
  6
CONTINUOUS
 62
256
 10
-112.523939425670510
 20
-68.853922526759504
 11
55.476060574350406
 21
-68.853922526759504
  0
LINE
  8
0
  6
CONTINUOUS
 62
256
 10
-102.523939425670510
 20
-56.063658158424630
 11
55.476060574350406
 21
-56.063658158424630
  0
LINE
  8
0
  6
CONTINUOUS
 62
256
 10
-102.681539772041770
 20
-60.527878279005051
 11
55.476060574350406
 21
-60.527878279005051
  0
LINE
  8
0
  6
CONTINUOUS
 62
256
 10
-35.523939425649360
 20
-80.568313685529517
 11
55.476060574350406
 21
-80.568313685529517
  0
LINE
  8
0
  6
CONTINUOUS
 62
256
 10
-35.523939425649360
 20
-77.730074005533368
 11
55.476060574350406
 21
-77.730074005533368
  0
LINE
  8
0
  6
CONTINUOUS
 62
256
 10
-35.523939425649360
 20
-76.383672280034773
 11
55.476060574350406
 21
-76.383672280034773
  0
LINE
  8
0
  6
CONTINUOUS
 62
256
 10
-35.523939425649360
 20
-73.290941288369538
 11
55.476060574350406
 21
-73.290941288369538
  0
LINE
  8
0
  6
CONTINUOUS
 62
256
 10
-35.523939425649360
 20
-71.811918134892437
 11
55.476060574350406
 21
-71.811918134892437
  0
ARC
  8
0
  6
CONTINUOUS
 62
256
 10
-37.523939425649360
 20
-71.568313685529517
 40
1.000000000000000
 50
0.000000000000000
 51
90.000000000000000
  0
ARC
  8
0
  6
CONTINUOUS
 62
256
 10
-108.523939425649360
 20
-71.568313685529517
 40
1.000000000000000
 50
90.000000000000000
 51
180.000000000000000
  0
LINE
  8
0
  6
CONTINUOUS
 62
256
 10
-36.523939425649360
 20
-71.568313685529517
 11
-36.523939425649360
 21
-100.568313685529500
  0
LINE
  8
0
  6
CONTINUOUS
 62
256
 10
-109.523939425649360
 20
-100.568313685529500
 11
-109.523939425649360
 21
-71.568313685529517
  0
LINE
  8
0
  6
CONTINUOUS
 62
256
 10
-37.523939425649360
 20
-70.568313685529517
 11
-108.523939425649360
 21
-70.568313685529517
  0
LINE
  8
0
  6
CONTINUOUS
 62
256
 10
-112.523939425670510
 20
-77.730074005533368
 11
-110.523939425649360
 21
-77.730074005533368
  0
LINE
  8
0
  6
CONTINUOUS
 62
256
 10
-112.523939425670510
 20
-76.383672280034773
 11
-110.523939425649360
 21
-76.383672280034773
  0
LINE
  8
0
  6
CONTINUOUS
 62
256
 10
-112.523939425670510
 20
-73.290941288369538
 11
-110.523939425649360
 21
-73.290941288369538
  0
LINE
  8
0
  6
CONTINUOUS
 62
256
 10
-112.523939425670510
 20
-71.811918134892437
 11
-110.523939425649360
 21
-71.811918134892437
  0
LINE
  8
0
  6
CONTINUOUS
 62
256
 10
-112.523939425670510
 20
-80.568313685529517
 11
-110.523939425649360
 21
-80.568313685529517
  0
ARC
  8
0
  6
CONTINUOUS
 62
256
 10
-108.523939425649360
 20
-71.068313685529517
 40
2.000000000000000
 50
90.000000000000000
 51
180.000000000000000
  0
ARC
  8
0
  6
CONTINUOUS
 62
256
 10
-37.523939425649360
 20
-71.068313685529517
 40
2.000000000000000
 50
0.000000000000000
 51
90.000000000000000
  0
LINE
  8
0
  6
CONTINUOUS
 62
256
 10
-37.523939425649360
 20
-69.068313685529517
 11
-108.523939425649360
 21
-69.068313685529517
  0
LINE
  8
0
  6
CONTINUOUS
 62
256
 10
-35.523939425649360
 20
-100.568313685529500
 11
-35.523939425649360
 21
-71.068313685529517
  0
LINE
  8
0
  6
CONTINUOUS
 62
256
 10
-110.523939425649360
 20
-100.568313685529500
 11
-110.523939425649360
 21
-71.068313685529517
  0
LINE
  8
0
  6
CONTINUOUS
 62
256
 10
-102.523939425670510
 20
-46.568313685529290
 11
-132.028784374763520
 21
-46.568313685529290
  0
LINE
  8
0
  6
CONTINUOUS
 62
256
 10
-143.844458963594890
 20
-50.293781573175977
 11
-151.415238160183660
 21
-55.594898236748520
  0
LINE
  8
0
  6
CONTINUOUS
 62
256
 10
-152.523939425670730
 20
-57.724693551899975
 11
-152.523939425670730
 21
-100.568313685529500
  0
ARC
  8
0
  6
CONTINUOUS
 62
256
 10
-149.923939425670820
 20
-57.724693551899975
 40
2.600000000000131
 50
125.000000000001180
 51
180.000000000000000
  0
ARC
  8
0
  6
CONTINUOUS
 62
256
 10
-132.028784374763520
 20
-67.168313685529313
 40
20.600000000000023
 50
90.000000000000000
 51
124.999999999999630
  0
LINE
  8
0
  6
CONTINUOUS
 62
256
 10
-113.523939425670730
 20
-51.424392662804337
 11
-115.523939425670510
 21
-53.077034301927768
  0
LINE
  8
0
  6
CONTINUOUS
 62
256
 10
-111.523939425670510
 20
-50.248607177181555
 11
-113.523939425670730
 21
-51.424392662804337
  0
LINE
  8
0
  6
CONTINUOUS
 62
256
 10
-113.523939425670730
 20
-51.424392662804337
 11
-111.523939425670510
 21
-53.077034301927768
  0
LINE
  8
0
  6
CONTINUOUS
 62
256
 10
-115.523939425670510
 20
-50.248607177181555
 11
-113.523939425670730
 21
-51.424392662804337
  0
LINE
  8
0
  6
CONTINUOUS
 62
256
 10
-108.914248607775090
 20
-53.943939697382234
 11
-108.823939425670280
 21
-53.240982731181873
  0
LINE
  8
0
  6
CONTINUOUS
 62
256
 10
-109.181705622867240
 20
-54.619882421594326
 11
-108.914248607775090
 21
-53.943939697382234
  0
LINE
  8
0
  6
CONTINUOUS
 62
256
 10
-109.616032247848320
 20
-55.242834803999727
 11
-109.181705622867240
 21
-54.619882421594326
  0
LINE
  8
0
  6
CONTINUOUS
 62
256
 10
-110.200537554093510
 20
-55.788857133898304
 11
-109.616032247848320
 21
-55.242834803999727
  0
LINE
  8
0
  6
CONTINUOUS
 62
256
 10
-110.912759330478150
 20
-56.236966079364926
 11
-110.200537554093510
 21
-55.788857133898304
  0
LINE
  8
0
  6
CONTINUOUS
 62
256
 10
-111.725327293554340
 20
-56.569941064927683
 11
-110.912759330478150
 21
-56.236966079364926
  0
LINE
  8
0
  6
CONTINUOUS
 62
256
 10
-112.607014912194470
 20
-56.774986048625934
 11
-111.725327293554340
 21
-56.569941064927683
  0
LINE
  8
0
  6
CONTINUOUS
 62
256
 10
-113.523939425670260
 20
-56.844221266726706
 11
-112.607014912194470
 21
-56.774986048625934
  0
LINE
  8
0
  6
CONTINUOUS
 62
256
 10
-114.440863939146080
 20
-56.774986048625934
 11
-113.523939425670260
 21
-56.844221266726706
  0
LINE
  8
0
  6
CONTINUOUS
 62
256
 10
-115.322551557786180
 20
-56.569941064927683
 11
-114.440863939146080
 21
-56.774986048625934
  0
LINE
  8
0
  6
CONTINUOUS
 62
256
 10
-116.135119520862400
 20
-56.236966079364926
 11
-115.322551557786180
 21
-56.569941064927683
  0
LINE
  8
0
  6
CONTINUOUS
 62
256
 10
-116.847341297247040
 20
-55.788857133898304
 11
-116.135119520862400
 21
-56.236966079364926
  0
LINE
  8
0
  6
CONTINUOUS
 62
256
 10
-117.431846603492230
 20
-55.242834803999727
 11
-116.847341297247040
 21
-55.788857133898304
  0
LINE
  8
0
  6
CONTINUOUS
 62
256
 10
-117.866173228473310
 20
-54.619882421594326
 11
-117.431846603492230
 21
-55.242834803999727
  0
LINE
  8
0
  6
CONTINUOUS
 62
256
 10
-118.133630243565430
 20
-53.943939697382234
 11
-117.866173228473310
 21
-54.619882421594326
  0
LINE
  8
0
  6
CONTINUOUS
 62
256
 10
-118.223939425670270
 20
-53.240982731181873
 11
-118.133630243565430
 21
-53.943939697382234
  0
LINE
  8
0
  6
CONTINUOUS
 62
256
 10
-118.133630243565430
 20
-52.538025764981512
 11
-118.223939425670270
 21
-53.240982731181873
  0
LINE
  8
0
  6
CONTINUOUS
 62
256
 10
-117.866173228473310
 20
-51.862083040769420
 11
-118.133630243565430
 21
-52.538025764981512
  0
LINE
  8
0
  6
CONTINUOUS
 62
256
 10
-117.431846603492230
 20
-51.239130658364019
 11
-117.866173228473310
 21
-51.862083040769420
  0
LINE
  8
0
  6
CONTINUOUS
 62
256
 10
-116.847341297247040
 20
-50.693108328465435
 11
-117.431846603492230
 21
-51.239130658364019
  0
LINE
  8
0
  6
CONTINUOUS
 62
256
 10
-116.135119520862400
 20
-50.244999382998820
 11
-116.847341297247040
 21
-50.693108328465435
  0
LINE
  8
0
  6
CONTINUOUS
 62
256
 10
-115.322551557786180
 20
-49.912024397436063
 11
-116.135119520862400
 21
-50.244999382998820
  0
LINE
  8
0
  6
CONTINUOUS
 62
256
 10
-114.440863939146080
 20
-49.706979413737812
 11
-115.322551557786180
 21
-49.912024397436063
  0
LINE
  8
0
  6
CONTINUOUS
 62
256
 10
-113.523939425670260
 20
-49.637744195637040
 11
-114.440863939146080
 21
-49.706979413737812
  0
LINE
  8
0
  6
CONTINUOUS
 62
256
 10
-112.607014912194470
 20
-49.706979413737812
 11
-113.523939425670260
 21
-49.637744195637040
  0
LINE
  8
0
  6
CONTINUOUS
 62
256
 10
-111.725327293554340
 20
-49.912024397436063
 11
-112.607014912194470
 21
-49.706979413737812
  0
LINE
  8
0
  6
CONTINUOUS
 62
256
 10
-110.912759330478150
 20
-50.244999382998820
 11
-111.725327293554340
 21
-49.912024397436063
  0
LINE
  8
0
  6
CONTINUOUS
 62
256
 10
-110.200537554093510
 20
-50.693108328465435
 11
-110.912759330478150
 21
-50.244999382998820
  0
LINE
  8
0
  6
CONTINUOUS
 62
256
 10
-109.616032247848320
 20
-51.239130658364019
 11
-110.200537554093510
 21
-50.693108328465435
  0
LINE
  8
0
  6
CONTINUOUS
 62
256
 10
-109.181705622867240
 20
-51.862083040769420
 11
-109.616032247848320
 21
-51.239130658364019
  0
LINE
  8
0
  6
CONTINUOUS
 62
256
 10
-108.914248607775090
 20
-52.538025764981512
 11
-109.181705622867240
 21
-51.862083040769420
  0
LINE
  8
0
  6
CONTINUOUS
 62
256
 10
-108.823939425670280
 20
-53.240982731181873
 11
-108.914248607775090
 21
-52.538025764981512
  0
ARC
  8
0
  6
CONTINUOUS
 62
256
 10
-105.523939425670510
 20
-59.568313685529517
 40
3.000000000000000
 50
270.000000000000000
 51
0.000000000000000
  0
LINE
  8
0
  6
CONTINUOUS
 62
256
 10
-102.523939425670510
 20
-46.568313685529290
 11
-102.523939425670510
 21
-59.568313685529517
  0
ARC
  8
0
  6
CONTINUOUS
 62
256
 10
-109.523939425670510
 20
-65.568313685529517
 40
3.000000000000000
 50
90.000000000000000
 51
180.000000000000000
  0
LINE
  8
0
  6
CONTINUOUS
 62
256
 10
-105.523939425670510
 20
-62.568313685529517
 11
-109.523939425670510
 21
-62.568313685529517
  0
LINE
  8
0
  6
CONTINUOUS
 62
256
 10
-112.523939425670510
 20
-100.568313685529500
 11
-112.523939425670510
 21
-65.568313685529517
  0
LINE
  8
0
  6
CONTINUOUS
 62
256
 10
-36.523939425649360
 20
-129.568313685529520
 11
-36.523939425649360
 21
-100.568313685529500
  0
LINE
  8
0
  6
CONTINUOUS
 62
256
 10
-109.523939425649360
 20
-100.568313685529500
 11
-109.523939425649360
 21
-129.568313685529520
  0
LINE
  8
0
  6
CONTINUOUS
 62
256
 10
-143.844458963594890
 20
-150.842845797882940
 11
-151.415238160183660
 21
-145.541729134310400
  0
LINE
  8
0
  6
CONTINUOUS
 62
256
 10
-152.523939425670730
 20
-143.411933819159060
 11
-152.523939425670730
 21
-100.568313685529500
  0
ARC
  8
0
  6
CONTINUOUS
 62
256
 10
-149.923939425670820
 20
-143.411933819159060
 40
2.599999999999909
 50
180.000000000000000
 51
234.999999999997500
  0
ARC
  8
0
  6
CONTINUOUS
 62
256
 10
-132.028784374763520
 20
-133.968313685529720
 40
20.599999999999891
 50
235.000000000000400
 51
270.000000000000000
  0
LINE
  8
0
  6
CONTINUOUS
 62
256
 10
-102.523939425670510
 20
-154.568313685529740
 11
-132.028784374763520
 21
-154.568313685529740
  0
LINE
  8
0
  6
CONTINUOUS
 62
256
 10
-112.523939425670510
 20
-120.568313685529500
 11
-110.523939425649360
 21
-120.568313685529500
  0
LINE
  8
0
  6
CONTINUOUS
 62
256
 10
-112.523939425670510
 20
-123.406553365525650
 11
-110.523939425649360
 21
-123.406553365525650
  0
LINE
  8
0
  6
CONTINUOUS
 62
256
 10
-112.523939425670510
 20
-124.752955091024260
 11
-110.523939425649360
 21
-124.752955091024260
  0
LINE
  8
0
  6
CONTINUOUS
 62
256
 10
-112.523939425670510
 20
-127.845686082689500
 11
-110.523939425649360
 21
-127.845686082689500
  0
LINE
  8
0
  6
CONTINUOUS
 62
256
 10
-112.523939425670510
 20
-129.324709236166600
 11
-110.523939425649360
 21
-129.324709236166600
  0
LINE
  8
0
  6
CONTINUOUS
 62
256
 10
-113.523939425670730
 20
-149.712234708254580
 11
-115.523939425670510
 21
-148.059593069131270
  0
LINE
  8
0
  6
CONTINUOUS
 62
256
 10
-111.523939425670510
 20
-150.888020193877480
 11
-113.523939425670730
 21
-149.712234708254580
  0
LINE
  8
0
  6
CONTINUOUS
 62
256
 10
-113.523939425670730
 20
-149.712234708254580
 11
-111.523939425670510
 21
-148.059593069131270
  0
LINE
  8
0
  6
CONTINUOUS
 62
256
 10
-115.523939425670510
 20
-150.888020193877480
 11
-113.523939425670730
 21
-149.712234708254580
  0
LINE
  8
0
  6
CONTINUOUS
 62
256
 10
-108.914248607775090
 20
-148.598601606077410
 11
-108.823939425670280
 21
-147.895644639877050
  0
LINE
  8
0
  6
CONTINUOUS
 62
256
 10
-109.181705622867240
 20
-149.274544330289500
 11
-108.914248607775090
 21
-148.598601606077410
  0
LINE
  8
0
  6
CONTINUOUS
 62
256
 10
-109.616032247848320
 20
-149.897496712694900
 11
-109.181705622867240
 21
-149.274544330289500
  0
LINE
  8
0
  6
CONTINUOUS
 62
256
 10
-110.200537554093510
 20
-150.443519042593490
 11
-109.616032247848320
 21
-149.897496712694900
  0
LINE
  8
0
  6
CONTINUOUS
 62
256
 10
-110.912759330478150
 20
-150.891627988060120
 11
-110.200537554093510
 21
-150.443519042593490
  0
LINE
  8
0
  6
CONTINUOUS
 62
256
 10
-111.725327293554340
 20
-151.224602973622860
 11
-110.912759330478150
 21
-150.891627988060120
  0
LINE
  8
0
  6
CONTINUOUS
 62
256
 10
-112.607014912194470
 20
-151.429647957321120
 11
-111.725327293554340
 21
-151.224602973622860
  0
LINE
  8
0
  6
CONTINUOUS
 62
256
 10
-113.523939425670260
 20
-151.498883175421890
 11
-112.607014912194470
 21
-151.429647957321120
  0
LINE
  8
0
  6
CONTINUOUS
 62
256
 10
-114.440863939146080
 20
-151.429647957321120
 11
-113.523939425670260
 21
-151.498883175421890
  0
LINE
  8
0
  6
CONTINUOUS
 62
256
 10
-115.322551557786180
 20
-151.224602973622860
 11
-114.440863939146080
 21
-151.429647957321120
  0
LINE
  8
0
  6
CONTINUOUS
 62
256
 10
-116.135119520862400
 20
-150.891627988060120
 11
-115.322551557786180
 21
-151.224602973622860
  0
LINE
  8
0
  6
CONTINUOUS
 62
256
 10
-116.847341297247040
 20
-150.443519042593490
 11
-116.135119520862400
 21
-150.891627988060120
  0
LINE
  8
0
  6
CONTINUOUS
 62
256
 10
-117.431846603492230
 20
-149.897496712694900
 11
-116.847341297247040
 21
-150.443519042593490
  0
LINE
  8
0
  6
CONTINUOUS
 62
256
 10
-117.866173228473310
 20
-149.274544330289500
 11
-117.431846603492230
 21
-149.897496712694900
  0
LINE
  8
0
  6
CONTINUOUS
 62
256
 10
-118.133630243565430
 20
-148.598601606077410
 11
-117.866173228473310
 21
-149.274544330289500
  0
LINE
  8
0
  6
CONTINUOUS
 62
256
 10
-118.223939425670270
 20
-147.895644639877050
 11
-118.133630243565430
 21
-148.598601606077410
  0
LINE
  8
0
  6
CONTINUOUS
 62
256
 10
-118.133630243565430
 20
-147.192687673676690
 11
-118.223939425670270
 21
-147.895644639877050
  0
LINE
  8
0
  6
CONTINUOUS
 62
256
 10
-117.866173228473310
 20
-146.516744949464600
 11
-118.133630243565430
 21
-147.192687673676690
  0
LINE
  8
0
  6
CONTINUOUS
 62
256
 10
-117.431846603492230
 20
-145.893792567059190
 11
-117.866173228473310
 21
-146.516744949464600
  0
LINE
  8
0
  6
CONTINUOUS
 62
256
 10
-116.847341297247040
 20
-145.347770237160600
 11
-117.431846603492230
 21
-145.893792567059190
  0
LINE
  8
0
  6
CONTINUOUS
 62
256
 10
-116.135119520862400
 20
-144.899661291693970
 11
-116.847341297247040
 21
-145.347770237160600
  0
LINE
  8
0
  6
CONTINUOUS
 62
256
 10
-115.322551557786180
 20
-144.566686306131230
 11
-116.135119520862400
 21
-144.899661291693970
  0
LINE
  8
0
  6
CONTINUOUS
 62
256
 10
-114.440863939146080
 20
-144.361641322432970
 11
-115.322551557786180
 21
-144.566686306131230
  0
LINE
  8
0
  6
CONTINUOUS
 62
256
 10
-113.523939425670260
 20
-144.292406104332200
 11
-114.440863939146080
 21
-144.361641322432970
  0
LINE
  8
0
  6
CONTINUOUS
 62
256
 10
-112.607014912194470
 20
-144.361641322432970
 11
-113.523939425670260
 21
-144.292406104332200
  0
LINE
  8
0
  6
CONTINUOUS
 62
256
 10
-111.725327293554340
 20
-144.566686306131230
 11
-112.607014912194470
 21
-144.361641322432970
  0
LINE
  8
0
  6
CONTINUOUS
 62
256
 10
-110.912759330478150
 20
-144.899661291693970
 11
-111.725327293554340
 21
-144.566686306131230
  0
LINE
  8
0
  6
CONTINUOUS
 62
256
 10
-110.200537554093510
 20
-145.347770237160600
 11
-110.912759330478150
 21
-144.899661291693970
  0
LINE
  8
0
  6
CONTINUOUS
 62
256
 10
-109.616032247848320
 20
-145.893792567059190
 11
-110.200537554093510
 21
-145.347770237160600
  0
LINE
  8
0
  6
CONTINUOUS
 62
256
 10
-109.181705622867240
 20
-146.516744949464600
 11
-109.616032247848320
 21
-145.893792567059190
  0
LINE
  8
0
  6
CONTINUOUS
 62
256
 10
-108.914248607775090
 20
-147.192687673676690
 11
-109.181705622867240
 21
-146.516744949464600
  0
LINE
  8
0
  6
CONTINUOUS
 62
256
 10
-108.823939425670280
 20
-147.895644639877050
 11
-108.914248607775090
 21
-147.192687673676690
  0
ARC
  8
0
  6
CONTINUOUS
 62
256
 10
-105.523939425670510
 20
-141.568313685529520
 40
3.000000000000000
 50
0.000000000000000
 51
90.000000000000000
  0
LINE
  8
0
  6
CONTINUOUS
 62
256
 10
-102.523939425670510
 20
-154.568313685529740
 11
-102.523939425670510
 21
-141.568313685529520
  0
ARC
  8
0
  6
CONTINUOUS
 62
256
 10
-109.523939425670510
 20
-135.568313685529520
 40
3.000000000000000
 50
180.000000000000000
 51
270.000000000000000
  0
LINE
  8
0
  6
CONTINUOUS
 62
256
 10
-105.523939425670510
 20
-138.568313685529520
 11
-109.523939425670510
 21
-138.568313685529520
  0
LINE
  8
0
  6
CONTINUOUS
 62
256
 10
-112.523939425670510
 20
-100.568313685529500
 11
-112.523939425670510
 21
-135.568313685529520
  0
ARC
  8
0
  6
CONTINUOUS
 62
256
 10
-37.523939425649360
 20
-129.568313685529520
 40
1.000000000000000
 50
270.000000000000000
 51
0.000000000000000
  0
ARC
  8
0
  6
CONTINUOUS
 62
256
 10
-108.523939425649360
 20
-129.568313685529520
 40
1.000000000000000
 50
180.000000000000000
 51
270.000000000000000
  0
LINE
  8
0
  6
CONTINUOUS
 62
256
 10
-37.523939425649360
 20
-130.568313685529520
 11
-108.523939425649360
 21
-130.568313685529520
  0
ARC
  8
0
  6
CONTINUOUS
 62
256
 10
-108.523939425649360
 20
-130.068313685529520
 40
2.000000000000000
 50
180.000000000000000
 51
270.000000000000000
  0
ARC
  8
0
  6
CONTINUOUS
 62
256
 10
-37.523939425649360
 20
-130.068313685529520
 40
2.000000000000000
 50
270.000000000000000
 51
0.000000000000000
  0
LINE
  8
0
  6
CONTINUOUS
 62
256
 10
-37.523939425649360
 20
-132.068313685529520
 11
-108.523939425649360
 21
-132.068313685529520
  0
LINE
  8
0
  6
CONTINUOUS
 62
256
 10
-35.523939425649360
 20
-100.568313685529500
 11
-35.523939425649360
 21
-130.068313685529520
  0
LINE
  8
0
  6
CONTINUOUS
 62
256
 10
-110.523939425649360
 20
-100.568313685529500
 11
-110.523939425649360
 21
-130.068313685529520
  0
INSERT
  8
0
  2
ZU_SYM_2
 10
60.476060574350413
 20
-97.568313685529517
  0
LINE
  8
0
  6
DASHDOT
 62
256
 10
116.476060574350410
 20
178.333762636946630
 11
116.476060574350410
 21
159.092066867386170
  0
LINE
  8
0
  6
DASHDOT
 62
256
 10
116.476060574350410
 20
34.587207685111935
 11
116.476060574350410
 21
54.319529983764369
  0
LINE
  8
0
  6
DASHDOT
 62
256
 10
34.149932495813118
 20
44.228641045076074
 11
53.476060574350413
 21
44.228641045076074
  0
LINE
  8
0
  6
DASHDOT
 62
256
 10
43.476060574350413
 20
35.112303999645519
 11
43.476060574350413
 21
52.620802027682657
  0
LINE
  8
0
  6
DASHDOT
 62
256
 10
43.476060574350413
 20
178.888552272095690
 11
43.476060574350413
 21
160.809332556626030
  0
LINE
  8
0
  6
DASHDOT
 62
256
 10
34.776059811410960
 20
169.228641045076070
 11
53.083565989643830
 21
169.228641045076070
  0
LINE
  8
0
  6
CONTINUOUS
 62
256
 10
30.976060574350413
 20
36.171914466507587
 11
30.976060574350413
 21
53.228641045076074
  0
LINE
  8
0
  6
CONTINUOUS
 62
256
 10
30.976060574350413
 20
177.350364384436030
 11
30.976060574350413
 21
160.228641045076070
  0
LINE
  8
0
  6
DASHDOT
 62
256
 10
168.635738211135500
 20
106.728641045076070
 11
-173.872757646120590
 21
106.728641045076070
  0
LINE
  8
0
  6
DASHED
 62
256
 10
-41.023939425652145
 20
34.728641045076188
 11
-41.023939425652145
 21
49.228641045076188
  0
LINE
  8
0
  6
DASHED
 62
256
 10
-55.023939425652145
 20
34.728641045076188
 11
-55.023939425652145
 21
49.228641045076188
  0
ARC
  8
0
  6
DASHED
 62
256
 10
-48.023939425652145
 20
34.728641045076188
 40
7.000000000000000
 50
180.000000000000000
 51
0.000000000000000
  0
CIRCLE
  8
0
  6
DASHED
 62
256
 10
-48.023939425652145
 20
34.728641045076188
 40
6.000000000000000
  0
LINE
  8
0
  6
DASHED
 62
256
 10
-91.023939425652145
 20
34.728641045076188
 11
-91.023939425652145
 21
49.228641045076188
  0
LINE
  8
0
  6
DASHED
 62
256
 10
-105.023939425652150
 20
34.728641045076188
 11
-105.023939425652150
 21
49.228641045076188
  0
ARC
  8
0
  6
DASHED
 62
256
 10
-98.023939425652145
 20
34.728641045076188
 40
7.000000000000000
 50
180.000000000000000
 51
0.000000000000000
  0
LINE
  8
0
  6
DASHDOT
 62
256
 10
-98.023939425652145
 20
25.784483787400063
 11
-98.023939425652145
 21
47.332972767931722
  0
LINE
  8
0
  6
DASHDOT
 62
256
 10
-107.109628532235700
 20
34.728641045076188
 11
-86.623040298526405
 21
34.728641045076188
  0
LINE
  8
0
  6
DASHDOT
 62
256
 10
-48.023939425652145
 20
25.784483787400063
 11
-48.023939425652145
 21
47.763985919935010
  0
LINE
  8
0
  6
DASHDOT
 62
256
 10
-59.307468841378807
 20
34.728641045076188
 11
-37.540491432850501
 21
34.728641045076188
  0
ARC
  8
0
  6
CONTINUOUS
 62
256
 10
22.976060574347684
 20
183.731510665656970
 40
2.000000000000000
 50
270.000000000000000
 51
0.000000000000000
  0
ARC
  8
0
  6
CONTINUOUS
 62
256
 10
22.976060574347684
 20
184.530512536775860
 40
2.000000000000000
 50
270.000000000000000
 51
0.000000000000000
  0
ARC
  8
0
  6
CONTINUOUS
 62
256
 10
22.976060574347684
 20
185.329514407861100
 40
2.000000000000000
 50
270.000000000000000
 51
0.000000000000000
  0
ARC
  8
0
  6
CONTINUOUS
 62
256
 10
22.976060574347684
 20
186.423151336138290
 40
2.000000000000000
 50
0.000000000000000
 51
90.000000000000000
  0
LINE
  8
0
  6
CONTINUOUS
 62
256
 10
21.976060574347684
 20
188.423151336138290
 11
22.976060574347684
 21
188.423151336138290
  0
LINE
  8
0
  6
CONTINUOUS
 62
256
 10
22.976060574347684
 20
181.731510665656970
 11
-103.023939425652320
 21
181.731510665656970
  0
LINE
  8
0
  6
CONTINUOUS
 62
256
 10
22.976060574347684
 20
182.530512536759030
 11
-103.023939425652320
 21
182.530512536759030
  0
LINE
  8
0
  6
CONTINUOUS
 62
256
 10
24.976060574347684
 20
186.423151336138290
 11
24.976060574347684
 21
183.731510665656970
  0
LINE
  8
0
  6
CONTINUOUS
 62
256
 10
21.976060574347684
 20
170.228641045076070
 11
21.976060574347684
 21
181.530512536775860
  0
LINE
  8
0
  6
CONTINUOUS
 62
256
 10
-97.023939425652316
 20
206.828641045075980
 11
16.976060574347684
 21
206.828641045075980
  0
ARC
  8
0
  6
CONTINUOUS
 62
256
 10
16.976060574347684
 20
201.828641045075980
 40
5.000000000000000
 50
0.000000000000000
 51
90.000000000000000
  0
LINE
  8
0
  6
CONTINUOUS
 62
256
 10
-102.023939425652320
 20
170.228641045076070
 11
-102.023939425652320
 21
181.731510665656970
  0
ARC
  8
0
  6
CONTINUOUS
 62
256
 10
-103.023939425652320
 20
183.731510665656970
 40
2.000000000000000
 50
180.000000000000000
 51
270.000000000000000
  0
LINE
  8
0
  6
CONTINUOUS
 62
256
 10
-105.023939425652320
 20
186.423151336138290
 11
-105.023939425652320
 21
183.731510665656970
  0
ARC
  8
0
  6
CONTINUOUS
 62
256
 10
-103.023939425652320
 20
184.530512536775860
 40
2.000000000000000
 50
180.000000000000000
 51
270.000000000000000
  0
ARC
  8
0
  6
CONTINUOUS
 62
256
 10
-103.023939425652320
 20
185.329514407861100
 40
2.000000000000000
 50
180.000000000000000
 51
270.000000000000000
  0
ARC
  8
0
  6
CONTINUOUS
 62
256
 10
-103.023939425652320
 20
186.423151336138290
 40
2.000000000000000
 50
90.000000000000000
 51
180.000000000000000
  0
ARC
  8
0
  6
CONTINUOUS
 62
256
 10
-97.023939425652316
 20
201.828641045075980
 40
5.000000000000000
 50
90.000000000000000
 51
180.000000000000000
  0
ARC
  8
0
  6
CONTINUOUS
 62
256
 10
-97.023939425652316
 20
170.228641045076070
 40
5.000000000000000
 50
180.000000000000000
 51
270.000000000000000
  0
LINE
  8
0
  6
CONTINUOUS
 62
256
 10
22.976060574347684
 20
183.329514407861100
 11
-103.023939425652320
 21
183.329514407861100
  0
LINE
  8
0
  6
CONTINUOUS
 62
256
 10
-102.023939425652320
 20
188.423151336138290
 11
-103.023939425652320
 21
188.423151336138290
  0
LINE
  8
0
  6
CONTINUOUS
 62
256
 10
-102.023939425652320
 20
188.889666104762910
 11
-102.023939425652320
 21
201.828641045075980
  0
ARC
  8
0
  6
CONTINUOUS
 62
256
 10
16.976060574347684
 20
170.228641045076070
 40
5.000000000000000
 50
270.000000000000000
 51
0.000000000000000
  0
LINE
  8
0
  6
CONTINUOUS
 62
256
 10
21.976060574347684
 20
188.889666104762910
 11
21.976060574347684
 21
201.828641045075980
  0
LINE
  8
0
  6
CONTINUOUS
 62
256
 10
-91.591190944241006
 20
183.545104282384870
 11
-91.523939425652316
 21
183.579202492580860
  0
LINE
  8
0
  6
CONTINUOUS
 62
256
 10
-91.790361061862811
 20
183.512316447284230
 11
-91.591190944241006
 21
183.545104282384870
  0
LINE
  8
0
  6
CONTINUOUS
 62
256
 10
-92.113795782593414
 20
183.482099005394220
 11
-91.790361061862811
 21
183.512316447284230
  0
LINE
  8
0
  6
CONTINUOUS
 62
256
 10
-92.549065691499408
 20
183.455613196060510
 11
-92.113795782593414
 21
183.482099005394220
  0
LINE
  8
0
  6
CONTINUOUS
 62
256
 10
-93.079443610083715
 20
183.433876854082430
 11
-92.549065691499408
 21
183.455613196060510
  0
LINE
  8
0
  6
CONTINUOUS
 62
256
 10
-93.684547412374499
 20
183.417725294892250
 11
-93.079443610083715
 21
183.433876854082430
  0
LINE
  8
0
  6
CONTINUOUS
 62
256
 10
-94.341123298595875
 20
183.407779213851800
 11
-93.684547412374499
 21
183.417725294892250
  0
LINE
  8
0
  6
CONTINUOUS
 62
256
 10
-95.023939425652316
 20
183.404420833277640
 11
-94.341123298595875
 21
183.407779213851800
  0
LINE
  8
0
  6
CONTINUOUS
 62
256
 10
-95.706755552708771
 20
183.407779213851800
 11
-95.023939425652316
 21
183.404420833277640
  0
LINE
  8
0
  6
CONTINUOUS
 62
256
 10
-96.363331438930132
 20
183.417725294892250
 11
-95.706755552708771
 21
183.407779213851800
  0
LINE
  8
0
  6
CONTINUOUS
 62
256
 10
-96.968435241220931
 20
183.433876854082430
 11
-96.363331438930132
 21
183.417725294892250
  0
LINE
  8
0
  6
CONTINUOUS
 62
256
 10
-97.498813159805238
 20
183.455613196060510
 11
-96.968435241220931
 21
183.433876854082430
  0
LINE
  8
0
  6
CONTINUOUS
 62
256
 10
-97.934083068711217
 20
183.482099005394220
 11
-97.498813159805238
 21
183.455613196060510
  0
LINE
  8
0
  6
CONTINUOUS
 62
256
 10
-98.257517789441820
 20
183.512316447284230
 11
-97.934083068711217
 21
183.482099005394220
  0
LINE
  8
0
  6
CONTINUOUS
 62
256
 10
-98.456687907063625
 20
183.545104282384870
 11
-98.257517789441820
 21
183.512316447284230
  0
LINE
  8
0
  6
CONTINUOUS
 62
256
 10
-98.523939425652316
 20
183.579202492580860
 11
-98.456687907063625
 21
183.545104282384870
  0
ARC
  8
0
  6
CONTINUOUS
 62
256
 10
-92.823939425652497
 20
184.566212230505240
 40
1.300000000000182
 50
0.000000000000000
 51
73.398450400977964
  0
ARC
  8
0
  6
CONTINUOUS
 62
256
 10
-95.023939425652316
 20
177.187187904755770
 40
9.000000000000123
 50
73.398450400980863
 51
106.601549599019150
  0
ARC
  8
0
  6
CONTINUOUS
 62
256
 10
-97.223939425652134
 20
184.566212230505240
 40
1.300000000000019
 50
106.601549599022380
 51
180.000000000000000
  0
LINE
  8
0
  6
CONTINUOUS
 62
256
 10
-91.523939425652316
 20
184.566212230505240
 11
-91.523939425652316
 21
183.579202492580860
  0
LINE
  8
0
  6
CONTINUOUS
 62
256
 10
-98.523939425652316
 20
184.566212230505240
 11
-98.523939425652316
 21
183.579202492580860
  0
ARC
  8
0
  6
CONTINUOUS
 62
256
 10
-97.023939425652316
 20
188.889666104762910
 40
5.000000000000000
 50
180.000000000000000
 51
252.542396876278100
  0
LINE
  8
0
  6
CONTINUOUS
 62
256
 10
-102.023939425652320
 20
165.228641045076070
 11
21.976060574347684
 21
165.228641045076070
  0
LINE
  8
0
  6
DASHDOT
 62
256
 10
21.976060574347684
 20
160.228641045076070
 11
21.976060574347684
 21
165.228641045076070
  0
LINE
  8
0
  6
DASHDOT
 62
256
 10
21.976060574347684
 20
160.228641045076070
 11
21.976060574347684
 21
165.228641045076070
  0
LINE
  8
0
  6
CONTINUOUS
 62
256
 10
-102.023939425652320
 20
160.228641045076070
 11
-102.023939425652320
 21
165.228641045076070
  0
LINE
  8
0
  6
CONTINUOUS
 62
256
 10
11.476060574347684
 20
184.566212230505240
 11
11.476060574347684
 21
183.579202492580860
  0
LINE
  8
0
  6
CONTINUOUS
 62
256
 10
18.408809055758990
 20
183.545104282384870
 11
18.476060574347681
 21
183.579202492580860
  0
LINE
  8
0
  6
CONTINUOUS
 62
256
 10
18.209638938137186
 20
183.512316447284230
 11
18.408809055758990
 21
183.545104282384870
  0
LINE
  8
0
  6
CONTINUOUS
 62
256
 10
17.886204217406590
 20
183.482099005394220
 11
18.209638938137186
 21
183.512316447284230
  0
LINE
  8
0
  6
CONTINUOUS
 62
256
 10
17.450934308500599
 20
183.455613196060510
 11
17.886204217406590
 21
183.482099005394220
  0
LINE
  8
0
  6
CONTINUOUS
 62
256
 10
16.920556389916289
 20
183.433876854082430
 11
17.450934308500599
 21
183.455613196060510
  0
LINE
  8
0
  6
CONTINUOUS
 62
256
 10
16.315452587625497
 20
183.417725294892250
 11
16.920556389916289
 21
183.433876854082430
  0
LINE
  8
0
  6
CONTINUOUS
 62
256
 10
15.658876701404132
 20
183.407779213851800
 11
16.315452587625497
 21
183.417725294892250
  0
LINE
  8
0
  6
CONTINUOUS
 62
256
 10
14.976060574347684
 20
183.404420833277640
 11
15.658876701404132
 21
183.407779213851800
  0
LINE
  8
0
  6
CONTINUOUS
 62
256
 10
14.293244447291235
 20
183.407779213851800
 11
14.976060574347684
 21
183.404420833277640
  0
LINE
  8
0
  6
CONTINUOUS
 62
256
 10
13.636668561069870
 20
183.417725294892250
 11
14.293244447291235
 21
183.407779213851800
  0
LINE
  8
0
  6
CONTINUOUS
 62
256
 10
13.031564758779076
 20
183.433876854082430
 11
13.636668561069870
 21
183.417725294892250
  0
LINE
  8
0
  6
CONTINUOUS
 62
256
 10
12.501186840194768
 20
183.455613196060510
 11
13.031564758779076
 21
183.433876854082430
  0
LINE
  8
0
  6
CONTINUOUS
 62
256
 10
12.065916931288776
 20
183.482099005394220
 11
12.501186840194768
 21
183.455613196060510
  0
LINE
  8
0
  6
CONTINUOUS
 62
256
 10
11.742482210558181
 20
183.512316447284230
 11
12.065916931288776
 21
183.482099005394220
  0
LINE
  8
0
  6
CONTINUOUS
 62
256
 10
11.543312092936379
 20
183.545104282384870
 11
11.742482210558181
 21
183.512316447284230
  0
LINE
  8
0
  6
CONTINUOUS
 62
256
 10
11.476060574347684
 20
183.579202492580860
 11
11.543312092936379
 21
183.545104282384870
  0
LINE
  8
0
  6
CONTINUOUS
 62
256
 10
18.476060574347684
 20
184.566212230505240
 11
18.476060574347684
 21
183.579202492580860
  0
ARC
  8
0
  6
CONTINUOUS
 62
256
 10
12.776060574347866
 20
184.566212230505240
 40
1.300000000000019
 50
106.601549599022380
 51
180.000000000000000
  0
ARC
  8
0
  6
CONTINUOUS
 62
256
 10
14.976060574347684
 20
177.187187904755770
 40
9.000000000000121
 50
73.398450400980892
 51
106.601549599019120
  0
ARC
  8
0
  6
CONTINUOUS
 62
256
 10
17.176060574347503
 20
184.566212230505240
 40
1.300000000000182
 50
0.000000000000000
 51
73.398450400977822
  0
ARC
  8
0
  6
CONTINUOUS
 62
256
 10
16.976060574347684
 20
188.889666104762910
 40
5.000000000000073
 50
287.457603123721870
 51
0.000000000000000
  0
LINE
  8
0
  6
CONTINUOUS
 62
256
 10
11.476060574347684
 20
183.889666104762910
 11
-91.523939425652316
 21
183.889666104762910
  0
LINE
  8
0
  6
CONTINUOUS
 62
256
 10
-110.523939425652070
 20
49.228641045076074
 11
-35.523939425652088
 21
49.228641045076074
  0
LINE
  8
0
  6
CONTINUOUS
 62
256
 10
-35.523939425652088
 20
49.228641045076074
 11
-35.523939425652088
 21
54.228641045076188
  0
LINE
  8
0
  6
CONTINUOUS
 62
256
 10
-36.523939425652088
 20
20.728641045076074
 11
-36.523939425652088
 21
49.228641045076074
  0
LINE
  8
0
  6
CONTINUOUS
 62
256
 10
-109.523939425652070
 20
20.728641045076074
 11
-109.523939425652070
 21
49.228641045076074
  0
ARC
  8
0
  6
CONTINUOUS
 62
256
 10
-108.523939425652070
 20
20.728641045076074
 40
1.000000000000000
 50
180.000000000000000
 51
270.000000000000000
  0
ARC
  8
0
  6
CONTINUOUS
 62
256
 10
-37.523939425652088
 20
20.728641045076074
 40
1.000000000000000
 50
270.000000000000000
 51
0.000000000000000
  0
LINE
  8
0
  6
CONTINUOUS
 62
256
 10
-43.523939425652088
 20
19.228641045076074
 11
-43.523939425652088
 21
19.728641045076074
  0
LINE
  8
0
  6
CONTINUOUS
 62
256
 10
-51.523939425652088
 20
19.228641045076074
 11
-43.523939425652088
 21
19.228641045076074
  0
LINE
  8
0
  6
CONTINUOUS
 62
256
 10
-51.523939425652088
 20
19.228641045076074
 11
-51.523939425652088
 21
19.728641045076074
  0
LINE
  8
0
  6
CONTINUOUS
 62
256
 10
-37.523939425652088
 20
19.728641045076074
 11
-108.523939425652070
 21
19.728641045076074
  0
LINE
  8
0
  6
CONTINUOUS
 62
256
 10
-102.523939425673460
 20
55.388944684267130
 11
-102.523939425673230
 21
106.728641045076070
  0
ARC
  8
0
  6
CONTINUOUS
 62
256
 10
-105.523939425673460
 20
55.388944684267130
 40
3.000000000000000
 50
270.000000000000000
 51
0.000000000000000
  0
LINE
  8
0
  6
CONTINUOUS
 62
256
 10
-109.523939425673460
 20
52.388944684267130
 11
-105.523939425673460
 21
52.388944684267130
  0
LINE
  8
0
  6
CONTINUOUS
 62
256
 10
-108.914248607778060
 20
58.698353124528182
 11
-108.823939425673250
 21
59.401310090728543
  0
LINE
  8
0
  6
CONTINUOUS
 62
256
 10
-109.181705622870180
 20
58.022410400316090
 11
-108.914248607778060
 21
58.698353124528182
  0
LINE
  8
0
  6
CONTINUOUS
 62
256
 10
-109.616032247851280
 20
57.399458017910689
 11
-109.181705622870180
 21
58.022410400316090
  0
LINE
  8
0
  6
CONTINUOUS
 62
256
 10
-110.200537554096470
 20
56.853435688012112
 11
-109.616032247851280
 21
57.399458017910689
  0
LINE
  8
0
  6
CONTINUOUS
 62
256
 10
-110.912759330481090
 20
56.405326742545491
 11
-110.200537554096470
 21
56.853435688012112
  0
LINE
  8
0
  6
CONTINUOUS
 62
256
 10
-111.725327293557310
 20
56.072351756982734
 11
-110.912759330481090
 21
56.405326742545491
  0
LINE
  8
0
  6
CONTINUOUS
 62
256
 10
-112.607014912197410
 20
55.867306773284483
 11
-111.725327293557310
 21
56.072351756982734
  0
LINE
  8
0
  6
CONTINUOUS
 62
256
 10
-113.523939425673230
 20
55.798071555183711
 11
-112.607014912197410
 21
55.867306773284483
  0
LINE
  8
0
  6
CONTINUOUS
 62
256
 10
-114.440863939149040
 20
55.867306773284483
 11
-113.523939425673230
 21
55.798071555183711
  0
LINE
  8
0
  6
CONTINUOUS
 62
256
 10
-115.322551557789150
 20
56.072351756982734
 11
-114.440863939149040
 21
55.867306773284483
  0
LINE
  8
0
  6
CONTINUOUS
 62
256
 10
-116.135119520865350
 20
56.405326742545491
 11
-115.322551557789150
 21
56.072351756982734
  0
LINE
  8
0
  6
CONTINUOUS
 62
256
 10
-116.847341297249980
 20
56.853435688012112
 11
-116.135119520865350
 21
56.405326742545491
  0
LINE
  8
0
  6
CONTINUOUS
 62
256
 10
-117.431846603495170
 20
57.399458017910689
 11
-116.847341297249980
 21
56.853435688012112
  0
LINE
  8
0
  6
CONTINUOUS
 62
256
 10
-117.866173228476270
 20
58.022410400316090
 11
-117.431846603495170
 21
57.399458017910689
  0
LINE
  8
0
  6
CONTINUOUS
 62
256
 10
-118.133630243568400
 20
58.698353124528182
 11
-117.866173228476270
 21
58.022410400316090
  0
LINE
  8
0
  6
CONTINUOUS
 62
256
 10
-118.223939425673220
 20
59.401310090728543
 11
-118.133630243568400
 21
58.698353124528182
  0
LINE
  8
0
  6
CONTINUOUS
 62
256
 10
-118.133630243568400
 20
60.104267056928904
 11
-118.223939425673220
 21
59.401310090728543
  0
LINE
  8
0
  6
CONTINUOUS
 62
256
 10
-117.866173228476270
 20
60.780209781140996
 11
-118.133630243568400
 21
60.104267056928904
  0
LINE
  8
0
  6
CONTINUOUS
 62
256
 10
-117.431846603495170
 20
61.403162163546398
 11
-117.866173228476270
 21
60.780209781140996
  0
LINE
  8
0
  6
CONTINUOUS
 62
256
 10
-116.847341297249980
 20
61.949184493444982
 11
-117.431846603495170
 21
61.403162163546398
  0
LINE
  8
0
  6
CONTINUOUS
 62
256
 10
-116.135119520865350
 20
62.397293438911596
 11
-116.847341297249980
 21
61.949184493444982
  0
LINE
  8
0
  6
CONTINUOUS
 62
256
 10
-115.322551557789150
 20
62.730268424474353
 11
-116.135119520865350
 21
62.397293438911596
  0
LINE
  8
0
  6
CONTINUOUS
 62
256
 10
-114.440863939149040
 20
62.935313408172604
 11
-115.322551557789150
 21
62.730268424474353
  0
LINE
  8
0
  6
CONTINUOUS
 62
256
 10
-113.523939425673230
 20
63.004548626273376
 11
-114.440863939149040
 21
62.935313408172604
  0
LINE
  8
0
  6
CONTINUOUS
 62
256
 10
-112.607014912197410
 20
62.935313408172604
 11
-113.523939425673230
 21
63.004548626273376
  0
LINE
  8
0
  6
CONTINUOUS
 62
256
 10
-111.725327293557310
 20
62.730268424474353
 11
-112.607014912197410
 21
62.935313408172604
  0
LINE
  8
0
  6
CONTINUOUS
 62
256
 10
-110.912759330481090
 20
62.397293438911596
 11
-111.725327293557310
 21
62.730268424474353
  0
LINE
  8
0
  6
CONTINUOUS
 62
256
 10
-110.200537554096470
 20
61.949184493444982
 11
-110.912759330481090
 21
62.397293438911596
  0
LINE
  8
0
  6
CONTINUOUS
 62
256
 10
-109.616032247851280
 20
61.403162163546398
 11
-110.200537554096470
 21
61.949184493444982
  0
LINE
  8
0
  6
CONTINUOUS
 62
256
 10
-109.181705622870180
 20
60.780209781140996
 11
-109.616032247851280
 21
61.403162163546398
  0
LINE
  8
0
  6
CONTINUOUS
 62
256
 10
-108.914248607778060
 20
60.104267056928904
 11
-109.181705622870180
 21
60.780209781140996
  0
LINE
  8
0
  6
CONTINUOUS
 62
256
 10
-108.823939425673250
 20
59.401310090728543
 11
-108.914248607778060
 21
60.104267056928904
  0
LINE
  8
0
  6
CONTINUOUS
 62
256
 10
-115.523939425673460
 20
56.408934536728111
 11
-113.523939425673460
 21
57.584720022351007
  0
LINE
  8
0
  6
CONTINUOUS
 62
256
 10
-113.523939425673460
 20
57.584720022351007
 11
-111.523939425673460
 21
59.237361661474324
  0
LINE
  8
0
  6
CONTINUOUS
 62
256
 10
-111.523939425673460
 20
56.408934536728111
 11
-113.523939425673460
 21
57.584720022351007
  0
LINE
  8
0
  6
CONTINUOUS
 62
256
 10
-113.523939425673460
 20
57.584720022351007
 11
-115.523939425673460
 21
59.237361661474324
  0
ARC
  8
0
  6
CONTINUOUS
 62
256
 10
-109.523939425673460
 20
49.388944684267130
 40
3.000000000000000
 50
90.000000000000000
 51
180.000000000000000
  0
LINE
  8
0
  6
CONTINUOUS
 62
256
 10
-112.523939425673460
 20
47.728641045076074
 11
-112.523939425673460
 21
49.388944684267130
  0
LINE
  8
0
  6
CONTINUOUS
 62
256
 10
-102.523939425673460
 20
165.728641045076070
 11
-102.523939425673230
 21
106.728641045076070
  0
LINE
  8
0
  6
CONTINUOUS
 62
256
 10
-108.914248607778060
 20
153.353015033223240
 11
-108.823939425673250
 21
154.055971999423600
  0
LINE
  8
0
  6
CONTINUOUS
 62
256
 10
-109.181705622870180
 20
152.677072309011150
 11
-108.914248607778060
 21
153.353015033223240
  0
LINE
  8
0
  6
CONTINUOUS
 62
256
 10
-109.616032247851280
 20
152.054119926605750
 11
-109.181705622870180
 21
152.677072309011150
  0
LINE
  8
0
  6
CONTINUOUS
 62
256
 10
-110.200537554096470
 20
151.508097596707160
 11
-109.616032247851280
 21
152.054119926605750
  0
LINE
  8
0
  6
CONTINUOUS
 62
256
 10
-110.912759330481090
 20
151.059988651240530
 11
-110.200537554096470
 21
151.508097596707160
  0
LINE
  8
0
  6
CONTINUOUS
 62
256
 10
-111.725327293557310
 20
150.727013665677790
 11
-110.912759330481090
 21
151.059988651240530
  0
LINE
  8
0
  6
CONTINUOUS
 62
256
 10
-112.607014912197410
 20
150.521968681979530
 11
-111.725327293557310
 21
150.727013665677790
  0
LINE
  8
0
  6
CONTINUOUS
 62
256
 10
-113.523939425673230
 20
150.452733463878760
 11
-112.607014912197410
 21
150.521968681979530
  0
LINE
  8
0
  6
CONTINUOUS
 62
256
 10
-114.440863939149040
 20
150.521968681979530
 11
-113.523939425673230
 21
150.452733463878760
  0
LINE
  8
0
  6
CONTINUOUS
 62
256
 10
-115.322551557789150
 20
150.727013665677790
 11
-114.440863939149040
 21
150.521968681979530
  0
LINE
  8
0
  6
CONTINUOUS
 62
256
 10
-116.135119520865350
 20
151.059988651240530
 11
-115.322551557789150
 21
150.727013665677790
  0
LINE
  8
0
  6
CONTINUOUS
 62
256
 10
-116.847341297249980
 20
151.508097596707160
 11
-116.135119520865350
 21
151.059988651240530
  0
LINE
  8
0
  6
CONTINUOUS
 62
256
 10
-117.431846603495170
 20
152.054119926605750
 11
-116.847341297249980
 21
151.508097596707160
  0
LINE
  8
0
  6
CONTINUOUS
 62
256
 10
-117.866173228476270
 20
152.677072309011150
 11
-117.431846603495170
 21
152.054119926605750
  0
LINE
  8
0
  6
CONTINUOUS
 62
256
 10
-118.133630243568400
 20
153.353015033223240
 11
-117.866173228476270
 21
152.677072309011150
  0
LINE
  8
0
  6
CONTINUOUS
 62
256
 10
-118.223939425673220
 20
154.055971999423600
 11
-118.133630243568400
 21
153.353015033223240
  0
LINE
  8
0
  6
CONTINUOUS
 62
256
 10
-118.133630243568400
 20
154.758928965623970
 11
-118.223939425673220
 21
154.055971999423600
  0
LINE
  8
0
  6
CONTINUOUS
 62
256
 10
-117.866173228476270
 20
155.434871689836060
 11
-118.133630243568400
 21
154.758928965623970
  0
LINE
  8
0
  6
CONTINUOUS
 62
256
 10
-117.431846603495170
 20
156.057824072241460
 11
-117.866173228476270
 21
155.434871689836060
  0
LINE
  8
0
  6
CONTINUOUS
 62
256
 10
-116.847341297249980
 20
156.603846402140050
 11
-117.431846603495170
 21
156.057824072241460
  0
LINE
  8
0
  6
CONTINUOUS
 62
256
 10
-116.135119520865350
 20
157.051955347606680
 11
-116.847341297249980
 21
156.603846402140050
  0
LINE
  8
0
  6
CONTINUOUS
 62
256
 10
-115.322551557789150
 20
157.384930333169420
 11
-116.135119520865350
 21
157.051955347606680
  0
LINE
  8
0
  6
CONTINUOUS
 62
256
 10
-114.440863939149040
 20
157.589975316867680
 11
-115.322551557789150
 21
157.384930333169420
  0
LINE
  8
0
  6
CONTINUOUS
 62
256
 10
-113.523939425673230
 20
157.659210534968450
 11
-114.440863939149040
 21
157.589975316867680
  0
LINE
  8
0
  6
CONTINUOUS
 62
256
 10
-112.607014912197410
 20
157.589975316867680
 11
-113.523939425673230
 21
157.659210534968450
  0
LINE
  8
0
  6
CONTINUOUS
 62
256
 10
-111.725327293557310
 20
157.384930333169420
 11
-112.607014912197410
 21
157.589975316867680
  0
LINE
  8
0
  6
CONTINUOUS
 62
256
 10
-110.912759330481090
 20
157.051955347606680
 11
-111.725327293557310
 21
157.384930333169420
  0
LINE
  8
0
  6
CONTINUOUS
 62
256
 10
-110.200537554096470
 20
156.603846402140050
 11
-110.912759330481090
 21
157.051955347606680
  0
LINE
  8
0
  6
CONTINUOUS
 62
256
 10
-109.616032247851280
 20
156.057824072241460
 11
-110.200537554096470
 21
156.603846402140050
  0
LINE
  8
0
  6
CONTINUOUS
 62
256
 10
-109.181705622870180
 20
155.434871689836060
 11
-109.616032247851280
 21
156.057824072241460
  0
LINE
  8
0
  6
CONTINUOUS
 62
256
 10
-108.914248607778060
 20
154.758928965623970
 11
-109.181705622870180
 21
155.434871689836060
  0
LINE
  8
0
  6
CONTINUOUS
 62
256
 10
-108.823939425673250
 20
154.055971999423600
 11
-108.914248607778060
 21
154.758928965623970
  0
LINE
  8
0
  6
CONTINUOUS
 62
256
 10
-115.523939425673460
 20
157.048347553424040
 11
-113.523939425673460
 21
155.872562067801250
  0
LINE
  8
0
  6
CONTINUOUS
 62
256
 10
-113.523939425673460
 20
155.872562067801250
 11
-111.523939425673460
 21
154.219920428677820
  0
LINE
  8
0
  6
CONTINUOUS
 62
256
 10
-111.523939425673460
 20
157.048347553424040
 11
-113.523939425673460
 21
155.872562067801250
  0
LINE
  8
0
  6
CONTINUOUS
 62
256
 10
-113.523939425673460
 20
155.872562067801250
 11
-115.523939425673460
 21
154.219920428677820
  0
LINE
  8
0
  6
CONTINUOUS
 62
256
 10
-35.523939425652088
 20
54.228641045076188
 11
-102.757408120070750
 21
54.228641045076188
  0
LINE
  8
0
  6
CONTINUOUS
 62
256
 10
-110.523939425652070
 20
49.228641045076074
 11
-110.523939425652070
 21
52.217371809020733
  0
LINE
  8
0
  6
CONTINUOUS
 62
256
 10
-112.523939425673460
 20
47.728641045076074
 11
-132.028784374766250
 21
47.728641045076074
  0
LINE
  8
0
  6
CONTINUOUS
 62
256
 10
-102.523939425673460
 20
165.728641045076070
 11
-132.028784374766250
 21
165.728641045076070
  0
ARC
  8
0
  6
CONTINUOUS
 62
256
 10
-132.028784374766250
 20
68.328641045076097
 40
20.599999999999891
 50
235.000000000000400
 51
270.000000000000000
  0
ARC
  8
0
  6
CONTINUOUS
 62
256
 10
-149.923939425673550
 20
58.885020911446759
 40
2.600000000000136
 50
180.000000000000000
 51
234.999999999997330
  0
LINE
  8
0
  6
CONTINUOUS
 62
256
 10
-143.844458963597620
 20
51.454108932722875
 11
-151.415238160186390
 21
56.755225596295418
  0
LINE
  8
0
  6
CONTINUOUS
 62
256
 10
-152.523939425673690
 20
58.885020911446759
 11
-152.523939425673690
 21
106.728641045076070
  0
ARC
  8
0
  6
CONTINUOUS
 62
256
 10
-132.028784374766250
 20
145.128641045076050
 40
20.600000000000023
 50
90.000000000000000
 51
124.999999999999630
  0
ARC
  8
0
  6
CONTINUOUS
 62
256
 10
-149.923939425673550
 20
154.572261178705390
 40
2.600000000000131
 50
125.000000000001180
 51
180.000000000000000
  0
LINE
  8
0
  6
CONTINUOUS
 62
256
 10
-143.844458963597620
 20
162.003173157429390
 11
-151.415238160186390
 21
156.702056493856730
  0
LINE
  8
0
  6
CONTINUOUS
 62
256
 10
-152.523939425673690
 20
154.572261178705390
 11
-152.523939425673460
 21
106.728641045076070
  0
LINE
  8
0
  6
CONTINUOUS
 62
256
 10
-102.523939425673010
 20
55.728641045076074
 11
55.476060574350413
 21
55.728641045076074
  0
LINE
  8
0
  6
CONTINUOUS
 62
256
 10
-102.523939425673010
 20
56.228641045076074
 11
55.476060574350413
 21
56.228641045076074
  0
LINE
  8
0
  6
CONTINUOUS
 62
256
 10
-102.523939425673010
 20
60.595558450193380
 11
55.476060574350413
 21
60.595558450193494
  0
LINE
  8
0
  6
CONTINUOUS
 62
256
 10
-102.523939425673010
 20
65.686727274736313
 11
55.476060574350413
 21
65.686727274736313
  0
LINE
  8
0
  6
CONTINUOUS
 62
256
 10
-102.523939425673010
 20
75.014249886306061
 11
55.476060574350413
 21
75.014249886306061
  0
LINE
  8
0
  6
CONTINUOUS
 62
256
 10
-102.523939425673010
 20
73.425040093567418
 11
55.476060574350413
 21
73.425040093567418
  0
LINE
  8
0
  6
CONTINUOUS
 62
256
 10
-102.523939425673010
 20
77.972245494438994
 11
55.476060574350413
 21
77.972245494438994
  0
LINE
  8
0
  6
CONTINUOUS
 62
256
 10
-102.523939425673010
 20
79.451268647916095
 11
55.476060574350413
 21
79.451268647916095
  0
LINE
  8
0
  6
CONTINUOUS
 62
256
 10
-102.523939425673010
 20
82.543999639581330
 11
55.476060574350413
 21
82.543999639581330
  0
LINE
  8
0
  6
CONTINUOUS
 62
256
 10
-102.523939425673010
 20
83.890401365079924
 11
55.476060574350413
 21
83.890401365079924
  0
LINE
  8
0
  6
CONTINUOUS
 62
256
 10
-102.523939425673010
 20
87.100606388438223
 11
55.476060574350413
 21
87.100606388438223
  0
LINE
  8
0
  6
CONTINUOUS
 62
256
 10
-102.523939425673010
 20
88.342526253326128
 11
55.476060574350413
 21
88.342526253326128
  0
LINE
  8
0
  6
CONTINUOUS
 62
256
 10
-102.523939425673010
 20
92.728641045076074
 11
55.476060574350413
 21
92.728641045076074
  0
LINE
  8
0
  6
CONTINUOUS
 62
256
 10
-102.523939425673230
 20
120.728641045076070
 11
55.476060574350413
 21
120.728641045076070
  0
LINE
  8
0
  6
CONTINUOUS
 62
256
 10
-102.523939425673230
 20
125.114755836826020
 11
55.476060574350413
 21
125.114755836826030
  0
LINE
  8
0
  6
CONTINUOUS
 62
256
 10
-102.523939425673230
 20
126.356675701713930
 11
55.476060574350413
 21
126.356675701713930
  0
LINE
  8
0
  6
CONTINUOUS
 62
256
 10
-102.523939425673230
 20
129.566880725072220
 11
55.476060574350413
 21
129.566880725072220
  0
LINE
  8
0
  6
CONTINUOUS
 62
256
 10
-102.523939425673230
 20
130.913282450570820
 11
55.476060574350413
 21
130.913282450570820
  0
LINE
  8
0
  6
CONTINUOUS
 62
256
 10
-102.523939425673230
 20
134.006013442236170
 11
55.476060574350413
 21
134.006013442236170
  0
LINE
  8
0
  6
CONTINUOUS
 62
256
 10
-102.523939425673230
 20
135.485036595713150
 11
55.476060574350413
 21
135.485036595713150
  0
LINE
  8
0
  6
CONTINUOUS
 62
256
 10
-102.523939425673230
 20
138.443032203846090
 11
55.476060574350413
 21
138.443032203846090
  0
LINE
  8
0
  6
CONTINUOUS
 62
256
 10
-102.523939425673230
 20
140.032241996584840
 11
55.476060574350413
 21
140.032241996584840
  0
LINE
  8
0
  6
CONTINUOUS
 62
256
 10
-102.523939425673230
 20
147.770554815415840
 11
55.476060574350413
 21
147.770554815415840
  0
LINE
  8
0
  6
CONTINUOUS
 62
256
 10
-102.523939425673230
 20
152.861723639958770
 11
55.476060574350413
 21
152.861723639958770
  0
LINE
  8
0
  6
CONTINUOUS
 62
256
 10
-102.523939425673230
 20
157.228641045076070
 11
55.476060574350413
 21
157.228641045076070
  0
LINE
  8
0
  6
CONTINUOUS
 62
256
 10
-102.523939425673230
 20
157.728641045076070
 11
55.476060574350413
 21
157.728641045076070
  0
LINE
  8
0
  6
CONTINUOUS
 62
256
 10
37.976060574347684
 20
160.228641045076070
 11
-102.523939425673230
 21
160.228641045076070
  0
LINE
  8
0
  6
CONTINUOUS
 62
256
 10
37.976060574347684
 20
53.228641045076074
 11
-35.523939425652088
 21
53.228641045076074
  0
LINE
  8
0
  6
CONTINUOUS
 62
256
 10
37.976060574347684
 20
160.228641045076070
 11
37.976060574347684
 21
106.728641045076070
  0
LINE
  8
0
  6
CONTINUOUS
 62
256
 10
37.976060574347684
 20
53.228641045076074
 11
37.976060574347684
 21
106.728641045076070
  0
ARC
  8
0
  6
CONTINUOUS
 62
256
 10
126.976060574350410
 20
36.194035571307722
 40
2.000000000000027
 50
271.000000000001760
 51
0.000000000000000
  0
ARC
  8
0
  6
CONTINUOUS
 62
256
 10
32.976060574350413
 20
36.171914466507587
 40
2.000000000000000
 50
180.000000000000000
 51
268.351638847923080
  0
ARC
  8
0
  6
CONTINUOUS
 62
256
 10
126.976060574350410
 20
177.263246518844430
 40
2.000000000000000
 50
0.000000000000000
 51
88.999999999998224
  0
ARC
  8
0
  6
CONTINUOUS
 62
256
 10
32.976060574350413
 20
177.350364384436030
 40
2.000000000000383
 50
91.542211367440515
 51
180.000000000000000
  0
LINE
  8
0
  6
CONTINUOUS
 62
256
 10
128.976060574350410
 20
36.194035571307722
 11
128.976060574350410
 21
106.728641045076070
  0
LINE
  8
0
  6
CONTINUOUS
 62
256
 10
127.010965387225040
 20
34.194340180994914
 11
67.976060574350413
 21
33.163882084454599
  0
LINE
  8
0
  6
CONTINUOUS
 62
256
 10
128.976060574350410
 20
177.263246518844430
 11
128.976060574350410
 21
106.728641045076070
  0
LINE
  8
0
  6
CONTINUOUS
 62
256
 10
127.010965387225040
 20
179.262941909157230
 11
67.976060574350413
 21
180.293400005697550
  0
LINE
  8
0
  6
CONTINUOUS
 62
256
 10
32.922233742304797
 20
179.349639921262680
 11
67.976060574350413
 21
180.293400005697550
  0
LINE
  8
0
  6
CONTINUOUS
 62
256
 10
65.976060574350413
 20
176.228641045076070
 11
65.976060574350413
 21
106.728641045076070
  0
LINE
  8
0
  6
CONTINUOUS
 62
256
 10
67.976060574350413
 20
33.163882084454599
 11
32.918529852502161
 21
34.172742083734192
  0
LINE
  8
0
  6
CONTINUOUS
 62
256
 10
65.976060574350413
 20
37.228641045076074
 11
65.976060574350413
 21
106.728641045076070
  0
LINE
  8
0
  6
CONTINUOUS
 62
256
 10
126.976060574350410
 20
58.645383964238135
 11
126.976060574350410
 21
106.728641045076070
  0
ARC
  8
0
  6
CONTINUOUS
 62
256
 10
127.976060574350410
 20
83.228641045076074
 40
1.000000000000000
 50
90.000000000000000
 51
180.000000000000000
  0
ARC
  8
0
  6
CONTINUOUS
 62
256
 10
127.976060574350410
 20
85.228641045076074
 40
1.000000000000000
 50
270.000000000000000
 51
0.000000000000000
  0
CIRCLE
  8
0
  6
CONTINUOUS
 62
256
 10
116.476060574350410
 20
44.228641045076074
 40
5.000000000000000
  0
CIRCLE
  8
0
  6
CONTINUOUS
 62
256
 10
43.476060574350413
 20
44.228641045076074
 40
5.000000000000000
  0
LINE
  8
0
  6
DASHDOT
 62
256
 10
106.476060574350410
 20
44.228641045076074
 11
126.476060574350410
 21
44.228641045076074
  0
LINE
  8
0
  6
CONTINUOUS
 62
256
 10
82.976060574350413
 20
37.525377148855114
 11
65.976060574350413
 21
37.228641045076074
  0
ARC
  8
0
  6
CONTINUOUS
 62
256
 10
81.928916188113362
 20
97.516238858239376
 40
60.000000000000789
 50
271.000000000000060
 51
290.781468983387010
  0
ARC
  8
0
  6
CONTINUOUS
 62
256
 10
102.507582740989600
 20
43.289691089590633
 40
2.000000000000294
 50
290.781468983388660
 51
3.845591629898333
  0
ARC
  8
0
  6
CONTINUOUS
 62
256
 10
116.476060574350410
 20
169.228641045076070
 40
11.999999999999945
 50
176.154408370097340
 51
270.000000000000000
  0
ARC
  8
0
  6
CONTINUOUS
 62
256
 10
116.476060574350410
 20
44.228641045076074
 40
12.000000000000000
 50
90.000000000000000
 51
183.845591629902630
  0
LINE
  8
0
  6
CONTINUOUS
 62
256
 10
124.763427313933780
 20
56.373297569599345
 11
116.476060574350410
 21
56.228641045076074
  0
ARC
  8
0
  6
CONTINUOUS
 62
256
 10
124.728522501059160
 20
58.372992959912153
 40
2.000000000000027
 50
271.000000000001760
 51
317.554892155678660
  0
ARC
  8
0
  6
CONTINUOUS
 62
256
 10
81.928916188113362
 20
97.516238858239376
 40
60.000000000000327
 50
317.554892155681560
 51
317.918488970294730
  0
ARC
  8
0
  6
CONTINUOUS
 62
256
 10
124.976060574350410
 20
58.645383964238135
 40
2.000000000000259
 50
317.918488970284560
 51
0.000000000000000
  0
LINE
  8
0
  6
CONTINUOUS
 62
256
 10
126.976060574350410
 20
154.811898125914010
 11
126.976060574350410
 21
106.728641045076070
  0
ARC
  8
0
  6
CONTINUOUS
 62
256
 10
127.976060574350410
 20
130.228641045076070
 40
1.000000000000000
 50
180.000000000000000
 51
270.000000000000000
  0
ARC
  8
0
  6
CONTINUOUS
 62
256
 10
127.976060574350410
 20
128.228641045076070
 40
1.000000000000000
 50
0.000000000000000
 51
90.000000000000000
  0
CIRCLE
  8
0
  6
CONTINUOUS
 62
256
 10
116.476060574350410
 20
169.228641045076070
 40
5.000000000000000
  0
CIRCLE
  8
0
  6
CONTINUOUS
 62
256
 10
43.476060574350413
 20
169.228641045076070
 40
5.000000000000000
  0
LINE
  8
0
  6
DASHDOT
 62
256
 10
106.476060574350410
 20
169.228641045076070
 11
126.476060574350410
 21
169.228641045076070
  0
LINE
  8
0
  6
CONTINUOUS
 62
256
 10
82.976060574350413
 20
175.931904941296120
 11
65.976060574350413
 21
176.228641045076070
  0
ARC
  8
0
  6
CONTINUOUS
 62
256
 10
81.928916188113362
 20
115.941043231912770
 40
60.000000000000398
 50
69.218531016612971
 51
88.999999999999957
  0
ARC
  8
0
  6
CONTINUOUS
 62
256
 10
102.507582740989600
 20
170.167591000561520
 40
1.999999999999981
 50
356.154408370101690
 51
69.218531016611522
  0
LINE
  8
0
  6
CONTINUOUS
 62
256
 10
124.763427313933780
 20
157.083984520552800
 11
116.476060574350410
 21
157.228641045076070
  0
ARC
  8
0
  6
CONTINUOUS
 62
256
 10
124.728522501059160
 20
155.084289130239990
 40
1.999999999999802
 50
42.445107844321505
 51
88.999999999998124
  0
ARC
  8
0
  6
CONTINUOUS
 62
256
 10
81.928916188113362
 20
115.941043231912770
 40
60.000000000000604
 50
42.081511029705268
 51
42.445107844318400
  0
ARC
  8
0
  6
CONTINUOUS
 62
256
 10
124.976060574350410
 20
154.811898125914010
 40
2.000000000000000
 50
0.000000000000000
 51
42.081511029715649
  0
ARC
  8
0
  6
CONTINUOUS
 62
256
 10
56.476060574350413
 20
79.978641045076074
 40
1.000000000000000
 50
180.000000000000000
 51
270.000000000000000
  0
ARC
  8
0
  6
CONTINUOUS
 62
256
 10
56.476060574350413
 20
133.478641045076070
 40
1.000000000000000
 50
90.000000000000000
 51
180.000000000000000
  0
ARC
  8
0
  6
CONTINUOUS
 62
256
 10
56.476060574350413
 20
67.478641045076074
 40
1.000000000000000
 50
90.000000000000000
 51
180.000000000000000
  0
ARC
  8
0
  6
CONTINUOUS
 62
256
 10
56.476060574350413
 20
145.978641045076070
 40
1.000000000000000
 50
180.000000000000000
 51
270.000000000000000
  0
ARC
  8
0
  6
CONTINUOUS
 62
256
 10
60.076060574350777
 20
78.578641045076438
 40
0.399999999999636
 50
0.000000000000000
 51
90.000000000000000
  0
ARC
  8
0
  6
CONTINUOUS
 62
256
 10
60.076060574350777
 20
134.878641045075710
 40
0.399999999999636
 50
270.000000000000000
 51
0.000000000000000
  0
ARC
  8
0
  6
CONTINUOUS
 62
256
 10
60.076060574350777
 20
68.878641045075710
 40
0.399999999999636
 50
270.000000000000000
 51
0.000000000000000
  0
ARC
  8
0
  6
CONTINUOUS
 62
256
 10
60.076060574350777
 20
144.578641045076440
 40
0.399999999999636
 50
0.000000000000000
 51
90.000000000000000
  0
LINE
  8
0
  6
CONTINUOUS
 62
256
 10
60.476060574350413
 20
68.878641045075710
 11
60.476060574350413
 21
78.578641045076438
  0
LINE
  8
0
  6
CONTINUOUS
 62
256
 10
60.476060574350413
 20
144.578641045076440
 11
60.476060574350413
 21
134.878641045075710
  0
LINE
  8
0
  6
CONTINUOUS
 62
256
 10
60.076060574350777
 20
78.978641045076074
 11
56.476060574350413
 21
78.978641045076074
  0
LINE
  8
0
  6
CONTINUOUS
 62
256
 10
60.076060574350777
 20
134.478641045076070
 11
56.476060574350413
 21
134.478641045076070
  0
LINE
  8
0
  6
CONTINUOUS
 62
256
 10
60.076060574350777
 20
68.478641045076074
 11
56.476060574350413
 21
68.478641045076074
  0
LINE
  8
0
  6
CONTINUOUS
 62
256
 10
60.076060574350777
 20
144.978641045076070
 11
56.476060574350413
 21
144.978641045076070
  0
LINE
  8
0
  6
CONTINUOUS
 62
256
 10
130.976077467058530
 20
106.728641045076070
 11
130.976077467058530
 21
95.928641045075892
  0
LINE
  8
0
  6
CONTINUOUS
 62
256
 10
130.776077467058710
 20
95.728641045076074
 11
128.976060574350410
 21
95.728641045076074
  0
LINE
  8
0
  6
CONTINUOUS
 62
256
 10
130.776077467058710
 20
95.728641045076074
 11
130.976077467058530
 21
95.928641045075892
  0
LINE
  8
0
  6
CONTINUOUS
 62
256
 10
130.976077467058530
 20
106.800564565126460
 11
130.976077467058530
 21
117.600564565126660
  0
LINE
  8
0
  6
CONTINUOUS
 62
256
 10
130.776077467058710
 20
117.800564565126460
 11
128.976060574350410
 21
117.800564565126460
  0
LINE
  8
0
  6
CONTINUOUS
 62
256
 10
130.776077467058710
 20
117.800564565126460
 11
130.976077467058530
 21
117.600564565126660
  0
ARC
  8
0
  6
CONTINUOUS
 62
256
 10
55.976060574350413
 20
37.728641045076074
 40
0.500000000000000
 50
180.000000000000000
 51
270.000000000000000
  0
ARC
  8
0
  6
CONTINUOUS
 62
256
 10
55.976060574350413
 20
175.728641045076070
 40
0.500000000000000
 50
90.000000000000000
 51
180.000000000000000
  0
ARC
  8
0
  6
CONTINUOUS
 62
256
 10
54.476060574350413
 20
51.822416468263327
 40
1.000000000000000
 50
0.000000000000000
 51
88.500000000010303
  0
ARC
  8
0
  6
CONTINUOUS
 62
256
 10
54.476060574350413
 20
161.634865621889730
 40
0.999999999999925
 50
271.499999999989770
 51
0.000000000000000
  0
LINE
  8
0
  6
CONTINUOUS
 62
256
 10
55.976060574350413
 20
37.228641045076074
 11
65.476060574350413
 21
37.228641045076074
  0
LINE
  8
0
  6
CONTINUOUS
 62
256
 10
55.976060574350413
 20
176.228641045076070
 11
65.476060574350413
 21
176.228641045076070
  0
LINE
  8
0
  6
CONTINUOUS
 62
256
 10
55.476060574350413
 20
106.728641045076070
 11
55.476060574350413
 21
77.978640091401758
  0
LINE
  8
0
  6
CONTINUOUS
 62
256
 10
55.476060574350413
 20
106.728641045076070
 11
55.476060574350413
 21
135.478641998750390
  0
LINE
  8
0
  6
CONTINUOUS
 62
256
 10
54.502237522658106
 20
52.822073793238815
 11
37.976060574350413
 21
53.254826966645851
  0
LINE
  8
0
  6
CONTINUOUS
 62
256
 10
54.502237522658106
 20
160.635208296914240
 11
37.976060574350413
 21
160.202455123507210
  0
LINE
  8
0
  6
CONTINUOUS
 62
256
 10
65.476060574350413
 20
37.228641045076074
 11
65.476060574350413
 21
106.728641045076070
  0
LINE
  8
0
  6
CONTINUOUS
 62
256
 10
65.476060574350413
 20
176.228641045076070
 11
65.476060574350413
 21
106.728641045076070
  0
LINE
  8
0
  6
CONTINUOUS
 62
256
 10
37.976060574350413
 20
53.254826966645851
 11
37.976060574347684
 21
106.728641045076070
  0
LINE
  8
0
  6
CONTINUOUS
 62
256
 10
37.976060574350413
 20
160.202455123507210
 11
37.976060574347684
 21
106.728641045076070
  0
LINE
  8
0
  6
CONTINUOUS
 62
256
 10
55.476060574350413
 20
69.478641998750390
 11
55.476060574350413
 21
37.728641045076074
  0
LINE
  8
0
  6
CONTINUOUS
 62
256
 10
55.476060574350413
 20
143.978640091401760
 11
55.476060574350413
 21
175.728641045076070
  0
LINE
  8
0
  6
CONTINUOUS
 62
256
 10
60.476060574350413
 20
77.978640091401758
 11
55.476060574350413
 21
77.978640091401758
  0
LINE
  8
0
  6
CONTINUOUS
 62
256
 10
60.476060574350413
 20
69.478641998750390
 11
55.476060574350413
 21
69.478641998750390
  0
LINE
  8
0
  6
CONTINUOUS
 62
256
 10
55.476060574350413
 20
77.978640091401758
 11
55.476060574350413
 21
69.478641998750390
  0
LINE
  8
0
  6
CONTINUOUS
 62
256
 10
60.476060574350413
 20
69.128641617280664
 11
60.476060574350413
 21
78.328640472871484
  0
LINE
  8
0
  6
CONTINUOUS
 62
256
 10
60.476060574350413
 20
135.478641998750390
 11
55.476060574350413
 21
135.478641998750390
  0
LINE
  8
0
  6
CONTINUOUS
 62
256
 10
60.476060574350413
 20
143.978640091401760
 11
55.476060574350413
 21
143.978640091401760
  0
LINE
  8
0
  6
CONTINUOUS
 62
256
 10
55.476060574350413
 20
135.478641998750390
 11
55.476060574350413
 21
143.978640091401760
  0
LINE
  8
0
  6
CONTINUOUS
 62
256
 10
60.476060574350413
 20
144.328640472871480
 11
60.476060574350413
 21
135.128641617280660
  0
LINE
  8
0
  6
DASHDOT
 62
256
 10
-284.756257654029470
 20
-175.562795379767150
 11
-284.756257654029470
 21
-23.893830068970260
  0
LINE
  8
0
  6
DASHDOT
 62
256
 10
-396.672028457040140
 20
-100.568313685530710
 11
-186.757522512911240
 21
-100.568313685529500
  0
LINE
  8
0
  6
DASHDOT
 62
256
 10
-268.846725208444700
 20
-82.568313685530029
 11
-300.909760266211380
 21
-82.568313685530029
  0
ARC
  8
0
  6
CONTINUOUS
 62
256
 10
-261.815219477022540
 20
-123.589147018863510
 40
35.999999999999929
 50
302.753463526023380
 51
309.352837971038750
  0
ARC
  8
0
  6
CONTINUOUS
 62
256
 10
-261.815219477022540
 20
-123.589147018863510
 40
36.000000000000028
 50
320.856406748460640
 51
329.999999999999430
  0
ARC
  8
0
  6
CONTINUOUS
 62
256
 10
-249.256257654029470
 20
-157.068313685530110
 40
5.249999999999369
 50
134.139448286042240
 51
180.000000000000000
  0
ARC
  8
0
  6
CONTINUOUS
 62
256
 10
-249.256257654029470
 20
-157.068313685530110
 40
5.249999999999932
 50
29.537822073031958
 51
55.926371714192385
  0
ARC
  8
0
  6
CONTINUOUS
 62
256
 10
-249.256257654029470
 20
-157.068313685530110
 40
4.249999046324511
 50
112.132537888801830
 51
77.933282111433385
  0
ARC
  8
0
  6
CONTINUOUS
 62
256
 10
-320.256257654029470
 20
-157.068313685530110
 40
5.249999999999377
 50
124.073628285807590
 51
150.462177926968310
  0
ARC
  8
0
  6
CONTINUOUS
 62
256
 10
-320.256257654029470
 20
-157.068313685530110
 40
5.250000000000000
 50
0.000000000000000
 51
45.860551713957662
  0
ARC
  8
0
  6
CONTINUOUS
 62
256
 10
-320.256257654029470
 20
-157.068313685530110
 40
4.249999046324500
 50
102.066717888566610
 51
67.867462111198179
  0
ARC
  8
0
  6
CONTINUOUS
 62
256
 10
-307.697295831036400
 20
-123.589147018863510
 40
36.000000000000071
 50
230.647162028961130
 51
237.246536473976590
  0
ARC
  8
0
  6
CONTINUOUS
 62
256
 10
-307.697295831036400
 20
-123.589147018863510
 40
35.999999999999929
 50
210.000000000000510
 51
219.143593251539410
  0
LINE
  8
0
  6
CONTINUOUS
 62
256
 10
-338.874210367275960
 20
-141.589147018863770
 11
-347.319735042807680
 21
-126.961069184266250
  0
LINE
  8
0
  6
CONTINUOUS
 62
256
 10
-354.256257654029470
 20
-145.825672998410850
 11
-354.256257654029470
 21
-132.957475507234900
  0
ARC
  8
0
  6
CONTINUOUS
 62
256
 10
-304.256257654029470
 20
-85.321856541516695
 40
49.999999999999957
 50
91.489858156854154
 51
151.865554224231890
  0
ARC
  8
0
  6
CONTINUOUS
 62
256
 10
-317.756257654029470
 20
-44.568313685530143
 40
5.250000000000289
 50
324.745941876892000
 51
0.000000000000000
  0
ARC
  8
0
  6
CONTINUOUS
 62
256
 10
-317.756257654029470
 20
-44.568313685530143
 40
5.250000000000000
 50
180.000000000000000
 51
224.625857802113470
  0
ARC
  8
0
  6
CONTINUOUS
 62
256
 10
-317.756257654029470
 20
-44.568313685530029
 40
4.249999046325369
 50
312.474863978020840
 51
236.896935700985320
  0
ARC
  8
0
  6
CONTINUOUS
 62
256
 10
-251.756257654029470
 20
-44.568313685530143
 40
5.250000000000258
 50
315.374142197886440
 51
0.000000000000000
  0
ARC
  8
0
  6
CONTINUOUS
 62
256
 10
-251.756257654029470
 20
-44.568313685530143
 40
5.250000000000000
 50
180.000000000000000
 51
215.254058123108000
  0
ARC
  8
0
  6
CONTINUOUS
 62
256
 10
-251.756257654029470
 20
-44.568313685530029
 40
4.249999046325337
 50
303.103064299014080
 51
227.525136021979760
  0
LINE
  8
0
  6
CONTINUOUS
 62
256
 10
-230.638304940782970
 20
-141.589147018863770
 11
-224.275423849088610
 21
-130.568313685530090
  0
LINE
  8
0
  6
CONTINUOUS
 62
256
 10
-215.256257654029470
 20
-145.825672998410850
 11
-215.256257654029470
 21
-130.568313685530090
  0
ARC
  8
0
  6
CONTINUOUS
 62
256
 10
-265.256257654029470
 20
-85.321856541516695
 40
50.000000000000021
 50
17.161786322051174
 51
88.510141843145860
  0
ARC
  8
0
  6
CONTINUOUS
 62
256
 10
-364.056257654029420
 20
-114.610813685530030
 40
20.799999999999986
 50
174.275189547776620
 51
205.640070215894870
  0
POINT
  8
0
  6
DASHDOT
 62
256
 10
-343.256257654029470
 20
-100.582044178656020
  0
ARC
  8
0
  6
CONTINUOUS
 62
256
 10
-364.056257654029420
 20
-114.610813685530030
 40
20.799999999999926
 50
205.640070215894870
 51
260.083463391769560
  0
POINT
  8
0
  6
DASHDOT
 62
256
 10
-343.256257654029470
 20
-100.582044178656020
  0
ARC
  8
0
  6
CONTINUOUS
 62
256
 10
-364.056257654029420
 20
-114.610813685530030
 40
20.799999999999986
 50
174.275189547776620
 51
205.640070215894870
  0
ARC
  8
0
  6
CONTINUOUS
 62
256
 10
-362.056257654029420
 20
-74.610813685530047
 40
18.799999999999955
 50
0.000000000000000
 51
79.401214733933926
  0
ARC
  8
0
  6
CONTINUOUS
 62
256
 10
-358.230503019942490
 20
-54.165677308392333
 40
1.999999999999927
 50
177.137594773887290
 51
259.401214733933840
  0
ARC
  8
0
  6
CONTINUOUS
 62
256
 10
-363.823516117658300
 20
-53.886026653506519
 40
1.999999999999928
 50
274.873974813840960
 51
357.137594773887320
  0
ARC
  8
0
  6
CONTINUOUS
 62
256
 10
-362.389710387645890
 20
-137.349824662459380
 40
1.999999999999962
 50
94.191726156001650
 51
177.137594773887370
  0
LINE
  8
0
  6
CONTINUOUS
 62
256
 10
-360.558129145712660
 20
-44.648243519194807
 11
-365.651766073989620
 21
-146.520982084734920
  0
ARC
  8
0
  6
CONTINUOUS
 62
256
 10
-367.982723485361700
 20
-137.070174007573570
 40
2.000000000000154
 50
357.137594773887600
 51
80.083463391768120
  0
LINE
  8
0
  6
CONTINUOUS
 62
256
 10
-384.752517005650360
 20
-112.536000717949040
 11
-380.762492067994340
 21
-72.735501964831769
  0
ARC
  8
0
  6
CONTINUOUS
 62
256
 10
-364.056257654029420
 20
-114.610813685530030
 40
20.800000000000125
 50
274.191726156007410
 51
354.952683218992150
  0
ARC
  8
0
  6
CONTINUOUS
 62
256
 10
-362.056257654029420
 20
-74.610813685530047
 40
18.800000000000036
 50
94.873974813842736
 51
144.191373186504220
  0
ARC
  8
0
  6
CONTINUOUS
 62
256
 10
-362.056257654029420
 20
-74.610813685530047
 40
18.799999999999933
 50
144.191373186504250
 51
174.275189547776420
  0
LINE
  8
0
  6
CONTINUOUS
 62
256
 10
-361.357131016814950
 20
-44.608293425639658
 11
-359.759127274610360
 21
-44.688193612749842
  0
LINE
  8
0
  6
CONTINUOUS
 62
256
 10
-343.256257654029470
 20
-83.237704925310481
 11
-343.256257654029470
 21
-74.610813685530047
  0
ARC
  8
0
  6
CONTINUOUS
 62
256
 10
-355.214804513709400
 20
-49.921655849419949
 40
9.000000000000060
 50
160.536063666407810
 51
193.739143184213500
  0
POINT
  8
0
  6
CONTINUOUS
 62
256
 10
-361.606819101533800
 20
-49.602055120028695
  0
LINE
  8
0
  6
CONTINUOUS
 62
256
 10
-361.432037442230240
 20
-46.106421933956312
 11
-361.781600760837360
 21
-53.097688306101190
  0
LINE
  8
0
  6
CONTINUOUS
 62
256
 10
-361.432037442230240
 20
-46.106421933956312
 11
-361.781600760837360
 21
-53.097688306101190
  0
LINE
  8
0
  6
CONTINUOUS
 62
256
 10
-361.781600760837360
 20
-53.097688306101190
 11
-362.759404573345140
 21
-53.048798115475847
  0
LINE
  8
0
  6
CONTINUOUS
 62
256
 10
-361.432037442230240
 20
-46.106421933956312
 11
-362.409841254737780
 21
-46.057531743330969
  0
ARC
  8
0
  6
CONTINUOUS
 62
256
 10
-362.694485709417450
 20
-51.750420836922217
 40
1.299999237060493
 50
193.739143184211430
 51
267.137612759980130
  0
ARC
  8
0
  6
CONTINUOUS
 62
256
 10
-362.474760118665470
 20
-47.355909021884486
 40
1.299999237060475
 50
87.137594090651845
 51
160.536063666412730
  0
LINE
  8
0
  6
CONTINUOUS
 62
256
 10
-361.357131016814950
 20
-44.608293425639658
 11
-366.450767945091910
 21
-146.481031991179660
  0
LINE
  8
0
  6
CONTINUOUS
 62
256
 10
-364.852764202887330
 20
-146.560932178290640
 11
-366.450767945091910
 21
-146.481031991179660
  0
LINE
  8
0
  6
CONTINUOUS
 62
256
 10
-359.759127274610360
 20
-44.688193612749842
 11
-364.852764202887330
 21
-146.560932178290640
  0
LINE
  8
0
  6
CONTINUOUS
 62
256
 10
-197.256257654029470
 20
-103.068313685530010
 11
-197.256257654029470
 21
-98.068313685530029
  0
LINE
  8
0
  6
CONTINUOUS
 62
256
 10
-197.766674501547190
 20
-103.068313685530010
 11
-197.256257654029470
 21
-103.068313685530010
  0
LINE
  8
0
  6
CONTINUOUS
 62
256
 10
-197.766674501547190
 20
-98.068313685530029
 11
-197.256257654029470
 21
-98.068313685530029
  0
ARC
  8
0
  6
CONTINUOUS
 62
256
 10
-497.756257654029470
 20
-100.568313685530010
 40
300.000000000000170
 50
355.138594604201960
 51
4.861405395798036
  0
LINE
  8
0
  6
CONTINUOUS
 62
256
 10
-227.256257654029470
 20
-70.568313685530029
 11
-203.817488520047850
 21
-70.568313685530029
  0
LINE
  8
0
  6
CONTINUOUS
 62
256
 10
-227.256257654029470
 20
-130.568313685530060
 11
-203.817488520047850
 21
-130.568313685530060
  0
ARC
  8
0
  6
CONTINUOUS
 62
256
 10
-203.817488520047850
 20
-75.568313685530029
 40
4.999999999999893
 50
4.861405395798621
 51
90.000000000000000
  0
ARC
  8
0
  6
CONTINUOUS
 62
256
 10
-203.817488520047850
 20
-125.568313685530010
 40
5.000000000000014
 50
270.000000000000000
 51
355.138594604201330
  0
ARC
  8
0
  6
CONTINUOUS
 62
256
 10
-43.156257654029332
 20
-100.568313685530010
 40
290.796999999999910
 50
174.998349729065040
 51
180.000000000000000
  0
LINE
  8
0
  6
CONTINUOUS
 62
256
 10
-326.833847969885480
 20
-62.322816299281385
 11
-323.493542936607810
 21
-58.982511266003485
  0
ARC
  8
0
  6
CONTINUOUS
 62
256
 10
-312.128148241548840
 20
-77.028516027618025
 40
20.797000000000015
 50
135.000000000000000
 51
174.998349729064670
  0
ARC
  8
0
  6
CONTINUOUS
 62
256
 10
-284.756257654029470
 20
-447.168313685530170
 40
390.797000000000030
 50
90.000000000000000
 51
95.417963762360529
  0
ARC
  8
0
  6
CONTINUOUS
 62
256
 10
-321.372222593047810
 20
-61.103831609563258
 40
3.000000000000067
 50
95.417963762365673
 51
135.000000000003470
  0
ARC
  8
0
  6
CONTINUOUS
 62
256
 10
-43.156257654029332
 20
-100.568313685530010
 40
290.797000000000250
 50
180.000000000000000
 51
185.001650270934930
  0
LINE
  8
0
  6
CONTINUOUS
 62
256
 10
-326.833847969885480
 20
-138.813811071778700
 11
-323.493542936607810
 21
-142.154116105056600
  0
ARC
  8
0
  6
CONTINUOUS
 62
256
 10
-312.128148241548840
 20
-124.108111343442030
 40
20.796999999999880
 50
185.001650270935300
 51
225.000000000000060
  0
ARC
  8
0
  6
CONTINUOUS
 62
256
 10
-284.756257654029470
 20
246.031686314470110
 40
390.797000000000030
 50
264.582036237639500
 51
270.000000000000000
  0
ARC
  8
0
  6
CONTINUOUS
 62
256
 10
-321.372222593047810
 20
-140.032795761496830
 40
3.000000000000346
 50
224.999999999996930
 51
264.582036237634780
  0
ARC
  8
0
  6
CONTINUOUS
 62
256
 10
-526.356257654029830
 20
-100.568313685530010
 40
290.797000000000140
 50
354.998349729065010
 51
0.000000000000000
  0
LINE
  8
0
  6
CONTINUOUS
 62
256
 10
-242.678667338173450
 20
-138.813811071778700
 11
-246.018972371451130
 21
-142.154116105056600
  0
ARC
  8
0
  6
CONTINUOUS
 62
256
 10
-257.384367066510090
 20
-124.108111343442030
 40
20.797000000000036
 50
314.999999999999940
 51
354.998349729064610
  0
ARC
  8
0
  6
CONTINUOUS
 62
256
 10
-284.756257654029470
 20
246.031686314470110
 40
390.797000000000030
 50
270.000000000000000
 51
275.417963762360500
  0
ARC
  8
0
  6
CONTINUOUS
 62
256
 10
-248.140292715011130
 20
-140.032795761496830
 40
3.000000000000067
 50
275.417963762365730
 51
315.000000000003070
  0
ARC
  8
0
  6
CONTINUOUS
 62
256
 10
-526.356257654029830
 20
-100.568313685530010
 40
290.797000000000480
 50
0.000000000000000
 51
5.752282731536623
  0
ARC
  8
0
  6
CONTINUOUS
 62
256
 10
-248.140292715011130
 20
-61.103831609563258
 40
3.000000000000346
 50
44.999999999996930
 51
84.582036237634284
  0
ARC
  8
0
  6
CONTINUOUS
 62
256
 10
-284.756257654029470
 20
-447.168313685530170
 40
390.797000000000030
 50
84.582036237639471
 51
90.000000000000000
  0
LINE
  8
0
  6
CONTINUOUS
 62
256
 10
-240.131558499411770
 20
-64.869925138043527
 11
-246.018972371451130
 21
-58.982511266003485
  0
ARC
  8
0
  6
CONTINUOUS
 62
256
 10
-324.187124654116810
 20
-55.146366943231669
 40
6.600000000000009
 50
95.743681810995113
 51
135.000000000002930
  0
ARC
  8
0
  6
CONTINUOUS
 62
256
 10
-324.187124654116810
 20
-145.990260427828420
 40
6.600000000000278
 50
224.999999999997190
 51
264.256318189004620
  0
ARC
  8
0
  6
CONTINUOUS
 62
256
 10
-245.325390653942120
 20
-145.990260427828420
 40
6.600000000000009
 50
275.743681810995100
 51
315.000000000002790
  0
ARC
  8
0
  6
CONTINUOUS
 62
256
 10
-245.325390653942120
 20
-55.146366943231669
 40
6.600000000000278
 50
44.999999999997208
 51
84.256318189004887
  0
ARC
  8
0
  6
CONTINUOUS
 62
256
 10
-284.756257654029470
 20
-447.168313685530170
 40
400.599999999999910
 50
90.000000000000000
 51
95.743681810993436
  0
ARC
  8
0
  6
CONTINUOUS
 62
256
 10
-284.756257654029470
 20
246.031686314470110
 40
400.599999999999910
 50
264.256318189006550
 51
270.000000000000000
  0
ARC
  8
0
  6
CONTINUOUS
 62
256
 10
-284.756257654029470
 20
246.031686314470110
 40
400.599999999999910
 50
270.000000000000000
 51
275.743681810993510
  0
ARC
  8
0
  6
CONTINUOUS
 62
256
 10
-284.756257654029470
 20
-447.168313685530170
 40
400.599999999999910
 50
84.256318189006564
 51
90.000000000000000
  0
ARC
  8
0
  6
CONTINUOUS
 62
256
 10
-43.156257654029105
 20
-100.568313685530010
 40
300.599999999999910
 50
174.247717268463390
 51
180.000000000000000
  0
ARC
  8
0
  6
CONTINUOUS
 62
256
 10
-43.156257654029105
 20
-100.568313685530010
 40
300.600000000000360
 50
180.000000000000000
 51
185.752282731536610
  0
ARC
  8
0
  6
CONTINUOUS
 62
256
 10
-526.356257654029830
 20
-100.568313685530010
 40
300.599999999999910
 50
354.247717268463420
 51
0.000000000000000
  0
ARC
  8
0
  6
CONTINUOUS
 62
256
 10
-526.356257654029830
 20
-100.568313685530010
 40
300.600000000000360
 50
0.000000000000000
 51
5.752282731536604
  0
ARC
  8
0
  6
CONTINUOUS
 62
256
 10
-288.256257654029470
 20
-135.392873984261800
 40
1.000000000000000
 50
0.000000000000000
 51
84.260829522738462
  0
ARC
  8
0
  6
CONTINUOUS
 62
256
 10
-288.256257654029470
 20
-138.406786170555080
 40
1.000000000000042
 50
264.715267045464260
 51
0.000000000000000
  0
ARC
  8
0
  6
CONTINUOUS
 62
256
 10
-288.256257654029470
 20
-129.859950717283740
 40
1.000000000000077
 50
263.186145655820330
 51
0.000000000000000
  0
LINE
  8
0
  6
CONTINUOUS
 62
256
 10
-287.256257654029470
 20
-138.406786170555080
 11
-287.256257654029470
 21
-135.392873984261800
  0
ARC
  8
0
  6
CONTINUOUS
 62
256
 10
-301.797186337402310
 20
-106.365446563789190
 40
0.999999999999885
 50
300.000000000003810
 51
18.787728582347054
  0
LINE
  8
0
  6
CONTINUOUS
 62
256
 10
-303.938421494458910
 20
-108.756389796493050
 11
-301.297186337402310
 21
-107.231471967573480
  0
ARC
  8
0
  6
CONTINUOUS
 62
256
 10
-304.438421494458910
 20
-107.890364392708760
 40
1.000000000000094
 50
200.405931773138660
 51
300.000000000004150
  0
ARC
  8
0
  6
CONTINUOUS
 62
256
 10
-309.254883986183810
 20
-110.671150308848380
 40
1.000000000000082
 50
299.999999999997270
 51
22.410457608146118
  0
ARC
  8
0
  6
CONTINUOUS
 62
256
 10
-316.665211548353910
 20
-114.949504921650250
 40
1.000000000000082
 50
299.999999999997270
 51
24.260829522733705
  0
LINE
  8
0
  6
CONTINUOUS
 62
256
 10
-311.373559441961330
 20
-113.049068691945880
 11
-308.754883986183810
 21
-111.537175712632920
  0
ARC
  8
0
  6
CONTINUOUS
 62
256
 10
-311.873559441961330
 20
-112.183043288161340
 40
0.999999999999730
 50
203.186145655819840
 51
299.999999999997390
  0
LINE
  8
0
  6
CONTINUOUS
 62
256
 10
-318.775336066459660
 20
-117.322486418581320
 11
-316.165211548353910
 21
-115.815530325434790
  0
ARC
  8
0
  6
CONTINUOUS
 62
256
 10
-319.275336066459660
 20
-116.456461014797010
 40
1.000000000000249
 50
204.715267045455480
 51
300.000000000003300
  0
ARC
  8
0
  6
CONTINUOUS
 62
256
 10
-315.775336066459660
 20
-122.518638841288290
 40
1.000000000000082
 50
119.999999999997300
 51
215.284732954534750
  0
ARC
  8
0
  6
CONTINUOUS
 62
256
 10
-313.165211548353910
 20
-121.011682748141310
 40
0.999999999999807
 50
35.739170477263514
 51
120.000000000003010
  0
ARC
  8
0
  6
CONTINUOUS
 62
256
 10
-288.256257654029470
 20
-126.836164758657330
 40
1.000000000000000
 50
0.000000000000000
 51
82.410457608145990
  0
ARC
  8
0
  6
CONTINUOUS
 62
256
 10
-308.373559441961330
 20
-118.245221114652150
 40
0.999999999999885
 50
120.000000000003810
 51
216.813854344196470
  0
ARC
  8
0
  6
CONTINUOUS
 62
256
 10
-305.754883986184270
 20
-116.733328135339210
 40
1.000000000000194
 50
37.589542391851786
 51
119.999999999997270
  0
ARC
  8
0
  6
CONTINUOUS
 62
256
 10
-288.256257654029470
 20
-121.274592926378550
 40
1.000000000000268
 50
260.405931773124510
 51
0.000000000000000
  0
ARC
  8
0
  6
CONTINUOUS
 62
256
 10
-288.256257654029470
 20
-118.224757268539630
 40
1.000000000000000
 50
0.000000000000000
 51
78.787728582356166
  0
ARC
  8
0
  6
CONTINUOUS
 62
256
 10
-300.938421494458450
 20
-113.952542219199810
 40
0.999999999999885
 50
120.000000000003810
 51
219.594068226860970
  0
ARC
  8
0
  6
CONTINUOUS
 62
256
 10
-298.297186337402310
 20
-112.427624390280470
 40
1.000000000000165
 50
41.212271417643834
 51
119.999999999998080
  0
ARC
  8
0
  6
CONTINUOUS
 62
256
 10
-293.398562499442960
 20
-109.599402598775440
 40
0.999999999999885
 50
120.000000000003810
 51
226.260204708329240
  0
ARC
  8
0
  6
CONTINUOUS
 62
256
 10
-288.256257654029470
 20
-112.568313685530010
 40
0.999999999999964
 50
253.739795291702650
 51
0.000000000000000
  0
ARC
  8
0
  6
CONTINUOUS
 62
256
 10
-288.256257654029470
 20
-109.400074551857870
 40
1.000000000000000
 50
0.000000000000000
 51
68.381727577839243
  0
ARC
  8
0
  6
CONTINUOUS
 62
256
 10
-290.654786924418660
 20
-108.015283031939360
 40
0.999999999999961
 50
51.618272422159770
 51
120.000000000004590
  0
ARC
  8
0
  6
CONTINUOUS
 62
256
 10
-284.756257654029470
 20
-100.568313685530010
 40
38.999999999999872
 50
215.284732954534800
 51
264.715267045465400
  0
ARC
  8
0
  6
CONTINUOUS
 62
256
 10
-284.756257654029470
 20
-100.568313685530010
 40
30.499999999999964
 50
216.813854344181040
 51
263.186145655819020
  0
ARC
  8
0
  6
CONTINUOUS
 62
256
 10
-284.756257654029470
 20
-100.568313685530010
 40
33.999999999999964
 50
215.739170477266950
 51
264.260829522733050
  0
ARC
  8
0
  6
CONTINUOUS
 62
256
 10
-284.756257654029470
 20
-100.568313685530010
 40
25.499999999999890
 50
217.589542391857950
 51
262.410457608141830
  0
ARC
  8
0
  6
CONTINUOUS
 62
256
 10
-284.756257654029470
 20
-100.568313685530010
 40
22.000000000000018
 50
219.594068226860770
 51
260.405931773138780
  0
ARC
  8
0
  6
CONTINUOUS
 62
256
 10
-284.756257654029470
 20
-100.568313685530010
 40
16.999999999999773
 50
221.212271417650750
 51
258.787728582349980
  0
ARC
  8
0
  6
CONTINUOUS
 62
256
 10
-284.756257654029470
 20
-100.568313685530010
 40
13.499999999999927
 50
226.260204708312130
 51
253.739795291689090
  0
ARC
  8
0
  6
CONTINUOUS
 62
256
 10
-284.756257654029470
 20
-100.568313685530010
 40
8.499999999999949
 50
231.618272422157330
 51
248.381727577842410
  0
LINE
  8
0
  6
CONTINUOUS
 62
256
 10
-308.873559441961330
 20
-117.379195710867860
 11
-306.254883986184270
 21
-115.867302731554670
  0
LINE
  8
0
  6
CONTINUOUS
 62
256
 10
-316.275336066459660
 20
-121.652613437503760
 11
-313.665211548353910
 21
-120.145657344357010
  0
LINE
  8
0
  6
CONTINUOUS
 62
256
 10
-301.438421494458450
 20
-113.086516815415490
 11
-298.797186337402310
 21
-111.561598986495920
  0
LINE
  8
0
  6
CONTINUOUS
 62
256
 10
-293.898562499442960
 20
-108.733377194991140
 11
-291.154786924418660
 21
-107.149257628155060
  0
LINE
  8
0
  6
CONTINUOUS
 62
256
 10
-287.256257654029470
 20
-112.568313685530010
 11
-287.256257654029470
 21
-109.400074551857870
  0
LINE
  8
0
  6
CONTINUOUS
 62
256
 10
-287.256257654029470
 20
-121.274592926378550
 11
-287.256257654029470
 21
-118.224757268539630
  0
LINE
  8
0
  6
CONTINUOUS
 62
256
 10
-287.256257654029470
 20
-129.859950717283740
 11
-287.256257654029470
 21
-126.836164758657330
  0
ARC
  8
0
  6
CONTINUOUS
 62
256
 10
-294.154786924418660
 20
-101.953105205448520
 40
0.999999999999885
 50
300.000000000003810
 51
8.381727577845361
  0
ARC
  8
0
  6
CONTINUOUS
 62
256
 10
-284.756257654029470
 20
-100.568313685530010
 40
8.499999999999972
 50
171.618272422157790
 51
188.381727577842210
  0
LINE
  8
0
  6
CONTINUOUS
 62
256
 10
-296.398562499442960
 20
-104.403250176068920
 11
-293.654786924418660
 21
-102.819130609232840
  0
ARC
  8
0
  6
CONTINUOUS
 62
256
 10
-296.898562499442960
 20
-103.537224772284620
 40
0.999999999999879
 50
193.739795291686020
 51
300.000000000003810
  0
ARC
  8
0
  6
CONTINUOUS
 62
256
 10
-288.256257654029470
 20
-82.911870102520425
 40
0.999999999999982
 50
281.212271417643990
 51
0.000000000000000
  0
LINE
  8
0
  6
CONTINUOUS
 62
256
 10
-287.256257654029470
 20
-79.862034444681512
 11
-287.256257654029470
 21
-82.911870102520425
  0
ARC
  8
0
  6
CONTINUOUS
 62
256
 10
-288.256257654029470
 20
-79.862034444681512
 40
1.000000000000000
 50
0.000000000000000
 51
99.594068226874853
  0
ARC
  8
0
  6
CONTINUOUS
 62
256
 10
-288.256257654029470
 20
-74.300462612402725
 40
0.999999999999749
 50
277.589542391855960
 51
0.000000000013028
  0
LINE
  8
0
  6
CONTINUOUS
 62
256
 10
-287.256257654029470
 20
-71.276676653776349
 11
-287.256257654029470
 21
-74.300462612402498
  0
ARC
  8
0
  6
CONTINUOUS
 62
256
 10
-288.256257654029470
 20
-71.276676653776349
 40
1.000000000000000
 50
0.000000000000000
 51
96.813854344180172
  0
ARC
  8
0
  6
CONTINUOUS
 62
256
 10
-288.256257654029470
 20
-65.743753386798289
 40
0.999999999999973
 50
275.739170477261670
 51
0.000000000000000
  0
LINE
  8
0
  6
CONTINUOUS
 62
256
 10
-287.256257654029470
 20
-62.729841200505007
 11
-287.256257654029470
 21
-65.743753386798289
  0
ARC
  8
0
  6
CONTINUOUS
 62
256
 10
-288.256257654029470
 20
-62.729841200505007
 40
1.000000000000000
 50
0.000000000000000
 51
95.284732954535926
  0
ARC
  8
0
  6
CONTINUOUS
 62
256
 10
-308.373559441961330
 20
-82.891406256407663
 40
0.999999999999774
 50
143.186145655813330
 51
240.000000000003440
  0
LINE
  8
0
  6
CONTINUOUS
 62
256
 10
-308.873559441961330
 20
-83.757431660192196
 11
-306.254883986183810
 21
-85.269324639505385
  0
ARC
  8
0
  6
CONTINUOUS
 62
256
 10
-305.754883986183810
 20
-84.403299235720851
 40
1.000000000000082
 50
240.000000000002670
 51
322.410457608131140
  0
ARC
  8
0
  6
CONTINUOUS
 62
256
 10
-315.775336066459660
 20
-78.617988529771992
 40
0.999999999999908
 50
144.715267045455050
 51
239.999999999996560
  0
LINE
  8
0
  6
CONTINUOUS
 62
256
 10
-316.275336066459660
 20
-79.484013933556298
 11
-313.665211548353910
 21
-80.990970026703053
  0
ARC
  8
0
  6
CONTINUOUS
 62
256
 10
-313.165211548353910
 20
-80.124944622918747
 40
0.999999999999885
 50
239.999999999996160
 51
324.260829522725320
  0
ARC
  8
0
  6
CONTINUOUS
 62
256
 10
-290.654786924418660
 20
-93.121344339120469
 40
1.000000000000082
 50
240.000000000002670
 51
308.381727577839230
  0
LINE
  8
0
  6
CONTINUOUS
 62
256
 10
-293.898562499442960
 20
-92.403250176068923
 11
-291.154786924418660
 21
-93.987369742905003
  0
ARC
  8
0
  6
CONTINUOUS
 62
256
 10
-298.297186337402310
 20
-88.709002980779815
 40
0.999999999999885
 50
239.999999999996160
 51
318.787728582349130
  0
LINE
  8
0
  6
CONTINUOUS
 62
256
 10
-301.438421494458450
 20
-88.050110555644551
 11
-298.797186337402310
 21
-89.575028384564121
  0
ARC
  8
0
  6
CONTINUOUS
 62
256
 10
-300.938421494458450
 20
-87.184085151860018
 40
1.000000000000173
 50
140.405931773149600
 51
240.000000000002330
  0
ARC
  8
0
  6
CONTINUOUS
 62
256
 10
-288.256257654029470
 20
-91.736552819202188
 40
1.000000000000090
 50
291.618272422162020
 51
0.000000000000000
  0
ARC
  8
0
  6
CONTINUOUS
 62
256
 10
-284.756257654029470
 20
-100.568313685530010
 40
8.499999999999904
 50
111.618272422157720
 51
128.381727577841810
  0
ARC
  8
0
  6
CONTINUOUS
 62
256
 10
-293.398562499442960
 20
-91.537224772284617
 40
0.999999999999858
 50
133.739795291671330
 51
239.999999999995340
  0
LINE
  8
0
  6
CONTINUOUS
 62
256
 10
-287.256257654029470
 20
-88.568313685530029
 11
-287.256257654029470
 21
-91.736552819202188
  0
ARC
  8
0
  6
CONTINUOUS
 62
256
 10
-288.256257654029470
 20
-88.568313685530029
 40
1.000000000000000
 50
0.000000000000000
 51
106.260204708296920
  0
ARC
  8
0
  6
CONTINUOUS
 62
256
 10
-284.756257654029470
 20
-100.568313685530010
 40
13.499999999999963
 50
106.260204708310880
 51
133.739795291687780
  0
ARC
  8
0
  6
CONTINUOUS
 62
256
 10
-284.756257654029470
 20
-100.568313685530010
 40
17.000000000000046
 50
101.212271417650020
 51
138.787728582350240
  0
ARC
  8
0
  6
CONTINUOUS
 62
256
 10
-284.756257654029470
 20
-100.568313685530010
 40
22.000000000000131
 50
99.594068226861211
 51
140.405931773139140
  0
ARC
  8
0
  6
CONTINUOUS
 62
256
 10
-284.756257654029470
 20
-100.568313685530010
 40
30.500000000000135
 50
96.813854344181038
 51
143.186145655818930
  0
ARC
  8
0
  6
CONTINUOUS
 62
256
 10
-284.756257654029470
 20
-100.568313685530010
 40
25.500000000000160
 50
97.589542391858117
 51
142.410457608142080
  0
ARC
  8
0
  6
CONTINUOUS
 62
256
 10
-284.756257654029470
 20
-100.568313685530010
 40
34.000000000000071
 50
95.739170477266939
 51
144.260829522733330
  0
ARC
  8
0
  6
CONTINUOUS
 62
256
 10
-284.756257654029470
 20
-100.568313685530010
 40
38.999999999999986
 50
95.284732954534590
 51
144.715267045465230
  0
ARC
  8
0
  6
CONTINUOUS
 62
256
 10
-311.873559441961330
 20
-88.953584082898715
 40
1.000000000000082
 50
60.000000000002721
 51
156.813854344180360
  0
LINE
  8
0
  6
CONTINUOUS
 62
256
 10
-311.373559441961330
 20
-88.087558679114181
 11
-308.754883986183810
 21
-89.599451658427370
  0
ARC
  8
0
  6
CONTINUOUS
 62
256
 10
-309.254883986183810
 20
-90.465477062211903
 40
0.999999999999701
 50
337.589542391853970
 51
60.000000000001812
  0
ARC
  8
0
  6
CONTINUOUS
 62
256
 10
-319.275336066459660
 20
-84.680166356263044
 40
1.000000000000082
 50
60.000000000002721
 51
155.284732954544150
  0
LINE
  8
0
  6
CONTINUOUS
 62
256
 10
-318.775336066459660
 20
-83.814140952478510
 11
-316.165211548353910
 21
-85.321097045625265
  0
ARC
  8
0
  6
CONTINUOUS
 62
256
 10
-316.665211548353910
 20
-86.187122449409571
 40
0.999999999999863
 50
335.739170477254390
 51
59.999999999995801
  0
ARC
  8
0
  6
CONTINUOUS
 62
256
 10
-294.154786924418660
 20
-99.183522165611748
 40
1.000000000000026
 50
351.618272422167310
 51
60.000000000001499
  0
LINE
  8
0
  6
CONTINUOUS
 62
256
 10
-296.398562499442960
 20
-96.733377194991135
 11
-293.654786924418660
 21
-98.317496761827215
  0
ARC
  8
0
  6
CONTINUOUS
 62
256
 10
-301.797186337402310
 20
-94.771180807270866
 40
1.000000000000076
 50
341.212271417653030
 51
60.000000000002721
  0
LINE
  8
0
  6
CONTINUOUS
 62
256
 10
-303.938421494458910
 20
-92.380237574566991
 11
-301.297186337402310
 21
-93.905155403486333
  0
ARC
  8
0
  6
CONTINUOUS
 62
256
 10
-304.438421494458910
 20
-93.246262978351297
 40
0.999999999999885
 50
59.999999999996206
 51
159.594068226861740
  0
ARC
  8
0
  6
CONTINUOUS
 62
256
 10
-296.898562499442960
 20
-97.599402598775441
 40
0.999999999999885
 50
59.999999999996206
 51
166.260204708308440
  0
ARC
  8
0
  6
CONTINUOUS
 62
256
 10
-284.756257654029470
 20
-100.568313685530010
 40
13.499999999999687
 50
166.260204708311360
 51
193.739795291688210
  0
ARC
  8
0
  6
CONTINUOUS
 62
256
 10
-284.756257654029470
 20
-100.568313685530010
 40
16.999999999999716
 50
161.212271417649590
 51
198.787728582350440
  0
ARC
  8
0
  6
CONTINUOUS
 62
256
 10
-284.756257654029470
 20
-100.568313685530010
 40
22.000000000000206
 50
159.594068226860770
 51
200.405931773139230
  0
ARC
  8
0
  6
CONTINUOUS
 62
256
 10
-284.756257654029470
 20
-100.568313685530010
 40
30.499999999999954
 50
156.813854344181150
 51
203.186145655818820
  0
ARC
  8
0
  6
CONTINUOUS
 62
256
 10
-284.756257654029470
 20
-100.568313685530010
 40
25.500000000000000
 50
157.589542391858000
 51
202.410457608142450
  0
ARC
  8
0
  6
CONTINUOUS
 62
256
 10
-284.756257654029470
 20
-100.568313685530010
 40
34.000000000000007
 50
155.739170477266780
 51
204.260829522733220
  0
ARC
  8
0
  6
CONTINUOUS
 62
256
 10
-284.756257654029470
 20
-100.568313685530010
 40
39.000000000000227
 50
155.284732954534800
 51
204.715267045465200
  0
LINE
  8
0
  6
CONTINUOUS
 62
256
 10
-282.256257654029470
 20
-129.859950717283740
 11
-282.256257654029470
 21
-126.836164758657330
  0
LINE
  8
0
  6
CONTINUOUS
 62
256
 10
-282.256257654029470
 20
-121.274592926378550
 11
-282.256257654029470
 21
-118.224757268539630
  0
LINE
  8
0
  6
CONTINUOUS
 62
256
 10
-282.256257654029470
 20
-112.568313685530010
 11
-282.256257654029470
 21
-109.400074551857870
  0
LINE
  8
0
  6
CONTINUOUS
 62
256
 10
-275.613952808615980
 20
-108.733377194991140
 11
-278.357728383640280
 21
-107.149257628155060
  0
LINE
  8
0
  6
CONTINUOUS
 62
256
 10
-268.074093813600480
 20
-113.086516815415490
 11
-270.715328970656630
 21
-111.561598986495920
  0
LINE
  8
0
  6
CONTINUOUS
 62
256
 10
-253.237179241599280
 20
-121.652613437503760
 11
-255.847303759705030
 21
-120.145657344357010
  0
LINE
  8
0
  6
CONTINUOUS
 62
256
 10
-282.256257654029470
 20
-138.406786170555080
 11
-282.256257654029470
 21
-135.392873984261800
  0
LINE
  8
0
  6
CONTINUOUS
 62
256
 10
-260.638955866097600
 20
-117.379195710867860
 11
-263.257631321874670
 21
-115.867302731554670
  0
ARC
  8
0
  6
CONTINUOUS
 62
256
 10
-284.756257654029470
 20
-100.568313685530010
 40
8.499999999999904
 50
291.618272422157700
 51
308.381727577842810
  0
ARC
  8
0
  6
CONTINUOUS
 62
256
 10
-284.756257654029470
 20
-100.568313685530010
 40
13.499999999999963
 50
286.260204708310820
 51
313.739795291687760
  0
ARC
  8
0
  6
CONTINUOUS
 62
256
 10
-284.756257654029470
 20
-100.568313685530010
 40
17.000000000000046
 50
281.212271417650020
 51
318.787728582350210
  0
ARC
  8
0
  6
CONTINUOUS
 62
256
 10
-284.756257654029470
 20
-100.568313685530010
 40
22.000000000000131
 50
279.594068226861170
 51
320.405931773139120
  0
ARC
  8
0
  6
CONTINUOUS
 62
256
 10
-284.756257654029470
 20
-100.568313685530010
 40
25.499999999999932
 50
277.589542391858170
 51
322.410457608142050
  0
ARC
  8
0
  6
CONTINUOUS
 62
256
 10
-284.756257654029470
 20
-100.568313685530010
 40
34.000000000000085
 50
275.739170477266950
 51
324.260829522733050
  0
ARC
  8
0
  6
CONTINUOUS
 62
256
 10
-284.756257654029470
 20
-100.568313685530010
 40
30.500000000000149
 50
276.813854344181040
 51
323.186145655818900
  0
ARC
  8
0
  6
CONTINUOUS
 62
256
 10
-284.756257654029470
 20
-100.568313685530010
 40
39.000000000000000
 50
275.284732954534600
 51
324.715267045465170
  0
ARC
  8
0
  6
CONTINUOUS
 62
256
 10
-278.857728383640280
 20
-108.015283031939360
 40
0.999999999999885
 50
59.999999999996206
 51
128.381727577839710
  0
ARC
  8
0
  6
CONTINUOUS
 62
256
 10
-281.256257654029470
 20
-109.400074551857870
 40
1.000000000000090
 50
111.618272422161990
 51
180.000000000000000
  0
ARC
  8
0
  6
CONTINUOUS
 62
256
 10
-281.256257654029470
 20
-112.568313685530010
 40
1.000000000000000
 50
180.000000000000000
 51
286.260204708296900
  0
ARC
  8
0
  6
CONTINUOUS
 62
256
 10
-276.113952808615980
 20
-109.599402598775440
 40
0.999999999999858
 50
313.739795291671330
 51
59.999999999995389
  0
ARC
  8
0
  6
CONTINUOUS
 62
256
 10
-271.215328970656630
 20
-112.427624390280470
 40
1.000000000000082
 50
60.000000000002721
 51
138.787728582338080
  0
ARC
  8
0
  6
CONTINUOUS
 62
256
 10
-268.574093813600480
 20
-113.952542219199810
 40
1.000000000000318
 50
320.405931773139570
 51
59.999999999995502
  0
ARC
  8
0
  6
CONTINUOUS
 62
256
 10
-281.256257654029470
 20
-118.224757268539630
 40
0.999999999999982
 50
101.212271417644000
 51
180.000000000000000
  0
ARC
  8
0
  6
CONTINUOUS
 62
256
 10
-281.256257654029470
 20
-121.274592926378550
 40
1.000000000000000
 50
180.000000000000000
 51
279.594068226874810
  0
ARC
  8
0
  6
CONTINUOUS
 62
256
 10
-281.256257654029470
 20
-129.859950717283740
 40
1.000000000000000
 50
180.000000000000000
 51
276.813854344180240
  0
ARC
  8
0
  6
CONTINUOUS
 62
256
 10
-263.757631321874670
 20
-116.733328135339210
 40
1.000000000000082
 50
60.000000000002721
 51
142.410457608147480
  0
ARC
  8
0
  6
CONTINUOUS
 62
256
 10
-261.138955866097600
 20
-118.245221114652150
 40
0.999999999999911
 50
323.186145655802870
 51
59.999999999997016
  0
ARC
  8
0
  6
CONTINUOUS
 62
256
 10
-281.256257654029470
 20
-126.836164758657330
 40
0.999999999999975
 50
97.589542391854238
 51
180.000000000000000
  0
ARC
  8
0
  6
CONTINUOUS
 62
256
 10
-281.256257654029470
 20
-138.406786170555080
 40
1.000000000000000
 50
180.000000000000000
 51
275.284732954535800
  0
ARC
  8
0
  6
CONTINUOUS
 62
256
 10
-281.256257654029470
 20
-135.392873984261800
 40
0.999999999999973
 50
95.739170477261709
 51
180.000000000000000
  0
ARC
  8
0
  6
CONTINUOUS
 62
256
 10
-256.347303759705030
 20
-121.011682748141310
 40
0.999999999999885
 50
59.999999999996206
 51
144.260829522736400
  0
ARC
  8
0
  6
CONTINUOUS
 62
256
 10
-253.737179241599280
 20
-122.518638841288290
 40
0.999999999999776
 50
324.715267045465680
 51
60.000000000002032
  0
CIRCLE
  8
0
  6
CONTINUOUS
 62
256
 10
-284.756257654029470
 20
-100.568313685530010
 40
5.000000000000000
  0
ARC
  8
0
  6
CONTINUOUS
 62
256
 10
-250.237179241599280
 20
-116.456461014797010
 40
0.999999999999885
 50
239.999999999996160
 51
335.284732954544490
  0
LINE
  8
0
  6
CONTINUOUS
 62
256
 10
-250.737179241599280
 20
-117.322486418581320
 11
-253.347303759705030
 21
-115.815530325434790
  0
ARC
  8
0
  6
CONTINUOUS
 62
256
 10
-284.756257654029470
 20
-100.568313685530010
 40
39.000000000000220
 50
335.284732954534830
 51
24.715267045465190
  0
ARC
  8
0
  6
CONTINUOUS
 62
256
 10
-284.756257654029470
 20
-100.568313685530010
 40
34.000000000000007
 50
335.739170477266780
 51
24.260829522733218
  0
ARC
  8
0
  6
CONTINUOUS
 62
256
 10
-284.756257654029470
 20
-100.568313685530010
 40
25.500000000000085
 50
337.589542391857490
 51
22.410457608142028
  0
ARC
  8
0
  6
CONTINUOUS
 62
256
 10
-284.756257654029470
 20
-100.568313685530010
 40
30.499999999999954
 50
336.813854344181150
 51
23.186145655818844
  0
ARC
  8
0
  6
CONTINUOUS
 62
256
 10
-257.638955866097600
 20
-112.183043288161340
 40
1.000000000000082
 50
240.000000000002670
 51
336.813854344180360
  0
LINE
  8
0
  6
CONTINUOUS
 62
256
 10
-258.138955866097600
 20
-113.049068691945880
 11
-260.757631321875120
 21
-111.537175712632920
  0
ARC
  8
0
  6
CONTINUOUS
 62
256
 10
-284.756257654029470
 20
-100.568313685530010
 40
22.000000000000206
 50
339.594068226860770
 51
20.405931773139223
  0
ARC
  8
0
  6
CONTINUOUS
 62
256
 10
-252.847303759705030
 20
-114.949504921650250
 40
0.999999999999769
 50
155.739170477266270
 51
240.000000000003440
  0
ARC
  8
0
  6
CONTINUOUS
 62
256
 10
-260.257631321875120
 20
-110.671150308848380
 40
0.999999999999701
 50
157.589542391853970
 51
240.000000000001820
  0
ARC
  8
0
  6
CONTINUOUS
 62
256
 10
-265.074093813600030
 20
-107.890364392708760
 40
0.999999999999885
 50
239.999999999996160
 51
339.594068226861740
  0
ARC
  8
0
  6
CONTINUOUS
 62
256
 10
-284.756257654029470
 20
-100.568313685530010
 40
17.000000000000146
 50
341.212271417650070
 51
18.787728582350436
  0
LINE
  8
0
  6
CONTINUOUS
 62
256
 10
-265.574093813600030
 20
-108.756389796493050
 11
-268.215328970656630
 21
-107.231471967573480
  0
ARC
  8
0
  6
CONTINUOUS
 62
256
 10
-267.715328970656630
 20
-106.365446563789190
 40
0.999999999999646
 50
161.212271417644640
 51
239.999999999995770
  0
ARC
  8
0
  6
CONTINUOUS
 62
256
 10
-284.756257654029470
 20
-100.568313685530010
 40
13.500000000000130
 50
346.260204708311850
 51
13.739795291688171
  0
ARC
  8
0
  6
CONTINUOUS
 62
256
 10
-272.613952808615980
 20
-103.537224772284620
 40
0.999999999999885
 50
239.999999999996160
 51
346.260204708314010
  0
LINE
  8
0
  6
CONTINUOUS
 62
256
 10
-273.113952808615980
 20
-104.403250176068920
 11
-275.857728383640280
 21
-102.819130609232840
  0
ARC
  8
0
  6
CONTINUOUS
 62
256
 10
-272.613952808615980
 20
-97.599402598775441
 40
0.999999999999879
 50
13.739795291686027
 51
120.000000000003810
  0
ARC
  8
0
  6
CONTINUOUS
 62
256
 10
-284.756257654029470
 20
-100.568313685530010
 40
8.499999999999972
 50
351.618272422157820
 51
8.381727577842204
  0
ARC
  8
0
  6
CONTINUOUS
 62
256
 10
-275.357728383640280
 20
-101.953105205448520
 40
1.000000000000059
 50
171.618272422154460
 51
239.999999999995050
  0
ARC
  8
0
  6
CONTINUOUS
 62
256
 10
-265.074093813600030
 20
-93.246262978351297
 40
1.000000000000094
 50
20.405931773138683
 51
120.000000000004160
  0
LINE
  8
0
  6
CONTINUOUS
 62
256
 10
-265.574093813600030
 20
-92.380237574566991
 11
-268.215328970656630
 21
-93.905155403486333
  0
ARC
  8
0
  6
CONTINUOUS
 62
256
 10
-267.715328970656630
 20
-94.771180807270866
 40
1.000000000000082
 50
119.999999999997300
 51
198.787728582347000
  0
LINE
  8
0
  6
CONTINUOUS
 62
256
 10
-273.113952808615980
 20
-96.733377194991135
 11
-275.857728383640280
 21
-98.317496761827215
  0
ARC
  8
0
  6
CONTINUOUS
 62
256
 10
-275.357728383640280
 20
-99.183522165611748
 40
1.000000000000082
 50
119.999999999997300
 51
188.381727577833000
  0
ARC
  8
0
  6
CONTINUOUS
 62
256
 10
-252.847303759705030
 20
-86.187122449409571
 40
0.999999999999885
 50
120.000000000003810
 51
204.260829522745640
  0
LINE
  8
0
  6
CONTINUOUS
 62
256
 10
-250.737179241599280
 20
-83.814140952478510
 11
-253.347303759705030
 21
-85.321097045625265
  0
ARC
  8
0
  6
CONTINUOUS
 62
256
 10
-250.237179241599280
 20
-84.680166356263044
 40
1.000000000000249
 50
24.715267045455473
 51
119.999999999997440
  0
ARC
  8
0
  6
CONTINUOUS
 62
256
 10
-260.257631321875120
 20
-90.465477062211903
 40
1.000000000000082
 50
119.999999999997300
 51
202.410457608146120
  0
LINE
  8
0
  6
CONTINUOUS
 62
256
 10
-258.138955866097600
 20
-88.087558679114181
 11
-260.757631321875120
 21
-89.599451658427370
  0
ARC
  8
0
  6
CONTINUOUS
 62
256
 10
-257.638955866097600
 20
-88.953584082898715
 40
0.999999999999730
 50
23.186145655819846
 51
119.999999999997370
  0
ARC
  8
0
  6
CONTINUOUS
 62
256
 10
-284.756257654029470
 20
-100.568313685530010
 40
38.999999999999865
 50
35.284732954534789
 51
84.715267045465410
  0
ARC
  8
0
  6
CONTINUOUS
 62
256
 10
-284.756257654029470
 20
-100.568313685530010
 40
33.999999999999829
 50
35.739170477266640
 51
84.260829522733033
  0
ARC
  8
0
  6
CONTINUOUS
 62
256
 10
-284.756257654029470
 20
-100.568313685530010
 40
25.499999999999890
 50
37.589542391857954
 51
82.410457608141925
  0
ARC
  8
0
  6
CONTINUOUS
 62
256
 10
-284.756257654029470
 20
-100.568313685530010
 40
30.499999999999964
 50
36.813854344181067
 51
83.186145655818933
  0
ARC
  8
0
  6
CONTINUOUS
 62
256
 10
-284.756257654029470
 20
-100.568313685530010
 40
22.000000000000025
 50
39.594068226860820
 51
80.405931773138747
  0
ARC
  8
0
  6
CONTINUOUS
 62
256
 10
-284.756257654029470
 20
-100.568313685530010
 40
17.000000000000114
 50
41.212271417649752
 51
78.787728582350042
  0
ARC
  8
0
  6
CONTINUOUS
 62
256
 10
-284.756257654029470
 20
-100.568313685530010
 40
13.499999999999927
 50
46.260204708312138
 51
73.739795291689092
  0
ARC
  8
0
  6
CONTINUOUS
 62
256
 10
-281.256257654029470
 20
-88.568313685530029
 40
0.999999999999964
 50
73.739795291702634
 51
180.000000000000000
  0
LINE
  8
0
  6
CONTINUOUS
 62
256
 10
-282.256257654029470
 20
-88.568313685530029
 11
-282.256257654029470
 21
-91.736552819202188
  0
ARC
  8
0
  6
CONTINUOUS
 62
256
 10
-276.113952808615980
 20
-91.537224772284617
 40
0.999999999999885
 50
300.000000000003810
 51
46.260204708329255
  0
ARC
  8
0
  6
CONTINUOUS
 62
256
 10
-284.756257654029470
 20
-100.568313685530010
 40
8.500000000000128
 50
51.618272422158320
 51
68.381727577842469
  0
ARC
  8
0
  6
CONTINUOUS
 62
256
 10
-281.256257654029470
 20
-91.736552819202188
 40
1.000000000000000
 50
180.000000000000000
 51
248.381727577839200
  0
ARC
  8
0
  6
CONTINUOUS
 62
256
 10
-268.574093813600480
 20
-87.184085151860018
 40
1.000000000000082
 50
299.999999999997270
 51
39.594068226849963
  0
LINE
  8
0
  6
CONTINUOUS
 62
256
 10
-268.074093813600480
 20
-88.050110555644551
 11
-270.715328970656630
 21
-89.575028384564121
  0
ARC
  8
0
  6
CONTINUOUS
 62
256
 10
-271.215328970656630
 20
-88.709002980779815
 40
0.999999999999673
 50
221.212271417651180
 51
300.000000000003410
  0
LINE
  8
0
  6
CONTINUOUS
 62
256
 10
-275.613952808615980
 20
-92.403250176068923
 11
-278.357728383640280
 21
-93.987369742905003
  0
ARC
  8
0
  6
CONTINUOUS
 62
256
 10
-278.857728383640280
 20
-93.121344339120469
 40
0.999999999999961
 50
231.618272422159780
 51
299.999999999997330
  0
ARC
  8
0
  6
CONTINUOUS
 62
256
 10
-256.347303759705030
 20
-80.124944622918747
 40
0.999999999999940
 50
215.739170477274090
 51
300.000000000003980
  0
LINE
  8
0
  6
CONTINUOUS
 62
256
 10
-253.237179241599280
 20
-79.484013933556298
 11
-255.847303759705030
 21
-80.990970026703053
  0
ARC
  8
0
  6
CONTINUOUS
 62
256
 10
-253.737179241599280
 20
-78.617988529771992
 40
0.999999999999885
 50
300.000000000003810
 51
35.284732954545220
  0
ARC
  8
0
  6
CONTINUOUS
 62
256
 10
-263.757631321875120
 20
-84.403299235720851
 40
0.999999999999834
 50
217.589542391867670
 51
299.999999999997730
  0
LINE
  8
0
  6
CONTINUOUS
 62
256
 10
-260.638955866097600
 20
-83.757431660192196
 11
-263.257631321875120
 21
-85.269324639505385
  0
ARC
  8
0
  6
CONTINUOUS
 62
256
 10
-261.138955866097600
 20
-82.891406256407663
 40
1.000000000000082
 50
299.999999999997270
 51
36.813854344187355
  0
ARC
  8
0
  6
CONTINUOUS
 62
256
 10
-281.256257654029470
 20
-62.729841200505007
 40
1.000000000000042
 50
84.715267045464316
 51
180.000000000000000
  0
LINE
  8
0
  6
CONTINUOUS
 62
256
 10
-282.256257654029470
 20
-62.729841200505007
 11
-282.256257654029470
 21
-65.743753386798289
  0
ARC
  8
0
  6
CONTINUOUS
 62
256
 10
-281.256257654029470
 20
-65.743753386798289
 40
1.000000000000000
 50
180.000000000000000
 51
264.260829522738450
  0
ARC
  8
0
  6
CONTINUOUS
 62
256
 10
-281.256257654029470
 20
-71.276676653776349
 40
1.000000000000077
 50
83.186145655820326
 51
180.000000000000000
  0
LINE
  8
0
  6
CONTINUOUS
 62
256
 10
-282.256257654029470
 20
-71.276676653776349
 11
-282.256257654029470
 21
-74.300462612402498
  0
ARC
  8
0
  6
CONTINUOUS
 62
256
 10
-281.256257654029470
 20
-74.300462612402725
 40
1.000000000000000
 50
179.999999999986980
 51
262.410457608142620
  0
ARC
  8
0
  6
CONTINUOUS
 62
256
 10
-281.256257654029470
 20
-79.862034444681512
 40
1.000000000000268
 50
80.405931773124522
 51
180.000000000000000
  0
LINE
  8
0
  6
CONTINUOUS
 62
256
 10
-282.256257654029470
 20
-79.862034444681512
 11
-282.256257654029470
 21
-82.911870102520425
  0
ARC
  8
0
  6
CONTINUOUS
 62
256
 10
-281.256257654029470
 20
-82.911870102520425
 40
1.000000000000000
 50
180.000000000000000
 51
258.787728582356180
  0
LINE
  8
0
  6
CONTINUOUS
 62
256
 10
-336.312724584619450
 20
-57.938157362072161
 11
-328.854029409948450
 21
-50.479462187400486
  0
LINE
  8
0
  6
CONTINUOUS
 62
256
 10
-336.312724584619450
 20
-143.198470008987930
 11
-328.854029409948450
 21
-150.657165183659600
  0
LINE
  8
0
  6
CONTINUOUS
 62
256
 10
-233.199790723439490
 20
-143.198470008987930
 11
-240.658485898110480
 21
-150.657165183659600
  0
LINE
  8
0
  6
CONTINUOUS
 62
256
 10
-233.199790723439490
 20
-57.938157362072161
 11
-240.658485898110480
 21
-50.479462187400486
  0
LINE
  8
0
  6
CONTINUOUS
 62
256
 10
-227.256257654029470
 20
-132.068313685530060
 11
-227.256257654029470
 21
-130.556299539960290
  0
LINE
  8
0
  6
CONTINUOUS
 62
256
 10
-227.256257654029470
 20
-70.575814623267888
 11
-227.256257654029470
 21
-69.068313685530029
  0
LINE
  8
0
  6
CONTINUOUS
 62
256
 10
-227.454808594128280
 20
-69.068313685530029
 11
-227.256257654029470
 21
-69.068313685530029
  0
LINE
  8
0
  6
CONTINUOUS
 62
256
 10
-227.454808594128280
 20
-132.068313685530060
 11
-227.256257654029470
 21
-132.068313685530060
  0
ARC
  8
0
  6
CONTINUOUS
 62
256
 10
-321.746324892175830
 20
-72.504557054514407
 40
20.600000000000069
 50
135.000000000002700
 51
174.247717268463480
  0
ARC
  8
0
  6
CONTINUOUS
 62
256
 10
-321.746324892175830
 20
-128.632070316545650
 40
20.599999999999920
 50
185.752282731536550
 51
224.999999999997390
  0
ARC
  8
0
  6
CONTINUOUS
 62
256
 10
-247.766190415883100
 20
-128.632070316545650
 40
20.600000000000090
 50
315.000000000002670
 51
354.247717268463480
  0
ARC
  8
0
  6
CONTINUOUS
 62
256
 10
-247.766190415883100
 20
-72.504557054514407
 40
20.599999999999916
 50
5.752282731536487
 51
44.999999999997335
  0
ARC
  8
0
  6
CONTINUOUS
 62
256
 10
-247.766190415883100
 20
-72.504557054514407
 40
10.797000000000011
 50
5.752282731536912
 51
44.999999999998295
  0
INSERT
  8
0
  2
ZU_SYM_3
 10
-366.201079860372830
 20
-141.487270296790510
 50
357.137594773886350
  0
ARC
  8
0
  6
CONTINUOUS
 62
256
 10
-324.256257654029470
 20
-159.568313685530060
 40
2.000000000000000
 50
180.000000000000000
 51
270.000000000000000
  0
LINE
  8
0
  6
CONTINUOUS
 62
256
 10
-315.006257654029470
 20
-159.568313685530060
 11
-315.006257654029470
 21
-157.068313685530110
  0
ARC
  8
0
  6
CONTINUOUS
 62
256
 10
-314.006257654029470
 20
-159.568313685530060
 40
1.000000000000000
 50
180.000000000000000
 51
270.000000000000000
  0
ARC
  8
0
  6
CONTINUOUS
 62
256
 10
-325.693947953006730
 20
-153.987076237294760
 40
1.000000000000073
 50
211.339195329083590
 51
330.462177926966770
  0
ARC
  8
0
  6
CONTINUOUS
 62
256
 10
-255.506257654029470
 20
-159.568313685530060
 40
1.000000000000000
 50
270.000000000000000
 51
0.000000000000000
  0
ARC
  8
0
  6
CONTINUOUS
 62
256
 10
-243.818567355052210
 20
-153.987076237294760
 40
1.000000000000014
 50
209.537822073033400
 51
328.660804670916090
  0
ARC
  8
0
  6
CONTINUOUS
 62
256
 10
-284.756257654029700
 20
-835.068313685530030
 40
799.999999999999890
 50
88.510141843146044
 51
90.000000000000000
  0
LINE
  8
0
  6
CONTINUOUS
 62
256
 10
-254.506257654029470
 20
-159.568313685530060
 11
-254.506257654029470
 21
-157.068313685530110
  0
ARC
  8
0
  6
CONTINUOUS
 62
256
 10
-258.006257654029470
 20
-36.861176604066372
 40
1.000000000000000
 50
0.000000000000000
 51
81.491323261727445
  0
LINE
  8
0
  6
CONTINUOUS
 62
256
 10
-257.006257654029470
 20
-36.861176604066372
 11
-257.006257654029470
 21
-44.568313685530143
  0
LINE
  8
0
  6
CONTINUOUS
 62
256
 10
-246.506257654029470
 20
-40.478378754886421
 11
-246.506257654029470
 21
-44.568313685530143
  0
ARC
  8
0
  6
CONTINUOUS
 62
256
 10
-245.506257654029470
 20
-40.478378754886421
 40
1.000000000000052
 50
66.230309577334467
 51
180.000000000000000
  0
ARC
  8
0
  6
CONTINUOUS
 62
256
 10
-324.006257654029470
 20
-40.478378754886421
 40
1.000000000000000
 50
0.000000000000000
 51
113.769690422666680
  0
ARC
  8
0
  6
CONTINUOUS
 62
256
 10
-311.506257654029470
 20
-36.861176604066372
 40
1.000000000000061
 50
98.508676738272086
 51
180.000000000000000
  0
LINE
  8
0
  6
CONTINUOUS
 62
256
 10
-323.006257654029470
 20
-40.478378754886421
 11
-323.006257654029470
 21
-44.568313685530143
  0
LINE
  8
0
  6
CONTINUOUS
 62
256
 10
-312.506257654029470
 20
-36.861176604066372
 11
-312.506257654029470
 21
-44.568313685530143
  0
ARC
  8
0
  6
CONTINUOUS
 62
256
 10
-245.256257654029470
 20
-159.568313685530060
 40
2.000000000000000
 50
270.000000000000000
 51
0.000000000000000
  0
ARC
  8
0
  6
CONTINUOUS
 62
256
 10
-249.256257654029470
 20
-156.568313685530060
 40
7.000000000000012
 50
214.849904579046410
 51
225.584691402807270
  0
ARC
  8
0
  6
CONTINUOUS
 62
256
 10
-320.256257654029470
 20
-156.568313685530110
 40
6.999999999999971
 50
314.415308597192730
 51
325.150095420953510
  0
ARC
  8
0
  6
CONTINUOUS
 62
256
 10
-324.256257654029470
 20
-159.568313685530110
 40
2.000000000000000
 50
180.000000000000000
 51
270.000000000000000
  0
ARC
  8
0
  6
CONTINUOUS
 62
256
 10
-284.756257654029470
 20
-835.068313685530030
 40
800.000000000000000
 50
90.000000000000000
 51
91.489858156853941
  0
ARC
  8
0
  6
CONTINUOUS
 62
256
 10
-328.256257654029470
 20
-155.547386782040660
 40
2.000000000000000
 50
0.000000000000000
 51
57.246536473974864
  0
ARC
  8
0
  6
CONTINUOUS
 62
256
 10
-241.256257654029470
 20
-155.547386782040600
 40
1.999999999999969
 50
122.753463526025580
 51
180.000000000000000
  0
LINE
  8
0
  6
CONTINUOUS
 62
256
 10
-254.155237139595780
 20
-161.568313685530060
 11
-245.256257654029470
 21
-161.568313685530060
  0
LINE
  8
0
  6
CONTINUOUS
 62
256
 10
-315.357278168463150
 20
-161.568313685530110
 11
-324.256257654029470
 21
-161.568313685530110
  0
LINE
  8
0
  6
CONTINUOUS
 62
256
 10
-326.256257654029470
 20
-159.568313685530110
 11
-326.256257654029470
 21
-155.547386782040660
  0
LINE
  8
0
  6
CONTINUOUS
 62
256
 10
-284.756257654029470
 20
-160.568313685530060
 11
-314.511695007491430
 21
-160.568313685530110
  0
LINE
  8
0
  6
CONTINUOUS
 62
256
 10
-284.756257654029470
 20
-160.568313685530060
 11
-255.000820300567510
 21
-160.568313685530060
  0
LINE
  8
0
  6
CONTINUOUS
 62
256
 10
-243.256257654029470
 20
-159.568313685530060
 11
-243.256257654029470
 21
-155.547386782040600
  0
ARC
  8
0
  6
CONTINUOUS
 62
256
 10
-329.256257654029470
 20
-156.088549553598140
 40
1.000000000000000
 50
0.000000000000000
 51
56.441102362307404
  0
LINE
  8
0
  6
CONTINUOUS
 62
256
 10
-333.256257654029470
 20
-162.068313685530060
 11
-357.256257654029470
 21
-162.068313685530060
  0
LINE
  8
0
  6
CONTINUOUS
 62
256
 10
-236.256257654029470
 20
-162.068313685530060
 11
-212.256257654029470
 21
-162.068313685530060
  0
ARC
  8
0
  6
CONTINUOUS
 62
256
 10
-249.256257654029470
 20
-157.068313685530060
 40
6.999999999999984
 50
210.000000000000060
 51
220.005200884860020
  0
LINE
  8
0
  6
DIVIDE
 62
256
 10
-333.256257654029470
 20
-152.794363358000880
 11
-333.256257654029470
 21
-151.709237177516710
  0
LINE
  8
0
  6
DIVIDE
 62
256
 10
-328.256257654029470
 20
-156.088549553598140
 11
-328.256257654029470
 21
-155.547386782040630
  0
ARC
  8
0
  6
DIVIDE
 62
256
 10
-307.697295831036400
 20
-123.589147018863510
 40
38.000000000000028
 50
236.441102362305370
 51
237.246536473976620
  0
ARC
  8
0
  6
CONTINUOUS
 62
256
 10
-237.256257654029470
 20
-162.568313685530060
 40
1.000000000000000
 50
0.000000000000000
 51
90.000000000000000
  0
ARC
  8
0
  6
CONTINUOUS
 62
256
 10
-233.756257654029470
 20
-152.794363358000880
 40
2.500000000000053
 50
133.853266061871690
 51
180.000000000000000
  0
LINE
  8
0
  6
CONTINUOUS
 62
256
 10
-333.256257654029470
 20
-162.568313685530060
 11
-357.256257654029470
 21
-162.568313685530060
  0
LINE
  8
0
  6
CONTINUOUS
 62
256
 10
-236.256257654029470
 20
-162.568313685530060
 11
-212.256257654029470
 21
-162.568313685530060
  0
LINE
  8
0
  6
CONTINUOUS
 62
256
 10
-338.342095269748600
 20
-147.568313685530060
 11
-354.756257654029470
 21
-147.568313685530060
  0
LINE
  8
0
  6
CONTINUOUS
 62
256
 10
-333.256257654029470
 20
-162.568313685530060
 11
-333.256257654029470
 21
-152.794363358000880
  0
ARC
  8
0
  6
CONTINUOUS
 62
256
 10
-307.697295831036400
 20
-123.589147018863510
 40
38.000000000000092
 50
210.000000000000340
 51
236.441102362305370
  0
ARC
  8
0
  6
CONTINUOUS
 62
256
 10
-335.756257654029470
 20
-152.794363358000880
 40
2.500000000000000
 50
0.000000000000000
 51
46.146733938128797
  0
ARC
  8
0
  6
CONTINUOUS
 62
256
 10
-338.342095269748600
 20
-150.068313685530060
 40
2.500000000000007
 50
40.829220687604838
 51
90.000000000000000
  0
LINE
  8
0
  6
CONTINUOUS
 62
256
 10
-231.170420038310340
 20
-147.568313685530060
 11
-214.756257654029470
 21
-147.568313685530060
  0
ARC
  8
0
  6
CONTINUOUS
 62
256
 10
-231.170420038310340
 20
-150.068313685530060
 40
2.500000000000000
 50
90.000000000000000
 51
139.170779312395180
  0
LINE
  8
0
  6
CONTINUOUS
 62
256
 10
-228.906254133213910
 20
-142.589147018863770
 11
-223.698073579898850
 21
-133.568313685530060
  0
LINE
  8
0
  6
CONTINUOUS
 62
256
 10
-236.256257654029470
 20
-162.568313685530060
 11
-236.256257654029470
 21
-152.794363358000880
  0
ARC
  8
0
  6
CONTINUOUS
 62
256
 10
-261.815219477022540
 20
-123.589147018863510
 40
37.999999999999979
 50
303.558897637694710
 51
329.999999999999600
  0
ARC
  8
0
  6
CONTINUOUS
 62
256
 10
-240.256257654029470
 20
-156.088549553598140
 40
0.999999999999869
 50
123.558897637693490
 51
180.000000000000000
  0
LINE
  8
0
  6
CONTINUOUS
 62
256
 10
-241.256257654029470
 20
-160.568313685530060
 11
-241.256257654029470
 21
-156.088549553598140
  0
ARC
  8
0
  6
CONTINUOUS
 62
256
 10
-240.256257654029470
 20
-160.568313685530060
 40
1.000000000000000
 50
180.000000000000000
 51
270.000000000000000
  0
ARC
  8
0
  6
CONTINUOUS
 62
256
 10
-332.256257654029470
 20
-162.568313685530060
 40
1.000000000000000
 50
90.000000000000000
 51
180.000000000000000
  0
LINE
  8
0
  6
CONTINUOUS
 62
256
 10
-328.256257654029470
 20
-160.568313685530060
 11
-328.256257654029470
 21
-156.088549553598140
  0
ARC
  8
0
  6
CONTINUOUS
 62
256
 10
-329.256257654029470
 20
-160.568313685530060
 40
1.000000000000000
 50
270.000000000000000
 51
0.000000000000000
  0
ARC
  8
0
  6
CONTINUOUS
 62
256
 10
-241.256257654029470
 20
-155.547386782040600
 40
1.999999999999969
 50
122.753463526025580
 51
180.000000000000000
  0
LINE
  8
0
  6
CONTINUOUS
 62
256
 10
-243.256257654029470
 20
-159.568313685530060
 11
-243.256257654029470
 21
-155.547386782040600
  0
ARC
  8
0
  6
CONTINUOUS
 62
256
 10
-245.256257654029470
 20
-159.568313685530060
 40
2.000000000000000
 50
270.000000000000000
 51
0.000000000000000
  0
LINE
  8
0
  6
CONTINUOUS
 62
256
 10
-326.256257654029470
 20
-159.568313685530060
 11
-326.256257654029470
 21
-155.547386782040600
  0
ARC
  8
0
  6
CONTINUOUS
 62
256
 10
-328.256257654029470
 20
-155.547386782040600
 40
2.000000000000000
 50
0.000000000000000
 51
57.246536473974864
  0
ARC
  8
0
  6
CONTINUOUS
 62
256
 10
-324.256257654029470
 20
-159.568313685530060
 40
2.000000000000000
 50
180.000000000000000
 51
270.000000000000000
  0
LINE
  8
0
  6
DASHDOT
 62
256
 10
-347.256257654029470
 20
-166.865708018415750
 11
-347.256257654029470
 21
-143.605073311199280
  0
LINE
  8
0
  6
CONTINUOUS
 62
256
 10
-254.618160301411310
 20
-161.568313685530060
 11
-237.256257654029470
 21
-161.568313685530060
  0
LINE
  8
0
  6
CONTINUOUS
 62
256
 10
-284.756257654029470
 20
-160.568313685530060
 11
-255.318435480520520
 21
-160.568313685530060
  0
ARC
  8
0
  6
CONTINUOUS
 62
256
 10
-320.256257654029470
 20
-157.068313685530060
 40
7.000000000000027
 50
319.994799115139980
 51
329.999999999999940
  0
LINE
  8
0
  6
CONTINUOUS
 62
256
 10
-284.756257654029470
 20
-160.568313685530060
 11
-314.194079827538420
 21
-160.568313685530060
  0
LINE
  8
0
  6
CONTINUOUS
 62
256
 10
-314.894355006647630
 20
-161.568313685530060
 11
-332.256257654029470
 21
-161.568313685530060
  0
LINE
  8
0
  6
CONTINUOUS
 62
256
 10
-340.606261174845030
 20
-142.589147018863770
 11
-345.525766593565320
 21
-134.068313685530000
  0
LINE
  8
0
  6
CONTINUOUS
 62
256
 10
-357.256257654029470
 20
-162.568313685530060
 11
-357.256257654029470
 21
-150.068313685530060
  0
ARC
  8
0
  6
CONTINUOUS
 62
256
 10
-356.256257654029470
 20
-145.825672998410850
 40
1.999999999999821
 50
289.471220634487910
 51
0.000000000000000
  0
ARC
  8
0
  6
CONTINUOUS
 62
256
 10
-354.756257654029470
 20
-150.068313685530060
 40
2.500000000000000
 50
90.000000000000000
 51
180.000000000000000
  0
LINE
  8
0
  6
DASHDOT
 62
256
 10
-222.256257654029470
 20
-166.865708018415750
 11
-222.256257654029470
 21
-143.605073311199280
  0
ARC
  8
0
  6
CONTINUOUS
 62
256
 10
-214.756257654029470
 20
-150.068313685530060
 40
2.500000000000000
 50
0.000000000000000
 51
90.000000000000000
  0
ARC
  8
0
  6
CONTINUOUS
 62
256
 10
-213.256257654029470
 20
-145.825672998410850
 40
2.000000000000000
 50
180.000000000000000
 51
250.528779365506010
  0
ARC
  8
0
  6
CONTINUOUS
 62
256
 10
-221.388672503140240
 20
-135.568313685530060
 40
3.000000000000000
 50
90.000000000000000
 51
149.999999999998780
  0
ARC
  8
0
  6
CONTINUOUS
 62
256
 10
-218.256257654029470
 20
-135.568313685530170
 40
3.000000000000000
 50
0.000000000000000
 51
90.000000000000000
  0
LINE
  8
0
  6
CONTINUOUS
 62
256
 10
-221.388672503140240
 20
-132.568313685530060
 11
-218.256257654029470
 21
-132.568313685530060
  0
ARC
  8
0
  6
CONTINUOUS
 62
256
 10
-348.123842804918700
 20
-135.568313685530060
 40
3.000000000000106
 50
30.000000000001339
 51
90.000000000000000
  0
ARC
  8
0
  6
CONTINUOUS
 62
256
 10
-351.256257654029470
 20
-135.568313685530170
 40
3.000000000000114
 50
90.000000000000000
 51
180.000000000000000
  0
LINE
  8
0
  6
CONTINUOUS
 62
256
 10
-348.123842804918700
 20
-132.568313685530060
 11
-351.256257654029470
 21
-132.568313685530060
  0
LINE
  8
0
  6
CONTINUOUS
 62
256
 10
-212.256257654029470
 20
-162.568313685530060
 11
-212.256257654029470
 21
-150.068313685530060
  0
LINE
  8
0
  6
CONTINUOUS
 62
256
 10
-249.756258843807930
 20
-45.723012996267244
 11
-251.756259597920920
 21
-46.877711210738084
  0
LINE
  8
0
  6
CONTINUOUS
 62
256
 10
-253.756256385540720
 20
-43.413613704979639
 11
-251.756255218474280
 21
-42.258914463068322
  0
LINE
  8
0
  6
CONTINUOUS
 62
256
 10
-251.756259956221130
 20
-46.877710886376917
 11
-253.756254653691940
 21
-45.723009761474259
  0
LINE
  8
0
  6
CONTINUOUS
 62
256
 10
-249.756259567982400
 20
-43.413617930328542
 11
-251.756255229009870
 21
-42.258914750542203
  0
LINE
  8
0
  6
CONTINUOUS
 62
256
 10
-249.756260038214010
 20
-43.413618302432496
 11
-249.756259084539810
 21
-45.723013138858278
  0
LINE
  8
0
  6
CONTINUOUS
 62
256
 10
-253.756255269844930
 20
-45.723010022301196
 11
-253.756256223519130
 21
-43.413613278526782
  0
LINE
  8
0
  6
CONTINUOUS
 62
256
 10
-319.756256464251120
 20
-45.723012996267244
 11
-317.756255710138130
 21
-46.877711210738084
  0
LINE
  8
0
  6
CONTINUOUS
 62
256
 10
-315.756258922518210
 20
-43.413613704979639
 11
-317.756260089584660
 21
-42.258914463068322
  0
LINE
  8
0
  6
CONTINUOUS
 62
256
 10
-317.756255351837810
 20
-46.877710886376917
 11
-315.756260654367000
 21
-45.723009761474259
  0
LINE
  8
0
  6
CONTINUOUS
 62
256
 10
-319.756255740076540
 20
-43.413617930328542
 11
-317.756260079049070
 21
-42.258914750542203
  0
LINE
  8
0
  6
CONTINUOUS
 62
256
 10
-319.756255269844930
 20
-43.413618302432496
 11
-319.756256223519130
 21
-45.723013138858278
  0
LINE
  8
0
  6
CONTINUOUS
 62
256
 10
-315.756260038214010
 20
-45.723010022301196
 11
-315.756259084539810
 21
-43.413613278526782
  0
LINE
  8
0
  6
CONTINUOUS
 62
256
 10
-247.256258843807930
 20
-158.223012996267270
 11
-249.256259597920920
 21
-159.377711210738110
  0
LINE
  8
0
  6
CONTINUOUS
 62
256
 10
-251.256256385540720
 20
-155.913613704979720
 11
-249.256255218474280
 21
-154.758914463068350
  0
LINE
  8
0
  6
CONTINUOUS
 62
256
 10
-249.256259956221130
 20
-159.377710886377000
 11
-251.256254653691940
 21
-158.223009761474340
  0
LINE
  8
0
  6
CONTINUOUS
 62
256
 10
-247.256259567982400
 20
-155.913617930328570
 11
-249.256255229009870
 21
-154.758914750542230
  0
LINE
  8
0
  6
CONTINUOUS
 62
256
 10
-247.256260038214010
 20
-155.913618302432580
 11
-247.256259084539810
 21
-158.223013138858360
  0
LINE
  8
0
  6
CONTINUOUS
 62
256
 10
-251.256255269844930
 20
-158.223010022301280
 11
-251.256256223519130
 21
-155.913613278526870
  0
LINE
  8
0
  6
CONTINUOUS
 62
256
 10
-322.256256464251120
 20
-158.223012996267270
 11
-320.256255710138130
 21
-159.377711210738110
  0
LINE
  8
0
  6
CONTINUOUS
 62
256
 10
-318.256258922518210
 20
-155.913613704979720
 11
-320.256260089584660
 21
-154.758914463068350
  0
LINE
  8
0
  6
CONTINUOUS
 62
256
 10
-320.256255351837810
 20
-159.377710886377000
 11
-318.256260654367000
 21
-158.223009761474340
  0
LINE
  8
0
  6
CONTINUOUS
 62
256
 10
-322.256255740076540
 20
-155.913617930328570
 11
-320.256260079049070
 21
-154.758914750542230
  0
LINE
  8
0
  6
CONTINUOUS
 62
256
 10
-322.256255269844930
 20
-155.913618302432580
 11
-322.256256223519130
 21
-158.223013138858360
  0
LINE
  8
0
  6
CONTINUOUS
 62
256
 10
-318.256260038214010
 20
-158.223010022301280
 11
-318.256259084539810
 21
-155.913613278526870
  0
TEXT
  8
0
  6
CONTINUOUS
 62
256
 10
-317.074401855468750
 20
54.633457183837891
 40
7.919999599456787
  1
ＳＣＡＬＥ１／１
 50
0.000002504478167
 41
0.984848598876354
  7
STANDARD1
  0
TEXT
  8
0
  6
CONTINUOUS
 62
256
 10
-317.074401855468750
 20
67.353454589843750
 40
7.919999599456787
  1
１／４０,１／５０
 50
0.000002504478167
 41
0.893116103600776
  7
STANDARD1
  0
TEXT
  8
0
  6
CONTINUOUS
 62
256
 10
-317.074401855468750
 20
80.073455810546875
 40
7.919999599456787
  1
０．２ｋＷ
 50
0.000002504478167
 41
0.984848598876354
  7
STANDARD1
  0
TEXT
  8
0
  6
CONTINUOUS
 62
256
 10
-317.074401855468750
 20
92.793457031250000
 40
7.919999599456787
  1
ＧＭ－ＳＳ
 50
0.000002504478167
 41
0.984848598876354
  7
STANDARD1
  0
TEXT
  8
0
  6
CONTINUOUS
 62
256
 10
-317.074401855468750
 20
105.513458251953120
 40
7.919999599456787
  1
三菱ギヤードモートル
 50
0.000002504478167
 41
0.984848598876354
  7
STANDARD1
  0
TEXT
  8
0
  6
CONTINUOUS
 62
256
 10
-317.074401855468750
 20
118.233459472656250
 40
7.919999599456787
  1
Ｓ０４０
 50
0.000002504478167
 41
0.984848598876354
  7
STANDARD1
  0
LINE
  8
0
  6
CONTINUOUS
 62
256
 10
-234.339544290298680
 20
-56.798403795212735
 11
-233.852740898593080
 21
-56.311600403507114
  0
LINE
  8
0
  6
CONTINUOUS
 62
256
 10
-240.986347763712420
 20
-50.151600321799023
 11
-240.499544372006800
 21
-49.664796930093402
  0
LINE
  8
0
  6
CONTINUOUS
 62
256
 10
-234.026405681329920
 20
-56.545856844362369
 11
-240.703504983802820
 21
-49.868757541889444
  0
LINE
  8
0
  6
CONTINUOUS
 62
256
 10
-234.339544290298680
 20
-56.798403795212735
 11
-240.986347763712420
 21
-50.151600321799023
  0
POINT
  8
0
  6
CONTINUOUS
 62
256
 10
-237.662946027005550
 20
-53.475002058505879
  0
ARC
  8
0
  6
CONTINUOUS
 62
256
 10
-239.925687591932590
 20
-55.737743623432912
 40
6.099999427795398
 50
354.601910595264830
 51
95.398072101890989
  0
LINE
  8
0
  6
CONTINUOUS
 62
256
 10
-335.172971017760230
 20
-56.798403795212735
 11
-335.659774409465850
 21
-56.311600403507114
  0
LINE
  8
0
  6
CONTINUOUS
 62
256
 10
-328.526167544346550
 20
-50.151600321799023
 11
-329.012970936052170
 21
-49.664796930093402
  0
LINE
  8
0
  6
CONTINUOUS
 62
256
 10
-335.486109626729050
 20
-56.545856844362369
 11
-328.809010324256120
 21
-49.868757541889444
  0
LINE
  8
0
  6
CONTINUOUS
 62
256
 10
-335.172971017760230
 20
-56.798403795212735
 11
-328.526167544346550
 21
-50.151600321799023
  0
POINT
  8
0
  6
CONTINUOUS
 62
256
 10
-331.849569281053390
 20
-53.475002058505879
  0
ARC
  8
0
  6
CONTINUOUS
 62
256
 10
-329.586827716126380
 20
-55.737743623432912
 40
6.099999427795406
 50
84.601927898108485
 51
185.398089404735230
  0
LINE
  8
0
  6
CONTINUOUS
 62
256
 10
-335.172971017760230
 20
-144.338223575847110
 11
-335.659774409465850
 21
-144.825026967552730
  0
LINE
  8
0
  6
CONTINUOUS
 62
256
 10
-328.526167544346550
 20
-150.985027049260850
 11
-329.012970936052170
 21
-151.471830440966440
  0
LINE
  8
0
  6
CONTINUOUS
 62
256
 10
-335.486109626729050
 20
-144.590770526697500
 11
-328.809010324256120
 21
-151.267869829170420
  0
LINE
  8
0
  6
CONTINUOUS
 62
256
 10
-335.172971017760230
 20
-144.338223575847110
 11
-328.526167544346550
 21
-150.985027049260850
  0
POINT
  8
0
  6
CONTINUOUS
 62
256
 10
-331.849569281053390
 20
-147.661625312553980
  0
ARC
  8
0
  6
CONTINUOUS
 62
256
 10
-329.586827716126380
 20
-145.398883747626940
 40
6.099999427795398
 50
174.601910595264910
 51
275.398072101891500
  0
LINE
  8
0
  6
CONTINUOUS
 62
256
 10
-234.339544290298680
 20
-144.338223575847110
 11
-233.852740898593080
 21
-144.825026967552730
  0
LINE
  8
0
  6
CONTINUOUS
 62
256
 10
-240.986347763712420
 20
-150.985027049260850
 11
-240.499544372006800
 21
-151.471830440966440
  0
LINE
  8
0
  6
CONTINUOUS
 62
256
 10
-234.026405681329920
 20
-144.590770526697500
 11
-240.703504983802820
 21
-151.267869829170420
  0
LINE
  8
0
  6
CONTINUOUS
 62
256
 10
-234.339544290298680
 20
-144.338223575847110
 11
-240.986347763712420
 21
-150.985027049260850
  0
POINT
  8
0
  6
CONTINUOUS
 62
256
 10
-237.662946027005550
 20
-147.661625312553980
  0
ARC
  8
0
  6
CONTINUOUS
 62
256
 10
-239.925687591932590
 20
-145.398883747626940
 40
6.099999427795400
 50
264.601927898109010
 51
5.398089404735109
  0
ENDSEC
  0
EOF
