  0
SECTION
  2
HEADER
  9
$FILLMODE
 70
1
  9
$TEXTSTYLE
  7
STANDARD1
  9
$ACADVER
  1
AC1009
  9
$DIMASZ
 40
1.931851648807023
  9
$DIMEXE
 40
2.000000000000000
  9
$DIMEXO
 40
1.000000000000000
  9
$DIMLFAC
 40
1.000000000000000
  9
$DIMSCALE
 40
1.000000000000000
  9
$DIMTAD
 70
1
  9
$DIMTFAC
 40
0.714285731315613
  9
$DIMTXT
 40
2.799999952316284
  9
$LUPREC
 70
3
  9
$TEXTSIZE
 40
2.799999952316284
  9
$REGENMODE
 70
1
  0
ENDSEC
  0
SECTION
  2
TABLES
  0
TABLE
  2
LTYPE
 70
4
  0
LTYPE
  2
CONTINUOUS
 70
64
  3
Solid line
 72
65
 73
0
 40
0.0
  0
LTYPE
  2
DASHED
 70
64
  3
-- -- -- -- -- -- -- -- -- -- -- -- -- -- --
 72
65
 73
2
 40
0.75
 49
0.5
 49
-0.25
  0
LTYPE
  2
DASHDOT
 70
64
  3
__ . __ . __ . __ . __ . __ . __ . __ . __ . __
 72
65
 73
4
 40
1.0
 49
0.5
 49
-0.25
 49
0.0
 49
-0.25
  0
LTYPE
  2
DIVIDE
 70
64
  3
__ . . __ . . __ . . __ . . __ . . __ . . __
 72
65
 73
6
 40
1.25
 49
0.5
 49
-0.25
 49
0.0
 49
-0.25
 49
0.0
 49
-0.25
  0
ENDTAB
  0
TABLE
  2
LAYER
 70
1
  0
LAYER
  2
0
 70
64
 62
2
  6
CONTINUOUS
  0
ENDTAB
  0
TABLE
  2
STYLE
 70
4
  0
STYLE
  2
STANDARD1
 70
64
 40
0.0
 41
1.0
 50
0.0
 71
0
 42
2.799999952316284
  3
MONOTXT
  4
BIGFONT
  0
STYLE
  2
STANDARD2
 70
68
 40
0.0
 41
1.0
 50
0.0
 71
0
 42
2.799999952316284
  3
MONOTXT
  4
BIGFONT
  0
STYLE
  2
STANDARD3
 70
64
 40
0.0
 41
1.0
 50
0.0
 71
0
 42
2.799999952316284
  3
MONOTXT
  4

  0
STYLE
  2
STANDARD4
 70
68
 40
0.0
 41
1.0
 50
0.0
 71
0
 42
2.799999952316284
  3
MONOTXT
  4

  0
ENDTAB
  0
TABLE
  2
VIEW
 70
0
  0
ENDTAB
  0
ENDSEC
  0
SECTION
  2
BLOCKS
  0
BLOCK
  8
0
  2
SYM1
 70
64
 10
0.000000000000000
 20
0.000000000000000
  0
ARC
  8
0
  6
CONTINUOUS
 62
3
 10
-0.979025304317474
 20
-2.200000762939453
 40
1.299999237060547
 50
196.601531107481040
 51
270.000000000000000
  0
ARC
  8
0
  6
CONTINUOUS
 62
3
 10
-0.979025304317474
 20
2.200000762939453
 40
1.299999237060547
 50
90.000000000000000
 51
163.398451589674950
  0
LINE
  8
0
  6
CONTINUOUS
 62
3
 10
-0.000000000000000
 20
-3.500000000000000
 11
-0.979025304317474
 21
-3.500000000000000
  0
LINE
  8
0
  6
CONTINUOUS
 62
3
 10
0.000000000000000
 20
3.500000000000000
 11
-0.979025304317474
 21
3.500000000000000
  0
LINE
  8
0
  6
CONTINUOUS
 62
3
 10
0.000000000000000
 20
-3.500000000000000
 11
-0.000000000000000
 21
3.500000000000000
  0
LINE
  8
0
  6
CONTINUOUS
 62
3
 10
0.000000000000000
 20
-3.500000000000000
 11
-0.000000000000000
 21
3.500000000000000
  0
POINT
  8
0
  6
CONTINUOUS
 62
3
 10
0.000000000000000
 20
0.000000000000000
  0
ARC
  8
0
  6
CONTINUOUS
 62
3
 10
6.399999618530273
 20
0.000000000000000
 40
9.000000000000000
 50
163.398451589674950
 51
196.601531107481040
  0
ENDBLK
  8
0
  0
BLOCK
  8
0
  2
SYM2
 70
64
 10
0.000000000000000
 20
0.000000000000000
  0
LINE
  8
0
  6
CONTINUOUS
 62
3
 10
-0.000000000000000
 20
-5.000000000000000
 11
-6.000000000000000
 21
-5.000000000000000
  0
LINE
  8
0
  6
CONTINUOUS
 62
3
 10
0.000000000000000
 20
5.000000000000000
 11
-6.000000000000000
 21
5.000000000000000
  0
LINE
  8
0
  6
CONTINUOUS
 62
3
 10
-6.000000000000000
 20
-5.000000000000000
 11
-6.000000000000000
 21
5.000000000000000
  0
LINE
  8
0
  6
CONTINUOUS
 62
3
 10
0.000000000000000
 20
5.000000000000000
 11
0.000000000000000
 21
-5.000000000000000
  0
POINT
  8
0
  6
CONTINUOUS
 62
3
 10
0.000000000000000
 20
0.000000000000000
  0
ENDBLK
  8
0
  0
BLOCK
  8
0
  2
SYM3
 70
64
 10
0.000000000000000
 20
0.000000000000000
  0
ARC
  8
0
  6
CONTINUOUS
 62
3
 10
-0.979025304317474
 20
-2.200000762939453
 40
1.299999237060547
 50
196.601531107481040
 51
270.000000000000000
  0
ARC
  8
0
  6
CONTINUOUS
 62
3
 10
-0.979025304317474
 20
2.200000762939453
 40
1.299999237060547
 50
90.000000000000000
 51
163.398451589674950
  0
LINE
  8
0
  6
CONTINUOUS
 62
3
 10
-0.000000000000000
 20
-3.500000000000000
 11
-0.979025304317474
 21
-3.500000000000000
  0
LINE
  8
0
  6
CONTINUOUS
 62
3
 10
0.000000000000000
 20
3.500000000000000
 11
-0.979025304317474
 21
3.500000000000000
  0
LINE
  8
0
  6
CONTINUOUS
 62
3
 10
0.000000000000000
 20
-3.500000000000000
 11
-0.000000000000000
 21
3.500000000000000
  0
LINE
  8
0
  6
CONTINUOUS
 62
3
 10
0.000000000000000
 20
-3.500000000000000
 11
-0.000000000000000
 21
3.500000000000000
  0
POINT
  8
0
  6
CONTINUOUS
 62
3
 10
0.000000000000000
 20
0.000000000000000
  0
ARC
  8
0
  6
CONTINUOUS
 62
3
 10
6.399999618530273
 20
0.000000000000000
 40
9.000000000000000
 50
163.398451589674950
 51
196.601531107481040
  0
ENDBLK
  8
0
  0
ENDSEC
  0
SECTION
  2
ENTITIES
  0
ARC
  8
0
  6
CONTINUOUS
 62
3
 10
-247.636859868203690
 20
-143.103993169176110
 40
6.099999427795399
 50
264.601927898109010
 51
5.398089404735109
  0
POINT
  8
0
  6
CONTINUOUS
 62
3
 10
-245.374118303276650
 20
-145.366734734103150
  0
LINE
  8
0
  6
CONTINUOUS
 62
3
 10
-242.050716566569780
 20
-142.043332997396280
 11
-248.697520039983520
 21
-148.690136470810020
  0
LINE
  8
0
  6
CONTINUOUS
 62
3
 10
-241.737577957601020
 20
-142.295879948246660
 11
-248.414677260073920
 21
-148.972979250719590
  0
LINE
  8
0
  6
CONTINUOUS
 62
3
 10
-248.697520039983520
 20
-148.690136470810020
 11
-248.210716648277900
 21
-149.176939862515610
  0
LINE
  8
0
  6
CONTINUOUS
 62
3
 10
-242.050716566569780
 20
-142.043332997396280
 11
-241.563913174864180
 21
-142.530136389101900
  0
ARC
  8
0
  6
CONTINUOUS
 62
3
 10
-337.297999992397480
 20
-143.103993169176110
 40
6.099999427795398
 50
174.601910595264880
 51
275.398072101891500
  0
POINT
  8
0
  6
CONTINUOUS
 62
3
 10
-339.560741557324490
 20
-145.366734734103150
  0
LINE
  8
0
  6
CONTINUOUS
 62
3
 10
-342.884143294031330
 20
-142.043332997396280
 11
-336.237339820617650
 21
-148.690136470810020
  0
LINE
  8
0
  6
CONTINUOUS
 62
3
 10
-343.197281903000150
 20
-142.295879948246660
 11
-336.520182600527220
 21
-148.972979250719590
  0
LINE
  8
0
  6
CONTINUOUS
 62
3
 10
-336.237339820617650
 20
-148.690136470810020
 11
-336.724143212323270
 21
-149.176939862515610
  0
LINE
  8
0
  6
CONTINUOUS
 62
3
 10
-342.884143294031330
 20
-142.043332997396280
 11
-343.370946685736950
 21
-142.530136389101900
  0
ARC
  8
0
  6
CONTINUOUS
 62
3
 10
-337.297999992397480
 20
-53.442853044982108
 40
6.099999427795406
 50
84.601927898108471
 51
185.398089404735260
  0
POINT
  8
0
  6
CONTINUOUS
 62
3
 10
-339.560741557324490
 20
-51.180111480055075
  0
LINE
  8
0
  6
CONTINUOUS
 62
3
 10
-342.884143294031330
 20
-54.503513216761931
 11
-336.237339820617650
 21
-47.856709743348219
  0
LINE
  8
0
  6
CONTINUOUS
 62
3
 10
-343.197281903000150
 20
-54.250966265911565
 11
-336.520182600527220
 21
-47.573866963438640
  0
LINE
  8
0
  6
CONTINUOUS
 62
3
 10
-336.237339820617650
 20
-47.856709743348219
 11
-336.724143212323270
 21
-47.369906351642598
  0
LINE
  8
0
  6
CONTINUOUS
 62
3
 10
-342.884143294031330
 20
-54.503513216761931
 11
-343.370946685736950
 21
-54.016709825056310
  0
ARC
  8
0
  6
CONTINUOUS
 62
3
 10
-247.636859868203690
 20
-53.442853044982108
 40
6.099999427795398
 50
354.601910595264830
 51
95.398072101890989
  0
POINT
  8
0
  6
CONTINUOUS
 62
3
 10
-245.374118303276650
 20
-51.180111480055075
  0
LINE
  8
0
  6
CONTINUOUS
 62
3
 10
-242.050716566569780
 20
-54.503513216761931
 11
-248.697520039983520
 21
-47.856709743348219
  0
LINE
  8
0
  6
CONTINUOUS
 62
3
 10
-241.737577957601020
 20
-54.250966265911565
 11
-248.414677260073920
 21
-47.573866963438640
  0
LINE
  8
0
  6
CONTINUOUS
 62
3
 10
-248.697520039983520
 20
-47.856709743348219
 11
-248.210716648277900
 21
-47.369906351642598
  0
LINE
  8
0
  6
CONTINUOUS
 62
3
 10
-242.050716566569780
 20
-54.503513216761931
 11
-241.563913174864180
 21
-54.016709825056310
  0
TEXT
  8
0
  6
CONTINUOUS
 62
3
 10
-326.497436523437500
 20
116.343872070312500
 40
7.919999599456787
  1
Ｓ０４１
 50
0.000002504478167
 41
0.984848598876354
  7
STANDARD1
  0
TEXT
  8
0
  6
CONTINUOUS
 62
3
 10
-326.497436523437500
 20
103.623870849609370
 40
7.919999599456787
  1
三菱ギヤードモートル
 50
0.000002504478167
 41
0.984848598876354
  7
STANDARD1
  0
TEXT
  8
0
  6
CONTINUOUS
 62
3
 10
-326.497436523437500
 20
90.903869628906250
 40
7.919999599456787
  1
ＧＭ－ＳＳ
 50
0.000002504478167
 41
0.984848598876354
  7
STANDARD1
  0
TEXT
  8
0
  6
CONTINUOUS
 62
3
 10
-326.497436523437500
 20
78.183868408203125
 40
7.919999599456787
  1
０．２ｋＷ
 50
0.000002504478167
 41
0.984848598876354
  7
STANDARD1
  0
TEXT
  8
0
  6
CONTINUOUS
 62
3
 10
-326.497436523437500
 20
65.463867187500000
 40
7.919999599456787
  1
１／６０～１／１００
 50
0.000002504478167
 41
0.984848598876354
  7
STANDARD1
  0
TEXT
  8
0
  6
CONTINUOUS
 62
3
 10
-326.497436523437500
 20
52.743865966796875
 40
7.919999599456787
  1
ＳＣＡＬＥ１／１
 50
0.000002504478167
 41
0.984848598876354
  7
STANDARD1
  0
ARC
  8
0
  6
CONTINUOUS
 62
4
 10
-255.477362692154200
 20
-70.209666476063603
 40
10.797000000000011
 50
5.752282731536912
 51
44.999999999998295
  0
ARC
  8
0
  6
CONTINUOUS
 62
3
 10
-255.477362692154200
 20
-70.209666476063603
 40
20.599999999999916
 50
5.752282731536487
 51
44.999999999997321
  0
ARC
  8
0
  6
CONTINUOUS
 62
3
 10
-255.477362692154200
 20
-126.337179738094840
 40
20.600000000000069
 50
315.000000000002670
 51
354.247717268463480
  0
ARC
  8
0
  6
CONTINUOUS
 62
3
 10
-329.457497168446930
 20
-126.337179738094840
 40
20.599999999999916
 50
185.752282731536500
 51
224.999999999997330
  0
ARC
  8
0
  6
CONTINUOUS
 62
3
 10
-329.457497168446930
 20
-70.209666476063603
 40
20.600000000000069
 50
135.000000000002670
 51
174.247717268463500
  0
LINE
  8
0
  6
CONTINUOUS
 62
3
 10
-235.165980870399380
 20
-129.773423107079220
 11
-234.967429930300570
 21
-129.773423107079220
  0
LINE
  8
0
  6
CONTINUOUS
 62
3
 10
-235.165980870399380
 20
-66.773423107079225
 11
-234.967429930300570
 21
-66.773423107079225
  0
LINE
  8
0
  6
CONTINUOUS
 62
3
 10
-234.967429930300570
 20
-68.280924044817084
 11
-234.967429930300570
 21
-66.773423107079225
  0
LINE
  8
0
  6
CONTINUOUS
 62
3
 10
-234.967429930300570
 20
-129.773423107079220
 11
-234.967429930300570
 21
-128.261408961509460
  0
LINE
  8
0
  6
CONTINUOUS
 62
3
 10
-240.910962999710590
 20
-55.643266783621357
 11
-248.369658174381580
 21
-48.184571608949682
  0
LINE
  8
0
  6
CONTINUOUS
 62
3
 10
-240.910962999710590
 20
-140.903579430537090
 11
-248.369658174381580
 21
-148.362274605208770
  0
LINE
  8
0
  6
CONTINUOUS
 62
3
 10
-344.023896860890550
 20
-140.903579430537090
 11
-336.565201686219550
 21
-148.362274605208770
  0
LINE
  8
0
  6
CONTINUOUS
 62
3
 10
-344.023896860890550
 20
-55.643266783621357
 11
-336.565201686219550
 21
-48.184571608949682
  0
ARC
  8
0
  6
CONTINUOUS
 62
3
 10
-288.967429930300570
 20
-80.616979524069620
 40
1.000000000000000
 50
180.000000000000000
 51
258.787728582356010
  0
LINE
  8
0
  6
CONTINUOUS
 62
3
 10
-289.967429930300570
 20
-77.567143866230708
 11
-289.967429930300570
 21
-80.616979524069620
  0
ARC
  8
0
  6
CONTINUOUS
 62
3
 10
-288.967429930300570
 20
-77.567143866230708
 40
1.000000000000268
 50
80.405931773124522
 51
180.000000000000000
  0
ARC
  8
0
  6
CONTINUOUS
 62
3
 10
-288.967429930300570
 20
-72.005572033951921
 40
1.000000000000000
 50
179.999999999986980
 51
262.410457608144040
  0
LINE
  8
0
  6
CONTINUOUS
 62
3
 10
-289.967429930300570
 20
-68.981786075325545
 11
-289.967429930300570
 21
-72.005572033951694
  0
ARC
  8
0
  6
CONTINUOUS
 62
3
 10
-288.967429930300570
 20
-68.981786075325545
 40
1.000000000000077
 50
83.186145655820312
 51
180.000000000000000
  0
ARC
  8
0
  6
CONTINUOUS
 62
3
 10
-288.967429930300570
 20
-63.448862808347485
 40
1.000000000000000
 50
180.000000000000000
 51
264.260829522738280
  0
LINE
  8
0
  6
CONTINUOUS
 62
3
 10
-289.967429930300570
 20
-60.434950622054203
 11
-289.967429930300570
 21
-63.448862808347485
  0
ARC
  8
0
  6
CONTINUOUS
 62
3
 10
-288.967429930300570
 20
-60.434950622054203
 40
1.000000000000042
 50
84.715267045464302
 51
180.000000000000000
  0
ARC
  8
0
  6
CONTINUOUS
 62
3
 10
-268.850128142368700
 20
-80.596515677956859
 40
1.000000000000082
 50
299.999999999997270
 51
36.813854344186687
  0
LINE
  8
0
  6
CONTINUOUS
 62
3
 10
-268.350128142368700
 20
-81.462541081741392
 11
-270.968803598146220
 21
-82.974434061054581
  0
ARC
  8
0
  6
CONTINUOUS
 62
3
 10
-271.468803598146220
 20
-82.108408657270047
 40
0.999999999999834
 50
217.589542391867670
 51
299.999999999997270
  0
ARC
  8
0
  6
CONTINUOUS
 62
3
 10
-261.448351517870380
 20
-76.323097951321188
 40
0.999999999999885
 50
300.000000000003810
 51
35.284732954544943
  0
LINE
  8
0
  6
CONTINUOUS
 62
3
 10
-260.948351517870380
 20
-77.189123355105494
 11
-263.558476035976130
 21
-78.696079448252249
  0
ARC
  8
0
  6
CONTINUOUS
 62
3
 10
-264.058476035976130
 20
-77.830054044467943
 40
0.999999999999940
 50
215.739170477274090
 51
300.000000000003810
  0
ARC
  8
0
  6
CONTINUOUS
 62
3
 10
-286.568900659911380
 20
-90.826453760669665
 40
0.999999999999961
 50
231.618272422159780
 51
299.999999999997270
  0
LINE
  8
0
  6
CONTINUOUS
 62
3
 10
-283.325125084887080
 20
-90.108359597618119
 11
-286.068900659911380
 21
-91.692479164454198
  0
ARC
  8
0
  6
CONTINUOUS
 62
3
 10
-278.926501246927730
 20
-86.414112402329010
 40
0.999999999999673
 50
221.212271417651210
 51
300.000000000003810
  0
LINE
  8
0
  6
CONTINUOUS
 62
3
 10
-275.785266089871580
 20
-85.755219977193747
 11
-278.426501246927730
 21
-87.280137806113316
  0
ARC
  8
0
  6
CONTINUOUS
 62
3
 10
-276.285266089871580
 20
-84.889194573409213
 40
1.000000000000082
 50
299.999999999997270
 51
39.594068226850403
  0
ARC
  8
0
  6
CONTINUOUS
 62
3
 10
-288.967429930300570
 20
-89.441662240751384
 40
1.000000000000000
 50
180.000000000000000
 51
248.381727577838030
  0
ARC
  8
0
  6
CONTINUOUS
 62
3
 10
-292.467429930300570
 20
-98.273423107079225
 40
8.500000000000128
 50
51.618272422158320
 51
68.381727577842284
  0
ARC
  8
0
  6
CONTINUOUS
 62
3
 10
-283.825125084887080
 20
-89.242334193833813
 40
0.999999999999885
 50
300.000000000003810
 51
46.260204708328693
  0
LINE
  8
0
  6
CONTINUOUS
 62
3
 10
-289.967429930300570
 20
-86.273423107079225
 11
-289.967429930300570
 21
-89.441662240751384
  0
ARC
  8
0
  6
CONTINUOUS
 62
3
 10
-288.967429930300570
 20
-86.273423107079225
 40
0.999999999999964
 50
73.739795291702634
 51
180.000000000000000
  0
ARC
  8
0
  6
CONTINUOUS
 62
3
 10
-292.467429930300570
 20
-98.273423107079225
 40
13.499999999999927
 50
46.260204708312145
 51
73.739795291689134
  0
ARC
  8
0
  6
CONTINUOUS
 62
3
 10
-292.467429930300570
 20
-98.273423107079225
 40
17.000000000000114
 50
41.212271417649760
 51
78.787728582349985
  0
ARC
  8
0
  6
CONTINUOUS
 62
3
 10
-292.467429930300570
 20
-98.273423107079225
 40
22.000000000000025
 50
39.594068226860820
 51
80.405931773138789
  0
ARC
  8
0
  6
CONTINUOUS
 62
3
 10
-292.467429930300570
 20
-98.273423107079225
 40
30.499999999999964
 50
36.813854344181067
 51
83.186145655818962
  0
ARC
  8
0
  6
CONTINUOUS
 62
3
 10
-292.467429930300570
 20
-98.273423107079225
 40
25.499999999999890
 50
37.589542391857961
 51
82.410457608141883
  0
ARC
  8
0
  6
CONTINUOUS
 62
3
 10
-292.467429930300570
 20
-98.273423107079225
 40
33.999999999999829
 50
35.739170477266640
 51
84.260829522733076
  0
ARC
  8
0
  6
CONTINUOUS
 62
3
 10
-292.467429930300570
 20
-98.273423107079225
 40
38.999999999999865
 50
35.284732954534789
 51
84.715267045465410
  0
ARC
  8
0
  6
CONTINUOUS
 62
3
 10
-265.350128142368700
 20
-86.658693504447911
 40
0.999999999999730
 50
23.186145655819850
 51
119.999999999997270
  0
LINE
  8
0
  6
CONTINUOUS
 62
3
 10
-265.850128142368700
 20
-85.792668100663377
 11
-268.468803598146220
 21
-87.304561079976565
  0
ARC
  8
0
  6
CONTINUOUS
 62
3
 10
-267.968803598146220
 20
-88.170586483761099
 40
1.000000000000082
 50
119.999999999997270
 51
202.410457608146060
  0
ARC
  8
0
  6
CONTINUOUS
 62
3
 10
-257.948351517870380
 20
-82.385275777812240
 40
1.000000000000248
 50
24.715267045455477
 51
119.999999999997270
  0
LINE
  8
0
  6
CONTINUOUS
 62
3
 10
-258.448351517870380
 20
-81.519250374027706
 11
-261.058476035976130
 21
-83.026206467174461
  0
ARC
  8
0
  6
CONTINUOUS
 62
3
 10
-260.558476035976130
 20
-83.892231870958767
 40
0.999999999999885
 50
120.000000000003780
 51
204.260829522745610
  0
ARC
  8
0
  6
CONTINUOUS
 62
3
 10
-283.068900659911380
 20
-96.888631587160944
 40
1.000000000000082
 50
119.999999999997270
 51
188.381727577832660
  0
LINE
  8
0
  6
CONTINUOUS
 62
3
 10
-280.825125084887080
 20
-94.438486616540331
 11
-283.568900659911380
 21
-96.022606183376411
  0
ARC
  8
0
  6
CONTINUOUS
 62
3
 10
-275.426501246927730
 20
-92.476290228820062
 40
1.000000000000082
 50
119.999999999997270
 51
198.787728582347000
  0
LINE
  8
0
  6
CONTINUOUS
 62
3
 10
-273.285266089871130
 20
-90.085346996116186
 11
-275.926501246927730
 21
-91.610264825035529
  0
ARC
  8
0
  6
CONTINUOUS
 62
3
 10
-272.785266089871130
 20
-90.951372399900492
 40
1.000000000000094
 50
20.405931773138686
 51
120.000000000003780
  0
ARC
  8
0
  6
CONTINUOUS
 62
3
 10
-283.068900659911380
 20
-99.658214626997733
 40
1.000000000000059
 50
171.618272422154460
 51
239.999999999996220
  0
ARC
  8
0
  6
CONTINUOUS
 62
3
 10
-292.467429930300570
 20
-98.273423107079225
 40
8.499999999999972
 50
351.618272422157820
 51
8.381727577842204
  0
ARC
  8
0
  6
CONTINUOUS
 62
3
 10
-280.325125084887080
 20
-95.304512020324637
 40
0.999999999999879
 50
13.739795291686027
 51
120.000000000003780
  0
LINE
  8
0
  6
CONTINUOUS
 62
3
 10
-280.825125084887080
 20
-102.108359597618110
 11
-283.568900659911380
 21
-100.524240030782030
  0
ARC
  8
0
  6
CONTINUOUS
 62
3
 10
-280.325125084887080
 20
-101.242334193833810
 40
0.999999999999885
 50
239.999999999996220
 51
346.260204708314010
  0
ARC
  8
0
  6
CONTINUOUS
 62
3
 10
-292.467429930300570
 20
-98.273423107079225
 40
13.500000000000130
 50
346.260204708311850
 51
13.739795291688171
  0
ARC
  8
0
  6
CONTINUOUS
 62
3
 10
-275.426501246927730
 20
-104.070555985338380
 40
0.999999999999646
 50
161.212271417644620
 51
239.999999999996220
  0
LINE
  8
0
  6
CONTINUOUS
 62
3
 10
-273.285266089871130
 20
-106.461499218042260
 11
-275.926501246927730
 21
-104.936581389122690
  0
ARC
  8
0
  6
CONTINUOUS
 62
3
 10
-292.467429930300570
 20
-98.273423107079225
 40
17.000000000000146
 50
341.212271417650070
 51
18.787728582350418
  0
ARC
  8
0
  6
CONTINUOUS
 62
3
 10
-272.785266089871130
 20
-105.595473814257950
 40
0.999999999999885
 50
239.999999999996220
 51
339.594068226861340
  0
ARC
  8
0
  6
CONTINUOUS
 62
3
 10
-267.968803598146220
 20
-108.376259730397570
 40
0.999999999999701
 50
157.589542391853940
 51
240.000000000002730
  0
ARC
  8
0
  6
CONTINUOUS
 62
3
 10
-260.558476035976130
 20
-112.654614343199450
 40
0.999999999999769
 50
155.739170477266270
 51
240.000000000002730
  0
ARC
  8
0
  6
CONTINUOUS
 62
3
 10
-292.467429930300570
 20
-98.273423107079225
 40
22.000000000000206
 50
339.594068226860770
 51
20.405931773139226
  0
LINE
  8
0
  6
CONTINUOUS
 62
3
 10
-265.850128142368700
 20
-110.754178113495070
 11
-268.468803598146220
 21
-109.242285134182110
  0
ARC
  8
0
  6
CONTINUOUS
 62
3
 10
-265.350128142368700
 20
-109.888152709710530
 40
1.000000000000082
 50
240.000000000002730
 51
336.813854344180130
  0
ARC
  8
0
  6
CONTINUOUS
 62
3
 10
-292.467429930300570
 20
-98.273423107079225
 40
30.499999999999947
 50
336.813854344181150
 51
23.186145655818844
  0
ARC
  8
0
  6
CONTINUOUS
 62
3
 10
-292.467429930300570
 20
-98.273423107079225
 40
25.500000000000085
 50
337.589542391857490
 51
22.410457608142021
  0
ARC
  8
0
  6
CONTINUOUS
 62
3
 10
-292.467429930300570
 20
-98.273423107079225
 40
34.000000000000007
 50
335.739170477266780
 51
24.260829522733218
  0
ARC
  8
0
  6
CONTINUOUS
 62
3
 10
-292.467429930300570
 20
-98.273423107079225
 40
39.000000000000220
 50
335.284732954534830
 51
24.715267045465190
  0
LINE
  8
0
  6
CONTINUOUS
 62
3
 10
-258.448351517870380
 20
-115.027595840130510
 11
-261.058476035976130
 21
-113.520639746983980
  0
ARC
  8
0
  6
CONTINUOUS
 62
3
 10
-257.948351517870380
 20
-114.161570436346210
 40
0.999999999999885
 50
239.999999999996220
 51
335.284732954544490
  0
CIRCLE
  8
0
  6
CONTINUOUS
 62
3
 10
-292.467429930300570
 20
-98.273423107079225
 40
5.000000000000000
  0
ARC
  8
0
  6
CONTINUOUS
 62
3
 10
-261.448351517870380
 20
-120.223748262837480
 40
0.999999999999776
 50
324.715267045465680
 51
60.000000000002721
  0
ARC
  8
0
  6
CONTINUOUS
 62
3
 10
-264.058476035976130
 20
-118.716792169690500
 40
0.999999999999885
 50
59.999999999996206
 51
144.260829522736490
  0
ARC
  8
0
  6
CONTINUOUS
 62
3
 10
-288.967429930300570
 20
-133.097983405810960
 40
0.999999999999973
 50
95.739170477261709
 51
180.000000000000000
  0
ARC
  8
0
  6
CONTINUOUS
 62
3
 10
-288.967429930300570
 20
-136.111895592104250
 40
1.000000000000000
 50
180.000000000000000
 51
275.284732954535740
  0
ARC
  8
0
  6
CONTINUOUS
 62
3
 10
-288.967429930300570
 20
-124.541274180206520
 40
0.999999999999975
 50
97.589542391854238
 51
180.000000000000000
  0
ARC
  8
0
  6
CONTINUOUS
 62
3
 10
-268.850128142368700
 20
-115.950330536201360
 40
0.999999999999911
 50
323.186145655802870
 51
59.999999999996206
  0
ARC
  8
0
  6
CONTINUOUS
 62
3
 10
-271.468803598145770
 20
-114.438437556888400
 40
1.000000000000082
 50
60.000000000002721
 51
142.410457608148220
  0
ARC
  8
0
  6
CONTINUOUS
 62
3
 10
-288.967429930300570
 20
-127.565060138832900
 40
1.000000000000000
 50
180.000000000000000
 51
276.813854344179670
  0
ARC
  8
0
  6
CONTINUOUS
 62
3
 10
-288.967429930300570
 20
-118.979702347927740
 40
1.000000000000000
 50
180.000000000000000
 51
279.594068226875490
  0
ARC
  8
0
  6
CONTINUOUS
 62
3
 10
-288.967429930300570
 20
-115.929866690088820
 40
0.999999999999982
 50
101.212271417644000
 51
180.000000000000000
  0
ARC
  8
0
  6
CONTINUOUS
 62
3
 10
-276.285266089871580
 20
-111.657651640749000
 40
1.000000000000318
 50
320.405931773139570
 51
59.999999999996206
  0
ARC
  8
0
  6
CONTINUOUS
 62
3
 10
-278.926501246927730
 20
-110.132733811829660
 40
1.000000000000082
 50
60.000000000002721
 51
138.787728582338990
  0
ARC
  8
0
  6
CONTINUOUS
 62
3
 10
-283.825125084887080
 20
-107.304512020324630
 40
0.999999999999858
 50
313.739795291671330
 51
59.999999999996206
  0
ARC
  8
0
  6
CONTINUOUS
 62
3
 10
-288.967429930300570
 20
-110.273423107079220
 40
1.000000000000000
 50
180.000000000000000
 51
286.260204708297350
  0
ARC
  8
0
  6
CONTINUOUS
 62
3
 10
-288.967429930300570
 20
-107.105183973407060
 40
1.000000000000090
 50
111.618272422161970
 51
180.000000000000000
  0
ARC
  8
0
  6
CONTINUOUS
 62
3
 10
-286.568900659911380
 20
-105.720392453488550
 40
0.999999999999885
 50
59.999999999996206
 51
128.381727577840220
  0
ARC
  8
0
  6
CONTINUOUS
 62
3
 10
-292.467429930300570
 20
-98.273423107079225
 40
38.999999999999986
 50
275.284732954534600
 51
324.715267045465230
  0
ARC
  8
0
  6
CONTINUOUS
 62
3
 10
-292.467429930300570
 20
-98.273423107079225
 40
30.500000000000135
 50
276.813854344181040
 51
323.186145655818900
  0
ARC
  8
0
  6
CONTINUOUS
 62
3
 10
-292.467429930300570
 20
-98.273423107079225
 40
34.000000000000071
 50
275.739170477266950
 51
324.260829522733050
  0
ARC
  8
0
  6
CONTINUOUS
 62
3
 10
-292.467429930300570
 20
-98.273423107079225
 40
25.499999999999932
 50
277.589542391858170
 51
322.410457608142050
  0
ARC
  8
0
  6
CONTINUOUS
 62
3
 10
-292.467429930300570
 20
-98.273423107079225
 40
22.000000000000131
 50
279.594068226861170
 51
320.405931773139170
  0
ARC
  8
0
  6
CONTINUOUS
 62
3
 10
-292.467429930300570
 20
-98.273423107079225
 40
17.000000000000046
 50
281.212271417650020
 51
318.787728582350210
  0
ARC
  8
0
  6
CONTINUOUS
 62
3
 10
-292.467429930300570
 20
-98.273423107079225
 40
13.499999999999963
 50
286.260204708310820
 51
313.739795291687870
  0
ARC
  8
0
  6
CONTINUOUS
 62
3
 10
-292.467429930300570
 20
-98.273423107079225
 40
8.499999999999904
 50
291.618272422157700
 51
308.381727577842640
  0
LINE
  8
0
  6
CONTINUOUS
 62
3
 10
-268.350128142368700
 20
-115.084305132417050
 11
-270.968803598145770
 21
-113.572412153103860
  0
LINE
  8
0
  6
CONTINUOUS
 62
3
 10
-289.967429930300570
 20
-136.111895592104250
 11
-289.967429930300570
 21
-133.097983405810960
  0
LINE
  8
0
  6
CONTINUOUS
 62
3
 10
-260.948351517870380
 20
-119.357722859052950
 11
-263.558476035976130
 21
-117.850766765906200
  0
LINE
  8
0
  6
CONTINUOUS
 62
3
 10
-275.785266089871580
 20
-110.791626236964700
 11
-278.426501246927730
 21
-109.266708408045130
  0
LINE
  8
0
  6
CONTINUOUS
 62
3
 10
-283.325125084887080
 20
-106.438486616540330
 11
-286.068900659911380
 21
-104.854367049704250
  0
LINE
  8
0
  6
CONTINUOUS
 62
3
 10
-289.967429930300570
 20
-110.273423107079220
 11
-289.967429930300570
 21
-107.105183973407060
  0
LINE
  8
0
  6
CONTINUOUS
 62
3
 10
-289.967429930300570
 20
-118.979702347927740
 11
-289.967429930300570
 21
-115.929866690088820
  0
LINE
  8
0
  6
CONTINUOUS
 62
3
 10
-289.967429930300570
 20
-127.565060138832900
 11
-289.967429930300570
 21
-124.541274180206520
  0
ARC
  8
0
  6
CONTINUOUS
 62
3
 10
-292.467429930300570
 20
-98.273423107079225
 40
39.000000000000220
 50
155.284732954534800
 51
204.715267045465200
  0
ARC
  8
0
  6
CONTINUOUS
 62
3
 10
-292.467429930300570
 20
-98.273423107079225
 40
34.000000000000007
 50
155.739170477266780
 51
204.260829522733220
  0
ARC
  8
0
  6
CONTINUOUS
 62
3
 10
-292.467429930300570
 20
-98.273423107079225
 40
25.500000000000000
 50
157.589542391857980
 51
202.410457608142480
  0
ARC
  8
0
  6
CONTINUOUS
 62
3
 10
-292.467429930300570
 20
-98.273423107079225
 40
30.499999999999947
 50
156.813854344181150
 51
203.186145655818850
  0
ARC
  8
0
  6
CONTINUOUS
 62
3
 10
-292.467429930300570
 20
-98.273423107079225
 40
22.000000000000206
 50
159.594068226860770
 51
200.405931773139230
  0
ARC
  8
0
  6
CONTINUOUS
 62
3
 10
-292.467429930300570
 20
-98.273423107079225
 40
16.999999999999716
 50
161.212271417649560
 51
198.787728582350440
  0
ARC
  8
0
  6
CONTINUOUS
 62
3
 10
-292.467429930300570
 20
-98.273423107079225
 40
13.499999999999687
 50
166.260204708311360
 51
193.739795291688180
  0
ARC
  8
0
  6
CONTINUOUS
 62
3
 10
-304.609734775714060
 20
-95.304512020324637
 40
0.999999999999885
 50
59.999999999996206
 51
166.260204708307780
  0
ARC
  8
0
  6
CONTINUOUS
 62
3
 10
-312.149593770730010
 20
-90.951372399900492
 40
0.999999999999885
 50
59.999999999996206
 51
159.594068226861310
  0
LINE
  8
0
  6
CONTINUOUS
 62
3
 10
-311.649593770730010
 20
-90.085346996116186
 11
-309.008358613673410
 21
-91.610264825035529
  0
ARC
  8
0
  6
CONTINUOUS
 62
3
 10
-309.508358613673410
 20
-92.476290228820062
 40
1.000000000000076
 50
341.212271417652970
 51
60.000000000002721
  0
LINE
  8
0
  6
CONTINUOUS
 62
3
 10
-304.109734775714060
 20
-94.438486616540331
 11
-301.365959200689760
 21
-96.022606183376411
  0
ARC
  8
0
  6
CONTINUOUS
 62
3
 10
-301.865959200689760
 20
-96.888631587160944
 40
1.000000000000026
 50
351.618272422167310
 51
60.000000000002721
  0
ARC
  8
0
  6
CONTINUOUS
 62
3
 10
-324.376383824625010
 20
-83.892231870958767
 40
0.999999999999863
 50
335.739170477254390
 51
59.999999999996206
  0
LINE
  8
0
  6
CONTINUOUS
 62
3
 10
-326.486508342730760
 20
-81.519250374027706
 11
-323.876383824625010
 21
-83.026206467174461
  0
ARC
  8
0
  6
CONTINUOUS
 62
3
 10
-326.986508342730760
 20
-82.385275777812240
 40
1.000000000000082
 50
60.000000000002721
 51
155.284732954544520
  0
ARC
  8
0
  6
CONTINUOUS
 62
3
 10
-316.966056262454910
 20
-88.170586483761099
 40
0.999999999999701
 50
337.589542391853970
 51
60.000000000002721
  0
LINE
  8
0
  6
CONTINUOUS
 62
3
 10
-319.084731718232430
 20
-85.792668100663377
 11
-316.466056262454910
 21
-87.304561079976565
  0
ARC
  8
0
  6
CONTINUOUS
 62
3
 10
-319.584731718232430
 20
-86.658693504447911
 40
1.000000000000082
 50
60.000000000002721
 51
156.813854344180160
  0
ARC
  8
0
  6
CONTINUOUS
 62
3
 10
-292.467429930300570
 20
-98.273423107079225
 40
38.999999999999986
 50
95.284732954534590
 51
144.715267045465200
  0
ARC
  8
0
  6
CONTINUOUS
 62
3
 10
-292.467429930300570
 20
-98.273423107079225
 40
34.000000000000071
 50
95.739170477266924
 51
144.260829522733360
  0
ARC
  8
0
  6
CONTINUOUS
 62
3
 10
-292.467429930300570
 20
-98.273423107079225
 40
25.500000000000160
 50
97.589542391858117
 51
142.410457608142050
  0
ARC
  8
0
  6
CONTINUOUS
 62
3
 10
-292.467429930300570
 20
-98.273423107079225
 40
30.500000000000135
 50
96.813854344181038
 51
143.186145655818930
  0
ARC
  8
0
  6
CONTINUOUS
 62
3
 10
-292.467429930300570
 20
-98.273423107079225
 40
22.000000000000131
 50
99.594068226861211
 51
140.405931773139200
  0
ARC
  8
0
  6
CONTINUOUS
 62
3
 10
-292.467429930300570
 20
-98.273423107079225
 40
17.000000000000046
 50
101.212271417650010
 51
138.787728582350240
  0
ARC
  8
0
  6
CONTINUOUS
 62
3
 10
-292.467429930300570
 20
-98.273423107079225
 40
13.499999999999963
 50
106.260204708310860
 51
133.739795291687870
  0
ARC
  8
0
  6
CONTINUOUS
 62
3
 10
-295.967429930300570
 20
-86.273423107079225
 40
1.000000000000000
 50
0.000000000000000
 51
106.260204708297360
  0
LINE
  8
0
  6
CONTINUOUS
 62
3
 10
-294.967429930300570
 20
-86.273423107079225
 11
-294.967429930300570
 21
-89.441662240751384
  0
ARC
  8
0
  6
CONTINUOUS
 62
3
 10
-301.109734775714060
 20
-89.242334193833813
 40
0.999999999999858
 50
133.739795291671300
 51
239.999999999996220
  0
ARC
  8
0
  6
CONTINUOUS
 62
3
 10
-292.467429930300570
 20
-98.273423107079225
 40
8.499999999999904
 50
111.618272422157710
 51
128.381727577841670
  0
ARC
  8
0
  6
CONTINUOUS
 62
3
 10
-295.967429930300570
 20
-89.441662240751384
 40
1.000000000000090
 50
291.618272422161970
 51
0.000000000000000
  0
ARC
  8
0
  6
CONTINUOUS
 62
3
 10
-308.649593770729550
 20
-84.889194573409213
 40
1.000000000000173
 50
140.405931773149600
 51
240.000000000002730
  0
LINE
  8
0
  6
CONTINUOUS
 62
3
 10
-309.149593770729550
 20
-85.755219977193747
 11
-306.508358613673410
 21
-87.280137806113316
  0
ARC
  8
0
  6
CONTINUOUS
 62
3
 10
-306.008358613673410
 20
-86.414112402329010
 40
0.999999999999885
 50
239.999999999996220
 51
318.787728582348790
  0
LINE
  8
0
  6
CONTINUOUS
 62
3
 10
-301.609734775714060
 20
-90.108359597618119
 11
-298.865959200689760
 21
-91.692479164454198
  0
ARC
  8
0
  6
CONTINUOUS
 62
3
 10
-298.365959200689760
 20
-90.826453760669665
 40
1.000000000000082
 50
240.000000000002730
 51
308.381727577840190
  0
ARC
  8
0
  6
CONTINUOUS
 62
3
 10
-320.876383824625010
 20
-77.830054044467943
 40
0.999999999999885
 50
239.999999999996220
 51
324.260829522725940
  0
LINE
  8
0
  6
CONTINUOUS
 62
3
 10
-323.986508342730760
 20
-77.189123355105494
 11
-321.376383824625010
 21
-78.696079448252249
  0
ARC
  8
0
  6
CONTINUOUS
 62
3
 10
-323.486508342730760
 20
-76.323097951321188
 40
0.999999999999908
 50
144.715267045455050
 51
239.999999999996220
  0
ARC
  8
0
  6
CONTINUOUS
 62
3
 10
-313.466056262454910
 20
-82.108408657270047
 40
1.000000000000082
 50
240.000000000002730
 51
322.410457608132330
  0
LINE
  8
0
  6
CONTINUOUS
 62
3
 10
-316.584731718232430
 20
-81.462541081741392
 11
-313.966056262454910
 21
-82.974434061054581
  0
ARC
  8
0
  6
CONTINUOUS
 62
3
 10
-316.084731718232430
 20
-80.596515677956859
 40
0.999999999999774
 50
143.186145655813330
 51
240.000000000002730
  0
ARC
  8
0
  6
CONTINUOUS
 62
3
 10
-295.967429930300570
 20
-60.434950622054203
 40
1.000000000000000
 50
0.000000000000000
 51
95.284732954535698
  0
LINE
  8
0
  6
CONTINUOUS
 62
3
 10
-294.967429930300570
 20
-60.434950622054203
 11
-294.967429930300570
 21
-63.448862808347485
  0
ARC
  8
0
  6
CONTINUOUS
 62
3
 10
-295.967429930300570
 20
-63.448862808347485
 40
0.999999999999973
 50
275.739170477261670
 51
0.000000000000000
  0
ARC
  8
0
  6
CONTINUOUS
 62
3
 10
-295.967429930300570
 20
-68.981786075325545
 40
1.000000000000000
 50
0.000000000000000
 51
96.813854344179688
  0
LINE
  8
0
  6
CONTINUOUS
 62
3
 10
-294.967429930300570
 20
-68.981786075325545
 11
-294.967429930300570
 21
-72.005572033951694
  0
ARC
  8
0
  6
CONTINUOUS
 62
3
 10
-295.967429930300570
 20
-72.005572033951921
 40
0.999999999999749
 50
277.589542391855960
 51
0.000000000013028
  0
ARC
  8
0
  6
CONTINUOUS
 62
3
 10
-295.967429930300570
 20
-77.567143866230708
 40
1.000000000000000
 50
0.000000000000000
 51
99.594068226875478
  0
LINE
  8
0
  6
CONTINUOUS
 62
3
 10
-294.967429930300570
 20
-77.567143866230708
 11
-294.967429930300570
 21
-80.616979524069620
  0
ARC
  8
0
  6
CONTINUOUS
 62
3
 10
-295.967429930300570
 20
-80.616979524069620
 40
0.999999999999982
 50
281.212271417643990
 51
0.000000000000000
  0
ARC
  8
0
  6
CONTINUOUS
 62
3
 10
-304.609734775714060
 20
-101.242334193833810
 40
0.999999999999879
 50
193.739795291686050
 51
300.000000000003810
  0
LINE
  8
0
  6
CONTINUOUS
 62
3
 10
-304.109734775714060
 20
-102.108359597618110
 11
-301.365959200689760
 21
-100.524240030782030
  0
ARC
  8
0
  6
CONTINUOUS
 62
3
 10
-292.467429930300570
 20
-98.273423107079225
 40
8.499999999999972
 50
171.618272422157790
 51
188.381727577842210
  0
ARC
  8
0
  6
CONTINUOUS
 62
3
 10
-301.865959200689760
 20
-99.658214626997733
 40
0.999999999999885
 50
300.000000000003810
 51
8.381727577845549
  0
LINE
  8
0
  6
CONTINUOUS
 62
3
 10
-294.967429930300570
 20
-127.565060138832900
 11
-294.967429930300570
 21
-124.541274180206520
  0
LINE
  8
0
  6
CONTINUOUS
 62
3
 10
-294.967429930300570
 20
-118.979702347927740
 11
-294.967429930300570
 21
-115.929866690088820
  0
LINE
  8
0
  6
CONTINUOUS
 62
3
 10
-294.967429930300570
 20
-110.273423107079220
 11
-294.967429930300570
 21
-107.105183973407060
  0
LINE
  8
0
  6
CONTINUOUS
 62
3
 10
-301.609734775714060
 20
-106.438486616540330
 11
-298.865959200689760
 21
-104.854367049704250
  0
LINE
  8
0
  6
CONTINUOUS
 62
3
 10
-309.149593770729550
 20
-110.791626236964700
 11
-306.508358613673410
 21
-109.266708408045130
  0
LINE
  8
0
  6
CONTINUOUS
 62
3
 10
-323.986508342730760
 20
-119.357722859052950
 11
-321.376383824625010
 21
-117.850766765906200
  0
LINE
  8
0
  6
CONTINUOUS
 62
3
 10
-316.584731718232430
 20
-115.084305132417050
 11
-313.966056262455370
 21
-113.572412153103860
  0
ARC
  8
0
  6
CONTINUOUS
 62
3
 10
-292.467429930300570
 20
-98.273423107079225
 40
8.499999999999948
 50
231.618272422157330
 51
248.381727577842330
  0
ARC
  8
0
  6
CONTINUOUS
 62
3
 10
-292.467429930300570
 20
-98.273423107079225
 40
13.499999999999927
 50
226.260204708312130
 51
253.739795291689150
  0
ARC
  8
0
  6
CONTINUOUS
 62
3
 10
-292.467429930300570
 20
-98.273423107079225
 40
16.999999999999773
 50
221.212271417650780
 51
258.787728582349980
  0
ARC
  8
0
  6
CONTINUOUS
 62
3
 10
-292.467429930300570
 20
-98.273423107079225
 40
22.000000000000025
 50
219.594068226860800
 51
260.405931773138780
  0
ARC
  8
0
  6
CONTINUOUS
 62
3
 10
-292.467429930300570
 20
-98.273423107079225
 40
25.499999999999890
 50
217.589542391857950
 51
262.410457608141830
  0
ARC
  8
0
  6
CONTINUOUS
 62
3
 10
-292.467429930300570
 20
-98.273423107079225
 40
33.999999999999964
 50
215.739170477266950
 51
264.260829522733050
  0
ARC
  8
0
  6
CONTINUOUS
 62
3
 10
-292.467429930300570
 20
-98.273423107079225
 40
30.499999999999964
 50
216.813854344181070
 51
263.186145655818960
  0
ARC
  8
0
  6
CONTINUOUS
 62
3
 10
-292.467429930300570
 20
-98.273423107079225
 40
38.999999999999865
 50
215.284732954534800
 51
264.715267045465400
  0
ARC
  8
0
  6
CONTINUOUS
 62
3
 10
-298.365959200689760
 20
-105.720392453488550
 40
0.999999999999961
 50
51.618272422159777
 51
120.000000000003780
  0
ARC
  8
0
  6
CONTINUOUS
 62
3
 10
-295.967429930300570
 20
-107.105183973407060
 40
1.000000000000000
 50
0.000000000000000
 51
68.381727577838021
  0
ARC
  8
0
  6
CONTINUOUS
 62
3
 10
-295.967429930300570
 20
-110.273423107079220
 40
0.999999999999964
 50
253.739795291702650
 51
0.000000000000000
  0
ARC
  8
0
  6
CONTINUOUS
 62
3
 10
-301.109734775714060
 20
-107.304512020324630
 40
0.999999999999885
 50
120.000000000003780
 51
226.260204708328700
  0
ARC
  8
0
  6
CONTINUOUS
 62
3
 10
-306.008358613673410
 20
-110.132733811829660
 40
1.000000000000165
 50
41.212271417643841
 51
119.999999999997270
  0
ARC
  8
0
  6
CONTINUOUS
 62
3
 10
-308.649593770729550
 20
-111.657651640749000
 40
0.999999999999885
 50
120.000000000003780
 51
219.594068226860460
  0
ARC
  8
0
  6
CONTINUOUS
 62
3
 10
-295.967429930300570
 20
-115.929866690088820
 40
1.000000000000000
 50
0.000000000000000
 51
78.787728582355996
  0
ARC
  8
0
  6
CONTINUOUS
 62
3
 10
-295.967429930300570
 20
-118.979702347927740
 40
1.000000000000268
 50
260.405931773124510
 51
0.000000000000000
  0
ARC
  8
0
  6
CONTINUOUS
 62
3
 10
-313.466056262455370
 20
-114.438437556888400
 40
1.000000000000194
 50
37.589542391851793
 51
119.999999999997270
  0
ARC
  8
0
  6
CONTINUOUS
 62
3
 10
-316.084731718232430
 20
-115.950330536201360
 40
0.999999999999885
 50
120.000000000003780
 51
216.813854344197100
  0
ARC
  8
0
  6
CONTINUOUS
 62
3
 10
-295.967429930300570
 20
-124.541274180206520
 40
1.000000000000000
 50
0.000000000000000
 51
82.410457608145762
  0
ARC
  8
0
  6
CONTINUOUS
 62
3
 10
-320.876383824625010
 20
-118.716792169690500
 40
0.999999999999807
 50
35.739170477263521
 51
120.000000000003780
  0
ARC
  8
0
  6
CONTINUOUS
 62
3
 10
-323.486508342730760
 20
-120.223748262837480
 40
1.000000000000082
 50
119.999999999997270
 51
215.284732954534320
  0
ARC
  8
0
  6
CONTINUOUS
 62
3
 10
-326.986508342730760
 20
-114.161570436346210
 40
1.000000000000248
 50
204.715267045455480
 51
300.000000000003810
  0
LINE
  8
0
  6
CONTINUOUS
 62
3
 10
-326.486508342730760
 20
-115.027595840130510
 11
-323.876383824625010
 21
-113.520639746983980
  0
ARC
  8
0
  6
CONTINUOUS
 62
3
 10
-319.584731718232430
 20
-109.888152709710530
 40
0.999999999999730
 50
203.186145655819840
 51
299.999999999997270
  0
LINE
  8
0
  6
CONTINUOUS
 62
3
 10
-319.084731718232430
 20
-110.754178113495070
 11
-316.466056262454910
 21
-109.242285134182110
  0
ARC
  8
0
  6
CONTINUOUS
 62
3
 10
-324.376383824625010
 20
-112.654614343199450
 40
1.000000000000082
 50
299.999999999997270
 51
24.260829522733715
  0
ARC
  8
0
  6
CONTINUOUS
 62
3
 10
-316.966056262454910
 20
-108.376259730397570
 40
1.000000000000082
 50
299.999999999997270
 51
22.410457608146043
  0
ARC
  8
0
  6
CONTINUOUS
 62
3
 10
-312.149593770730010
 20
-105.595473814257950
 40
1.000000000000094
 50
200.405931773138690
 51
300.000000000003810
  0
LINE
  8
0
  6
CONTINUOUS
 62
3
 10
-311.649593770730010
 20
-106.461499218042260
 11
-309.008358613673410
 21
-104.936581389122690
  0
ARC
  8
0
  6
CONTINUOUS
 62
3
 10
-309.508358613673410
 20
-104.070555985338380
 40
0.999999999999885
 50
300.000000000003810
 51
18.787728582346993
  0
LINE
  8
0
  6
CONTINUOUS
 62
3
 10
-294.967429930300570
 20
-136.111895592104250
 11
-294.967429930300570
 21
-133.097983405810960
  0
ARC
  8
0
  6
CONTINUOUS
 62
3
 10
-295.967429930300570
 20
-127.565060138832900
 40
1.000000000000077
 50
263.186145655820330
 51
0.000000000000000
  0
ARC
  8
0
  6
CONTINUOUS
 62
3
 10
-295.967429930300570
 20
-136.111895592104250
 40
1.000000000000042
 50
264.715267045464260
 51
0.000000000000000
  0
ARC
  8
0
  6
CONTINUOUS
 62
3
 10
-295.967429930300570
 20
-133.097983405810960
 40
1.000000000000000
 50
0.000000000000000
 51
84.260829522738291
  0
ARC
  8
0
  6
CONTINUOUS
 62
3
 10
-534.067429930300930
 20
-98.273423107079225
 40
300.600000000000360
 50
0.000000000000000
 51
5.752282731536604
  0
ARC
  8
0
  6
CONTINUOUS
 62
3
 10
-534.067429930300930
 20
-98.273423107079225
 40
300.599999999999910
 50
354.247717268463420
 51
0.000000000000000
  0
ARC
  8
0
  6
CONTINUOUS
 62
3
 10
-50.867429930300204
 20
-98.273423107079225
 40
300.600000000000360
 50
180.000000000000000
 51
185.752282731536610
  0
ARC
  8
0
  6
CONTINUOUS
 62
3
 10
-50.867429930300204
 20
-98.273423107079225
 40
300.599999999999910
 50
174.247717268463390
 51
180.000000000000000
  0
ARC
  8
0
  6
CONTINUOUS
 62
3
 10
-292.467429930300570
 20
-444.873423107079360
 40
400.599999999999910
 50
84.256318189006564
 51
90.000000000000000
  0
ARC
  8
0
  6
CONTINUOUS
 62
3
 10
-292.467429930300570
 20
248.326576892920910
 40
400.599999999999910
 50
270.000000000000000
 51
275.743681810993450
  0
ARC
  8
0
  6
CONTINUOUS
 62
3
 10
-292.467429930300570
 20
248.326576892920910
 40
400.599999999999910
 50
264.256318189006550
 51
270.000000000000000
  0
ARC
  8
0
  6
CONTINUOUS
 62
3
 10
-292.467429930300570
 20
-444.873423107079360
 40
400.599999999999910
 50
90.000000000000000
 51
95.743681810993436
  0
ARC
  8
0
  6
CONTINUOUS
 62
3
 10
-253.036562930213220
 20
-52.851476364780865
 40
6.600000000000278
 50
44.999999999997215
 51
84.256318189004901
  0
ARC
  8
0
  6
CONTINUOUS
 62
3
 10
-253.036562930213220
 20
-143.695369849377580
 40
6.600000000000009
 50
275.743681810995100
 51
315.000000000002790
  0
ARC
  8
0
  6
CONTINUOUS
 62
3
 10
-331.898296930387910
 20
-143.695369849377580
 40
6.600000000000278
 50
224.999999999997190
 51
264.256318189004900
  0
ARC
  8
0
  6
CONTINUOUS
 62
3
 10
-331.898296930387910
 20
-52.851476364780865
 40
6.600000000000009
 50
95.743681810995099
 51
135.000000000002790
  0
LINE
  8
0
  6
CONTINUOUS
 62
4
 10
-247.842730775682870
 20
-62.575034559592723
 11
-253.730144647722230
 21
-56.687620687552680
  0
ARC
  8
0
  6
CONTINUOUS
 62
4
 10
-292.467429930300570
 20
-444.873423107079360
 40
390.797000000000030
 50
84.582036237639471
 51
90.000000000000000
  0
ARC
  8
0
  6
CONTINUOUS
 62
4
 10
-255.851464991282230
 20
-58.808941031112454
 40
3.000000000000346
 50
44.999999999996930
 51
84.582036237634313
  0
ARC
  8
0
  6
CONTINUOUS
 62
4
 10
-534.067429930300930
 20
-98.273423107079225
 40
290.797000000000480
 50
0.000000000000000
 51
5.752282731536624
  0
ARC
  8
0
  6
CONTINUOUS
 62
4
 10
-255.851464991282230
 20
-137.737905183046000
 40
3.000000000000067
 50
275.417963762365730
 51
315.000000000003070
  0
ARC
  8
0
  6
CONTINUOUS
 62
4
 10
-292.467429930300570
 20
248.326576892920910
 40
390.797000000000030
 50
270.000000000000000
 51
275.417963762360500
  0
ARC
  8
0
  6
CONTINUOUS
 62
4
 10
-265.095539342781190
 20
-121.813220764991220
 40
20.797000000000015
 50
315.000000000000000
 51
354.998349729064670
  0
LINE
  8
0
  6
CONTINUOUS
 62
4
 10
-250.389839614444550
 20
-136.518920493327870
 11
-253.730144647722230
 21
-139.859225526605770
  0
ARC
  8
0
  6
CONTINUOUS
 62
4
 10
-534.067429930300930
 20
-98.273423107079225
 40
290.797000000000140
 50
354.998349729065010
 51
0.000000000000000
  0
ARC
  8
0
  6
CONTINUOUS
 62
4
 10
-329.083394869318910
 20
-137.737905183046000
 40
3.000000000000346
 50
224.999999999996960
 51
264.582036237634270
  0
ARC
  8
0
  6
CONTINUOUS
 62
4
 10
-292.467429930300570
 20
248.326576892920910
 40
390.797000000000030
 50
264.582036237639500
 51
270.000000000000000
  0
ARC
  8
0
  6
CONTINUOUS
 62
4
 10
-319.839320517819940
 20
-121.813220764991220
 40
20.796999999999880
 50
185.001650270935330
 51
225.000000000000000
  0
LINE
  8
0
  6
CONTINUOUS
 62
4
 10
-334.545020246156580
 20
-136.518920493327870
 11
-331.204715212878910
 21
-139.859225526605770
  0
ARC
  8
0
  6
CONTINUOUS
 62
4
 10
-50.867429930300432
 20
-98.273423107079225
 40
290.797000000000250
 50
180.000000000000000
 51
185.001650270934930
  0
ARC
  8
0
  6
CONTINUOUS
 62
4
 10
-329.083394869318910
 20
-58.808941031112454
 40
3.000000000000067
 50
95.417963762365673
 51
135.000000000003040
  0
ARC
  8
0
  6
CONTINUOUS
 62
4
 10
-292.467429930300570
 20
-444.873423107079360
 40
390.797000000000030
 50
90.000000000000000
 51
95.417963762360529
  0
ARC
  8
0
  6
CONTINUOUS
 62
4
 10
-319.839320517819940
 20
-74.733625449167221
 40
20.797000000000015
 50
135.000000000000000
 51
174.998349729064670
  0
LINE
  8
0
  6
CONTINUOUS
 62
4
 10
-334.545020246156580
 20
-60.027925720830581
 11
-331.204715212878910
 21
-56.687620687552680
  0
ARC
  8
0
  6
CONTINUOUS
 62
4
 10
-50.867429930300432
 20
-98.273423107079225
 40
290.796999999999910
 50
174.998349729065040
 51
180.000000000000000
  0
ARC
  8
0
  6
CONTINUOUS
 62
3
 10
-211.528660796318950
 20
-123.273423107079220
 40
5.000000000000000
 50
270.000000000000000
 51
355.138594604201330
  0
ARC
  8
0
  6
CONTINUOUS
 62
3
 10
-211.528660796318950
 20
-73.273423107079225
 40
4.999999999999893
 50
4.861405395798621
 51
90.000000000000000
  0
LINE
  8
0
  6
CONTINUOUS
 62
3
 10
-234.967429930300570
 20
-128.273423107079220
 11
-211.528660796318950
 21
-128.273423107079220
  0
LINE
  8
0
  6
CONTINUOUS
 62
3
 10
-234.967429930300570
 20
-68.273423107079225
 11
-211.528660796318950
 21
-68.273423107079225
  0
ARC
  8
0
  6
CONTINUOUS
 62
3
 10
-505.467429930300570
 20
-98.273423107079225
 40
300.000000000000170
 50
355.138594604201960
 51
4.861405395798036
  0
LINE
  8
0
  6
CONTINUOUS
 62
3
 10
-205.477846777818290
 20
-95.773423107079225
 11
-204.967429930300570
 21
-95.773423107079225
  0
LINE
  8
0
  6
CONTINUOUS
 62
3
 10
-205.477846777818290
 20
-100.773423107079220
 11
-204.967429930300570
 21
-100.773423107079220
  0
LINE
  8
0
  6
CONTINUOUS
 62
3
 10
-204.967429930300570
 20
-100.773423107079220
 11
-204.967429930300570
 21
-95.773423107079225
  0
LINE
  8
0
  6
CONTINUOUS
 62
3
 10
-367.470299550881460
 20
-42.393303034299038
 11
-372.563936479158430
 21
-144.266041599839810
  0
LINE
  8
0
  6
CONTINUOUS
 62
3
 10
-372.563936479158430
 20
-144.266041599839810
 11
-374.161940221363010
 21
-144.186141412728830
  0
LINE
  8
0
  6
CONTINUOUS
 62
3
 10
-369.068303293086050
 20
-42.313402847188854
 11
-374.161940221363010
 21
-144.186141412728830
  0
ARC
  8
0
  6
CONTINUOUS
 62
3
 10
-370.185932394936570
 20
-45.061018443433682
 40
1.299999237060474
 50
87.137594090651831
 51
160.536063666412870
  0
ARC
  8
0
  6
CONTINUOUS
 62
3
 10
-370.405657985688550
 20
-49.455530258471413
 40
1.299999237060493
 50
193.739143184211430
 51
267.137612759980240
  0
LINE
  8
0
  6
CONTINUOUS
 62
3
 10
-369.143209718501340
 20
-43.811531355505508
 11
-370.121013531008880
 21
-43.762641164880165
  0
LINE
  8
0
  6
CONTINUOUS
 62
3
 10
-369.492773037108460
 20
-50.802797727650386
 11
-370.470576849616240
 21
-50.753907537025043
  0
LINE
  8
0
  6
CONTINUOUS
 62
3
 10
-369.143209718501340
 20
-43.811531355505508
 11
-369.492773037108460
 21
-50.802797727650386
  0
LINE
  8
0
  6
CONTINUOUS
 62
3
 10
-369.143209718501340
 20
-43.811531355505508
 11
-369.492773037108460
 21
-50.802797727650386
  0
POINT
  8
0
  6
CONTINUOUS
 62
3
 10
-369.317991377804900
 20
-47.307164541577890
  0
ARC
  8
0
  6
CONTINUOUS
 62
3
 10
-362.925976789980500
 20
-47.626765270969145
 40
9.000000000000060
 50
160.536063666407810
 51
193.739143184213500
  0
INSERT
  8
0
  2
SYM1
 10
-373.912252136643930
 20
-139.192379718339680
 41
1.000000000000000
 42
1.000000000000000
 43
1.000000000000000
 50
357.137594773886350
  0
LINE
  8
0
  6
CONTINUOUS
 62
3
 10
-350.967429930300570
 20
-80.942814346859677
 11
-350.967429930300570
 21
-72.315923107079243
  0
LINE
  8
0
  6
CONTINUOUS
 62
3
 10
-369.068303293086050
 20
-42.313402847188854
 11
-367.470299550881460
 21
-42.393303034299038
  0
ARC
  8
0
  6
CONTINUOUS
 62
3
 10
-369.767429930300520
 20
-72.315923107079243
 40
18.799999999999933
 50
144.191373186504250
 51
174.275189547776390
  0
ARC
  8
0
  6
CONTINUOUS
 62
3
 10
-369.767429930300520
 20
-72.315923107079243
 40
18.800000000000036
 50
94.873974813842736
 51
144.191373186504250
  0
ARC
  8
0
  6
CONTINUOUS
 62
3
 10
-371.767429930300520
 20
-112.315923107079240
 40
20.800000000000082
 50
274.191726156007460
 51
354.952683218992150
  0
LINE
  8
0
  6
CONTINUOUS
 62
3
 10
-392.463689281921460
 20
-110.241110139498230
 11
-388.473664344265440
 21
-70.440611386380965
  0
ARC
  8
0
  6
CONTINUOUS
 62
3
 10
-375.693895761632800
 20
-134.775283429122740
 40
2.000000000000154
 50
357.137594773887600
 51
80.083463391767268
  0
LINE
  8
0
  6
CONTINUOUS
 62
3
 10
-368.269301421983760
 20
-42.353352940744003
 11
-373.362938350260720
 21
-144.226091506284090
  0
ARC
  8
0
  6
CONTINUOUS
 62
3
 10
-370.100882663916990
 20
-135.054934084008550
 40
1.999999999999962
 50
94.191726156001650
 51
177.137594773887290
  0
ARC
  8
0
  6
CONTINUOUS
 62
3
 10
-371.534688393929400
 20
-51.591136075055715
 40
1.999999999999928
 50
274.873974813840960
 51
357.137594773887320
  0
ARC
  8
0
  6
CONTINUOUS
 62
3
 10
-365.941675296213590
 20
-51.870786729941528
 40
1.999999999999927
 50
177.137594773887290
 51
259.401214733934010
  0
ARC
  8
0
  6
CONTINUOUS
 62
3
 10
-369.767429930300520
 20
-72.315923107079243
 40
18.799999999999955
 50
0.000000000000000
 51
79.401214733933941
  0
ARC
  8
0
  6
CONTINUOUS
 62
3
 10
-371.767429930300520
 20
-112.315923107079240
 40
20.799999999999986
 50
174.275189547776620
 51
205.640070215894870
  0
POINT
  8
0
  6
DASHDOT
 62
4
 10
-350.967429930300570
 20
-98.287153600205215
  0
ARC
  8
0
  6
CONTINUOUS
 62
3
 10
-371.767429930300520
 20
-112.315923107079240
 40
20.799999999999926
 50
205.640070215894870
 51
260.083463391769440
  0
POINT
  8
0
  6
DASHDOT
 62
4
 10
-350.967429930300570
 20
-98.287153600205215
  0
ARC
  8
0
  6
CONTINUOUS
 62
3
 10
-371.767429930300520
 20
-112.315923107079240
 40
20.799999999999986
 50
174.275189547776620
 51
205.640070215894870
  0
LINE
  8
0
  6
CONTINUOUS
 62
3
 10
-260.967427546116260
 20
-43.716794752077135
 11
-260.967428499790570
 21
-40.830045484499010
  0
LINE
  8
0
  6
CONTINUOUS
 62
3
 10
-255.967432314485900
 20
-40.830051462080178
 11
-255.967431360811590
 21
-43.716796914961037
  0
LINE
  8
0
  6
CONTINUOUS
 62
3
 10
-258.467425209093560
 20
-39.386674366723128
 11
-255.967431424302280
 21
-40.830051011270598
  0
LINE
  8
0
  6
CONTINUOUS
 62
3
 10
-258.467435442426220
 20
-45.160170044801305
 11
-260.967427747469860
 21
-43.716794698057186
  0
LINE
  8
0
  6
CONTINUOUS
 62
3
 10
-258.467425147864110
 20
-39.386674846865844
 11
-260.967429875910970
 21
-40.830045881958995
  0
LINE
  8
0
  6
CONTINUOUS
 62
3
 10
-255.967430578356700
 20
-43.716797081755203
 11
-258.467434927863220
 21
-45.160170658451079
  0
LINE
  8
0
  6
CONTINUOUS
 62
3
 10
-323.967432314484880
 20
-43.716794752077135
 11
-323.967431360810560
 21
-40.830045484499010
  0
LINE
  8
0
  6
CONTINUOUS
 62
3
 10
-328.967427546115230
 20
-40.830051462080178
 11
-328.967428499789550
 21
-43.716796914961037
  0
LINE
  8
0
  6
CONTINUOUS
 62
3
 10
-326.467434651507570
 20
-39.386674366723128
 11
-328.967428436298860
 21
-40.830051011270598
  0
LINE
  8
0
  6
CONTINUOUS
 62
3
 10
-326.467424418174800
 20
-45.160170044801305
 11
-323.967432113131280
 21
-43.716794698057186
  0
LINE
  8
0
  6
CONTINUOUS
 62
3
 10
-326.467434712737030
 20
-39.386674846865844
 11
-323.967429984690170
 21
-40.830045881958995
  0
LINE
  8
0
  6
CONTINUOUS
 62
3
 10
-328.967429282244440
 20
-43.716797081755203
 11
-326.467424932737910
 21
-45.160170658451079
  0
CIRCLE
  8
0
  6
CONTINUOUS
 62
3
 10
-332.467429930300340
 20
-156.773423107079280
 40
5.000000000000000
  0
LINE
  8
0
  6
CONTINUOUS
 62
3
 10
-329.967432314484880
 20
-158.216794752077190
 11
-329.967431360810560
 21
-155.330045484499070
  0
LINE
  8
0
  6
CONTINUOUS
 62
3
 10
-334.967427546115230
 20
-155.330051462080230
 11
-334.967428499789550
 21
-158.216796914961090
  0
LINE
  8
0
  6
CONTINUOUS
 62
3
 10
-332.467434651507570
 20
-153.886674366723180
 11
-334.967428436298860
 21
-155.330051011270650
  0
LINE
  8
0
  6
CONTINUOUS
 62
3
 10
-332.467424418174800
 20
-159.660170044801360
 11
-329.967432113131280
 21
-158.216794698057240
  0
LINE
  8
0
  6
CONTINUOUS
 62
3
 10
-332.467434712737030
 20
-153.886674846865900
 11
-329.967429984690170
 21
-155.330045881959050
  0
LINE
  8
0
  6
CONTINUOUS
 62
3
 10
-334.967429282244440
 20
-158.216797081755260
 11
-332.467424932737910
 21
-159.660170658451140
  0
CIRCLE
  8
0
  6
CONTINUOUS
 62
3
 10
-252.467429930300800
 20
-156.773423107079280
 40
5.000000000000000
  0
LINE
  8
0
  6
CONTINUOUS
 62
3
 10
-254.967427546116260
 20
-158.216794752077190
 11
-254.967428499790570
 21
-155.330045484499070
  0
LINE
  8
0
  6
CONTINUOUS
 62
3
 10
-249.967432314485900
 20
-155.330051462080230
 11
-249.967431360811590
 21
-158.216796914961090
  0
LINE
  8
0
  6
CONTINUOUS
 62
3
 10
-252.467425209093560
 20
-153.886674366723180
 11
-249.967431424302280
 21
-155.330051011270650
  0
LINE
  8
0
  6
CONTINUOUS
 62
3
 10
-252.467435442426220
 20
-159.660170044801360
 11
-254.967427747469860
 21
-158.216794698057240
  0
LINE
  8
0
  6
CONTINUOUS
 62
3
 10
-252.467425147864110
 20
-153.886674846865900
 11
-254.967429875910970
 21
-155.330045881959050
  0
LINE
  8
0
  6
CONTINUOUS
 62
3
 10
-249.967430578356700
 20
-158.216797081755260
 11
-252.467434927863220
 21
-159.660170658451140
  0
LINE
  8
0
  6
CONTINUOUS
 62
3
 10
-292.467429930300340
 20
-161.273423107079220
 11
-326.118217380700340
 21
-161.273423107079220
  0
ARC
  8
0
  6
CONTINUOUS
 62
3
 10
-326.118217380700340
 20
-160.273423107079220
 40
1.000000000000049
 50
151.134272584994620
 51
270.000000000000000
  0
ARC
  8
0
  6
CONTINUOUS
 62
3
 10
-332.467429930300340
 20
-156.773423107079280
 40
6.249999999999792
 50
331.134272584992350
 51
147.533799814502430
  0
ARC
  8
0
  6
CONTINUOUS
 62
3
 10
-338.584314828205610
 20
-152.881608729982080
 40
0.999999999999817
 50
195.896808563643160
 51
327.533799814499730
  0
LINE
  8
0
  6
CONTINUOUS
 62
3
 10
-292.467429930300800
 20
-161.273423107079220
 11
-258.816642479900790
 21
-161.273423107079220
  0
ARC
  8
0
  6
CONTINUOUS
 62
3
 10
-258.816642479900790
 20
-160.273423107079220
 40
1.000000000000000
 50
270.000000000000000
 51
28.865727415011673
  0
ARC
  8
0
  6
CONTINUOUS
 62
3
 10
-252.467429930300800
 20
-156.773423107079280
 40
6.250000000000016
 50
32.466200185499126
 51
208.865727415006660
  0
ARC
  8
0
  6
CONTINUOUS
 62
3
 10
-246.350545032395530
 20
-152.881608729982020
 40
1.000000000000154
 50
212.466200185493310
 51
344.103191436353650
  0
ARC
  8
0
  6
CONTINUOUS
 62
3
 10
-252.467429930300800
 20
-156.773423107079340
 40
7.000000000000063
 50
308.213210701740310
 51
8.736046408088891
  0
ARC
  8
0
  6
CONTINUOUS
 62
3
 10
-271.666076447788330
 20
-120.419641125966560
 40
40.999999999999915
 50
313.090533982667180
 51
327.706333120354880
  0
ARC
  8
0
  6
CONTINUOUS
 62
3
 10
-239.618249057239150
 20
-154.798948267698680
 40
6.000000000000012
 50
132.989840483216540
 51
188.736046408088780
  0
LINE
  8
0
  6
CONTINUOUS
 62
3
 10
-258.276904949611890
 20
-162.273423107079220
 11
-248.137302911378360
 21
-162.273423107079220
  0
ARC
  8
0
  6
CONTINUOUS
 62
3
 10
-252.467429930300800
 20
-156.773423107079280
 40
7.999999999999941
 50
214.228866327812370
 51
223.432536557789660
  0
LINE
  8
0
  6
CONTINUOUS
 62
3
 10
-326.657954910989250
 20
-162.273423107079220
 11
-336.797556949222780
 21
-162.273423107079220
  0
ARC
  8
0
  6
CONTINUOUS
 62
3
 10
-332.467429930300340
 20
-156.773423107079280
 40
7.999999999999938
 50
316.567463442210340
 51
325.771133672187600
  0
ARC
  8
0
  6
CONTINUOUS
 62
3
 10
-332.467429930300340
 20
-156.773423107079340
 40
7.000000000000072
 50
171.263953591911560
 51
231.786789298259690
  0
ARC
  8
0
  6
CONTINUOUS
 62
3
 10
-345.316610803361980
 20
-154.798948267698680
 40
5.999999999999944
 50
351.263953591910710
 51
47.010159516783453
  0
ARC
  8
0
  6
CONTINUOUS
 62
3
 10
-313.268783412812580
 20
-120.419641125966560
 40
41.000000000000014
 50
212.293666879645140
 51
227.010159516783570
  0
LINE
  8
0
  6
CONTINUOUS
 62
3
 10
-320.217429930300340
 20
-42.273423107079225
 11
-320.217429930300340
 21
-34.274527515216789
  0
ARC
  8
0
  6
CONTINUOUS
 62
3
 10
-319.217429930300570
 20
-34.274527515216789
 40
0.999999999999975
 50
97.328097969880389
 51
180.000000000000000
  0
LINE
  8
0
  6
CONTINUOUS
 62
3
 10
-332.717429930300340
 20
-42.273423107079225
 11
-332.717429930300340
 21
-38.484685762310903
  0
ARC
  8
0
  6
CONTINUOUS
 62
3
 10
-333.717429930300340
 20
-38.484685762310903
 40
1.000000000000000
 50
0.000000000000000
 51
115.053819043268190
  0
ARC
  8
0
  6
CONTINUOUS
 62
3
 10
-251.217429930300800
 20
-38.484685762310903
 40
0.999999999999981
 50
64.946180956731823
 51
180.000000000000000
  0
ARC
  8
0
  6
CONTINUOUS
 62
3
 10
-265.717429930300570
 20
-34.274527515216789
 40
0.999999999999773
 50
0.000000000000000
 51
82.671902030119611
  0
LINE
  8
0
  6
CONTINUOUS
 62
3
 10
-264.717429930300800
 20
-42.273423107079225
 11
-264.717429930300800
 21
-34.274527515216789
  0
LINE
  8
0
  6
CONTINUOUS
 62
3
 10
-252.217429930300800
 20
-42.273423107079225
 11
-252.217429930300800
 21
-38.484685762310903
  0
ARC
  8
0
  6
CONTINUOUS
 62
3
 10
-292.467429930300340
 20
-432.273423107079220
 40
400.000000000000000
 50
90.000000000000000
 51
93.357817421570701
  0
ARC
  8
0
  6
CONTINUOUS
 62
3
 10
-292.467429930300800
 20
-432.273423107079220
 40
400.000000000000170
 50
86.642182578429299
 51
90.000000000000000
  0
LINE
  8
0
  6
CONTINUOUS
 62
3
 10
-340.967429930300570
 20
-162.773423107079220
 11
-364.967429930300570
 21
-162.773423107079220
  0
LINE
  8
0
  6
CONTINUOUS
 62
3
 10
-243.967429930300570
 20
-162.773423107079220
 11
-219.967429930300570
 21
-162.773423107079220
  0
LINE
  8
0
  6
CONTINUOUS
 62
3
 10
-292.467429930300570
 20
-161.273423107079220
 11
-325.853051652639120
 21
-161.273423107079220
  0
LINE
  8
0
  6
CONTINUOUS
 62
3
 10
-326.657954910989470
 20
-162.273423107079220
 11
-339.967429930300570
 21
-162.273423107079220
  0
LINE
  8
0
  6
CONTINUOUS
 62
3
 10
-354.506000390845660
 20
-138.273423107079220
 11
-359.967429930300570
 21
-138.273423107079220
  0
LINE
  8
0
  6
CONTINUOUS
 62
3
 10
-340.967429930300570
 20
-163.273423107079220
 11
-364.967429930300570
 21
-163.273423107079220
  0
LINE
  8
0
  6
CONTINUOUS
 62
3
 10
-351.970037714680530
 20
-139.670646358714630
 11
-349.617581771177580
 21
-143.392774519192020
  0
LINE
  8
0
  6
CONTINUOUS
 62
3
 10
-340.967429930300570
 20
-163.273423107079220
 11
-340.967429930300570
 21
-154.677386264757390
  0
LINE
  8
0
  6
CONTINUOUS
 62
3
 10
-364.967429930300570
 20
-163.273423107079220
 11
-364.967429930300570
 21
-151.273423107079220
  0
LINE
  8
0
  6
DASHDOT
 62
4
 10
-354.989686552614780
 20
-166.853926876000290
 11
-354.989686552614780
 21
-147.331578700951470
  0
LINE
  8
0
  6
CONTINUOUS
 62
3
 10
-347.386874471105560
 20
-148.273423107079220
 11
-361.967429930300570
 21
-148.273423107079220
  0
LINE
  8
0
  6
CONTINUOUS
 62
3
 10
-292.467429930300570
 20
-161.273423107079220
 11
-259.081808207962240
 21
-161.273423107079220
  0
LINE
  8
0
  6
CONTINUOUS
 62
3
 10
-258.276904949611890
 20
-162.273423107079220
 11
-244.967429930300570
 21
-162.273423107079220
  0
LINE
  8
0
  6
CONTINUOUS
 62
3
 10
-230.428859469755480
 20
-138.273423107079220
 11
-224.967429930300570
 21
-138.273423107079220
  0
LINE
  8
0
  6
CONTINUOUS
 62
3
 10
-243.967429930300570
 20
-163.273423107079220
 11
-219.967429930300570
 21
-163.273423107079220
  0
LINE
  8
0
  6
CONTINUOUS
 62
3
 10
-232.964822145920610
 20
-139.670646358714630
 11
-235.317278089423550
 21
-143.392774519192020
  0
LINE
  8
0
  6
CONTINUOUS
 62
3
 10
-243.967429930300570
 20
-163.273423107079220
 11
-243.967429930300570
 21
-154.677386264757390
  0
LINE
  8
0
  6
CONTINUOUS
 62
3
 10
-219.967429930300570
 20
-163.273423107079220
 11
-219.967429930300570
 21
-151.273423107079220
  0
LINE
  8
0
  6
DASHDOT
 62
4
 10
-229.945173307986350
 20
-166.853926876000290
 11
-229.945173307986350
 21
-147.331578700951470
  0
LINE
  8
0
  6
CONTINUOUS
 62
3
 10
-237.547985389495580
 20
-148.273423107079220
 11
-222.967429930300570
 21
-148.273423107079220
  0
ARC
  8
0
  6
CONTINUOUS
 62
3
 10
-292.467429930300570
 20
-432.273423107079220
 40
400.000000000000000
 50
90.000000000000000
 51
93.357817421570687
  0
ARC
  8
0
  6
CONTINUOUS
 62
3
 10
-292.467429930300570
 20
-432.273423107079220
 40
400.000000000000170
 50
86.642182578429313
 51
90.000000000000000
  0
ARC
  8
0
  6
CONTINUOUS
 62
3
 10
-313.268783412812810
 20
-120.419641125966560
 40
41.000000000000014
 50
212.293666879645140
 51
227.010159516783520
  0
ARC
  8
0
  6
CONTINUOUS
 62
3
 10
-347.386874471105560
 20
-151.273423107079220
 40
2.999999999999881
 50
42.123770773014201
 51
90.000000000000000
  0
ARC
  8
0
  6
CONTINUOUS
 62
3
 10
-343.967429930300570
 20
-154.677386264757390
 40
3.000000000000000
 50
0.000000000000000
 51
48.136221427766380
  0
ARC
  8
0
  6
CONTINUOUS
 62
3
 10
-313.268783412812810
 20
-120.419641125966560
 40
42.999999999999908
 50
212.293666879645230
 51
228.136221427764950
  0
ARC
  8
0
  6
CONTINUOUS
 62
3
 10
-271.666076447788330
 20
-120.419641125966560
 40
40.999999999999915
 50
313.090533982667180
 51
327.706333120354880
  0
ARC
  8
0
  6
CONTINUOUS
 62
3
 10
-359.967429930300570
 20
-141.273423107079220
 40
3.000000000000000
 50
90.000000000000000
 51
180.000000000000000
  0
ARC
  8
0
  6
CONTINUOUS
 62
3
 10
-339.967429930300570
 20
-163.273423107079220
 40
1.000000000000000
 50
90.000000000000000
 51
180.000000000000000
  0
ARC
  8
0
  6
CONTINUOUS
 62
3
 10
-354.506000390845660
 20
-141.273423107079220
 40
3.000000000000127
 50
32.293666879644171
 51
90.000000000000000
  0
ARC
  8
0
  6
CONTINUOUS
 62
3
 10
-361.967429930300570
 20
-151.273423107079220
 40
3.000000000000000
 50
90.000000000000000
 51
180.000000000000000
  0
ARC
  8
0
  6
CONTINUOUS
 62
3
 10
-365.967429930300570
 20
-146.801287152079680
 40
3.000000000000029
 50
311.810314895778110
 51
0.000000000000000
  0
ARC
  8
0
  6
CONTINUOUS
 62
3
 10
-224.967429930300570
 20
-141.273423107079220
 40
3.000000000000000
 50
0.000000000000000
 51
90.000000000000000
  0
ARC
  8
0
  6
CONTINUOUS
 62
3
 10
-244.967429930300570
 20
-163.273423107079220
 40
1.000000000000000
 50
0.000000000000000
 51
90.000000000000000
  0
ARC
  8
0
  6
CONTINUOUS
 62
3
 10
-230.428859469755480
 20
-141.273423107079220
 40
3.000000000000000
 50
90.000000000000000
 51
147.706333120355820
  0
ARC
  8
0
  6
CONTINUOUS
 62
3
 10
-237.547985389495580
 20
-151.273423107079220
 40
3.000000000000000
 50
90.000000000000000
 51
137.876229226985800
  0
ARC
  8
0
  6
CONTINUOUS
 62
3
 10
-240.967429930300570
 20
-154.677386264757390
 40
3.000000000000084
 50
131.863778572233600
 51
180.000000000000000
  0
ARC
  8
0
  6
CONTINUOUS
 62
3
 10
-271.666076447788330
 20
-120.419641125966560
 40
43.000000000000021
 50
311.863778572235050
 51
327.706333120354710
  0
ARC
  8
0
  6
CONTINUOUS
 62
3
 10
-222.967429930300570
 20
-151.273423107079220
 40
3.000000000000000
 50
0.000000000000000
 51
90.000000000000000
  0
ARC
  8
0
  6
CONTINUOUS
 62
3
 10
-218.967429930300570
 20
-146.801287152079680
 40
3.000000000000000
 50
180.000000000000000
 51
228.189685104221890
  0
ARC
  8
0
  6
CONTINUOUS
 62
3
 10
-332.467429930300570
 20
-156.773423107079280
 40
7.000000000000081
 50
171.263953591911100
 51
231.786789298261400
  0
ARC
  8
0
  6
CONTINUOUS
 62
3
 10
-345.316610803362210
 20
-154.798948267698620
 40
5.999999999999935
 50
351.263953591911220
 51
47.010159516783453
  0
ARC
  8
0
  6
CONTINUOUS
 62
3
 10
-252.467429930300800
 20
-156.773423107079280
 40
7.000000000000107
 50
308.213210701740080
 51
8.736046408088891
  0
ARC
  8
0
  6
CONTINUOUS
 62
3
 10
-239.618249057238930
 20
-154.798948267698620
 40
6.000000000000167
 50
132.989840483218130
 51
188.736046408088440
  0
ARC
  8
0
  6
CONTINUOUS
 62
3
 10
-332.467429930300570
 20
-156.773423107079280
 40
7.999999999999938
 50
316.567463442210340
 51
325.771133672187600
  0
ARC
  8
0
  6
CONTINUOUS
 62
3
 10
-252.467429930300800
 20
-156.773423107079280
 40
7.999999999999941
 50
214.228866327812370
 51
223.432536557789660
  0
ARC
  8
0
  6
CONTINUOUS
 62
3
 10
-271.967429930300800
 20
-82.874296033184010
 40
50.000000000000000
 50
16.978776992020297
 51
86.642182578429185
  0
LINE
  8
0
  6
CONTINUOUS
 62
3
 10
-221.967429930300570
 20
-146.801287152079680
 11
-221.967429930300570
 21
-128.273423107079220
  0
LINE
  8
0
  6
CONTINUOUS
 62
3
 10
-228.127525233415330
 20
-128.273423107079220
 11
-237.007919873533410
 21
-142.324256686948960
  0
ARC
  8
0
  6
CONTINUOUS
 62
3
 10
-258.467429930300800
 20
-42.273423107079225
 40
5.000000000000307
 50
311.551050375543410
 51
218.794478426544910
  0
ARC
  8
0
  6
CONTINUOUS
 62
3
 10
-258.467429930300800
 20
-42.273423107079225
 40
6.250000000000000
 50
180.000000000000000
 51
208.862789398056090
  0
ARC
  8
0
  6
CONTINUOUS
 62
3
 10
-258.467429930300800
 20
-42.273423107079225
 40
6.250000000000258
 50
321.482739404032770
 51
0.000000000000000
  0
ARC
  8
0
  6
CONTINUOUS
 62
3
 10
-326.467429930300340
 20
-42.273423107079225
 40
5.000000000000345
 50
321.205521573455480
 51
228.448949624457100
  0
ARC
  8
0
  6
CONTINUOUS
 62
3
 10
-326.467429930300340
 20
-42.273423107079225
 40
6.250000000000000
 50
180.000000000000000
 51
218.517260595967570
  0
ARC
  8
0
  6
CONTINUOUS
 62
3
 10
-326.467429930300340
 20
-42.273423107079225
 40
6.250000000000186
 50
331.137210601943650
 51
0.000000000000000
  0
ARC
  8
0
  6
CONTINUOUS
 62
3
 10
-312.967429930300340
 20
-82.874296033184010
 40
50.000000000000199
 50
93.357817421570815
 51
151.143261462943800
  0
LINE
  8
0
  6
CONTINUOUS
 62
3
 10
-350.996356605900590
 20
-71.273423107079168
 11
-350.252399492901990
 21
-71.273423107079168
  0
LINE
  8
0
  6
CONTINUOUS
 62
3
 10
-362.967429930300570
 20
-146.801287152079680
 11
-362.967429930300570
 21
-131.162673490102860
  0
LINE
  8
0
  6
CONTINUOUS
 62
3
 10
-357.391826664647850
 20
-127.348621825158910
 11
-347.926939987067500
 21
-142.324256686948960
  0
LINE
  8
0
  6
DASHDOT
 62
4
 10
-191.209345405386560
 20
-98.273423107079225
 11
-405.878868693296680
 21
-98.273423107079225
  0
LINE
  8
0
  6
DASHDOT
 62
4
 10
-292.467429930300570
 20
-21.881902195277007
 11
-292.467429930300570
 21
-173.748915487140270
  0
LINE
  8
0
  6
DASHDOT
 62
4
 10
-309.930303029283100
 20
-78.273423107079225
 11
-274.460654078593510
 21
-78.273423107079225
  0
LINE
  8
0
  6
CONTINUOUS
 62
3
 10
51.306782839619700
 20
137.355125874376430
 11
51.306782839619700
 21
149.555124729967250
  0
LINE
  8
0
  6
CONTINUOUS
 62
3
 10
45.306782839619700
 20
148.455125302171840
 11
45.306782839619700
 21
138.455125302171840
  0
LINE
  8
0
  6
CONTINUOUS
 62
3
 10
51.306782839619700
 20
138.455125302171840
 11
45.306782839619700
 21
138.455125302171840
  0
LINE
  8
0
  6
CONTINUOUS
 62
3
 10
51.306782839619700
 20
148.455125302171840
 11
45.306782839619700
 21
148.455125302171840
  0
LINE
  8
0
  6
CONTINUOUS
 62
3
 10
51.306782839619700
 20
81.555124729966337
 11
51.306782839619700
 21
69.355125874375517
  0
LINE
  8
0
  6
CONTINUOUS
 62
3
 10
45.306782839619700
 20
70.455125302170927
 11
45.306782839619700
 21
80.455125302170927
  0
LINE
  8
0
  6
CONTINUOUS
 62
3
 10
51.306782839619700
 20
80.455125302170927
 11
45.306782839619700
 21
80.455125302170927
  0
LINE
  8
0
  6
CONTINUOUS
 62
3
 10
51.306782839619700
 20
70.455125302170927
 11
45.306782839619700
 21
70.455125302170927
  0
ARC
  8
0
  6
CONTINUOUS
 62
3
 10
48.306782839619814
 20
40.321150705955006
 40
1.000000000000114
 50
180.000000000000000
 51
265.335584795435580
  0
LINE
  8
0
  6
CONTINUOUS
 62
3
 10
48.306782839619700
 20
39.955125302172746
 11
48.306782839619700
 21
70.455125302170018
  0
LINE
  8
0
  6
CONTINUOUS
 62
3
 10
57.306782839619700
 20
109.455125302170920
 11
57.306782839619700
 21
38.955125302170927
  0
LINE
  8
0
  6
CONTINUOUS
 62
3
 10
49.306782839619700
 20
38.955125302172746
 11
57.306782839619700
 21
38.955125302170927
  0
ARC
  8
0
  6
CONTINUOUS
 62
3
 10
49.306782839619700
 20
39.955125302172746
 40
1.000000000000999
 50
253.216766737311250
 51
270.000000000000000
  0
ARC
  8
0
  6
CONTINUOUS
 62
3
 10
48.144143820725731
 20
38.327774537357072
 40
1.000000000000481
 50
54.456596482759011
 51
85.335584795446323
  0
ARC
  8
0
  6
CONTINUOUS
 62
3
 10
49.306782839619700
 20
39.955125302172746
 40
1.000000000000000
 50
180.000000000000000
 51
253.216766737311250
  0
ARC
  8
0
  6
CONTINUOUS
 62
3
 10
48.144143820725731
 20
180.582476066984780
 40
1.000000000000574
 50
274.664415204553680
 51
305.543403517241020
  0
ARC
  8
0
  6
CONTINUOUS
 62
3
 10
46.306782839619700
 20
167.443239054024160
 40
1.999999999999851
 50
271.499999999989830
 51
0.000000000000000
  0
ARC
  8
0
  6
CONTINUOUS
 62
3
 10
49.306782839619700
 20
178.955125302169110
 40
1.000000000000999
 50
106.783233262688730
 51
180.000000000000000
  0
ARC
  8
0
  6
CONTINUOUS
 62
3
 10
49.306782839619700
 20
178.955125302169110
 40
1.000000000000000
 50
90.000000000000000
 51
106.783233262688730
  0
LINE
  8
0
  6
CONTINUOUS
 62
3
 10
49.306782839619700
 20
179.955125302169110
 11
57.306782839619700
 21
179.955125302170930
  0
LINE
  8
0
  6
CONTINUOUS
 62
3
 10
46.359136736235087
 20
165.443924404073190
 11
30.806782839620610
 21
165.036671684720200
  0
LINE
  8
0
  6
CONTINUOUS
 62
3
 10
57.306782839619700
 20
109.455125302170920
 11
57.306782839619700
 21
179.955125302170930
  0
LINE
  8
0
  6
CONTINUOUS
 62
3
 10
30.806782839620610
 20
109.455125302170920
 11
30.806782839620610
 21
165.036671684720200
  0
ARC
  8
0
  6
CONTINUOUS
 62
3
 10
48.306782839619700
 20
178.589099898386850
 40
0.999999999999668
 50
94.664415204557926
 51
180.000000000000000
  0
LINE
  8
0
  6
CONTINUOUS
 62
3
 10
47.306782839619700
 20
167.417053132455290
 11
47.306782839619700
 21
178.589099898386850
  0
ARC
  8
0
  6
CONTINUOUS
 62
3
 10
45.306782839619700
 20
167.417053132455290
 40
1.999999999999851
 50
271.499999999989830
 51
0.000000000000000
  0
ARC
  8
0
  6
CONTINUOUS
 62
3
 10
51.206782839620246
 20
149.605125302171470
 40
0.099999999999454
 50
0.000000000000000
 51
90.000000000000000
  0
ARC
  8
0
  6
CONTINUOUS
 62
3
 10
49.306782839619700
 20
150.705125302171840
 40
1.000000000000000
 50
180.000000000000000
 51
270.000000000000000
  0
ARC
  8
0
  6
CONTINUOUS
 62
3
 10
51.206782839620246
 20
137.305125302171290
 40
0.099999999999454
 50
270.000000000000000
 51
0.000000000000000
  0
ARC
  8
0
  6
CONTINUOUS
 62
3
 10
49.306782839619700
 20
136.205125302171840
 40
1.000000000000000
 50
90.000000000000000
 51
180.000000000000000
  0
LINE
  8
0
  6
CONTINUOUS
 62
3
 10
51.306782839619700
 20
149.605125302171470
 11
51.306782839619700
 21
137.305125302171290
  0
LINE
  8
0
  6
CONTINUOUS
 62
3
 10
49.306782839619700
 20
149.705125302171840
 11
51.206782839620246
 21
149.705125302171840
  0
LINE
  8
0
  6
CONTINUOUS
 62
3
 10
49.306782839619700
 20
137.205125302171840
 11
51.206782839620246
 21
137.205125302171840
  0
LINE
  8
0
  6
CONTINUOUS
 62
3
 10
48.306782839619700
 20
178.955125302169110
 11
48.306782839619700
 21
148.455125302171840
  0
LINE
  8
0
  6
CONTINUOUS
 62
3
 10
48.306782839619700
 20
138.455125302171840
 11
48.306782839619700
 21
109.455125302170920
  0
LINE
  8
0
  6
CONTINUOUS
 62
3
 10
45.306782839619700
 20
178.455125302171840
 11
45.306782839619700
 21
168.455125302171840
  0
LINE
  8
0
  6
CONTINUOUS
 62
3
 10
47.306782839619700
 20
178.455125302171840
 11
45.306782839619700
 21
178.455125302171840
  0
LINE
  8
0
  6
CONTINUOUS
 62
3
 10
47.306782839619700
 20
168.455125302171840
 11
45.306782839619700
 21
168.455125302171840
  0
ARC
  8
0
  6
CONTINUOUS
 62
3
 10
46.306782839619700
 20
51.467011550317693
 40
2.000000000000000
 50
0.000000000000000
 51
88.500000000010189
  0
LINE
  8
0
  6
CONTINUOUS
 62
3
 10
46.359136736235087
 20
53.466326200268668
 11
30.806782839620610
 21
53.873578919621650
  0
LINE
  8
0
  6
CONTINUOUS
 62
3
 10
30.806782839620610
 20
109.455125302170920
 11
30.806782839620610
 21
53.873578919621650
  0
LINE
  8
0
  6
CONTINUOUS
 62
3
 10
47.306782839619700
 20
51.493197471886560
 11
47.306782839619700
 21
40.321150705955915
  0
ARC
  8
0
  6
CONTINUOUS
 62
3
 10
45.306782839619700
 20
51.493197471886560
 40
2.000000000000000
 50
0.000000000000000
 51
88.500000000010189
  0
ARC
  8
0
  6
CONTINUOUS
 62
3
 10
51.206782839620246
 20
69.305125302171291
 40
0.100000000000364
 50
270.000000000000000
 51
0.000000000000000
  0
ARC
  8
0
  6
CONTINUOUS
 62
3
 10
49.306782839619700
 20
68.205125302170927
 40
1.000000000000000
 50
90.000000000000000
 51
180.000000000000000
  0
ARC
  8
0
  6
CONTINUOUS
 62
3
 10
51.206782839620246
 20
81.605125302170563
 40
0.099999999999454
 50
0.000000000000000
 51
90.000000000000000
  0
ARC
  8
0
  6
CONTINUOUS
 62
3
 10
49.306782839619700
 20
82.705125302170927
 40
1.000000000000000
 50
180.000000000000000
 51
270.000000000000000
  0
LINE
  8
0
  6
CONTINUOUS
 62
3
 10
51.306782839619700
 20
69.305125302171291
 11
51.306782839619700
 21
81.605125302170563
  0
LINE
  8
0
  6
CONTINUOUS
 62
3
 10
49.306782839619700
 20
69.205125302170927
 11
51.206782839620246
 21
69.205125302170927
  0
LINE
  8
0
  6
CONTINUOUS
 62
3
 10
49.306782839619700
 20
81.705125302170927
 11
51.206782839620246
 21
81.705125302170927
  0
LINE
  8
0
  6
CONTINUOUS
 62
3
 10
48.306782839619700
 20
80.455125302170018
 11
48.306782839619700
 21
109.455125302170920
  0
LINE
  8
0
  6
CONTINUOUS
 62
3
 10
45.306782839619700
 20
40.455125302170927
 11
45.306782839619700
 21
50.455125302170927
  0
LINE
  8
0
  6
CONTINUOUS
 62
3
 10
47.306782839619700
 20
40.455125302170416
 11
45.306782839619700
 21
40.455125302170927
  0
LINE
  8
0
  6
CONTINUOUS
 62
3
 10
47.306782839619700
 20
50.455125302170416
 11
45.306782839619700
 21
50.455125302170927
  0
ARC
  8
0
  6
CONTINUOUS
 62
3
 10
177.406782839619610
 20
120.055125302170380
 40
0.400000000000091
 50
0.000000000000000
 51
90.000000000000000
  0
LINE
  8
0
  6
CONTINUOUS
 62
3
 10
177.806782839619700
 20
109.455125302170920
 11
177.806782839619700
 21
120.055125302170380
  0
LINE
  8
0
  6
CONTINUOUS
 62
3
 10
139.806782839619700
 20
97.455125302170018
 11
141.406782839619610
 21
97.455125302170927
  0
LINE
  8
0
  6
CONTINUOUS
 62
3
 10
177.406782839619610
 20
120.455125302170920
 11
144.366590460755110
 21
120.455125302170920
  0
LINE
  8
0
  6
CONTINUOUS
 62
3
 10
141.806782839619700
 20
97.855125302170563
 11
141.406782839619610
 21
97.455125302170927
  0
LINE
  8
0
  6
CONTINUOUS
 62
3
 10
144.366590460755110
 20
98.455125302170927
 11
143.806782839619700
 21
98.605125302170563
  0
LINE
  8
0
  6
CONTINUOUS
 62
3
 10
143.806782839619700
 20
98.605125302170563
 11
142.606782839619430
 21
98.605125302170563
  0
ARC
  8
0
  6
CONTINUOUS
 62
3
 10
142.606782839619430
 20
97.805125302170381
 40
0.800000000000182
 50
90.000000000000000
 51
176.296803365717580
  0
LINE
  8
0
  6
CONTINUOUS
 62
3
 10
177.406782839619610
 20
120.455125302170920
 11
144.366590460755110
 21
120.455125302170920
  0
LINE
  8
0
  6
CONTINUOUS
 62
3
 10
141.806782839619700
 20
97.855125302170563
 11
141.406782839619610
 21
97.455125302170927
  0
LINE
  8
0
  6
CONTINUOUS
 62
3
 10
144.366590460755110
 20
98.455125302170927
 11
143.806782839619700
 21
98.605125302170563
  0
LINE
  8
0
  6
CONTINUOUS
 62
3
 10
143.806782839619700
 20
98.605125302170563
 11
142.606782839619430
 21
98.605125302170563
  0
LINE
  8
0
  6
CONTINUOUS
 62
3
 10
141.806782839619700
 20
109.455125302170920
 11
141.806782839619700
 21
97.855125302170563
  0
LINE
  8
0
  6
CONTINUOUS
 62
3
 10
139.806782839619700
 20
97.455125302170018
 11
141.406782839619610
 21
97.455125302170927
  0
LINE
  8
0
  6
CONTINUOUS
 62
3
 10
145.806782839619700
 20
98.455125302170927
 11
145.806782839619700
 21
95.955125302170927
  0
LINE
  8
0
  6
CONTINUOUS
 62
3
 10
139.806782839619700
 20
121.455125302170920
 11
141.406782839619610
 21
121.455125302170920
  0
LINE
  8
0
  6
CONTINUOUS
 62
3
 10
141.806782839619700
 20
121.055125302170380
 11
141.406782839619610
 21
121.455125302170920
  0
LINE
  8
0
  6
CONTINUOUS
 62
3
 10
144.366590460755110
 20
120.455125302170920
 11
143.806782839619700
 21
120.305125302170380
  0
LINE
  8
0
  6
CONTINUOUS
 62
3
 10
143.806782839619700
 20
120.305125302170380
 11
142.606782839619430
 21
120.305125302170380
  0
ARC
  8
0
  6
CONTINUOUS
 62
3
 10
142.606782839619430
 20
121.105125302170560
 40
0.799999999999783
 50
183.703196634282420
 51
270.000000000000000
  0
LINE
  8
0
  6
CONTINUOUS
 62
3
 10
141.806782839619700
 20
121.055125302170380
 11
141.406782839619610
 21
121.455125302170920
  0
LINE
  8
0
  6
CONTINUOUS
 62
3
 10
144.366590460755110
 20
120.455125302170920
 11
143.806782839619700
 21
120.305125302170380
  0
LINE
  8
0
  6
CONTINUOUS
 62
3
 10
143.806782839619700
 20
120.305125302170380
 11
142.606782839619430
 21
120.305125302170380
  0
LINE
  8
0
  6
CONTINUOUS
 62
3
 10
141.806782839619700
 20
109.455125302170920
 11
141.806782839619700
 21
121.055125302170380
  0
LINE
  8
0
  6
CONTINUOUS
 62
3
 10
177.806784746922400
 20
95.955125302170927
 11
145.806784746922400
 21
95.955125302170927
  0
LINE
  8
0
  6
CONTINUOUS
 62
3
 10
177.806782839619700
 20
98.855125302170563
 11
177.806782839619700
 21
95.955125302170927
  0
ARC
  8
0
  6
CONTINUOUS
 62
3
 10
177.406782839619610
 20
98.855125302170563
 40
0.399999999999636
 50
270.000000000000000
 51
0.000000000000000
  0
LINE
  8
0
  6
CONTINUOUS
 62
3
 10
177.406782839619610
 20
98.455125302170927
 11
144.366590460755110
 21
98.455125302170927
  0
LINE
  8
0
  6
CONTINUOUS
 62
3
 10
177.406782839619610
 20
98.455125302170927
 11
144.366590460755110
 21
98.455125302170927
  0
LINE
  8
0
  6
CONTINUOUS
 62
3
 10
177.806782839619700
 20
109.455125302170920
 11
177.806782839619700
 21
98.855125302170563
  0
LINE
  8
0
  6
CONTINUOUS
 62
4
 10
57.806782839619700
 20
39.007067472815834
 11
64.877635303820171
 21
39.007067472815834
  0
LINE
  8
0
  6
CONTINUOUS
 62
3
 10
139.806782839619700
 20
179.989730775939280
 11
139.806782839619700
 21
109.455125302170920
  0
LINE
  8
0
  6
CONTINUOUS
 62
3
 10
137.841687652494330
 20
181.989426166252090
 11
59.806782839619700
 21
183.351530496427590
  0
LINE
  8
0
  6
CONTINUOUS
 62
3
 10
137.841687652494330
 20
36.920824438088857
 11
59.806782839619700
 21
35.558720107913359
  0
LINE
  8
0
  6
CONTINUOUS
 62
3
 10
139.806782839619700
 20
38.920519828401666
 11
139.806782839619700
 21
109.455125302170920
  0
LINE
  8
0
  6
CONTINUOUS
 62
3
 10
59.806782839619700
 20
35.558720107913359
 11
24.731355176688339
 21
36.882490631678593
  0
LINE
  8
0
  6
CONTINUOUS
 62
3
 10
59.806782839619700
 20
183.351530496427590
 11
24.731355176688339
 21
182.027759972662350
  0
LINE
  8
0
  6
CONTINUOUS
 62
3
 10
57.806782839619700
 20
38.946397769705982
 11
57.806782839619700
 21
109.455125302170920
  0
LINE
  8
0
  6
CONTINUOUS
 62
3
 10
137.806782839619700
 20
63.005163240601178
 11
137.806782839619700
 21
109.455125302170920
  0
LINE
  8
0
  6
CONTINUOUS
 62
3
 10
135.076793808753790
 20
60.082023815665707
 11
127.806782839619700
 21
59.955125302170018
  0
LINE
  8
0
  6
CONTINUOUS
 62
3
 10
91.806782839619700
 20
39.548597509729916
 11
57.806782839619700
 21
38.955125302170927
  0
LINE
  8
0
  6
DASHDOT
 62
4
 10
138.078428662083750
 20
46.955125302170018
 11
118.315177137033970
 21
46.955125302170018
  0
LINE
  8
0
  6
CONTINUOUS
 62
3
 10
57.806782839619700
 20
179.955125302170930
 11
57.806782839619700
 21
109.455125302170920
  0
LINE
  8
0
  6
CONTINUOUS
 62
4
 10
127.806782839619700
 20
158.955125302170930
 11
134.488965638007360
 21
158.955125302170930
  0
LINE
  8
0
  6
CONTINUOUS
 62
3
 10
137.806782839619700
 20
155.905087363739770
 11
137.806782839619700
 21
109.455125302170920
  0
LINE
  8
0
  6
CONTINUOUS
 62
3
 10
135.076793808753790
 20
158.828226788675240
 11
127.806782839619700
 21
158.955125302170930
  0
LINE
  8
0
  6
CONTINUOUS
 62
3
 10
91.806782839619700
 20
179.361653094611030
 11
57.806782839619700
 21
179.955125302170930
  0
ARC
  8
0
  6
CONTINUOUS
 62
3
 10
137.806782839619700
 20
38.920519828401666
 40
2.000000000000027
 50
271.000000000001760
 51
0.000000000000000
  0
ARC
  8
0
  6
CONTINUOUS
 62
3
 10
24.806782839619700
 20
38.881067792476642
 40
2.000000000000000
 50
180.000000000000000
 51
267.838644059775390
  0
ARC
  8
0
  6
CONTINUOUS
 62
3
 10
137.806782839619700
 20
179.989730775939280
 40
2.000000000000000
 50
0.000000000000000
 51
88.999999999998238
  0
ARC
  8
0
  6
CONTINUOUS
 62
3
 10
24.806782839619700
 20
180.029182811864300
 40
1.999999999999720
 50
92.161355940224595
 51
180.000000000000000
  0
ARC
  8
0
  6
CONTINUOUS
 62
3
 10
90.759638453383104
 20
119.370791385227670
 40
59.999999999999616
 50
67.619615415393312
 51
89.000000000000398
  0
ARC
  8
0
  6
CONTINUOUS
 62
3
 10
135.806782839619700
 20
63.005163240601178
 40
2.000000000000242
 50
320.957132821453510
 51
0.000000000000000
  0
ARC
  8
0
  6
CONTINUOUS
 62
3
 10
135.041888995879160
 20
62.081719205978516
 40
2.000000000000027
 50
271.000000000001760
 51
319.772582959554710
  0
ARC
  8
0
  6
CONTINUOUS
 62
3
 10
112.843360731281790
 20
45.908225685353500
 40
2.000000000000135
 50
292.380384584596470
 51
4.002115591437622
  0
ARC
  8
0
  6
CONTINUOUS
 62
3
 10
127.806782839619700
 20
46.955125302170018
 40
13.000000000000000
 50
90.000000000000000
 51
184.002115591443470
  0
ARC
  8
0
  6
CONTINUOUS
 62
3
 10
90.759638453383104
 20
99.539459219113269
 40
60.000000000000036
 50
319.772582959567330
 51
320.957132821443390
  0
ARC
  8
0
  6
CONTINUOUS
 62
3
 10
90.759638453383104
 20
99.539459219113269
 40
59.999999999999872
 50
270.999999999999660
 51
292.380384584606300
  0
ARC
  8
0
  6
CONTINUOUS
 62
3
 10
138.806782839619700
 20
86.455125302170927
 40
1.000000000000000
 50
90.000000000000000
 51
180.000000000000000
  0
ARC
  8
0
  6
CONTINUOUS
 62
3
 10
138.806782839619700
 20
88.455125302170927
 40
1.000000000000000
 50
270.000000000000000
 51
0.000000000000000
  0
CIRCLE
  8
0
  6
CONTINUOUS
 62
3
 10
34.806782839619700
 20
46.955125302170018
 40
5.000000000000000
  0
CIRCLE
  8
0
  6
CONTINUOUS
 62
3
 10
127.806782839619700
 20
46.955125302170018
 40
5.000000000000000
  0
ARC
  8
0
  6
CONTINUOUS
 62
3
 10
135.806782839619700
 20
155.905087363739770
 40
2.000000000000000
 50
0.000000000000000
 51
39.042867178546516
  0
ARC
  8
0
  6
CONTINUOUS
 62
3
 10
135.041888995879160
 20
156.828531398362430
 40
1.999999999999549
 50
40.227417040425401
 51
88.999999999998238
  0
ARC
  8
0
  6
CONTINUOUS
 62
3
 10
112.843360731281790
 20
173.002024918987440
 40
1.999999999999929
 50
355.997884408536380
 51
67.619615415393611
  0
ARC
  8
0
  6
CONTINUOUS
 62
3
 10
127.806782839619700
 20
171.955125302170930
 40
12.999999999999615
 50
175.997884408560510
 51
270.000000000000000
  0
ARC
  8
0
  6
CONTINUOUS
 62
3
 10
90.759638453383104
 20
119.370791385227670
 40
60.000000000000000
 50
39.042867178556605
 51
40.227417040431980
  0
ARC
  8
0
  6
CONTINUOUS
 62
3
 10
138.806782839619700
 20
132.455125302170930
 40
1.000000000000000
 50
180.000000000000000
 51
270.000000000000000
  0
ARC
  8
0
  6
CONTINUOUS
 62
3
 10
138.806782839619700
 20
130.455125302170930
 40
1.000000000000000
 50
0.000000000000000
 51
90.000000000000000
  0
CIRCLE
  8
0
  6
CONTINUOUS
 62
3
 10
34.806782839619700
 20
171.955125302170930
 40
5.000000000000000
  0
CIRCLE
  8
0
  6
CONTINUOUS
 62
3
 10
127.806782839619700
 20
171.955125302170930
 40
5.000000000000000
  0
LINE
  8
0
  6
CONTINUOUS
 62
3
 10
30.806782839620610
 20
55.955125302170927
 11
30.806782839620610
 21
109.455125302170920
  0
LINE
  8
0
  6
CONTINUOUS
 62
3
 10
30.806782839620610
 20
162.955125302170930
 11
30.806782839620610
 21
109.455125302170920
  0
LINE
  8
0
  6
CONTINUOUS
 62
3
 10
30.806782839620610
 20
55.955125302170927
 11
-42.693217160379163
 21
55.955125302170927
  0
LINE
  8
0
  6
CONTINUOUS
 62
3
 10
30.806782839620610
 20
162.955125302170930
 11
-109.693217160400300
 21
162.955125302170930
  0
LINE
  8
0
  6
CONTINUOUS
 62
4
 10
-109.693217160400300
 20
160.455125302170930
 11
48.306782839619700
 21
160.455125302170930
  0
LINE
  8
0
  6
CONTINUOUS
 62
4
 10
-109.693217160400300
 20
159.955125302170930
 11
48.306782839619700
 21
159.955125302170930
  0
LINE
  8
0
  6
CONTINUOUS
 62
4
 10
-109.693217160400300
 20
155.588207897053620
 11
48.306782839619700
 21
155.588207897053620
  0
LINE
  8
0
  6
CONTINUOUS
 62
4
 10
-109.693217160400300
 20
150.497039072510690
 11
48.306782839619700
 21
150.497039072510690
  0
LINE
  8
0
  6
CONTINUOUS
 62
4
 10
-109.693217160400300
 20
142.758726253679700
 11
45.306782839619700
 21
142.758726253679700
  0
LINE
  8
0
  6
CONTINUOUS
 62
4
 10
-109.693217160400300
 20
141.169516460940940
 11
45.306782839619700
 21
141.169516460940940
  0
LINE
  8
0
  6
CONTINUOUS
 62
4
 10
-109.693217160400300
 20
138.211520852808010
 11
48.306782839619700
 21
138.211520852808010
  0
LINE
  8
0
  6
CONTINUOUS
 62
4
 10
-109.693217160400300
 20
136.732497699331020
 11
48.306782839619700
 21
136.732497699331020
  0
LINE
  8
0
  6
CONTINUOUS
 62
4
 10
-109.693217160400300
 20
133.639766707665670
 11
48.306782839619700
 21
133.639766707665670
  0
LINE
  8
0
  6
CONTINUOUS
 62
4
 10
-109.693217160400300
 20
132.293364982167080
 11
48.306782839619700
 21
132.293364982167080
  0
LINE
  8
0
  6
CONTINUOUS
 62
4
 10
-109.693217160400300
 20
129.083159958808780
 11
48.306782839619700
 21
129.083159958808780
  0
LINE
  8
0
  6
CONTINUOUS
 62
4
 10
-109.693217160400300
 20
127.841240093920870
 11
48.306782839619700
 21
127.841240093920860
  0
LINE
  8
0
  6
CONTINUOUS
 62
4
 10
-109.693217160400300
 20
123.455125302170920
 11
48.306782839619700
 21
123.455125302170920
  0
LINE
  8
0
  6
CONTINUOUS
 62
4
 10
-109.693217160400080
 20
95.455125302170927
 11
48.306782839619700
 21
95.455125302170927
  0
LINE
  8
0
  6
CONTINUOUS
 62
4
 10
-109.693217160400080
 20
91.069010510420981
 11
48.306782839619700
 21
91.069010510420981
  0
LINE
  8
0
  6
CONTINUOUS
 62
4
 10
-109.693217160400080
 20
89.827090645533076
 11
48.306782839619700
 21
89.827090645533076
  0
LINE
  8
0
  6
CONTINUOUS
 62
4
 10
-109.693217160400080
 20
86.616885622174777
 11
48.306782839619700
 21
86.616885622174777
  0
LINE
  8
0
  6
CONTINUOUS
 62
4
 10
-109.693217160400080
 20
85.270483896676183
 11
48.306782839619700
 21
85.270483896676183
  0
LINE
  8
0
  6
CONTINUOUS
 62
4
 10
-109.693217160400080
 20
82.177752905010948
 11
48.306782839619700
 21
82.177752905010948
  0
LINE
  8
0
  6
CONTINUOUS
 62
4
 10
-109.693217160400080
 20
80.698729751533847
 11
48.306782839619700
 21
80.698729751533847
  0
LINE
  8
0
  6
CONTINUOUS
 62
4
 10
-109.693217160400080
 20
76.151524350662271
 11
45.306782839619700
 21
76.151524350662271
  0
LINE
  8
0
  6
CONTINUOUS
 62
4
 10
-109.693217160400080
 20
77.740734143400914
 11
45.306782839619700
 21
77.740734143400914
  0
LINE
  8
0
  6
CONTINUOUS
 62
4
 10
-109.693217160400080
 20
68.413211531831166
 11
48.306782839619700
 21
68.413211531831166
  0
LINE
  8
0
  6
CONTINUOUS
 62
4
 10
-109.693217160400080
 20
63.322042707288233
 11
48.306782839619700
 21
63.322042707288375
  0
LINE
  8
0
  6
CONTINUOUS
 62
4
 10
-109.693217160400080
 20
58.955125302170927
 11
48.306782839619700
 21
58.955125302170934
  0
LINE
  8
0
  6
CONTINUOUS
 62
4
 10
-109.693217160400080
 20
58.455125302170927
 11
48.306782839619700
 21
58.455125302170927
  0
LINE
  8
0
  6
CONTINUOUS
 62
3
 10
-159.693217160400760
 20
157.298745435800240
 11
-159.693217160400540
 21
109.455125302170920
  0
LINE
  8
0
  6
CONTINUOUS
 62
3
 10
-151.013736698324690
 20
164.729657414524240
 11
-158.584515894913470
 21
159.428540750951580
  0
ARC
  8
0
  6
CONTINUOUS
 62
3
 10
-157.093217160400630
 20
157.298745435800240
 40
2.600000000000131
 50
125.000000000001180
 51
180.000000000000000
  0
ARC
  8
0
  6
CONTINUOUS
 62
3
 10
-139.198062109493320
 20
147.855125302170900
 40
20.600000000000023
 50
90.000000000000000
 51
124.999999999999600
  0
LINE
  8
0
  6
CONTINUOUS
 62
3
 10
-159.693217160400760
 20
61.611505168541612
 11
-159.693217160400760
 21
109.455125302170920
  0
LINE
  8
0
  6
CONTINUOUS
 62
3
 10
-151.013736698324690
 20
54.180593189817728
 11
-158.584515894913470
 21
59.481709853390271
  0
ARC
  8
0
  6
CONTINUOUS
 62
3
 10
-157.093217160400630
 20
61.611505168541612
 40
2.600000000000136
 50
180.000000000000000
 51
234.999999999997390
  0
ARC
  8
0
  6
CONTINUOUS
 62
3
 10
-139.198062109493320
 20
71.055125302170950
 40
20.599999999999891
 50
235.000000000000400
 51
270.000000000000000
  0
LINE
  8
0
  6
CONTINUOUS
 62
3
 10
-109.693217160400530
 20
168.455125302170930
 11
-139.198062109493320
 21
168.455125302170930
  0
LINE
  8
0
  6
CONTINUOUS
 62
3
 10
-119.693217160400530
 20
50.455125302170927
 11
-139.198062109493320
 21
50.455125302170927
  0
LINE
  8
0
  6
CONTINUOUS
 62
3
 10
-117.693217160379160
 20
51.955125302170927
 11
-117.693217160379160
 21
54.943856066115586
  0
LINE
  8
0
  6
CONTINUOUS
 62
3
 10
-42.693217160379163
 20
56.955125302171041
 11
-109.926685854797820
 21
56.955125302171041
  0
LINE
  8
0
  6
CONTINUOUS
 62
3
 10
-120.693217160400530
 20
158.599046324896110
 11
-122.693217160400530
 21
156.946404685772680
  0
LINE
  8
0
  6
CONTINUOUS
 62
3
 10
-118.693217160400530
 20
159.774831810518890
 11
-120.693217160400530
 21
158.599046324896110
  0
LINE
  8
0
  6
CONTINUOUS
 62
3
 10
-120.693217160400530
 20
158.599046324896110
 11
-118.693217160400530
 21
156.946404685772680
  0
LINE
  8
0
  6
CONTINUOUS
 62
3
 10
-122.693217160400530
 20
159.774831810518890
 11
-120.693217160400530
 21
158.599046324896110
  0
POLYLINE
  8
0
  6
CONTINUOUS
 62
3
 66
1
 70
1
  0
VERTEX
  8
0
  6
CONTINUOUS
 62
3
 10
-115.993217160400320
 20
156.782456256518460
  0
VERTEX
  8
0
  6
CONTINUOUS
 62
3
 10
-116.083526342505130
 20
157.485413222718820
  0
VERTEX
  8
0
  6
CONTINUOUS
 62
3
 10
-116.350983357597270
 20
158.161355946930910
  0
VERTEX
  8
0
  6
CONTINUOUS
 62
3
 10
-116.785309982578350
 20
158.784308329336310
  0
VERTEX
  8
0
  6
CONTINUOUS
 62
3
 10
-117.369815288823540
 20
159.330330659234900
  0
VERTEX
  8
0
  6
CONTINUOUS
 62
3
 10
-118.082037065208180
 20
159.778439604701530
  0
VERTEX
  8
0
  6
CONTINUOUS
 62
3
 10
-118.894605028284380
 20
160.111414590264270
  0
VERTEX
  8
0
  6
CONTINUOUS
 62
3
 10
-119.776292646924500
 20
160.316459573962530
  0
VERTEX
  8
0
  6
CONTINUOUS
 62
3
 10
-120.693217160400300
 20
160.385694792063300
  0
VERTEX
  8
0
  6
CONTINUOUS
 62
3
 10
-121.610141673876110
 20
160.316459573962530
  0
VERTEX
  8
0
  6
CONTINUOUS
 62
3
 10
-122.491829292516220
 20
160.111414590264270
  0
VERTEX
  8
0
  6
CONTINUOUS
 62
3
 10
-123.304397255592430
 20
159.778439604701530
  0
VERTEX
  8
0
  6
CONTINUOUS
 62
3
 10
-124.016619031977070
 20
159.330330659234900
  0
VERTEX
  8
0
  6
CONTINUOUS
 62
3
 10
-124.601124338222260
 20
158.784308329336310
  0
VERTEX
  8
0
  6
CONTINUOUS
 62
3
 10
-125.035450963203340
 20
158.161355946930910
  0
VERTEX
  8
0
  6
CONTINUOUS
 62
3
 10
-125.302907978295480
 20
157.485413222718820
  0
VERTEX
  8
0
  6
CONTINUOUS
 62
3
 10
-125.393217160400290
 20
156.782456256518460
  0
VERTEX
  8
0
  6
CONTINUOUS
 62
3
 10
-125.302907978295480
 20
156.079499290318100
  0
VERTEX
  8
0
  6
CONTINUOUS
 62
3
 10
-125.035450963203340
 20
155.403556566106000
  0
VERTEX
  8
0
  6
CONTINUOUS
 62
3
 10
-124.601124338222260
 20
154.780604183700600
  0
VERTEX
  8
0
  6
CONTINUOUS
 62
3
 10
-124.016619031977070
 20
154.234581853802010
  0
VERTEX
  8
0
  6
CONTINUOUS
 62
3
 10
-123.304397255592430
 20
153.786472908335380
  0
VERTEX
  8
0
  6
CONTINUOUS
 62
3
 10
-122.491829292516220
 20
153.453497922772640
  0
VERTEX
  8
0
  6
CONTINUOUS
 62
3
 10
-121.610141673876110
 20
153.248452939074380
  0
VERTEX
  8
0
  6
CONTINUOUS
 62
3
 10
-120.693217160400300
 20
153.179217720973610
  0
VERTEX
  8
0
  6
CONTINUOUS
 62
3
 10
-119.776292646924500
 20
153.248452939074380
  0
VERTEX
  8
0
  6
CONTINUOUS
 62
3
 10
-118.894605028284380
 20
153.453497922772640
  0
VERTEX
  8
0
  6
CONTINUOUS
 62
3
 10
-118.082037065208180
 20
153.786472908335380
  0
VERTEX
  8
0
  6
CONTINUOUS
 62
3
 10
-117.369815288823540
 20
154.234581853802010
  0
VERTEX
  8
0
  6
CONTINUOUS
 62
3
 10
-116.785309982578350
 20
154.780604183700600
  0
VERTEX
  8
0
  6
CONTINUOUS
 62
3
 10
-116.350983357597270
 20
155.403556566106000
  0
VERTEX
  8
0
  6
CONTINUOUS
 62
3
 10
-116.083526342505130
 20
156.079499290318100
  0
SEQEND
  8
0
  6
CONTINUOUS
 62
3
  0
LINE
  8
0
  6
CONTINUOUS
 62
3
 10
-109.693217160400530
 20
168.455125302170930
 11
-109.693217160400300
 21
109.455125302170920
  0
LINE
  8
0
  6
CONTINUOUS
 62
3
 10
-119.693217160400530
 20
50.455125302170927
 11
-119.693217160400530
 21
52.115428941361984
  0
ARC
  8
0
  6
CONTINUOUS
 62
3
 10
-116.693217160400530
 20
52.115428941361984
 40
3.000000000000000
 50
90.000000000000000
 51
180.000000000000000
  0
LINE
  8
0
  6
CONTINUOUS
 62
3
 10
-120.693217160400530
 20
60.311204279445860
 11
-122.693217160400530
 21
61.963845918569177
  0
LINE
  8
0
  6
CONTINUOUS
 62
3
 10
-118.693217160400530
 20
59.135418793822964
 11
-120.693217160400530
 21
60.311204279445860
  0
LINE
  8
0
  6
CONTINUOUS
 62
3
 10
-120.693217160400530
 20
60.311204279445860
 11
-118.693217160400530
 21
61.963845918569177
  0
LINE
  8
0
  6
CONTINUOUS
 62
3
 10
-122.693217160400530
 20
59.135418793822964
 11
-120.693217160400530
 21
60.311204279445860
  0
POLYLINE
  8
0
  6
CONTINUOUS
 62
3
 66
1
 70
1
  0
VERTEX
  8
0
  6
CONTINUOUS
 62
3
 10
-115.993217160400320
 20
62.127794347823396
  0
VERTEX
  8
0
  6
CONTINUOUS
 62
3
 10
-116.083526342505130
 20
62.830751314023757
  0
VERTEX
  8
0
  6
CONTINUOUS
 62
3
 10
-116.350983357597270
 20
63.506694038235850
  0
VERTEX
  8
0
  6
CONTINUOUS
 62
3
 10
-116.785309982578350
 20
64.129646420641251
  0
VERTEX
  8
0
  6
CONTINUOUS
 62
3
 10
-117.369815288823540
 20
64.675668750539828
  0
VERTEX
  8
0
  6
CONTINUOUS
 62
3
 10
-118.082037065208180
 20
65.123777696006442
  0
VERTEX
  8
0
  6
CONTINUOUS
 62
3
 10
-118.894605028284380
 20
65.456752681569213
  0
VERTEX
  8
0
  6
CONTINUOUS
 62
3
 10
-119.776292646924500
 20
65.661797665267457
  0
VERTEX
  8
0
  6
CONTINUOUS
 62
3
 10
-120.693217160400300
 20
65.731032883368229
  0
VERTEX
  8
0
  6
CONTINUOUS
 62
3
 10
-121.610141673876110
 20
65.661797665267457
  0
VERTEX
  8
0
  6
CONTINUOUS
 62
3
 10
-122.491829292516220
 20
65.456752681569213
  0
VERTEX
  8
0
  6
CONTINUOUS
 62
3
 10
-123.304397255592430
 20
65.123777696006442
  0
VERTEX
  8
0
  6
CONTINUOUS
 62
3
 10
-124.016619031977070
 20
64.675668750539828
  0
VERTEX
  8
0
  6
CONTINUOUS
 62
3
 10
-124.601124338222260
 20
64.129646420641251
  0
VERTEX
  8
0
  6
CONTINUOUS
 62
3
 10
-125.035450963203340
 20
63.506694038235850
  0
VERTEX
  8
0
  6
CONTINUOUS
 62
3
 10
-125.302907978295480
 20
62.830751314023757
  0
VERTEX
  8
0
  6
CONTINUOUS
 62
3
 10
-125.393217160400290
 20
62.127794347823396
  0
VERTEX
  8
0
  6
CONTINUOUS
 62
3
 10
-125.302907978295480
 20
61.424837381623036
  0
VERTEX
  8
0
  6
CONTINUOUS
 62
3
 10
-125.035450963203340
 20
60.748894657410943
  0
VERTEX
  8
0
  6
CONTINUOUS
 62
3
 10
-124.601124338222260
 20
60.125942275005542
  0
VERTEX
  8
0
  6
CONTINUOUS
 62
3
 10
-124.016619031977070
 20
59.579919945106965
  0
VERTEX
  8
0
  6
CONTINUOUS
 62
3
 10
-123.304397255592430
 20
59.131810999640344
  0
VERTEX
  8
0
  6
CONTINUOUS
 62
3
 10
-122.491829292516220
 20
58.798836014077587
  0
VERTEX
  8
0
  6
CONTINUOUS
 62
3
 10
-121.610141673876110
 20
58.593791030379336
  0
VERTEX
  8
0
  6
CONTINUOUS
 62
3
 10
-120.693217160400300
 20
58.524555812278564
  0
VERTEX
  8
0
  6
CONTINUOUS
 62
3
 10
-119.776292646924500
 20
58.593791030379336
  0
VERTEX
  8
0
  6
CONTINUOUS
 62
3
 10
-118.894605028284380
 20
58.798836014077587
  0
VERTEX
  8
0
  6
CONTINUOUS
 62
3
 10
-118.082037065208180
 20
59.131810999640344
  0
VERTEX
  8
0
  6
CONTINUOUS
 62
3
 10
-117.369815288823540
 20
59.579919945106965
  0
VERTEX
  8
0
  6
CONTINUOUS
 62
3
 10
-116.785309982578350
 20
60.125942275005542
  0
VERTEX
  8
0
  6
CONTINUOUS
 62
3
 10
-116.350983357597270
 20
60.748894657410943
  0
VERTEX
  8
0
  6
CONTINUOUS
 62
3
 10
-116.083526342505130
 20
61.424837381623036
  0
SEQEND
  8
0
  6
CONTINUOUS
 62
3
  0
LINE
  8
0
  6
CONTINUOUS
 62
3
 10
-116.693217160400530
 20
55.115428941361984
 11
-112.693217160400530
 21
55.115428941361984
  0
ARC
  8
0
  6
CONTINUOUS
 62
3
 10
-112.693217160400530
 20
58.115428941361984
 40
3.000000000000000
 50
270.000000000000000
 51
0.000000000000000
  0
LINE
  8
0
  6
CONTINUOUS
 62
3
 10
-109.693217160400530
 20
58.115428941361984
 11
-109.693217160400300
 21
109.455125302170920
  0
LINE
  8
0
  6
CONTINUOUS
 62
3
 10
-44.693217160379163
 20
22.455125302170927
 11
-115.693217160379160
 21
22.455125302170927
  0
LINE
  8
0
  6
CONTINUOUS
 62
3
 10
-58.693217160379163
 20
21.955125302170927
 11
-58.693217160379163
 21
22.455125302170927
  0
LINE
  8
0
  6
CONTINUOUS
 62
3
 10
-58.693217160379163
 20
21.955125302170927
 11
-50.693217160379163
 21
21.955125302170927
  0
LINE
  8
0
  6
CONTINUOUS
 62
3
 10
-50.693217160379163
 20
21.955125302170927
 11
-50.693217160379163
 21
22.455125302170927
  0
ARC
  8
0
  6
CONTINUOUS
 62
3
 10
-44.693217160379163
 20
23.455125302170927
 40
1.000000000000000
 50
270.000000000000000
 51
0.000000000000000
  0
ARC
  8
0
  6
CONTINUOUS
 62
3
 10
-115.693217160379160
 20
23.455125302170927
 40
1.000000000000000
 50
180.000000000000000
 51
270.000000000000000
  0
LINE
  8
0
  6
CONTINUOUS
 62
3
 10
-116.693217160379160
 20
23.455125302170927
 11
-116.693217160379160
 21
51.955125302170927
  0
LINE
  8
0
  6
CONTINUOUS
 62
3
 10
-43.693217160379163
 20
23.455125302170927
 11
-43.693217160379163
 21
51.955125302170927
  0
LINE
  8
0
  6
CONTINUOUS
 62
3
 10
-42.693217160379163
 20
51.955125302170927
 11
-42.693217160379163
 21
56.955125302171041
  0
LINE
  8
0
  6
CONTINUOUS
 62
3
 10
-117.693217160379160
 20
51.955125302170927
 11
-42.693217160379163
 21
51.955125302170927
  0
LINE
  8
0
  6
CONTINUOUS
 62
3
 10
4.306782839620610
 20
186.616150361857760
 11
-98.693217160379390
 21
186.616150361857760
  0
ARC
  8
0
  6
CONTINUOUS
 62
3
 10
9.806782839620610
 20
191.616150361857760
 40
5.000000000000072
 50
287.457603123721870
 51
0.000000000000000
  0
ARC
  8
0
  6
CONTINUOUS
 62
3
 10
10.006782839620428
 20
187.292696487600100
 40
1.300000000000182
 50
0.000000000000000
 51
73.398450400977637
  0
ARC
  8
0
  6
CONTINUOUS
 62
3
 10
7.806782839620610
 20
179.913672161850630
 40
9.000000000000123
 50
73.398450400980877
 51
106.601549599019120
  0
ARC
  8
0
  6
CONTINUOUS
 62
3
 10
5.606782839620791
 20
187.292696487600100
 40
1.300000000000019
 50
106.601549599022360
 51
180.000000000000000
  0
LINE
  8
0
  6
CONTINUOUS
 62
3
 10
11.306782839620610
 20
187.292696487600100
 11
11.306782839620610
 21
186.305686749675710
  0
POLYLINE
  8
0
  6
CONTINUOUS
 62
3
 66
1
  0
VERTEX
  8
0
  6
CONTINUOUS
 62
3
 10
4.306782839620610
 20
186.305686749675710
  0
VERTEX
  8
0
  6
CONTINUOUS
 62
3
 10
4.374034358209303
 20
186.271588539479720
  0
VERTEX
  8
0
  6
CONTINUOUS
 62
3
 10
4.573204475831107
 20
186.238800704379090
  0
VERTEX
  8
0
  6
CONTINUOUS
 62
3
 10
4.896639196561701
 20
186.208583262489070
  0
VERTEX
  8
0
  6
CONTINUOUS
 62
3
 10
5.331909105467693
 20
186.182097453155360
  0
VERTEX
  8
0
  6
CONTINUOUS
 62
3
 10
5.862287024052002
 20
186.160361111177280
  0
VERTEX
  8
0
  6
CONTINUOUS
 62
3
 10
6.467390826342795
 20
186.144209551987100
  0
VERTEX
  8
0
  6
CONTINUOUS
 62
3
 10
7.123966712564160
 20
186.134263470946650
  0
VERTEX
  8
0
  6
CONTINUOUS
 62
3
 10
7.806782839620609
 20
186.130905090372490
  0
VERTEX
  8
0
  6
CONTINUOUS
 62
3
 10
8.489598966677057
 20
186.134263470946650
  0
VERTEX
  8
0
  6
CONTINUOUS
 62
3
 10
9.146174852898422
 20
186.144209551987100
  0
VERTEX
  8
0
  6
CONTINUOUS
 62
3
 10
9.751278655189216
 20
186.160361111177280
  0
VERTEX
  8
0
  6
CONTINUOUS
 62
3
 10
10.281656573773525
 20
186.182097453155360
  0
VERTEX
  8
0
  6
CONTINUOUS
 62
3
 10
10.716926482679515
 20
186.208583262489070
  0
VERTEX
  8
0
  6
CONTINUOUS
 62
3
 10
11.040361203410111
 20
186.238800704379090
  0
VERTEX
  8
0
  6
CONTINUOUS
 62
3
 10
11.239531321031913
 20
186.271588539479720
  0
VERTEX
  8
0
  6
CONTINUOUS
 62
3
 10
11.306782839620608
 20
186.305686749675710
  0
SEQEND
  8
0
  6
CONTINUOUS
 62
3
  0
LINE
  8
0
  6
CONTINUOUS
 62
3
 10
4.306782839620610
 20
187.292696487600100
 11
4.306782839620610
 21
186.305686749675710
  0
LINE
  8
0
  6
CONTINUOUS
 62
3
 10
-109.193217160379390
 20
162.955125302170930
 11
-109.193217160379390
 21
167.955125302170930
  0
LINE
  8
0
  6
DASHDOT
 62
3
 10
14.806782839620610
 20
162.955125302170930
 11
14.806782839620610
 21
167.955125302170930
  0
LINE
  8
0
  6
DASHDOT
 62
3
 10
14.806782839620610
 20
162.955125302170930
 11
14.806782839620610
 21
167.955125302170930
  0
LINE
  8
0
  6
CONTINUOUS
 62
3
 10
-109.193217160379390
 20
167.955125302170930
 11
14.806782839620610
 21
167.955125302170930
  0
ARC
  8
0
  6
CONTINUOUS
 62
3
 10
-104.193217160379390
 20
191.616150361857760
 40
5.000000000000000
 50
180.000000000000000
 51
252.542396876278160
  0
LINE
  8
0
  6
CONTINUOUS
 62
3
 10
-105.693217160379390
 20
187.292696487600100
 11
-105.693217160379390
 21
186.305686749675710
  0
LINE
  8
0
  6
CONTINUOUS
 62
3
 10
-98.693217160379390
 20
187.292696487600100
 11
-98.693217160379390
 21
186.305686749675710
  0
ARC
  8
0
  6
CONTINUOUS
 62
3
 10
-104.393217160379200
 20
187.292696487600100
 40
1.300000000000019
 50
106.601549599022360
 51
180.000000000000000
  0
ARC
  8
0
  6
CONTINUOUS
 62
3
 10
-102.193217160379390
 20
179.913672161850630
 40
9.000000000000123
 50
73.398450400980877
 51
106.601549599019120
  0
ARC
  8
0
  6
CONTINUOUS
 62
3
 10
-99.993217160379572
 20
187.292696487600100
 40
1.300000000000182
 50
0.000000000000000
 51
73.398450400977637
  0
POLYLINE
  8
0
  6
CONTINUOUS
 62
3
 66
1
  0
VERTEX
  8
0
  6
CONTINUOUS
 62
3
 10
-105.693217160379390
 20
186.305686749675710
  0
VERTEX
  8
0
  6
CONTINUOUS
 62
3
 10
-105.625965641790700
 20
186.271588539479720
  0
VERTEX
  8
0
  6
CONTINUOUS
 62
3
 10
-105.426795524168890
 20
186.238800704379090
  0
VERTEX
  8
0
  6
CONTINUOUS
 62
3
 10
-105.103360803438290
 20
186.208583262489070
  0
VERTEX
  8
0
  6
CONTINUOUS
 62
3
 10
-104.668090894532310
 20
186.182097453155360
  0
VERTEX
  8
0
  6
CONTINUOUS
 62
3
 10
-104.137712975948000
 20
186.160361111177280
  0
VERTEX
  8
0
  6
CONTINUOUS
 62
3
 10
-103.532609173657200
 20
186.144209551987100
  0
VERTEX
  8
0
  6
CONTINUOUS
 62
3
 10
-102.876033287435840
 20
186.134263470946650
  0
VERTEX
  8
0
  6
CONTINUOUS
 62
3
 10
-102.193217160379390
 20
186.130905090372490
  0
VERTEX
  8
0
  6
CONTINUOUS
 62
3
 10
-101.510401033322950
 20
186.134263470946650
  0
VERTEX
  8
0
  6
CONTINUOUS
 62
3
 10
-100.853825147101570
 20
186.144209551987100
  0
VERTEX
  8
0
  6
CONTINUOUS
 62
3
 10
-100.248721344810780
 20
186.160361111177280
  0
VERTEX
  8
0
  6
CONTINUOUS
 62
3
 10
-99.718343426226483
 20
186.182097453155360
  0
VERTEX
  8
0
  6
CONTINUOUS
 62
3
 10
-99.283073517320489
 20
186.208583262489070
  0
VERTEX
  8
0
  6
CONTINUOUS
 62
3
 10
-98.959638796589886
 20
186.238800704379090
  0
VERTEX
  8
0
  6
CONTINUOUS
 62
3
 10
-98.760468678968081
 20
186.271588539479720
  0
VERTEX
  8
0
  6
CONTINUOUS
 62
3
 10
-98.693217160379390
 20
186.305686749675710
  0
SEQEND
  8
0
  6
CONTINUOUS
 62
3
  0
LINE
  8
0
  6
CONTINUOUS
 62
3
 10
14.806782839620610
 20
191.616150361857760
 11
14.806782839620610
 21
204.555125302170840
  0
ARC
  8
0
  6
CONTINUOUS
 62
3
 10
9.806782839620610
 20
172.955125302170930
 40
5.000000000000000
 50
270.000000000000000
 51
0.000000000000000
  0
LINE
  8
0
  6
CONTINUOUS
 62
3
 10
-109.193217160379390
 20
191.616150361857760
 11
-109.193217160379390
 21
204.555125302170840
  0
LINE
  8
0
  6
CONTINUOUS
 62
3
 10
-109.193217160379390
 20
191.149635593233140
 11
-110.193217160379390
 21
191.149635593233140
  0
LINE
  8
0
  6
CONTINUOUS
 62
3
 10
15.806782839620610
 20
186.055998664955950
 11
-110.193217160379390
 21
186.055998664955950
  0
ARC
  8
0
  6
CONTINUOUS
 62
3
 10
-104.193217160379390
 20
172.955125302170930
 40
5.000000000000000
 50
180.000000000000000
 51
270.000000000000000
  0
ARC
  8
0
  6
CONTINUOUS
 62
3
 10
-104.193217160379390
 20
204.555125302170840
 40
5.000000000000000
 50
90.000000000000000
 51
180.000000000000000
  0
ARC
  8
0
  6
CONTINUOUS
 62
3
 10
-110.193217160379390
 20
189.149635593233140
 40
2.000000000000000
 50
90.000000000000000
 51
180.000000000000000
  0
ARC
  8
0
  6
CONTINUOUS
 62
3
 10
-110.193217160379390
 20
188.055998664955950
 40
2.000000000000000
 50
180.000000000000000
 51
270.000000000000000
  0
ARC
  8
0
  6
CONTINUOUS
 62
3
 10
-110.193217160379390
 20
187.256996793870710
 40
2.000000000000000
 50
180.000000000000000
 51
270.000000000000000
  0
LINE
  8
0
  6
CONTINUOUS
 62
3
 10
-112.193217160379390
 20
189.149635593233140
 11
-112.193217160379390
 21
186.457994922751820
  0
ARC
  8
0
  6
CONTINUOUS
 62
3
 10
-110.193217160379390
 20
186.457994922751820
 40
2.000000000000000
 50
180.000000000000000
 51
270.000000000000000
  0
LINE
  8
0
  6
CONTINUOUS
 62
3
 10
-109.193217160379390
 20
172.955125302170930
 11
-109.193217160379390
 21
184.457994922751820
  0
ARC
  8
0
  6
CONTINUOUS
 62
3
 10
9.806782839620610
 20
204.555125302170840
 40
5.000000000000000
 50
0.000000000000000
 51
90.000000000000000
  0
LINE
  8
0
  6
CONTINUOUS
 62
3
 10
-104.193217160379390
 20
209.555125302170840
 11
9.806782839620610
 21
209.555125302170840
  0
LINE
  8
0
  6
CONTINUOUS
 62
3
 10
14.806782839620610
 20
172.955125302170930
 11
14.806782839620610
 21
184.256996793870710
  0
LINE
  8
0
  6
CONTINUOUS
 62
3
 10
17.806782839620610
 20
189.149635593233140
 11
17.806782839620610
 21
186.457994922751820
  0
LINE
  8
0
  6
CONTINUOUS
 62
3
 10
15.806782839620610
 20
185.256996793853890
 11
-110.193217160379390
 21
185.256996793853890
  0
LINE
  8
0
  6
CONTINUOUS
 62
3
 10
15.806782839620610
 20
184.457994922751820
 11
-110.193217160379390
 21
184.457994922751820
  0
LINE
  8
0
  6
CONTINUOUS
 62
3
 10
14.806782839620610
 20
191.149635593233140
 11
15.806782839620610
 21
191.149635593233140
  0
ARC
  8
0
  6
CONTINUOUS
 62
3
 10
15.806782839620610
 20
189.149635593233140
 40
2.000000000000000
 50
0.000000000000000
 51
90.000000000000000
  0
ARC
  8
0
  6
CONTINUOUS
 62
3
 10
15.806782839620610
 20
188.055998664955950
 40
2.000000000000000
 50
270.000000000000000
 51
0.000000000000000
  0
ARC
  8
0
  6
CONTINUOUS
 62
3
 10
15.806782839620610
 20
187.256996793870710
 40
2.000000000000000
 50
270.000000000000000
 51
0.000000000000000
  0
ARC
  8
0
  6
CONTINUOUS
 62
3
 10
15.806782839620610
 20
186.457994922751820
 40
2.000000000000000
 50
270.000000000000000
 51
0.000000000000000
  0
LINE
  8
0
  6
DASHDOT
 62
4
 10
-66.476746576105768
 20
37.455125302171041
 11
-44.709769167577463
 21
37.455125302171041
  0
LINE
  8
0
  6
DASHDOT
 62
4
 10
-55.193217160379106
 20
28.510968044494916
 11
-55.193217160379106
 21
50.490470177029863
  0
LINE
  8
0
  6
DASHDOT
 62
4
 10
-114.278906266962670
 20
37.455125302171041
 11
-93.792318033253366
 21
37.455125302171041
  0
LINE
  8
0
  6
DASHDOT
 62
4
 10
-105.193217160379100
 20
28.510968044494916
 11
-105.193217160379100
 21
50.059457025026575
  0
CIRCLE
  8
0
  6
DASHED
 62
4
 10
-55.193217160379106
 20
37.455125302171041
 40
6.000000000000000
  0
ARC
  8
0
  6
DASHED
 62
4
 10
-55.193217160379106
 20
37.455125302171041
 40
7.000000000000000
 50
180.000000000000000
 51
0.000000000000000
  0
LINE
  8
0
  6
DASHED
 62
4
 10
-62.193217160379106
 20
37.455125302171041
 11
-62.193217160379106
 21
51.955125302171041
  0
LINE
  8
0
  6
DASHED
 62
4
 10
-48.193217160379106
 20
37.455125302171041
 11
-48.193217160379106
 21
51.955125302171041
  0
ARC
  8
0
  6
DASHED
 62
4
 10
-105.193217160379100
 20
37.455125302171041
 40
7.000000000000000
 50
180.000000000000000
 51
0.000000000000000
  0
LINE
  8
0
  6
DASHED
 62
4
 10
-112.193217160379100
 20
37.455125302171041
 11
-112.193217160379100
 21
51.955125302171041
  0
LINE
  8
0
  6
DASHED
 62
4
 10
-98.193217160379106
 20
37.455125302171041
 11
-98.193217160379106
 21
51.955125302171041
  0
LINE
  8
0
  6
DASHDOT
 62
4
 10
197.446182942794850
 20
109.455125302170920
 11
-183.330015740588120
 21
109.455125302170920
  0
LINE
  8
0
  6
CONTINUOUS
 62
3
 10
22.806782839619700
 20
38.881067792476642
 11
22.806782839619700
 21
55.955125302170927
  0
LINE
  8
0
  6
CONTINUOUS
 62
3
 10
22.806782839619700
 20
180.029182811864300
 11
22.806782839619700
 21
162.955125302170930
  0
LINE
  8
0
  6
DASHDOT
 62
4
 10
43.783427716238521
 20
171.955125302170930
 11
25.315177137033970
 21
171.955125302170930
  0
LINE
  8
0
  6
DASHDOT
 62
4
 10
34.806782839619700
 20
180.833367180995990
 11
34.806782839619700
 21
162.559056089088700
  0
LINE
  8
0
  6
DASHDOT
 62
4
 10
43.805025496896860
 20
46.955125302170018
 11
25.315177137033970
 21
46.955125302170018
  0
LINE
  8
0
  6
DASHDOT
 62
4
 10
34.806782839619700
 20
37.811131414204283
 11
34.806782839619700
 21
56.394811795969872
  0
LINE
  8
0
  6
DASHDOT
 62
4
 10
127.806782839619700
 20
37.955133567407756
 11
127.806782839619700
 21
56.280894810101017
  0
LINE
  8
0
  6
DASHDOT
 62
4
 10
137.267867362721740
 20
171.955125302170930
 11
118.315177137033970
 21
171.955125302170930
  0
LINE
  8
0
  6
DASHDOT
 62
4
 10
127.806782839619700
 20
180.943724789849510
 11
127.806782839619700
 21
162.218543907321870
  0
LINE
  8
0
  6
CONTINUOUS
 62
4
 10
30.806782839621064
 20
-144.406505701961920
 11
48.306782839620155
 21
-144.406505701961920
  0
LINE
  8
0
  6
CONTINUOUS
 62
4
 10
30.806782839621064
 20
-142.778078634184110
 11
48.306782839620155
 21
-142.778078634184110
  0
LINE
  8
0
  6
CONTINUOUS
 62
4
 10
30.806782839621064
 20
-139.315336877418870
 11
48.306782839620155
 21
-139.315336877418870
  0
LINE
  8
0
  6
CONTINUOUS
 62
4
 10
30.806782839621064
 20
-138.313858513603580
 11
48.306782839620155
 21
-138.313858513603580
  0
LINE
  8
0
  6
CONTINUOUS
 62
4
 10
30.806782839621064
 20
-131.577024058587880
 11
48.306782839620155
 21
-131.577024058587880
  0
LINE
  8
0
  6
CONTINUOUS
 62
4
 10
30.806782839621064
 20
-129.987814265849240
 11
48.306782839620155
 21
-129.987814265849240
  0
LINE
  8
0
  6
CONTINUOUS
 62
4
 10
30.806782839621064
 20
-127.029818657716300
 11
48.306782839620155
 21
-127.029818657716300
  0
LINE
  8
0
  6
CONTINUOUS
 62
4
 10
30.806782839621064
 20
-125.550795504239200
 11
48.306782839620155
 21
-125.550795504239200
  0
LINE
  8
0
  6
CONTINUOUS
 62
4
 10
30.806782839621064
 20
-122.458064512573960
 11
48.306782839620155
 21
-122.458064512573960
  0
LINE
  8
0
  6
CONTINUOUS
 62
4
 10
30.806782839621064
 20
-121.111662787075370
 11
48.306782839620155
 21
-121.111662787075370
  0
LINE
  8
0
  6
CONTINUOUS
 62
4
 10
30.806782839621064
 20
-118.273423107079220
 11
48.306782839620155
 21
-118.273423107079220
  0
LINE
  8
0
  6
CONTINUOUS
 62
4
 10
30.806782839621064
 20
-78.273423107079225
 11
47.306782839620155
 21
-78.273423107079225
  0
LINE
  8
0
  6
CONTINUOUS
 62
4
 10
30.806782839621064
 20
-75.435183427083075
 11
47.306782839620155
 21
-75.435183427083075
  0
LINE
  8
0
  6
CONTINUOUS
 62
4
 10
30.806782839621064
 20
-74.088781701584480
 11
47.306782839620155
 21
-74.088781701584480
  0
LINE
  8
0
  6
CONTINUOUS
 62
4
 10
30.806782839621064
 20
-70.996050709919245
 11
47.998020387510508
 21
-70.996050709919245
  0
LINE
  8
0
  6
CONTINUOUS
 62
4
 10
30.806782839621064
 20
-69.517027556442144
 11
48.306782839619927
 21
-69.517027556442144
  0
LINE
  8
0
  6
CONTINUOUS
 62
4
 10
30.806782839621064
 20
-66.559031948309212
 11
48.306782839619927
 21
-66.559031948309212
  0
LINE
  8
0
  6
CONTINUOUS
 62
4
 10
30.806782839621064
 20
-64.969822155570455
 11
48.306782839619927
 21
-64.969822155570455
  0
LINE
  8
0
  6
CONTINUOUS
 62
4
 10
30.806782839621064
 20
-58.232987700554759
 11
48.306782839619984
 21
-58.232987700554759
  0
LINE
  8
0
  6
CONTINUOUS
 62
4
 10
30.806782839621064
 20
-57.231509336739464
 11
48.306782839619984
 21
-57.231509336739464
  0
LINE
  8
0
  6
CONTINUOUS
 62
4
 10
30.806782839621064
 20
-53.768767579974337
 11
48.306782839620041
 21
-53.768767579974337
  0
LINE
  8
0
  6
CONTINUOUS
 62
4
 10
30.806782839621064
 20
-52.140340512196531
 11
48.306782839620041
 21
-52.140340512196531
  0
LINE
  8
0
  6
CONTINUOUS
 62
4
 10
30.806782839621064
 20
-47.773423107079225
 11
48.306782839620098
 21
-47.773423107079225
  0
LINE
  8
0
  6
CONTINUOUS
 62
4
 10
30.806782839621064
 20
-47.273423107079111
 11
48.306782839620098
 21
-47.273423107079111
  0
INSERT
  8
0
  2
SYM2
 10
51.306782839620155
 20
-100.273423107079110
  0
LINE
  8
0
  6
CONTINUOUS
 62
3
 10
48.306782839620098
 20
-47.273423107079111
 11
45.306782839620155
 21
-47.273423107079111
  0
LINE
  8
0
  6
CONTINUOUS
 62
3
 10
48.561561276467046
 20
-37.273423107079111
 11
45.306782839620155
 21
-37.273423107079111
  0
LINE
  8
0
  6
CONTINUOUS
 62
3
 10
45.306782839620155
 20
-47.273423107079111
 11
45.306782839620155
 21
-37.273423107079111
  0
LINE
  8
0
  6
DASHDOT
 62
4
 10
81.522966632303905
 20
-98.273423107079225
 11
-175.506470199892650
 21
-98.273423107079225
  0
INSERT
  8
0
  2
SYM3
 10
380.109024544631670
 20
-134.192379718339450
 41
-1.000000000000000
 42
1.000000000000000
 43
1.000000000000000
 50
2.862405226113666
  0
ARC
  8
0
  6
CONTINUOUS
 62
3
 10
377.964202338288260
 20
-107.315923107079010
 40
20.799999999999926
 50
334.359929784105190
 51
5.724810452223396
  0
ARC
  8
0
  6
CONTINUOUS
 62
3
 10
377.964202338288260
 20
-107.315923107079010
 40
20.800000000000040
 50
279.916536608230560
 51
334.359929784105190
  0
ARC
  8
0
  6
CONTINUOUS
 62
3
 10
377.964202338288260
 20
-107.315923107079010
 40
20.799999999999926
 50
334.359929784105190
 51
5.724810452223396
  0
ARC
  8
0
  6
CONTINUOUS
 62
3
 10
372.138447704201330
 20
-46.870786729941301
 40
1.999999999999958
 50
280.598785266065990
 51
2.862405226112724
  0
ARC
  8
0
  6
CONTINUOUS
 62
3
 10
377.731460801917140
 20
-46.591136075055488
 40
1.999999999999927
 50
182.862405226112710
 51
265.126025186159040
  0
ARC
  8
0
  6
CONTINUOUS
 62
3
 10
376.297655071904730
 20
-130.054934084008320
 40
1.999999999999927
 50
2.862405226112724
 51
85.808273843998350
  0
LINE
  8
0
  6
CONTINUOUS
 62
3
 10
374.466073829971490
 20
-37.353352940743775
 11
379.559710758248460
 21
-139.226091506283860
  0
ARC
  8
0
  6
CONTINUOUS
 62
3
 10
381.890668169620540
 20
-129.775283429122510
 40
1.999999999999995
 50
99.916536608232732
 51
182.862405226112400
  0
LINE
  8
0
  6
CONTINUOUS
 62
3
 10
398.660461689909200
 20
-105.241110139498000
 11
394.670436752253180
 21
-65.440611386380738
  0
ARC
  8
0
  6
CONTINUOUS
 62
3
 10
375.964202338288260
 20
-67.315923107079016
 40
18.799999999999933
 50
35.808626813495749
 51
85.126025186157264
  0
ARC
  8
0
  6
CONTINUOUS
 62
3
 10
375.964202338288260
 20
-67.315923107079016
 40
18.799999999999837
 50
5.724810452223617
 51
35.808626813495749
  0
LINE
  8
0
  6
CONTINUOUS
 62
3
 10
375.265075701073780
 20
-37.313402847188627
 11
373.667071958869200
 21
-37.393303034298810
  0
ARC
  8
0
  6
CONTINUOUS
 62
3
 10
369.122749197968230
 20
-42.626765270968917
 40
8.999999999999948
 50
346.260856815786500
 51
19.463936333592187
  0
POINT
  8
0
  6
CONTINUOUS
 62
3
 10
375.514763785792640
 20
-42.307164541577663
  0
LINE
  8
0
  6
CONTINUOUS
 62
3
 10
375.339982126489080
 20
-38.811531355505281
 11
375.689545445096200
 21
-45.802797727650159
  0
LINE
  8
0
  6
CONTINUOUS
 62
3
 10
375.339982126489080
 20
-38.811531355505281
 11
375.689545445096200
 21
-45.802797727650159
  0
LINE
  8
0
  6
CONTINUOUS
 62
3
 10
375.689545445096200
 20
-45.802797727650159
 11
376.667349257603970
 21
-45.753907537024816
  0
LINE
  8
0
  6
CONTINUOUS
 62
3
 10
375.339982126489080
 20
-38.811531355505281
 11
376.317785938996620
 21
-38.762641164879938
  0
ARC
  8
0
  6
CONTINUOUS
 62
3
 10
376.602430393676290
 20
-44.455530258471185
 40
1.299999237060550
 50
272.862387240019760
 51
346.260856815788600
  0
ARC
  8
0
  6
CONTINUOUS
 62
3
 10
376.382704802924310
 20
-40.061018443433454
 40
1.299999237060645
 50
19.463936333587132
 51
92.862405909348169
  0
LINE
  8
0
  6
CONTINUOUS
 62
3
 10
375.265075701073780
 20
-37.313402847188627
 11
380.358712629350750
 21
-139.186141412728600
  0
LINE
  8
0
  6
CONTINUOUS
 62
3
 10
373.667071958869200
 20
-37.393303034298810
 11
378.760708887146170
 21
-139.266041599839580
  0
ARC
  8
0
  6
CONTINUOUS
 62
3
 10
377.964202338288260
 20
-107.315923107079010
 40
20.800000000000001
 50
244.971000512385070
 51
265.808273843992540
  0
ARC
  8
0
  6
CONTINUOUS
 62
3
 10
375.964202338288260
 20
-67.315923107079016
 40
18.799999999999983
 50
100.598785266066050
 51
141.577493876600330
  0
LINE
  8
0
  6
CONTINUOUS
 62
4
 10
-42.693217160378708
 20
-118.273423107079220
 11
30.806782839621064
 21
-118.273423107079220
  0
LINE
  8
0
  6
CONTINUOUS
 62
4
 10
-42.693217160378708
 20
-121.111662787075370
 11
30.806782839621064
 21
-121.111662787075370
  0
LINE
  8
0
  6
CONTINUOUS
 62
4
 10
-42.693217160378708
 20
-122.458064512573960
 11
30.806782839621064
 21
-122.458064512573960
  0
LINE
  8
0
  6
CONTINUOUS
 62
4
 10
-42.693217160378708
 20
-125.550795504239200
 11
30.806782839621064
 21
-125.550795504239200
  0
LINE
  8
0
  6
CONTINUOUS
 62
4
 10
-42.693217160378708
 20
-127.029818657716300
 11
30.806782839621064
 21
-127.029818657716300
  0
LINE
  8
0
  6
CONTINUOUS
 62
3
 10
22.806782839619700
 20
-150.773423107079220
 11
-109.693217160399850
 21
-150.773423107079220
  0
LINE
  8
0
  6
CONTINUOUS
 62
4
 10
-109.693217160399850
 20
-148.773423107079220
 11
23.994896537139994
 21
-148.773423107079220
  0
LINE
  8
0
  6
CONTINUOUS
 62
4
 10
-109.693217160399850
 20
-149.273423107079220
 11
23.477840787229070
 21
-149.273423107079220
  0
LINE
  8
0
  6
CONTINUOUS
 62
4
 10
-109.693217160399850
 20
-144.406505701961920
 11
30.806782839621064
 21
-144.406505701961920
  0
LINE
  8
0
  6
CONTINUOUS
 62
4
 10
-109.693217160399850
 20
-142.778078634184110
 11
30.806782839621064
 21
-142.778078634184110
  0
LINE
  8
0
  6
CONTINUOUS
 62
4
 10
-109.693217160399850
 20
-139.315336877418870
 11
30.806782839621064
 21
-139.315336877418870
  0
LINE
  8
0
  6
CONTINUOUS
 62
4
 10
-109.850817506771130
 20
-138.313858513603580
 11
30.806782839621064
 21
-138.313858513603580
  0
LINE
  8
0
  6
CONTINUOUS
 62
4
 10
-119.693217160399850
 20
-131.577024058587880
 11
30.806782839621064
 21
-131.577024058587880
  0
LINE
  8
0
  6
CONTINUOUS
 62
4
 10
-119.693217160399850
 20
-129.987814265849240
 11
30.806782839621064
 21
-129.987814265849240
  0
LINE
  8
0
  6
CONTINUOUS
 62
3
 10
30.806782839621064
 20
-45.773423107079225
 11
-109.693217160399850
 21
-45.773423107079225
  0
LINE
  8
0
  6
CONTINUOUS
 62
4
 10
-109.693217160399850
 20
-47.773423107079225
 11
30.806782839621064
 21
-47.773423107079225
  0
LINE
  8
0
  6
CONTINUOUS
 62
4
 10
-109.693217160399850
 20
-47.273423107079111
 11
30.806782839621064
 21
-47.273423107079111
  0
LINE
  8
0
  6
CONTINUOUS
 62
4
 10
-109.693217160399850
 20
-52.140340512196531
 11
30.806782839621064
 21
-52.140340512196531
  0
LINE
  8
0
  6
CONTINUOUS
 62
4
 10
-109.693217160399850
 20
-57.231509336739464
 11
30.806782839621064
 21
-57.231509336739464
  0
LINE
  8
0
  6
CONTINUOUS
 62
4
 10
-119.693217160399850
 20
-64.969822155570455
 11
30.806782839621064
 21
-64.969822155570455
  0
LINE
  8
0
  6
CONTINUOUS
 62
4
 10
-119.693217160399850
 20
-66.559031948309212
 11
30.806782839621064
 21
-66.559031948309212
  0
LINE
  8
0
  6
CONTINUOUS
 62
4
 10
-109.693217160399850
 20
-53.768767579974337
 11
30.806782839621064
 21
-53.768767579974337
  0
LINE
  8
0
  6
CONTINUOUS
 62
4
 10
-109.850817506771130
 20
-58.232987700554759
 11
30.806782839621064
 21
-58.232987700554759
  0
LINE
  8
0
  6
CONTINUOUS
 62
4
 10
-42.693217160378708
 20
-78.273423107079225
 11
30.806782839621064
 21
-78.273423107079225
  0
LINE
  8
0
  6
CONTINUOUS
 62
4
 10
-42.693217160378708
 20
-75.435183427083075
 11
30.806782839621064
 21
-75.435183427083075
  0
LINE
  8
0
  6
CONTINUOUS
 62
4
 10
-42.693217160378708
 20
-74.088781701584480
 11
30.806782839621064
 21
-74.088781701584480
  0
LINE
  8
0
  6
CONTINUOUS
 62
4
 10
-42.693217160378708
 20
-70.996050709919245
 11
30.806782839621064
 21
-70.996050709919245
  0
LINE
  8
0
  6
CONTINUOUS
 62
4
 10
-42.693217160378708
 20
-69.517027556442144
 11
30.806782839621064
 21
-69.517027556442144
  0
ARC
  8
0
  6
CONTINUOUS
 62
3
 10
-44.693217160378708
 20
-69.273423107079225
 40
1.000000000000000
 50
0.000000000000000
 51
90.000000000000000
  0
ARC
  8
0
  6
CONTINUOUS
 62
3
 10
-115.693217160378700
 20
-69.273423107079225
 40
1.000000000000000
 50
90.000000000000000
 51
180.000000000000000
  0
LINE
  8
0
  6
CONTINUOUS
 62
3
 10
-43.693217160378708
 20
-69.273423107079225
 11
-43.693217160378708
 21
-98.273423107079225
  0
LINE
  8
0
  6
CONTINUOUS
 62
3
 10
-116.693217160378700
 20
-98.273423107079225
 11
-116.693217160378700
 21
-69.273423107079225
  0
LINE
  8
0
  6
CONTINUOUS
 62
3
 10
-44.693217160378708
 20
-68.273423107079225
 11
-115.693217160378700
 21
-68.273423107079225
  0
LINE
  8
0
  6
CONTINUOUS
 62
4
 10
-119.693217160399850
 20
-75.435183427083075
 11
-117.693217160378700
 21
-75.435183427083075
  0
LINE
  8
0
  6
CONTINUOUS
 62
4
 10
-119.693217160399850
 20
-74.088781701584480
 11
-117.693217160378700
 21
-74.088781701584480
  0
LINE
  8
0
  6
CONTINUOUS
 62
4
 10
-119.693217160399850
 20
-70.996050709919245
 11
-117.693217160378700
 21
-70.996050709919245
  0
LINE
  8
0
  6
CONTINUOUS
 62
4
 10
-119.693217160399850
 20
-69.517027556442144
 11
-117.693217160378700
 21
-69.517027556442144
  0
LINE
  8
0
  6
CONTINUOUS
 62
4
 10
-119.693217160399850
 20
-78.273423107079225
 11
-117.693217160378700
 21
-78.273423107079225
  0
ARC
  8
0
  6
CONTINUOUS
 62
3
 10
-115.693217160378700
 20
-68.773423107079225
 40
2.000000000000000
 50
90.000000000000000
 51
180.000000000000000
  0
ARC
  8
0
  6
CONTINUOUS
 62
3
 10
-44.693217160378708
 20
-68.773423107079225
 40
2.000000000000000
 50
0.000000000000000
 51
90.000000000000000
  0
LINE
  8
0
  6
CONTINUOUS
 62
3
 10
-44.693217160378708
 20
-66.773423107079225
 11
-115.693217160378700
 21
-66.773423107079225
  0
LINE
  8
0
  6
CONTINUOUS
 62
3
 10
-42.693217160378708
 20
-98.273423107079225
 11
-42.693217160378708
 21
-68.773423107079225
  0
LINE
  8
0
  6
CONTINUOUS
 62
3
 10
-117.693217160378700
 20
-98.273423107079225
 11
-117.693217160378700
 21
-68.773423107079225
  0
LINE
  8
0
  6
CONTINUOUS
 62
3
 10
-109.693217160399850
 20
-44.273423107078997
 11
-139.198062109492870
 21
-44.273423107078997
  0
LINE
  8
0
  6
CONTINUOUS
 62
3
 10
-151.013736698324240
 20
-47.998890994725684
 11
-158.584515894913010
 21
-53.300007658298227
  0
LINE
  8
0
  6
CONTINUOUS
 62
3
 10
-159.693217160400080
 20
-55.429802973449682
 11
-159.693217160400080
 21
-98.273423107079225
  0
ARC
  8
0
  6
CONTINUOUS
 62
3
 10
-157.093217160400170
 20
-55.429802973449682
 40
2.600000000000131
 50
125.000000000001180
 51
180.000000000000000
  0
ARC
  8
0
  6
CONTINUOUS
 62
3
 10
-139.198062109492870
 20
-64.873423107079020
 40
20.600000000000023
 50
90.000000000000000
 51
124.999999999999600
  0
LINE
  8
0
  6
CONTINUOUS
 62
3
 10
-120.693217160400080
 20
-49.129502084354044
 11
-122.693217160399850
 21
-50.782143723477475
  0
LINE
  8
0
  6
CONTINUOUS
 62
3
 10
-118.693217160399850
 20
-47.953716598731262
 11
-120.693217160400080
 21
-49.129502084354044
  0
LINE
  8
0
  6
CONTINUOUS
 62
3
 10
-120.693217160400080
 20
-49.129502084354044
 11
-118.693217160399850
 21
-50.782143723477475
  0
LINE
  8
0
  6
CONTINUOUS
 62
3
 10
-122.693217160399850
 20
-47.953716598731262
 11
-120.693217160400080
 21
-49.129502084354044
  0
POLYLINE
  8
0
  6
CONTINUOUS
 62
3
 66
1
 70
1
  0
VERTEX
  8
0
  6
CONTINUOUS
 62
3
 10
-115.993217160399630
 20
-50.946092152731580
  0
VERTEX
  8
0
  6
CONTINUOUS
 62
3
 10
-116.083526342504450
 20
-50.243135186531219
  0
VERTEX
  8
0
  6
CONTINUOUS
 62
3
 10
-116.350983357596590
 20
-49.567192462319127
  0
VERTEX
  8
0
  6
CONTINUOUS
 62
3
 10
-116.785309982577670
 20
-48.944240079913726
  0
VERTEX
  8
0
  6
CONTINUOUS
 62
3
 10
-117.369815288822860
 20
-48.398217750015142
  0
VERTEX
  8
0
  6
CONTINUOUS
 62
3
 10
-118.082037065207500
 20
-47.950108804548528
  0
VERTEX
  8
0
  6
CONTINUOUS
 62
3
 10
-118.894605028283700
 20
-47.617133818985771
  0
VERTEX
  8
0
  6
CONTINUOUS
 62
3
 10
-119.776292646923820
 20
-47.412088835287520
  0
VERTEX
  8
0
  6
CONTINUOUS
 62
3
 10
-120.693217160399620
 20
-47.342853617186748
  0
VERTEX
  8
0
  6
CONTINUOUS
 62
3
 10
-121.610141673875430
 20
-47.412088835287520
  0
VERTEX
  8
0
  6
CONTINUOUS
 62
3
 10
-122.491829292515540
 20
-47.617133818985771
  0
VERTEX
  8
0
  6
CONTINUOUS
 62
3
 10
-123.304397255591750
 20
-47.950108804548528
  0
VERTEX
  8
0
  6
CONTINUOUS
 62
3
 10
-124.016619031976390
 20
-48.398217750015142
  0
VERTEX
  8
0
  6
CONTINUOUS
 62
3
 10
-124.601124338221580
 20
-48.944240079913726
  0
VERTEX
  8
0
  6
CONTINUOUS
 62
3
 10
-125.035450963202660
 20
-49.567192462319127
  0
VERTEX
  8
0
  6
CONTINUOUS
 62
3
 10
-125.302907978294790
 20
-50.243135186531219
  0
VERTEX
  8
0
  6
CONTINUOUS
 62
3
 10
-125.393217160399610
 20
-50.946092152731580
  0
VERTEX
  8
0
  6
CONTINUOUS
 62
3
 10
-125.302907978294790
 20
-51.649049118931941
  0
VERTEX
  8
0
  6
CONTINUOUS
 62
3
 10
-125.035450963202660
 20
-52.324991843144034
  0
VERTEX
  8
0
  6
CONTINUOUS
 62
3
 10
-124.601124338221580
 20
-52.947944225549435
  0
VERTEX
  8
0
  6
CONTINUOUS
 62
3
 10
-124.016619031976390
 20
-53.493966555448011
  0
VERTEX
  8
0
  6
CONTINUOUS
 62
3
 10
-123.304397255591750
 20
-53.942075500914633
  0
VERTEX
  8
0
  6
CONTINUOUS
 62
3
 10
-122.491829292515540
 20
-54.275050486477390
  0
VERTEX
  8
0
  6
CONTINUOUS
 62
3
 10
-121.610141673875430
 20
-54.480095470175641
  0
VERTEX
  8
0
  6
CONTINUOUS
 62
3
 10
-120.693217160399620
 20
-54.549330688276413
  0
VERTEX
  8
0
  6
CONTINUOUS
 62
3
 10
-119.776292646923820
 20
-54.480095470175641
  0
VERTEX
  8
0
  6
CONTINUOUS
 62
3
 10
-118.894605028283700
 20
-54.275050486477390
  0
VERTEX
  8
0
  6
CONTINUOUS
 62
3
 10
-118.082037065207500
 20
-53.942075500914633
  0
VERTEX
  8
0
  6
CONTINUOUS
 62
3
 10
-117.369815288822860
 20
-53.493966555448011
  0
VERTEX
  8
0
  6
CONTINUOUS
 62
3
 10
-116.785309982577670
 20
-52.947944225549435
  0
VERTEX
  8
0
  6
CONTINUOUS
 62
3
 10
-116.350983357596590
 20
-52.324991843144034
  0
VERTEX
  8
0
  6
CONTINUOUS
 62
3
 10
-116.083526342504450
 20
-51.649049118931941
  0
SEQEND
  8
0
  6
CONTINUOUS
 62
3
  0
ARC
  8
0
  6
CONTINUOUS
 62
3
 10
-112.693217160399850
 20
-57.273423107079225
 40
3.000000000000000
 50
270.000000000000000
 51
0.000000000000000
  0
LINE
  8
0
  6
CONTINUOUS
 62
3
 10
-109.693217160399850
 20
-44.273423107078997
 11
-109.693217160399850
 21
-57.273423107079225
  0
ARC
  8
0
  6
CONTINUOUS
 62
3
 10
-116.693217160399850
 20
-63.273423107079225
 40
3.000000000000000
 50
90.000000000000000
 51
180.000000000000000
  0
LINE
  8
0
  6
CONTINUOUS
 62
3
 10
-112.693217160399850
 20
-60.273423107079225
 11
-116.693217160399850
 21
-60.273423107079225
  0
LINE
  8
0
  6
CONTINUOUS
 62
3
 10
-119.693217160399850
 20
-98.273423107079225
 11
-119.693217160399850
 21
-63.273423107079225
  0
LINE
  8
0
  6
CONTINUOUS
 62
3
 10
-43.693217160378708
 20
-127.273423107079220
 11
-43.693217160378708
 21
-98.273423107079225
  0
LINE
  8
0
  6
CONTINUOUS
 62
3
 10
-116.693217160378700
 20
-98.273423107079225
 11
-116.693217160378700
 21
-127.273423107079220
  0
LINE
  8
0
  6
CONTINUOUS
 62
3
 10
-151.013736698324240
 20
-148.547955219432650
 11
-158.584515894913010
 21
-143.246838555860110
  0
LINE
  8
0
  6
CONTINUOUS
 62
3
 10
-159.693217160400080
 20
-141.117043240708770
 11
-159.693217160400080
 21
-98.273423107079225
  0
ARC
  8
0
  6
CONTINUOUS
 62
3
 10
-157.093217160400170
 20
-141.117043240708770
 40
2.599999999999909
 50
180.000000000000000
 51
234.999999999997390
  0
ARC
  8
0
  6
CONTINUOUS
 62
3
 10
-139.198062109492870
 20
-131.673423107079430
 40
20.599999999999891
 50
235.000000000000400
 51
270.000000000000000
  0
LINE
  8
0
  6
CONTINUOUS
 62
3
 10
-109.693217160399850
 20
-152.273423107079450
 11
-139.198062109492870
 21
-152.273423107079450
  0
LINE
  8
0
  6
CONTINUOUS
 62
4
 10
-119.693217160399850
 20
-118.273423107079220
 11
-117.693217160378700
 21
-118.273423107079220
  0
LINE
  8
0
  6
CONTINUOUS
 62
4
 10
-119.693217160399850
 20
-121.111662787075370
 11
-117.693217160378700
 21
-121.111662787075370
  0
LINE
  8
0
  6
CONTINUOUS
 62
4
 10
-119.693217160399850
 20
-122.458064512573960
 11
-117.693217160378700
 21
-122.458064512573960
  0
LINE
  8
0
  6
CONTINUOUS
 62
4
 10
-119.693217160399850
 20
-125.550795504239200
 11
-117.693217160378700
 21
-125.550795504239200
  0
LINE
  8
0
  6
CONTINUOUS
 62
4
 10
-119.693217160399850
 20
-127.029818657716300
 11
-117.693217160378700
 21
-127.029818657716300
  0
LINE
  8
0
  6
CONTINUOUS
 62
3
 10
-120.693217160400080
 20
-147.417344129804290
 11
-122.693217160399850
 21
-145.764702490680970
  0
LINE
  8
0
  6
CONTINUOUS
 62
3
 10
-118.693217160399850
 20
-148.593129615427190
 11
-120.693217160400080
 21
-147.417344129804290
  0
LINE
  8
0
  6
CONTINUOUS
 62
3
 10
-120.693217160400080
 20
-147.417344129804290
 11
-118.693217160399850
 21
-145.764702490680970
  0
LINE
  8
0
  6
CONTINUOUS
 62
3
 10
-122.693217160399850
 20
-148.593129615427190
 11
-120.693217160400080
 21
-147.417344129804290
  0
POLYLINE
  8
0
  6
CONTINUOUS
 62
3
 66
1
 70
1
  0
VERTEX
  8
0
  6
CONTINUOUS
 62
3
 10
-115.993217160399630
 20
-145.600754061426760
  0
VERTEX
  8
0
  6
CONTINUOUS
 62
3
 10
-116.083526342504450
 20
-144.897797095226390
  0
VERTEX
  8
0
  6
CONTINUOUS
 62
3
 10
-116.350983357596590
 20
-144.221854371014300
  0
VERTEX
  8
0
  6
CONTINUOUS
 62
3
 10
-116.785309982577670
 20
-143.598901988608900
  0
VERTEX
  8
0
  6
CONTINUOUS
 62
3
 10
-117.369815288822860
 20
-143.052879658710310
  0
VERTEX
  8
0
  6
CONTINUOUS
 62
3
 10
-118.082037065207500
 20
-142.604770713243680
  0
VERTEX
  8
0
  6
CONTINUOUS
 62
3
 10
-118.894605028283700
 20
-142.271795727680940
  0
VERTEX
  8
0
  6
CONTINUOUS
 62
3
 10
-119.776292646923820
 20
-142.066750743982680
  0
VERTEX
  8
0
  6
CONTINUOUS
 62
3
 10
-120.693217160399620
 20
-141.997515525881910
  0
VERTEX
  8
0
  6
CONTINUOUS
 62
3
 10
-121.610141673875430
 20
-142.066750743982680
  0
VERTEX
  8
0
  6
CONTINUOUS
 62
3
 10
-122.491829292515540
 20
-142.271795727680940
  0
VERTEX
  8
0
  6
CONTINUOUS
 62
3
 10
-123.304397255591750
 20
-142.604770713243680
  0
VERTEX
  8
0
  6
CONTINUOUS
 62
3
 10
-124.016619031976390
 20
-143.052879658710310
  0
VERTEX
  8
0
  6
CONTINUOUS
 62
3
 10
-124.601124338221580
 20
-143.598901988608900
  0
VERTEX
  8
0
  6
CONTINUOUS
 62
3
 10
-125.035450963202660
 20
-144.221854371014300
  0
VERTEX
  8
0
  6
CONTINUOUS
 62
3
 10
-125.302907978294790
 20
-144.897797095226390
  0
VERTEX
  8
0
  6
CONTINUOUS
 62
3
 10
-125.393217160399610
 20
-145.600754061426760
  0
VERTEX
  8
0
  6
CONTINUOUS
 62
3
 10
-125.302907978294790
 20
-146.303711027627120
  0
VERTEX
  8
0
  6
CONTINUOUS
 62
3
 10
-125.035450963202660
 20
-146.979653751839210
  0
VERTEX
  8
0
  6
CONTINUOUS
 62
3
 10
-124.601124338221580
 20
-147.602606134244610
  0
VERTEX
  8
0
  6
CONTINUOUS
 62
3
 10
-124.016619031976390
 20
-148.148628464143200
  0
VERTEX
  8
0
  6
CONTINUOUS
 62
3
 10
-123.304397255591750
 20
-148.596737409609830
  0
VERTEX
  8
0
  6
CONTINUOUS
 62
3
 10
-122.491829292515540
 20
-148.929712395172570
  0
VERTEX
  8
0
  6
CONTINUOUS
 62
3
 10
-121.610141673875430
 20
-149.134757378870830
  0
VERTEX
  8
0
  6
CONTINUOUS
 62
3
 10
-120.693217160399620
 20
-149.203992596971600
  0
VERTEX
  8
0
  6
CONTINUOUS
 62
3
 10
-119.776292646923820
 20
-149.134757378870830
  0
VERTEX
  8
0
  6
CONTINUOUS
 62
3
 10
-118.894605028283700
 20
-148.929712395172570
  0
VERTEX
  8
0
  6
CONTINUOUS
 62
3
 10
-118.082037065207500
 20
-148.596737409609830
  0
VERTEX
  8
0
  6
CONTINUOUS
 62
3
 10
-117.369815288822860
 20
-148.148628464143200
  0
VERTEX
  8
0
  6
CONTINUOUS
 62
3
 10
-116.785309982577670
 20
-147.602606134244610
  0
VERTEX
  8
0
  6
CONTINUOUS
 62
3
 10
-116.350983357596590
 20
-146.979653751839210
  0
VERTEX
  8
0
  6
CONTINUOUS
 62
3
 10
-116.083526342504450
 20
-146.303711027627120
  0
SEQEND
  8
0
  6
CONTINUOUS
 62
3
  0
ARC
  8
0
  6
CONTINUOUS
 62
3
 10
-112.693217160399850
 20
-139.273423107079220
 40
3.000000000000000
 50
0.000000000000000
 51
90.000000000000000
  0
LINE
  8
0
  6
CONTINUOUS
 62
3
 10
-109.693217160399850
 20
-152.273423107079450
 11
-109.693217160399850
 21
-139.273423107079220
  0
ARC
  8
0
  6
CONTINUOUS
 62
3
 10
-116.693217160399850
 20
-133.273423107079220
 40
3.000000000000000
 50
180.000000000000000
 51
270.000000000000000
  0
LINE
  8
0
  6
CONTINUOUS
 62
3
 10
-112.693217160399850
 20
-136.273423107079220
 11
-116.693217160399850
 21
-136.273423107079220
  0
LINE
  8
0
  6
CONTINUOUS
 62
3
 10
-119.693217160399850
 20
-98.273423107079225
 11
-119.693217160399850
 21
-133.273423107079220
  0
ARC
  8
0
  6
CONTINUOUS
 62
3
 10
-44.693217160378708
 20
-127.273423107079220
 40
1.000000000000000
 50
270.000000000000000
 51
0.000000000000000
  0
ARC
  8
0
  6
CONTINUOUS
 62
3
 10
-115.693217160378700
 20
-127.273423107079220
 40
1.000000000000000
 50
180.000000000000000
 51
270.000000000000000
  0
LINE
  8
0
  6
CONTINUOUS
 62
3
 10
-44.693217160378708
 20
-128.273423107079220
 11
-115.693217160378700
 21
-128.273423107079220
  0
ARC
  8
0
  6
CONTINUOUS
 62
3
 10
-115.693217160378700
 20
-127.773423107079220
 40
2.000000000000000
 50
180.000000000000000
 51
270.000000000000000
  0
ARC
  8
0
  6
CONTINUOUS
 62
3
 10
-44.693217160378708
 20
-127.773423107079220
 40
2.000000000000000
 50
270.000000000000000
 51
0.000000000000000
  0
LINE
  8
0
  6
CONTINUOUS
 62
3
 10
-44.693217160378708
 20
-129.773423107079220
 11
-115.693217160378700
 21
-129.773423107079220
  0
LINE
  8
0
  6
CONTINUOUS
 62
3
 10
-42.693217160378708
 20
-98.273423107079225
 11
-42.693217160378708
 21
-127.773423107079220
  0
LINE
  8
0
  6
CONTINUOUS
 62
3
 10
-117.693217160378700
 20
-98.273423107079225
 11
-117.693217160378700
 21
-127.773423107079220
  0
LINE
  8
0
  6
CONTINUOUS
 62
3
 10
30.806782839621064
 20
-98.273423107079225
 11
30.806782839621064
 21
-45.773423107079225
  0
ARC
  8
0
  6
CONTINUOUS
 62
3
 10
278.164202338288310
 20
-82.874296033183782
 40
26.652999999999416
 50
93.357817421571156
 51
180.000000000000000
  0
ARC
  8
0
  6
CONTINUOUS
 62
3
 10
278.164202338288310
 20
-82.874296033183782
 40
49.999999999999631
 50
93.357817421570857
 51
180.000000000000000
  0
LINE
  8
0
  6
CONTINUOUS
 62
3
 10
249.338752987570390
 20
-82.874296033183782
 11
249.338752987570390
 21
-145.273423107079000
  0
LINE
  8
0
  6
CONTINUOUS
 62
3
 10
251.511202338288510
 20
-82.874296033183782
 11
251.511202338288510
 21
-145.273423107079000
  0
LINE
  8
0
  6
DASHDOT
 62
4
 10
410.148256823860720
 20
-78.273423107078997
 11
200.644468581627730
 21
-78.273423107078997
  0
POLYLINE
  8
0
  6
CONTINUOUS
 62
3
 66
1
  0
VERTEX
  8
0
  6
CONTINUOUS
 62
3
 10
249.338752987570500
 20
-82.874296033183782
  0
VERTEX
  8
0
  6
CONTINUOUS
 62
3
 10
249.190120750569380
 20
-79.947941202941863
  0
VERTEX
  8
0
  6
CONTINUOUS
 62
3
 10
248.749935893080050
 20
-77.134044547707433
  0
VERTEX
  8
0
  6
CONTINUOUS
 62
3
 10
248.035114472317300
 20
-74.540742537889741
  0
VERTEX
  8
0
  6
CONTINUOUS
 62
3
 10
247.073126674604570
 20
-72.267694315385569
  0
VERTEX
  8
0
  6
CONTINUOUS
 62
3
 10
245.900941151519020
 20
-70.402251848645605
  0
VERTEX
  8
0
  6
CONTINUOUS
 62
3
 10
244.563604335343600
 20
-69.016103045514484
  0
VERTEX
  8
0
  6
CONTINUOUS
 62
3
 10
243.112509329936780
 20
-68.162516827135335
  0
VERTEX
  8
0
  6
CONTINUOUS
 62
3
 10
241.603420902572910
 20
-67.874296033183782
  0
VERTEX
  8
0
  6
CONTINUOUS
 62
3
 10
240.094332475209030
 20
-68.162516827135335
  0
VERTEX
  8
0
  6
CONTINUOUS
 62
3
 10
238.643237469802220
 20
-69.016103045514484
  0
VERTEX
  8
0
  6
CONTINUOUS
 62
3
 10
237.305900653626790
 20
-70.402251848645605
  0
VERTEX
  8
0
  6
CONTINUOUS
 62
3
 10
236.133715130541250
 20
-72.267694315385569
  0
VERTEX
  8
0
  6
CONTINUOUS
 62
3
 10
235.171727332828510
 20
-74.540742537889756
  0
VERTEX
  8
0
  6
CONTINUOUS
 62
3
 10
234.456905912065760
 20
-77.134044547707433
  0
VERTEX
  8
0
  6
CONTINUOUS
 62
3
 10
234.016721054576440
 20
-79.947941202941863
  0
VERTEX
  8
0
  6
CONTINUOUS
 62
3
 10
233.868088817575310
 20
-82.874296033183782
  0
SEQEND
  8
0
  6
CONTINUOUS
 62
3
  0
LINE
  8
0
  6
CONTINUOUS
 62
3
 10
228.164202338288310
 20
-146.801287152079790
 11
228.164202338288310
 21
-82.874296033183782
  0
LINE
  8
0
  6
CONTINUOUS
 62
3
 10
233.868088817574970
 20
-82.874295348472060
 11
233.868088817574970
 21
-145.273423107079000
  0
ARC
  8
0
  6
CONTINUOUS
 62
3
 10
217.725433204306680
 20
-123.273423107078960
 40
4.999999999999893
 50
184.861405395798610
 51
270.000000000000000
  0
ARC
  8
0
  6
CONTINUOUS
 62
3
 10
217.725433204306680
 20
-73.273423107078997
 40
5.000000000000000
 50
90.000000000000000
 51
175.138594604201390
  0
LINE
  8
0
  6
CONTINUOUS
 62
3
 10
228.164202338288310
 20
-128.273423107079000
 11
217.725433204306680
 21
-128.273423107078970
  0
LINE
  8
0
  6
CONTINUOUS
 62
3
 10
230.343552930362650
 20
-68.273423107078997
 11
217.725433204306680
 21
-68.273423107078997
  0
ARC
  8
0
  6
CONTINUOUS
 62
3
 10
511.664202338288310
 20
-98.273423107078997
 40
300.000000000000170
 50
175.138594604201960
 51
184.861405395798040
  0
LINE
  8
0
  6
CONTINUOUS
 62
3
 10
211.674619185806020
 20
-95.773423107078997
 11
211.164202338288310
 21
-95.773423107078997
  0
LINE
  8
0
  6
CONTINUOUS
 62
3
 10
211.674619185806020
 20
-100.773423107078960
 11
211.164202338288310
 21
-100.773423107078960
  0
LINE
  8
0
  6
CONTINUOUS
 62
3
 10
211.164202338288310
 20
-100.773423107078960
 11
211.164202338288310
 21
-95.773423107078997
  0
ARC
  8
0
  6
CONTINUOUS
 62
3
 10
25.806782839619700
 20
-151.164462217358730
 40
2.999999999999986
 50
92.119248310867135
 51
180.000000000000000
  0
ARC
  8
0
  6
CONTINUOUS
 62
3
 10
47.684355883621265
 20
-144.350781720046370
 40
3.000000000000099
 50
272.119248310867080
 51
309.407385823777130
  0
LINE
  8
0
  6
CONTINUOUS
 62
3
 10
137.806782839619700
 20
-163.273423107079000
 11
24.806782839619700
 21
-163.273423107079000
  0
LINE
  8
0
  6
DASHDOT
 62
4
 10
34.806782839619700
 20
-166.107041118553520
 11
34.806782839619700
 21
-145.906973839714510
  0
LINE
  8
0
  6
CONTINUOUS
 62
3
 10
22.806782839619700
 20
-162.773423107079000
 11
22.806782839619700
 21
-151.164462217358730
  0
LINE
  8
0
  6
CONTINUOUS
 62
3
 10
25.695844557393229
 20
-148.166514136164440
 11
60.306782839621519
 21
-146.885745445283310
  0
LINE
  8
0
  6
CONTINUOUS
 62
3
 10
24.806782839619700
 20
-162.773423107079000
 11
24.806782839619700
 21
-163.273423107079000
  0
LINE
  8
0
  6
CONTINUOUS
 62
3
 10
22.806782839619700
 20
-162.773423107079000
 11
24.806782839619700
 21
-162.773423107079000
  0
ARC
  8
0
  6
CONTINUOUS
 62
3
 10
49.306782839620155
 20
-33.273423107079168
 40
1.000000000000000
 50
90.000000000000000
 51
180.000000000000000
  0
LINE
  8
0
  6
CONTINUOUS
 62
3
 10
30.806782839621064
 20
-45.773423107079338
 11
30.806782839621064
 21
-98.273423107079225
  0
ARC
  8
0
  6
CONTINUOUS
 62
3
 10
47.306782839620155
 20
-70.273423107079083
 40
1.000000000000008
 50
299.999999999999720
 51
0.000000000000000
  0
ARC
  8
0
  6
CONTINUOUS
 62
3
 10
48.306782839620155
 20
-72.005473914647951
 40
0.999999999999984
 50
120.000000000000520
 51
180.000000000000000
  0
ARC
  8
0
  6
CONTINUOUS
 62
3
 10
47.306782839620155
 20
-88.273423107079083
 40
1.000000000000000
 50
0.000000000000000
 51
60.000000000000277
  0
LINE
  8
0
  6
CONTINUOUS
 62
3
 10
47.306782839620155
 20
-72.005473914647951
 11
47.306782839620155
 21
-86.541372299510215
  0
ARC
  8
0
  6
CONTINUOUS
 62
3
 10
48.306782839620155
 20
-86.541372299510215
 40
1.000000000000000
 50
180.000000000000000
 51
239.999999999999460
  0
ARC
  8
0
  6
CONTINUOUS
 62
3
 10
49.306782839620155
 20
-107.523423107079110
 40
1.000000000000000
 50
90.000000000000000
 51
180.000000000000000
  0
ARC
  8
0
  6
CONTINUOUS
 62
3
 10
49.306782839620155
 20
-93.023423107079111
 40
1.000000000000000
 50
180.000000000000000
 51
270.000000000000000
  0
ARC
  8
0
  6
CONTINUOUS
 62
3
 10
49.306782839620155
 20
-37.940240039836226
 40
1.000000000000000
 50
90.000000000000000
 51
180.000000000000000
  0
ARC
  8
0
  6
CONTINUOUS
 62
3
 10
49.306782839620155
 20
-34.402713281062461
 40
1.000000000000000
 50
90.000000000000000
 51
180.000000000000000
  0
LINE
  8
0
  6
CONTINUOUS
 62
3
 10
48.306782839620155
 20
-33.273423107079168
 11
48.306782839620155
 21
-37.273423107079111
  0
LINE
  8
0
  6
CONTINUOUS
 62
3
 10
45.257252383097295
 20
-45.381931284191324
 11
30.806782839621064
 21
-45.760330146294621
  0
LINE
  8
0
  6
CONTINUOUS
 62
3
 10
48.306782839620155
 20
-37.940240039836198
 11
48.306782839619700
 21
-95.273423107079111
  0
LINE
  8
0
  6
CONTINUOUS
 62
3
 10
48.306782839620155
 20
-105.273423107079110
 11
48.306782839620155
 21
-147.285502266273200
  0
LINE
  8
0
  6
CONTINUOUS
 62
3
 10
30.806782839621064
 20
-147.977385205896040
 11
30.806782839621064
 21
-98.273423107079225
  0
LINE
  8
0
  6
CONTINUOUS
 62
3
 10
30.806782839621064
 20
-98.273423107079225
 11
30.806782839621064
 21
-45.773423107079225
  0
LINE
  8
0
  6
CONTINUOUS
 62
3
 10
298.664202338288310
 20
-161.273423107079220
 11
332.049824060627090
 21
-161.273423107079220
  0
ARC
  8
0
  6
CONTINUOUS
 62
3
 10
338.664202338288310
 20
-156.773423107079220
 40
7.999999999999785
 50
214.228866327813620
 51
223.432536557791050
  0
LINE
  8
0
  6
CONTINUOUS
 62
3
 10
332.854727318977440
 20
-162.273423107079220
 11
346.164202338288310
 21
-162.273423107079220
  0
LINE
  8
0
  6
CONTINUOUS
 62
3
 10
298.664202338288310
 20
-161.273423107079220
 11
265.278580615949980
 21
-161.273423107079220
  0
ARC
  8
0
  6
CONTINUOUS
 62
3
 10
258.664202338288760
 20
-156.773423107079340
 40
7.999999999999734
 50
316.567463442209540
 51
325.771133672187030
  0
ARC
  8
0
  6
CONTINUOUS
 62
3
 10
251.164202338288310
 20
-163.273423107079220
 40
1.000000000000000
 50
90.000000000000000
 51
180.000000000000000
  0
LINE
  8
0
  6
CONTINUOUS
 62
3
 10
264.473677357599630
 20
-162.273423107079220
 11
251.164202338288310
 21
-162.273423107079220
  0
LINE
  8
0
  6
CONTINUOUS
 62
3
 10
250.164202338288310
 20
-163.273423107079220
 11
226.164202338288310
 21
-163.273423107079220
  0
LINE
  8
0
  6
CONTINUOUS
 62
3
 10
347.164202338288310
 20
-163.273423107079220
 11
371.164202338288760
 21
-163.273423107079220
  0
ARC
  8
0
  6
CONTINUOUS
 62
3
 10
346.164202338288310
 20
-163.273423107079220
 40
1.000000000000000
 50
0.000000000000000
 51
90.000000000000000
  0
LINE
  8
0
  6
CONTINUOUS
 62
3
 10
298.664202338288310
 20
-161.273423107079220
 11
329.664202338288310
 21
-161.273423107079220
  0
ARC
  8
0
  6
CONTINUOUS
 62
3
 10
366.460315859001640
 20
-145.273423107079000
 40
3.000000000000000
 50
180.000000000000000
 51
270.000000000000000
  0
ARC
  8
0
  6
CONTINUOUS
 62
3
 10
350.989651689006680
 20
-145.273423107079000
 40
3.000000000000000
 50
180.000000000000000
 51
270.000000000000000
  0
ARC
  8
0
  6
CONTINUOUS
 62
3
 10
246.338752987570390
 20
-145.273423107079000
 40
3.000000000000227
 50
270.000000000000000
 51
0.000000000000000
  0
ARC
  8
0
  6
CONTINUOUS
 62
3
 10
230.868088817574970
 20
-145.273423107079000
 40
3.000000000000227
 50
270.000000000000000
 51
0.000000000000000
  0
ARC
  8
0
  6
CONTINUOUS
 62
3
 10
372.164202338288310
 20
-146.801287152079790
 40
3.000000000000000
 50
180.000000000000000
 51
228.189685104220470
  0
ARC
  8
0
  6
CONTINUOUS
 62
3
 10
368.164202338288310
 20
-151.273423107079220
 40
3.000000000000000
 50
0.000000000000000
 51
90.000000000000000
  0
ARC
  8
0
  6
CONTINUOUS
 62
3
 10
348.817202338288550
 20
-145.273423107079000
 40
3.000000000000000
 50
180.000000000000000
 51
270.000000000000000
  0
ARC
  8
0
  6
CONTINUOUS
 62
3
 10
248.511202338288510
 20
-145.273423107079000
 40
3.000000000000227
 50
270.000000000000000
 51
0.000000000000000
  0
ARC
  8
0
  6
CONTINUOUS
 62
3
 10
225.164202338288310
 20
-146.801287152079790
 40
2.999999999999944
 50
311.810314895779530
 51
0.000000000000000
  0
ARC
  8
0
  6
CONTINUOUS
 62
3
 10
229.164202338288310
 20
-151.273423107079220
 40
3.000000000000000
 50
90.000000000000000
 51
180.000000000000000
  0
ARC
  8
0
  6
CONTINUOUS
 62
3
 10
251.164202338288310
 20
-163.273423107079220
 40
1.000000000000000
 50
90.000000000000000
 51
180.000000000000000
  0
ARC
  8
0
  6
CONTINUOUS
 62
3
 10
335.664202338288310
 20
-138.273423107079220
 40
5.000000000000000
 50
270.000000000000000
 51
0.000000000000000
  0
ARC
  8
0
  6
CONTINUOUS
 62
3
 10
261.664202338288310
 20
-138.273423107079220
 40
5.000000000000000
 50
180.000000000000000
 51
270.000000000000000
  0
ARC
  8
0
  6
CONTINUOUS
 62
3
 10
338.164202338288310
 20
-80.773423107078997
 40
2.500000000000000
 50
0.000000000000000
 51
90.000000000000000
  0
ARC
  8
0
  6
CONTINUOUS
 62
3
 10
261.664202338288310
 20
-138.273423107079220
 40
5.000000000000000
 50
180.000000000000000
 51
270.000000000000000
  0
LINE
  8
0
  6
CONTINUOUS
 62
3
 10
363.460315859001640
 20
-82.874295348472060
 11
363.460315859001640
 21
-145.273423107079000
  0
LINE
  8
0
  6
CONTINUOUS
 62
3
 10
347.989651689006680
 20
-82.874296033183782
 11
347.989651689006680
 21
-145.273423107079000
  0
LINE
  8
0
  6
CONTINUOUS
 62
3
 10
371.164202338288760
 20
-163.273423107079220
 11
371.164202338288310
 21
-151.273423107079220
  0
LINE
  8
0
  6
CONTINUOUS
 62
3
 10
369.164202338288310
 20
-146.801287152079790
 11
369.164202338288310
 21
-82.874296033183782
  0
LINE
  8
0
  6
CONTINUOUS
 62
3
 10
345.817202338288550
 20
-82.874296033183782
 11
345.817202338288550
 21
-145.273423107079000
  0
LINE
  8
0
  6
CONTINUOUS
 62
3
 10
298.664202338288310
 20
-148.273423107079220
 11
368.164202338288310
 21
-148.273423107079220
  0
LINE
  8
0
  6
CONTINUOUS
 62
3
 10
298.664202338288310
 20
-148.273423107079220
 11
229.164202338288310
 21
-148.273423107079220
  0
LINE
  8
0
  6
CONTINUOUS
 62
3
 10
226.164202338288310
 20
-163.273423107079220
 11
226.164202338288310
 21
-151.273423107079220
  0
LINE
  8
0
  6
CONTINUOUS
 62
3
 10
250.164202338288310
 20
-163.273423107079220
 11
226.164202338288310
 21
-163.273423107079220
  0
LINE
  8
0
  6
CONTINUOUS
 62
3
 10
298.664202338288310
 20
-161.273423107079220
 11
267.664202338288310
 21
-161.273423107079220
  0
LINE
  8
0
  6
DASHDOT
 62
4
 10
236.164202338288310
 20
-145.688616498759530
 11
236.164202338288310
 21
-165.685590618065590
  0
LINE
  8
0
  6
DASHDOT
 62
4
 10
361.164202338288310
 20
-145.188616498759530
 11
361.164202338288310
 21
-165.685590618065590
  0
LINE
  8
0
  6
CONTINUOUS
 62
3
 10
347.164202338288310
 20
-163.273423107079220
 11
347.164202338288310
 21
-163.273423107079220
  0
LINE
  8
0
  6
CONTINUOUS
 62
3
 10
250.164202338288310
 20
-163.273423107079220
 11
250.164202338288310
 21
-163.273423107079220
  0
LINE
  8
0
  6
CONTINUOUS
 62
3
 10
298.664202338288310
 20
-143.273423107079220
 11
335.664202338288310
 21
-143.273423107079220
  0
LINE
  8
0
  6
CONTINUOUS
 62
3
 10
340.664202338288310
 20
-80.773423107078997
 11
340.664202338288310
 21
-138.273423107079220
  0
LINE
  8
0
  6
CONTINUOUS
 62
3
 10
298.664202338288310
 20
-143.273423107079220
 11
261.664202338288310
 21
-143.273423107079220
  0
LINE
  8
0
  6
CONTINUOUS
 62
3
 10
298.664202338288310
 20
-143.273423107079220
 11
261.664202338288310
 21
-143.273423107079220
  0
POLYLINE
  8
0
  6
CONTINUOUS
 62
3
 66
1
  0
VERTEX
  8
0
  6
CONTINUOUS
 62
3
 10
363.460315859001750
 20
-82.874296033183782
  0
VERTEX
  8
0
  6
CONTINUOUS
 62
3
 10
363.311683622000600
 20
-79.947941202941863
  0
VERTEX
  8
0
  6
CONTINUOUS
 62
3
 10
362.871498764511270
 20
-77.134044547707433
  0
VERTEX
  8
0
  6
CONTINUOUS
 62
3
 10
362.156677343748530
 20
-74.540742537889741
  0
VERTEX
  8
0
  6
CONTINUOUS
 62
3
 10
361.194689546035820
 20
-72.267694315385569
  0
VERTEX
  8
0
  6
CONTINUOUS
 62
3
 10
360.022504022950270
 20
-70.402251848645605
  0
VERTEX
  8
0
  6
CONTINUOUS
 62
3
 10
358.685167206774850
 20
-69.016103045514484
  0
VERTEX
  8
0
  6
CONTINUOUS
 62
3
 10
357.234072201368010
 20
-68.162516827135335
  0
VERTEX
  8
0
  6
CONTINUOUS
 62
3
 10
355.724983774004160
 20
-67.874296033183782
  0
VERTEX
  8
0
  6
CONTINUOUS
 62
3
 10
354.215895346640310
 20
-68.162516827135335
  0
VERTEX
  8
0
  6
CONTINUOUS
 62
3
 10
352.764800341233470
 20
-69.016103045514484
  0
VERTEX
  8
0
  6
CONTINUOUS
 62
3
 10
351.427463525058040
 20
-70.402251848645605
  0
VERTEX
  8
0
  6
CONTINUOUS
 62
3
 10
350.255278001972500
 20
-72.267694315385569
  0
VERTEX
  8
0
  6
CONTINUOUS
 62
3
 10
349.293290204259790
 20
-74.540742537889756
  0
VERTEX
  8
0
  6
CONTINUOUS
 62
3
 10
348.578468783497040
 20
-77.134044547707433
  0
VERTEX
  8
0
  6
CONTINUOUS
 62
3
 10
348.138283926007720
 20
-79.947941202941863
  0
VERTEX
  8
0
  6
CONTINUOUS
 62
3
 10
347.989651689006560
 20
-82.874296033183782
  0
SEQEND
  8
0
  6
CONTINUOUS
 62
3
  0
LINE
  8
0
  6
CONTINUOUS
 62
3
 10
57.306782839621064
 20
-140.327486020977260
 11
57.306782839621064
 21
-98.273423107079225
  0
LINE
  8
0
  6
CONTINUOUS
 62
3
 10
51.306782839620155
 20
-36.173423679283701
 11
49.806782839620155
 21
-36.173423679283701
  0
ARC
  8
0
  6
CONTINUOUS
 62
3
 10
51.206782839620701
 20
-36.840240039836203
 40
0.100000000000023
 50
270.000000000000000
 51
0.000000000000000
  0
LINE
  8
0
  6
CONTINUOUS
 62
3
 10
51.306782839620155
 20
-36.840240039836203
 11
51.306782839620155
 21
-33.502713281062455
  0
LINE
  8
0
  6
CONTINUOUS
 62
3
 10
49.306782839620155
 20
-36.940240039836226
 11
51.206782839620701
 21
-36.940240039836226
  0
ARC
  8
0
  6
CONTINUOUS
 62
3
 10
51.206782839620701
 20
-33.502713281062455
 40
0.099999999999454
 50
0.000000000000000
 51
90.000000000000000
  0
LINE
  8
0
  6
CONTINUOUS
 62
3
 10
49.306782839620155
 20
-33.402713281062461
 11
51.206782839620701
 21
-33.402713281062461
  0
ARC
  8
0
  6
CONTINUOUS
 62
3
 10
51.206782839620246
 20
-106.423423107079110
 40
0.099999999999994
 50
270.000000000000000
 51
0.000000000000000
  0
LINE
  8
0
  6
CONTINUOUS
 62
3
 10
51.306782839620155
 20
-106.423423107079110
 11
51.306782839620155
 21
-94.123423107079105
  0
LINE
  8
0
  6
CONTINUOUS
 62
3
 10
49.306782839620155
 20
-106.523423107079110
 11
51.206782839620246
 21
-106.523423107079110
  0
ARC
  8
0
  6
CONTINUOUS
 62
3
 10
51.206782839620246
 20
-94.123423107079105
 40
0.099999999999909
 50
0.000000000000000
 51
90.000000000000000
  0
LINE
  8
0
  6
CONTINUOUS
 62
3
 10
49.306782839620155
 20
-94.023423107079111
 11
51.206782839620246
 21
-94.023423107079111
  0
LINE
  8
0
  6
CONTINUOUS
 62
3
 10
49.806782839620155
 20
-36.940240039836226
 11
49.806782839620155
 21
-36.173423679283701
  0
LINE
  8
0
  6
CONTINUOUS
 62
3
 10
57.306782839620155
 20
-32.273423107079083
 11
57.306782839620155
 21
-98.273423107079225
  0
LINE
  8
0
  6
CONTINUOUS
 62
3
 10
49.306782839620155
 20
-32.273423107079168
 11
57.306782839620155
 21
-32.273423107079083
  0
ARC
  8
0
  6
CONTINUOUS
 62
3
 10
118.011163952673080
 20
-144.892522180124390
 40
3.000000000000000
 50
180.000000000000000
 51
268.999999999989540
  0
ARC
  8
0
  6
CONTINUOUS
 62
3
 10
138.974088998184930
 20
-145.626625798772120
 40
3.000000000000000
 50
180.000000000000000
 51
248.825002431726630
  0
LINE
  8
0
  6
CONTINUOUS
 62
3
 10
137.806782839619700
 20
-162.773423107079000
 11
139.806782839619700
 21
-162.773423107079000
  0
LINE
  8
0
  6
CONTINUOUS
 62
3
 10
137.806782839619700
 20
-163.273423107079000
 11
137.806782839619700
 21
-162.773423107079000
  0
LINE
  8
0
  6
CONTINUOUS
 62
3
 10
59.806782839619700
 20
-137.328185143706040
 11
59.806782839619700
 21
-120.526730820546730
  0
LINE
  8
0
  6
CONTINUOUS
 62
3
 10
49.588846239574195
 20
-146.668736957768370
 11
59.076443076921805
 21
-138.873488635520630
  0
LINE
  8
0
  6
CONTINUOUS
 62
3
 10
136.859140058932100
 20
-148.221971810956920
 11
60.306782839619700
 21
-146.885745445283310
  0
LINE
  8
0
  6
DASHDOT
 62
4
 10
127.806782839619700
 20
-146.170854377678320
 11
127.806782839619700
 21
-165.921479137352430
  0
LINE
  8
0
  6
CONTINUOUS
 62
3
 10
139.806782839619700
 20
-151.221514896426020
 11
139.806782839619700
 21
-162.773423107079000
  0
LINE
  8
0
  6
CONTINUOUS
 62
3
 10
91.806782839619700
 20
-32.866895314638214
 11
57.806782839619700
 21
-32.273423107078997
  0
ARC
  8
0
  6
CONTINUOUS
 62
3
 10
57.806782839619700
 20
-137.328185143706040
 40
2.000000000000015
 50
309.407385823783900
 51
0.000000000000000
  0
ARC
  8
0
  6
CONTINUOUS
 62
3
 10
57.806782839619700
 20
-120.526730820546730
 40
2.000000000000000
 50
0.000000000000000
 51
90.000000000000000
  0
ARC
  8
0
  6
CONTINUOUS
 62
3
 10
136.806782839619700
 20
-151.221514896426020
 40
3.000000000000000
 50
0.000000000000000
 51
88.999999999989512
  0
ARC
  8
0
  6
CONTINUOUS
 62
3
 10
138.806782839619700
 20
-147.757413281288220
 40
1.000000000000000
 50
180.000000000000000
 51
239.999999999999460
  0
LINE
  8
0
  6
CONTINUOUS
 62
3
 10
57.806782839619700
 20
-32.273423107078997
 11
57.806782839619700
 21
-78.273423107078997
  0
LINE
  8
0
  6
CONTINUOUS
 62
3
 10
57.806782839620155
 20
-139.916673438198020
 11
57.806782839619700
 21
-78.273423107078997
  0
LINE
  8
0
  6
CONTINUOUS
 62
3
 10
285.164202338288310
 20
-75.273423107078884
 11
285.164202338288310
 21
-81.273423107078884
  0
ARC
  8
0
  6
CONTINUOUS
 62
3
 10
298.664202338288310
 20
-78.273423107078884
 40
11.000000000000037
 50
195.826620131872290
 51
164.173379868127710
  0
LINE
  8
0
  6
CONTINUOUS
 62
3
 10
291.164202338288310
 20
-81.273423107078884
 11
291.164202338288310
 21
-75.273423107078884
  0
LINE
  8
0
  6
CONTINUOUS
 62
3
 10
285.164202338288310
 20
-75.273423107078884
 11
291.164202338288310
 21
-75.273423107078884
  0
LINE
  8
0
  6
CONTINUOUS
 62
3
 10
285.164202338288310
 20
-81.273423107078884
 11
291.164202338288310
 21
-81.273423107078884
  0
CIRCLE
  8
0
  6
CONTINUOUS
 62
4
 10
298.664202338288310
 20
-78.273423107078997
 40
4.000000000000000
  0
CIRCLE
  8
0
  6
CONTINUOUS
 62
3
 10
298.664202338288310
 20
-78.273423107078997
 40
3.323500000000024
  0
LINE
  8
0
  6
CONTINUOUS
 62
3
 10
256.664202338288310
 20
-80.773423107078997
 11
256.664202338288310
 21
-138.273423107079220
  0
LINE
  8
0
  6
CONTINUOUS
 62
3
 10
269.733250055309780
 20
-78.273423107078997
 11
259.164202338288310
 21
-78.273423107078997
  0
LINE
  8
0
  6
CONTINUOUS
 62
3
 10
327.595154621267280
 20
-78.273423107078997
 11
338.164202338288310
 21
-78.273423107078997
  0
LINE
  8
0
  6
CONTINUOUS
 62
3
 10
256.664202338288310
 20
-80.569039102414422
 11
256.664202338288310
 21
-138.273423107079220
  0
LINE
  8
0
  6
DASHDOT
 62
4
 10
298.664202338288310
 20
-21.360446763770256
 11
298.664202338288310
 21
-172.258144263898090
  0
LINE
  8
0
  6
DASHDOT
 62
4
 10
282.846964633925380
 20
-98.273423107078997
 11
315.444010365430590
 21
-98.273423107078997
  0
ARC
  8
0
  6
CONTINUOUS
 62
3
 10
269.733250055309780
 20
-80.273423107078997
 40
1.999999999999775
 50
3.954572122092177
 51
90.000000000000000
  0
ARC
  8
0
  6
CONTINUOUS
 62
3
 10
327.595154621267280
 20
-80.273423107078997
 40
2.000000000000000
 50
90.000000000000000
 51
176.045427877907830
  0
ARC
  8
0
  6
CONTINUOUS
 62
3
 10
259.164202338288310
 20
-80.773423107078997
 40
2.500000000000000
 50
90.000000000000000
 51
180.000000000000000
  0
ARC
  8
0
  6
CONTINUOUS
 62
3
 10
298.664202338288760
 20
-78.273423107078997
 40
27.000000000000338
 50
183.954572122090720
 51
356.045427877909220
  0
ARC
  8
0
  6
CONTINUOUS
 62
3
 10
298.664202338288310
 20
-432.273423107079220
 40
400.000000000000110
 50
90.000000000000000
 51
93.357817421570701
  0
ARC
  8
0
  6
CONTINUOUS
 62
3
 10
298.664202338288310
 20
-432.273423107079220
 40
376.652999999999910
 50
90.000000000000000
 51
93.357817421570715
  0
ARC
  8
0
  6
CONTINUOUS
 62
3
 10
319.164202338288310
 20
-82.874296033183782
 40
26.653000000000247
 50
0.000000000000000
 51
86.642182578428844
  0
ARC
  8
0
  6
CONTINUOUS
 62
3
 10
298.664202338288310
 20
-432.273423107079220
 40
376.652999999999620
 50
86.642182578429285
 51
90.000000000000000
  0
ARC
  8
0
  6
CONTINUOUS
 62
3
 10
319.164202338288310
 20
-82.874296033183782
 40
50.000000000000000
 50
0.000000000000000
 51
86.642182578429143
  0
ARC
  8
0
  6
CONTINUOUS
 62
3
 10
298.664202338288310
 20
-432.273423107079220
 40
399.999999999999830
 50
86.642182578429299
 51
90.000000000000000
  0
ARC
  8
0
  6
CONTINUOUS
 62
3
 10
298.664202338288310
 20
-78.273423107078997
 40
22.000000000000060
 50
74.570234885459911
 51
40.667845852653258
  0
ARC
  8
0
  6
CONTINUOUS
 62
3
 10
298.664202338288310
 20
-78.273423107078997
 40
22.000000000000224
 50
38.816131624159461
 51
78.293519882306398
  0
CIRCLE
  8
0
  6
CONTINUOUS
 62
3
 10
298.664202338288310
 20
-78.273423107078997
 40
19.000000000000000
  0
LINE
  8
0
  6
DASHDOT
 62
4
 10
191.762230090207590
 20
-78.273423107078997
 11
100.836944834647510
 21
-78.273423107078997
  0
LINE
  8
0
  6
CONTINUOUS
 62
3
 10
139.806782839619700
 20
-90.273423107078997
 11
141.406782839619610
 21
-90.273423107078997
  0
LINE
  8
0
  6
CONTINUOUS
 62
3
 10
139.806782839619700
 20
-90.273423107078997
 11
141.406782839619610
 21
-90.273423107078997
  0
LINE
  8
0
  6
CONTINUOUS
 62
3
 10
139.806782839619700
 20
-66.273423107078997
 11
141.406782839619610
 21
-66.273423107078997
  0
LINE
  8
0
  6
CONTINUOUS
 62
3
 10
139.806782839619700
 20
-66.273423107078997
 11
141.406782839619610
 21
-66.273423107078997
  0
LINE
  8
0
  6
CONTINUOUS
 62
3
 10
177.806782839619700
 20
-78.273423107078997
 11
177.806782839619700
 21
-67.673423107078975
  0
LINE
  8
0
  6
CONTINUOUS
 62
3
 10
177.406782839619610
 20
-67.273423107078997
 11
144.366590460755110
 21
-67.273423107078997
  0
LINE
  8
0
  6
CONTINUOUS
 62
3
 10
177.406782839619610
 20
-67.273423107078997
 11
144.366590460755110
 21
-67.273423107078997
  0
ARC
  8
0
  6
CONTINUOUS
 62
3
 10
177.406782839619610
 20
-67.673423107078975
 40
0.400000000000091
 50
0.000000000000000
 51
90.000000000000000
  0
LINE
  8
0
  6
CONTINUOUS
 62
3
 10
141.806782839619700
 20
-78.273423107078997
 11
141.806782839619700
 21
-66.673423107078975
  0
LINE
  8
0
  6
CONTINUOUS
 62
3
 10
143.806782839619700
 20
-67.423423107078975
 11
142.606782839619430
 21
-67.423423107078975
  0
LINE
  8
0
  6
CONTINUOUS
 62
3
 10
144.366590460755110
 20
-67.273423107078997
 11
143.806782839619700
 21
-67.423423107078975
  0
LINE
  8
0
  6
CONTINUOUS
 62
3
 10
141.806782839619700
 20
-66.673423107078975
 11
141.406782839619610
 21
-66.273423107078997
  0
ARC
  8
0
  6
CONTINUOUS
 62
3
 10
142.606782839619430
 20
-66.623423107079020
 40
0.799999999999776
 50
183.703196634274290
 51
270.000000000000000
  0
LINE
  8
0
  6
CONTINUOUS
 62
3
 10
143.806782839619700
 20
-67.423423107078975
 11
142.606782839619430
 21
-67.423423107078975
  0
LINE
  8
0
  6
CONTINUOUS
 62
3
 10
144.366590460755110
 20
-67.273423107078997
 11
143.806782839619700
 21
-67.423423107078975
  0
LINE
  8
0
  6
CONTINUOUS
 62
3
 10
141.806782839619700
 20
-66.673423107078975
 11
141.406782839619610
 21
-66.273423107078997
  0
LINE
  8
0
  6
CONTINUOUS
 62
3
 10
141.806782839619700
 20
-78.273423107078997
 11
141.806782839619700
 21
-89.873423107079020
  0
LINE
  8
0
  6
CONTINUOUS
 62
3
 10
143.806782839619700
 20
-89.123423107079020
 11
142.606782839619430
 21
-89.123423107079020
  0
LINE
  8
0
  6
CONTINUOUS
 62
3
 10
144.366590460755110
 20
-89.273423107078997
 11
143.806782839619700
 21
-89.123423107079020
  0
LINE
  8
0
  6
CONTINUOUS
 62
3
 10
141.806782839619700
 20
-89.873423107079020
 11
141.406782839619610
 21
-90.273423107078997
  0
LINE
  8
0
  6
CONTINUOUS
 62
3
 10
177.406782839619610
 20
-89.273423107078997
 11
144.366590460755110
 21
-89.273423107078997
  0
ARC
  8
0
  6
CONTINUOUS
 62
3
 10
142.606782839619430
 20
-89.923423107078975
 40
0.799999999999955
 50
90.000000000000000
 51
176.296803365725710
  0
LINE
  8
0
  6
CONTINUOUS
 62
3
 10
143.806782839619700
 20
-89.123423107079020
 11
142.606782839619430
 21
-89.123423107079020
  0
LINE
  8
0
  6
CONTINUOUS
 62
3
 10
144.366590460755110
 20
-89.273423107078997
 11
143.806782839619700
 21
-89.123423107079020
  0
LINE
  8
0
  6
CONTINUOUS
 62
3
 10
141.806782839619700
 20
-89.873423107079020
 11
141.406782839619610
 21
-90.273423107078997
  0
LINE
  8
0
  6
CONTINUOUS
 62
3
 10
177.406782839619610
 20
-89.273423107078997
 11
144.366590460755110
 21
-89.273423107078997
  0
LINE
  8
0
  6
CONTINUOUS
 62
3
 10
177.806782839619700
 20
-78.273423107078997
 11
177.806782839619700
 21
-88.873423107079020
  0
ARC
  8
0
  6
CONTINUOUS
 62
3
 10
177.406782839619610
 20
-88.873423107079020
 40
0.399999999999977
 50
270.000000000000000
 51
0.000000000000000
  0
POLYLINE
  8
0
  6
CONTINUOUS
 62
3
 66
1
  0
VERTEX
  8
0
  6
CONTINUOUS
 62
3
 10
135.974088998184580
 20
-83.374296033183782
  0
VERTEX
  8
0
  6
CONTINUOUS
 62
3
 10
135.772690639738390
 20
-80.447941238142221
  0
VERTEX
  8
0
  6
CONTINUOUS
 62
3
 10
135.176235190181330
 20
-77.634044614023480
  0
VERTEX
  8
0
  6
CONTINUOUS
 62
3
 10
134.207644097387000
 20
-75.040742627414033
  0
VERTEX
  8
0
  6
CONTINUOUS
 62
3
 10
132.904139772955090
 20
-72.767694416897768
  0
VERTEX
  8
0
  6
CONTINUOUS
 62
3
 10
131.315815155842960
 20
-70.902251948342638
  0
VERTEX
  8
0
  6
CONTINUOUS
 62
3
 10
129.503708668860700
 20
-69.516103127921497
  0
VERTEX
  8
0
  6
CONTINUOUS
 62
3
 10
127.537458546370280
 20
-68.662516876147833
  0
VERTEX
  8
0
  6
CONTINUOUS
 62
3
 10
125.492626676057620
 20
-68.374296033183782
  0
VERTEX
  8
0
  6
CONTINUOUS
 62
3
 10
123.447794798034890
 20
-68.662516764119232
  0
VERTEX
  8
0
  6
CONTINUOUS
 62
3
 10
121.481544652710580
 20
-69.516102908169458
  0
VERTEX
  8
0
  6
CONTINUOUS
 62
3
 10
119.669438128648090
 20
-70.902251629312133
  0
VERTEX
  8
0
  6
CONTINUOUS
 62
3
 10
118.081113461634370
 20
-72.767694010848970
  0
VERTEX
  8
0
  6
CONTINUOUS
 62
3
 10
116.777609076397180
 20
-75.040742149951157
  0
VERTEX
  8
0
  6
CONTINUOUS
 62
3
 10
115.809017914230620
 20
-77.634044083495141
  0
VERTEX
  8
0
  6
CONTINUOUS
 62
3
 10
115.212562389400300
 20
-80.447940674936348
  0
VERTEX
  8
0
  6
CONTINUOUS
 62
3
 10
115.011163952672510
 20
-83.374295458944061
  0
SEQEND
  8
0
  6
CONTINUOUS
 62
3
  0
LINE
  8
0
  6
CONTINUOUS
 62
3
 10
135.974088998184930
 20
-83.374296033183782
 11
135.974088998184930
 21
-145.626625798772120
  0
LINE
  8
0
  6
CONTINUOUS
 62
3
 10
115.011163952673080
 20
-83.374295476245948
 11
115.011163952673080
 21
-144.892522180124390
  0
LINE
  8
0
  6
CONTINUOUS
 62
3
 10
137.806782839619700
 20
-55.621132511311657
 11
137.806782839619700
 21
-147.757413281288220
  0
LINE
  8
0
  6
CONTINUOUS
 62
3
 10
139.806782839619700
 20
-78.273423107078997
 11
139.806782839619700
 21
-57.273423107078997
  0
LINE
  8
0
  6
CONTINUOUS
 62
3
 10
139.806782839619700
 20
-78.273423107078997
 11
139.806782839619700
 21
-99.273423107078997
  0
ARC
  8
0
  6
CONTINUOUS
 62
3
 10
138.806782839619700
 20
-99.273423107078997
 40
1.000000000000000
 50
270.000000000000000
 51
0.000000000000000
  0
ARC
  8
0
  6
CONTINUOUS
 62
3
 10
138.806782839619700
 20
-101.273423107078990
 40
1.000000000000000
 50
90.000000000000000
 51
180.000000000000000
  0
ARC
  8
0
  6
CONTINUOUS
 62
3
 10
90.759638453382649
 20
-92.857757024021794
 40
60.000000000000291
 50
38.432783305177097
 51
88.999999999999957
  0
ARC
  8
0
  6
CONTINUOUS
 62
3
 10
139.326589668577530
 20
-54.318799465975303
 40
1.999999999999936
 50
218.432783305177220
 51
260.022062996057060
  0
ARC
  8
0
  6
CONTINUOUS
 62
3
 10
138.806782839619700
 20
-57.273423107078997
 40
1.000000000000000
 50
0.000000000000000
 51
80.022062996018562
  0
LINE
  8
0
  6
CONTINUOUS
 62
3
 10
177.806782839619700
 20
-75.273423107078884
 11
148.806782839620150
 21
-75.273423107078884
  0
LINE
  8
0
  6
CONTINUOUS
 62
3
 10
177.806782839619700
 20
-81.273423107078884
 11
148.806782839620150
 21
-81.273423107078884
  0
ARC
  8
0
  6
CONTINUOUS
 62
3
 10
148.806782839620150
 20
-78.273423107078884
 40
3.000000000000000
 50
90.000000000000000
 51
270.000000000000000
  0
ENDSEC
  0
EOF
