  0
SECTION
  2
HEADER
  9
$FILLMODE
 70
1
  9
$TEXTSTYLE
  7
STANDARD1
  9
$ACADVER
  1
AC1009
  9
$DIMASZ
 40
1.931851648807023
  9
$DIMEXE
 40
2.000000000000000
  9
$DIMEXO
 40
1.000000000000000
  9
$DIMLFAC
 40
1.000000000000000
  9
$DIMSCALE
 40
1.000000000000000
  9
$DIMTAD
 70
1
  9
$DIMTFAC
 40
0.714285731315613
  9
$DIMTXT
 40
2.799999952316284
  9
$LUPREC
 70
3
  9
$TEXTSIZE
 40
2.799999952316284
  9
$REGENMODE
 70
1
  0
ENDSEC
  0
SECTION
  2
TABLES
  0
TABLE
  2
LTYPE
 70
4
  0
LTYPE
  2
CONTINUOUS
 70
64
  3
Solid line
 72
65
 73
0
 40
0.0
  0
LTYPE
  2
DASHED
 70
64
  3
-- -- -- -- -- -- -- -- -- -- -- -- -- -- --
 72
65
 73
2
 40
0.75
 49
0.5
 49
-0.25
  0
LTYPE
  2
DASHDOT
 70
64
  3
__ . __ . __ . __ . __ . __ . __ . __ . __ . __
 72
65
 73
4
 40
1.0
 49
0.5
 49
-0.25
 49
0.0
 49
-0.25
  0
LTYPE
  2
DIVIDE
 70
64
  3
__ . . __ . . __ . . __ . . __ . . __ . . __
 72
65
 73
6
 40
1.25
 49
0.5
 49
-0.25
 49
0.0
 49
-0.25
 49
0.0
 49
-0.25
  0
ENDTAB
  0
TABLE
  2
LAYER
 70
1
  0
LAYER
  2
0
 70
64
 62
2
  6
CONTINUOUS
  0
ENDTAB
  0
TABLE
  2
STYLE
 70
4
  0
STYLE
  2
STANDARD1
 70
64
 40
0.0
 41
1.0
 50
0.0
 71
0
 42
2.799999952316284
  3
MONOTXT
  4
BIGFONT
  0
STYLE
  2
STANDARD2
 70
68
 40
0.0
 41
1.0
 50
0.0
 71
0
 42
2.799999952316284
  3
MONOTXT
  4
BIGFONT
  0
STYLE
  2
STANDARD3
 70
64
 40
0.0
 41
1.0
 50
0.0
 71
0
 42
2.799999952316284
  3
MONOTXT
  4

  0
STYLE
  2
STANDARD4
 70
68
 40
0.0
 41
1.0
 50
0.0
 71
0
 42
2.799999952316284
  3
MONOTXT
  4

  0
ENDTAB
  0
TABLE
  2
VIEW
 70
0
  0
ENDTAB
  0
ENDSEC
  0
SECTION
  2
BLOCKS
  0
BLOCK
  8
0
  2
SYM1
 70
64
 10
0.000000000000000
 20
0.000000000000000
  0
ARC
  8
0
  6
CONTINUOUS
 62
3
 10
-0.979025304317474
 20
-2.200000762939453
 40
1.299999237060547
 50
196.601531107481040
 51
270.000000000000000
  0
ARC
  8
0
  6
CONTINUOUS
 62
3
 10
-0.979025304317474
 20
2.200000762939453
 40
1.299999237060547
 50
90.000000000000000
 51
163.398451589674950
  0
LINE
  8
0
  6
CONTINUOUS
 62
3
 10
-0.000000000000000
 20
-3.500000000000000
 11
-0.979025304317474
 21
-3.500000000000000
  0
LINE
  8
0
  6
CONTINUOUS
 62
3
 10
0.000000000000000
 20
3.500000000000000
 11
-0.979025304317474
 21
3.500000000000000
  0
LINE
  8
0
  6
CONTINUOUS
 62
3
 10
0.000000000000000
 20
-3.500000000000000
 11
-0.000000000000000
 21
3.500000000000000
  0
LINE
  8
0
  6
CONTINUOUS
 62
3
 10
0.000000000000000
 20
-3.500000000000000
 11
-0.000000000000000
 21
3.500000000000000
  0
POINT
  8
0
  6
CONTINUOUS
 62
3
 10
0.000000000000000
 20
0.000000000000000
  0
ARC
  8
0
  6
CONTINUOUS
 62
3
 10
6.399999618530273
 20
0.000000000000000
 40
9.000000000000000
 50
163.398451589674950
 51
196.601531107481040
  0
ENDBLK
  8
0
  0
BLOCK
  8
0
  2
SYM2
 70
64
 10
0.000000000000000
 20
0.000000000000000
  0
ARC
  8
0
  6
CONTINUOUS
 62
3
 10
-0.979025304317474
 20
-2.200000762939453
 40
1.299999237060547
 50
196.601531107481040
 51
270.000000000000000
  0
ARC
  8
0
  6
CONTINUOUS
 62
3
 10
-0.979025304317474
 20
2.200000762939453
 40
1.299999237060547
 50
90.000000000000000
 51
163.398451589674950
  0
LINE
  8
0
  6
CONTINUOUS
 62
3
 10
-0.000000000000000
 20
-3.500000000000000
 11
-0.979025304317474
 21
-3.500000000000000
  0
LINE
  8
0
  6
CONTINUOUS
 62
3
 10
0.000000000000000
 20
3.500000000000000
 11
-0.979025304317474
 21
3.500000000000000
  0
LINE
  8
0
  6
CONTINUOUS
 62
3
 10
0.000000000000000
 20
-3.500000000000000
 11
-0.000000000000000
 21
3.500000000000000
  0
LINE
  8
0
  6
CONTINUOUS
 62
3
 10
0.000000000000000
 20
-3.500000000000000
 11
-0.000000000000000
 21
3.500000000000000
  0
POINT
  8
0
  6
CONTINUOUS
 62
3
 10
0.000000000000000
 20
0.000000000000000
  0
ARC
  8
0
  6
CONTINUOUS
 62
3
 10
6.399999618530273
 20
0.000000000000000
 40
9.000000000000000
 50
163.398451589674950
 51
196.601531107481040
  0
ENDBLK
  8
0
  0
BLOCK
  8
0
  2
SYM3
 70
64
 10
0.000000000000000
 20
0.000000000000000
  0
LINE
  8
0
  6
CONTINUOUS
 62
3
 10
-0.000000000000000
 20
-5.000000000000000
 11
-6.000000000000000
 21
-5.000000000000000
  0
LINE
  8
0
  6
CONTINUOUS
 62
3
 10
0.000000000000000
 20
5.000000000000000
 11
-6.000000000000000
 21
5.000000000000000
  0
LINE
  8
0
  6
CONTINUOUS
 62
3
 10
-6.000000000000000
 20
-5.000000000000000
 11
-6.000000000000000
 21
5.000000000000000
  0
LINE
  8
0
  6
CONTINUOUS
 62
3
 10
0.000000000000000
 20
5.000000000000000
 11
0.000000000000000
 21
-5.000000000000000
  0
POINT
  8
0
  6
CONTINUOUS
 62
3
 10
0.000000000000000
 20
0.000000000000000
  0
ENDBLK
  8
0
  0
ENDSEC
  0
SECTION
  2
ENTITIES
  0
TEXT
  8
0
  6
CONTINUOUS
 62
3
 10
-356.925109863281250
 20
131.998672485351560
 40
10.295999526977539
  1
Ｓ０４２
 50
0.000002504478167
 41
0.984848625190477
  7
STANDARD1
  0
TEXT
  8
0
  6
CONTINUOUS
 62
3
 10
-356.925109863281250
 20
115.462669372558590
 40
10.295999526977539
  1
三菱ギヤードモートル
 50
0.000002504478167
 41
0.984848625190477
  7
STANDARD1
  0
TEXT
  8
0
  6
CONTINUOUS
 62
3
 10
-356.925109863281250
 20
98.926666259765625
 40
10.295999526977539
  1
ＧＭ－ＳＳ
 50
0.000002504478167
 41
0.984848625190477
  7
STANDARD1
  0
TEXT
  8
0
  6
CONTINUOUS
 62
3
 10
-356.925109863281250
 20
82.390670776367188
 40
10.295999526977539
  1
０．２ｋＷ
 50
0.000002504478167
 41
0.984848625190477
  7
STANDARD1
  0
TEXT
  8
0
  6
CONTINUOUS
 62
3
 10
-356.925109863281250
 20
65.854667663574219
 40
10.295999526977539
  1
１／１２０～１／２００
 50
0.000002504478167
 41
0.984848625190477
  7
STANDARD1
  0
TEXT
  8
0
  6
CONTINUOUS
 62
3
 10
-356.925109863281250
 20
49.318668365478516
 40
10.295999526977539
  1
ＳＣＡＬＥ１／１
 50
0.000002504478167
 41
0.984848625190477
  7
STANDARD1
  0
LINE
  8
0
  6
CONTINUOUS
 62
3
 10
15.415334955658180
 20
93.808585828228388
 11
28.915334955656707
 21
93.808585828228388
  0
LINE
  8
0
  6
CONTINUOUS
 62
3
 10
15.415334955658180
 20
121.808585828228370
 11
28.915334955656707
 21
121.808585828228370
  0
CIRCLE
  8
0
  6
CONTINUOUS
 62
3
 10
-348.430054690137690
 20
-182.433102980703840
 40
5.000000000000000
  0
LINE
  8
0
  6
CONTINUOUS
 62
3
 10
-345.930057074322120
 20
-183.876474625701750
 11
-345.930056120648030
 21
-180.989725358123620
  0
LINE
  8
0
  6
CONTINUOUS
 62
3
 10
-350.930052305952590
 20
-180.989731335704790
 11
-350.930053259626900
 21
-183.876476788585650
  0
LINE
  8
0
  6
CONTINUOUS
 62
3
 10
-348.430059411344930
 20
-179.546354240347740
 11
-350.930053196136210
 21
-180.989730884895210
  0
LINE
  8
0
  6
CONTINUOUS
 62
3
 10
-348.430049178012270
 20
-185.319849918425920
 11
-345.930056872968630
 21
-183.876474571681800
  0
LINE
  8
0
  6
CONTINUOUS
 62
3
 10
-348.430059472574380
 20
-179.546354720490460
 11
-345.930054744527520
 21
-180.989725755583610
  0
LINE
  8
0
  6
CONTINUOUS
 62
3
 10
-350.930054042081790
 20
-183.876476955379810
 11
-348.430049692575270
 21
-185.319850532075690
  0
CIRCLE
  8
0
  6
CONTINUOUS
 62
3
 10
-262.430054690137920
 20
-182.433102980703840
 40
5.000000000000000
  0
LINE
  8
0
  6
CONTINUOUS
 62
3
 10
-264.930052305953500
 20
-183.876474625701750
 11
-264.930053259627580
 21
-180.989725358123620
  0
LINE
  8
0
  6
CONTINUOUS
 62
3
 10
-259.930057074323030
 20
-180.989731335704790
 11
-259.930056120648710
 21
-183.876476788585650
  0
LINE
  8
0
  6
CONTINUOUS
 62
3
 10
-262.430049968930690
 20
-179.546354240347740
 11
-259.930056184139400
 21
-180.989730884895210
  0
LINE
  8
0
  6
CONTINUOUS
 62
3
 10
-262.430060202263350
 20
-185.319849918425920
 11
-264.930052507306980
 21
-183.876474571681800
  0
LINE
  8
0
  6
CONTINUOUS
 62
3
 10
-262.430049907701230
 20
-179.546354720490460
 11
-264.930054635748090
 21
-180.989725755583610
  0
LINE
  8
0
  6
CONTINUOUS
 62
3
 10
-259.930055338193820
 20
-183.876476955379810
 11
-262.430059687700350
 21
-185.319850532075690
  0
CIRCLE
  8
0
  6
CONTINUOUS
 62
3
 10
-347.430054690137920
 20
-44.933102980703836
 40
5.000000000000000
  0
LINE
  8
0
  6
CONTINUOUS
 62
3
 10
-344.930057074322350
 20
-46.376474625701746
 11
-344.930056120648260
 21
-43.489725358123621
  0
LINE
  8
0
  6
CONTINUOUS
 62
3
 10
-349.930052305952810
 20
-43.489731335704789
 11
-349.930053259627130
 21
-46.376476788585649
  0
LINE
  8
0
  6
CONTINUOUS
 62
3
 10
-347.430059411345160
 20
-42.046354240347739
 11
-349.930053196136440
 21
-43.489730884895209
  0
LINE
  8
0
  6
CONTINUOUS
 62
3
 10
-347.430049178012500
 20
-47.819849918425916
 11
-344.930056872968860
 21
-46.376474571681797
  0
LINE
  8
0
  6
CONTINUOUS
 62
3
 10
-347.430059472574610
 20
-42.046354720490456
 11
-344.930054744527750
 21
-43.489725755583606
  0
LINE
  8
0
  6
CONTINUOUS
 62
3
 10
-349.930054042082020
 20
-46.376476955379815
 11
-347.430049692575490
 21
-47.819850532075691
  0
CIRCLE
  8
0
  6
CONTINUOUS
 62
3
 10
-263.430054690137920
 20
-44.933102980703836
 40
5.000000000000000
  0
LINE
  8
0
  6
CONTINUOUS
 62
3
 10
-265.930052305953500
 20
-46.376474625701746
 11
-265.930053259627580
 21
-43.489725358123621
  0
LINE
  8
0
  6
CONTINUOUS
 62
3
 10
-260.930057074323030
 20
-43.489731335704789
 11
-260.930056120648710
 21
-46.376476788585649
  0
LINE
  8
0
  6
CONTINUOUS
 62
3
 10
-263.430049968930690
 20
-42.046354240347739
 11
-260.930056184139400
 21
-43.489730884895209
  0
LINE
  8
0
  6
CONTINUOUS
 62
3
 10
-263.430060202263350
 20
-47.819849918425916
 11
-265.930052507306980
 21
-46.376474571681797
  0
LINE
  8
0
  6
CONTINUOUS
 62
3
 10
-263.430049907701230
 20
-42.046354720490456
 11
-265.930054635748090
 21
-43.489725755583606
  0
LINE
  8
0
  6
CONTINUOUS
 62
3
 10
-260.930055338193820
 20
-46.376476955379815
 11
-263.430059687700350
 21
-47.819850532075691
  0
LINE
  8
0
  6
CONTINUOUS
 62
3
 10
-270.430054690137920
 20
-37.242901335691215
 11
-270.430054690137920
 21
-44.933102980703836
  0
LINE
  8
0
  6
CONTINUOUS
 62
3
 10
-340.430054690137920
 20
-37.242901335691215
 11
-340.430054690137920
 21
-44.933102980703836
  0
ARC
  8
0
  6
CONTINUOUS
 62
3
 10
-363.072190313868990
 20
-161.504170792568910
 40
2.999999999999864
 50
225.000000000000000
 51
315.000000000000000
  0
ARC
  8
0
  6
CONTINUOUS
 62
3
 10
-356.001122502003680
 20
-168.575238604434450
 40
2.999999999999864
 50
135.000000000000000
 51
225.000000000000000
  0
ARC
  8
0
  6
CONTINUOUS
 62
3
 10
-247.787919066406860
 20
-161.504170792568910
 40
2.999999999999864
 50
225.000000000000000
 51
315.000000000006140
  0
ARC
  8
0
  6
CONTINUOUS
 62
3
 10
-254.858986878272160
 20
-168.575238604434450
 40
2.999999999999864
 50
315.000000000000000
 51
45.000000000000000
  0
ARC
  8
0
  6
CONTINUOUS
 62
3
 10
-247.787919066406860
 20
-60.362035168838531
 40
3.000000000000185
 50
44.999999999993868
 51
135.000000000000000
  0
ARC
  8
0
  6
CONTINUOUS
 62
3
 10
-254.858986878272160
 20
-53.290967356973226
 40
2.999999999999864
 50
315.000000000000000
 51
45.000000000003077
  0
ARC
  8
0
  6
CONTINUOUS
 62
3
 10
-356.001122502003680
 20
-53.290967356973226
 40
3.000000000000024
 50
134.999999999996930
 51
225.000000000000000
  0
ARC
  8
0
  6
CONTINUOUS
 62
3
 10
-363.072190313868990
 20
-60.362035168838531
 40
2.999999999999864
 50
45.000000000000000
 51
135.000000000000000
  0
ARC
  8
0
  6
CONTINUOUS
 62
3
 10
-263.430054690137920
 20
-44.933102980703836
 40
7.000000000000000
 50
180.000000000000000
 51
338.520534180739620
  0
ARC
  8
0
  6
CONTINUOUS
 62
3
 10
-347.430054690137920
 20
-44.933102980703836
 40
7.000000000000041
 50
201.479465819260380
 51
0.000000000000000
  0
ARC
  8
0
  6
CONTINUOUS
 62
3
 10
-262.430054690137920
 20
-182.433102980703840
 40
7.000000000000029
 50
61.263962136559300
 51
180.000000000000000
  0
LINE
  8
0
  6
CONTINUOUS
 62
3
 10
-269.430054690137920
 20
-182.433102980703840
 11
-269.430054690137920
 21
-182.933102980703840
  0
LINE
  8
0
  6
CONTINUOUS
 62
3
 10
-256.620579670826600
 20
-187.933102980703840
 11
-305.430054690137920
 21
-187.933102980703840
  0
ARC
  8
0
  6
CONTINUOUS
 62
3
 10
-262.430054690137920
 20
-182.433102980703840
 40
8.000000000000142
 50
316.567463442211190
 51
11.940334905756204
  0
ARC
  8
0
  6
CONTINUOUS
 62
3
 10
-248.732964574865720
 20
-179.536601233057640
 40
5.999999999999855
 50
129.571894934441050
 51
191.940334905755690
  0
LINE
  8
0
  6
CONTINUOUS
 62
3
 10
-354.239529709448790
 20
-187.933102980703840
 11
-305.430054690137920
 21
-187.933102980703840
  0
ARC
  8
0
  6
CONTINUOUS
 62
3
 10
-362.127144805409670
 20
-179.536601233057640
 40
5.999999999999625
 50
348.059665094243430
 51
50.428105065558938
  0
ARC
  8
0
  6
CONTINUOUS
 62
3
 10
-348.430054690137920
 20
-182.433102980703840
 40
8.000000000000108
 50
168.059665094243800
 51
223.432536557791050
  0
ARC
  8
0
  6
CONTINUOUS
 62
3
 10
-348.430054690137920
 20
-182.433102980703840
 40
7.000000000000000
 50
0.000000000000000
 51
118.736037863437440
  0
LINE
  8
0
  6
CONTINUOUS
 62
3
 10
-341.430054690137920
 20
-182.433102980703840
 11
-341.430054690137920
 21
-182.933102980703840
  0
ARC
  8
0
  6
CONTINUOUS
 62
3
 10
-335.430054690137920
 20
-37.242901335691215
 40
4.999999999999845
 50
104.971190995946520
 51
180.000000000000000
  0
ARC
  8
0
  6
CONTINUOUS
 62
3
 10
-358.596640989231450
 20
-49.327116001268962
 40
4.999999999999919
 50
21.479465819263282
 51
130.123934227059890
  0
ARC
  8
0
  6
CONTINUOUS
 62
3
 10
-336.430054690137920
 20
-182.933102980703840
 40
5.000000000000000
 50
180.000000000000000
 51
270.000000000000000
  0
ARC
  8
0
  6
CONTINUOUS
 62
3
 10
-354.199356001240400
 20
-171.910975706159490
 40
4.999999999999753
 50
223.887028754553090
 51
298.736037863441650
  0
ARC
  8
0
  6
CONTINUOUS
 62
3
 10
-256.660753379035440
 20
-171.910975706159490
 40
4.999999999999922
 50
241.263962136562950
 51
316.112971245446890
  0
ARC
  8
0
  6
CONTINUOUS
 62
3
 10
-274.430054690137920
 20
-182.933102980703840
 40
5.000000000000000
 50
270.000000000000000
 51
0.000000000000000
  0
ARC
  8
0
  6
CONTINUOUS
 62
3
 10
-275.430054690137920
 20
-37.242901335691215
 40
5.000000000000000
 50
0.000000000000000
 51
75.028809004048441
  0
ARC
  8
0
  6
CONTINUOUS
 62
3
 10
-252.263468391044400
 20
-49.327116001268962
 40
5.000000000000198
 50
49.876065772936123
 51
158.520534180736720
  0
LINE
  8
0
  6
CONTINUOUS
 62
3
 10
-250.930054690137690
 20
-189.933102980703840
 11
-250.930054690137690
 21
-178.865054226049380
  0
LINE
  8
0
  6
CONTINUOUS
 62
3
 10
-222.930054690137690
 20
-174.933102980704060
 11
-222.930054690137690
 21
-189.933102980703840
  0
LINE
  8
0
  6
CONTINUOUS
 62
3
 10
-222.930054690137690
 20
-189.933102980703840
 11
-250.930054690137690
 21
-189.933102980703840
  0
ARC
  8
0
  6
CONTINUOUS
 62
3
 10
-362.127144805409670
 20
-179.536601233057640
 40
6.000000000000070
 50
348.059665094244340
 51
50.428105065558938
  0
ARC
  8
0
  6
CONTINUOUS
 62
3
 10
-248.732964574865490
 20
-179.536601233057640
 40
6.000000000000001
 50
129.571894934442720
 51
191.940334905755690
  0
ARC
  8
0
  6
CONTINUOUS
 62
3
 10
-384.930054690137690
 20
-174.933102980704060
 40
3.000000000000000
 50
90.000000000000000
 51
180.000000000000000
  0
ARC
  8
0
  6
CONTINUOUS
 62
3
 10
-225.930054690137690
 20
-174.933102980704060
 40
3.000000000000000
 50
0.000000000000000
 51
90.000000000000000
  0
LINE
  8
0
  6
CONTINUOUS
 62
3
 10
-384.930054690137690
 20
-171.933102980704060
 11
-367.276639074402510
 21
-171.933102980703840
  0
LINE
  8
0
  6
CONTINUOUS
 62
3
 10
-225.930054690137690
 20
-171.933102980704060
 11
-243.583470305872650
 21
-171.933102980703840
  0
LINE
  8
0
  6
CONTINUOUS
 62
3
 10
-357.930054690137690
 20
-187.933102980703840
 11
-305.430054690137690
 21
-187.933102980703840
  0
ARC
  8
0
  6
CONTINUOUS
 62
3
 10
-357.930054690137690
 20
-189.933102980703840
 40
2.000000000000000
 50
90.000000000000000
 51
180.000000000000000
  0
ARC
  8
0
  6
CONTINUOUS
 62
3
 10
-305.430054690137690
 20
-110.933102980703830
 40
86.000000000000014
 50
210.733842610396410
 51
229.754246113652730
  0
ARC
  8
0
  6
CONTINUOUS
 62
3
 10
-348.430054690137690
 20
-182.433102980703840
 40
7.999999999999885
 50
168.059665094243460
 51
223.432536557789920
  0
ARC
  8
0
  6
CONTINUOUS
 62
3
 10
-262.430054690137690
 20
-182.433102980703840
 40
8.000000000000142
 50
316.567463442211190
 51
11.940334905756204
  0
ARC
  8
0
  6
CONTINUOUS
 62
3
 10
-305.430054690137690
 20
-110.933102980703830
 40
86.000000000000085
 50
310.245753886347360
 51
329.266157389603560
  0
ARC
  8
0
  6
CONTINUOUS
 62
3
 10
-252.930054690137690
 20
-189.933102980703840
 40
2.000000000000000
 50
0.000000000000000
 51
90.000000000000000
  0
LINE
  8
0
  6
CONTINUOUS
 62
3
 10
-252.930054690137690
 20
-187.933102980703840
 11
-305.430054690137690
 21
-187.933102980703840
  0
LINE
  8
0
  6
DASHDOT
 62
4
 10
-235.430054690137690
 20
-193.013606749624900
 11
-235.430054690137690
 21
-162.777785788626320
  0
ARC
  8
0
  6
CONTINUOUS
 62
3
 10
-305.430054690137690
 20
-479.933102980927860
 40
450.000000000000060
 50
90.000000000000000
 51
92.158403465040564
  0
ARC
  8
0
  6
CONTINUOUS
 62
3
 10
-305.430054690137690
 20
-479.933102980927860
 40
449.999999999999890
 50
87.841596534959436
 51
90.000000000000000
  0
ARC
  8
0
  6
CONTINUOUS
 62
3
 10
-228.930054690137690
 20
-156.416616477354470
 40
3.000000000000000
 50
0.000000000000000
 51
149.266157389601970
  0
ARC
  8
0
  6
CONTINUOUS
 62
3
 10
-381.930054690137690
 20
-156.416616477354350
 40
2.999999999999919
 50
30.733842610396163
 51
180.000000000000000
  0
LINE
  8
0
  6
CONTINUOUS
 62
3
 10
-359.930054690137470
 20
-189.933102980703840
 11
-359.930054690137470
 21
-178.865054226049380
  0
LINE
  8
0
  6
DASHDOT
 62
4
 10
-375.430054690137470
 20
-193.013606749624900
 11
-375.430054690137690
 21
-162.777785788626320
  0
LINE
  8
0
  6
CONTINUOUS
 62
3
 10
-387.930054690137470
 20
-174.933102980704060
 11
-387.930054690137470
 21
-189.933102980703840
  0
ARC
  8
0
  6
CONTINUOUS
 62
3
 10
-243.583470305872650
 20
-174.933102980703840
 40
3.000000000000000
 50
90.000000000000000
 51
134.019682679973360
  0
ARC
  8
0
  6
CONTINUOUS
 62
3
 10
-247.930054690137690
 20
-178.865054226049380
 40
2.999999999999934
 50
130.245753886346360
 51
180.000000000000000
  0
ARC
  8
0
  6
CONTINUOUS
 62
3
 10
-362.930054690137690
 20
-178.865054226049380
 40
3.000000000000000
 50
0.000000000000000
 51
49.754246113650318
  0
ARC
  8
0
  6
CONTINUOUS
 62
3
 10
-367.276639074402510
 20
-174.933102980703840
 40
2.999999999999905
 50
45.980317320029776
 51
90.000000000000000
  0
ARC
  8
0
  6
CONTINUOUS
 62
3
 10
-222.930054690137690
 20
-169.736950557997430
 40
3.000000000000000
 50
180.000000000000000
 51
239.999999999999460
  0
ARC
  8
0
  6
CONTINUOUS
 62
3
 10
-387.930054690137690
 20
-169.736950557997430
 40
2.999999999999951
 50
300.000000000000510
 51
0.000000000000000
  0
LINE
  8
0
  6
CONTINUOUS
 62
3
 10
-359.930054690137470
 20
-189.933102980703840
 11
-387.930054690137470
 21
-189.933102980703840
  0
LINE
  8
0
  6
CONTINUOUS
 62
3
 10
-359.930054690137470
 20
-189.433102980703840
 11
-387.930054690137470
 21
-189.433102980703840
  0
LINE
  8
0
  6
CONTINUOUS
 62
3
 10
-222.930054690137690
 20
-189.433102980703840
 11
-250.930054690137690
 21
-189.433102980703840
  0
INSERT
  8
0
  2
SYM1
 10
-386.874876896481280
 20
-151.852059591964290
 41
1.000000000000000
 42
1.000000000000000
 43
1.000000000000000
 50
357.137594773886350
  0
ARC
  8
0
  6
CONTINUOUS
 62
4
 10
-268.439987451991560
 20
-82.869346349688215
 40
10.797000000000011
 50
5.752282731536912
 51
44.999999999998295
  0
ARC
  8
0
  6
CONTINUOUS
 62
3
 10
-268.439987451991560
 20
-82.869346349688215
 40
20.599999999999916
 50
5.752282731536487
 51
44.999999999997321
  0
ARC
  8
0
  6
CONTINUOUS
 62
3
 10
-268.439987451991560
 20
-138.996859611719460
 40
20.600000000000069
 50
315.000000000002670
 51
354.247717268463480
  0
ARC
  8
0
  6
CONTINUOUS
 62
3
 10
-342.420121928284290
 20
-138.996859611719460
 40
20.599999999999916
 50
185.752282731536500
 51
224.999999999997330
  0
ARC
  8
0
  6
CONTINUOUS
 62
3
 10
-342.420121928284290
 20
-82.869346349688215
 40
20.600000000000069
 50
135.000000000002670
 51
174.247717268463500
  0
LINE
  8
0
  6
CONTINUOUS
 62
3
 10
-248.128605630236730
 20
-142.433102980703840
 11
-247.930054690137920
 21
-142.433102980703840
  0
LINE
  8
0
  6
CONTINUOUS
 62
3
 10
-248.128605630236730
 20
-79.433102980703836
 11
-247.930054690137920
 21
-79.433102980703836
  0
LINE
  8
0
  6
CONTINUOUS
 62
3
 10
-247.930054690137920
 20
-80.940603918441695
 11
-247.930054690137920
 21
-79.433102980703836
  0
LINE
  8
0
  6
CONTINUOUS
 62
3
 10
-247.930054690137920
 20
-142.433102980703840
 11
-247.930054690137920
 21
-140.921088835134070
  0
LINE
  8
0
  6
CONTINUOUS
 62
3
 10
-253.873587759547950
 20
-68.302946657245968
 11
-261.332282934218940
 21
-60.844251482574293
  0
LINE
  8
0
  6
CONTINUOUS
 62
3
 10
-253.873587759547950
 20
-153.563259304161700
 11
-261.332282934218940
 21
-161.021954478833380
  0
LINE
  8
0
  6
CONTINUOUS
 62
3
 10
-356.986521620727900
 20
-153.563259304161700
 11
-349.527826446056910
 21
-161.021954478833380
  0
LINE
  8
0
  6
CONTINUOUS
 62
3
 10
-356.986521620727900
 20
-68.302946657245968
 11
-349.527826446056910
 21
-60.844251482574293
  0
ARC
  8
0
  6
CONTINUOUS
 62
3
 10
-301.930054690137920
 20
-93.276659397694232
 40
1.000000000000000
 50
180.000000000000000
 51
258.787728582356010
  0
LINE
  8
0
  6
CONTINUOUS
 62
3
 10
-302.930054690137920
 20
-90.226823739855320
 11
-302.930054690137920
 21
-93.276659397694232
  0
ARC
  8
0
  6
CONTINUOUS
 62
3
 10
-301.930054690137920
 20
-90.226823739855320
 40
1.000000000000268
 50
80.405931773124522
 51
180.000000000000000
  0
ARC
  8
0
  6
CONTINUOUS
 62
3
 10
-301.930054690137920
 20
-84.665251907576533
 40
1.000000000000000
 50
179.999999999986980
 51
262.410457608144040
  0
LINE
  8
0
  6
CONTINUOUS
 62
3
 10
-302.930054690137920
 20
-81.641465948950156
 11
-302.930054690137920
 21
-84.665251907576305
  0
ARC
  8
0
  6
CONTINUOUS
 62
3
 10
-301.930054690137920
 20
-81.641465948950156
 40
1.000000000000077
 50
83.186145655820312
 51
180.000000000000000
  0
ARC
  8
0
  6
CONTINUOUS
 62
3
 10
-301.930054690137920
 20
-76.108542681972096
 40
1.000000000000000
 50
180.000000000000000
 51
264.260829522738280
  0
LINE
  8
0
  6
CONTINUOUS
 62
3
 10
-302.930054690137920
 20
-73.094630495678814
 11
-302.930054690137920
 21
-76.108542681972096
  0
ARC
  8
0
  6
CONTINUOUS
 62
3
 10
-301.930054690137920
 20
-73.094630495678814
 40
1.000000000000042
 50
84.715267045464302
 51
180.000000000000000
  0
ARC
  8
0
  6
CONTINUOUS
 62
3
 10
-281.812752902206060
 20
-93.256195551581470
 40
1.000000000000082
 50
299.999999999997270
 51
36.813854344186687
  0
LINE
  8
0
  6
CONTINUOUS
 62
3
 10
-281.312752902206060
 20
-94.122220955366004
 11
-283.931428357983580
 21
-95.634113934679192
  0
ARC
  8
0
  6
CONTINUOUS
 62
3
 10
-284.431428357983580
 20
-94.768088530894659
 40
0.999999999999834
 50
217.589542391867670
 51
299.999999999997270
  0
ARC
  8
0
  6
CONTINUOUS
 62
3
 10
-274.410976277707730
 20
-88.982777824945799
 40
0.999999999999885
 50
300.000000000003810
 51
35.284732954544943
  0
LINE
  8
0
  6
CONTINUOUS
 62
3
 10
-273.910976277707730
 20
-89.848803228730105
 11
-276.521100795813480
 21
-91.355759321876860
  0
ARC
  8
0
  6
CONTINUOUS
 62
3
 10
-277.021100795813480
 20
-90.489733918092554
 40
0.999999999999940
 50
215.739170477274090
 51
300.000000000003810
  0
ARC
  8
0
  6
CONTINUOUS
 62
3
 10
-299.531525419748730
 20
-103.486133634294270
 40
0.999999999999961
 50
231.618272422159780
 51
299.999999999997270
  0
LINE
  8
0
  6
CONTINUOUS
 62
3
 10
-296.287749844724430
 20
-102.768039471242730
 11
-299.031525419748730
 21
-104.352159038078810
  0
ARC
  8
0
  6
CONTINUOUS
 62
3
 10
-291.889126006765080
 20
-99.073792275953622
 40
0.999999999999673
 50
221.212271417651210
 51
300.000000000003810
  0
LINE
  8
0
  6
CONTINUOUS
 62
3
 10
-288.747890849708940
 20
-98.414899850818358
 11
-291.389126006765080
 21
-99.939817679737928
  0
ARC
  8
0
  6
CONTINUOUS
 62
3
 10
-289.247890849708940
 20
-97.548874447033825
 40
1.000000000000082
 50
299.999999999997270
 51
39.594068226850403
  0
ARC
  8
0
  6
CONTINUOUS
 62
3
 10
-301.930054690137920
 20
-102.101342114375990
 40
1.000000000000000
 50
180.000000000000000
 51
248.381727577838030
  0
ARC
  8
0
  6
CONTINUOUS
 62
3
 10
-305.430054690137920
 20
-110.933102980703830
 40
8.500000000000128
 50
51.618272422158320
 51
68.381727577842284
  0
ARC
  8
0
  6
CONTINUOUS
 62
3
 10
-296.787749844724430
 20
-101.902014067458420
 40
0.999999999999885
 50
300.000000000003810
 51
46.260204708328693
  0
LINE
  8
0
  6
CONTINUOUS
 62
3
 10
-302.930054690137920
 20
-98.933102980703836
 11
-302.930054690137920
 21
-102.101342114375990
  0
ARC
  8
0
  6
CONTINUOUS
 62
3
 10
-301.930054690137920
 20
-98.933102980703836
 40
0.999999999999964
 50
73.739795291702634
 51
180.000000000000000
  0
ARC
  8
0
  6
CONTINUOUS
 62
3
 10
-305.430054690137920
 20
-110.933102980703830
 40
13.499999999999927
 50
46.260204708312145
 51
73.739795291689134
  0
ARC
  8
0
  6
CONTINUOUS
 62
3
 10
-305.430054690137920
 20
-110.933102980703830
 40
17.000000000000114
 50
41.212271417649760
 51
78.787728582349985
  0
ARC
  8
0
  6
CONTINUOUS
 62
3
 10
-305.430054690137920
 20
-110.933102980703830
 40
22.000000000000025
 50
39.594068226860820
 51
80.405931773138789
  0
ARC
  8
0
  6
CONTINUOUS
 62
3
 10
-305.430054690137920
 20
-110.933102980703830
 40
30.499999999999964
 50
36.813854344181067
 51
83.186145655818962
  0
ARC
  8
0
  6
CONTINUOUS
 62
3
 10
-305.430054690137920
 20
-110.933102980703830
 40
25.499999999999890
 50
37.589542391857961
 51
82.410457608141883
  0
ARC
  8
0
  6
CONTINUOUS
 62
3
 10
-305.430054690137920
 20
-110.933102980703830
 40
33.999999999999829
 50
35.739170477266640
 51
84.260829522733076
  0
ARC
  8
0
  6
CONTINUOUS
 62
3
 10
-305.430054690137920
 20
-110.933102980703830
 40
38.999999999999865
 50
35.284732954534789
 51
84.715267045465410
  0
ARC
  8
0
  6
CONTINUOUS
 62
3
 10
-278.312752902206060
 20
-99.318373378072522
 40
0.999999999999730
 50
23.186145655819850
 51
119.999999999997270
  0
LINE
  8
0
  6
CONTINUOUS
 62
3
 10
-278.812752902206060
 20
-98.452347974287989
 11
-281.431428357983580
 21
-99.964240953601177
  0
ARC
  8
0
  6
CONTINUOUS
 62
3
 10
-280.931428357983580
 20
-100.830266357385710
 40
1.000000000000082
 50
119.999999999997270
 51
202.410457608146060
  0
ARC
  8
0
  6
CONTINUOUS
 62
3
 10
-270.910976277707730
 20
-95.044955651436851
 40
1.000000000000248
 50
24.715267045455477
 51
119.999999999997270
  0
LINE
  8
0
  6
CONTINUOUS
 62
3
 10
-271.410976277707730
 20
-94.178930247652318
 11
-274.021100795813480
 21
-95.685886340799073
  0
ARC
  8
0
  6
CONTINUOUS
 62
3
 10
-273.521100795813480
 20
-96.551911744583379
 40
0.999999999999885
 50
120.000000000003780
 51
204.260829522745610
  0
ARC
  8
0
  6
CONTINUOUS
 62
3
 10
-296.031525419748730
 20
-109.548311460785550
 40
1.000000000000082
 50
119.999999999997270
 51
188.381727577832660
  0
LINE
  8
0
  6
CONTINUOUS
 62
3
 10
-293.787749844724430
 20
-107.098166490164940
 11
-296.531525419748730
 21
-108.682286057001020
  0
ARC
  8
0
  6
CONTINUOUS
 62
3
 10
-288.389126006765080
 20
-105.135970102444670
 40
1.000000000000082
 50
119.999999999997270
 51
198.787728582347000
  0
LINE
  8
0
  6
CONTINUOUS
 62
3
 10
-286.247890849708480
 20
-102.745026869740790
 11
-288.889126006765080
 21
-104.269944698660140
  0
ARC
  8
0
  6
CONTINUOUS
 62
3
 10
-285.747890849708480
 20
-103.611052273525100
 40
1.000000000000094
 50
20.405931773138686
 51
120.000000000003780
  0
ARC
  8
0
  6
CONTINUOUS
 62
3
 10
-296.031525419748730
 20
-112.317894500622340
 40
1.000000000000059
 50
171.618272422154460
 51
239.999999999996220
  0
ARC
  8
0
  6
CONTINUOUS
 62
3
 10
-305.430054690137920
 20
-110.933102980703830
 40
8.499999999999972
 50
351.618272422157820
 51
8.381727577842204
  0
ARC
  8
0
  6
CONTINUOUS
 62
3
 10
-293.287749844724430
 20
-107.964191893949240
 40
0.999999999999879
 50
13.739795291686027
 51
120.000000000003780
  0
LINE
  8
0
  6
CONTINUOUS
 62
3
 10
-293.787749844724430
 20
-114.768039471242730
 11
-296.531525419748730
 21
-113.183919904406650
  0
ARC
  8
0
  6
CONTINUOUS
 62
3
 10
-293.287749844724430
 20
-113.902014067458420
 40
0.999999999999885
 50
239.999999999996220
 51
346.260204708314010
  0
ARC
  8
0
  6
CONTINUOUS
 62
3
 10
-305.430054690137920
 20
-110.933102980703830
 40
13.500000000000130
 50
346.260204708311850
 51
13.739795291688171
  0
ARC
  8
0
  6
CONTINUOUS
 62
3
 10
-288.389126006765080
 20
-116.730235858962990
 40
0.999999999999646
 50
161.212271417644620
 51
239.999999999996220
  0
LINE
  8
0
  6
CONTINUOUS
 62
3
 10
-286.247890849708480
 20
-119.121179091666870
 11
-288.889126006765080
 21
-117.596261262747300
  0
ARC
  8
0
  6
CONTINUOUS
 62
3
 10
-305.430054690137920
 20
-110.933102980703830
 40
17.000000000000146
 50
341.212271417650070
 51
18.787728582350418
  0
ARC
  8
0
  6
CONTINUOUS
 62
3
 10
-285.747890849708480
 20
-118.255153687882560
 40
0.999999999999885
 50
239.999999999996220
 51
339.594068226861340
  0
ARC
  8
0
  6
CONTINUOUS
 62
3
 10
-280.931428357983580
 20
-121.035939604022190
 40
0.999999999999701
 50
157.589542391853940
 51
240.000000000002730
  0
ARC
  8
0
  6
CONTINUOUS
 62
3
 10
-273.521100795813480
 20
-125.314294216824060
 40
0.999999999999769
 50
155.739170477266270
 51
240.000000000002730
  0
ARC
  8
0
  6
CONTINUOUS
 62
3
 10
-305.430054690137920
 20
-110.933102980703830
 40
22.000000000000206
 50
339.594068226860770
 51
20.405931773139226
  0
LINE
  8
0
  6
CONTINUOUS
 62
3
 10
-278.812752902206060
 20
-123.413857987119680
 11
-281.431428357983580
 21
-121.901965007806720
  0
ARC
  8
0
  6
CONTINUOUS
 62
3
 10
-278.312752902206060
 20
-122.547832583335150
 40
1.000000000000082
 50
240.000000000002730
 51
336.813854344180130
  0
ARC
  8
0
  6
CONTINUOUS
 62
3
 10
-305.430054690137920
 20
-110.933102980703830
 40
30.499999999999947
 50
336.813854344181150
 51
23.186145655818844
  0
ARC
  8
0
  6
CONTINUOUS
 62
3
 10
-305.430054690137920
 20
-110.933102980703830
 40
25.500000000000085
 50
337.589542391857490
 51
22.410457608142021
  0
ARC
  8
0
  6
CONTINUOUS
 62
3
 10
-305.430054690137920
 20
-110.933102980703830
 40
34.000000000000007
 50
335.739170477266780
 51
24.260829522733218
  0
ARC
  8
0
  6
CONTINUOUS
 62
3
 10
-305.430054690137920
 20
-110.933102980703830
 40
39.000000000000220
 50
335.284732954534830
 51
24.715267045465190
  0
LINE
  8
0
  6
CONTINUOUS
 62
3
 10
-271.410976277707730
 20
-127.687275713755120
 11
-274.021100795813480
 21
-126.180319620608600
  0
ARC
  8
0
  6
CONTINUOUS
 62
3
 10
-270.910976277707730
 20
-126.821250309970820
 40
0.999999999999885
 50
239.999999999996220
 51
335.284732954544490
  0
CIRCLE
  8
0
  6
CONTINUOUS
 62
3
 10
-305.430054690137920
 20
-110.933102980703830
 40
5.000000000000000
  0
ARC
  8
0
  6
CONTINUOUS
 62
3
 10
-274.410976277707730
 20
-132.883428136462100
 40
0.999999999999776
 50
324.715267045465680
 51
60.000000000002721
  0
ARC
  8
0
  6
CONTINUOUS
 62
3
 10
-277.021100795813480
 20
-131.376472043315120
 40
0.999999999999885
 50
59.999999999996206
 51
144.260829522736490
  0
ARC
  8
0
  6
CONTINUOUS
 62
3
 10
-301.930054690137920
 20
-145.757663279435580
 40
0.999999999999973
 50
95.739170477261709
 51
180.000000000000000
  0
ARC
  8
0
  6
CONTINUOUS
 62
3
 10
-301.930054690137920
 20
-148.771575465728860
 40
1.000000000000000
 50
180.000000000000000
 51
275.284732954535740
  0
ARC
  8
0
  6
CONTINUOUS
 62
3
 10
-301.930054690137920
 20
-137.200954053831140
 40
0.999999999999975
 50
97.589542391854238
 51
180.000000000000000
  0
ARC
  8
0
  6
CONTINUOUS
 62
3
 10
-281.812752902206060
 20
-128.610010409825970
 40
0.999999999999911
 50
323.186145655802870
 51
59.999999999996206
  0
ARC
  8
0
  6
CONTINUOUS
 62
3
 10
-284.431428357983120
 20
-127.098117430513010
 40
1.000000000000082
 50
60.000000000002721
 51
142.410457608148220
  0
ARC
  8
0
  6
CONTINUOUS
 62
3
 10
-301.930054690137920
 20
-140.224740012457520
 40
1.000000000000000
 50
180.000000000000000
 51
276.813854344179670
  0
ARC
  8
0
  6
CONTINUOUS
 62
3
 10
-301.930054690137920
 20
-131.639382221552350
 40
1.000000000000000
 50
180.000000000000000
 51
279.594068226875490
  0
ARC
  8
0
  6
CONTINUOUS
 62
3
 10
-301.930054690137920
 20
-128.589546563713440
 40
0.999999999999982
 50
101.212271417644000
 51
180.000000000000000
  0
ARC
  8
0
  6
CONTINUOUS
 62
3
 10
-289.247890849708940
 20
-124.317331514373620
 40
1.000000000000318
 50
320.405931773139570
 51
59.999999999996206
  0
ARC
  8
0
  6
CONTINUOUS
 62
3
 10
-291.889126006765080
 20
-122.792413685454270
 40
1.000000000000082
 50
60.000000000002721
 51
138.787728582338990
  0
ARC
  8
0
  6
CONTINUOUS
 62
3
 10
-296.787749844724430
 20
-119.964191893949240
 40
0.999999999999858
 50
313.739795291671330
 51
59.999999999996206
  0
ARC
  8
0
  6
CONTINUOUS
 62
3
 10
-301.930054690137920
 20
-122.933102980703830
 40
1.000000000000000
 50
180.000000000000000
 51
286.260204708297350
  0
ARC
  8
0
  6
CONTINUOUS
 62
3
 10
-301.930054690137920
 20
-119.764863847031670
 40
1.000000000000090
 50
111.618272422161970
 51
180.000000000000000
  0
ARC
  8
0
  6
CONTINUOUS
 62
3
 10
-299.531525419748730
 20
-118.380072327113160
 40
0.999999999999885
 50
59.999999999996206
 51
128.381727577840220
  0
ARC
  8
0
  6
CONTINUOUS
 62
3
 10
-305.430054690137920
 20
-110.933102980703830
 40
38.999999999999986
 50
275.284732954534600
 51
324.715267045465230
  0
ARC
  8
0
  6
CONTINUOUS
 62
3
 10
-305.430054690137920
 20
-110.933102980703830
 40
30.500000000000135
 50
276.813854344181040
 51
323.186145655818900
  0
ARC
  8
0
  6
CONTINUOUS
 62
3
 10
-305.430054690137920
 20
-110.933102980703830
 40
34.000000000000071
 50
275.739170477266950
 51
324.260829522733050
  0
ARC
  8
0
  6
CONTINUOUS
 62
3
 10
-305.430054690137920
 20
-110.933102980703830
 40
25.499999999999932
 50
277.589542391858170
 51
322.410457608142050
  0
ARC
  8
0
  6
CONTINUOUS
 62
3
 10
-305.430054690137920
 20
-110.933102980703830
 40
22.000000000000131
 50
279.594068226861170
 51
320.405931773139170
  0
ARC
  8
0
  6
CONTINUOUS
 62
3
 10
-305.430054690137920
 20
-110.933102980703830
 40
17.000000000000046
 50
281.212271417650020
 51
318.787728582350210
  0
ARC
  8
0
  6
CONTINUOUS
 62
3
 10
-305.430054690137920
 20
-110.933102980703830
 40
13.499999999999963
 50
286.260204708310820
 51
313.739795291687870
  0
ARC
  8
0
  6
CONTINUOUS
 62
3
 10
-305.430054690137920
 20
-110.933102980703830
 40
8.499999999999904
 50
291.618272422157700
 51
308.381727577842640
  0
LINE
  8
0
  6
CONTINUOUS
 62
3
 10
-281.312752902206060
 20
-127.743985006041660
 11
-283.931428357983120
 21
-126.232092026728480
  0
LINE
  8
0
  6
CONTINUOUS
 62
3
 10
-302.930054690137920
 20
-148.771575465728860
 11
-302.930054690137920
 21
-145.757663279435580
  0
LINE
  8
0
  6
CONTINUOUS
 62
3
 10
-273.910976277707730
 20
-132.017402732677570
 11
-276.521100795813480
 21
-130.510446639530810
  0
LINE
  8
0
  6
CONTINUOUS
 62
3
 10
-288.747890849708940
 20
-123.451306110589310
 11
-291.389126006765080
 21
-121.926388281669740
  0
LINE
  8
0
  6
CONTINUOUS
 62
3
 10
-296.287749844724430
 20
-119.098166490164940
 11
-299.031525419748730
 21
-117.514046923328860
  0
LINE
  8
0
  6
CONTINUOUS
 62
3
 10
-302.930054690137920
 20
-122.933102980703830
 11
-302.930054690137920
 21
-119.764863847031670
  0
LINE
  8
0
  6
CONTINUOUS
 62
3
 10
-302.930054690137920
 20
-131.639382221552350
 11
-302.930054690137920
 21
-128.589546563713440
  0
LINE
  8
0
  6
CONTINUOUS
 62
3
 10
-302.930054690137920
 20
-140.224740012457520
 11
-302.930054690137920
 21
-137.200954053831140
  0
ARC
  8
0
  6
CONTINUOUS
 62
3
 10
-305.430054690137920
 20
-110.933102980703830
 40
39.000000000000220
 50
155.284732954534800
 51
204.715267045465200
  0
ARC
  8
0
  6
CONTINUOUS
 62
3
 10
-305.430054690137920
 20
-110.933102980703830
 40
34.000000000000007
 50
155.739170477266780
 51
204.260829522733220
  0
ARC
  8
0
  6
CONTINUOUS
 62
3
 10
-305.430054690137920
 20
-110.933102980703830
 40
25.500000000000000
 50
157.589542391857980
 51
202.410457608142480
  0
ARC
  8
0
  6
CONTINUOUS
 62
3
 10
-305.430054690137920
 20
-110.933102980703830
 40
30.499999999999947
 50
156.813854344181150
 51
203.186145655818850
  0
ARC
  8
0
  6
CONTINUOUS
 62
3
 10
-305.430054690137920
 20
-110.933102980703830
 40
22.000000000000206
 50
159.594068226860770
 51
200.405931773139230
  0
ARC
  8
0
  6
CONTINUOUS
 62
3
 10
-305.430054690137920
 20
-110.933102980703830
 40
16.999999999999716
 50
161.212271417649560
 51
198.787728582350440
  0
ARC
  8
0
  6
CONTINUOUS
 62
3
 10
-305.430054690137920
 20
-110.933102980703830
 40
13.499999999999687
 50
166.260204708311360
 51
193.739795291688180
  0
ARC
  8
0
  6
CONTINUOUS
 62
3
 10
-317.572359535551410
 20
-107.964191893949240
 40
0.999999999999885
 50
59.999999999996206
 51
166.260204708307780
  0
ARC
  8
0
  6
CONTINUOUS
 62
3
 10
-325.112218530567360
 20
-103.611052273525100
 40
0.999999999999885
 50
59.999999999996206
 51
159.594068226861310
  0
LINE
  8
0
  6
CONTINUOUS
 62
3
 10
-324.612218530567360
 20
-102.745026869740790
 11
-321.970983373510760
 21
-104.269944698660140
  0
ARC
  8
0
  6
CONTINUOUS
 62
3
 10
-322.470983373510760
 20
-105.135970102444670
 40
1.000000000000076
 50
341.212271417652970
 51
60.000000000002721
  0
LINE
  8
0
  6
CONTINUOUS
 62
3
 10
-317.072359535551410
 20
-107.098166490164940
 11
-314.328583960527110
 21
-108.682286057001020
  0
ARC
  8
0
  6
CONTINUOUS
 62
3
 10
-314.828583960527110
 20
-109.548311460785550
 40
1.000000000000026
 50
351.618272422167310
 51
60.000000000002721
  0
ARC
  8
0
  6
CONTINUOUS
 62
3
 10
-337.339008584462360
 20
-96.551911744583379
 40
0.999999999999863
 50
335.739170477254390
 51
59.999999999996206
  0
LINE
  8
0
  6
CONTINUOUS
 62
3
 10
-339.449133102568110
 20
-94.178930247652318
 11
-336.839008584462360
 21
-95.685886340799073
  0
ARC
  8
0
  6
CONTINUOUS
 62
3
 10
-339.949133102568110
 20
-95.044955651436851
 40
1.000000000000082
 50
60.000000000002721
 51
155.284732954544520
  0
ARC
  8
0
  6
CONTINUOUS
 62
3
 10
-329.928681022292270
 20
-100.830266357385710
 40
0.999999999999701
 50
337.589542391853970
 51
60.000000000002721
  0
LINE
  8
0
  6
CONTINUOUS
 62
3
 10
-332.047356478069790
 20
-98.452347974287989
 11
-329.428681022292270
 21
-99.964240953601177
  0
ARC
  8
0
  6
CONTINUOUS
 62
3
 10
-332.547356478069790
 20
-99.318373378072522
 40
1.000000000000082
 50
60.000000000002721
 51
156.813854344180160
  0
ARC
  8
0
  6
CONTINUOUS
 62
3
 10
-305.430054690137920
 20
-110.933102980703830
 40
38.999999999999986
 50
95.284732954534590
 51
144.715267045465200
  0
ARC
  8
0
  6
CONTINUOUS
 62
3
 10
-305.430054690137920
 20
-110.933102980703830
 40
34.000000000000071
 50
95.739170477266924
 51
144.260829522733360
  0
ARC
  8
0
  6
CONTINUOUS
 62
3
 10
-305.430054690137920
 20
-110.933102980703830
 40
25.500000000000160
 50
97.589542391858117
 51
142.410457608142050
  0
ARC
  8
0
  6
CONTINUOUS
 62
3
 10
-305.430054690137920
 20
-110.933102980703830
 40
30.500000000000135
 50
96.813854344181038
 51
143.186145655818930
  0
ARC
  8
0
  6
CONTINUOUS
 62
3
 10
-305.430054690137920
 20
-110.933102980703830
 40
22.000000000000131
 50
99.594068226861211
 51
140.405931773139200
  0
ARC
  8
0
  6
CONTINUOUS
 62
3
 10
-305.430054690137920
 20
-110.933102980703830
 40
17.000000000000046
 50
101.212271417650010
 51
138.787728582350240
  0
ARC
  8
0
  6
CONTINUOUS
 62
3
 10
-305.430054690137920
 20
-110.933102980703830
 40
13.499999999999963
 50
106.260204708310860
 51
133.739795291687870
  0
ARC
  8
0
  6
CONTINUOUS
 62
3
 10
-308.930054690137920
 20
-98.933102980703836
 40
1.000000000000000
 50
0.000000000000000
 51
106.260204708297360
  0
LINE
  8
0
  6
CONTINUOUS
 62
3
 10
-307.930054690137920
 20
-98.933102980703836
 11
-307.930054690137920
 21
-102.101342114375990
  0
ARC
  8
0
  6
CONTINUOUS
 62
3
 10
-314.072359535551410
 20
-101.902014067458420
 40
0.999999999999858
 50
133.739795291671300
 51
239.999999999996220
  0
ARC
  8
0
  6
CONTINUOUS
 62
3
 10
-305.430054690137920
 20
-110.933102980703830
 40
8.499999999999904
 50
111.618272422157710
 51
128.381727577841670
  0
ARC
  8
0
  6
CONTINUOUS
 62
3
 10
-308.930054690137920
 20
-102.101342114375990
 40
1.000000000000090
 50
291.618272422161970
 51
0.000000000000000
  0
ARC
  8
0
  6
CONTINUOUS
 62
3
 10
-321.612218530566910
 20
-97.548874447033825
 40
1.000000000000173
 50
140.405931773149600
 51
240.000000000002730
  0
LINE
  8
0
  6
CONTINUOUS
 62
3
 10
-322.112218530566910
 20
-98.414899850818358
 11
-319.470983373510760
 21
-99.939817679737928
  0
ARC
  8
0
  6
CONTINUOUS
 62
3
 10
-318.970983373510760
 20
-99.073792275953622
 40
0.999999999999885
 50
239.999999999996220
 51
318.787728582348790
  0
LINE
  8
0
  6
CONTINUOUS
 62
3
 10
-314.572359535551410
 20
-102.768039471242730
 11
-311.828583960527110
 21
-104.352159038078810
  0
ARC
  8
0
  6
CONTINUOUS
 62
3
 10
-311.328583960527110
 20
-103.486133634294270
 40
1.000000000000082
 50
240.000000000002730
 51
308.381727577840190
  0
ARC
  8
0
  6
CONTINUOUS
 62
3
 10
-333.839008584462360
 20
-90.489733918092554
 40
0.999999999999885
 50
239.999999999996220
 51
324.260829522725940
  0
LINE
  8
0
  6
CONTINUOUS
 62
3
 10
-336.949133102568110
 20
-89.848803228730105
 11
-334.339008584462360
 21
-91.355759321876860
  0
ARC
  8
0
  6
CONTINUOUS
 62
3
 10
-336.449133102568110
 20
-88.982777824945799
 40
0.999999999999908
 50
144.715267045455050
 51
239.999999999996220
  0
ARC
  8
0
  6
CONTINUOUS
 62
3
 10
-326.428681022292270
 20
-94.768088530894659
 40
1.000000000000082
 50
240.000000000002730
 51
322.410457608132330
  0
LINE
  8
0
  6
CONTINUOUS
 62
3
 10
-329.547356478069790
 20
-94.122220955366004
 11
-326.928681022292270
 21
-95.634113934679192
  0
ARC
  8
0
  6
CONTINUOUS
 62
3
 10
-329.047356478069790
 20
-93.256195551581470
 40
0.999999999999774
 50
143.186145655813330
 51
240.000000000002730
  0
ARC
  8
0
  6
CONTINUOUS
 62
3
 10
-308.930054690137920
 20
-73.094630495678814
 40
1.000000000000000
 50
0.000000000000000
 51
95.284732954535698
  0
LINE
  8
0
  6
CONTINUOUS
 62
3
 10
-307.930054690137920
 20
-73.094630495678814
 11
-307.930054690137920
 21
-76.108542681972096
  0
ARC
  8
0
  6
CONTINUOUS
 62
3
 10
-308.930054690137920
 20
-76.108542681972096
 40
0.999999999999973
 50
275.739170477261670
 51
0.000000000000000
  0
ARC
  8
0
  6
CONTINUOUS
 62
3
 10
-308.930054690137920
 20
-81.641465948950156
 40
1.000000000000000
 50
0.000000000000000
 51
96.813854344179688
  0
LINE
  8
0
  6
CONTINUOUS
 62
3
 10
-307.930054690137920
 20
-81.641465948950156
 11
-307.930054690137920
 21
-84.665251907576305
  0
ARC
  8
0
  6
CONTINUOUS
 62
3
 10
-308.930054690137920
 20
-84.665251907576533
 40
0.999999999999749
 50
277.589542391855960
 51
0.000000000013028
  0
ARC
  8
0
  6
CONTINUOUS
 62
3
 10
-308.930054690137920
 20
-90.226823739855320
 40
1.000000000000000
 50
0.000000000000000
 51
99.594068226875478
  0
LINE
  8
0
  6
CONTINUOUS
 62
3
 10
-307.930054690137920
 20
-90.226823739855320
 11
-307.930054690137920
 21
-93.276659397694232
  0
ARC
  8
0
  6
CONTINUOUS
 62
3
 10
-308.930054690137920
 20
-93.276659397694232
 40
0.999999999999982
 50
281.212271417643990
 51
0.000000000000000
  0
ARC
  8
0
  6
CONTINUOUS
 62
3
 10
-317.572359535551410
 20
-113.902014067458420
 40
0.999999999999879
 50
193.739795291686050
 51
300.000000000003810
  0
LINE
  8
0
  6
CONTINUOUS
 62
3
 10
-317.072359535551410
 20
-114.768039471242730
 11
-314.328583960527110
 21
-113.183919904406650
  0
ARC
  8
0
  6
CONTINUOUS
 62
3
 10
-305.430054690137920
 20
-110.933102980703830
 40
8.499999999999972
 50
171.618272422157790
 51
188.381727577842210
  0
ARC
  8
0
  6
CONTINUOUS
 62
3
 10
-314.828583960527110
 20
-112.317894500622340
 40
0.999999999999885
 50
300.000000000003810
 51
8.381727577845549
  0
LINE
  8
0
  6
CONTINUOUS
 62
3
 10
-307.930054690137920
 20
-140.224740012457520
 11
-307.930054690137920
 21
-137.200954053831140
  0
LINE
  8
0
  6
CONTINUOUS
 62
3
 10
-307.930054690137920
 20
-131.639382221552350
 11
-307.930054690137920
 21
-128.589546563713440
  0
LINE
  8
0
  6
CONTINUOUS
 62
3
 10
-307.930054690137920
 20
-122.933102980703830
 11
-307.930054690137920
 21
-119.764863847031670
  0
LINE
  8
0
  6
CONTINUOUS
 62
3
 10
-314.572359535551410
 20
-119.098166490164940
 11
-311.828583960527110
 21
-117.514046923328860
  0
LINE
  8
0
  6
CONTINUOUS
 62
3
 10
-322.112218530566910
 20
-123.451306110589310
 11
-319.470983373510760
 21
-121.926388281669740
  0
LINE
  8
0
  6
CONTINUOUS
 62
3
 10
-336.949133102568110
 20
-132.017402732677570
 11
-334.339008584462360
 21
-130.510446639530810
  0
LINE
  8
0
  6
CONTINUOUS
 62
3
 10
-329.547356478069790
 20
-127.743985006041660
 11
-326.928681022292720
 21
-126.232092026728480
  0
ARC
  8
0
  6
CONTINUOUS
 62
3
 10
-305.430054690137920
 20
-110.933102980703830
 40
8.499999999999948
 50
231.618272422157330
 51
248.381727577842330
  0
ARC
  8
0
  6
CONTINUOUS
 62
3
 10
-305.430054690137920
 20
-110.933102980703830
 40
13.499999999999927
 50
226.260204708312130
 51
253.739795291689150
  0
ARC
  8
0
  6
CONTINUOUS
 62
3
 10
-305.430054690137920
 20
-110.933102980703830
 40
16.999999999999773
 50
221.212271417650780
 51
258.787728582349980
  0
ARC
  8
0
  6
CONTINUOUS
 62
3
 10
-305.430054690137920
 20
-110.933102980703830
 40
22.000000000000025
 50
219.594068226860800
 51
260.405931773138780
  0
ARC
  8
0
  6
CONTINUOUS
 62
3
 10
-305.430054690137920
 20
-110.933102980703830
 40
25.499999999999890
 50
217.589542391857950
 51
262.410457608141830
  0
ARC
  8
0
  6
CONTINUOUS
 62
3
 10
-305.430054690137920
 20
-110.933102980703830
 40
33.999999999999964
 50
215.739170477266950
 51
264.260829522733050
  0
ARC
  8
0
  6
CONTINUOUS
 62
3
 10
-305.430054690137920
 20
-110.933102980703830
 40
30.499999999999964
 50
216.813854344181070
 51
263.186145655818960
  0
ARC
  8
0
  6
CONTINUOUS
 62
3
 10
-305.430054690137920
 20
-110.933102980703830
 40
38.999999999999865
 50
215.284732954534800
 51
264.715267045465400
  0
ARC
  8
0
  6
CONTINUOUS
 62
3
 10
-311.328583960527110
 20
-118.380072327113160
 40
0.999999999999961
 50
51.618272422159777
 51
120.000000000003780
  0
ARC
  8
0
  6
CONTINUOUS
 62
3
 10
-308.930054690137920
 20
-119.764863847031670
 40
1.000000000000000
 50
0.000000000000000
 51
68.381727577838021
  0
ARC
  8
0
  6
CONTINUOUS
 62
3
 10
-308.930054690137920
 20
-122.933102980703830
 40
0.999999999999964
 50
253.739795291702650
 51
0.000000000000000
  0
ARC
  8
0
  6
CONTINUOUS
 62
3
 10
-314.072359535551410
 20
-119.964191893949240
 40
0.999999999999885
 50
120.000000000003780
 51
226.260204708328700
  0
ARC
  8
0
  6
CONTINUOUS
 62
3
 10
-318.970983373510760
 20
-122.792413685454270
 40
1.000000000000165
 50
41.212271417643841
 51
119.999999999997270
  0
ARC
  8
0
  6
CONTINUOUS
 62
3
 10
-321.612218530566910
 20
-124.317331514373620
 40
0.999999999999885
 50
120.000000000003780
 51
219.594068226860460
  0
ARC
  8
0
  6
CONTINUOUS
 62
3
 10
-308.930054690137920
 20
-128.589546563713440
 40
1.000000000000000
 50
0.000000000000000
 51
78.787728582355996
  0
ARC
  8
0
  6
CONTINUOUS
 62
3
 10
-308.930054690137920
 20
-131.639382221552350
 40
1.000000000000268
 50
260.405931773124510
 51
0.000000000000000
  0
ARC
  8
0
  6
CONTINUOUS
 62
3
 10
-326.428681022292720
 20
-127.098117430513010
 40
1.000000000000194
 50
37.589542391851793
 51
119.999999999997270
  0
ARC
  8
0
  6
CONTINUOUS
 62
3
 10
-329.047356478069790
 20
-128.610010409825970
 40
0.999999999999885
 50
120.000000000003780
 51
216.813854344197100
  0
ARC
  8
0
  6
CONTINUOUS
 62
3
 10
-308.930054690137920
 20
-137.200954053831140
 40
1.000000000000000
 50
0.000000000000000
 51
82.410457608145762
  0
ARC
  8
0
  6
CONTINUOUS
 62
3
 10
-333.839008584462360
 20
-131.376472043315120
 40
0.999999999999807
 50
35.739170477263521
 51
120.000000000003780
  0
ARC
  8
0
  6
CONTINUOUS
 62
3
 10
-336.449133102568110
 20
-132.883428136462100
 40
1.000000000000082
 50
119.999999999997270
 51
215.284732954534320
  0
ARC
  8
0
  6
CONTINUOUS
 62
3
 10
-339.949133102568110
 20
-126.821250309970820
 40
1.000000000000248
 50
204.715267045455480
 51
300.000000000003810
  0
LINE
  8
0
  6
CONTINUOUS
 62
3
 10
-339.449133102568110
 20
-127.687275713755120
 11
-336.839008584462360
 21
-126.180319620608600
  0
ARC
  8
0
  6
CONTINUOUS
 62
3
 10
-332.547356478069790
 20
-122.547832583335150
 40
0.999999999999730
 50
203.186145655819840
 51
299.999999999997270
  0
LINE
  8
0
  6
CONTINUOUS
 62
3
 10
-332.047356478069790
 20
-123.413857987119680
 11
-329.428681022292270
 21
-121.901965007806720
  0
ARC
  8
0
  6
CONTINUOUS
 62
3
 10
-337.339008584462360
 20
-125.314294216824060
 40
1.000000000000082
 50
299.999999999997270
 51
24.260829522733715
  0
ARC
  8
0
  6
CONTINUOUS
 62
3
 10
-329.928681022292270
 20
-121.035939604022190
 40
1.000000000000082
 50
299.999999999997270
 51
22.410457608146043
  0
ARC
  8
0
  6
CONTINUOUS
 62
3
 10
-325.112218530567360
 20
-118.255153687882560
 40
1.000000000000094
 50
200.405931773138690
 51
300.000000000003810
  0
LINE
  8
0
  6
CONTINUOUS
 62
3
 10
-324.612218530567360
 20
-119.121179091666870
 11
-321.970983373510760
 21
-117.596261262747300
  0
ARC
  8
0
  6
CONTINUOUS
 62
3
 10
-322.470983373510760
 20
-116.730235858962990
 40
0.999999999999885
 50
300.000000000003810
 51
18.787728582346993
  0
LINE
  8
0
  6
CONTINUOUS
 62
3
 10
-307.930054690137920
 20
-148.771575465728860
 11
-307.930054690137920
 21
-145.757663279435580
  0
ARC
  8
0
  6
CONTINUOUS
 62
3
 10
-308.930054690137920
 20
-140.224740012457520
 40
1.000000000000077
 50
263.186145655820330
 51
0.000000000000000
  0
ARC
  8
0
  6
CONTINUOUS
 62
3
 10
-308.930054690137920
 20
-148.771575465728860
 40
1.000000000000042
 50
264.715267045464260
 51
0.000000000000000
  0
ARC
  8
0
  6
CONTINUOUS
 62
3
 10
-308.930054690137920
 20
-145.757663279435580
 40
1.000000000000000
 50
0.000000000000000
 51
84.260829522738291
  0
ARC
  8
0
  6
CONTINUOUS
 62
3
 10
-547.030054690138290
 20
-110.933102980703830
 40
300.600000000000360
 50
0.000000000000000
 51
5.752282731536604
  0
ARC
  8
0
  6
CONTINUOUS
 62
3
 10
-547.030054690138290
 20
-110.933102980703830
 40
300.599999999999910
 50
354.247717268463420
 51
0.000000000000000
  0
ARC
  8
0
  6
CONTINUOUS
 62
3
 10
-63.830054690137558
 20
-110.933102980703830
 40
300.600000000000360
 50
180.000000000000000
 51
185.752282731536610
  0
ARC
  8
0
  6
CONTINUOUS
 62
3
 10
-63.830054690137558
 20
-110.933102980703830
 40
300.599999999999910
 50
174.247717268463390
 51
180.000000000000000
  0
ARC
  8
0
  6
CONTINUOUS
 62
3
 10
-305.430054690137920
 20
-457.533102980704030
 40
400.599999999999970
 50
84.256318189006564
 51
90.000000000000000
  0
ARC
  8
0
  6
CONTINUOUS
 62
3
 10
-305.430054690137920
 20
235.666897019296240
 40
400.599999999999850
 50
270.000000000000000
 51
275.743681810993450
  0
ARC
  8
0
  6
CONTINUOUS
 62
3
 10
-305.430054690137920
 20
235.666897019296240
 40
400.599999999999850
 50
264.256318189006550
 51
270.000000000000000
  0
ARC
  8
0
  6
CONTINUOUS
 62
3
 10
-305.430054690137920
 20
-457.533102980704030
 40
400.599999999999970
 50
90.000000000000000
 51
95.743681810993436
  0
ARC
  8
0
  6
CONTINUOUS
 62
3
 10
-265.999187690050580
 20
-65.511156238405476
 40
6.600000000000278
 50
44.999999999997215
 51
84.256318189004901
  0
ARC
  8
0
  6
CONTINUOUS
 62
3
 10
-265.999187690050580
 20
-156.355049723002200
 40
6.600000000000009
 50
275.743681810995100
 51
315.000000000002790
  0
ARC
  8
0
  6
CONTINUOUS
 62
3
 10
-344.860921690225270
 20
-156.355049723002200
 40
6.600000000000278
 50
224.999999999997190
 51
264.256318189004900
  0
ARC
  8
0
  6
CONTINUOUS
 62
3
 10
-344.860921690225270
 20
-65.511156238405476
 40
6.600000000000009
 50
95.743681810995099
 51
135.000000000002790
  0
LINE
  8
0
  6
CONTINUOUS
 62
4
 10
-260.805355535520220
 20
-75.234714433217334
 11
-266.692769407559580
 21
-69.347300561177292
  0
ARC
  8
0
  6
CONTINUOUS
 62
4
 10
-305.430054690137920
 20
-457.533102980704030
 40
390.797000000000140
 50
84.582036237639471
 51
90.000000000000000
  0
ARC
  8
0
  6
CONTINUOUS
 62
4
 10
-268.814089751119580
 20
-71.468620904737065
 40
3.000000000000346
 50
44.999999999996930
 51
84.582036237634313
  0
ARC
  8
0
  6
CONTINUOUS
 62
4
 10
-547.030054690138290
 20
-110.933102980703830
 40
290.797000000000480
 50
0.000000000000000
 51
5.752282731536624
  0
ARC
  8
0
  6
CONTINUOUS
 62
4
 10
-268.814089751119580
 20
-150.397585056670610
 40
3.000000000000067
 50
275.417963762365730
 51
315.000000000003070
  0
ARC
  8
0
  6
CONTINUOUS
 62
4
 10
-305.430054690137920
 20
235.666897019296240
 40
390.796999999999970
 50
270.000000000000000
 51
275.417963762360500
  0
ARC
  8
0
  6
CONTINUOUS
 62
4
 10
-278.058164102618550
 20
-134.472900638615840
 40
20.797000000000015
 50
315.000000000000000
 51
354.998349729064670
  0
LINE
  8
0
  6
CONTINUOUS
 62
4
 10
-263.352464374281910
 20
-149.178600366952480
 11
-266.692769407559580
 21
-152.518905400230380
  0
ARC
  8
0
  6
CONTINUOUS
 62
4
 10
-547.030054690138290
 20
-110.933102980703830
 40
290.797000000000140
 50
354.998349729065010
 51
0.000000000000000
  0
ARC
  8
0
  6
CONTINUOUS
 62
4
 10
-342.046019629156260
 20
-150.397585056670610
 40
3.000000000000346
 50
224.999999999996960
 51
264.582036237634270
  0
ARC
  8
0
  6
CONTINUOUS
 62
4
 10
-305.430054690137920
 20
235.666897019296240
 40
390.797000000000030
 50
264.582036237639500
 51
270.000000000000000
  0
ARC
  8
0
  6
CONTINUOUS
 62
4
 10
-332.801945277657300
 20
-134.472900638615840
 40
20.796999999999880
 50
185.001650270935330
 51
225.000000000000000
  0
LINE
  8
0
  6
CONTINUOUS
 62
4
 10
-347.507645005993940
 20
-149.178600366952480
 11
-344.167339972716260
 21
-152.518905400230380
  0
ARC
  8
0
  6
CONTINUOUS
 62
4
 10
-63.830054690137786
 20
-110.933102980703830
 40
290.797000000000250
 50
180.000000000000000
 51
185.001650270934930
  0
ARC
  8
0
  6
CONTINUOUS
 62
4
 10
-342.046019629156260
 20
-71.468620904737065
 40
3.000000000000067
 50
95.417963762365673
 51
135.000000000003040
  0
ARC
  8
0
  6
CONTINUOUS
 62
4
 10
-305.430054690137920
 20
-457.533102980704030
 40
390.797000000000080
 50
90.000000000000000
 51
95.417963762360529
  0
ARC
  8
0
  6
CONTINUOUS
 62
4
 10
-332.801945277657300
 20
-87.393305322791832
 40
20.797000000000015
 50
135.000000000000000
 51
174.998349729064670
  0
LINE
  8
0
  6
CONTINUOUS
 62
4
 10
-347.507645005993940
 20
-72.687605594455192
 11
-344.167339972716260
 21
-69.347300561177292
  0
ARC
  8
0
  6
CONTINUOUS
 62
4
 10
-63.830054690137786
 20
-110.933102980703830
 40
290.796999999999910
 50
174.998349729065040
 51
180.000000000000000
  0
ARC
  8
0
  6
CONTINUOUS
 62
3
 10
-224.491285556156300
 20
-135.933102980703840
 40
5.000000000000000
 50
270.000000000000000
 51
355.138594604201330
  0
ARC
  8
0
  6
CONTINUOUS
 62
3
 10
-224.491285556156300
 20
-85.933102980703836
 40
4.999999999999893
 50
4.861405395798621
 51
90.000000000000000
  0
LINE
  8
0
  6
CONTINUOUS
 62
3
 10
-247.930054690137920
 20
-140.933102980703840
 11
-224.491285556156300
 21
-140.933102980703840
  0
LINE
  8
0
  6
CONTINUOUS
 62
3
 10
-247.930054690137920
 20
-80.933102980703836
 11
-224.491285556156300
 21
-80.933102980703836
  0
ARC
  8
0
  6
CONTINUOUS
 62
3
 10
-518.430054690137920
 20
-110.933102980703830
 40
300.000000000000170
 50
355.138594604201960
 51
4.861405395798036
  0
LINE
  8
0
  6
CONTINUOUS
 62
3
 10
-218.440471537655640
 20
-108.433102980703830
 11
-217.930054690137920
 21
-108.433102980703830
  0
LINE
  8
0
  6
CONTINUOUS
 62
3
 10
-218.440471537655640
 20
-113.433102980703830
 11
-217.930054690137920
 21
-113.433102980703830
  0
LINE
  8
0
  6
CONTINUOUS
 62
3
 10
-217.930054690137920
 20
-113.433102980703830
 11
-217.930054690137920
 21
-108.433102980703830
  0
LINE
  8
0
  6
CONTINUOUS
 62
3
 10
-380.432924310718820
 20
-55.052982907923649
 11
-385.526561238995780
 21
-156.925721473464420
  0
LINE
  8
0
  6
CONTINUOUS
 62
3
 10
-385.526561238995780
 20
-156.925721473464420
 11
-387.124564981200360
 21
-156.845821286353440
  0
LINE
  8
0
  6
CONTINUOUS
 62
3
 10
-382.030928052923400
 20
-54.973082720813466
 11
-387.124564981200360
 21
-156.845821286353440
  0
ARC
  8
0
  6
CONTINUOUS
 62
3
 10
-383.148557154773930
 20
-57.720698317058293
 40
1.299999237060474
 50
87.137594090651831
 51
160.536063666412870
  0
ARC
  8
0
  6
CONTINUOUS
 62
3
 10
-383.368282745525900
 20
-62.115210132096024
 40
1.299999237060493
 50
193.739143184211430
 51
267.137612759980240
  0
LINE
  8
0
  6
CONTINUOUS
 62
3
 10
-382.105834478338690
 20
-56.471211229130120
 11
-383.083638290846240
 21
-56.422321038504776
  0
LINE
  8
0
  6
CONTINUOUS
 62
3
 10
-382.455397796945820
 20
-63.462477601274998
 11
-383.433201609453590
 21
-63.413587410649654
  0
LINE
  8
0
  6
CONTINUOUS
 62
3
 10
-382.105834478338690
 20
-56.471211229130120
 11
-382.455397796945820
 21
-63.462477601274998
  0
LINE
  8
0
  6
CONTINUOUS
 62
3
 10
-382.105834478338690
 20
-56.471211229130120
 11
-382.455397796945820
 21
-63.462477601274998
  0
POINT
  8
0
  6
CONTINUOUS
 62
3
 10
-382.280616137642260
 20
-59.966844415202502
  0
ARC
  8
0
  6
CONTINUOUS
 62
3
 10
-375.888601549817850
 20
-60.286445144593756
 40
9.000000000000060
 50
160.536063666407810
 51
193.739143184213500
  0
LINE
  8
0
  6
CONTINUOUS
 62
3
 10
-363.930054690137920
 20
-93.602494220484289
 11
-363.930054690137920
 21
-84.975602980703854
  0
LINE
  8
0
  6
CONTINUOUS
 62
3
 10
-382.030928052923400
 20
-54.973082720813466
 11
-380.432924310718820
 21
-55.052982907923649
  0
ARC
  8
0
  6
CONTINUOUS
 62
3
 10
-382.730054690137880
 20
-84.975602980703854
 40
18.799999999999933
 50
144.191373186504250
 51
174.275189547776390
  0
ARC
  8
0
  6
CONTINUOUS
 62
3
 10
-382.730054690137880
 20
-84.975602980703854
 40
18.800000000000036
 50
94.873974813842736
 51
144.191373186504250
  0
ARC
  8
0
  6
CONTINUOUS
 62
3
 10
-384.730054690137880
 20
-124.975602980703850
 40
20.800000000000082
 50
274.191726156007460
 51
354.952683218992150
  0
LINE
  8
0
  6
CONTINUOUS
 62
3
 10
-405.426314041758810
 20
-122.900790013122840
 11
-401.436289104102800
 21
-83.100291260005577
  0
ARC
  8
0
  6
CONTINUOUS
 62
3
 10
-388.656520521470160
 20
-147.434963302747350
 40
2.000000000000154
 50
357.137594773887600
 51
80.083463391767268
  0
LINE
  8
0
  6
CONTINUOUS
 62
3
 10
-381.231926181821110
 20
-55.013032814368614
 11
-386.325563110098070
 21
-156.885771379908700
  0
ARC
  8
0
  6
CONTINUOUS
 62
3
 10
-383.063507423754340
 20
-147.714613957633160
 40
1.999999999999962
 50
94.191726156001650
 51
177.137594773887290
  0
ARC
  8
0
  6
CONTINUOUS
 62
3
 10
-384.497313153766750
 20
-64.250815948680327
 40
1.999999999999928
 50
274.873974813840960
 51
357.137594773887320
  0
ARC
  8
0
  6
CONTINUOUS
 62
3
 10
-378.904300056050940
 20
-64.530466603566140
 40
1.999999999999927
 50
177.137594773887290
 51
259.401214733934010
  0
ARC
  8
0
  6
CONTINUOUS
 62
3
 10
-382.730054690137880
 20
-84.975602980703854
 40
18.799999999999955
 50
0.000000000000000
 51
79.401214733933941
  0
ARC
  8
0
  6
CONTINUOUS
 62
3
 10
-384.730054690137880
 20
-124.975602980703850
 40
20.799999999999986
 50
174.275189547776620
 51
205.640070215894870
  0
POINT
  8
0
  6
DASHDOT
 62
4
 10
-363.930054690137920
 20
-110.946833473829820
  0
ARC
  8
0
  6
CONTINUOUS
 62
3
 10
-384.730054690137880
 20
-124.975602980703850
 40
20.799999999999926
 50
205.640070215894870
 51
260.083463391769440
  0
POINT
  8
0
  6
DASHDOT
 62
4
 10
-363.930054690137920
 20
-110.946833473829820
  0
ARC
  8
0
  6
CONTINUOUS
 62
3
 10
-384.730054690137880
 20
-124.975602980703850
 40
20.799999999999986
 50
174.275189547776620
 51
205.640070215894870
  0
ARC
  8
0
  6
CONTINUOUS
 62
3
 10
-305.430054690138150
 20
-110.933102980703830
 40
83.000000000000043
 50
309.571894934440880
 51
338.810986909002620
  0
LINE
  8
0
  6
CONTINUOUS
 62
3
 10
-225.930054690137690
 20
-140.933102980703840
 11
-225.930054690137690
 21
-169.736950557997430
  0
ARC
  8
0
  6
CONTINUOUS
 62
3
 10
-290.930054690137920
 20
-95.206251825461834
 40
65.000000000000000
 50
12.684771122193137
 51
87.841596534959251
  0
ARC
  8
0
  6
CONTINUOUS
 62
3
 10
-260.599484628041010
 20
-66.102532918606755
 40
6.099999427795395
 50
354.601910595265110
 51
95.398072101891472
  0
POINT
  8
0
  6
CONTINUOUS
 62
3
 10
-258.336743063114000
 20
-63.839791353679686
  0
LINE
  8
0
  6
CONTINUOUS
 62
3
 10
-255.013341326407160
 20
-67.163193090386528
 11
-261.660144799820840
 21
-60.516389616972845
  0
LINE
  8
0
  6
CONTINUOUS
 62
3
 10
-254.700202717438340
 20
-66.910646139536198
 11
-261.377302019911270
 21
-60.233546837063273
  0
LINE
  8
0
  6
CONTINUOUS
 62
3
 10
-261.660144799820840
 20
-60.516389616972845
 11
-261.173341408115220
 21
-60.029586225267224
  0
LINE
  8
0
  6
CONTINUOUS
 62
3
 10
-255.013341326407160
 20
-67.163193090386528
 11
-254.526537934701540
 21
-66.676389698680907
  0
ARC
  8
0
  6
CONTINUOUS
 62
3
 10
-350.260624752234890
 20
-66.102532918606755
 40
6.099999427795462
 50
84.601927898108528
 51
185.398089404734830
  0
POINT
  8
0
  6
CONTINUOUS
 62
3
 10
-352.523366317161840
 20
-63.839791353679686
  0
LINE
  8
0
  6
CONTINUOUS
 62
3
 10
-355.846768053868690
 20
-67.163193090386528
 11
-349.199964580455000
 21
-60.516389616972845
  0
LINE
  8
0
  6
CONTINUOUS
 62
3
 10
-356.159906662837560
 20
-66.910646139536198
 11
-349.482807360364630
 21
-60.233546837063273
  0
LINE
  8
0
  6
CONTINUOUS
 62
3
 10
-349.199964580455000
 20
-60.516389616972845
 11
-349.686767972160620
 21
-60.029586225267224
  0
LINE
  8
0
  6
CONTINUOUS
 62
3
 10
-355.846768053868690
 20
-67.163193090386528
 11
-356.333571445574310
 21
-66.676389698680907
  0
ARC
  8
0
  6
CONTINUOUS
 62
3
 10
-350.260624752234890
 20
-155.763673042800750
 40
6.099999427795400
 50
174.601910595264630
 51
275.398072101891500
  0
POINT
  8
0
  6
CONTINUOUS
 62
3
 10
-352.523366317161840
 20
-158.026414607727760
  0
LINE
  8
0
  6
CONTINUOUS
 62
3
 10
-355.846768053868690
 20
-154.703012871020920
 11
-349.199964580455000
 21
-161.349816344434600
  0
LINE
  8
0
  6
CONTINUOUS
 62
3
 10
-356.159906662837560
 20
-154.955559821871250
 11
-349.482807360364630
 21
-161.632659124344170
  0
LINE
  8
0
  6
CONTINUOUS
 62
3
 10
-349.199964580455000
 20
-161.349816344434600
 11
-349.686767972160620
 21
-161.836619736140220
  0
LINE
  8
0
  6
CONTINUOUS
 62
3
 10
-355.846768053868690
 20
-154.703012871020920
 11
-356.333571445574310
 21
-155.189816262726540
  0
ARC
  8
0
  6
CONTINUOUS
 62
3
 10
-260.599484628041010
 20
-155.763673042800750
 40
6.099999427795406
 50
264.601927898108500
 51
5.398089404735375
  0
POINT
  8
0
  6
CONTINUOUS
 62
3
 10
-258.336743063114000
 20
-158.026414607727760
  0
LINE
  8
0
  6
CONTINUOUS
 62
3
 10
-255.013341326407160
 20
-154.703012871020920
 11
-261.660144799820840
 21
-161.349816344434600
  0
LINE
  8
0
  6
CONTINUOUS
 62
3
 10
-254.700202717438340
 20
-154.955559821871250
 11
-261.377302019911270
 21
-161.632659124344170
  0
LINE
  8
0
  6
CONTINUOUS
 62
3
 10
-261.660144799820840
 20
-161.349816344434600
 11
-261.173341408115220
 21
-161.836619736140220
  0
LINE
  8
0
  6
CONTINUOUS
 62
3
 10
-255.013341326407160
 20
-154.703012871020920
 11
-254.526537934701540
 21
-155.189816262726540
  0
LINE
  8
0
  6
CONTINUOUS
 62
3
 10
-257.938775306535720
 20
-60.613396472355873
 11
-252.737666534712620
 21
-55.412287700532772
  0
LINE
  8
0
  6
CONTINUOUS
 62
3
 10
-255.110348181789730
 20
-63.441823597102314
 11
-249.909239409966400
 21
-58.240714825278985
  0
LINE
  8
0
  6
CONTINUOUS
 62
3
 10
-352.921334073740130
 20
-60.613396472355873
 11
-358.122442845563230
 21
-55.412287700532772
  0
LINE
  8
0
  6
CONTINUOUS
 62
3
 10
-355.749761198486110
 20
-63.441823597102314
 11
-360.950869970309440
 21
-58.240714825278985
  0
ARC
  8
0
  6
CONTINUOUS
 62
3
 10
-319.930054690137690
 20
-95.206251825462061
 40
64.999999999999972
 50
92.158403465040536
 51
153.982816491506210
  0
ARC
  8
0
  6
CONTINUOUS
 62
3
 10
-305.430054690137690
 20
-110.933102980703830
 40
83.000000000000000
 50
204.554472145841830
 51
230.428105065559090
  0
LINE
  8
0
  6
CONTINUOUS
 62
3
 10
-384.930054690137690
 20
-146.996281651275690
 11
-384.930054690137690
 21
-169.736950557997430
  0
LINE
  8
0
  6
CONTINUOUS
 62
3
 10
-355.749761198486110
 20
-158.424382364305190
 11
-360.950869970309440
 21
-163.625491136128460
  0
LINE
  8
0
  6
CONTINUOUS
 62
3
 10
-352.921334073739900
 20
-161.252809489051630
 11
-358.122442845563230
 21
-166.453918260874900
  0
LINE
  8
0
  6
CONTINUOUS
 62
3
 10
-255.110348181789790
 20
-158.424382364305190
 11
-249.909239409966400
 21
-163.625491136128460
  0
LINE
  8
0
  6
CONTINUOUS
 62
3
 10
-257.938775306535890
 20
-161.252809489051630
 11
-252.737666534712620
 21
-166.453918260874900
  0
LINE
  8
0
  6
DASHDOT
 62
4
 10
-305.430054690137920
 20
-20.203255762488368
 11
-305.430054690137920
 21
-204.093086364613950
  0
LINE
  8
0
  6
DASHDOT
 62
4
 10
-208.485131131557640
 20
-110.933102980703830
 11
-417.017440482453590
 21
-110.933102980703830
  0
LINE
  8
0
  6
DASHDOT
 62
4
 10
-287.877680351786470
 20
-84.933102980703836
 11
-322.895491922375870
 21
-84.933102980703836
  0
LINE
  8
0
  6
CONTINUOUS
 62
3
 10
33.915334955658182
 20
155.908585256023800
 11
33.915334955658182
 21
143.708586400432980
  0
LINE
  8
0
  6
CONTINUOUS
 62
3
 10
27.915334955658182
 20
144.808585828228390
 11
27.915334955658182
 21
154.808585828228390
  0
LINE
  8
0
  6
CONTINUOUS
 62
3
 10
33.915334955658182
 20
154.808585828228390
 11
27.915334955658182
 21
154.808585828228390
  0
LINE
  8
0
  6
CONTINUOUS
 62
3
 10
33.915334955658182
 20
144.808585828228390
 11
27.915334955658182
 21
144.808585828228390
  0
LINE
  8
0
  6
CONTINUOUS
 62
3
 10
33.915334955658182
 20
59.708586400432068
 11
33.915334955658182
 21
71.908585256022889
  0
LINE
  8
0
  6
CONTINUOUS
 62
3
 10
27.915334955658182
 20
70.808585828227478
 11
27.915334955658182
 21
60.808585828227478
  0
LINE
  8
0
  6
CONTINUOUS
 62
3
 10
33.915334955658182
 20
60.808585828227478
 11
27.915334955658182
 21
60.808585828227478
  0
LINE
  8
0
  6
CONTINUOUS
 62
3
 10
33.915334955658182
 20
70.808585828227478
 11
27.915334955658182
 21
70.808585828227478
  0
LINE
  8
0
  6
CONTINUOUS
 62
3
 10
15.415334955658182
 20
107.808585828228380
 11
15.415334955658182
 21
146.067928249757640
  0
ARC
  8
0
  6
CONTINUOUS
 62
3
 10
16.415334955658182
 20
157.808585828228390
 40
1.000000000000000
 50
90.000000000000000
 51
180.000000000000000
  0
LINE
  8
0
  6
CONTINUOUS
 62
3
 10
15.415334955658182
 20
155.466873700090220
 11
15.415334955658182
 21
157.808585828228390
  0
ARC
  8
0
  6
CONTINUOUS
 62
3
 10
14.415334955658182
 20
146.067928249757640
 40
1.000000000000000
 50
0.000000000000000
 51
90.000000000000000
  0
ARC
  8
0
  6
CONTINUOUS
 62
3
 10
14.415334955658182
 20
155.466873700090220
 40
1.000000000000000
 50
270.000000000000000
 51
0.000000000000000
  0
LINE
  8
0
  6
CONTINUOUS
 62
3
 10
14.415334955661820
 20
160.343506597720080
 11
14.415334955661820
 21
107.808585828228380
  0
LINE
  8
0
  6
CONTINUOUS
 62
3
 10
15.415334955658182
 20
107.808585828228380
 11
15.415334955658182
 21
69.549243406698224
  0
ARC
  8
0
  6
CONTINUOUS
 62
3
 10
16.415334955658182
 20
57.808585828227478
 40
1.000000000000000
 50
180.000000000000000
 51
270.000000000000000
  0
LINE
  8
0
  6
CONTINUOUS
 62
3
 10
15.415334955658182
 20
60.150297956365648
 11
15.415334955658182
 21
57.808585828227478
  0
ARC
  8
0
  6
CONTINUOUS
 62
3
 10
14.415334955658182
 20
69.549243406698224
 40
1.000000000000000
 50
270.000000000000000
 51
0.000000000000000
  0
ARC
  8
0
  6
CONTINUOUS
 62
3
 10
14.415334955658182
 20
60.150297956365648
 40
1.000000000000000
 50
0.000000000000000
 51
90.000000000000000
  0
LINE
  8
0
  6
CONTINUOUS
 62
3
 10
14.415334955661820
 20
55.273665058735787
 11
14.415334955661820
 21
107.808585828227470
  0
LINE
  8
0
  6
CONTINUOUS
 62
3
 10
29.915322012041543
 20
144.808585828227480
 11
29.915320555191101
 21
144.808585828227480
  0
LINE
  8
0
  6
CONTINUOUS
 62
3
 10
16.415334955658182
 20
158.808585828228390
 11
24.089832439171005
 21
159.076585185815020
  0
ARC
  8
0
  6
CONTINUOUS
 62
3
 10
30.915334955659091
 20
185.308585828228390
 40
2.000000000000000
 50
90.000000000000000
 51
180.000000000000000
  0
ARC
  8
0
  6
CONTINUOUS
 62
3
 10
23.915334955658182
 20
165.678301629385710
 40
5.000000000000153
 50
272.000000000003580
 51
0.000000000000000
  0
ARC
  8
0
  6
CONTINUOUS
 62
3
 10
23.915334955658182
 20
164.073539320910640
 40
5.000000000000153
 50
272.000000000003580
 51
0.000000000000000
  0
LINE
  8
0
  6
CONTINUOUS
 62
3
 10
14.415334955661820
 20
160.343506597720080
 11
24.089832439171005
 21
160.681347494290090
  0
LINE
  8
0
  6
CONTINUOUS
 62
3
 10
39.915334955661820
 20
187.308585828228390
 11
39.915334955661820
 21
107.808585828228380
  0
LINE
  8
0
  6
CONTINUOUS
 62
3
 10
40.415334955661820
 20
187.308585828228390
 11
27.915334955658182
 21
187.308585828228390
  0
ARC
  8
0
  6
CONTINUOUS
 62
3
 10
27.915334955658182
 20
185.308585828228390
 40
2.000000000000000
 50
90.000000000000000
 51
180.000000000000000
  0
ARC
  8
0
  6
CONTINUOUS
 62
3
 10
27.915334955658182
 20
171.745077501332160
 40
2.000000000000000
 50
180.000000000000000
 51
255.522487814064020
  0
ARC
  8
0
  6
CONTINUOUS
 62
3
 10
26.915334955657272
 20
167.872094155124610
 40
2.000000000000000
 50
0.000000000000000
 51
75.522487814051829
  0
LINE
  8
0
  6
CONTINUOUS
 62
3
 10
25.915334955658182
 20
171.745077501332160
 11
25.915334955658182
 21
185.308585828228390
  0
LINE
  8
0
  6
CONTINUOUS
 62
3
 10
29.915334955658182
 20
142.808585828229300
 11
32.915334955658182
 21
142.808585828229300
  0
ARC
  8
0
  6
CONTINUOUS
 62
3
 10
29.915334955658182
 20
141.808585828229300
 40
1.000000000000000
 50
90.000000000000000
 51
180.000000000000000
  0
ARC
  8
0
  6
CONTINUOUS
 62
3
 10
32.915334955658182
 20
143.808585828229300
 40
1.000000000000000
 50
270.000000000000000
 51
0.000000000000000
  0
LINE
  8
0
  6
CONTINUOUS
 62
3
 10
29.915334955658182
 20
156.808585828227480
 11
32.915334955658182
 21
156.808585828227480
  0
LINE
  8
0
  6
CONTINUOUS
 62
3
 10
33.915334955658182
 20
143.808585828229300
 11
33.915334955658182
 21
155.808585828227480
  0
ARC
  8
0
  6
CONTINUOUS
 62
3
 10
29.915334955658182
 20
157.808585828227480
 40
1.000000000000000
 50
180.000000000000000
 51
270.000000000000000
  0
ARC
  8
0
  6
CONTINUOUS
 62
3
 10
32.915334955658182
 20
155.808585828227480
 40
1.000000000000000
 50
0.000000000000000
 51
90.000000000000000
  0
LINE
  8
0
  6
CONTINUOUS
 62
3
 10
28.915334955656363
 20
107.808585828228380
 11
28.915334955657272
 21
144.808585828228390
  0
LINE
  8
0
  6
CONTINUOUS
 62
3
 10
28.915334955658182
 20
154.808585828228390
 11
28.915334955659091
 21
185.308585828228390
  0
LINE
  8
0
  6
CONTINUOUS
 62
3
 10
29.915322012041543
 20
70.808585828228388
 11
29.915320555191101
 21
70.808585828228388
  0
LINE
  8
0
  6
CONTINUOUS
 62
3
 10
16.415334955658182
 20
56.808585828227478
 11
24.089832439171005
 21
56.540586470640847
  0
ARC
  8
0
  6
CONTINUOUS
 62
3
 10
30.915334955659091
 20
30.308585828228388
 40
2.000000000000000
 50
180.000000000000000
 51
270.000000000000000
  0
ARC
  8
0
  6
CONTINUOUS
 62
3
 10
23.915334955658182
 20
49.938870027070152
 40
5.000000000000000
 50
0.000000000000000
 51
87.999999999996405
  0
ARC
  8
0
  6
CONTINUOUS
 62
3
 10
23.915334955658182
 20
51.543632335545226
 40
5.000000000000000
 50
0.000000000000000
 51
87.999999999996405
  0
LINE
  8
0
  6
CONTINUOUS
 62
3
 10
14.415334955661820
 20
55.273665058735787
 11
24.089832439171005
 21
54.935824162165773
  0
LINE
  8
0
  6
CONTINUOUS
 62
3
 10
39.915334955661820
 20
28.308585828228388
 11
39.915334955661820
 21
107.808585828227470
  0
LINE
  8
0
  6
CONTINUOUS
 62
3
 10
40.415334955661820
 20
28.308585828228388
 11
27.915334955658182
 21
28.308585828228388
  0
ARC
  8
0
  6
CONTINUOUS
 62
3
 10
27.915334955658182
 20
30.308585828228388
 40
2.000000000000000
 50
180.000000000000000
 51
270.000000000000000
  0
ARC
  8
0
  6
CONTINUOUS
 62
3
 10
27.915334955658182
 20
43.872094155123705
 40
2.000000000000063
 50
104.477512185929450
 51
180.000000000000000
  0
ARC
  8
0
  6
CONTINUOUS
 62
3
 10
26.915334955657272
 20
47.745077501331252
 40
2.000000000000290
 50
284.477512185954710
 51
0.000000000000000
  0
LINE
  8
0
  6
CONTINUOUS
 62
3
 10
25.915334955658182
 20
43.872094155123705
 11
25.915334955658182
 21
30.308585828228388
  0
LINE
  8
0
  6
CONTINUOUS
 62
3
 10
29.915334955658182
 20
72.808585828226569
 11
32.915334955658182
 21
72.808585828226569
  0
ARC
  8
0
  6
CONTINUOUS
 62
3
 10
29.915334955658182
 20
73.808585828226569
 40
1.000000000000000
 50
180.000000000000000
 51
270.000000000000000
  0
ARC
  8
0
  6
CONTINUOUS
 62
3
 10
32.915334955658182
 20
71.808585828226569
 40
1.000000000000000
 50
0.000000000000000
 51
90.000000000000000
  0
LINE
  8
0
  6
CONTINUOUS
 62
3
 10
29.915334955658182
 20
58.808585828228388
 11
32.915334955658182
 21
58.808585828228388
  0
LINE
  8
0
  6
CONTINUOUS
 62
3
 10
33.915334955658182
 20
71.808585828226569
 11
33.915334955658182
 21
59.808585828228388
  0
ARC
  8
0
  6
CONTINUOUS
 62
3
 10
29.915334955658182
 20
57.808585828228388
 40
1.000000000000000
 50
90.000000000000000
 51
180.000000000000000
  0
ARC
  8
0
  6
CONTINUOUS
 62
3
 10
32.915334955658182
 20
59.808585828228388
 40
1.000000000000000
 50
270.000000000000000
 51
0.000000000000000
  0
LINE
  8
0
  6
CONTINUOUS
 62
3
 10
28.915334955656363
 20
107.808585828227470
 11
28.915334955657272
 21
70.808585828227478
  0
LINE
  8
0
  6
CONTINUOUS
 62
3
 10
28.915334955658182
 20
60.808585828227478
 11
28.915334955659091
 21
30.308585828228388
  0
LINE
  8
0
  6
CONTINUOUS
 62
3
 10
133.715334955661550
 20
93.308585828228388
 11
131.915334955661820
 21
93.308585828228388
  0
LINE
  8
0
  6
CONTINUOUS
 62
3
 10
133.915334955661820
 20
107.808585828228380
 11
133.915334955661820
 21
93.508585828228206
  0
LINE
  8
0
  6
CONTINUOUS
 62
3
 10
133.915334955661820
 20
93.508585828228206
 11
133.715334955661550
 21
93.308585828228388
  0
ARC
  8
0
  6
CONTINUOUS
 62
3
 10
134.315334955661460
 20
93.558585828228388
 40
0.399999999999636
 50
90.000000000000000
 51
180.000000000000000
  0
LINE
  8
0
  6
CONTINUOUS
 62
3
 10
136.475142576796770
 20
93.808585828228388
 11
135.915334955661820
 21
93.958585828228024
  0
LINE
  8
0
  6
CONTINUOUS
 62
3
 10
135.915334955661820
 20
93.958585828228024
 11
134.315334955661460
 21
93.958585828228024
  0
LINE
  8
0
  6
CONTINUOUS
 62
3
 10
133.715334955661550
 20
122.308585828228380
 11
131.915334955661820
 21
122.308585828228380
  0
LINE
  8
0
  6
CONTINUOUS
 62
3
 10
133.915334955661820
 20
107.808585828228380
 11
133.915334955661820
 21
122.108585828228570
  0
LINE
  8
0
  6
CONTINUOUS
 62
3
 10
133.915334955661820
 20
122.108585828228570
 11
133.715334955661550
 21
122.308585828228380
  0
ARC
  8
0
  6
CONTINUOUS
 62
3
 10
134.315334955661460
 20
122.058585828228380
 40
0.399999999999636
 50
180.000000000000000
 51
270.000000000000000
  0
LINE
  8
0
  6
CONTINUOUS
 62
3
 10
136.475142576796770
 20
121.808585828228380
 11
135.915334955661820
 21
121.658585828228750
  0
LINE
  8
0
  6
CONTINUOUS
 62
3
 10
135.915334955661820
 20
121.658585828228750
 11
134.315334955661460
 21
121.658585828228750
  0
LINE
  8
0
  6
CONTINUOUS
 62
3
 10
139.915334955661820
 20
90.808585828228388
 11
139.915334955661820
 21
93.808585828228388
  0
LINE
  8
0
  6
CONTINUOUS
 62
3
 10
175.915334955661820
 20
121.408585828228750
 11
175.915334955661820
 21
107.808585828228380
  0
LINE
  8
0
  6
CONTINUOUS
 62
3
 10
175.515334955661730
 20
121.808585828228380
 11
136.475142576796770
 21
121.808585828228380
  0
ARC
  8
0
  6
CONTINUOUS
 62
3
 10
175.515334955661730
 20
121.408585828228750
 40
0.400000000000091
 50
0.000000000000000
 51
90.000000000000000
  0
LINE
  8
0
  6
CONTINUOUS
 62
3
 10
175.915334955661820
 20
90.808585828228388
 11
175.915334955661820
 21
94.208585828228024
  0
LINE
  8
0
  6
CONTINUOUS
 62
3
 10
175.915334955661820
 20
90.808585828228388
 11
139.915334955661820
 21
90.808585828228388
  0
LINE
  8
0
  6
CONTINUOUS
 62
3
 10
175.915334955661820
 20
94.208585828228024
 11
175.915334955661820
 21
107.808585828228380
  0
LINE
  8
0
  6
CONTINUOUS
 62
3
 10
175.515334955661730
 20
93.808585828228388
 11
136.475142576796770
 21
93.808585828228388
  0
ARC
  8
0
  6
CONTINUOUS
 62
3
 10
175.515334955661730
 20
94.208585828228024
 40
0.399999999999636
 50
270.000000000000000
 51
0.000000000000000
  0
LINE
  8
0
  6
CONTINUOUS
 62
3
 10
103.417619528315750
 20
38.070371924787651
 11
103.363309902895700
 21
34.958975568285496
  0
ARC
  8
0
  6
CONTINUOUS
 62
3
 10
101.363614512582890
 20
34.993880381160125
 40
1.999999999999985
 50
290.519052046231990
 51
358.999999999998240
  0
ARC
  8
0
  6
CONTINUOUS
 62
3
 10
101.363614512582890
 20
180.623291275296650
 40
2.000000000000027
 50
1.000000000001762
 51
69.480947953768009
  0
LINE
  8
0
  6
CONTINUOUS
 62
3
 10
103.417619528315750
 20
177.546799731669130
 11
103.363309902895700
 21
180.658196088171280
  0
LINE
  8
0
  6
CONTINUOUS
 62
3
 10
40.415334955661820
 20
28.299858295764352
 11
40.415334955661820
 21
107.745077501332160
  0
LINE
  8
0
  6
CONTINUOUS
 62
3
 10
40.415334955661820
 20
187.317313360692420
 11
40.415334955661820
 21
107.872094155124610
  0
ARC
  8
0
  6
CONTINUOUS
 62
3
 10
127.915334955661820
 20
54.974713601134681
 40
2.000000000000027
 50
271.000000000001760
 51
0.000000000000000
  0
ARC
  8
0
  6
CONTINUOUS
 62
3
 10
-3.084665044338180
 20
51.373282467288846
 40
1.999999999999623
 50
91.883722866755974
 51
180.000000000000000
  0
ARC
  8
0
  6
CONTINUOUS
 62
3
 10
-3.084665044338180
 20
27.243889189167930
 40
2.000000000000000
 50
180.000000000000000
 51
268.116277133244010
  0
ARC
  8
0
  6
CONTINUOUS
 62
3
 10
129.915334955661820
 20
27.273980354460036
 40
2.000000000000027
 50
271.000000000001760
 51
0.000000000000000
  0
ARC
  8
0
  6
CONTINUOUS
 62
3
 10
129.915334955661820
 20
188.343191301996740
 40
2.000000000000000
 50
0.000000000000000
 51
88.999999999998238
  0
ARC
  8
0
  6
CONTINUOUS
 62
3
 10
127.915334955661820
 20
160.642458055322090
 40
2.000000000000000
 50
0.000000000000000
 51
88.999999999998238
  0
LINE
  8
0
  6
CONTINUOUS
 62
3
 10
-5.084665044338180
 20
27.243889189167930
 11
-5.084665044338180
 21
51.373282467288846
  0
CIRCLE
  8
0
  6
CONTINUOUS
 62
3
 10
8.415334955661820
 20
37.808585828228388
 40
6.000000000000000
  0
LINE
  8
0
  6
DASHDOT
 62
4
 10
19.415334955661820
 20
37.808585828228388
 11
-2.584665044338180
 21
37.808585828228388
  0
LINE
  8
0
  6
DASHDOT
 62
4
 10
8.415334955661820
 20
48.808585828228388
 11
8.415334955661820
 21
26.808585828228388
  0
ARC
  8
0
  6
CONTINUOUS
 62
3
 10
130.915334955661820
 20
81.308585828228388
 40
1.000000000000000
 50
270.000000000000000
 51
0.000000000000000
  0
ARC
  8
0
  6
CONTINUOUS
 62
3
 10
130.915334955661820
 20
79.308585828228388
 40
1.000000000000000
 50
90.000000000000000
 51
180.000000000000000
  0
LINE
  8
0
  6
CONTINUOUS
 62
3
 10
131.915334955661820
 20
27.273980354460036
 11
131.915334955661820
 21
107.808585828228380
  0
LINE
  8
0
  6
CONTINUOUS
 62
3
 10
129.915334955661820
 20
54.974713601134681
 11
129.915334955661820
 21
107.808585828228380
  0
CIRCLE
  8
0
  6
CONTINUOUS
 62
3
 10
118.415334955661820
 20
37.808585828228388
 40
6.000000000000000
  0
LINE
  8
0
  6
DASHDOT
 62
4
 10
129.415334955661820
 20
37.808585828228388
 11
107.415334955661820
 21
37.808585828228388
  0
LINE
  8
0
  6
DASHDOT
 62
4
 10
118.415334955661820
 20
48.808585828228388
 11
118.415334955661820
 21
26.808585828228388
  0
LINE
  8
0
  6
CONTINUOUS
 62
3
 10
42.415334955661820
 20
23.746357517153228
 11
129.950239768536450
 21
25.274284964147228
  0
LINE
  8
0
  6
CONTINUOUS
 62
3
 10
40.415334955661820
 20
28.308585828228388
 11
80.415334955661820
 21
29.006788425357627
  0
ARC
  8
0
  6
CONTINUOUS
 62
3
 10
118.415334955661820
 20
37.808585828228388
 40
15.000000000000000
 50
90.000000000000000
 51
178.999999999999970
  0
LINE
  8
0
  6
CONTINUOUS
 62
3
 10
118.415334955661820
 20
52.808585828228388
 11
127.950239768536440
 21
52.975018210821872
  0
ARC
  8
0
  6
CONTINUOUS
 62
3
 10
79.280928537237287
 20
93.996888610523456
 40
65.000000000000426
 50
271.000000000000970
 51
290.519052046226990
  0
LINE
  8
0
  6
CONTINUOUS
 62
3
 10
-0.084665044338180
 20
46.624295438272384
 11
23.066194157894643
 21
46.624295438272384
  0
LINE
  8
0
  6
CONTINUOUS
 62
3
 10
-3.150407531687051
 20
53.372201656589823
 11
26.287399586529546
 21
54.340382197559848
  0
LINE
  8
0
  6
CONTINUOUS
 62
3
 10
-3.150407531687051
 20
25.244969999866953
 11
42.415334955661820
 21
23.746357517153228
  0
CIRCLE
  8
0
  6
CONTINUOUS
 62
3
 10
8.415334955661820
 20
177.808585828228390
 40
6.000000000000000
  0
LINE
  8
0
  6
DASHDOT
 62
4
 10
8.415334955661820
 20
166.808585828228390
 11
8.415334955661820
 21
188.808585828228390
  0
ARC
  8
0
  6
CONTINUOUS
 62
3
 10
130.915334955661820
 20
134.308585828228390
 40
1.000000000000000
 50
0.000000000000000
 51
90.000000000000000
  0
ARC
  8
0
  6
CONTINUOUS
 62
3
 10
130.915334955661820
 20
136.308585828228390
 40
1.000000000000000
 50
180.000000000000000
 51
270.000000000000000
  0
LINE
  8
0
  6
CONTINUOUS
 62
3
 10
131.915334955661820
 20
188.343191301996740
 11
131.915334955661820
 21
107.808585828228380
  0
LINE
  8
0
  6
CONTINUOUS
 62
3
 10
129.915334955661820
 20
160.642458055322090
 11
129.915334955661820
 21
107.808585828228380
  0
CIRCLE
  8
0
  6
CONTINUOUS
 62
3
 10
118.415334955661820
 20
177.808585828228390
 40
6.000000000000000
  0
LINE
  8
0
  6
DASHDOT
 62
4
 10
129.415334955661820
 20
177.808585828228390
 11
107.415334955661820
 21
177.808585828228390
  0
LINE
  8
0
  6
DASHDOT
 62
4
 10
118.415334955661820
 20
166.808585828228390
 11
118.415334955661820
 21
188.808585828228390
  0
LINE
  8
0
  6
CONTINUOUS
 62
3
 10
42.415334955661820
 20
191.870814139303550
 11
129.950239768536450
 21
190.342886692309550
  0
LINE
  8
0
  6
CONTINUOUS
 62
3
 10
40.415334955661820
 20
187.308585828228390
 11
80.415334955661820
 21
186.610383231099150
  0
ARC
  8
0
  6
CONTINUOUS
 62
3
 10
118.415334955661820
 20
177.808585828228390
 40
15.000000000000197
 50
181.000000000000000
 51
270.000000000000000
  0
LINE
  8
0
  6
CONTINUOUS
 62
3
 10
118.415334955661820
 20
162.808585828228390
 11
127.950239768536440
 21
162.642153445634900
  0
ARC
  8
0
  6
CONTINUOUS
 62
3
 10
79.280928537237287
 20
121.620283045933320
 40
65.000000000000327
 50
69.480947953772983
 51
88.999999999999034
  0
LINE
  8
0
  6
CONTINUOUS
 62
3
 10
-0.084665044338180
 20
168.992876218184390
 11
23.066194157894643
 21
168.992876218184390
  0
LINE
  8
0
  6
CONTINUOUS
 62
3
 10
14.415334955661820
 20
54.308585828228388
 11
14.415334955661820
 21
107.808585828228380
  0
LINE
  8
0
  6
CONTINUOUS
 62
3
 10
14.415334955661820
 20
161.308585828228390
 11
14.415334955661820
 21
107.808585828228380
  0
LINE
  8
0
  6
CONTINUOUS
 62
3
 10
14.415334955661820
 20
54.308585828228388
 11
-59.084665044337953
 21
54.308585828228388
  0
LINE
  8
0
  6
CONTINUOUS
 62
3
 10
14.415334955661820
 20
161.308585828228390
 11
-126.084665044359090
 21
161.308585828228390
  0
LINE
  8
0
  6
CONTINUOUS
 62
4
 10
-126.084665044359090
 20
158.808585828228390
 11
14.415334955661820
 21
158.808585828228390
  0
LINE
  8
0
  6
CONTINUOUS
 62
4
 10
-126.084665044359090
 20
158.308585828228390
 11
14.415334955661820
 21
158.308585828228390
  0
LINE
  8
0
  6
CONTINUOUS
 62
4
 10
-126.084665044359090
 20
153.941668423111080
 11
14.415334955661820
 21
153.941668423111080
  0
LINE
  8
0
  6
CONTINUOUS
 62
4
 10
-126.084665044359090
 20
148.850499598568150
 11
14.415334955661820
 21
148.850499598568150
  0
LINE
  8
0
  6
CONTINUOUS
 62
4
 10
-126.084665044359090
 20
141.112186779737160
 11
14.415334955661820
 21
141.112186779737160
  0
LINE
  8
0
  6
CONTINUOUS
 62
4
 10
-126.084665044359090
 20
139.522976986998400
 11
14.415334955661820
 21
139.522976986998400
  0
LINE
  8
0
  6
CONTINUOUS
 62
4
 10
-126.084665044359090
 20
136.564981378865470
 11
14.415334955661820
 21
136.564981378865470
  0
LINE
  8
0
  6
CONTINUOUS
 62
4
 10
-126.084665044359090
 20
135.085958225388480
 11
14.415334955661820
 21
135.085958225388480
  0
LINE
  8
0
  6
CONTINUOUS
 62
4
 10
-126.084665044359090
 20
131.993227233723130
 11
14.415334955661820
 21
131.993227233723130
  0
LINE
  8
0
  6
CONTINUOUS
 62
4
 10
-126.084665044359090
 20
130.646825508224540
 11
14.415334955661820
 21
130.646825508224540
  0
LINE
  8
0
  6
CONTINUOUS
 62
4
 10
-126.084665044359090
 20
127.436620484866230
 11
14.415334955661820
 21
127.436620484866230
  0
LINE
  8
0
  6
CONTINUOUS
 62
4
 10
-126.084665044359090
 20
126.194700619978330
 11
14.415334955661820
 21
126.194700619978330
  0
LINE
  8
0
  6
CONTINUOUS
 62
4
 10
-126.084665044359090
 20
121.808585828228380
 11
14.415334955661820
 21
121.808585828228400
  0
LINE
  8
0
  6
CONTINUOUS
 62
4
 10
-126.084665044358870
 20
93.808585828228388
 11
14.415334955661820
 21
93.808585828228388
  0
LINE
  8
0
  6
CONTINUOUS
 62
4
 10
-126.084665044358870
 20
89.422471036478441
 11
14.415334955661820
 21
89.422471036478441
  0
LINE
  8
0
  6
CONTINUOUS
 62
4
 10
-126.084665044358870
 20
88.180551171590537
 11
14.415334955661820
 21
88.180551171590537
  0
LINE
  8
0
  6
CONTINUOUS
 62
4
 10
-126.084665044358870
 20
84.970346148232238
 11
14.415334955661820
 21
84.970346148232238
  0
LINE
  8
0
  6
CONTINUOUS
 62
4
 10
-126.084665044358870
 20
83.623944422733643
 11
14.415334955661820
 21
83.623944422733643
  0
LINE
  8
0
  6
CONTINUOUS
 62
4
 10
-126.084665044358870
 20
80.531213431068409
 11
14.415334955661820
 21
80.531213431068409
  0
LINE
  8
0
  6
CONTINUOUS
 62
4
 10
-126.084665044358870
 20
79.052190277591308
 11
14.415334955661820
 21
79.052190277591308
  0
LINE
  8
0
  6
CONTINUOUS
 62
4
 10
-126.084665044358870
 20
74.504984876719732
 11
14.415334955661820
 21
74.504984876719732
  0
LINE
  8
0
  6
CONTINUOUS
 62
4
 10
-126.084665044358870
 20
76.094194669458375
 11
14.415334955661820
 21
76.094194669458375
  0
LINE
  8
0
  6
CONTINUOUS
 62
4
 10
-126.084665044358870
 20
66.766672057888627
 11
14.415334955661820
 21
66.766672057888627
  0
LINE
  8
0
  6
CONTINUOUS
 62
4
 10
-126.084665044358870
 20
61.675503233345694
 11
14.415334955661820
 21
61.675503233345808
  0
LINE
  8
0
  6
CONTINUOUS
 62
4
 10
-126.084665044358870
 20
57.308585828228388
 11
14.415334955661820
 21
57.308585828228388
  0
LINE
  8
0
  6
CONTINUOUS
 62
4
 10
-126.084665044358870
 20
56.808585828228388
 11
14.415334955661820
 21
56.808585828228388
  0
LINE
  8
0
  6
CONTINUOUS
 62
3
 10
-176.084665044359550
 20
155.652205961857700
 11
-176.084665044359330
 21
107.808585828228380
  0
LINE
  8
0
  6
CONTINUOUS
 62
3
 10
-167.405184582283480
 20
163.083117940581700
 11
-174.975963778872260
 21
157.782001277009040
  0
ARC
  8
0
  6
CONTINUOUS
 62
3
 10
-173.484665044359420
 20
155.652205961857700
 40
2.600000000000131
 50
125.000000000001180
 51
180.000000000000000
  0
ARC
  8
0
  6
CONTINUOUS
 62
3
 10
-155.589509993452110
 20
146.208585828228370
 40
20.600000000000023
 50
90.000000000000000
 51
124.999999999999600
  0
LINE
  8
0
  6
CONTINUOUS
 62
3
 10
-176.084665044359550
 20
59.964965694599073
 11
-176.084665044359550
 21
107.808585828228380
  0
LINE
  8
0
  6
CONTINUOUS
 62
3
 10
-167.405184582283480
 20
52.534053715875189
 11
-174.975963778872260
 21
57.835170379447732
  0
ARC
  8
0
  6
CONTINUOUS
 62
3
 10
-173.484665044359420
 20
59.964965694599073
 40
2.600000000000136
 50
180.000000000000000
 51
234.999999999997390
  0
ARC
  8
0
  6
CONTINUOUS
 62
3
 10
-155.589509993452110
 20
69.408585828228411
 40
20.599999999999891
 50
235.000000000000400
 51
270.000000000000000
  0
LINE
  8
0
  6
CONTINUOUS
 62
3
 10
-126.084665044359320
 20
166.808585828228390
 11
-155.589509993452110
 21
166.808585828228390
  0
LINE
  8
0
  6
CONTINUOUS
 62
3
 10
-136.084665044359330
 20
48.808585828228388
 11
-155.589509993452110
 21
48.808585828228388
  0
LINE
  8
0
  6
CONTINUOUS
 62
3
 10
-134.084665044337950
 20
50.308585828228388
 11
-134.084665044337950
 21
53.297316592173047
  0
LINE
  8
0
  6
CONTINUOUS
 62
3
 10
-59.084665044337953
 20
55.308585828228502
 11
-126.318133738756610
 21
55.308585828228502
  0
LINE
  8
0
  6
CONTINUOUS
 62
3
 10
-137.084665044359330
 20
156.952506850953570
 11
-139.084665044359330
 21
155.299865211830140
  0
LINE
  8
0
  6
CONTINUOUS
 62
3
 10
-135.084665044359330
 20
158.128292336576350
 11
-137.084665044359330
 21
156.952506850953570
  0
LINE
  8
0
  6
CONTINUOUS
 62
3
 10
-137.084665044359330
 20
156.952506850953570
 11
-135.084665044359330
 21
155.299865211830140
  0
LINE
  8
0
  6
CONTINUOUS
 62
3
 10
-139.084665044359330
 20
158.128292336576350
 11
-137.084665044359330
 21
156.952506850953570
  0
POLYLINE
  8
0
  6
CONTINUOUS
 62
3
 66
1
 70
1
  0
VERTEX
  8
0
  6
CONTINUOUS
 62
3
 10
-132.384665044359110
 20
155.135916782575920
  0
VERTEX
  8
0
  6
CONTINUOUS
 62
3
 10
-132.474974226463930
 20
155.838873748776280
  0
VERTEX
  8
0
  6
CONTINUOUS
 62
3
 10
-132.742431241556060
 20
156.514816472988370
  0
VERTEX
  8
0
  6
CONTINUOUS
 62
3
 10
-133.176757866537140
 20
157.137768855393770
  0
VERTEX
  8
0
  6
CONTINUOUS
 62
3
 10
-133.761263172782320
 20
157.683791185292360
  0
VERTEX
  8
0
  6
CONTINUOUS
 62
3
 10
-134.473484949166990
 20
158.131900130758990
  0
VERTEX
  8
0
  6
CONTINUOUS
 62
3
 10
-135.286052912243180
 20
158.464875116321740
  0
VERTEX
  8
0
  6
CONTINUOUS
 62
3
 10
-136.167740530883290
 20
158.669920100019990
  0
VERTEX
  8
0
  6
CONTINUOUS
 62
3
 10
-137.084665044359100
 20
158.739155318120770
  0
VERTEX
  8
0
  6
CONTINUOUS
 62
3
 10
-138.001589557834900
 20
158.669920100019990
  0
VERTEX
  8
0
  6
CONTINUOUS
 62
3
 10
-138.883277176475020
 20
158.464875116321740
  0
VERTEX
  8
0
  6
CONTINUOUS
 62
3
 10
-139.695845139551210
 20
158.131900130758990
  0
VERTEX
  8
0
  6
CONTINUOUS
 62
3
 10
-140.408066915935880
 20
157.683791185292360
  0
VERTEX
  8
0
  6
CONTINUOUS
 62
3
 10
-140.992572222181050
 20
157.137768855393770
  0
VERTEX
  8
0
  6
CONTINUOUS
 62
3
 10
-141.426898847162140
 20
156.514816472988370
  0
VERTEX
  8
0
  6
CONTINUOUS
 62
3
 10
-141.694355862254270
 20
155.838873748776280
  0
VERTEX
  8
0
  6
CONTINUOUS
 62
3
 10
-141.784665044359090
 20
155.135916782575920
  0
VERTEX
  8
0
  6
CONTINUOUS
 62
3
 10
-141.694355862254270
 20
154.432959816375560
  0
VERTEX
  8
0
  6
CONTINUOUS
 62
3
 10
-141.426898847162140
 20
153.757017092163470
  0
VERTEX
  8
0
  6
CONTINUOUS
 62
3
 10
-140.992572222181050
 20
153.134064709758060
  0
VERTEX
  8
0
  6
CONTINUOUS
 62
3
 10
-140.408066915935850
 20
152.588042379859470
  0
VERTEX
  8
0
  6
CONTINUOUS
 62
3
 10
-139.695845139551210
 20
152.139933434392840
  0
VERTEX
  8
0
  6
CONTINUOUS
 62
3
 10
-138.883277176475020
 20
151.806958448830100
  0
VERTEX
  8
0
  6
CONTINUOUS
 62
3
 10
-138.001589557834900
 20
151.601913465131840
  0
VERTEX
  8
0
  6
CONTINUOUS
 62
3
 10
-137.084665044359100
 20
151.532678247031070
  0
VERTEX
  8
0
  6
CONTINUOUS
 62
3
 10
-136.167740530883290
 20
151.601913465131840
  0
VERTEX
  8
0
  6
CONTINUOUS
 62
3
 10
-135.286052912243180
 20
151.806958448830100
  0
VERTEX
  8
0
  6
CONTINUOUS
 62
3
 10
-134.473484949166990
 20
152.139933434392840
  0
VERTEX
  8
0
  6
CONTINUOUS
 62
3
 10
-133.761263172782350
 20
152.588042379859470
  0
VERTEX
  8
0
  6
CONTINUOUS
 62
3
 10
-133.176757866537140
 20
153.134064709758060
  0
VERTEX
  8
0
  6
CONTINUOUS
 62
3
 10
-132.742431241556060
 20
153.757017092163470
  0
VERTEX
  8
0
  6
CONTINUOUS
 62
3
 10
-132.474974226463930
 20
154.432959816375560
  0
SEQEND
  8
0
  6
CONTINUOUS
 62
3
  0
LINE
  8
0
  6
CONTINUOUS
 62
3
 10
-126.084665044359320
 20
166.808585828228390
 11
-126.084665044359090
 21
107.808585828228380
  0
LINE
  8
0
  6
CONTINUOUS
 62
3
 10
-136.084665044359330
 20
48.808585828228388
 11
-136.084665044359330
 21
50.468889467419444
  0
ARC
  8
0
  6
CONTINUOUS
 62
3
 10
-133.084665044359330
 20
50.468889467419444
 40
3.000000000000000
 50
90.000000000000000
 51
180.000000000000000
  0
LINE
  8
0
  6
CONTINUOUS
 62
3
 10
-137.084665044359330
 20
58.664664805503321
 11
-139.084665044359330
 21
60.317306444626638
  0
LINE
  8
0
  6
CONTINUOUS
 62
3
 10
-135.084665044359330
 20
57.488879319880425
 11
-137.084665044359330
 21
58.664664805503321
  0
LINE
  8
0
  6
CONTINUOUS
 62
3
 10
-137.084665044359330
 20
58.664664805503321
 11
-135.084665044359330
 21
60.317306444626638
  0
LINE
  8
0
  6
CONTINUOUS
 62
3
 10
-139.084665044359330
 20
57.488879319880425
 11
-137.084665044359330
 21
58.664664805503321
  0
POLYLINE
  8
0
  6
CONTINUOUS
 62
3
 66
1
 70
1
  0
VERTEX
  8
0
  6
CONTINUOUS
 62
3
 10
-132.384665044359110
 20
60.481254873880857
  0
VERTEX
  8
0
  6
CONTINUOUS
 62
3
 10
-132.474974226463930
 20
61.184211840081218
  0
VERTEX
  8
0
  6
CONTINUOUS
 62
3
 10
-132.742431241556060
 20
61.860154564293310
  0
VERTEX
  8
0
  6
CONTINUOUS
 62
3
 10
-133.176757866537140
 20
62.483106946698712
  0
VERTEX
  8
0
  6
CONTINUOUS
 62
3
 10
-133.761263172782320
 20
63.029129276597295
  0
VERTEX
  8
0
  6
CONTINUOUS
 62
3
 10
-134.473484949166990
 20
63.477238222063910
  0
VERTEX
  8
0
  6
CONTINUOUS
 62
3
 10
-135.286052912243180
 20
63.810213207626667
  0
VERTEX
  8
0
  6
CONTINUOUS
 62
3
 10
-136.167740530883290
 20
64.015258191324918
  0
VERTEX
  8
0
  6
CONTINUOUS
 62
3
 10
-137.084665044359100
 20
64.084493409425690
  0
VERTEX
  8
0
  6
CONTINUOUS
 62
3
 10
-138.001589557834900
 20
64.015258191324918
  0
VERTEX
  8
0
  6
CONTINUOUS
 62
3
 10
-138.883277176475020
 20
63.810213207626667
  0
VERTEX
  8
0
  6
CONTINUOUS
 62
3
 10
-139.695845139551210
 20
63.477238222063910
  0
VERTEX
  8
0
  6
CONTINUOUS
 62
3
 10
-140.408066915935880
 20
63.029129276597295
  0
VERTEX
  8
0
  6
CONTINUOUS
 62
3
 10
-140.992572222181050
 20
62.483106946698712
  0
VERTEX
  8
0
  6
CONTINUOUS
 62
3
 10
-141.426898847162140
 20
61.860154564293310
  0
VERTEX
  8
0
  6
CONTINUOUS
 62
3
 10
-141.694355862254270
 20
61.184211840081218
  0
VERTEX
  8
0
  6
CONTINUOUS
 62
3
 10
-141.784665044359090
 20
60.481254873880857
  0
VERTEX
  8
0
  6
CONTINUOUS
 62
3
 10
-141.694355862254270
 20
59.778297907680496
  0
VERTEX
  8
0
  6
CONTINUOUS
 62
3
 10
-141.426898847162140
 20
59.102355183468404
  0
VERTEX
  8
0
  6
CONTINUOUS
 62
3
 10
-140.992572222181050
 20
58.479402801063003
  0
VERTEX
  8
0
  6
CONTINUOUS
 62
3
 10
-140.408066915935850
 20
57.933380471164426
  0
VERTEX
  8
0
  6
CONTINUOUS
 62
3
 10
-139.695845139551210
 20
57.485271525697804
  0
VERTEX
  8
0
  6
CONTINUOUS
 62
3
 10
-138.883277176475020
 20
57.152296540135048
  0
VERTEX
  8
0
  6
CONTINUOUS
 62
3
 10
-138.001589557834900
 20
56.947251556436797
  0
VERTEX
  8
0
  6
CONTINUOUS
 62
3
 10
-137.084665044359100
 20
56.878016338336025
  0
VERTEX
  8
0
  6
CONTINUOUS
 62
3
 10
-136.167740530883290
 20
56.947251556436797
  0
VERTEX
  8
0
  6
CONTINUOUS
 62
3
 10
-135.286052912243180
 20
57.152296540135048
  0
VERTEX
  8
0
  6
CONTINUOUS
 62
3
 10
-134.473484949166990
 20
57.485271525697804
  0
VERTEX
  8
0
  6
CONTINUOUS
 62
3
 10
-133.761263172782350
 20
57.933380471164426
  0
VERTEX
  8
0
  6
CONTINUOUS
 62
3
 10
-133.176757866537140
 20
58.479402801063003
  0
VERTEX
  8
0
  6
CONTINUOUS
 62
3
 10
-132.742431241556060
 20
59.102355183468404
  0
VERTEX
  8
0
  6
CONTINUOUS
 62
3
 10
-132.474974226463930
 20
59.778297907680496
  0
SEQEND
  8
0
  6
CONTINUOUS
 62
3
  0
LINE
  8
0
  6
CONTINUOUS
 62
3
 10
-133.084665044359330
 20
53.468889467419444
 11
-129.084665044359330
 21
53.468889467419444
  0
ARC
  8
0
  6
CONTINUOUS
 62
3
 10
-129.084665044359330
 20
56.468889467419444
 40
3.000000000000000
 50
270.000000000000000
 51
0.000000000000000
  0
LINE
  8
0
  6
CONTINUOUS
 62
3
 10
-126.084665044359320
 20
56.468889467419444
 11
-126.084665044359090
 21
107.808585828228380
  0
LINE
  8
0
  6
CONTINUOUS
 62
3
 10
-61.084665044337953
 20
20.808585828228388
 11
-132.084665044337950
 21
20.808585828228388
  0
LINE
  8
0
  6
CONTINUOUS
 62
3
 10
-75.084665044337953
 20
20.308585828228388
 11
-75.084665044337953
 21
20.808585828228388
  0
LINE
  8
0
  6
CONTINUOUS
 62
3
 10
-75.084665044337953
 20
20.308585828228388
 11
-67.084665044337953
 21
20.308585828228388
  0
LINE
  8
0
  6
CONTINUOUS
 62
3
 10
-67.084665044337953
 20
20.308585828228388
 11
-67.084665044337953
 21
20.808585828228388
  0
ARC
  8
0
  6
CONTINUOUS
 62
3
 10
-61.084665044337953
 20
21.808585828228388
 40
1.000000000000000
 50
270.000000000000000
 51
0.000000000000000
  0
ARC
  8
0
  6
CONTINUOUS
 62
3
 10
-132.084665044337950
 20
21.808585828228388
 40
1.000000000000000
 50
180.000000000000000
 51
270.000000000000000
  0
LINE
  8
0
  6
CONTINUOUS
 62
3
 10
-133.084665044337950
 20
21.808585828228388
 11
-133.084665044337950
 21
50.308585828228388
  0
LINE
  8
0
  6
CONTINUOUS
 62
3
 10
-60.084665044337953
 20
21.808585828228388
 11
-60.084665044337953
 21
50.308585828228388
  0
LINE
  8
0
  6
CONTINUOUS
 62
3
 10
-59.084665044337953
 20
50.308585828228388
 11
-59.084665044337953
 21
55.308585828228502
  0
LINE
  8
0
  6
CONTINUOUS
 62
3
 10
-134.084665044337950
 20
50.308585828228388
 11
-59.084665044337953
 21
50.308585828228388
  0
LINE
  8
0
  6
CONTINUOUS
 62
3
 10
-12.084665044338180
 20
184.969610887915220
 11
-115.084665044338180
 21
184.969610887915220
  0
ARC
  8
0
  6
CONTINUOUS
 62
3
 10
-6.584665044338180
 20
189.969610887915220
 40
5.000000000000072
 50
287.457603123721870
 51
0.000000000000000
  0
ARC
  8
0
  6
CONTINUOUS
 62
3
 10
-6.384665044338362
 20
185.646157013657560
 40
1.300000000000182
 50
0.000000000000000
 51
73.398450400977637
  0
ARC
  8
0
  6
CONTINUOUS
 62
3
 10
-8.584665044338180
 20
178.267132687908090
 40
9.000000000000123
 50
73.398450400980877
 51
106.601549599019120
  0
ARC
  8
0
  6
CONTINUOUS
 62
3
 10
-10.784665044337999
 20
185.646157013657560
 40
1.300000000000019
 50
106.601549599022360
 51
180.000000000000000
  0
LINE
  8
0
  6
CONTINUOUS
 62
3
 10
-5.084665044338180
 20
185.646157013657560
 11
-5.084665044338180
 21
184.659147275733180
  0
POLYLINE
  8
0
  6
CONTINUOUS
 62
3
 66
1
  0
VERTEX
  8
0
  6
CONTINUOUS
 62
3
 10
-12.084665044338180
 20
184.659147275733180
  0
VERTEX
  8
0
  6
CONTINUOUS
 62
3
 10
-12.017413525749486
 20
184.625049065537180
  0
VERTEX
  8
0
  6
CONTINUOUS
 62
3
 10
-11.818243408127683
 20
184.592261230436550
  0
VERTEX
  8
0
  6
CONTINUOUS
 62
3
 10
-11.494808687397089
 20
184.562043788546530
  0
VERTEX
  8
0
  6
CONTINUOUS
 62
3
 10
-11.059538778491097
 20
184.535557979212830
  0
VERTEX
  8
0
  6
CONTINUOUS
 62
3
 10
-10.529160859906789
 20
184.513821637234740
  0
VERTEX
  8
0
  6
CONTINUOUS
 62
3
 10
-9.924057057615995
 20
184.497670078044560
  0
VERTEX
  8
0
  6
CONTINUOUS
 62
3
 10
-9.267481171394630
 20
184.487723997004110
  0
VERTEX
  8
0
  6
CONTINUOUS
 62
3
 10
-8.584665044338180
 20
184.484365616429950
  0
VERTEX
  8
0
  6
CONTINUOUS
 62
3
 10
-7.901848917281733
 20
184.487723997004110
  0
VERTEX
  8
0
  6
CONTINUOUS
 62
3
 10
-7.245273031060368
 20
184.497670078044560
  0
VERTEX
  8
0
  6
CONTINUOUS
 62
3
 10
-6.640169228769574
 20
184.513821637234740
  0
VERTEX
  8
0
  6
CONTINUOUS
 62
3
 10
-6.109791310185265
 20
184.535557979212830
  0
VERTEX
  8
0
  6
CONTINUOUS
 62
3
 10
-5.674521401279274
 20
184.562043788546530
  0
VERTEX
  8
0
  6
CONTINUOUS
 62
3
 10
-5.351086680548679
 20
184.592261230436550
  0
VERTEX
  8
0
  6
CONTINUOUS
 62
3
 10
-5.151916562926877
 20
184.625049065537180
  0
VERTEX
  8
0
  6
CONTINUOUS
 62
3
 10
-5.084665044338182
 20
184.659147275733180
  0
SEQEND
  8
0
  6
CONTINUOUS
 62
3
  0
LINE
  8
0
  6
CONTINUOUS
 62
3
 10
-12.084665044338180
 20
185.646157013657560
 11
-12.084665044338180
 21
184.659147275733180
  0
LINE
  8
0
  6
CONTINUOUS
 62
3
 10
-125.584665044338180
 20
161.308585828228390
 11
-125.584665044338180
 21
166.308585828228390
  0
LINE
  8
0
  6
DASHDOT
 62
3
 10
-1.584665044338180
 20
161.308585828228390
 11
-1.584665044338180
 21
166.308585828228390
  0
LINE
  8
0
  6
DASHDOT
 62
3
 10
-1.584665044338180
 20
161.308585828228390
 11
-1.584665044338180
 21
166.308585828228390
  0
LINE
  8
0
  6
CONTINUOUS
 62
3
 10
-125.584665044338180
 20
166.308585828228390
 11
-1.584665044338180
 21
166.308585828228390
  0
ARC
  8
0
  6
CONTINUOUS
 62
3
 10
-120.584665044338180
 20
189.969610887915220
 40
5.000000000000000
 50
180.000000000000000
 51
252.542396876278160
  0
LINE
  8
0
  6
CONTINUOUS
 62
3
 10
-122.084665044338180
 20
185.646157013657560
 11
-122.084665044338180
 21
184.659147275733180
  0
LINE
  8
0
  6
CONTINUOUS
 62
3
 10
-115.084665044338180
 20
185.646157013657560
 11
-115.084665044338180
 21
184.659147275733180
  0
ARC
  8
0
  6
CONTINUOUS
 62
3
 10
-120.784665044337990
 20
185.646157013657560
 40
1.300000000000019
 50
106.601549599022360
 51
180.000000000000000
  0
ARC
  8
0
  6
CONTINUOUS
 62
3
 10
-118.584665044338180
 20
178.267132687908090
 40
9.000000000000123
 50
73.398450400980877
 51
106.601549599019120
  0
ARC
  8
0
  6
CONTINUOUS
 62
3
 10
-116.384665044338360
 20
185.646157013657560
 40
1.300000000000182
 50
0.000000000000000
 51
73.398450400977637
  0
POLYLINE
  8
0
  6
CONTINUOUS
 62
3
 66
1
  0
VERTEX
  8
0
  6
CONTINUOUS
 62
3
 10
-122.084665044338180
 20
184.659147275733180
  0
VERTEX
  8
0
  6
CONTINUOUS
 62
3
 10
-122.017413525749490
 20
184.625049065537180
  0
VERTEX
  8
0
  6
CONTINUOUS
 62
3
 10
-121.818243408127680
 20
184.592261230436550
  0
VERTEX
  8
0
  6
CONTINUOUS
 62
3
 10
-121.494808687397080
 20
184.562043788546530
  0
VERTEX
  8
0
  6
CONTINUOUS
 62
3
 10
-121.059538778491100
 20
184.535557979212830
  0
VERTEX
  8
0
  6
CONTINUOUS
 62
3
 10
-120.529160859906790
 20
184.513821637234740
  0
VERTEX
  8
0
  6
CONTINUOUS
 62
3
 10
-119.924057057615990
 20
184.497670078044560
  0
VERTEX
  8
0
  6
CONTINUOUS
 62
3
 10
-119.267481171394630
 20
184.487723997004110
  0
VERTEX
  8
0
  6
CONTINUOUS
 62
3
 10
-118.584665044338180
 20
184.484365616429950
  0
VERTEX
  8
0
  6
CONTINUOUS
 62
3
 10
-117.901848917281740
 20
184.487723997004110
  0
VERTEX
  8
0
  6
CONTINUOUS
 62
3
 10
-117.245273031060360
 20
184.497670078044560
  0
VERTEX
  8
0
  6
CONTINUOUS
 62
3
 10
-116.640169228769570
 20
184.513821637234740
  0
VERTEX
  8
0
  6
CONTINUOUS
 62
3
 10
-116.109791310185270
 20
184.535557979212830
  0
VERTEX
  8
0
  6
CONTINUOUS
 62
3
 10
-115.674521401279270
 20
184.562043788546530
  0
VERTEX
  8
0
  6
CONTINUOUS
 62
3
 10
-115.351086680548670
 20
184.592261230436550
  0
VERTEX
  8
0
  6
CONTINUOUS
 62
3
 10
-115.151916562926870
 20
184.625049065537180
  0
VERTEX
  8
0
  6
CONTINUOUS
 62
3
 10
-115.084665044338180
 20
184.659147275733180
  0
SEQEND
  8
0
  6
CONTINUOUS
 62
3
  0
LINE
  8
0
  6
CONTINUOUS
 62
3
 10
-1.584665044338180
 20
189.969610887915220
 11
-1.584665044338180
 21
202.908585828228300
  0
ARC
  8
0
  6
CONTINUOUS
 62
3
 10
-6.584665044338180
 20
171.308585828228390
 40
5.000000000000000
 50
270.000000000000000
 51
0.000000000000000
  0
LINE
  8
0
  6
CONTINUOUS
 62
3
 10
-125.584665044338180
 20
189.969610887915220
 11
-125.584665044338180
 21
202.908585828228300
  0
LINE
  8
0
  6
CONTINUOUS
 62
3
 10
-125.584665044338180
 20
189.503096119290600
 11
-126.584665044338180
 21
189.503096119290600
  0
LINE
  8
0
  6
CONTINUOUS
 62
3
 10
-0.584665044338180
 20
184.409459191013410
 11
-126.584665044338180
 21
184.409459191013410
  0
ARC
  8
0
  6
CONTINUOUS
 62
3
 10
-120.584665044338180
 20
171.308585828228390
 40
5.000000000000000
 50
180.000000000000000
 51
270.000000000000000
  0
ARC
  8
0
  6
CONTINUOUS
 62
3
 10
-120.584665044338180
 20
202.908585828228300
 40
5.000000000000000
 50
90.000000000000000
 51
180.000000000000000
  0
ARC
  8
0
  6
CONTINUOUS
 62
3
 10
-126.584665044338180
 20
187.503096119290600
 40
2.000000000000000
 50
90.000000000000000
 51
180.000000000000000
  0
ARC
  8
0
  6
CONTINUOUS
 62
3
 10
-126.584665044338180
 20
186.409459191013410
 40
2.000000000000000
 50
180.000000000000000
 51
270.000000000000000
  0
ARC
  8
0
  6
CONTINUOUS
 62
3
 10
-126.584665044338180
 20
185.610457319928170
 40
2.000000000000000
 50
180.000000000000000
 51
270.000000000000000
  0
LINE
  8
0
  6
CONTINUOUS
 62
3
 10
-128.584665044338180
 20
187.503096119290600
 11
-128.584665044338180
 21
184.811455448809280
  0
ARC
  8
0
  6
CONTINUOUS
 62
3
 10
-126.584665044338180
 20
184.811455448809280
 40
2.000000000000000
 50
180.000000000000000
 51
270.000000000000000
  0
LINE
  8
0
  6
CONTINUOUS
 62
3
 10
-125.584665044338180
 20
171.308585828228390
 11
-125.584665044338180
 21
182.811455448809280
  0
ARC
  8
0
  6
CONTINUOUS
 62
3
 10
-6.584665044338180
 20
202.908585828228300
 40
5.000000000000000
 50
0.000000000000000
 51
90.000000000000000
  0
LINE
  8
0
  6
CONTINUOUS
 62
3
 10
-120.584665044338180
 20
207.908585828228300
 11
-6.584665044338180
 21
207.908585828228300
  0
LINE
  8
0
  6
CONTINUOUS
 62
3
 10
-1.584665044338180
 20
171.308585828228390
 11
-1.584665044338180
 21
182.610457319928170
  0
LINE
  8
0
  6
CONTINUOUS
 62
3
 10
1.415334955661820
 20
187.503096119290600
 11
1.415334955661820
 21
184.811455448809280
  0
LINE
  8
0
  6
CONTINUOUS
 62
3
 10
-0.584665044338180
 20
183.610457319911350
 11
-126.584665044338180
 21
183.610457319911350
  0
LINE
  8
0
  6
CONTINUOUS
 62
3
 10
-0.584665044338180
 20
182.811455448809280
 11
-126.584665044338180
 21
182.811455448809280
  0
LINE
  8
0
  6
CONTINUOUS
 62
3
 10
-1.584665044338180
 20
189.503096119290600
 11
-0.584665044338180
 21
189.503096119290600
  0
ARC
  8
0
  6
CONTINUOUS
 62
3
 10
-0.584665044338180
 20
187.503096119290600
 40
2.000000000000000
 50
0.000000000000000
 51
90.000000000000000
  0
ARC
  8
0
  6
CONTINUOUS
 62
3
 10
-0.584665044338180
 20
186.409459191013410
 40
2.000000000000000
 50
270.000000000000000
 51
0.000000000000000
  0
ARC
  8
0
  6
CONTINUOUS
 62
3
 10
-0.584665044338180
 20
185.610457319928170
 40
2.000000000000000
 50
270.000000000000000
 51
0.000000000000000
  0
ARC
  8
0
  6
CONTINUOUS
 62
3
 10
-0.584665044338180
 20
184.811455448809280
 40
2.000000000000000
 50
270.000000000000000
 51
0.000000000000000
  0
LINE
  8
0
  6
DASHDOT
 62
4
 10
-71.584665044337953
 20
26.864428570552377
 11
-71.584665044337953
 21
48.843930703087381
  0
LINE
  8
0
  6
DASHDOT
 62
4
 10
-82.868194460064615
 20
35.808585828228502
 11
-61.101217051536310
 21
35.808585828228502
  0
LINE
  8
0
  6
DASHDOT
 62
4
 10
-121.584665044337950
 20
26.864428570552377
 11
-121.584665044337950
 21
48.412917551084092
  0
LINE
  8
0
  6
DASHDOT
 62
4
 10
-130.670354150921530
 20
35.808585828228502
 11
-110.183765917212210
 21
35.808585828228502
  0
LINE
  8
0
  6
DASHED
 62
4
 10
-114.584665044337950
 20
35.808585828228502
 11
-114.584665044337950
 21
50.308585828228502
  0
LINE
  8
0
  6
DASHED
 62
4
 10
-128.584665044337950
 20
35.808585828228502
 11
-128.584665044337950
 21
50.308585828228502
  0
ARC
  8
0
  6
DASHED
 62
4
 10
-121.584665044337950
 20
35.808585828228502
 40
7.000000000000000
 50
180.000000000000000
 51
0.000000000000000
  0
LINE
  8
0
  6
DASHED
 62
4
 10
-64.584665044337953
 20
35.808585828228502
 11
-64.584665044337953
 21
50.308585828228502
  0
LINE
  8
0
  6
DASHED
 62
4
 10
-78.584665044337953
 20
35.808585828228502
 11
-78.584665044337953
 21
50.308585828228502
  0
ARC
  8
0
  6
DASHED
 62
4
 10
-71.584665044337953
 20
35.808585828228502
 40
7.000000000000000
 50
180.000000000000000
 51
0.000000000000000
  0
CIRCLE
  8
0
  6
DASHED
 62
4
 10
-71.584665044337953
 20
35.808585828228502
 40
6.000000000000000
  0
LINE
  8
0
  6
DASHDOT
 62
4
 10
-197.430041208204780
 20
107.808585828228380
 11
190.256217489060870
 21
107.808585828228380
  0
LINE
  8
0
  6
CONTINUOUS
 62
3
 10
-1.584665044338237
 20
190.423697387991870
 11
42.415334955661820
 21
191.870814139303550
  0
LINE
  8
0
  6
CONTINUOUS
 62
3
 10
-1.584665044338180
 20
162.193474268465020
 11
26.287399586531137
 21
161.276789458896930
  0
LINE
  8
0
  6
CONTINUOUS
 62
3
 10
-5.084665044338180
 20
166.538889821143580
 11
-5.084665044338180
 21
166.308585828228390
  0
LINE
  8
0
  6
DASHDOT
 62
4
 10
19.415334955661820
 20
177.808585828228390
 11
-0.794472051598859
 21
177.808585828228390
  0
LINE
  8
0
  6
CONTINUOUS
 62
3
 10
382.400171592813420
 20
-95.206251825461550
 11
382.400171592813420
 21
-169.736950557997030
  0
LINE
  8
0
  6
CONTINUOUS
 62
3
 10
375.005652008449940
 20
-89.933102980927515
 11
375.005652008449940
 21
-168.933102980703550
  0
ARC
  8
0
  6
CONTINUOUS
 62
3
 10
349.500171592813330
 20
-87.433102980703552
 40
2.500000000000000
 50
0.000000000000000
 51
90.000000000000000
  0
ARC
  8
0
  6
CONTINUOUS
 62
3
 10
337.842982012125500
 20
-86.933102980703552
 40
2.000000000000000
 50
90.000000000000000
 51
176.724171040196380
  0
ARC
  8
0
  6
CONTINUOUS
 62
3
 10
302.900171592813420
 20
-84.933102980703552
 40
33.000000000000000
 50
270.000000000000000
 51
356.724171040201900
  0
LINE
  8
0
  6
CONTINUOUS
 62
3
 10
352.000171592813330
 20
-87.433102980703552
 11
352.000171592813330
 21
-161.533102980703460
  0
LINE
  8
0
  6
CONTINUOUS
 62
3
 10
337.842982012125500
 20
-84.933102980703552
 11
349.500171592813330
 21
-84.933102980703552
  0
ARC
  8
0
  6
CONTINUOUS
 62
3
 10
317.400171592813420
 20
-95.206251825461550
 40
40.124128274671314
 50
3.004087123230065
 51
84.684912337861860
  0
LINE
  8
0
  6
CONTINUOUS
 62
3
 10
357.469161246008750
 20
-93.103458926861322
 11
357.469161246008750
 21
-168.933102980703550
  0
ARC
  8
0
  6
CONTINUOUS
 62
3
 10
317.400171592813420
 20
-95.206251825461550
 40
65.000000000000000
 50
0.000000000000000
 51
87.841596534959265
  0
LINE
  8
0
  6
CONTINUOUS
 62
3
 10
357.703760145138400
 20
-89.933102980927515
 11
357.703760145138400
 21
-168.933102980703550
  0
POLYLINE
  8
0
  6
CONTINUOUS
 62
3
 66
1
  0
VERTEX
  8
0
  6
CONTINUOUS
 62
3
 10
375.005652008449940
 20
-89.933102980927515
  0
VERTEX
  8
0
  6
CONTINUOUS
 62
3
 10
374.839426508126340
 20
-87.006748150685596
  0
VERTEX
  8
0
  6
CONTINUOUS
 62
3
 10
374.347137959912740
 20
-84.192851495451166
  0
VERTEX
  8
0
  6
CONTINUOUS
 62
3
 10
373.547704736638250
 20
-81.599549485633474
  0
VERTEX
  8
0
  6
CONTINUOUS
 62
3
 10
372.471848608746140
 20
-79.326501263129302
  0
VERTEX
  8
0
  6
CONTINUOUS
 62
3
 10
371.160914123884140
 20
-77.461058796389338
  0
VERTEX
  8
0
  6
CONTINUOUS
 62
3
 10
369.665279759124990
 20
-76.074909993258217
  0
VERTEX
  8
0
  6
CONTINUOUS
 62
3
 10
368.042421904345020
 20
-75.221323774879068
  0
VERTEX
  8
0
  6
CONTINUOUS
 62
3
 10
366.354706076794170
 20
-74.933102980927515
  0
VERTEX
  8
0
  6
CONTINUOUS
 62
3
 10
364.666990249243330
 20
-75.221323774879068
  0
VERTEX
  8
0
  6
CONTINUOUS
 62
3
 10
363.044132394463360
 20
-76.074909993258217
  0
VERTEX
  8
0
  6
CONTINUOUS
 62
3
 10
361.548498029704210
 20
-77.461058796389338
  0
VERTEX
  8
0
  6
CONTINUOUS
 62
3
 10
360.237563544842200
 20
-79.326501263129302
  0
VERTEX
  8
0
  6
CONTINUOUS
 62
3
 10
359.161707416950090
 20
-81.599549485633489
  0
VERTEX
  8
0
  6
CONTINUOUS
 62
3
 10
358.362274193675600
 20
-84.192851495451166
  0
VERTEX
  8
0
  6
CONTINUOUS
 62
3
 10
357.869985645462010
 20
-87.006748150685596
  0
VERTEX
  8
0
  6
CONTINUOUS
 62
3
 10
357.703760145138400
 20
-89.933102980927515
  0
SEQEND
  8
0
  6
CONTINUOUS
 62
3
  0
ARC
  8
0
  6
CONTINUOUS
 62
3
 10
347.000171592813330
 20
-161.533102980703460
 40
5.000000000000000
 50
270.000000000000000
 51
0.000000000000000
  0
LINE
  8
0
  6
CONTINUOUS
 62
3
 10
347.000171592813330
 20
-166.533102980703460
 11
302.900171592813420
 21
-166.533102980703460
  0
ARC
  8
0
  6
CONTINUOUS
 62
3
 10
360.469161246008750
 20
-168.933102980703550
 40
3.000000000000000
 50
180.000000000000000
 51
270.000000000000000
  0
ARC
  8
0
  6
CONTINUOUS
 62
3
 10
385.400171592813420
 20
-169.736950557997030
 40
3.000000000000000
 50
180.000000000000000
 51
240.000000000000540
  0
LINE
  8
0
  6
CONTINUOUS
 62
3
 10
385.400171592813420
 20
-189.933102980703550
 11
357.400171592813420
 21
-189.933102980703550
  0
LINE
  8
0
  6
DASHDOT
 62
4
 10
372.900171592813420
 20
-193.513606749624610
 11
372.900171592813420
 21
-163.277785788626030
  0
LINE
  8
0
  6
CONTINUOUS
 62
3
 10
385.400171592813420
 20
-174.933102980703550
 11
385.400171592813420
 21
-189.933102980703550
  0
ARC
  8
0
  6
CONTINUOUS
 62
3
 10
382.400171592813420
 20
-174.933102980703780
 40
3.000000000000000
 50
0.000000000000000
 51
90.000000000000000
  0
LINE
  8
0
  6
CONTINUOUS
 62
3
 10
382.400171592813420
 20
-171.933102980703550
 11
302.900171592813420
 21
-171.933102980703320
  0
ARC
  8
0
  6
CONTINUOUS
 62
3
 10
355.400171592813420
 20
-189.933102980703550
 40
2.000000000000000
 50
0.000000000000000
 51
90.000000000000000
  0
ARC
  8
0
  6
CONTINUOUS
 62
3
 10
378.005652008449940
 20
-168.933102980703550
 40
3.000000000000000
 50
180.000000000000000
 51
270.000000000000000
  0
ARC
  8
0
  6
CONTINUOUS
 62
3
 10
360.703760145138400
 20
-168.933102980703550
 40
3.000000000000000
 50
180.000000000000000
 51
270.000000000000000
  0
LINE
  8
0
  6
CONTINUOUS
 62
3
 10
355.400171592813420
 20
-187.933102980703550
 11
302.900171592813420
 21
-187.933102980703550
  0
ARC
  8
0
  6
CONTINUOUS
 62
3
 10
380.200171592813380
 20
-81.975602980703570
 40
18.799999999999983
 50
100.598785266066050
 51
107.779852834772780
  0
LINE
  8
0
  6
CONTINUOUS
 62
3
 10
377.903041213394320
 20
-52.052982907923365
 11
379.027403822500790
 21
-74.540235090053045
  0
LINE
  8
0
  6
CONTINUOUS
 62
3
 10
382.996678141671280
 20
-153.925721473464140
 11
384.594681883875860
 21
-153.845821286353160
  0
LINE
  8
0
  6
CONTINUOUS
 62
3
 10
379.501044955598900
 20
-51.973082720813181
 11
380.989217665743130
 21
-81.736536923696406
  0
ARC
  8
0
  6
CONTINUOUS
 62
3
 10
380.618674057449430
 20
-54.720698317058009
 40
1.299999237060645
 50
19.463936333587132
 51
92.862405909348169
  0
ARC
  8
0
  6
CONTINUOUS
 62
3
 10
380.838399648201400
 20
-59.115210132095740
 40
1.299999237060550
 50
272.862387240019760
 51
346.260856815788600
  0
LINE
  8
0
  6
CONTINUOUS
 62
3
 10
379.575951381014190
 20
-53.471211229129835
 11
380.553755193521740
 21
-53.422321038504492
  0
LINE
  8
0
  6
CONTINUOUS
 62
3
 10
379.925514699621320
 20
-60.462477601274713
 11
380.903318512129090
 21
-60.413587410649370
  0
LINE
  8
0
  6
CONTINUOUS
 62
3
 10
379.575951381014190
 20
-53.471211229129835
 11
379.925514699621320
 21
-60.462477601274713
  0
LINE
  8
0
  6
CONTINUOUS
 62
3
 10
379.575951381014190
 20
-53.471211229129835
 11
379.925514699621320
 21
-60.462477601274713
  0
POINT
  8
0
  6
CONTINUOUS
 62
3
 10
379.750733040317750
 20
-56.966844415202218
  0
ARC
  8
0
  6
CONTINUOUS
 62
3
 10
373.358718452493350
 20
-57.286445144593472
 40
8.999999999999948
 50
346.260856815786500
 51
19.463936333592187
  0
LINE
  8
0
  6
CONTINUOUS
 62
3
 10
379.501044955598900
 20
-51.973082720813181
 11
377.903041213394320
 21
-52.052982907923365
  0
ARC
  8
0
  6
CONTINUOUS
 62
3
 10
380.200171592813380
 20
-81.975602980703570
 40
18.799999999999837
 50
5.724810452223617
 51
35.808626813495749
  0
ARC
  8
0
  6
CONTINUOUS
 62
3
 10
380.200171592813380
 20
-81.975602980703570
 40
18.799999999999933
 50
35.808626813495749
 51
85.126025186157264
  0
LINE
  8
0
  6
CONTINUOUS
 62
3
 10
402.896430944434310
 20
-119.900790013122560
 11
398.906406006778300
 21
-80.100291260005292
  0
LINE
  8
0
  6
CONTINUOUS
 62
3
 10
378.702043084496610
 20
-52.013032814368330
 11
379.983794355988950
 21
-77.648058244214553
  0
ARC
  8
0
  6
CONTINUOUS
 62
3
 10
381.967430056442250
 20
-61.250815948680042
 40
1.999999999999927
 50
182.862405226112710
 51
265.126025186159040
  0
ARC
  8
0
  6
CONTINUOUS
 62
3
 10
376.374416958726440
 20
-61.530466603565856
 40
1.999999999999958
 50
280.598785266065990
 51
2.862405226112724
  0
ARC
  8
0
  6
CONTINUOUS
 62
3
 10
382.200171592813380
 20
-121.975602980703570
 40
20.799999999999926
 50
334.359929784105190
 51
5.724810452223396
  0
ARC
  8
0
  6
CONTINUOUS
 62
3
 10
382.200171592813380
 20
-121.975602980703570
 40
20.799999999999926
 50
334.359929784105190
 51
5.724810452223396
  0
INSERT
  8
0
  2
SYM2
 10
384.344993799156780
 20
-148.852059591964010
 41
-1.000000000000000
 42
1.000000000000000
 43
1.000000000000000
 50
2.862405226113666
  0
LINE
  8
0
  6
CONTINUOUS
 62
3
 10
384.129132746389810
 20
-144.534838536634880
 11
384.594681883875860
 21
-153.845821286353160
  0
LINE
  8
0
  6
DASHDOT
 62
4
 10
410.113085908355520
 20
-84.933102980703268
 11
205.153357038989720
 21
-84.933102980703552
  0
ARC
  8
0
  6
CONTINUOUS
 62
3
 10
386.126637424145660
 20
-144.434963302747060
 40
1.999999999999995
 50
99.916536608232732
 51
182.862405226112400
  0
ARC
  8
0
  6
CONTINUOUS
 62
3
 10
382.200171592813380
 20
-121.975602980703570
 40
20.800000000000040
 50
279.916536608230560
 51
334.359929784105190
  0
LINE
  8
0
  6
CONTINUOUS
 62
3
 10
382.400171592813420
 20
-141.995590496307160
 11
382.996678141671280
 21
-153.925721473464140
  0
LINE
  8
0
  6
CONTINUOUS
 62
3
 10
382.400171592813420
 20
-125.975602980705270
 11
383.795680012773570
 21
-153.885771379908420
  0
LINE
  8
0
  6
CONTINUOUS
 62
3
 10
382.400171592813420
 20
-109.955615465104240
 11
384.594681883875860
 21
-153.845821286353160
  0
INSERT
  8
0
  2
SYM3
 10
33.915334955668186
 20
-110.933102980703550
  0
LINE
  8
0
  6
CONTINUOUS
 62
3
 10
27.915334955670005
 20
-49.933102980703552
 11
27.915334955670005
 21
-39.933102980703552
  0
LINE
  8
0
  6
CONTINUOUS
 62
3
 10
28.915334955668868
 20
-49.933102980703552
 11
27.915334955670005
 21
-49.933102980703552
  0
LINE
  8
0
  6
CONTINUOUS
 62
3
 10
33.915334955670005
 20
-39.933102980703552
 11
27.915334955670005
 21
-39.933102980703552
  0
LINE
  8
0
  6
CONTINUOUS
 62
3
 10
28.915334955670005
 20
-39.933102980703552
 11
28.915334955670005
 21
-31.933102980703779
  0
LINE
  8
0
  6
CONTINUOUS
 62
4
 10
-59.084665044330677
 20
-130.933102980703840
 11
14.415334955669096
 21
-130.933102980703840
  0
LINE
  8
0
  6
CONTINUOUS
 62
4
 10
-59.084665044330677
 20
-133.771342660699990
 11
14.415334955669096
 21
-133.771342660699990
  0
LINE
  8
0
  6
CONTINUOUS
 62
4
 10
-59.084665044330677
 20
-135.117744386198580
 11
14.415334955669096
 21
-135.117744386198580
  0
LINE
  8
0
  6
CONTINUOUS
 62
4
 10
-59.084665044330677
 20
-138.210475377863820
 11
14.415334955669096
 21
-138.210475377863820
  0
LINE
  8
0
  6
CONTINUOUS
 62
4
 10
-59.084665044330677
 20
-139.689498531340920
 11
14.415334955669096
 21
-139.689498531340920
  0
LINE
  8
0
  6
CONTINUOUS
 62
3
 10
14.415334955669096
 20
-163.433102980703840
 11
-126.084665044351820
 21
-163.433102980703840
  0
LINE
  8
0
  6
CONTINUOUS
 62
4
 10
-126.084665044351820
 20
-161.433102980703840
 11
14.415334955669096
 21
-161.433102980703840
  0
LINE
  8
0
  6
CONTINUOUS
 62
4
 10
-126.084665044351820
 20
-161.933102980703840
 11
14.415334955669096
 21
-161.933102980703840
  0
LINE
  8
0
  6
CONTINUOUS
 62
4
 10
-126.084665044351820
 20
-157.066185575586530
 11
14.415334955669096
 21
-157.066185575586530
  0
LINE
  8
0
  6
CONTINUOUS
 62
4
 10
-126.084665044351820
 20
-155.437758507808720
 11
14.415334955669096
 21
-155.437758507808720
  0
LINE
  8
0
  6
CONTINUOUS
 62
4
 10
-126.084665044351820
 20
-151.975016751043480
 11
14.415334955669096
 21
-151.975016751043480
  0
LINE
  8
0
  6
CONTINUOUS
 62
4
 10
-126.242265390723100
 20
-150.973538387228190
 11
14.415334955669096
 21
-150.973538387228190
  0
LINE
  8
0
  6
CONTINUOUS
 62
4
 10
-136.084665044351820
 20
-144.236703932212490
 11
14.415334955669096
 21
-144.236703932212490
  0
LINE
  8
0
  6
CONTINUOUS
 62
4
 10
-136.084665044351820
 20
-142.647494139473850
 11
14.415334955669096
 21
-142.647494139473850
  0
LINE
  8
0
  6
CONTINUOUS
 62
3
 10
14.415334955669096
 20
-58.433102980703836
 11
-126.084665044351820
 21
-58.433102980703836
  0
LINE
  8
0
  6
CONTINUOUS
 62
4
 10
-126.084665044351820
 20
-60.433102980703836
 11
14.415334955669096
 21
-60.433102980703836
  0
LINE
  8
0
  6
CONTINUOUS
 62
4
 10
-126.084665044351820
 20
-59.933102980703723
 11
14.415334955669096
 21
-59.933102980703723
  0
LINE
  8
0
  6
CONTINUOUS
 62
4
 10
-126.084665044351820
 20
-64.800020385821142
 11
14.415334955669096
 21
-64.800020385821142
  0
LINE
  8
0
  6
CONTINUOUS
 62
4
 10
-126.084665044351820
 20
-69.891189210364075
 11
14.415334955669096
 21
-69.891189210364075
  0
LINE
  8
0
  6
CONTINUOUS
 62
4
 10
-136.084665044351820
 20
-77.629502029195066
 11
14.415334955669096
 21
-77.629502029195066
  0
LINE
  8
0
  6
CONTINUOUS
 62
4
 10
-136.084665044351820
 20
-79.218711821933823
 11
14.415334955669096
 21
-79.218711821933823
  0
LINE
  8
0
  6
CONTINUOUS
 62
4
 10
-126.084665044351820
 20
-66.428447453598949
 11
14.415334955669096
 21
-66.428447453598949
  0
LINE
  8
0
  6
CONTINUOUS
 62
4
 10
-126.242265390723100
 20
-70.892667574179370
 11
14.415334955669096
 21
-70.892667574179370
  0
LINE
  8
0
  6
CONTINUOUS
 62
4
 10
-59.084665044330677
 20
-90.933102980703836
 11
14.415334955669096
 21
-90.933102980703836
  0
LINE
  8
0
  6
CONTINUOUS
 62
4
 10
-59.084665044330677
 20
-88.094863300707686
 11
14.415334955669096
 21
-88.094863300707686
  0
LINE
  8
0
  6
CONTINUOUS
 62
4
 10
-59.084665044330677
 20
-86.748461575209092
 11
14.415334955669096
 21
-86.748461575209092
  0
LINE
  8
0
  6
CONTINUOUS
 62
4
 10
-59.084665044330677
 20
-83.655730583543857
 11
14.415334955669096
 21
-83.655730583543857
  0
LINE
  8
0
  6
CONTINUOUS
 62
4
 10
-59.084665044330677
 20
-82.176707430066756
 11
14.415334955669096
 21
-82.176707430066756
  0
ARC
  8
0
  6
CONTINUOUS
 62
3
 10
-61.084665044330677
 20
-81.933102980703836
 40
1.000000000000000
 50
0.000000000000000
 51
90.000000000000000
  0
ARC
  8
0
  6
CONTINUOUS
 62
3
 10
-132.084665044330680
 20
-81.933102980703836
 40
1.000000000000000
 50
90.000000000000000
 51
180.000000000000000
  0
LINE
  8
0
  6
CONTINUOUS
 62
3
 10
-60.084665044330677
 20
-81.933102980703836
 11
-60.084665044330677
 21
-110.933102980703830
  0
LINE
  8
0
  6
CONTINUOUS
 62
3
 10
-133.084665044330680
 20
-110.933102980703830
 11
-133.084665044330680
 21
-81.933102980703836
  0
LINE
  8
0
  6
CONTINUOUS
 62
3
 10
-61.084665044330677
 20
-80.933102980703836
 11
-132.084665044330680
 21
-80.933102980703836
  0
LINE
  8
0
  6
CONTINUOUS
 62
4
 10
-136.084665044351820
 20
-88.094863300707686
 11
-134.084665044330680
 21
-88.094863300707686
  0
LINE
  8
0
  6
CONTINUOUS
 62
4
 10
-136.084665044351820
 20
-86.748461575209092
 11
-134.084665044330680
 21
-86.748461575209092
  0
LINE
  8
0
  6
CONTINUOUS
 62
4
 10
-136.084665044351820
 20
-83.655730583543857
 11
-134.084665044330680
 21
-83.655730583543857
  0
LINE
  8
0
  6
CONTINUOUS
 62
4
 10
-136.084665044351820
 20
-82.176707430066756
 11
-134.084665044330680
 21
-82.176707430066756
  0
LINE
  8
0
  6
CONTINUOUS
 62
4
 10
-136.084665044351820
 20
-90.933102980703836
 11
-134.084665044330680
 21
-90.933102980703836
  0
ARC
  8
0
  6
CONTINUOUS
 62
3
 10
-132.084665044330680
 20
-81.433102980703836
 40
2.000000000000000
 50
90.000000000000000
 51
180.000000000000000
  0
ARC
  8
0
  6
CONTINUOUS
 62
3
 10
-61.084665044330677
 20
-81.433102980703836
 40
2.000000000000000
 50
0.000000000000000
 51
90.000000000000000
  0
LINE
  8
0
  6
CONTINUOUS
 62
3
 10
-61.084665044330677
 20
-79.433102980703836
 11
-132.084665044330680
 21
-79.433102980703836
  0
LINE
  8
0
  6
CONTINUOUS
 62
3
 10
-59.084665044330677
 20
-110.933102980703830
 11
-59.084665044330677
 21
-81.433102980703836
  0
LINE
  8
0
  6
CONTINUOUS
 62
3
 10
-134.084665044330680
 20
-110.933102980703830
 11
-134.084665044330680
 21
-81.433102980703836
  0
LINE
  8
0
  6
CONTINUOUS
 62
3
 10
-126.084665044351820
 20
-56.933102980703609
 11
-155.589509993444840
 21
-56.933102980703609
  0
LINE
  8
0
  6
CONTINUOUS
 62
3
 10
-167.405184582276210
 20
-60.658570868350296
 11
-174.975963778864980
 21
-65.959687531922839
  0
LINE
  8
0
  6
CONTINUOUS
 62
3
 10
-176.084665044352050
 20
-68.089482847074294
 11
-176.084665044352050
 21
-110.933102980703830
  0
ARC
  8
0
  6
CONTINUOUS
 62
3
 10
-173.484665044352140
 20
-68.089482847074294
 40
2.600000000000131
 50
125.000000000001180
 51
180.000000000000000
  0
ARC
  8
0
  6
CONTINUOUS
 62
3
 10
-155.589509993444840
 20
-77.533102980703632
 40
20.600000000000023
 50
90.000000000000000
 51
124.999999999999600
  0
LINE
  8
0
  6
CONTINUOUS
 62
3
 10
-137.084665044352050
 20
-61.789181957978656
 11
-139.084665044351820
 21
-63.441823597102086
  0
LINE
  8
0
  6
CONTINUOUS
 62
3
 10
-135.084665044351820
 20
-60.613396472355873
 11
-137.084665044352050
 21
-61.789181957978656
  0
LINE
  8
0
  6
CONTINUOUS
 62
3
 10
-137.084665044352050
 20
-61.789181957978656
 11
-135.084665044351820
 21
-63.441823597102086
  0
LINE
  8
0
  6
CONTINUOUS
 62
3
 10
-139.084665044351820
 20
-60.613396472355873
 11
-137.084665044352050
 21
-61.789181957978656
  0
POLYLINE
  8
0
  6
CONTINUOUS
 62
3
 66
1
 70
1
  0
VERTEX
  8
0
  6
CONTINUOUS
 62
3
 10
-132.384665044351610
 20
-63.605772026356192
  0
VERTEX
  8
0
  6
CONTINUOUS
 62
3
 10
-132.474974226456420
 20
-62.902815060155831
  0
VERTEX
  8
0
  6
CONTINUOUS
 62
3
 10
-132.742431241548560
 20
-62.226872335943739
  0
VERTEX
  8
0
  6
CONTINUOUS
 62
3
 10
-133.176757866529640
 20
-61.603919953538337
  0
VERTEX
  8
0
  6
CONTINUOUS
 62
3
 10
-133.761263172774820
 20
-61.057897623639754
  0
VERTEX
  8
0
  6
CONTINUOUS
 62
3
 10
-134.473484949159480
 20
-60.609788678173139
  0
VERTEX
  8
0
  6
CONTINUOUS
 62
3
 10
-135.286052912235680
 20
-60.276813692610382
  0
VERTEX
  8
0
  6
CONTINUOUS
 62
3
 10
-136.167740530875790
 20
-60.071768708912131
  0
VERTEX
  8
0
  6
CONTINUOUS
 62
3
 10
-137.084665044351600
 20
-60.002533490811359
  0
VERTEX
  8
0
  6
CONTINUOUS
 62
3
 10
-138.001589557827400
 20
-60.071768708912131
  0
VERTEX
  8
0
  6
CONTINUOUS
 62
3
 10
-138.883277176467520
 20
-60.276813692610382
  0
VERTEX
  8
0
  6
CONTINUOUS
 62
3
 10
-139.695845139543710
 20
-60.609788678173139
  0
VERTEX
  8
0
  6
CONTINUOUS
 62
3
 10
-140.408066915928370
 20
-61.057897623639754
  0
VERTEX
  8
0
  6
CONTINUOUS
 62
3
 10
-140.992572222173550
 20
-61.603919953538337
  0
VERTEX
  8
0
  6
CONTINUOUS
 62
3
 10
-141.426898847154630
 20
-62.226872335943739
  0
VERTEX
  8
0
  6
CONTINUOUS
 62
3
 10
-141.694355862246770
 20
-62.902815060155831
  0
VERTEX
  8
0
  6
CONTINUOUS
 62
3
 10
-141.784665044351580
 20
-63.605772026356192
  0
VERTEX
  8
0
  6
CONTINUOUS
 62
3
 10
-141.694355862246770
 20
-64.308728992556553
  0
VERTEX
  8
0
  6
CONTINUOUS
 62
3
 10
-141.426898847154630
 20
-64.984671716768645
  0
VERTEX
  8
0
  6
CONTINUOUS
 62
3
 10
-140.992572222173550
 20
-65.607624099174046
  0
VERTEX
  8
0
  6
CONTINUOUS
 62
3
 10
-140.408066915928340
 20
-66.153646429072623
  0
VERTEX
  8
0
  6
CONTINUOUS
 62
3
 10
-139.695845139543710
 20
-66.601755374539238
  0
VERTEX
  8
0
  6
CONTINUOUS
 62
3
 10
-138.883277176467520
 20
-66.934730360102009
  0
VERTEX
  8
0
  6
CONTINUOUS
 62
3
 10
-138.001589557827400
 20
-67.139775343800252
  0
VERTEX
  8
0
  6
CONTINUOUS
 62
3
 10
-137.084665044351600
 20
-67.209010561901025
  0
VERTEX
  8
0
  6
CONTINUOUS
 62
3
 10
-136.167740530875790
 20
-67.139775343800252
  0
VERTEX
  8
0
  6
CONTINUOUS
 62
3
 10
-135.286052912235680
 20
-66.934730360102009
  0
VERTEX
  8
0
  6
CONTINUOUS
 62
3
 10
-134.473484949159480
 20
-66.601755374539238
  0
VERTEX
  8
0
  6
CONTINUOUS
 62
3
 10
-133.761263172774850
 20
-66.153646429072623
  0
VERTEX
  8
0
  6
CONTINUOUS
 62
3
 10
-133.176757866529640
 20
-65.607624099174046
  0
VERTEX
  8
0
  6
CONTINUOUS
 62
3
 10
-132.742431241548560
 20
-64.984671716768645
  0
VERTEX
  8
0
  6
CONTINUOUS
 62
3
 10
-132.474974226456420
 20
-64.308728992556553
  0
SEQEND
  8
0
  6
CONTINUOUS
 62
3
  0
ARC
  8
0
  6
CONTINUOUS
 62
3
 10
-129.084665044351820
 20
-69.933102980703836
 40
3.000000000000000
 50
270.000000000000000
 51
0.000000000000000
  0
LINE
  8
0
  6
CONTINUOUS
 62
3
 10
-126.084665044351820
 20
-56.933102980703609
 11
-126.084665044351820
 21
-69.933102980703836
  0
ARC
  8
0
  6
CONTINUOUS
 62
3
 10
-133.084665044351820
 20
-75.933102980703836
 40
3.000000000000000
 50
90.000000000000000
 51
180.000000000000000
  0
LINE
  8
0
  6
CONTINUOUS
 62
3
 10
-129.084665044351820
 20
-72.933102980703836
 11
-133.084665044351820
 21
-72.933102980703836
  0
LINE
  8
0
  6
CONTINUOUS
 62
3
 10
-136.084665044351820
 20
-110.933102980703830
 11
-136.084665044351820
 21
-75.933102980703836
  0
LINE
  8
0
  6
CONTINUOUS
 62
3
 10
-60.084665044330677
 20
-139.933102980703840
 11
-60.084665044330677
 21
-110.933102980703830
  0
LINE
  8
0
  6
CONTINUOUS
 62
3
 10
-133.084665044330680
 20
-110.933102980703830
 11
-133.084665044330680
 21
-139.933102980703840
  0
LINE
  8
0
  6
CONTINUOUS
 62
3
 10
-167.405184582276210
 20
-161.207635093057260
 11
-174.975963778864980
 21
-155.906518429484720
  0
LINE
  8
0
  6
CONTINUOUS
 62
3
 10
-176.084665044352050
 20
-153.776723114333380
 11
-176.084665044352050
 21
-110.933102980703830
  0
ARC
  8
0
  6
CONTINUOUS
 62
3
 10
-173.484665044352140
 20
-153.776723114333380
 40
2.599999999999909
 50
180.000000000000000
 51
234.999999999997390
  0
ARC
  8
0
  6
CONTINUOUS
 62
3
 10
-155.589509993444840
 20
-144.333102980704040
 40
20.599999999999891
 50
235.000000000000400
 51
270.000000000000000
  0
LINE
  8
0
  6
CONTINUOUS
 62
3
 10
-126.084665044351820
 20
-164.933102980704060
 11
-155.589509993444840
 21
-164.933102980704060
  0
LINE
  8
0
  6
CONTINUOUS
 62
4
 10
-136.084665044351820
 20
-130.933102980703840
 11
-134.084665044330680
 21
-130.933102980703840
  0
LINE
  8
0
  6
CONTINUOUS
 62
4
 10
-136.084665044351820
 20
-133.771342660699990
 11
-134.084665044330680
 21
-133.771342660699990
  0
LINE
  8
0
  6
CONTINUOUS
 62
4
 10
-136.084665044351820
 20
-135.117744386198580
 11
-134.084665044330680
 21
-135.117744386198580
  0
LINE
  8
0
  6
CONTINUOUS
 62
4
 10
-136.084665044351820
 20
-138.210475377863820
 11
-134.084665044330680
 21
-138.210475377863820
  0
LINE
  8
0
  6
CONTINUOUS
 62
4
 10
-136.084665044351820
 20
-139.689498531340920
 11
-134.084665044330680
 21
-139.689498531340920
  0
LINE
  8
0
  6
CONTINUOUS
 62
3
 10
-137.084665044352050
 20
-160.077024003428900
 11
-139.084665044351820
 21
-158.424382364305590
  0
LINE
  8
0
  6
CONTINUOUS
 62
3
 10
-135.084665044351820
 20
-161.252809489051800
 11
-137.084665044352050
 21
-160.077024003428900
  0
LINE
  8
0
  6
CONTINUOUS
 62
3
 10
-137.084665044352050
 20
-160.077024003428900
 11
-135.084665044351820
 21
-158.424382364305590
  0
LINE
  8
0
  6
CONTINUOUS
 62
3
 10
-139.084665044351820
 20
-161.252809489051800
 11
-137.084665044352050
 21
-160.077024003428900
  0
POLYLINE
  8
0
  6
CONTINUOUS
 62
3
 66
1
 70
1
  0
VERTEX
  8
0
  6
CONTINUOUS
 62
3
 10
-132.384665044351610
 20
-158.260433935051370
  0
VERTEX
  8
0
  6
CONTINUOUS
 62
3
 10
-132.474974226456420
 20
-157.557476968851010
  0
VERTEX
  8
0
  6
CONTINUOUS
 62
3
 10
-132.742431241548560
 20
-156.881534244638910
  0
VERTEX
  8
0
  6
CONTINUOUS
 62
3
 10
-133.176757866529640
 20
-156.258581862233510
  0
VERTEX
  8
0
  6
CONTINUOUS
 62
3
 10
-133.761263172774820
 20
-155.712559532334920
  0
VERTEX
  8
0
  6
CONTINUOUS
 62
3
 10
-134.473484949159480
 20
-155.264450586868290
  0
VERTEX
  8
0
  6
CONTINUOUS
 62
3
 10
-135.286052912235680
 20
-154.931475601305550
  0
VERTEX
  8
0
  6
CONTINUOUS
 62
3
 10
-136.167740530875790
 20
-154.726430617607290
  0
VERTEX
  8
0
  6
CONTINUOUS
 62
3
 10
-137.084665044351600
 20
-154.657195399506520
  0
VERTEX
  8
0
  6
CONTINUOUS
 62
3
 10
-138.001589557827400
 20
-154.726430617607290
  0
VERTEX
  8
0
  6
CONTINUOUS
 62
3
 10
-138.883277176467520
 20
-154.931475601305550
  0
VERTEX
  8
0
  6
CONTINUOUS
 62
3
 10
-139.695845139543710
 20
-155.264450586868290
  0
VERTEX
  8
0
  6
CONTINUOUS
 62
3
 10
-140.408066915928370
 20
-155.712559532334920
  0
VERTEX
  8
0
  6
CONTINUOUS
 62
3
 10
-140.992572222173550
 20
-156.258581862233510
  0
VERTEX
  8
0
  6
CONTINUOUS
 62
3
 10
-141.426898847154630
 20
-156.881534244638910
  0
VERTEX
  8
0
  6
CONTINUOUS
 62
3
 10
-141.694355862246770
 20
-157.557476968851010
  0
VERTEX
  8
0
  6
CONTINUOUS
 62
3
 10
-141.784665044351580
 20
-158.260433935051370
  0
VERTEX
  8
0
  6
CONTINUOUS
 62
3
 10
-141.694355862246770
 20
-158.963390901251730
  0
VERTEX
  8
0
  6
CONTINUOUS
 62
3
 10
-141.426898847154630
 20
-159.639333625463820
  0
VERTEX
  8
0
  6
CONTINUOUS
 62
3
 10
-140.992572222173550
 20
-160.262286007869220
  0
VERTEX
  8
0
  6
CONTINUOUS
 62
3
 10
-140.408066915928340
 20
-160.808308337767810
  0
VERTEX
  8
0
  6
CONTINUOUS
 62
3
 10
-139.695845139543710
 20
-161.256417283234440
  0
VERTEX
  8
0
  6
CONTINUOUS
 62
3
 10
-138.883277176467520
 20
-161.589392268797180
  0
VERTEX
  8
0
  6
CONTINUOUS
 62
3
 10
-138.001589557827400
 20
-161.794437252495440
  0
VERTEX
  8
0
  6
CONTINUOUS
 62
3
 10
-137.084665044351600
 20
-161.863672470596210
  0
VERTEX
  8
0
  6
CONTINUOUS
 62
3
 10
-136.167740530875790
 20
-161.794437252495440
  0
VERTEX
  8
0
  6
CONTINUOUS
 62
3
 10
-135.286052912235680
 20
-161.589392268797180
  0
VERTEX
  8
0
  6
CONTINUOUS
 62
3
 10
-134.473484949159480
 20
-161.256417283234440
  0
VERTEX
  8
0
  6
CONTINUOUS
 62
3
 10
-133.761263172774850
 20
-160.808308337767810
  0
VERTEX
  8
0
  6
CONTINUOUS
 62
3
 10
-133.176757866529640
 20
-160.262286007869220
  0
VERTEX
  8
0
  6
CONTINUOUS
 62
3
 10
-132.742431241548560
 20
-159.639333625463820
  0
VERTEX
  8
0
  6
CONTINUOUS
 62
3
 10
-132.474974226456420
 20
-158.963390901251730
  0
SEQEND
  8
0
  6
CONTINUOUS
 62
3
  0
ARC
  8
0
  6
CONTINUOUS
 62
3
 10
-129.084665044351820
 20
-151.933102980703840
 40
3.000000000000000
 50
0.000000000000000
 51
90.000000000000000
  0
LINE
  8
0
  6
CONTINUOUS
 62
3
 10
-126.084665044351820
 20
-164.933102980704060
 11
-126.084665044351820
 21
-151.933102980703840
  0
ARC
  8
0
  6
CONTINUOUS
 62
3
 10
-133.084665044351820
 20
-145.933102980703840
 40
3.000000000000000
 50
180.000000000000000
 51
270.000000000000000
  0
LINE
  8
0
  6
CONTINUOUS
 62
3
 10
-129.084665044351820
 20
-148.933102980703840
 11
-133.084665044351820
 21
-148.933102980703840
  0
LINE
  8
0
  6
CONTINUOUS
 62
3
 10
-136.084665044351820
 20
-110.933102980703830
 11
-136.084665044351820
 21
-145.933102980703840
  0
ARC
  8
0
  6
CONTINUOUS
 62
3
 10
-61.084665044330677
 20
-139.933102980703840
 40
1.000000000000000
 50
270.000000000000000
 51
0.000000000000000
  0
ARC
  8
0
  6
CONTINUOUS
 62
3
 10
-132.084665044330680
 20
-139.933102980703840
 40
1.000000000000000
 50
180.000000000000000
 51
270.000000000000000
  0
LINE
  8
0
  6
CONTINUOUS
 62
3
 10
-61.084665044330677
 20
-140.933102980703840
 11
-132.084665044330680
 21
-140.933102980703840
  0
ARC
  8
0
  6
CONTINUOUS
 62
3
 10
-132.084665044330680
 20
-140.433102980703840
 40
2.000000000000000
 50
180.000000000000000
 51
270.000000000000000
  0
ARC
  8
0
  6
CONTINUOUS
 62
3
 10
-61.084665044330677
 20
-140.433102980703840
 40
2.000000000000000
 50
270.000000000000000
 51
0.000000000000000
  0
LINE
  8
0
  6
CONTINUOUS
 62
3
 10
-61.084665044330677
 20
-142.433102980703840
 11
-132.084665044330680
 21
-142.433102980703840
  0
LINE
  8
0
  6
CONTINUOUS
 62
3
 10
-59.084665044330677
 20
-110.933102980703830
 11
-59.084665044330677
 21
-140.433102980703840
  0
LINE
  8
0
  6
CONTINUOUS
 62
3
 10
-134.084665044330680
 20
-110.933102980703830
 11
-134.084665044330680
 21
-140.433102980703840
  0
LINE
  8
0
  6
DASHDOT
 62
4
 10
56.658855718433642
 20
-110.933102980703830
 11
-194.563376143097680
 21
-110.933102980703830
  0
POLYLINE
  8
0
  6
CONTINUOUS
 62
3
 66
1
  0
VERTEX
  8
0
  6
CONTINUOUS
 62
3
 10
248.096583040488440
 20
-89.933102980927515
  0
VERTEX
  8
0
  6
CONTINUOUS
 62
3
 10
247.930357540164860
 20
-87.006748150685596
  0
VERTEX
  8
0
  6
CONTINUOUS
 62
3
 10
247.438068991951210
 20
-84.192851495451166
  0
VERTEX
  8
0
  6
CONTINUOUS
 62
3
 10
246.638635768676780
 20
-81.599549485633474
  0
VERTEX
  8
0
  6
CONTINUOUS
 62
3
 10
245.562779640784640
 20
-79.326501263129302
  0
VERTEX
  8
0
  6
CONTINUOUS
 62
3
 10
244.251845155922640
 20
-77.461058796389338
  0
VERTEX
  8
0
  6
CONTINUOUS
 62
3
 10
242.756210791163510
 20
-76.074909993258217
  0
VERTEX
  8
0
  6
CONTINUOUS
 62
3
 10
241.133352936383520
 20
-75.221323774879068
  0
VERTEX
  8
0
  6
CONTINUOUS
 62
3
 10
239.445637108832670
 20
-74.933102980927515
  0
VERTEX
  8
0
  6
CONTINUOUS
 62
3
 10
237.757921281281820
 20
-75.221323774879068
  0
VERTEX
  8
0
  6
CONTINUOUS
 62
3
 10
236.135063426501830
 20
-76.074909993258217
  0
VERTEX
  8
0
  6
CONTINUOUS
 62
3
 10
234.639429061742700
 20
-77.461058796389338
  0
VERTEX
  8
0
  6
CONTINUOUS
 62
3
 10
233.328494576880700
 20
-79.326501263129302
  0
VERTEX
  8
0
  6
CONTINUOUS
 62
3
 10
232.252638448988560
 20
-81.599549485633489
  0
VERTEX
  8
0
  6
CONTINUOUS
 62
3
 10
231.453205225714130
 20
-84.192851495451166
  0
VERTEX
  8
0
  6
CONTINUOUS
 62
3
 10
230.960916677500480
 20
-87.006748150685596
  0
VERTEX
  8
0
  6
CONTINUOUS
 62
3
 10
230.794691177176900
 20
-89.933102980927515
  0
SEQEND
  8
0
  6
CONTINUOUS
 62
3
  0
POLYLINE
  8
0
  6
CONTINUOUS
 62
3
 66
1
  0
VERTEX
  8
0
  6
CONTINUOUS
 62
3
 10
127.667739256798080
 20
-89.933102980927515
  0
VERTEX
  8
0
  6
CONTINUOUS
 62
3
 10
127.461267621567540
 20
-87.176860213678935
  0
VERTEX
  8
0
  6
CONTINUOUS
 62
3
 10
126.848883859778160
 20
-84.514477988120177
  0
VERTEX
  8
0
  6
CONTINUOUS
 62
3
 10
125.851441965964350
 20
-82.036620537767106
  0
VERTEX
  8
0
  6
CONTINUOUS
 62
3
 10
124.502908627520220
 20
-79.827668326229059
  0
VERTEX
  8
0
  6
CONTINUOUS
 62
3
 10
122.849206529899030
 20
-77.962844571723792
  0
VERTEX
  8
0
  6
CONTINUOUS
 62
3
 10
120.946650514638220
 20
-76.505653610601414
  0
VERTEX
  8
0
  6
CONTINUOUS
 62
3
 10
118.860029844973050
 20
-75.505718333335039
  0
VERTEX
  8
0
  6
CONTINUOUS
 62
3
 10
116.660401885183330
 20
-74.997090336501770
  0
VERTEX
  8
0
  6
CONTINUOUS
 62
3
 10
114.422672327276750
 20
-74.997090336501756
  0
VERTEX
  8
0
  6
CONTINUOUS
 62
3
 10
112.223044367487030
 20
-75.505718333334968
  0
VERTEX
  8
0
  6
CONTINUOUS
 62
3
 10
110.136423697821840
 20
-76.505653610601314
  0
VERTEX
  8
0
  6
CONTINUOUS
 62
3
 10
108.233867682561010
 20
-77.962844571723650
  0
VERTEX
  8
0
  6
CONTINUOUS
 62
3
 10
106.580165584939790
 20
-79.827668326228874
  0
VERTEX
  8
0
  6
CONTINUOUS
 62
3
 10
105.231632246495630
 20
-82.036620537766908
  0
VERTEX
  8
0
  6
CONTINUOUS
 62
3
 10
104.234190352681790
 20
-84.514477988119964
  0
VERTEX
  8
0
  6
CONTINUOUS
 62
3
 10
103.621806590892390
 20
-87.176860213678708
  0
VERTEX
  8
0
  6
CONTINUOUS
 62
3
 10
103.415334955661800
 20
-89.933102980927288
  0
SEQEND
  8
0
  6
CONTINUOUS
 62
3
  0
ARC
  8
0
  6
CONTINUOUS
 62
3
 10
302.900171592813420
 20
-84.933102980703552
 40
22.499999999999766
 50
20.020867282224401
 51
83.014856772411676
  0
ARC
  8
0
  6
CONTINUOUS
 62
3
 10
302.900171592813420
 20
-479.933102980927520
 40
425.068989653195560
 50
90.000000000000000
 51
92.456227365373124
  0
ARC
  8
0
  6
CONTINUOUS
 62
3
 10
302.900171592813420
 20
-84.933102980703552
 40
27.499999999999844
 50
5.488856131040139
 51
82.579132733585610
  0
ARC
  8
0
  6
CONTINUOUS
 62
3
 10
302.900171592813420
 20
-479.933102980927520
 40
425.068989653195440
 50
87.543772634626876
 51
90.000000000000000
  0
CIRCLE
  8
0
  6
CONTINUOUS
 62
3
 10
302.900171592813420
 20
-84.933102980703438
 40
3.323500000000024
  0
CIRCLE
  8
0
  6
CONTINUOUS
 62
4
 10
302.900171592813420
 20
-84.933102980703438
 40
4.000000000000000
  0
ARC
  8
0
  6
CONTINUOUS
 62
3
 10
302.900171592813420
 20
-84.933102980703552
 40
13.999999999999572
 50
196.601549599020760
 51
163.398450400979240
  0
ARC
  8
0
  6
CONTINUOUS
 62
3
 10
302.900171592813420
 20
-479.933102980927520
 40
450.000000000000000
 50
90.000000000000000
 51
92.158403465040607
  0
ARC
  8
0
  6
CONTINUOUS
 62
3
 10
302.900171592813420
 20
-479.933102980927520
 40
450.000000000000060
 50
87.841596534959393
 51
90.000000000000000
  0
ARC
  8
0
  6
CONTINUOUS
 62
3
 10
221.961402458831800
 20
-135.933102980703500
 40
4.999999999999893
 50
184.861405395798610
 51
270.000000000000000
  0
ARC
  8
0
  6
CONTINUOUS
 62
3
 10
221.961402458831800
 20
-85.933102980703495
 40
5.000000000000000
 50
90.000000000000000
 51
175.138594604201390
  0
ARC
  8
0
  6
CONTINUOUS
 62
3
 10
515.900171592813420
 20
-110.933102980703550
 40
300.000000000000170
 50
175.138594604201960
 51
184.861405395798040
  0
ARC
  8
0
  6
CONTINUOUS
 62
3
 10
302.900171592813420
 20
-84.933102980703552
 40
33.000000000000227
 50
183.275828959798100
 51
270.000000000000000
  0
ARC
  8
0
  6
CONTINUOUS
 62
3
 10
267.957361173501340
 20
-86.933102980703552
 40
1.999999999999555
 50
3.275828959803601
 51
90.000000000000000
  0
ARC
  8
0
  6
CONTINUOUS
 62
3
 10
256.300171592813510
 20
-87.433102980703552
 40
2.500000000000000
 50
90.000000000000000
 51
180.000000000000000
  0
ARC
  8
0
  6
CONTINUOUS
 62
3
 10
302.900171592813420
 20
-84.933102980703552
 40
22.500000000000068
 50
80.734831689035929
 51
22.461281280571555
  0
ARC
  8
0
  6
CONTINUOUS
 62
3
 10
288.400171592813420
 20
-95.206251825461550
 40
40.124128274671627
 50
95.315087662138140
 51
176.995912876769920
  0
ARC
  8
0
  6
CONTINUOUS
 62
3
 10
288.400171592813420
 20
-95.206251825461550
 40
64.999999999999972
 50
92.158403465040735
 51
180.000000000000000
  0
ARC
  8
0
  6
CONTINUOUS
 62
3
 10
302.900171592813420
 20
-84.933102980703552
 40
27.500000000000028
 50
80.268362606910685
 51
8.578456121525797
  0
ARC
  8
0
  6
CONTINUOUS
 62
3
 10
258.800171592813510
 20
-161.533102980703460
 40
5.000000000000000
 50
180.000000000000000
 51
270.000000000000000
  0
ARC
  8
0
  6
CONTINUOUS
 62
3
 10
245.331181939618090
 20
-168.933102980703550
 40
3.000000000000000
 50
270.000000000000000
 51
0.000000000000000
  0
ARC
  8
0
  6
CONTINUOUS
 62
3
 10
220.400171592813420
 20
-169.736950557997030
 40
3.000000000000049
 50
299.999999999999430
 51
0.000000000000000
  0
ARC
  8
0
  6
CONTINUOUS
 62
3
 10
250.400171592813420
 20
-189.933102980703550
 40
2.000000000000000
 50
90.000000000000000
 51
180.000000000000000
  0
ARC
  8
0
  6
CONTINUOUS
 62
3
 10
223.400171592813420
 20
-174.933102980703550
 40
3.000000000000000
 50
90.000000000000000
 51
180.000000000000000
  0
ARC
  8
0
  6
CONTINUOUS
 62
3
 10
227.794691177176900
 20
-168.933102980703550
 40
3.000000000000000
 50
270.000000000000000
 51
0.000000000000000
  0
ARC
  8
0
  6
CONTINUOUS
 62
3
 10
245.096583040488440
 20
-168.933102980703550
 40
3.000000000000000
 50
270.000000000000000
 51
0.000000000000000
  0
ARC
  8
0
  6
CONTINUOUS
 62
3
 10
134.315334955661460
 20
-99.183102980703552
 40
0.399999999999977
 50
90.000000000000000
 51
180.000000000000000
  0
ARC
  8
0
  6
CONTINUOUS
 62
3
 10
134.315334955661460
 20
-70.683102980703552
 40
0.399999999999636
 50
180.000000000000000
 51
270.000000000000000
  0
ARC
  8
0
  6
CONTINUOUS
 62
3
 10
175.515334955661730
 20
-71.333102980703529
 40
0.400000000000091
 50
0.000000000000000
 51
90.000000000000000
  0
ARC
  8
0
  6
CONTINUOUS
 62
3
 10
175.515334955661730
 20
-98.533102980703575
 40
0.399999999999977
 50
270.000000000000000
 51
0.000000000000000
  0
ARC
  8
0
  6
CONTINUOUS
 62
3
 10
143.915334955662270
 20
-84.933102980703893
 40
4.000000000000000
 50
90.000000000000000
 51
270.000000000000000
  0
ARC
  8
0
  6
CONTINUOUS
 62
3
 10
130.915334955661820
 20
-111.433102980703550
 40
1.000000000000000
 50
270.000000000000000
 51
0.000000000000000
  0
ARC
  8
0
  6
CONTINUOUS
 62
3
 10
130.915334955661820
 20
-58.433102980703552
 40
1.000000000000000
 50
0.000000000000000
 51
90.000000000000000
  0
ARC
  8
0
  6
CONTINUOUS
 62
3
 10
130.915334955661820
 20
-113.433102980703550
 40
1.000000000000000
 50
90.000000000000000
 51
180.000000000000000
  0
ARC
  8
0
  6
CONTINUOUS
 62
3
 10
130.915334955661820
 20
-56.433102980703552
 40
1.000000000000000
 50
180.000000000000000
 51
270.000000000000000
  0
ARC
  8
0
  6
CONTINUOUS
 62
3
 10
80.780928537237287
 20
-95.647588360390728
 40
64.999999999999858
 50
41.568310778586202
 51
88.999999999999034
  0
ARC
  8
0
  6
CONTINUOUS
 62
3
 10
127.915334955661360
 20
-53.846299724957134
 40
2.000000000000455
 50
0.000000000000000
 51
41.568310778585797
  0
ARC
  8
0
  6
CONTINUOUS
 62
3
 10
106.415334955661360
 20
-168.487541840902170
 40
3.000000000000000
 50
180.000000000000000
 51
268.999999999998240
  0
ARC
  8
0
  6
CONTINUOUS
 62
3
 10
130.667739256797630
 20
-169.142808309959490
 40
3.000000000000000
 50
180.000000000000000
 51
253.018232129917120
  0
ARC
  8
0
  6
CONTINUOUS
 62
3
 10
24.784182102889190
 20
-167.949123864224020
 40
2.999999999999905
 50
271.883722866764340
 51
309.887635324183690
  0
ARC
  8
0
  6
CONTINUOUS
 62
3
 10
128.915334955661820
 20
-174.881194770050570
 40
3.000000000000000
 50
0.000000000000000
 51
89.000000000006850
  0
ARC
  8
0
  6
CONTINUOUS
 62
3
 10
130.915334955661820
 20
-171.417093154912890
 40
1.000000000000000
 50
180.000000000000000
 51
240.000000000002730
  0
ARC
  8
0
  6
CONTINUOUS
 62
3
 10
40.415334955661820
 20
-142.644212014194640
 40
2.000000000000000
 50
0.000000000000000
 51
90.000000000000000
  0
ARC
  8
0
  6
CONTINUOUS
 62
3
 10
40.415334955661820
 20
-156.188447122952080
 40
1.999999999999636
 50
309.887635324173170
 51
0.000000000000000
  0
ARC
  8
0
  6
CONTINUOUS
 62
3
 10
-2.084665044338180
 20
-174.836058022113320
 40
3.000000000000132
 50
91.883722866764231
 51
180.000000000000000
  0
ARC
  8
0
  6
CONTINUOUS
 62
3
 10
30.915334955670005
 20
-31.933102980704007
 40
2.000000000000000
 50
90.000000000000000
 51
180.000000000000000
  0
ARC
  8
0
  6
CONTINUOUS
 62
3
 10
23.915334955669096
 20
-52.875959568242479
 40
5.000000000000066
 50
273.000000000005570
 51
359.999999999997390
  0
ARC
  8
0
  6
CONTINUOUS
 62
3
 10
23.915334955668186
 20
-168.990246393165530
 40
5.000000000000000
 50
0.000000000000000
 51
87.000000000004846
  0
ARC
  8
0
  6
CONTINUOUS
 62
3
 10
14.415334955669096
 20
-149.192445402233260
 40
1.000000000000000
 50
270.000000000000000
 51
0.000000000000000
  0
ARC
  8
0
  6
CONTINUOUS
 62
3
 10
16.415334955669096
 20
-160.933102980704230
 40
1.000000000000000
 50
180.000000000000000
 51
270.000000000000000
  0
ARC
  8
0
  6
CONTINUOUS
 62
3
 10
14.415334955669096
 20
-158.591390852566520
 40
1.000000000000000
 50
0.000000000000000
 51
90.000000000000000
  0
ARC
  8
0
  6
CONTINUOUS
 62
3
 10
14.415334955669096
 20
-72.673760559174525
 40
1.000000000000000
 50
0.000000000000000
 51
90.000000000000000
  0
ARC
  8
0
  6
CONTINUOUS
 62
3
 10
16.415334955669096
 20
-60.933102980703552
 40
1.000000000000000
 50
90.000000000000000
 51
180.000000000000000
  0
ARC
  8
0
  6
CONTINUOUS
 62
3
 10
14.415334955669096
 20
-63.274815108841267
 40
1.000000000000000
 50
270.000000000000000
 51
0.000000000000000
  0
ARC
  8
0
  6
CONTINUOUS
 62
3
 10
32.915334955670005
 20
-34.523596240605229
 40
1.000000000000000
 50
0.000000000000000
 51
90.000000000000000
  0
ARC
  8
0
  6
CONTINUOUS
 62
3
 10
29.915334955670005
 20
-32.523596240605229
 40
1.000000000000000
 50
180.000000000000000
 51
270.000000000000000
  0
ARC
  8
0
  6
CONTINUOUS
 62
3
 10
32.915334955670005
 20
-43.327116001268678
 40
1.000000000000000
 50
270.000000000000000
 51
0.000000000000000
  0
ARC
  8
0
  6
CONTINUOUS
 62
3
 10
29.915334955670005
 20
-45.327116001268678
 40
1.000000000000000
 50
90.000000000000000
 51
180.000000000000000
  0
ARC
  8
0
  6
CONTINUOUS
 62
3
 10
23.915334955669096
 20
-54.668149488021299
 40
5.000000000000122
 50
271.999999999993180
 51
359.999999999997390
  0
ARC
  8
0
  6
CONTINUOUS
 62
3
 10
23.915334955669096
 20
-167.198056473386710
 40
5.000000000000000
 50
0.000000000002606
 51
88.000000000006835
  0
ARC
  8
0
  6
CONTINUOUS
 62
3
 10
32.915334955668186
 20
-104.933102980704230
 40
1.000000000000000
 50
0.000000000000000
 51
90.000000000000000
  0
ARC
  8
0
  6
CONTINUOUS
 62
3
 10
29.915334955668186
 20
-102.933102980704230
 40
1.000000000000000
 50
180.000000000000000
 51
270.000000000000000
  0
ARC
  8
0
  6
CONTINUOUS
 62
3
 10
26.915334955668186
 20
-101.806086326912000
 40
2.000000000000000
 50
0.000000000000000
 51
75.522487814068924
  0
ARC
  8
0
  6
CONTINUOUS
 62
3
 10
27.915334955669096
 20
-97.933102980704689
 40
2.000000000000000
 50
180.000000000000000
 51
255.522487814045290
  0
ARC
  8
0
  6
CONTINUOUS
 62
3
 10
26.915334955668186
 20
-82.060119634497369
 40
2.000000000000063
 50
284.477512185929470
 51
359.999999999993460
  0
ARC
  8
0
  6
CONTINUOUS
 62
3
 10
27.915334955669096
 20
-85.933102980704689
 40
2.000000000000071
 50
104.477512185956310
 51
180.000000000000000
  0
ARC
  8
0
  6
CONTINUOUS
 62
3
 10
32.915334955668186
 20
-116.933102980702870
 40
1.000000000000000
 50
270.000000000000000
 51
0.000000000000000
  0
ARC
  8
0
  6
CONTINUOUS
 62
3
 10
29.915334955668186
 20
-118.933102980702870
 40
1.000000000000000
 50
90.000000000000000
 51
180.000000000000000
  0
LINE
  8
0
  6
CONTINUOUS
 62
3
 10
220.400171592813420
 20
-189.933102980703550
 11
248.400171592813420
 21
-189.933102980703550
  0
LINE
  8
0
  6
CONTINUOUS
 62
3
 10
250.400171592813420
 20
-187.933102980703550
 11
302.900171592813420
 21
-187.933102980703550
  0
LINE
  8
0
  6
CONTINUOUS
 62
3
 10
129.915334955661820
 20
-189.933102980703550
 11
129.915334955661820
 21
-189.433102980703550
  0
LINE
  8
0
  6
CONTINUOUS
 62
3
 10
129.915334955661820
 20
-189.433102980703550
 11
131.915334955661820
 21
-189.433102980703550
  0
LINE
  8
0
  6
CONTINUOUS
 62
3
 10
-3.084665044338180
 20
-189.933102980703550
 11
129.915334955661820
 21
-189.933102980703550
  0
LINE
  8
0
  6
CONTINUOUS
 62
3
 10
-3.084665044338180
 20
-189.933102980703550
 11
-3.084665044338180
 21
-189.433102980703550
  0
LINE
  8
0
  6
CONTINUOUS
 62
3
 10
-5.084665044338180
 20
-189.433102980703550
 11
-3.084665044338180
 21
-189.433102980703550
  0
LINE
  8
0
  6
DASHDOT
 62
4
 10
320.868910809206230
 20
-110.933102980703550
 11
284.692627002189060
 21
-110.933102980703550
  0
LINE
  8
0
  6
DASHDOT
 62
4
 10
302.900171592813420
 20
-20.572736866543892
 11
302.900171592813420
 21
-202.039961152467640
  0
LINE
  8
0
  6
CONTINUOUS
 62
3
 10
285.900171592813420
 20
-88.933102980703552
 11
285.900171592813420
 21
-80.933102980703552
  0
LINE
  8
0
  6
CONTINUOUS
 62
3
 10
292.900171592813420
 20
-88.933102980703552
 11
292.900171592813420
 21
-80.933102980703552
  0
LINE
  8
0
  6
CONTINUOUS
 62
3
 10
285.900171592813420
 20
-88.933102980703552
 11
292.900171592813420
 21
-88.933102980703552
  0
LINE
  8
0
  6
CONTINUOUS
 62
3
 10
285.900171592813420
 20
-80.933102980703552
 11
292.900171592813420
 21
-80.933102980703552
  0
LINE
  8
0
  6
CONTINUOUS
 62
3
 10
223.400171592813420
 20
-140.933102980703500
 11
221.961402458831800
 21
-140.933102980703500
  0
LINE
  8
0
  6
CONTINUOUS
 62
3
 10
224.986630278237840
 20
-80.933102980703495
 11
221.961402458831800
 21
-80.933102980703495
  0
LINE
  8
0
  6
CONTINUOUS
 62
3
 10
215.910588440331140
 20
-108.433102980703490
 11
215.400171592813420
 21
-108.433102980703490
  0
LINE
  8
0
  6
CONTINUOUS
 62
3
 10
215.910588440331140
 20
-113.433102980703490
 11
215.400171592813420
 21
-113.433102980703490
  0
LINE
  8
0
  6
CONTINUOUS
 62
3
 10
215.400171592813420
 20
-113.433102980703490
 11
215.400171592813420
 21
-108.433102980703490
  0
LINE
  8
0
  6
CONTINUOUS
 62
3
 10
267.957361173501340
 20
-84.933102980703552
 11
256.300171592813510
 21
-84.933102980703552
  0
LINE
  8
0
  6
CONTINUOUS
 62
3
 10
253.800171592813510
 20
-87.433102980703552
 11
253.800171592813510
 21
-161.533102980703460
  0
LINE
  8
0
  6
CONTINUOUS
 62
3
 10
248.331181939618090
 20
-93.103458926861322
 11
248.331181939618090
 21
-168.933102980703550
  0
LINE
  8
0
  6
CONTINUOUS
 62
3
 10
223.400171592813420
 20
-95.206251825461550
 11
223.400171592813420
 21
-169.736950557997030
  0
LINE
  8
0
  6
CONTINUOUS
 62
3
 10
248.096583040488440
 20
-89.933102980927515
 11
248.096583040488440
 21
-168.933102980703550
  0
LINE
  8
0
  6
CONTINUOUS
 62
3
 10
230.794691177176900
 20
-89.933102980927515
 11
230.794691177176900
 21
-168.933102980703550
  0
LINE
  8
0
  6
CONTINUOUS
 62
3
 10
258.800171592813510
 20
-166.533102980703460
 11
302.900171592813420
 21
-166.533102980703460
  0
LINE
  8
0
  6
CONTINUOUS
 62
3
 10
220.400171592813420
 20
-174.933102980703550
 11
220.400171592813420
 21
-189.933102980703550
  0
LINE
  8
0
  6
CONTINUOUS
 62
3
 10
223.400171592813420
 20
-171.933102980703550
 11
302.900171592813420
 21
-171.933102980703320
  0
LINE
  8
0
  6
DASHDOT
 62
4
 10
232.900171592813420
 20
-193.513606749624390
 11
232.900171592813420
 21
-163.777785788626030
  0
LINE
  8
0
  6
CONTINUOUS
 62
3
 10
14.415334955669096
 20
-110.933102980703830
 11
14.415334955669096
 21
-58.433102980703836
  0
LINE
  8
0
  6
CONTINUOUS
 62
3
 10
14.415334955669096
 20
-110.933102980703830
 11
14.415334955669096
 21
-163.433102980703840
  0
LINE
  8
0
  6
CONTINUOUS
 62
3
 10
133.715334955661550
 20
-99.433102980703552
 11
131.915334955661360
 21
-99.433102980703552
  0
LINE
  8
0
  6
CONTINUOUS
 62
3
 10
133.915334955661820
 20
-84.933102980703552
 11
133.915334955661820
 21
-99.233102980703620
  0
LINE
  8
0
  6
CONTINUOUS
 62
3
 10
133.915334955661820
 20
-99.233102980703620
 11
133.715334955661550
 21
-99.433102980703552
  0
LINE
  8
0
  6
CONTINUOUS
 62
3
 10
136.475142576796770
 20
-98.933102980703552
 11
135.915334955661820
 21
-98.783102980703575
  0
LINE
  8
0
  6
CONTINUOUS
 62
3
 10
135.915334955661820
 20
-98.783102980703575
 11
134.315334955661460
 21
-98.783102980703575
  0
LINE
  8
0
  6
CONTINUOUS
 62
3
 10
133.715334955661550
 20
-70.433102980703552
 11
131.915334955661360
 21
-70.433102980703438
  0
LINE
  8
0
  6
CONTINUOUS
 62
3
 10
133.915334955661820
 20
-84.933102980703552
 11
133.915334955661820
 21
-70.633102980703484
  0
LINE
  8
0
  6
CONTINUOUS
 62
3
 10
133.915334955661820
 20
-70.633102980703484
 11
133.715334955661550
 21
-70.433102980703552
  0
LINE
  8
0
  6
CONTINUOUS
 62
3
 10
136.475142576796770
 20
-70.933102980703552
 11
135.915334955661820
 21
-71.083102980703529
  0
LINE
  8
0
  6
CONTINUOUS
 62
3
 10
135.915334955661820
 20
-71.083102980703529
 11
134.315334955661460
 21
-71.083102980703529
  0
LINE
  8
0
  6
CONTINUOUS
 62
3
 10
175.915334955661820
 20
-71.333102980703529
 11
175.915334955661820
 21
-84.933102980703552
  0
LINE
  8
0
  6
CONTINUOUS
 62
3
 10
175.515334955661730
 20
-70.933102980703552
 11
136.475142576796770
 21
-70.933102980703552
  0
LINE
  8
0
  6
CONTINUOUS
 62
3
 10
175.915334955661820
 20
-98.533102980703575
 11
175.915334955661820
 21
-84.933102980703552
  0
LINE
  8
0
  6
CONTINUOUS
 62
3
 10
175.515334955661730
 20
-98.933102980703552
 11
136.475142576796770
 21
-98.933102980703552
  0
LINE
  8
0
  6
CONTINUOUS
 62
3
 10
103.415334955661360
 20
-168.487541840902170
 11
103.415334955661820
 21
-89.933102980927288
  0
LINE
  8
0
  6
CONTINUOUS
 62
3
 10
127.667739256798080
 20
-89.933102980927515
 11
127.667739256797630
 21
-169.142808309959490
  0
LINE
  8
0
  6
CONTINUOUS
 62
3
 10
175.915334955662270
 20
-88.933102980703893
 11
143.915334955662270
 21
-88.933102980703893
  0
LINE
  8
0
  6
CONTINUOUS
 62
3
 10
175.915334955662270
 20
-80.933102980703893
 11
143.915334955662270
 21
-80.933102980703893
  0
LINE
  8
0
  6
DASHDOT
 62
4
 10
189.869220655681150
 20
-84.933102980703552
 11
91.078983571344452
 21
-84.933102980703552
  0
LINE
  8
0
  6
CONTINUOUS
 62
3
 10
131.915334955661820
 20
-84.933102980703552
 11
131.915334955661820
 21
-111.433102980703550
  0
LINE
  8
0
  6
CONTINUOUS
 62
3
 10
131.915334955661820
 20
-84.933102980703552
 11
131.915334955661820
 21
-58.433102980703552
  0
LINE
  8
0
  6
CONTINUOUS
 62
3
 10
129.915334955661820
 20
-53.846299724957134
 11
129.915334955661820
 21
-84.933102980703552
  0
LINE
  8
0
  6
CONTINUOUS
 62
3
 10
129.915334955661820
 20
-171.417093154912890
 11
129.915334955661820
 21
-84.933102980703552
  0
LINE
  8
0
  6
CONTINUOUS
 62
3
 10
40.415334955661820
 20
-84.933102980703552
 11
40.415334955661820
 21
-158.794977445816810
  0
LINE
  8
0
  6
CONTINUOUS
 62
3
 10
40.415334955661820
 20
-84.933102980703552
 11
40.415334955661820
 21
-29.924375448239516
  0
LINE
  8
0
  6
DASHDOT
 62
4
 10
118.415334955661820
 20
-168.177131262869120
 11
118.415334955661820
 21
-192.765393630117610
  0
LINE
  8
0
  6
CONTINUOUS
 62
3
 10
131.915334955661820
 20
-189.433102980703550
 11
131.915334955661820
 21
-174.381194770050570
  0
LINE
  8
0
  6
CONTINUOUS
 62
3
 10
128.967692174973310
 20
-171.881651684581580
 11
42.415334955661820
 21
-170.370874669627710
  0
LINE
  8
0
  6
DASHDOT
 62
4
 10
8.415334955661820
 20
-165.959934550375240
 11
8.415334955661820
 21
-192.765393630117610
  0
LINE
  8
0
  6
CONTINUOUS
 62
3
 10
40.415334955661820
 20
-29.933102980703552
 11
81.915334955661820
 21
-30.657488175225126
  0
LINE
  8
0
  6
CONTINUOUS
 62
3
 10
42.415334955661820
 20
-142.644212014194640
 11
42.415334955661820
 21
-156.188447122952080
  0
LINE
  8
0
  6
CONTINUOUS
 62
3
 10
-2.183278775361941
 20
-171.837679238161170
 11
24.882795833912951
 21
-170.947502648175940
  0
LINE
  8
0
  6
CONTINUOUS
 62
3
 10
23.850256712163628
 20
-170.981461844982050
 11
42.415334955661820
 21
-170.370874669627710
  0
LINE
  8
0
  6
CONTINUOUS
 62
3
 10
42.415334955661820
 20
-157.123451100223290
 11
26.708034280165975
 21
-170.251034548848570
  0
LINE
  8
0
  6
CONTINUOUS
 62
3
 10
-5.084665044338180
 20
-189.433102980703550
 11
-5.084665044338180
 21
-174.336058022113320
  0
LINE
  8
0
  6
CONTINUOUS
 62
3
 10
39.915334955670005
 20
-29.933102980704007
 11
30.915336308410588
 21
-29.933102980703779
  0
LINE
  8
0
  6
CONTINUOUS
 62
3
 10
24.177014736884303
 20
-57.869107242015389
 11
14.415334955669096
 21
-58.380695201421076
  0
LINE
  8
0
  6
CONTINUOUS
 62
3
 10
24.177014736882484
 20
-163.997098719392620
 11
14.415334955668186
 21
-163.485510759986940
  0
LINE
  8
0
  6
CONTINUOUS
 62
3
 10
14.415334955668186
 20
-163.485510759986940
 11
14.415334955668186
 21
-110.933102980704000
  0
LINE
  8
0
  6
CONTINUOUS
 62
3
 10
39.915334955658182
 20
-110.933102980704000
 11
39.915334955670005
 21
-29.933102980704007
  0
LINE
  8
0
  6
CONTINUOUS
 62
3
 10
14.415334955669096
 20
-58.380695201421076
 11
14.415334955669096
 21
-110.933102980704000
  0
LINE
  8
0
  6
CONTINUOUS
 62
3
 10
15.415334955669096
 20
-110.933102980704000
 11
15.415334955669096
 21
-149.192445402233260
  0
LINE
  8
0
  6
CONTINUOUS
 62
3
 10
15.415334955669096
 20
-158.591390852566520
 11
15.415334955669096
 21
-160.933102980704230
  0
LINE
  8
0
  6
CONTINUOUS
 62
3
 10
15.415334955669096
 20
-110.933102980703770
 11
15.415334955669096
 21
-72.673760559174525
  0
LINE
  8
0
  6
CONTINUOUS
 62
3
 10
15.415334955669096
 20
-90.933102980703552
 11
25.915334955669096
 21
-90.933102980703552
  0
LINE
  8
0
  6
CONTINUOUS
 62
3
 10
15.415334955669096
 20
-63.274815108841267
 11
15.415334955669096
 21
-60.933102980703552
  0
LINE
  8
0
  6
CONTINUOUS
 62
3
 10
16.415334955669096
 20
-59.933102980703552
 11
24.089832439181009
 21
-59.665103623116920
  0
LINE
  8
0
  6
CONTINUOUS
 62
3
 10
29.915334955670005
 20
-33.523596240605229
 11
32.915334955670005
 21
-33.523596240605229
  0
LINE
  8
0
  6
CONTINUOUS
 62
3
 10
29.915334955670005
 20
-44.327116001268678
 11
32.915334955670005
 21
-44.327116001268678
  0
LINE
  8
0
  6
CONTINUOUS
 62
3
 10
33.915334955670005
 20
-43.327116001268678
 11
33.915334955670005
 21
-34.523596240605229
  0
LINE
  8
0
  6
CONTINUOUS
 62
3
 10
16.415334955669096
 20
-161.933102980704230
 11
24.089832439181009
 21
-162.201102338291090
  0
LINE
  8
0
  6
CONTINUOUS
 62
3
 10
15.415334955669096
 20
-130.933102980703550
 11
28.915334955668186
 21
-130.933102980703550
  0
LINE
  8
0
  6
CONTINUOUS
 62
3
 10
33.915334955668186
 20
-116.933102980702870
 11
33.915334955668186
 21
-104.933102980704230
  0
LINE
  8
0
  6
CONTINUOUS
 62
3
 10
29.915334955668186
 20
-103.933102980704230
 11
32.915334955668186
 21
-103.933102980704230
  0
LINE
  8
0
  6
CONTINUOUS
 62
3
 10
25.915334955669096
 20
-97.933102980704689
 11
25.915334955669096
 21
-85.933102980704689
  0
LINE
  8
0
  6
CONTINUOUS
 62
3
 10
29.915334955668186
 20
-117.933102980702870
 11
32.915334955668186
 21
-117.933102980702870
  0
LINE
  8
0
  6
CONTINUOUS
 62
3
 10
28.915334955667277
 20
-82.060119634497369
 11
28.915334955669096
 21
-45.327116001268678
  0
LINE
  8
0
  6
CONTINUOUS
 62
3
 10
33.915334955670005
 20
-38.833103552908142
 11
33.915334955670005
 21
-43.327116001268678
  0
LINE
  8
0
  6
CONTINUOUS
 62
3
 10
28.915334955668186
 20
-101.806086326912000
 11
28.915334955668186
 21
-105.933102980703550
  0
LINE
  8
0
  6
CONTINUOUS
 62
3
 10
28.915334955668186
 20
-115.933102980703550
 11
28.915334955668186
 21
-168.406253932974320
  0
LINE
  8
0
  6
CONTINUOUS
 62
3
 10
39.915334955668186
 20
-110.933102980704000
 11
39.915334955668186
 21
-159.212859032209960
  0
LINE
  8
0
  6
CONTINUOUS
 62
3
 10
14.415334955669096
 20
-110.933102980703830
 11
14.415334955669096
 21
-58.433102980703836
  0
LINE
  8
0
  6
CONTINUOUS
 62
3
 10
14.415334955669096
 20
-110.933102980703830
 11
14.415334955669096
 21
-163.433102980703840
  0
ENDSEC
  0
EOF
