  0
SECTION
  2
HEADER
  9
$FILLMODE
 70
1
  9
$TEXTSTYLE
  7
STANDARD1
  9
$ACADVER
  1
AC1009
  9
$DIMASZ
 40
1.931851648807023
  9
$DIMEXE
 40
2.000000000000000
  9
$DIMEXO
 40
1.000000000000000
  9
$DIMLFAC
 40
1.000000000000000
  9
$DIMSCALE
 40
1.000000000000000
  9
$DIMTAD
 70
1
  9
$DIMTFAC
 40
0.714285731315613
  9
$DIMTXT
 40
3.200000047683716
  9
$LUPREC
 70
3
  9
$TEXTSIZE
 40
2.799999952316284
  9
$REGENMODE
 70
1
  0
ENDSEC
  0
SECTION
  2
TABLES
  0
TABLE
  2
LTYPE
 70
4
  0
LTYPE
  2
CONTINUOUS
 70
64
  3
Solid line
 72
65
 73
0
 40
0.0
  0
LTYPE
  2
DASHED
 70
64
  3
-- -- -- -- -- -- -- -- -- -- -- -- -- -- --
 72
65
 73
2
 40
0.75
 49
0.5
 49
-0.25
  0
LTYPE
  2
DASHDOT
 70
64
  3
__ . __ . __ . __ . __ . __ . __ . __ . __ . __
 72
65
 73
4
 40
1.0
 49
0.5
 49
-0.25
 49
0.0
 49
-0.25
  0
LTYPE
  2
DIVIDE
 70
64
  3
__ . . __ . . __ . . __ . . __ . . __ . . __
 72
65
 73
6
 40
1.25
 49
0.5
 49
-0.25
 49
0.0
 49
-0.25
 49
0.0
 49
-0.25
  0
ENDTAB
  0
TABLE
  2
LAYER
 70
1
  0
LAYER
  2
0
 70
64
 62
2
  6
CONTINUOUS
  0
ENDTAB
  0
TABLE
  2
STYLE
 70
4
  0
STYLE
  2
STANDARD1
 70
64
 40
0.0
 41
1.0
 50
0.0
 71
0
 42
2.799999952316284
  3
MONOTXT
  4
BIGFONT
  0
STYLE
  2
STANDARD2
 70
68
 40
0.0
 41
1.0
 50
0.0
 71
0
 42
2.799999952316284
  3
MONOTXT
  4
BIGFONT
  0
STYLE
  2
STANDARD3
 70
64
 40
0.0
 41
1.0
 50
0.0
 71
0
 42
2.799999952316284
  3
MONOTXT
  4

  0
STYLE
  2
STANDARD4
 70
68
 40
0.0
 41
1.0
 50
0.0
 71
0
 42
2.799999952316284
  3
MONOTXT
  4

  0
ENDTAB
  0
TABLE
  2
VIEW
 70
0
  0
ENDTAB
  0
ENDSEC
  0
SECTION
  2
BLOCKS
  0
BLOCK
  8
0
  2
SYM1
 70
64
 10
0.000000000000000
 20
0.000000000000000
  0
LINE
  8
0
  6
CONTINUOUS
 62
3
 10
-7.499999046325684
 20
6.500000000000000
 11
-7.499999046325684
 21
-6.500000000000000
  0
LINE
  8
0
  6
CONTINUOUS
 62
3
 10
-7.499997911632022
 20
-6.499999445138201
 11
-7.999998623386432
 21
-5.634070287011241
  0
LINE
  8
0
  6
CONTINUOUS
 62
3
 10
-7.499999203818277
 20
6.499999909101064
 11
-7.999999021366804
 21
5.633876130311293
  0
LINE
  8
0
  6
CONTINUOUS
 62
3
 10
-0.000000000000000
 20
-6.500000000000000
 11
-7.499998092651367
 21
-6.500000000000000
  0
LINE
  8
0
  6
CONTINUOUS
 62
3
 10
0.000000000000000
 20
6.500000000000000
 11
-7.499999046325684
 21
6.500000000000000
  0
LINE
  8
0
  6
CONTINUOUS
 62
3
 10
-7.999999046325684
 20
5.633875846862793
 11
-7.999999046325684
 21
-5.634070396423340
  0
LINE
  8
0
  6
CONTINUOUS
 62
3
 10
0.000000000000000
 20
-6.500000000000000
 11
-0.000000000000000
 21
6.500000000000000
  0
POINT
  8
0
  6
CONTINUOUS
 62
3
 10
0.000000000000000
 20
0.000000000000000
  0
ENDBLK
  8
0
  0
BLOCK
  8
0
  2
SYM2
 70
64
 10
0.000000000000000
 20
0.000000000000000
  0
LINE
  8
0
  6
CONTINUOUS
 62
3
 10
-7.499999046325684
 20
6.500000000000000
 11
-7.499999046325684
 21
-6.500000000000000
  0
LINE
  8
0
  6
CONTINUOUS
 62
3
 10
-7.499997911632022
 20
-6.499999445138201
 11
-7.999998623386432
 21
-5.634070287011241
  0
LINE
  8
0
  6
CONTINUOUS
 62
3
 10
-7.499999203818277
 20
6.499999909101064
 11
-7.999999021366804
 21
5.633876130311293
  0
LINE
  8
0
  6
CONTINUOUS
 62
3
 10
-0.000000000000000
 20
-6.500000000000000
 11
-7.499998092651367
 21
-6.500000000000000
  0
LINE
  8
0
  6
CONTINUOUS
 62
3
 10
0.000000000000000
 20
6.500000000000000
 11
-7.499999046325684
 21
6.500000000000000
  0
LINE
  8
0
  6
CONTINUOUS
 62
3
 10
-7.999999046325684
 20
5.633875846862793
 11
-7.999999046325684
 21
-5.634070396423340
  0
LINE
  8
0
  6
CONTINUOUS
 62
3
 10
0.000000000000000
 20
-6.500000000000000
 11
-0.000000000000000
 21
6.500000000000000
  0
POINT
  8
0
  6
CONTINUOUS
 62
3
 10
0.000000000000000
 20
0.000000000000000
  0
ENDBLK
  8
0
  0
BLOCK
  8
0
  2
SYM3
 70
64
 10
0.000000000000000
 20
0.000000000000000
  0
ARC
  8
0
  6
CONTINUOUS
 62
3
 10
1.981662750244141
 20
-0.000008163610801
 40
5.981661796569824
 50
150.999363302540700
 51
209.000072979481700
  0
ARC
  8
0
  6
CONTINUOUS
 62
3
 10
-2.269982337951660
 20
4.325008392333984
 40
1.729999542236328
 50
179.999745461767870
 51
235.499786279783790
  0
ARC
  8
0
  6
CONTINUOUS
 62
3
 10
-2.270017623901367
 20
-4.324990272521973
 40
1.729999542236328
 50
124.499759285265280
 51
179.999745461767870
  0
LINE
  8
0
  6
CONTINUOUS
 62
3
 10
-3.249984168999890
 20
2.900012016287064
 11
0.000013133145058
 21
2.899999618522375
  0
LINE
  8
0
  6
CONTINUOUS
 62
3
 10
-3.250009052584916
 20
-2.899986267083180
 11
-0.000013285950788
 21
-2.899999618524636
  0
LINE
  8
0
  6
CONTINUOUS
 62
3
 10
0.000023687533422
 20
5.749999046325684
 11
-0.000023687533422
 21
-5.749999046325684
  0
LINE
  8
0
  6
CONTINUOUS
 62
3
 10
-3.249972343459831
 20
5.750005722029982
 11
0.000027906669402
 21
5.749993324257003
  0
LINE
  8
0
  6
CONTINUOUS
 62
3
 10
-3.999972830514309
 20
4.900008662670757
 11
-3.249970339875063
 21
5.750006850331147
  0
LINE
  8
0
  6
CONTINUOUS
 62
3
 10
-4.000014781949545
 20
-4.899978112209579
 11
-3.999973773958658
 21
4.900011588107803
  0
LINE
  8
0
  6
CONTINUOUS
 62
3
 10
-3.250024308998832
 20
-5.749987011620533
 11
-4.000020133420207
 21
-4.899982163000686
  0
LINE
  8
0
  6
CONTINUOUS
 62
3
 10
-0.000027060931608
 20
-5.749995231614290
 11
-3.250020760774497
 21
-5.749981880178368
  0
POINT
  8
0
  6
CONTINUOUS
 62
3
 10
0.000000000000000
 20
0.000000000000000
  0
ENDBLK
  8
0
  0
BLOCK
  8
0
  2
SYM4
 70
64
 10
0.000000000000000
 20
0.000000000000000
  0
LINE
  8
0
  6
CONTINUOUS
 62
3
 10
-7.499999046325684
 20
6.500000000000000
 11
-7.499999046325684
 21
-6.500000000000000
  0
LINE
  8
0
  6
CONTINUOUS
 62
3
 10
-7.499997911632022
 20
-6.499999445138201
 11
-7.999998623386432
 21
-5.634070287011241
  0
LINE
  8
0
  6
CONTINUOUS
 62
3
 10
-7.499999203818277
 20
6.499999909101064
 11
-7.999999021366804
 21
5.633876130311293
  0
LINE
  8
0
  6
CONTINUOUS
 62
3
 10
-0.000000000000000
 20
-6.500000000000000
 11
-7.499998092651367
 21
-6.500000000000000
  0
LINE
  8
0
  6
CONTINUOUS
 62
3
 10
0.000000000000000
 20
6.500000000000000
 11
-7.499999046325684
 21
6.500000000000000
  0
LINE
  8
0
  6
CONTINUOUS
 62
3
 10
-7.999999046325684
 20
5.633875846862793
 11
-7.999999046325684
 21
-5.634070396423340
  0
LINE
  8
0
  6
CONTINUOUS
 62
3
 10
0.000000000000000
 20
-6.500000000000000
 11
-0.000000000000000
 21
6.500000000000000
  0
POINT
  8
0
  6
CONTINUOUS
 62
3
 10
0.000000000000000
 20
0.000000000000000
  0
ENDBLK
  8
0
  0
BLOCK
  8
0
  2
SYM5
 70
64
 10
0.000000000000000
 20
0.000000000000000
  0
LINE
  8
0
  6
CONTINUOUS
 62
3
 10
-7.499999046325684
 20
6.500000000000000
 11
-7.499999046325684
 21
-6.500000000000000
  0
LINE
  8
0
  6
CONTINUOUS
 62
3
 10
-7.499997911632022
 20
-6.499999445138201
 11
-7.999998623386432
 21
-5.634070287011241
  0
LINE
  8
0
  6
CONTINUOUS
 62
3
 10
-7.499999203818277
 20
6.499999909101064
 11
-7.999999021366804
 21
5.633876130311293
  0
LINE
  8
0
  6
CONTINUOUS
 62
3
 10
-0.000000000000000
 20
-6.500000000000000
 11
-7.499998092651367
 21
-6.500000000000000
  0
LINE
  8
0
  6
CONTINUOUS
 62
3
 10
0.000000000000000
 20
6.500000000000000
 11
-7.499999046325684
 21
6.500000000000000
  0
LINE
  8
0
  6
CONTINUOUS
 62
3
 10
-7.999999046325684
 20
5.633875846862793
 11
-7.999999046325684
 21
-5.634070396423340
  0
LINE
  8
0
  6
CONTINUOUS
 62
3
 10
0.000000000000000
 20
-6.500000000000000
 11
-0.000000000000000
 21
6.500000000000000
  0
POINT
  8
0
  6
CONTINUOUS
 62
3
 10
0.000000000000000
 20
0.000000000000000
  0
ENDBLK
  8
0
  0
BLOCK
  8
0
  2
SYM6
 70
64
 10
0.000000000000000
 20
0.000000000000000
  0
LINE
  8
0
  6
CONTINUOUS
 62
3
 10
-7.499999046325684
 20
6.500000000000000
 11
-7.499999046325684
 21
-6.500000000000000
  0
LINE
  8
0
  6
CONTINUOUS
 62
3
 10
-7.499997911632022
 20
-6.499999445138201
 11
-7.999998623386432
 21
-5.634070287011241
  0
LINE
  8
0
  6
CONTINUOUS
 62
3
 10
-7.499999203818277
 20
6.499999909101064
 11
-7.999999021366804
 21
5.633876130311293
  0
LINE
  8
0
  6
CONTINUOUS
 62
3
 10
-0.000000000000000
 20
-6.500000000000000
 11
-7.499998092651367
 21
-6.500000000000000
  0
LINE
  8
0
  6
CONTINUOUS
 62
3
 10
0.000000000000000
 20
6.500000000000000
 11
-7.499999046325684
 21
6.500000000000000
  0
LINE
  8
0
  6
CONTINUOUS
 62
3
 10
-7.999999046325684
 20
5.633875846862793
 11
-7.999999046325684
 21
-5.634070396423340
  0
LINE
  8
0
  6
CONTINUOUS
 62
3
 10
0.000000000000000
 20
-6.500000000000000
 11
-0.000000000000000
 21
6.500000000000000
  0
POINT
  8
0
  6
CONTINUOUS
 62
3
 10
0.000000000000000
 20
0.000000000000000
  0
ENDBLK
  8
0
  0
BLOCK
  8
0
  2
SYM7
 70
64
 10
0.000000000000000
 20
0.000000000000000
  0
LINE
  8
0
  6
CONTINUOUS
 62
3
 10
-7.499999046325684
 20
6.500000000000000
 11
-7.499999046325684
 21
-6.500000000000000
  0
LINE
  8
0
  6
CONTINUOUS
 62
3
 10
-7.499997911632022
 20
-6.499999445138201
 11
-7.999998623386432
 21
-5.634070287011241
  0
LINE
  8
0
  6
CONTINUOUS
 62
3
 10
-7.499999203818277
 20
6.499999909101064
 11
-7.999999021366804
 21
5.633876130311293
  0
LINE
  8
0
  6
CONTINUOUS
 62
3
 10
-0.000000000000000
 20
-6.500000000000000
 11
-7.499998092651367
 21
-6.500000000000000
  0
LINE
  8
0
  6
CONTINUOUS
 62
3
 10
0.000000000000000
 20
6.500000000000000
 11
-7.499999046325684
 21
6.500000000000000
  0
LINE
  8
0
  6
CONTINUOUS
 62
3
 10
-7.999999046325684
 20
5.633875846862793
 11
-7.999999046325684
 21
-5.634070396423340
  0
LINE
  8
0
  6
CONTINUOUS
 62
3
 10
0.000000000000000
 20
-6.500000000000000
 11
-0.000000000000000
 21
6.500000000000000
  0
POINT
  8
0
  6
CONTINUOUS
 62
3
 10
0.000000000000000
 20
0.000000000000000
  0
ENDBLK
  8
0
  0
BLOCK
  8
0
  2
SYM8
 70
64
 10
0.000000000000000
 20
0.000000000000000
  0
POINT
  8
0
  6
CONTINUOUS
 62
3
 10
0.000000000000000
 20
5.633955001831055
  0
POINT
  8
0
  6
CONTINUOUS
 62
3
 10
0.500000119209290
 20
6.500000000000000
  0
LINE
  8
0
  6
CONTINUOUS
 62
3
 10
-0.000004704988612
 20
-3.464098175748802
 11
-2.999997577100373
 21
-1.732046218032735
  0
LINE
  8
0
  6
CONTINUOUS
 62
3
 10
0.000006618601731
 20
3.464096896385627
 11
2.999997425948948
 21
1.732046782136365
  0
LINE
  8
0
  6
CONTINUOUS
 62
3
 10
2.999998112093635
 20
-1.732051392778772
 11
-0.000004464412200
 21
-3.464098365415111
  0
LINE
  8
0
  6
CONTINUOUS
 62
3
 10
0.000006701720849
 20
3.464096999935236
 11
-2.999997939551520
 21
1.732051821705568
  0
LINE
  8
0
  6
CONTINUOUS
 62
3
 10
2.999996662140697
 20
1.732046953225571
 11
2.999997615814979
 21
-1.732051023458999
  0
LINE
  8
0
  6
CONTINUOUS
 62
3
 10
-2.999996662140960
 20
-1.732045999551255
 11
-2.999997615815242
 21
1.732051977133316
  0
POINT
  8
0
  6
CONTINUOUS
 62
3
 10
0.000000000000000
 20
0.000000000000000
  0
CIRCLE
  8
0
  6
CONTINUOUS
 62
3
 10
0.000000000000000
 20
0.000000000000000
 40
6.500000000000000
  0
CIRCLE
  8
0
  6
CONTINUOUS
 62
3
 10
0.000000000000000
 20
0.000000000000000
 40
5.633955001831055
  0
ENDBLK
  8
0
  0
BLOCK
  8
0
  2
SYM9
 70
64
 10
0.000000000000000
 20
0.000000000000000
  0
POINT
  8
0
  6
CONTINUOUS
 62
3
 10
0.000000000000000
 20
5.633955001831055
  0
POINT
  8
0
  6
CONTINUOUS
 62
3
 10
0.500000119209290
 20
6.500000000000000
  0
LINE
  8
0
  6
CONTINUOUS
 62
3
 10
-0.000004704988612
 20
-3.464098175748802
 11
-2.999997577100373
 21
-1.732046218032735
  0
LINE
  8
0
  6
CONTINUOUS
 62
3
 10
0.000006618601731
 20
3.464096896385627
 11
2.999997425948948
 21
1.732046782136365
  0
LINE
  8
0
  6
CONTINUOUS
 62
3
 10
2.999998112093635
 20
-1.732051392778772
 11
-0.000004464412200
 21
-3.464098365415111
  0
LINE
  8
0
  6
CONTINUOUS
 62
3
 10
0.000006701720849
 20
3.464096999935236
 11
-2.999997939551520
 21
1.732051821705568
  0
LINE
  8
0
  6
CONTINUOUS
 62
3
 10
2.999996662140697
 20
1.732046953225571
 11
2.999997615814979
 21
-1.732051023458999
  0
LINE
  8
0
  6
CONTINUOUS
 62
3
 10
-2.999996662140960
 20
-1.732045999551255
 11
-2.999997615815242
 21
1.732051977133316
  0
POINT
  8
0
  6
CONTINUOUS
 62
3
 10
0.000000000000000
 20
0.000000000000000
  0
CIRCLE
  8
0
  6
CONTINUOUS
 62
3
 10
0.000000000000000
 20
0.000000000000000
 40
6.500000000000000
  0
CIRCLE
  8
0
  6
CONTINUOUS
 62
3
 10
0.000000000000000
 20
0.000000000000000
 40
5.633955001831055
  0
ENDBLK
  8
0
  0
BLOCK
  8
0
  2
SYM10
 70
64
 10
0.000000000000000
 20
0.000000000000000
  0
POINT
  8
0
  6
CONTINUOUS
 62
3
 10
0.000000000000000
 20
5.633955001831055
  0
POINT
  8
0
  6
CONTINUOUS
 62
3
 10
0.500000119209290
 20
6.500000000000000
  0
LINE
  8
0
  6
CONTINUOUS
 62
3
 10
-0.000004704988612
 20
-3.464098175748802
 11
-2.999997577100373
 21
-1.732046218032735
  0
LINE
  8
0
  6
CONTINUOUS
 62
3
 10
0.000006618601731
 20
3.464096896385627
 11
2.999997425948948
 21
1.732046782136365
  0
LINE
  8
0
  6
CONTINUOUS
 62
3
 10
2.999998112093635
 20
-1.732051392778772
 11
-0.000004464412200
 21
-3.464098365415111
  0
LINE
  8
0
  6
CONTINUOUS
 62
3
 10
0.000006701720849
 20
3.464096999935236
 11
-2.999997939551520
 21
1.732051821705568
  0
LINE
  8
0
  6
CONTINUOUS
 62
3
 10
2.999996662140697
 20
1.732046953225571
 11
2.999997615814979
 21
-1.732051023458999
  0
LINE
  8
0
  6
CONTINUOUS
 62
3
 10
-2.999996662140960
 20
-1.732045999551255
 11
-2.999997615815242
 21
1.732051977133316
  0
POINT
  8
0
  6
CONTINUOUS
 62
3
 10
0.000000000000000
 20
0.000000000000000
  0
CIRCLE
  8
0
  6
CONTINUOUS
 62
3
 10
0.000000000000000
 20
0.000000000000000
 40
6.500000000000000
  0
CIRCLE
  8
0
  6
CONTINUOUS
 62
3
 10
0.000000000000000
 20
0.000000000000000
 40
5.633955001831055
  0
ENDBLK
  8
0
  0
BLOCK
  8
0
  2
SYM11
 70
64
 10
0.000000000000000
 20
0.000000000000000
  0
POINT
  8
0
  6
CONTINUOUS
 62
3
 10
0.000000000000000
 20
5.633955001831055
  0
POINT
  8
0
  6
CONTINUOUS
 62
3
 10
0.500000119209290
 20
6.500000000000000
  0
LINE
  8
0
  6
CONTINUOUS
 62
3
 10
-0.000004704988612
 20
-3.464098175748802
 11
-2.999997577100373
 21
-1.732046218032735
  0
LINE
  8
0
  6
CONTINUOUS
 62
3
 10
0.000006618601731
 20
3.464096896385627
 11
2.999997425948948
 21
1.732046782136365
  0
LINE
  8
0
  6
CONTINUOUS
 62
3
 10
2.999998112093635
 20
-1.732051392778772
 11
-0.000004464412200
 21
-3.464098365415111
  0
LINE
  8
0
  6
CONTINUOUS
 62
3
 10
0.000006701720849
 20
3.464096999935236
 11
-2.999997939551520
 21
1.732051821705568
  0
LINE
  8
0
  6
CONTINUOUS
 62
3
 10
2.999996662140697
 20
1.732046953225571
 11
2.999997615814979
 21
-1.732051023458999
  0
LINE
  8
0
  6
CONTINUOUS
 62
3
 10
-2.999996662140960
 20
-1.732045999551255
 11
-2.999997615815242
 21
1.732051977133316
  0
POINT
  8
0
  6
CONTINUOUS
 62
3
 10
0.000000000000000
 20
0.000000000000000
  0
CIRCLE
  8
0
  6
CONTINUOUS
 62
3
 10
0.000000000000000
 20
0.000000000000000
 40
6.500000000000000
  0
CIRCLE
  8
0
  6
CONTINUOUS
 62
3
 10
0.000000000000000
 20
0.000000000000000
 40
5.633955001831055
  0
ENDBLK
  8
0
  0
BLOCK
  8
0
  2
SYM12
 70
64
 10
0.000000000000000
 20
0.000000000000000
  0
POINT
  8
0
  6
CONTINUOUS
 62
3
 10
0.000000000000000
 20
5.633955001831055
  0
POINT
  8
0
  6
CONTINUOUS
 62
3
 10
0.500000119209290
 20
6.500000000000000
  0
LINE
  8
0
  6
CONTINUOUS
 62
3
 10
-0.000004704988612
 20
-3.464098175748802
 11
-2.999997577100373
 21
-1.732046218032735
  0
LINE
  8
0
  6
CONTINUOUS
 62
3
 10
0.000006618601731
 20
3.464096896385627
 11
2.999997425948948
 21
1.732046782136365
  0
LINE
  8
0
  6
CONTINUOUS
 62
3
 10
2.999998112093635
 20
-1.732051392778772
 11
-0.000004464412200
 21
-3.464098365415111
  0
LINE
  8
0
  6
CONTINUOUS
 62
3
 10
0.000006701720849
 20
3.464096999935236
 11
-2.999997939551520
 21
1.732051821705568
  0
LINE
  8
0
  6
CONTINUOUS
 62
3
 10
2.999996662140697
 20
1.732046953225571
 11
2.999997615814979
 21
-1.732051023458999
  0
LINE
  8
0
  6
CONTINUOUS
 62
3
 10
-2.999996662140960
 20
-1.732045999551255
 11
-2.999997615815242
 21
1.732051977133316
  0
POINT
  8
0
  6
CONTINUOUS
 62
3
 10
0.000000000000000
 20
0.000000000000000
  0
CIRCLE
  8
0
  6
CONTINUOUS
 62
3
 10
0.000000000000000
 20
0.000000000000000
 40
6.500000000000000
  0
CIRCLE
  8
0
  6
CONTINUOUS
 62
3
 10
0.000000000000000
 20
0.000000000000000
 40
5.633955001831055
  0
ENDBLK
  8
0
  0
BLOCK
  8
0
  2
SYM13
 70
64
 10
0.000000000000000
 20
0.000000000000000
  0
POINT
  8
0
  6
CONTINUOUS
 62
3
 10
0.000000000000000
 20
5.633955001831055
  0
POINT
  8
0
  6
CONTINUOUS
 62
3
 10
0.500000119209290
 20
6.500000000000000
  0
LINE
  8
0
  6
CONTINUOUS
 62
3
 10
-0.000004704988612
 20
-3.464098175748802
 11
-2.999997577100373
 21
-1.732046218032735
  0
LINE
  8
0
  6
CONTINUOUS
 62
3
 10
0.000006618601731
 20
3.464096896385627
 11
2.999997425948948
 21
1.732046782136365
  0
LINE
  8
0
  6
CONTINUOUS
 62
3
 10
2.999998112093635
 20
-1.732051392778772
 11
-0.000004464412200
 21
-3.464098365415111
  0
LINE
  8
0
  6
CONTINUOUS
 62
3
 10
0.000006701720849
 20
3.464096999935236
 11
-2.999997939551520
 21
1.732051821705568
  0
LINE
  8
0
  6
CONTINUOUS
 62
3
 10
2.999996662140697
 20
1.732046953225571
 11
2.999997615814979
 21
-1.732051023458999
  0
LINE
  8
0
  6
CONTINUOUS
 62
3
 10
-2.999996662140960
 20
-1.732045999551255
 11
-2.999997615815242
 21
1.732051977133316
  0
POINT
  8
0
  6
CONTINUOUS
 62
3
 10
0.000000000000000
 20
0.000000000000000
  0
CIRCLE
  8
0
  6
CONTINUOUS
 62
3
 10
0.000000000000000
 20
0.000000000000000
 40
6.500000000000000
  0
CIRCLE
  8
0
  6
CONTINUOUS
 62
3
 10
0.000000000000000
 20
0.000000000000000
 40
5.633955001831055
  0
ENDBLK
  8
0
  0
BLOCK
  8
0
  2
SYM14
 70
64
 10
0.000000000000000
 20
0.000000000000000
  0
POINT
  8
0
  6
CONTINUOUS
 62
3
 10
0.000000000000000
 20
0.000000000000000
  0
LINE
  8
0
  6
CONTINUOUS
 62
3
 10
0.010171198458579
 20
-5.767622839547471
 11
-4.979645433681753
 21
-2.874994469174567
  0
LINE
  8
0
  6
CONTINUOUS
 62
3
 10
-4.979648434603448
 20
-2.874994693650046
 11
-4.989821279270270
 21
2.892629961559101
  0
LINE
  8
0
  6
CONTINUOUS
 62
3
 10
-4.989816965891634
 20
2.892629271321994
 11
-0.010171343047148
 21
5.767622431692701
  0
LINE
  8
0
  6
CONTINUOUS
 62
3
 10
-0.010171198458579
 20
5.767622839547471
 11
4.979645433681753
 21
2.874994469174567
  0
LINE
  8
0
  6
CONTINUOUS
 62
3
 10
4.979648434603448
 20
2.874994693650046
 11
4.989821279270270
 21
-2.892629961559101
  0
LINE
  8
0
  6
CONTINUOUS
 62
3
 10
4.989816965891634
 20
-2.892629271321994
 11
0.010171343047148
 21
-5.767622431692701
  0
CIRCLE
  8
0
  6
CONTINUOUS
 62
3
 10
0.000000000000000
 20
0.000000000000000
 40
5.000000000000000
  0
ENDBLK
  8
0
  0
BLOCK
  8
0
  2
SYM15
 70
64
 10
0.000000000000000
 20
0.000000000000000
  0
ARC
  8
0
  6
CONTINUOUS
 62
3
 10
-0.979025304317474
 20
-2.200000762939453
 40
1.299999237060547
 50
196.601531107481040
 51
270.000000000000000
  0
ARC
  8
0
  6
CONTINUOUS
 62
3
 10
-0.979025304317474
 20
2.200000762939453
 40
1.299999237060547
 50
90.000000000000000
 51
163.398451589674950
  0
LINE
  8
0
  6
CONTINUOUS
 62
3
 10
-0.000000000000000
 20
-3.500000000000000
 11
-0.979025304317474
 21
-3.500000000000000
  0
LINE
  8
0
  6
CONTINUOUS
 62
3
 10
0.000000000000000
 20
3.500000000000000
 11
-0.979025304317474
 21
3.500000000000000
  0
LINE
  8
0
  6
CONTINUOUS
 62
3
 10
0.000000000000000
 20
-3.500000000000000
 11
-0.000000000000000
 21
3.500000000000000
  0
LINE
  8
0
  6
CONTINUOUS
 62
3
 10
0.000000000000000
 20
-3.500000000000000
 11
-0.000000000000000
 21
3.500000000000000
  0
POINT
  8
0
  6
CONTINUOUS
 62
3
 10
0.000000000000000
 20
0.000000000000000
  0
ARC
  8
0
  6
CONTINUOUS
 62
3
 10
6.399999618530273
 20
0.000000000000000
 40
9.000000000000000
 50
163.398451589674950
 51
196.601531107481040
  0
ENDBLK
  8
0
  0
ENDSEC
  0
SECTION
  2
ENTITIES
  0
ARC
  8
0
  6
CONTINUOUS
 62
3
 10
-324.744580713621870
 20
-188.076770184916280
 40
6.099999427795406
 50
264.601927898108500
 51
5.398089404735109
  0
POINT
  8
0
  6
CONTINUOUS
 62
3
 10
-322.481839148694860
 20
-190.339511749843330
  0
LINE
  8
0
  6
CONTINUOUS
 62
3
 10
-319.158437411988020
 20
-187.016110013136450
 11
-325.805240885401700
 21
-193.662913486550200
  0
LINE
  8
0
  6
CONTINUOUS
 62
3
 10
-318.845298803019200
 20
-187.268656963986840
 11
-325.522398105492130
 21
-193.945756266459770
  0
LINE
  8
0
  6
CONTINUOUS
 62
3
 10
-325.805240885401700
 20
-193.662913486550200
 11
-325.318437493696080
 21
-194.149716878255790
  0
LINE
  8
0
  6
CONTINUOUS
 62
3
 10
-319.158437411988020
 20
-187.016110013136450
 11
-318.671634020282400
 21
-187.502913404842080
  0
ARC
  8
0
  6
CONTINUOUS
 62
3
 10
-414.405720837815750
 20
-188.076770184916280
 40
6.099999427795398
 50
174.601910595264880
 51
275.398072101891500
  0
POINT
  8
0
  6
CONTINUOUS
 62
3
 10
-416.668462402742760
 20
-190.339511749843330
  0
LINE
  8
0
  6
CONTINUOUS
 62
3
 10
-419.991864139449600
 20
-187.016110013136450
 11
-413.345060666035920
 21
-193.662913486550200
  0
LINE
  8
0
  6
CONTINUOUS
 62
3
 10
-420.305002748418420
 20
-187.268656963986840
 11
-413.627903445945490
 21
-193.945756266459770
  0
LINE
  8
0
  6
CONTINUOUS
 62
3
 10
-413.345060666035920
 20
-193.662913486550200
 11
-413.831864057741540
 21
-194.149716878255790
  0
LINE
  8
0
  6
CONTINUOUS
 62
3
 10
-419.991864139449600
 20
-187.016110013136450
 11
-420.478667531155220
 21
-187.502913404842080
  0
ARC
  8
0
  6
CONTINUOUS
 62
3
 10
-414.405720837815750
 20
-98.415630060722293
 40
6.099999427795419
 50
84.601927898108485
 51
185.398089404735120
  0
POINT
  8
0
  6
CONTINUOUS
 62
3
 10
-416.668462402742760
 20
-96.152888495795253
  0
LINE
  8
0
  6
CONTINUOUS
 62
3
 10
-419.991864139449600
 20
-99.476290232502109
 11
-413.345060666035920
 21
-92.829486759088397
  0
LINE
  8
0
  6
CONTINUOUS
 62
3
 10
-420.305002748418420
 20
-99.223743281651736
 11
-413.627903445945490
 21
-92.546643979178825
  0
LINE
  8
0
  6
CONTINUOUS
 62
3
 10
-413.345060666035920
 20
-92.829486759088397
 11
-413.831864057741540
 21
-92.342683367382776
  0
LINE
  8
0
  6
CONTINUOUS
 62
3
 10
-419.991864139449600
 20
-99.476290232502109
 11
-420.478667531155220
 21
-98.989486840796488
  0
ARC
  8
0
  6
CONTINUOUS
 62
3
 10
-324.744580713621870
 20
-98.415630060722293
 40
6.099999427795398
 50
354.601910595264880
 51
95.398072101891515
  0
POINT
  8
0
  6
CONTINUOUS
 62
3
 10
-322.481839148694860
 20
-96.152888495795253
  0
LINE
  8
0
  6
CONTINUOUS
 62
3
 10
-319.158437411988020
 20
-99.476290232502109
 11
-325.805240885401700
 21
-92.829486759088397
  0
LINE
  8
0
  6
CONTINUOUS
 62
3
 10
-318.845298803019200
 20
-99.223743281651736
 11
-325.522398105492130
 21
-92.546643979178825
  0
LINE
  8
0
  6
CONTINUOUS
 62
3
 10
-325.805240885401700
 20
-92.829486759088397
 11
-325.318437493696080
 21
-92.342683367382776
  0
LINE
  8
0
  6
CONTINUOUS
 62
3
 10
-319.158437411988020
 20
-99.476290232502109
 11
-318.671634020282400
 21
-98.989486840796488
  0
ARC
  8
0
  6
CONTINUOUS
 62
3
 10
18.475365604842153
 20
-247.306421843504150
 40
3.000000000000000
 50
0.000000000000000
 51
38.927553831336432
  0
LINE
  8
0
  6
CONTINUOUS
 62
3
 10
-19.081287161421898
 20
-196.033219816421590
 11
-35.024634395157847
 21
-195.754927655283610
  0
LINE
  8
0
  6
CONTINUOUS
 62
3
 10
-23.524649749296970
 20
-184.246200122817190
 11
-23.524649749297652
 21
-195.955660633950630
  0
ARC
  8
0
  6
CONTINUOUS
 62
3
 10
-21.957905181703978
 20
-197.246200122816960
 40
3.000000000000041
 50
38.927553831334741
 51
90.000000000000000
  0
LINE
  8
0
  6
CONTINUOUS
 62
3
 10
20.809188808608809
 20
-245.421410105195600
 11
-19.624081977937323
 21
-195.361188384508520
  0
LINE
  8
0
  6
CONTINUOUS
 62
3
 10
10.411144024468371
 20
-194.246200122816960
 11
-17.635841572758437
 21
-194.246200122816960
  0
LINE
  8
0
  6
CONTINUOUS
 62
3
 10
17.475379430889774
 20
-220.610285576208530
 11
11.615913334424789
 21
-198.742460398974000
  0
LINE
  8
0
  6
CONTINUOUS
 62
3
 10
21.475365604842153
 20
-235.538437206971930
 11
19.535018419052079
 21
-228.296962925280240
  0
LINE
  8
0
  6
CONTINUOUS
 62
3
 10
21.475365604854574
 20
133.253799877180540
 11
61.975365604854581
 21
133.253799877180540
  0
LINE
  8
0
  6
CONTINUOUS
 62
3
 10
21.475365604854574
 20
118.587799877180540
 11
61.975365604854581
 21
118.587799877180530
  0
LINE
  8
0
  6
CONTINUOUS
 62
3
 10
21.475365604854574
 20
101.939799877180540
 11
54.475366558528890
 21
101.939799877180440
  0
LINE
  8
0
  6
CONTINUOUS
 62
3
 10
21.475365604854574
 20
211.567799877180530
 11
53.975366558532379
 21
211.567799877180650
  0
LINE
  8
0
  6
CONTINUOUS
 62
3
 10
21.475365604854574
 20
194.919799877180540
 11
61.975365604854581
 21
194.919799877180540
  0
LINE
  8
0
  6
CONTINUOUS
 62
3
 10
21.475365604854574
 20
180.253799877180540
 11
61.975365604854581
 21
180.253799877180540
  0
LINE
  8
0
  6
DASHDOT
 62
4
 10
-132.308179165014050
 20
84.753799877180654
 11
-110.541201756485760
 21
84.753799877180654
  0
CIRCLE
  8
0
  6
DASHED
 62
4
 10
-121.024649749287400
 20
84.753799877180654
 40
6.000000000000000
  0
ARC
  8
0
  6
DASHED
 62
4
 10
-171.024649749287390
 20
84.753799877180654
 40
7.000000000000000
 50
180.000000000000000
 51
0.000000000000000
  0
ARC
  8
0
  6
DASHED
 62
4
 10
-121.024649749287400
 20
84.753799877180654
 40
6.999999999999986
 50
180.000000000000000
 51
0.000000000000000
  0
LINE
  8
0
  6
DASHDOT
 62
4
 10
-180.110338855870960
 20
84.753799877180654
 11
-159.623750622161650
 21
84.753799877180654
  0
LINE
  8
0
  6
DASHED
 62
4
 10
-178.024649749287390
 20
84.753799877180654
 11
-178.024649749287390
 21
99.253799877180654
  0
LINE
  8
0
  6
DASHED
 62
4
 10
-164.024649749287390
 20
84.753799877180654
 11
-164.024649749287390
 21
99.253799877180654
  0
LINE
  8
0
  6
DASHED
 62
4
 10
-128.024649749287390
 20
84.753799877180654
 11
-128.024649749287390
 21
99.253799877180654
  0
LINE
  8
0
  6
DASHED
 62
4
 10
-114.024649749287400
 20
84.753799877180654
 11
-114.024649749287400
 21
99.253799877180654
  0
LINE
  8
0
  6
DASHDOT
 62
4
 10
-121.024649749287400
 20
75.809642619504530
 11
-121.024649749287400
 21
97.789144752039874
  0
LINE
  8
0
  6
DASHDOT
 62
4
 10
-171.024649749287390
 20
75.809642619504530
 11
-171.024649749287390
 21
97.358131600036586
  0
ARC
  8
0
  6
CONTINUOUS
 62
3
 10
64.975365604853636
 20
-70.746200122820426
 40
3.000000000000000
 50
90.000000000000000
 51
180.000000000000000
  0
LINE
  8
0
  6
CONTINUOUS
 62
3
 10
42.975364655827747
 20
-36.595720288249083
 11
47.475364655827747
 21
-36.595720288249083
  0
LINE
  8
0
  6
DASHDOT
 62
4
 10
37.245117255011195
 20
-56.595720288249083
 11
55.344383270302700
 21
-56.595720288249083
  0
LINE
  8
0
  6
CONTINUOUS
 62
3
 10
73.975365604847269
 20
-167.746200122821340
 11
73.975365604847269
 21
-226.951096501447810
  0
LINE
  8
0
  6
CONTINUOUS
 62
3
 10
182.475365604855450
 20
-262.746200122821340
 11
65.475365604855455
 21
-262.746200122821340
  0
ARC
  8
0
  6
CONTINUOUS
 62
3
 10
74.475365604855455
 20
-223.843395728093070
 40
1.999999999999916
 50
311.410957896496880
 51
0.000000000000000
  0
LINE
  8
0
  6
CONTINUOUS
 62
3
 10
75.798276230855976
 20
-225.343364886314190
 11
57.750193623587933
 21
-241.261025679026660
  0
ARC
  8
0
  6
CONTINUOUS
 62
3
 10
54.442917058586175
 20
-237.511102783474090
 40
4.999999999999822
 50
273.858884296473550
 51
311.410957896502510
  0
LINE
  8
0
  6
CONTINUOUS
 62
3
 10
74.475365604855455
 20
-67.746200122821335
 11
126.975365604855450
 21
-68.662591031552836
  0
LINE
  8
0
  6
CONTINUOUS
 62
3
 10
76.394557880638644
 20
-241.041776688785770
 11
152.475365604855450
 21
-243.698577038068780
  0
LINE
  8
0
  6
CONTINUOUS
 62
3
 10
74.475365604855455
 20
-67.746200122821335
 11
74.475365604855455
 21
-226.510117225716330
  0
LINE
  8
0
  6
CONTINUOUS
 62
3
 10
76.475365604855455
 20
-206.692106526643730
 11
76.475365604855455
 21
-223.843395728093070
  0
ARC
  8
0
  6
CONTINUOUS
 62
3
 10
74.475365604855455
 20
-206.692106526643730
 40
2.000000000000000
 50
0.000000000000000
 51
90.000000000000000
  0
LINE
  8
0
  6
CONTINUOUS
 62
3
 10
61.975365604847269
 20
-152.210301737959010
 11
61.975365604846814
 21
-237.534599118818220
  0
LINE
  8
0
  6
CONTINUOUS
 62
3
 10
61.975365604847269
 20
-70.746200122820426
 11
61.975365604847269
 21
-133.282098507683660
  0
ARC
  8
0
  6
CONTINUOUS
 62
3
 10
59.975365604847269
 20
-133.282098507683660
 40
1.999999999999770
 50
300.000000000003810
 51
0.000000000000000
  0
ARC
  8
0
  6
CONTINUOUS
 62
3
 10
61.975365604847269
 20
-136.746200122821340
 40
2.000000000000164
 50
119.999999999997270
 51
180.000000000000000
  0
ARC
  8
0
  6
CONTINUOUS
 62
3
 10
59.975365604847269
 20
-152.210301737959010
 40
2.000000000000000
 50
0.000000000000000
 51
59.999999999996206
  0
ARC
  8
0
  6
CONTINUOUS
 62
3
 10
61.975365604847269
 20
-148.746200122821340
 40
2.000000000000000
 50
180.000000000000000
 51
240.000000000002730
  0
LINE
  8
0
  6
CONTINUOUS
 62
3
 10
59.975365604847269
 20
-136.746200122821340
 11
59.975365604847269
 21
-148.746200122821340
  0
LINE
  8
0
  6
CONTINUOUS
 62
3
 10
73.975365604849088
 20
-167.746200122821340
 11
73.975365604853636
 21
-67.746200122821335
  0
INSERT
  8
0
  2
SYM1
 10
61.975365604847269
 20
-86.746200122821335
  0
INSERT
  8
0
  2
SYM2
 10
61.975365604847269
 20
-162.746200122821340
  0
ARC
  8
0
  6
CONTINUOUS
 62
3
 10
-110.524649749292050
 20
-172.246200122819460
 40
1.000000000000000
 50
270.000000000000000
 51
0.000000000000000
  0
LINE
  8
0
  6
CONTINUOUS
 62
3
 10
-110.524649749292050
 20
-173.246200122819460
 11
-181.524649749292050
 21
-173.246200122819460
  0
ARC
  8
0
  6
CONTINUOUS
 62
3
 10
-181.524649749292050
 20
-172.246200122819460
 40
1.000000000000000
 50
180.000000000000000
 51
270.000000000000000
  0
LINE
  8
0
  6
CONTINUOUS
 62
3
 10
-182.524649749292050
 20
-143.246200122819460
 11
-182.524649749292050
 21
-172.246200122819460
  0
LINE
  8
0
  6
CONTINUOUS
 62
3
 10
-182.524649749292050
 20
-143.246200122819460
 11
-182.524649749292050
 21
-114.246200122819450
  0
ARC
  8
0
  6
CONTINUOUS
 62
3
 10
-181.524649749292050
 20
-114.246200122819450
 40
1.000000000000000
 50
90.000000000000000
 51
180.000000000000000
  0
LINE
  8
0
  6
CONTINUOUS
 62
3
 10
-110.524649749292050
 20
-113.246200122819450
 11
-181.524649749292050
 21
-113.246200122819450
  0
ARC
  8
0
  6
CONTINUOUS
 62
3
 10
-110.524649749292050
 20
-114.246200122819450
 40
1.000000000000000
 50
0.000000000000000
 51
90.000000000000000
  0
LINE
  8
0
  6
CONTINUOUS
 62
3
 10
-109.524649749292050
 20
-114.246200122819450
 11
-109.524649749292050
 21
-143.246200122819460
  0
LINE
  8
0
  6
CONTINUOUS
 62
3
 10
-109.524649749292050
 20
-172.246200122819460
 11
-109.524649749292050
 21
-143.246200122819460
  0
ARC
  8
0
  6
CONTINUOUS
 62
3
 10
-110.524649749292050
 20
-172.746200122819460
 40
2.000000000000000
 50
270.000000000000000
 51
0.000000000000000
  0
LINE
  8
0
  6
CONTINUOUS
 62
3
 10
-110.524649749292050
 20
-174.746200122819460
 11
-181.524649749292050
 21
-174.746200122819460
  0
ARC
  8
0
  6
CONTINUOUS
 62
3
 10
-181.524649749292050
 20
-172.746200122819460
 40
2.000000000000000
 50
180.000000000000000
 51
270.000000000000000
  0
LINE
  8
0
  6
CONTINUOUS
 62
3
 10
-183.524649749292050
 20
-143.246200122819460
 11
-183.524649749292050
 21
-172.746200122819460
  0
LINE
  8
0
  6
CONTINUOUS
 62
3
 10
-183.524649749292050
 20
-143.246200122819460
 11
-183.524649749292050
 21
-113.746200122819450
  0
ARC
  8
0
  6
CONTINUOUS
 62
3
 10
-181.524649749292050
 20
-113.746200122819450
 40
2.000000000000000
 50
90.000000000000000
 51
180.000000000000000
  0
LINE
  8
0
  6
CONTINUOUS
 62
3
 10
-110.524649749292050
 20
-111.746200122819450
 11
-181.524649749292050
 21
-111.746200122819450
  0
ARC
  8
0
  6
CONTINUOUS
 62
3
 10
-110.524649749292050
 20
-113.746200122819450
 40
2.000000000000000
 50
0.000000000000000
 51
90.000000000000000
  0
LINE
  8
0
  6
CONTINUOUS
 62
3
 10
-108.524649749292050
 20
-143.246200122819460
 11
-108.524649749292050
 21
-113.746200122819450
  0
LINE
  8
0
  6
CONTINUOUS
 62
3
 10
-108.524649749292050
 20
-143.246200122819460
 11
-108.524649749292050
 21
-172.746200122819460
  0
LINE
  8
0
  6
CONTINUOUS
 62
3
 10
-185.524649749313200
 20
-143.246200122819460
 11
-185.524649749313200
 21
-178.246200122819460
  0
LINE
  8
0
  6
CONTINUOUS
 62
3
 10
-178.524649749313200
 20
-181.246200122819460
 11
-182.524649749313200
 21
-181.246200122819460
  0
ARC
  8
0
  6
CONTINUOUS
 62
3
 10
-182.524649749313200
 20
-178.246200122819460
 40
3.000000000000000
 50
180.000000000000000
 51
270.000000000000000
  0
LINE
  8
0
  6
CONTINUOUS
 62
3
 10
-175.524649749313200
 20
-197.246200122819690
 11
-175.524649749313200
 21
-184.246200122819460
  0
ARC
  8
0
  6
CONTINUOUS
 62
3
 10
-178.524649749313200
 20
-184.246200122819460
 40
3.000000000000000
 50
0.000000000000000
 51
90.000000000000000
  0
POLYLINE
  8
0
  6
CONTINUOUS
 62
3
 66
1
 70
1
  0
VERTEX
  8
0
  6
CONTINUOUS
 62
3
 10
-181.824649749312980
 20
-190.573531077166990
  0
VERTEX
  8
0
  6
CONTINUOUS
 62
3
 10
-181.914958931417800
 20
-189.870574110966630
  0
VERTEX
  8
0
  6
CONTINUOUS
 62
3
 10
-182.182415946509930
 20
-189.194631386754540
  0
VERTEX
  8
0
  6
CONTINUOUS
 62
3
 10
-182.616742571491020
 20
-188.571679004349140
  0
VERTEX
  8
0
  6
CONTINUOUS
 62
3
 10
-183.201247877736190
 20
-188.025656674450540
  0
VERTEX
  8
0
  6
CONTINUOUS
 62
3
 10
-183.913469654120860
 20
-187.577547728983920
  0
VERTEX
  8
0
  6
CONTINUOUS
 62
3
 10
-184.726037617197050
 20
-187.244572743421170
  0
VERTEX
  8
0
  6
CONTINUOUS
 62
3
 10
-185.607725235837170
 20
-187.039527759722920
  0
VERTEX
  8
0
  6
CONTINUOUS
 62
3
 10
-186.524649749312970
 20
-186.970292541622140
  0
VERTEX
  8
0
  6
CONTINUOUS
 62
3
 10
-187.441574262788780
 20
-187.039527759722920
  0
VERTEX
  8
0
  6
CONTINUOUS
 62
3
 10
-188.323261881428890
 20
-187.244572743421170
  0
VERTEX
  8
0
  6
CONTINUOUS
 62
3
 10
-189.135829844505080
 20
-187.577547728983920
  0
VERTEX
  8
0
  6
CONTINUOUS
 62
3
 10
-189.848051620889750
 20
-188.025656674450540
  0
VERTEX
  8
0
  6
CONTINUOUS
 62
3
 10
-190.432556927134930
 20
-188.571679004349140
  0
VERTEX
  8
0
  6
CONTINUOUS
 62
3
 10
-190.866883552116010
 20
-189.194631386754540
  0
VERTEX
  8
0
  6
CONTINUOUS
 62
3
 10
-191.134340567208140
 20
-189.870574110966630
  0
VERTEX
  8
0
  6
CONTINUOUS
 62
3
 10
-191.224649749312960
 20
-190.573531077166990
  0
VERTEX
  8
0
  6
CONTINUOUS
 62
3
 10
-191.134340567208140
 20
-191.276488043367350
  0
VERTEX
  8
0
  6
CONTINUOUS
 62
3
 10
-190.866883552116010
 20
-191.952430767579440
  0
VERTEX
  8
0
  6
CONTINUOUS
 62
3
 10
-190.432556927134930
 20
-192.575383149984840
  0
VERTEX
  8
0
  6
CONTINUOUS
 62
3
 10
-189.848051620889720
 20
-193.121405479883440
  0
VERTEX
  8
0
  6
CONTINUOUS
 62
3
 10
-189.135829844505080
 20
-193.569514425350060
  0
VERTEX
  8
0
  6
CONTINUOUS
 62
3
 10
-188.323261881428890
 20
-193.902489410912810
  0
VERTEX
  8
0
  6
CONTINUOUS
 62
3
 10
-187.441574262788780
 20
-194.107534394611060
  0
VERTEX
  8
0
  6
CONTINUOUS
 62
3
 10
-186.524649749312970
 20
-194.176769612711840
  0
VERTEX
  8
0
  6
CONTINUOUS
 62
3
 10
-185.607725235837170
 20
-194.107534394611060
  0
VERTEX
  8
0
  6
CONTINUOUS
 62
3
 10
-184.726037617197050
 20
-193.902489410912810
  0
VERTEX
  8
0
  6
CONTINUOUS
 62
3
 10
-183.913469654120860
 20
-193.569514425350060
  0
VERTEX
  8
0
  6
CONTINUOUS
 62
3
 10
-183.201247877736220
 20
-193.121405479883440
  0
VERTEX
  8
0
  6
CONTINUOUS
 62
3
 10
-182.616742571491020
 20
-192.575383149984840
  0
VERTEX
  8
0
  6
CONTINUOUS
 62
3
 10
-182.182415946509930
 20
-191.952430767579440
  0
VERTEX
  8
0
  6
CONTINUOUS
 62
3
 10
-181.914958931417800
 20
-191.276488043367350
  0
SEQEND
  8
0
  6
CONTINUOUS
 62
3
  0
LINE
  8
0
  6
CONTINUOUS
 62
3
 10
-188.524649749313200
 20
-193.565906631167420
 11
-186.524649749313430
 21
-192.390121145544530
  0
LINE
  8
0
  6
CONTINUOUS
 62
3
 10
-186.524649749313430
 20
-192.390121145544530
 11
-184.524649749313200
 21
-190.737479506421210
  0
LINE
  8
0
  6
CONTINUOUS
 62
3
 10
-184.524649749313200
 20
-193.565906631167420
 11
-186.524649749313430
 21
-192.390121145544530
  0
LINE
  8
0
  6
CONTINUOUS
 62
3
 10
-186.524649749313430
 20
-192.390121145544530
 11
-188.524649749313200
 21
-190.737479506421210
  0
LINE
  8
0
  6
CONTINUOUS
 62
4
 10
-185.524649749313200
 20
-172.002595673456540
 11
-183.524649749292050
 21
-172.002595673456540
  0
LINE
  8
0
  6
CONTINUOUS
 62
4
 10
-185.524649749313200
 20
-170.523572519979440
 11
-183.524649749292050
 21
-170.523572519979440
  0
LINE
  8
0
  6
CONTINUOUS
 62
4
 10
-185.524649749313200
 20
-167.430841528314200
 11
-183.524649749292050
 21
-167.430841528314200
  0
LINE
  8
0
  6
CONTINUOUS
 62
4
 10
-185.524649749313200
 20
-166.084439802815610
 11
-183.524649749292050
 21
-166.084439802815610
  0
LINE
  8
0
  6
CONTINUOUS
 62
4
 10
-185.524649749313200
 20
-163.246200122819460
 11
-183.524649749292050
 21
-163.246200122819460
  0
LINE
  8
0
  6
CONTINUOUS
 62
3
 10
-175.524649749313200
 20
-197.246200122819690
 11
-205.029494698406210
 21
-197.246200122819690
  0
ARC
  8
0
  6
CONTINUOUS
 62
3
 10
-205.029494698406210
 20
-176.646200122819660
 40
20.599999999999891
 50
235.000000000000400
 51
270.000000000000000
  0
LINE
  8
0
  6
CONTINUOUS
 62
3
 10
-185.524649749313200
 20
-143.246200122819460
 11
-185.524649749313200
 21
-108.246200122819450
  0
LINE
  8
0
  6
CONTINUOUS
 62
3
 10
-178.524649749313200
 20
-105.246200122819450
 11
-182.524649749313200
 21
-105.246200122819450
  0
ARC
  8
0
  6
CONTINUOUS
 62
3
 10
-182.524649749313200
 20
-108.246200122819450
 40
3.000000000000000
 50
90.000000000000000
 51
180.000000000000000
  0
LINE
  8
0
  6
CONTINUOUS
 62
3
 10
-175.524649749313200
 20
-89.246200122819232
 11
-175.524649749313200
 21
-102.246200122819450
  0
ARC
  8
0
  6
CONTINUOUS
 62
3
 10
-178.524649749313200
 20
-102.246200122819450
 40
3.000000000000000
 50
270.000000000000000
 51
0.000000000000000
  0
POLYLINE
  8
0
  6
CONTINUOUS
 62
3
 66
1
 70
1
  0
VERTEX
  8
0
  6
CONTINUOUS
 62
3
 10
-181.824649749312980
 20
-95.918869168471815
  0
VERTEX
  8
0
  6
CONTINUOUS
 62
3
 10
-181.914958931417800
 20
-95.215912202271454
  0
VERTEX
  8
0
  6
CONTINUOUS
 62
3
 10
-182.182415946509930
 20
-94.539969478059362
  0
VERTEX
  8
0
  6
CONTINUOUS
 62
3
 10
-182.616742571491020
 20
-93.917017095653961
  0
VERTEX
  8
0
  6
CONTINUOUS
 62
3
 10
-183.201247877736190
 20
-93.370994765755384
  0
VERTEX
  8
0
  6
CONTINUOUS
 62
3
 10
-183.913469654120860
 20
-92.922885820288769
  0
VERTEX
  8
0
  6
CONTINUOUS
 62
3
 10
-184.726037617197050
 20
-92.589910834725998
  0
VERTEX
  8
0
  6
CONTINUOUS
 62
3
 10
-185.607725235837170
 20
-92.384865851027755
  0
VERTEX
  8
0
  6
CONTINUOUS
 62
3
 10
-186.524649749312970
 20
-92.315630632926982
  0
VERTEX
  8
0
  6
CONTINUOUS
 62
3
 10
-187.441574262788780
 20
-92.384865851027755
  0
VERTEX
  8
0
  6
CONTINUOUS
 62
3
 10
-188.323261881428890
 20
-92.589910834725998
  0
VERTEX
  8
0
  6
CONTINUOUS
 62
3
 10
-189.135829844505080
 20
-92.922885820288769
  0
VERTEX
  8
0
  6
CONTINUOUS
 62
3
 10
-189.848051620889750
 20
-93.370994765755384
  0
VERTEX
  8
0
  6
CONTINUOUS
 62
3
 10
-190.432556927134930
 20
-93.917017095653961
  0
VERTEX
  8
0
  6
CONTINUOUS
 62
3
 10
-190.866883552116010
 20
-94.539969478059362
  0
VERTEX
  8
0
  6
CONTINUOUS
 62
3
 10
-191.134340567208140
 20
-95.215912202271454
  0
VERTEX
  8
0
  6
CONTINUOUS
 62
3
 10
-191.224649749312960
 20
-95.918869168471815
  0
VERTEX
  8
0
  6
CONTINUOUS
 62
3
 10
-191.134340567208140
 20
-96.621826134672176
  0
VERTEX
  8
0
  6
CONTINUOUS
 62
3
 10
-190.866883552116010
 20
-97.297768858884268
  0
VERTEX
  8
0
  6
CONTINUOUS
 62
3
 10
-190.432556927134930
 20
-97.920721241289669
  0
VERTEX
  8
0
  6
CONTINUOUS
 62
3
 10
-189.848051620889720
 20
-98.466743571188246
  0
VERTEX
  8
0
  6
CONTINUOUS
 62
3
 10
-189.135829844505080
 20
-98.914852516654861
  0
VERTEX
  8
0
  6
CONTINUOUS
 62
3
 10
-188.323261881428890
 20
-99.247827502217632
  0
VERTEX
  8
0
  6
CONTINUOUS
 62
3
 10
-187.441574262788780
 20
-99.452872485915876
  0
VERTEX
  8
0
  6
CONTINUOUS
 62
3
 10
-186.524649749312970
 20
-99.522107704016648
  0
VERTEX
  8
0
  6
CONTINUOUS
 62
3
 10
-185.607725235837170
 20
-99.452872485915876
  0
VERTEX
  8
0
  6
CONTINUOUS
 62
3
 10
-184.726037617197050
 20
-99.247827502217632
  0
VERTEX
  8
0
  6
CONTINUOUS
 62
3
 10
-183.913469654120860
 20
-98.914852516654861
  0
VERTEX
  8
0
  6
CONTINUOUS
 62
3
 10
-183.201247877736220
 20
-98.466743571188246
  0
VERTEX
  8
0
  6
CONTINUOUS
 62
3
 10
-182.616742571491020
 20
-97.920721241289669
  0
VERTEX
  8
0
  6
CONTINUOUS
 62
3
 10
-182.182415946509930
 20
-97.297768858884268
  0
VERTEX
  8
0
  6
CONTINUOUS
 62
3
 10
-181.914958931417800
 20
-96.621826134672176
  0
SEQEND
  8
0
  6
CONTINUOUS
 62
3
  0
LINE
  8
0
  6
CONTINUOUS
 62
3
 10
-188.524649749313200
 20
-92.926493614471497
 11
-186.524649749313430
 21
-94.102279100094279
  0
LINE
  8
0
  6
CONTINUOUS
 62
3
 10
-186.524649749313430
 20
-94.102279100094279
 11
-184.524649749313200
 21
-95.754920739217710
  0
LINE
  8
0
  6
CONTINUOUS
 62
3
 10
-184.524649749313200
 20
-92.926493614471497
 11
-186.524649749313430
 21
-94.102279100094279
  0
LINE
  8
0
  6
CONTINUOUS
 62
3
 10
-186.524649749313430
 20
-94.102279100094279
 11
-188.524649749313200
 21
-95.754920739217710
  0
ARC
  8
0
  6
CONTINUOUS
 62
3
 10
-205.029494698406210
 20
-109.846200122819250
 40
20.600000000000023
 50
90.000000000000000
 51
124.999999999999600
  0
LINE
  8
0
  6
CONTINUOUS
 62
3
 10
-175.524649749313200
 20
-89.246200122819232
 11
-205.029494698406210
 21
-89.246200122819232
  0
LINE
  8
0
  6
CONTINUOUS
 62
4
 10
-185.524649749313200
 20
-123.246200122819450
 11
-183.524649749292050
 21
-123.246200122819450
  0
LINE
  8
0
  6
CONTINUOUS
 62
4
 10
-185.524649749313200
 20
-114.489804572182370
 11
-183.524649749292050
 21
-114.489804572182370
  0
LINE
  8
0
  6
CONTINUOUS
 62
4
 10
-185.524649749313200
 20
-115.968827725659480
 11
-183.524649749292050
 21
-115.968827725659480
  0
LINE
  8
0
  6
CONTINUOUS
 62
4
 10
-185.524649749313200
 20
-119.061558717324710
 11
-183.524649749292050
 21
-119.061558717324710
  0
LINE
  8
0
  6
CONTINUOUS
 62
4
 10
-185.524649749313200
 20
-120.407960442823310
 11
-183.524649749292050
 21
-120.407960442823310
  0
LINE
  8
0
  6
CONTINUOUS
 62
3
 10
53.975366558521586
 20
-88.736031260325888
 11
31.475365604847269
 21
-88.736031260325888
  0
LINE
  8
0
  6
CONTINUOUS
 62
3
 10
60.519392146674221
 20
-238.818707360934640
 11
31.475365604847269
 21
-238.818707360934640
  0
LINE
  8
0
  6
CONTINUOUS
 62
3
 10
61.975365604847269
 20
-172.733692300540440
 11
31.475365604847269
 21
-172.733692300540440
  0
LINE
  8
0
  6
CONTINUOUS
 62
3
 10
61.975365604847269
 20
-152.759510908868780
 11
31.475365604847269
 21
-152.759510908868780
  0
LINE
  8
0
  6
CONTINUOUS
 62
3
 10
42.975364655824109
 20
-83.414453137897397
 11
42.975364655827747
 21
-36.595720288249083
  0
LINE
  8
0
  6
CONTINUOUS
 62
3
 10
47.475364655827747
 20
-36.595720288249083
 11
47.475364655827747
 21
-82.292998564245806
  0
ARC
  8
0
  6
CONTINUOUS
 62
3
 10
46.475365604852726
 20
-82.291620867236759
 40
0.999999999999849
 50
272.000000000003920
 51
0.000000000000000
  0
LINE
  8
0
  6
CONTINUOUS
 62
3
 10
47.475365604852726
 20
-82.291620867236759
 11
47.475365604853636
 21
-70.746200122819516
  0
LINE
  8
0
  6
CONTINUOUS
 62
3
 10
46.510265101555291
 20
-83.291011694255701
 11
31.475365604847269
 21
-83.816041953911395
  0
ARC
  8
0
  6
CONTINUOUS
 62
3
 10
50.475365604853636
 20
-70.746200122819516
 40
3.000000000000000
 50
90.000000000000000
 51
180.000000000000000
  0
LINE
  8
0
  6
CONTINUOUS
 62
3
 10
73.975365604853636
 20
-67.746200122821335
 11
50.475365604853636
 21
-67.746200122819516
  0
LINE
  8
0
  6
CONTINUOUS
 62
3
 10
65.475365604855455
 20
-262.746200122821340
 11
21.475365604855455
 21
-262.746200122821340
  0
LINE
  8
0
  6
CONTINUOUS
 62
3
 10
21.475365604855455
 20
-247.550660319028740
 11
21.475365604855455
 21
-262.746200122821340
  0
LINE
  8
0
  6
DASHDOT
 62
4
 10
34.475365604855455
 20
-240.524160900104050
 11
34.475365604855455
 21
-269.448342113482740
  0
LINE
  8
0
  6
CONTINUOUS
 62
3
 10
76.394557880638644
 20
-241.041776688785770
 11
51.475365604855455
 21
-242.722632433351410
  0
ARC
  8
0
  6
CONTINUOUS
 62
3
 10
24.475365604855455
 20
-247.550660319028740
 40
3.000000000000365
 50
93.858884296478166
 51
180.000000000000000
  0
LINE
  8
0
  6
CONTINUOUS
 62
3
 10
51.475365604855455
 20
-242.722632433351410
 11
24.273467613099768
 21
-244.557461828963770
  0
LINE
  8
0
  6
CONTINUOUS
 62
3
 10
31.475365604847269
 20
-83.816041953911395
 11
31.475365604847269
 21
-244.071677559665200
  0
LINE
  8
0
  6
CONTINUOUS
 62
3
 10
35.475366247357073
 20
-74.095720264181125
 11
34.975366221210010
 21
-74.961844404315286
  0
LINE
  8
0
  6
CONTINUOUS
 62
3
 10
34.975365609499335
 20
-74.961844441386290
 11
34.975365609499335
 21
-83.763660799511797
  0
LINE
  8
0
  6
CONTINUOUS
 62
3
 10
35.475365609499335
 20
-74.095720288249083
 11
35.475365609499335
 21
-83.746200414765497
  0
LINE
  8
0
  6
CONTINUOUS
 62
3
 10
42.975364655825018
 20
-74.095720288249083
 11
35.475365609499335
 21
-74.095720288249083
  0
INSERT
  8
0
  2
SYM3
 10
21.475365604847269
 20
-112.945424580861980
  0
INSERT
  8
0
  2
SYM3
 10
21.475365604847269
 20
-222.546975664776710
  0
LINE
  8
0
  6
CONTINUOUS
 62
4
 10
-108.524649749292050
 20
-114.489804572182370
 11
-35.024649749292308
 21
-114.489804572182370
  0
LINE
  8
0
  6
CONTINUOUS
 62
4
 10
-108.524649749292050
 20
-115.968827725659480
 11
-35.024649749292308
 21
-115.968827725659480
  0
LINE
  8
0
  6
CONTINUOUS
 62
4
 10
-108.524649749292050
 20
-119.061558717324710
 11
-35.024649749292308
 21
-119.061558717324710
  0
LINE
  8
0
  6
CONTINUOUS
 62
4
 10
-108.524649749292050
 20
-120.407960442823310
 11
-35.024649749292308
 21
-120.407960442823310
  0
LINE
  8
0
  6
CONTINUOUS
 62
4
 10
-108.524649749292050
 20
-123.246200122819450
 11
-35.024649749292308
 21
-123.246200122819450
  0
LINE
  8
0
  6
CONTINUOUS
 62
4
 10
-175.682250095684480
 20
-103.205764716294990
 11
-35.024649749292308
 21
-103.205764716294990
  0
LINE
  8
0
  6
CONTINUOUS
 62
4
 10
-175.524649749313200
 20
-98.741544595714572
 11
-35.024649749292308
 21
-98.741544595714572
  0
LINE
  8
0
  6
CONTINUOUS
 62
4
 10
-185.524649749313200
 20
-111.531808964049440
 11
-35.024649749292308
 21
-111.531808964049440
  0
LINE
  8
0
  6
CONTINUOUS
 62
4
 10
-185.524649749313200
 20
-109.942599171310690
 11
-35.024649749292308
 21
-109.942599171310690
  0
LINE
  8
0
  6
CONTINUOUS
 62
4
 10
-175.524649749313200
 20
-102.204286352479690
 11
-35.024649749292308
 21
-102.204286352479690
  0
LINE
  8
0
  6
CONTINUOUS
 62
4
 10
-175.524649749313200
 20
-97.113117527936765
 11
-35.024649749292308
 21
-97.113117527936765
  0
LINE
  8
0
  6
CONTINUOUS
 62
4
 10
-175.524649749313200
 20
-92.246200122819346
 11
-35.024649749292308
 21
-92.246200122819346
  0
LINE
  8
0
  6
CONTINUOUS
 62
4
 10
-175.524649749313200
 20
-92.746200122819459
 11
-35.024649749292308
 21
-92.746200122819459
  0
LINE
  8
0
  6
DASHDOT
 62
4
 10
-8.772885458405653
 20
-143.246200122819460
 11
-238.825250846621200
 21
-143.246200122819460
  0
LINE
  8
0
  6
CONTINUOUS
 62
3
 10
-35.024649749292308
 20
-90.746200122819459
 11
-175.524649749313200
 21
-90.746200122819459
  0
LINE
  8
0
  6
CONTINUOUS
 62
4
 10
-185.524649749313200
 20
-174.960591281589470
 11
-35.024649749292308
 21
-174.960591281589470
  0
LINE
  8
0
  6
CONTINUOUS
 62
4
 10
-185.524649749313200
 20
-176.549801074328120
 11
-35.024649749292308
 21
-176.549801074328120
  0
LINE
  8
0
  6
CONTINUOUS
 62
4
 10
-175.682250095684480
 20
-183.286635529343810
 11
-35.024649749292308
 21
-183.286635529343810
  0
LINE
  8
0
  6
CONTINUOUS
 62
4
 10
-175.524649749313200
 20
-184.288113893159110
 11
-35.024649749292308
 21
-184.288113893159110
  0
LINE
  8
0
  6
CONTINUOUS
 62
4
 10
-175.524649749313200
 20
-187.750855649924350
 11
-35.024649749292308
 21
-187.750855649924350
  0
LINE
  8
0
  6
CONTINUOUS
 62
4
 10
-175.524649749313200
 20
-189.379282717702150
 11
-35.024649749292308
 21
-189.379282717702150
  0
LINE
  8
0
  6
CONTINUOUS
 62
4
 10
-175.524649749313200
 20
-194.246200122819460
 11
-35.024649749292308
 21
-194.246200122819460
  0
LINE
  8
0
  6
CONTINUOUS
 62
4
 10
-175.524649749313200
 20
-193.746200122819460
 11
-35.024649749292308
 21
-193.746200122819460
  0
LINE
  8
0
  6
CONTINUOUS
 62
3
 10
-35.024649749292308
 20
-195.746200122819460
 11
-175.524649749313200
 21
-195.746200122819460
  0
LINE
  8
0
  6
CONTINUOUS
 62
4
 10
-108.524649749292050
 20
-172.002595673456540
 11
-35.024649749292308
 21
-172.002595673456540
  0
LINE
  8
0
  6
CONTINUOUS
 62
4
 10
-108.524649749292050
 20
-170.523572519979440
 11
-35.024649749292308
 21
-170.523572519979440
  0
LINE
  8
0
  6
CONTINUOUS
 62
4
 10
-108.524649749292050
 20
-167.430841528314200
 11
-35.024649749292308
 21
-167.430841528314200
  0
LINE
  8
0
  6
CONTINUOUS
 62
4
 10
-108.524649749292050
 20
-166.084439802815610
 11
-35.024649749292308
 21
-166.084439802815610
  0
LINE
  8
0
  6
CONTINUOUS
 62
4
 10
-108.524649749292050
 20
-163.246200122819460
 11
-35.024649749292308
 21
-163.246200122819460
  0
LINE
  8
0
  6
CONTINUOUS
 62
3
 10
-35.024649749293943
 20
-123.246200122817180
 11
-18.524649749292195
 21
-123.246200122817180
  0
LINE
  8
0
  6
CONTINUOUS
 62
3
 10
18.475365604842153
 20
-127.746200122819570
 11
-15.524649749292138
 21
-127.746200122819570
  0
POINT
  8
0
  6
CONTINUOUS
 62
3
 10
21.475365604842153
 20
-246.246200122819460
  0
POINT
  8
0
  6
CONTINUOUS
 62
3
 10
21.475365604842153
 20
-248.246200122819460
  0
LINE
  8
0
  6
CONTINUOUS
 62
3
 10
18.475365604842153
 20
-163.246200122817190
 11
-35.024649749295961
 21
-163.246200122817190
  0
LINE
  8
0
  6
CONTINUOUS
 62
3
 10
-35.024649749296771
 20
-179.246200122816960
 11
-28.524649749297026
 21
-179.246200122816960
  0
LINE
  8
0
  6
CONTINUOUS
 62
3
 10
31.475365604842153
 20
-152.759510908866960
 11
21.475365604842153
 21
-152.759510908866960
  0
LINE
  8
0
  6
CONTINUOUS
 62
3
 10
21.475365604842153
 20
-172.733692300538560
 11
31.475365604842153
 21
-172.733692300538560
  0
LINE
  8
0
  6
CONTINUOUS
 62
3
 10
31.475365604842153
 20
-238.818707360932760
 11
21.475365604842153
 21
-238.818707360932760
  0
LINE
  8
0
  6
CONTINUOUS
 62
3
 10
18.475365604842153
 20
-101.746200122819680
 11
-15.524649749292877
 21
-101.746200122819680
  0
ARC
  8
0
  6
CONTINUOUS
 62
3
 10
-15.524649749292138
 20
-124.746200122819570
 40
3.000000000000000
 50
180.000000000002160
 51
270.000000000000000
  0
ARC
  8
0
  6
CONTINUOUS
 62
3
 10
18.475365604842153
 20
-166.246200122817190
 40
3.000000000000000
 50
0.000000000000000
 51
90.000000000000000
  0
ARC
  8
0
  6
CONTINUOUS
 62
3
 10
18.475365604842153
 20
-124.746200122819570
 40
3.000000000000000
 50
270.000000000000000
 51
0.000000000000000
  0
LINE
  8
0
  6
CONTINUOUS
 62
3
 10
31.475365604842153
 20
-88.736031260324239
 11
21.475365604842153
 21
-88.736031260324239
  0
ARC
  8
0
  6
CONTINUOUS
 62
3
 10
-28.524649749297026
 20
-184.246200122816960
 40
5.000000000000000
 50
359.999999999997390
 51
90.000000000000000
  0
LINE
  8
0
  6
DASHDOT
 62
4
 10
0.475365604842153
 20
-115.490312114538590
 11
0.475365604842153
 21
-86.850409853723136
  0
LINE
  8
0
  6
CONTINUOUS
 62
3
 10
-18.524649749292962
 20
-95.746200122819346
 11
-18.524649749292138
 21
-124.746200122819680
  0
ARC
  8
0
  6
CONTINUOUS
 62
3
 10
-23.524649749292990
 20
-95.746200122819459
 40
5.000000000000028
 50
0.000000000001303
 51
90.000000000000000
  0
LINE
  8
0
  6
CONTINUOUS
 62
3
 10
-19.524662692909516
 20
-106.246200122819910
 11
-19.524664149759957
 21
-106.246200122819910
  0
LINE
  8
0
  6
CONTINUOUS
 62
3
 10
-35.024649749292308
 20
-90.746200122819459
 11
-35.024649749297609
 21
-195.754927387276100
  0
ARC
  8
0
  6
CONTINUOUS
 62
3
 10
18.475365604842153
 20
-98.746200122819687
 40
3.000000000000000
 50
270.000000000000000
 51
0.000000000000000
  0
LINE
  8
0
  6
CONTINUOUS
 62
3
 10
21.475365604842153
 20
-88.519493222199571
 11
21.475365604842153
 21
-92.746200122819459
  0
LINE
  8
0
  6
CONTINUOUS
 62
3
 10
21.475365604842153
 20
-92.746200122819459
 11
21.475365604842153
 21
-235.538437206971930
  0
LINE
  8
0
  6
CONTINUOUS
 62
3
 10
20.475365604842153
 20
-90.746200122819459
 11
-35.024649749292308
 21
-90.746200122819459
  0
ARC
  8
0
  6
CONTINUOUS
 62
3
 10
20.475365604842153
 20
-91.746200122819459
 40
1.000000000000000
 50
0.000000000000000
 51
90.000000000000000
  0
ARC
  8
0
  6
CONTINUOUS
 62
3
 10
24.475365604842153
 20
-88.519493222199571
 40
3.000000000000000
 50
90.000000000000000
 51
180.000000000000000
  0
LINE
  8
0
  6
CONTINUOUS
 62
3
 10
31.475365198948992
 20
-85.519493222199571
 11
24.475365604842153
 21
-85.519493222199571
  0
ARC
  8
0
  6
CONTINUOUS
 62
3
 10
-15.524649749292877
 20
-98.746200122819687
 40
3.000000000000000
 50
180.000000000002160
 51
270.000000000000000
  0
LINE
  8
0
  6
CONTINUOUS
 62
3
 10
22.251788736286009
 20
-245.536781993617070
 11
21.475365604842153
 21
-245.536781993617070
  0
LINE
  8
0
  6
CONTINUOUS
 62
3
 10
21.475365604842153
 20
-235.538437206971930
 11
21.475365604842153
 21
-247.550660319028740
  0
LINE
  8
0
  6
CONTINUOUS
 62
3
 10
61.975365604847269
 20
-97.738240429657651
 11
31.475365604847269
 21
-97.738240429657651
  0
LINE
  8
0
  6
CONTINUOUS
 62
3
 10
31.475365604847269
 20
-97.738240429657651
 11
21.475365604842153
 21
-97.738240429657651
  0
LINE
  8
0
  6
DASHDOT
 62
4
 10
52.213325607801380
 20
-80.595720288249083
 11
23.633998855060781
 21
-80.595720288249083
  0
LINE
  8
0
  6
CONTINUOUS
 62
3
 10
-283.084478066318810
 20
-160.720093795126500
 11
-282.575153349769780
 21
-161.014153340685200
  0
LINE
  8
0
  6
CONTINUOUS
 62
3
 10
-282.575152663625150
 20
-164.478251515600330
 11
-283.359919015688600
 21
-164.931335187915580
  0
LINE
  8
0
  6
CONTINUOUS
 62
3
 10
-282.575154113578090
 20
-161.014153169596000
 11
-282.575153159903780
 21
-164.478251146280570
  0
ARC
  8
0
  6
CONTINUOUS
 62
3
 10
-285.575150775718780
 20
-162.746200122821560
 40
6.499999999999996
 50
286.872984417725950
 51
65.530959446321233
  0
ARC
  8
0
  6
CONTINUOUS
 62
3
 10
-285.575150775718780
 20
-162.746200122821560
 40
5.633955001831088
 50
290.081101901718570
 51
61.964500161420979
  0
ARC
  8
0
  6
CONTINUOUS
 62
3
 10
-319.575150775718780
 20
-86.746200122821676
 40
12.000000000000002
 50
274.413429774276040
 51
286.715133671077920
  0
ARC
  8
0
  6
CONTINUOUS
 62
3
 10
-419.575150775718840
 20
-86.746200122821676
 40
12.000000000000043
 50
338.559749086673040
 51
343.518924885356230
  0
ARC
  8
0
  6
CONTINUOUS
 62
3
 10
-424.375926317676430
 20
-112.945424580864190
 40
5.000000000000003
 50
221.817788613224310
 51
232.504024278707310
  0
ARC
  8
0
  6
CONTINUOUS
 62
3
 10
-383.075150775718840
 20
-181.246200122821680
 40
69.999999999999972
 50
185.053213672530060
 51
234.443126549156970
  0
POLYLINE
  8
0
  6
CONTINUOUS
 62
3
 66
1
  0
VERTEX
  8
0
  6
CONTINUOUS
 62
3
 10
308.188126913433450
 20
-137.746200723750860
  0
VERTEX
  8
0
  6
CONTINUOUS
 62
3
 10
308.056855421174420
 20
-135.908705500606290
  0
VERTEX
  8
0
  6
CONTINUOUS
 62
3
 10
307.667511067533040
 20
-134.133783955376370
  0
VERTEX
  8
0
  6
CONTINUOUS
 62
3
 10
307.033352508011320
 20
-132.481878914805920
  0
VERTEX
  8
0
  6
CONTINUOUS
 62
3
 10
306.175975252588220
 20
-131.009244025955750
  0
VERTEX
  8
0
  6
CONTINUOUS
 62
3
 10
305.124576256500290
 20
-129.766028105647850
  0
VERTEX
  8
0
  6
CONTINUOUS
 62
3
 10
303.914959652910970
 20
-128.794567382590170
  0
VERTEX
  8
0
  6
CONTINUOUS
 62
3
 10
302.588317486051720
 20
-128.127943787829710
  0
VERTEX
  8
0
  6
CONTINUOUS
 62
3
 10
301.189826965506370
 20
-127.788858389225160
  0
VERTEX
  8
0
  6
CONTINUOUS
 62
3
 10
299.767112010464420
 20
-127.788858333778390
  0
VERTEX
  8
0
  6
CONTINUOUS
 62
3
 10
298.368621474209360
 20
-128.127943623377550
  0
VERTEX
  8
0
  6
CONTINUOUS
 62
3
 10
297.041979276465720
 20
-128.794567114732840
  0
VERTEX
  8
0
  6
CONTINUOUS
 62
3
 10
295.832362627869030
 20
-129.766027743506900
  0
VERTEX
  8
0
  6
CONTINUOUS
 62
3
 10
294.780963574183370
 20
-131.009243581863470
  0
VERTEX
  8
0
  6
CONTINUOUS
 62
3
 10
293.923586250533620
 20
-132.481878403885330
  0
VERTEX
  8
0
  6
CONTINUOUS
 62
3
 10
293.289427614479790
 20
-134.133783395026260
  0
VERTEX
  8
0
  6
CONTINUOUS
 62
3
 10
292.900083178607020
 20
-135.908704909908720
  0
VERTEX
  8
0
  6
CONTINUOUS
 62
3
 10
292.768811601217580
 20
-137.746200122821340
  0
SEQEND
  8
0
  6
CONTINUOUS
 62
3
  0
LINE
  8
0
  6
CONTINUOUS
 62
3
 10
335.664379873468310
 20
-137.746200122821340
 11
322.059601052523020
 21
-137.746200122821340
  0
ARC
  8
0
  6
CONTINUOUS
 62
3
 10
322.059601052523020
 20
-141.246200122821340
 40
3.500000000000000
 50
90.000000000000000
 51
180.000000000000000
  0
LINE
  8
0
  6
CONTINUOUS
 62
3
 10
318.559601052523020
 20
-141.246200122821340
 11
318.559601052523020
 21
-231.146200122821430
  0
ARC
  8
0
  6
CONTINUOUS
 62
3
 10
335.664379873468310
 20
-140.746200122821340
 40
3.000000000000032
 50
4.000629961575198
 51
90.000000000000000
  0
ARC
  8
0
  6
CONTINUOUS
 62
3
 10
378.559601052523020
 20
-137.746200122821340
 40
40.000000000000249
 50
184.000629961571520
 51
270.000000000000000
  0
LINE
  8
0
  6
CONTINUOUS
 62
3
 10
284.559601052523020
 20
-147.979598307002500
 11
284.559601052523020
 21
-241.746200122821340
  0
LINE
  8
0
  6
CONTINUOUS
 62
3
 10
292.768811601217520
 20
-137.746200122821340
 11
292.768811601217520
 21
-241.746200122821340
  0
LINE
  8
0
  6
CONTINUOUS
 62
3
 10
308.188126913433510
 20
-137.746200723750860
 11
308.188126913433510
 21
-241.746200122821340
  0
LINE
  8
0
  6
CONTINUOUS
 62
3
 10
311.812601052522720
 20
-147.746200122821340
 11
311.812601052522720
 21
-241.746200122821340
  0
ARC
  8
0
  6
CONTINUOUS
 62
3
 10
364.559601052523020
 20
-147.979598307002500
 40
52.746750336799941
 50
91.910213171710112
 51
180.000000000000000
  0
ARC
  8
0
  6
CONTINUOUS
 62
3
 10
364.559601052523020
 20
-147.979598307002500
 40
79.999999999999844
 50
91.910213171710154
 51
180.000000000000000
  0
CIRCLE
  8
0
  6
CONTINUOUS
 62
3
 10
378.559601052523020
 20
-137.746200122821340
 40
33.500000000000000
  0
LINE
  8
0
  6
DASHDOT
 62
4
 10
413.841303148693210
 20
-143.246200122819860
 11
343.097164004138900
 21
-143.246200122819860
  0
ARC
  8
0
  6
DASHED
 62
3
 10
297.620831918541400
 20
-118.246200122819850
 40
5.000000000000000
 50
90.000000000000000
 51
175.138594604202010
  0
LINE
  8
0
  6
DASHED
 62
3
 10
297.620831918541400
 20
-113.246200122819850
 11
321.059601052523020
 21
-113.246200122819850
  0
LINE
  8
0
  6
DASHED
 62
3
 10
321.059601052523020
 20
-174.746200122819860
 11
321.059601052523020
 21
-111.746200122819850
  0
LINE
  8
0
  6
DASHED
 62
3
 10
326.059601052523020
 20
-111.746200122819850
 11
321.059601052523020
 21
-111.746200122819850
  0
LINE
  8
0
  6
DASHED
 62
3
 10
326.059601052523020
 20
-122.746200122819850
 11
326.059601052523020
 21
-111.746200122819850
  0
LINE
  8
0
  6
DASHED
 62
3
 10
326.059601052523020
 20
-122.746200122819850
 11
324.759601052522840
 21
-122.746200122819850
  0
LINE
  8
0
  6
DASHED
 62
3
 10
324.559601052523020
 20
-143.246200122819860
 11
324.559601052523020
 21
-122.946200122819840
  0
ARC
  8
0
  6
DASHED
 62
3
 10
324.759601052522840
 20
-122.946200122819840
 40
0.199999999999989
 50
90.000000000000000
 51
180.000000000000000
  0
LINE
  8
0
  6
DASHED
 62
3
 10
326.059601052523020
 20
-163.746200122819860
 11
324.759601052522840
 21
-163.746200122819860
  0
LINE
  8
0
  6
DASHED
 62
3
 10
324.559601052523020
 20
-143.246200122819860
 11
324.559601052523020
 21
-163.546200122819870
  0
ARC
  8
0
  6
DASHED
 62
3
 10
324.759601052522840
 20
-163.546200122819870
 40
0.199999999999818
 50
180.000000000000000
 51
270.000000000000000
  0
LINE
  8
0
  6
DASHED
 62
3
 10
326.059601052523020
 20
-163.746200122819860
 11
326.059601052523020
 21
-174.746200122819860
  0
LINE
  8
0
  6
DASHED
 62
3
 10
326.059601052523020
 20
-174.746200122819860
 11
321.059601052523020
 21
-174.746200122819860
  0
LINE
  8
0
  6
DASHED
 62
3
 10
297.620831918541400
 20
-173.246200122819860
 11
321.059601052523020
 21
-173.246200122819860
  0
ARC
  8
0
  6
DASHED
 62
3
 10
297.620831918541400
 20
-168.246200122819860
 40
4.999999999999890
 50
184.861405395798270
 51
270.000000000000000
  0
ARC
  8
0
  6
DASHED
 62
3
 10
591.559601052523020
 20
-143.246200122819860
 40
300.000000000000000
 50
180.000000000000000
 51
184.861405395798040
  0
ARC
  8
0
  6
DASHED
 62
3
 10
591.559601052523020
 20
-143.246200122819860
 40
300.000000000000110
 50
175.138594604201960
 51
180.000000000000000
  0
LINE
  8
0
  6
DASHED
 62
3
 10
291.059601052523020
 20
-140.746200122819860
 11
291.570017900040740
 21
-140.746200122819860
  0
LINE
  8
0
  6
DASHED
 62
3
 10
291.059601052523020
 20
-145.746200122819860
 11
291.570017900040740
 21
-145.746200122819860
  0
LINE
  8
0
  6
DASHED
 62
3
 10
291.059601052523020
 20
-145.746200122819860
 11
291.059601052523020
 21
-140.746200122819860
  0
POLYLINE
  8
0
  6
CONTINUOUS
 62
3
 66
1
  0
VERTEX
  8
0
  6
CONTINUOUS
 62
3
 10
464.350390503828460
 20
-137.746200122821340
  0
VERTEX
  8
0
  6
CONTINUOUS
 62
3
 10
464.219118926439020
 20
-135.908704909908720
  0
VERTEX
  8
0
  6
CONTINUOUS
 62
3
 10
463.829774490566250
 20
-134.133783395026260
  0
VERTEX
  8
0
  6
CONTINUOUS
 62
3
 10
463.195615854512370
 20
-132.481878403885330
  0
VERTEX
  8
0
  6
CONTINUOUS
 62
3
 10
462.338238530862670
 20
-131.009243581863470
  0
VERTEX
  8
0
  6
CONTINUOUS
 62
3
 10
461.286839477177010
 20
-129.766027743506900
  0
VERTEX
  8
0
  6
CONTINUOUS
 62
3
 10
460.077222828580320
 20
-128.794567114732840
  0
VERTEX
  8
0
  6
CONTINUOUS
 62
3
 10
458.750580630836680
 20
-128.127943623377550
  0
VERTEX
  8
0
  6
CONTINUOUS
 62
3
 10
457.352090094581630
 20
-127.788858333778390
  0
VERTEX
  8
0
  6
CONTINUOUS
 62
3
 10
455.929375139539670
 20
-127.788858389225160
  0
VERTEX
  8
0
  6
CONTINUOUS
 62
3
 10
454.530884618994320
 20
-128.127943787829740
  0
VERTEX
  8
0
  6
CONTINUOUS
 62
3
 10
453.204242452135080
 20
-128.794567382590170
  0
VERTEX
  8
0
  6
CONTINUOUS
 62
3
 10
451.994625848545750
 20
-129.766028105647850
  0
VERTEX
  8
0
  6
CONTINUOUS
 62
3
 10
450.943226852457830
 20
-131.009244025955750
  0
VERTEX
  8
0
  6
CONTINUOUS
 62
3
 10
450.085849597034720
 20
-132.481878914805920
  0
VERTEX
  8
0
  6
CONTINUOUS
 62
3
 10
449.451691037513000
 20
-134.133783955376370
  0
VERTEX
  8
0
  6
CONTINUOUS
 62
3
 10
449.062346683871620
 20
-135.908705500606290
  0
VERTEX
  8
0
  6
CONTINUOUS
 62
3
 10
448.931075191612590
 20
-137.746200723750860
  0
SEQEND
  8
0
  6
CONTINUOUS
 62
3
  0
LINE
  8
0
  6
CONTINUOUS
 62
3
 10
472.559601052523020
 20
-147.979598307002500
 11
472.559601052523020
 21
-241.746200122821340
  0
LINE
  8
0
  6
CONTINUOUS
 62
3
 10
464.350390503828520
 20
-137.746200122821340
 11
464.350390503828520
 21
-241.746200122821340
  0
ARC
  8
0
  6
CONTINUOUS
 62
3
 10
392.559601052523020
 20
-147.979598307002500
 40
80.000000000000000
 50
0.000000000000000
 51
88.089786828289846
  0
LINE
  8
0
  6
DASHDOT
 62
4
 10
272.932297473420480
 20
-137.746200122821340
 11
490.142186178600240
 21
-137.746200122821340
  0
LINE
  8
0
  6
CONTINUOUS
 62
3
 10
455.160474415308500
 20
-87.286179862929430
 11
453.562470673103920
 21
-87.366080050039614
  0
LINE
  8
0
  6
CONTINUOUS
 62
3
 10
455.235380840723790
 20
-88.784308371246084
 11
455.584944159330920
 21
-95.775574743390962
  0
LINE
  8
0
  6
CONTINUOUS
 62
3
 10
455.235380840723790
 20
-88.784308371246084
 11
455.584944159330920
 21
-95.775574743390962
  0
LINE
  8
0
  6
CONTINUOUS
 62
3
 10
455.235380840723790
 20
-88.784308371246084
 11
456.213184653231340
 21
-88.735418180620741
  0
ARC
  8
0
  6
CONTINUOUS
 62
3
 10
456.278103517159020
 20
-90.033795459174257
 40
1.299999237060645
 50
19.463936333587132
 51
92.862405909348169
  0
LINE
  8
0
  6
CONTINUOUS
 62
3
 10
453.562470673103920
 20
-87.366080050039614
 11
454.033373499766180
 21
-96.784136583285573
  0
LINE
  8
0
  6
CONTINUOUS
 62
3
 10
454.361472544206210
 20
-87.326129956484579
 11
454.886477485801270
 21
-97.826228788386288
  0
ARC
  8
0
  6
CONTINUOUS
 62
3
 10
449.018147912202950
 20
-92.599542286709720
 40
8.999999999999948
 50
346.260856815786500
 51
19.463936333592187
  0
LINE
  8
0
  6
CONTINUOUS
 62
3
 10
455.584944159330920
 20
-95.775574743390962
 11
456.562747971838690
 21
-95.726684552765619
  0
ARC
  8
0
  6
CONTINUOUS
 62
3
 10
456.497829107911000
 20
-94.428307274211988
 40
1.299999237060550
 50
272.862387240019760
 51
346.260856815788600
  0
LINE
  8
0
  6
CONTINUOUS
 62
3
 10
455.160474415308500
 20
-87.286179862929430
 11
455.741555828939620
 21
-98.907808135552202
  0
ARC
  8
0
  6
CONTINUOUS
 62
3
 10
455.859601052522980
 20
-117.288700122819810
 40
18.799999999999901
 50
35.808626813495607
 51
85.126025186157264
  0
ARC
  8
0
  6
CONTINUOUS
 62
3
 10
457.626859516151850
 20
-96.563913090796291
 40
1.999999999999927
 50
182.862405226112710
 51
265.126025186159040
  0
ARC
  8
0
  6
CONTINUOUS
 62
3
 10
455.859601052522980
 20
-117.288700122819810
 40
18.799999999999837
 50
5.724810452223617
 51
35.808626813495607
  0
LINE
  8
0
  6
CONTINUOUS
 62
3
 10
478.555860404143910
 20
-155.213887155238810
 11
474.565835466487900
 21
-115.413388402121540
  0
ARC
  8
0
  6
CONTINUOUS
 62
3
 10
457.859601052522980
 20
-157.288700122819820
 40
20.799999999999926
 50
334.359929784105190
 51
5.724810452223396
  0
ARC
  8
0
  6
CONTINUOUS
 62
3
 10
457.859601052522980
 20
-157.288700122819820
 40
20.800000000000011
 50
314.969540422127240
 51
334.359929784105190
  0
TEXT
  8
0
  6
CONTINUOUS
 62
3
 10
-380.114532470703120
 20
186.996017456054690
 40
10.000000000000000
  1
S043
 50
0.000002504478167
 41
0.470000016689301
  7
STANDARD1
  0
TEXT
  8
0
  6
CONTINUOUS
 62
3
 10
-380.114532470703120
 20
175.696014404296880
 40
10.000000000000000
  1
三菱ギヤードモートル
 50
0.000002504478167
 41
0.625000000000000
  7
STANDARD1
  0
TEXT
  8
0
  6
CONTINUOUS
 62
3
 10
-380.114532470703120
 20
164.396011352539060
 40
10.000000000000000
  1
GM-SS
 50
0.000002504478167
 41
0.470000016689301
  7
STANDARD1
  0
TEXT
  8
0
  6
CONTINUOUS
 62
3
 10
-380.114532470703120
 20
153.096023559570310
 40
10.000000000000000
  1
0.2kW
 50
0.000002504478167
 41
0.470000016689301
  7
STANDARD1
  0
TEXT
  8
0
  6
CONTINUOUS
 62
3
 10
-380.114532470703120
 20
141.796020507812500
 40
10.000000000000000
  1
1/270-1/450
 50
0.000002504478167
 41
0.470000016689301
  7
STANDARD1
  0
TEXT
  8
0
  6
CONTINUOUS
 62
3
 10
-380.114532470703120
 20
130.496017456054690
 40
10.000000000000000
  1
SCALE1/1
 50
0.000002504478167
 41
0.470000016689301
  7
STANDARD1
  0
LINE
  8
0
  6
CONTINUOUS
 62
3
 10
234.475365604877310
 20
137.753799877180540
 11
189.475365604877310
 21
137.753799877180540
  0
LINE
  8
0
  6
CONTINUOUS
 62
3
 10
189.475365604877310
 20
140.753799877180540
 11
189.475365604877310
 21
137.753799877180540
  0
LINE
  8
0
  6
DASHDOT
 62
4
 10
-242.349725535117610
 20
156.753799877180540
 11
252.556063817219520
 21
156.753799877180540
  0
LINE
  8
0
  6
CONTINUOUS
 62
3
 10
182.475365604855030
 20
173.753799877180540
 11
184.275365604877490
 21
173.753799877180090
  0
LINE
  8
0
  6
CONTINUOUS
 62
3
 10
182.475365604855030
 20
139.753799877179630
 11
184.275365604877490
 21
139.753799877180090
  0
LINE
  8
0
  6
CONTINUOUS
 62
3
 10
234.075365604877220
 20
172.753799877180090
 11
187.035173226012720
 21
172.753799877180090
  0
LINE
  8
0
  6
CONTINUOUS
 62
3
 10
186.475365604877310
 20
172.603799877179990
 11
187.035173226012720
 21
172.753799877180090
  0
LINE
  8
0
  6
CONTINUOUS
 62
3
 10
186.475365604877310
 20
172.603799877179990
 11
185.275365604877490
 21
172.603799877179990
  0
LINE
  8
0
  6
CONTINUOUS
 62
3
 10
184.475365604877310
 20
173.553799877180270
 11
184.475365604877310
 21
156.753799877180090
  0
ARC
  8
0
  6
CONTINUOUS
 62
3
 10
185.275365604877490
 20
173.403799877180180
 40
0.800000000000237
 50
183.703196634280290
 51
270.000000000000000
  0
LINE
  8
0
  6
CONTINUOUS
 62
3
 10
184.475365604877310
 20
173.553799877180270
 11
184.275365604877490
 21
173.753799877180090
  0
LINE
  8
0
  6
CONTINUOUS
 62
3
 10
186.475365604877310
 20
140.903799877180180
 11
187.035173226012720
 21
140.753799877180090
  0
LINE
  8
0
  6
CONTINUOUS
 62
3
 10
234.075365604877220
 20
140.753799877180090
 11
187.035173226012720
 21
140.753799877180090
  0
LINE
  8
0
  6
CONTINUOUS
 62
3
 10
186.475365604877310
 20
140.903799877180180
 11
185.275365604877490
 21
140.903799877180180
  0
LINE
  8
0
  6
CONTINUOUS
 62
3
 10
184.475365604877310
 20
139.953799877180360
 11
184.475365604877310
 21
156.753799877180090
  0
ARC
  8
0
  6
CONTINUOUS
 62
3
 10
185.275365604877490
 20
140.103799877179990
 40
0.800000000000182
 50
90.000000000000000
 51
176.296803365719710
  0
LINE
  8
0
  6
CONTINUOUS
 62
3
 10
184.475365604877310
 20
139.953799877180360
 11
184.275365604877490
 21
139.753799877180090
  0
ARC
  8
0
  6
CONTINUOUS
 62
3
 10
177.475365604853660
 20
251.840313561601870
 40
5.000000000000000
 50
0.000000000000000
 51
88.999999999998238
  0
ARC
  8
0
  6
CONTINUOUS
 62
3
 10
26.475365604854574
 20
251.906387235417360
 40
5.000000000000244
 50
91.775473893781850
 51
180.000000000000000
  0
LINE
  8
0
  6
CONTINUOUS
 62
3
 10
26.320451074206517
 20
256.903986808031850
 11
79.475365604854574
 21
258.551671564786490
  0
LINE
  8
0
  6
CONTINUOUS
 62
3
 10
181.475365604855480
 20
190.253799877180540
 11
182.475365604855480
 21
190.253799877180540
  0
LINE
  8
0
  6
CONTINUOUS
 62
3
 10
181.475365604854570
 20
123.253799877180540
 11
182.475365604854570
 21
123.253799877180540
  0
ARC
  8
0
  6
CONTINUOUS
 62
3
 10
177.475365604853660
 20
61.667286192758752
 40
5.000000000000068
 50
271.000000000001760
 51
359.999999999994830
  0
LINE
  8
0
  6
CONTINUOUS
 62
3
 10
26.320451074206517
 20
56.603612946329235
 11
79.475365604854574
 21
54.955928189573683
  0
ARC
  8
0
  6
CONTINUOUS
 62
3
 10
26.475365604854574
 20
61.601212518942816
 40
5.000000000000000
 50
180.000000000000000
 51
268.224526106217870
  0
LINE
  8
0
  6
CONTINUOUS
 62
3
 10
21.475365604854574
 20
76.253799877180541
 11
21.475365604854574
 21
61.601212518942816
  0
LINE
  8
0
  6
CONTINUOUS
 62
3
 10
79.475365604854574
 20
258.551671564786490
 11
177.562627637040240
 21
256.839552037383900
  0
LINE
  8
0
  6
CONTINUOUS
 62
3
 10
21.475365604854574
 20
237.253799877180540
 11
21.475365604854574
 21
251.906387235417360
  0
LINE
  8
0
  6
DASHDOT
 62
4
 10
169.475365604854570
 20
254.759652584489230
 11
169.475365604854570
 21
233.615478485266070
  0
LINE
  8
0
  6
DASHDOT
 62
4
 10
180.480876591467680
 20
244.253799877180540
 11
157.110999955490120
 21
244.253799877180540
  0
LINE
  8
0
  6
DASHDOT
 62
4
 10
34.475365604854574
 20
57.229703491638361
 11
34.475365604854574
 21
76.936809756498519
  0
LINE
  8
0
  6
DASHDOT
 62
4
 10
46.499461990396753
 20
69.253799877180541
 11
22.451269219312394
 21
69.253799877180541
  0
LINE
  8
0
  6
CONTINUOUS
 62
3
 10
74.475365604854574
 20
156.753799877180540
 11
74.475365604854574
 21
62.701434682395984
  0
LINE
  8
0
  6
DASHDOT
 62
4
 10
179.633528558850230
 20
69.253799877180541
 11
158.405498784861270
 21
69.253799877180541
  0
LINE
  8
0
  6
DASHDOT
 62
4
 10
169.475365604854570
 20
59.461197322136286
 11
169.475365604854570
 21
81.568720021008630
  0
LINE
  8
0
  6
CONTINUOUS
 62
3
 10
74.475365604854574
 20
62.701434682395984
 11
126.975365604854570
 21
63.617825591127371
  0
LINE
  8
0
  6
CONTINUOUS
 62
3
 10
169.178674695420680
 20
86.251210694838960
 11
176.127564796716230
 21
86.372504022736052
  0
LINE
  8
0
  6
CONTINUOUS
 62
3
 10
180.475365604854570
 20
156.753799877180540
 11
180.475365604854570
 21
91.017623133565507
  0
LINE
  8
0
  6
CONTINUOUS
 62
3
 10
182.475365604855480
 20
156.753799877180540
 11
182.475365604853660
 21
61.667286192758752
  0
LINE
  8
0
  6
CONTINUOUS
 62
3
 10
182.475365604854570
 20
81.753799877180086
 11
182.475365604853660
 21
61.753802848776218
  0
LINE
  8
0
  6
CONTINUOUS
 62
3
 10
182.475365604855940
 20
156.753799877180540
 11
182.475365604853660
 21
251.840313561601870
  0
LINE
  8
0
  6
CONTINUOUS
 62
3
 10
180.475365604854570
 20
156.753799877180540
 11
180.475365604854570
 21
222.489976620794660
  0
LINE
  8
0
  6
CONTINUOUS
 62
3
 10
169.178674695420680
 20
227.256389059521670
 11
176.127564796716230
 21
227.135095731624570
  0
LINE
  8
0
  6
CONTINUOUS
 62
3
 10
74.475365604854574
 20
250.806165071965210
 11
126.975365604854570
 21
249.889774163233260
  0
LINE
  8
0
  6
CONTINUOUS
 62
3
 10
74.475365604854574
 20
156.753799877180540
 11
74.475365604854574
 21
250.806165071965210
  0
LINE
  8
0
  6
DASHDOT
 62
4
 10
46.499461990396753
 20
244.253799877180540
 11
22.451269219312394
 21
244.253799877180540
  0
LINE
  8
0
  6
DASHDOT
 62
4
 10
34.475365604854574
 20
256.277896262722720
 11
34.475365604854574
 21
232.229703491638360
  0
CIRCLE
  8
0
  6
CONTINUOUS
 62
3
 10
169.475365604854570
 20
244.253799877180540
 40
6.000000000000000
  0
ARC
  8
0
  6
CONTINUOUS
 62
3
 10
177.475365604854570
 20
91.017623133565507
 40
3.000000000000058
 50
320.530691636484220
 51
0.000000000000000
  0
ARC
  8
0
  6
CONTINUOUS
 62
3
 10
176.075207577403830
 20
89.372047108205265
 40
3.000000000000049
 50
271.000000000010400
 51
318.682917187906810
  0
ARC
  8
0
  6
CONTINUOUS
 62
3
 10
149.549588882843070
 20
70.975259148997907
 40
3.000000000000189
 50
290.803407824383500
 51
355.062272705049050
  0
ARC
  8
0
  6
CONTINUOUS
 62
3
 10
125.753697154244370
 20
133.607164252074770
 40
70.000000000000327
 50
318.682917187902550
 51
320.530691636482910
  0
ARC
  8
0
  6
CONTINUOUS
 62
3
 10
125.753697154244370
 20
133.607164252074770
 40
70.000000000000014
 50
271.000000000000280
 51
290.803407824389690
  0
ARC
  8
0
  6
CONTINUOUS
 62
3
 10
34.475365604854574
 20
69.253799877180541
 40
6.000000000000058
 50
138.189685104221890
 51
39.779104268765877
  0
CIRCLE
  8
0
  6
CONTINUOUS
 62
3
 10
169.475365604854570
 20
69.253799877180541
 40
6.000000000000000
  0
ARC
  8
0
  6
CONTINUOUS
 62
3
 10
181.475365604854570
 20
122.253799877180540
 40
1.000000000000000
 50
90.000000000000000
 51
180.000000000000000
  0
ARC
  8
0
  6
CONTINUOUS
 62
3
 10
169.475365604854570
 20
69.253799877180541
 40
16.999999999999773
 50
91.000000000000256
 51
175.062272705051070
  0
ARC
  8
0
  6
CONTINUOUS
 62
3
 10
169.475365604854570
 20
244.253799877180540
 40
16.999999999999638
 50
184.937727294950460
 51
268.999999999999770
  0
ARC
  8
0
  6
CONTINUOUS
 62
3
 10
181.475365604855480
 20
191.253799877180540
 40
1.000000000000000
 50
180.000000000000000
 51
270.000000000000000
  0
ARC
  8
0
  6
CONTINUOUS
 62
3
 10
34.475365604854574
 20
244.253799877180540
 40
5.999999999999969
 50
320.220895731258050
 51
221.810314895778110
  0
ARC
  8
0
  6
CONTINUOUS
 62
3
 10
125.753697154244370
 20
179.900435502285860
 40
70.000000000000156
 50
69.196592175610675
 51
88.999999999999716
  0
ARC
  8
0
  6
CONTINUOUS
 62
3
 10
125.753697154244370
 20
179.900435502285860
 40
70.000000000000043
 50
39.469308363516802
 51
41.317082812097503
  0
ARC
  8
0
  6
CONTINUOUS
 62
3
 10
149.549588882843070
 20
242.532340605363170
 40
2.999999999999899
 50
4.937727294942317
 51
69.196592175621532
  0
ARC
  8
0
  6
CONTINUOUS
 62
3
 10
176.075207577403830
 20
224.135552646155360
 40
3.000000000000300
 50
41.317082812093204
 51
88.999999999989555
  0
ARC
  8
0
  6
CONTINUOUS
 62
3
 10
177.475365604854570
 20
222.489976620794660
 40
3.000000000000000
 50
0.000000000000000
 51
39.469308363515758
  0
LINE
  8
0
  6
CONTINUOUS
 62
3
 10
79.475365604854574
 20
54.955928189573683
 11
177.562627637040240
 21
56.668047716976730
  0
LINE
  8
0
  6
CONTINUOUS
 62
3
 10
234.475365604877310
 20
156.753799877180540
 11
234.475365604877310
 21
137.753799877180540
  0
LINE
  8
0
  6
CONTINUOUS
 62
3
 10
234.475365604877310
 20
156.753799877180540
 11
234.475365604877310
 21
172.353799877180450
  0
ARC
  8
0
  6
CONTINUOUS
 62
3
 10
234.075365604877220
 20
172.353799877179990
 40
0.400000000000091
 50
0.000000000000000
 51
90.000000000000000
  0
ARC
  8
0
  6
CONTINUOUS
 62
3
 10
234.075365604877220
 20
141.153799877180180
 40
0.400000000000091
 50
270.000000000000000
 51
0.000000000000000
  0
LINE
  8
0
  6
CONTINUOUS
 62
3
 10
53.975366558534802
 20
240.969675685061360
 11
53.975366558534574
 21
246.387870273603430
  0
LINE
  8
0
  6
CONTINUOUS
 62
3
 10
54.475366558534347
 20
240.987136069807210
 11
54.475366558534802
 21
247.253799877180090
  0
ARC
  8
0
  6
CONTINUOUS
 62
3
 10
56.975365604860258
 20
244.146108132113230
 40
3.000000000000447
 50
271.999999999999030
 51
0.000000000000000
  0
LINE
  8
0
  6
CONTINUOUS
 62
3
 10
59.975365604860258
 20
244.146108132113230
 11
59.975365604860485
 21
248.753799877179630
  0
LINE
  8
0
  6
CONTINUOUS
 62
3
 10
31.475365604860031
 20
240.253799877178720
 11
59.080064094967724
 21
241.217777190038870
  0
ARC
  8
0
  6
CONTINUOUS
 62
3
 10
58.975365604860258
 20
244.215949671096610
 40
3.000000000000447
 50
271.999999999999030
 51
0.000000000000000
  0
LINE
  8
0
  6
CONTINUOUS
 62
3
 10
58.975365604855938
 20
177.253799877179630
 11
50.475365604862304
 21
177.253799877180090
  0
LINE
  8
0
  6
CONTINUOUS
 62
3
 10
47.475365604862304
 20
177.253799877180540
 11
42.975365604861395
 21
177.253799877180540
  0
LINE
  8
0
  6
CONTINUOUS
 62
3
 10
42.975365604860031
 20
156.753799877180540
 11
42.975365604861395
 21
177.253799877180540
  0
LINE
  8
0
  6
CONTINUOUS
 62
3
 10
47.475365604860940
 20
156.753799877181450
 11
47.475365604862304
 21
177.253799877180540
  0
ARC
  8
0
  6
CONTINUOUS
 62
3
 10
50.475365604862077
 20
174.253799877180090
 40
3.000000000000000
 50
90.000000000000000
 51
179.999999999991330
  0
INSERT
  8
0
  2
SYM4
 10
42.975365604860713
 20
167.253799877180540
 41
-1.000000000000000
 50
179.999999999996310
  0
LINE
  8
0
  6
CONTINUOUS
 62
3
 10
61.975365604856165
 20
180.253799877179630
 11
61.975365604860485
 21
248.753799877179630
  0
LINE
  8
0
  6
CONTINUOUS
 62
3
 10
54.475367823019837
 20
247.253799854479100
 11
53.975366872826839
 21
246.387870283410510
  0
LINE
  8
0
  6
CONTINUOUS
 62
3
 10
59.975365604860372
 20
247.253799877179740
 11
54.475367512209118
 21
247.253799877180090
  0
ARC
  8
0
  6
CONTINUOUS
 62
3
 10
61.975365604860485
 20
248.753799877179630
 40
2.000000000000000
 50
90.000000000000000
 51
180.000000000000000
  0
LINE
  8
0
  6
CONTINUOUS
 62
3
 10
74.475365604854574
 20
250.753799877178720
 11
61.975365604860713
 21
250.753799877179630
  0
ARC
  8
0
  6
CONTINUOUS
 62
3
 10
58.975365604856165
 20
180.253799877179630
 40
3.000000000000000
 50
270.000000000000000
 51
0.000000000000000
  0
ARC
  8
0
  6
CONTINUOUS
 62
3
 10
63.975365604860485
 20
248.753799877179180
 40
2.000000000000000
 50
90.000000000000000
 51
179.999999999986980
  0
LINE
  8
0
  6
CONTINUOUS
 62
3
 10
73.975365604854574
 20
156.753799877180540
 11
73.975365604860713
 21
250.753799877178720
  0
INSERT
  8
0
  2
SYM5
 10
61.975365604857757
 20
206.753799877179630
 41
-1.000000000000000
 50
179.999999999996310
  0
LINE
  8
0
  6
CONTINUOUS
 62
3
 10
53.975366558529345
 20
72.537924069300630
 11
53.975366558528890
 21
67.119729480758565
  0
LINE
  8
0
  6
CONTINUOUS
 62
3
 10
54.475366558528890
 20
72.520463684554784
 11
54.475366558528890
 21
66.253799877181905
  0
ARC
  8
0
  6
CONTINUOUS
 62
3
 10
56.975365604854574
 20
69.361491622248309
 40
3.000000000000000
 50
0.000000000000000
 51
87.999999999996646
  0
LINE
  8
0
  6
CONTINUOUS
 62
3
 10
59.975365604854574
 20
69.361491622248309
 11
59.975365604854574
 21
64.753799877181905
  0
LINE
  8
0
  6
CONTINUOUS
 62
3
 10
31.475365604854574
 20
73.253799877184633
 11
59.080064094962268
 21
72.289822564322662
  0
ARC
  8
0
  6
CONTINUOUS
 62
3
 10
58.975365604854574
 20
69.291650083264926
 40
3.000000000000000
 50
0.000000000000000
 51
87.999999999996646
  0
LINE
  8
0
  6
CONTINUOUS
 62
3
 10
58.975365604854574
 20
136.253799877181900
 11
50.475365604860940
 21
136.253799877181900
  0
LINE
  8
0
  6
CONTINUOUS
 62
3
 10
47.475365604860940
 20
136.253799877181900
 11
42.975365604860031
 21
136.253799877181900
  0
LINE
  8
0
  6
CONTINUOUS
 62
3
 10
42.975365604860031
 20
156.753799877181900
 11
42.975365604860031
 21
136.253799877181900
  0
LINE
  8
0
  6
CONTINUOUS
 62
3
 10
47.475365604860940
 20
156.753799877181000
 11
47.475365604860940
 21
136.253799877181900
  0
ARC
  8
0
  6
CONTINUOUS
 62
3
 10
50.475365604860940
 20
139.253799877181900
 40
3.000000000000000
 50
180.000000000000000
 51
270.000000000000000
  0
INSERT
  8
0
  2
SYM6
 10
42.975365604860031
 20
146.253799877181900
  0
LINE
  8
0
  6
CONTINUOUS
 62
3
 10
61.975365604854574
 20
133.253799877181900
 11
61.975365604854574
 21
64.753799877181905
  0
LINE
  8
0
  6
CONTINUOUS
 62
3
 10
54.475367823013926
 20
66.253799899882893
 11
53.975366872821155
 21
67.119729470951484
  0
LINE
  8
0
  6
CONTINUOUS
 62
3
 10
59.975365604854574
 20
66.253799877181905
 11
54.475367512203206
 21
66.253799877181905
  0
ARC
  8
0
  6
CONTINUOUS
 62
3
 10
61.975365604854574
 20
64.753799877181905
 40
2.000000000000000
 50
180.000000000000000
 51
270.000000000000000
  0
LINE
  8
0
  6
CONTINUOUS
 62
3
 10
74.475365604854574
 20
62.753799877181905
 11
61.975365604854574
 21
62.753799877181905
  0
ARC
  8
0
  6
CONTINUOUS
 62
3
 10
58.975365604854574
 20
133.253799877181900
 40
3.000000000000000
 50
0.000000000000000
 51
90.000000000000000
  0
ARC
  8
0
  6
CONTINUOUS
 62
3
 10
63.975365604854574
 20
64.753799877181905
 40
2.000000000000000
 50
180.000000000000000
 51
270.000000000000000
  0
LINE
  8
0
  6
CONTINUOUS
 62
3
 10
73.975365604854574
 20
156.753799877180090
 11
73.975365604854574
 21
62.753799877181905
  0
INSERT
  8
0
  2
SYM7
 10
61.975365604854574
 20
106.753799877181900
  0
LINE
  8
0
  6
CONTINUOUS
 62
3
 10
31.475365604854574
 20
73.253799877184633
 11
31.475365604854574
 21
240.253799877180540
  0
LINE
  8
0
  6
CONTINUOUS
 62
3
 10
-18.524649749283185
 20
174.753799877180540
 11
-18.524649749283185
 21
205.253799877180540
  0
LINE
  8
0
  6
CONTINUOUS
 62
3
 10
21.475365604854574
 20
156.753799877180540
 11
21.475365604854574
 21
237.253799877180540
  0
LINE
  8
0
  6
CONTINUOUS
 62
3
 10
17.475376769916920
 20
210.253799877180540
 11
-35.024649749292962
 21
210.253799877180540
  0
INSERT
  8
0
  2
SYM3
 10
21.475365604854574
 20
211.554575419137900
 41
-1.000000000000000
 50
180.000000000000000
  0
ARC
  8
0
  6
CONTINUOUS
 62
3
 10
-23.524649749283185
 20
205.253799877180540
 40
5.000000000000000
 50
0.000000000000000
 51
90.000000000000000
  0
ARC
  8
0
  6
CONTINUOUS
 62
3
 10
24.475365604854574
 20
237.253799877180540
 40
3.000000000000000
 50
90.000000000000000
 51
180.000000000000000
  0
LINE
  8
0
  6
CONTINUOUS
 62
3
 10
24.475365604854574
 20
240.253799877180540
 11
31.475365604854574
 21
240.253799877180540
  0
LINE
  8
0
  6
CONTINUOUS
 62
3
 10
-15.524649749283185
 20
171.753799877180540
 11
18.475365604854574
 21
171.753799877180540
  0
ARC
  8
0
  6
CONTINUOUS
 62
3
 10
18.475365604854574
 20
174.753799877180540
 40
3.000000000000000
 50
270.000000000000000
 51
0.000000000000000
  0
ARC
  8
0
  6
CONTINUOUS
 62
3
 10
-15.524649749283185
 20
174.753799877180540
 40
3.000000000000000
 50
180.000000000000000
 51
270.000000000000000
  0
LINE
  8
0
  6
DASHDOT
 62
4
 10
0.475365604854574
 20
143.003035069030720
 11
0.475365604854574
 21
170.779117840671800
  0
CIRCLE
  8
0
  6
CONTINUOUS
 62
3
 10
0.475365604854574
 20
156.753799877180540
 40
10.500000000000000
  0
ARC
  8
0
  6
CONTINUOUS
 62
3
 10
-15.524649749283185
 20
138.753799877180540
 40
3.000000000000000
 50
90.000000000000000
 51
180.000000000000000
  0
LINE
  8
0
  6
CONTINUOUS
 62
3
 10
-15.524649749283185
 20
141.753799877180540
 11
18.475365604854574
 21
141.753799877180540
  0
LINE
  8
0
  6
CONTINUOUS
 62
3
 10
-18.524649749283185
 20
138.753799877180540
 11
-18.524649749283185
 21
108.253799877180540
  0
ARC
  8
0
  6
CONTINUOUS
 62
3
 10
18.475365604854574
 20
138.753799877180540
 40
3.000000000000000
 50
0.000000000000000
 51
90.000000000000000
  0
LINE
  8
0
  6
CONTINUOUS
 62
3
 10
21.475365604854574
 20
156.753799877180540
 11
21.475365604854574
 21
76.253799877180541
  0
LINE
  8
0
  6
CONTINUOUS
 62
3
 10
17.475824510695475
 20
103.253799877180540
 11
-35.024649749292962
 21
103.253799877180540
  0
INSERT
  8
0
  2
SYM3
 10
21.475365604854574
 20
101.953024335223170
  0
ARC
  8
0
  6
CONTINUOUS
 62
3
 10
-23.524649749283185
 20
108.253799877180540
 40
5.000000000000000
 50
270.000000000000000
 51
0.000000000000000
  0
ARC
  8
0
  6
CONTINUOUS
 62
3
 10
24.475365604854574
 20
76.253799877180541
 40
3.000000000000000
 50
180.000000000000000
 51
270.000000000000000
  0
LINE
  8
0
  6
CONTINUOUS
 62
3
 10
24.475365604854574
 20
73.253799877180541
 11
31.475365604854574
 21
73.253799877180541
  0
LINE
  8
0
  6
CONTINUOUS
 62
3
 10
-439.575150775719290
 20
-248.467944405263840
 11
-439.575150775719290
 21
-262.746200122821560
  0
LINE
  8
0
  6
CONTINUOUS
 62
3
 10
-467.075150775719290
 20
-244.746200122821560
 11
-443.412810543618210
 21
-244.746200122821560
  0
ARC
  8
0
  6
CONTINUOUS
 62
3
 10
-301.575150775718780
 20
-262.746200122821560
 40
2.000000000000000
 50
0.000000000000000
 51
90.000000000000000
  0
ARC
  8
0
  6
CONTINUOUS
 62
3
 10
-272.075150775718780
 20
-247.246200122821560
 40
2.500000000000000
 50
0.000000000000000
 51
90.000000000000000
  0
ARC
  8
0
  6
CONTINUOUS
 62
3
 10
-437.575150775718840
 20
-262.746200122821560
 40
2.000000000000000
 50
90.000000000000000
 51
180.000000000000000
  0
ARC
  8
0
  6
CONTINUOUS
 62
3
 10
-467.075150775718840
 20
-247.246200122821560
 40
2.500000000000000
 50
90.000000000000000
 51
180.000000000000000
  0
ARC
  8
0
  6
CONTINUOUS
 62
3
 10
-272.575150775718780
 20
-241.746200122821560
 40
3.000000000000000
 50
180.000000000000000
 51
270.000000000000000
  0
ARC
  8
0
  6
CONTINUOUS
 62
3
 10
-466.575150775719290
 20
-241.746200122821560
 40
3.000000000000000
 50
270.000000000000000
 51
0.000000000000000
  0
ARC
  8
0
  6
CONTINUOUS
 62
3
 10
-355.575150775718840
 20
-147.979598307003190
 40
80.000000000000057
 50
0.000000000000000
 51
85.339580615885211
  0
ARC
  8
0
  6
CONTINUOUS
 62
3
 10
-383.575150775719290
 20
-147.979598307003190
 40
80.000000000000028
 50
94.660419384114462
 51
140.211934354291860
  0
LINE
  8
0
  6
CONTINUOUS
 62
3
 10
-299.575150775718780
 20
-248.467944405263840
 11
-299.575150775718780
 21
-262.746200122821560
  0
LINE
  8
0
  6
CONTINUOUS
 62
3
 10
-269.575150775718780
 20
-247.246200122821560
 11
-269.575150775718780
 21
-262.746200122821560
  0
LINE
  8
0
  6
DASHDOT
 62
4
 10
-282.075150775718780
 20
-240.585921268451500
 11
-282.075150775718780
 21
-267.162991962421240
  0
LINE
  8
0
  6
CONTINUOUS
 62
3
 10
-269.575150775718780
 20
-262.746200122821560
 11
-299.575150775718780
 21
-262.746200122821560
  0
LINE
  8
0
  6
CONTINUOUS
 62
3
 10
-272.075150775718780
 20
-244.746200122821560
 11
-295.737491007819870
 21
-244.746200122821560
  0
LINE
  8
0
  6
CONTINUOUS
 62
3
 10
-469.575150775718840
 20
-247.246200122821560
 11
-469.575150775718840
 21
-262.746200122821560
  0
LINE
  8
0
  6
DASHDOT
 62
4
 10
-457.075150775718840
 20
-240.585921268451500
 11
-457.075150775718840
 21
-267.162991962421240
  0
LINE
  8
0
  6
CONTINUOUS
 62
3
 10
-469.575150775718840
 20
-262.746200122821560
 11
-439.575150775718840
 21
-262.746200122821560
  0
LINE
  8
0
  6
CONTINUOUS
 62
3
 10
-301.575150775718780
 20
-260.746200122821560
 11
-369.575150775718840
 21
-260.746200122821560
  0
LINE
  8
0
  6
CONTINUOUS
 62
3
 10
-437.575150775718840
 20
-260.746200122821560
 11
-369.575150775718840
 21
-260.746200122821560
  0
LINE
  8
0
  6
CONTINUOUS
 62
3
 10
-275.575150775718780
 20
-147.979598307003190
 11
-275.575150775718780
 21
-241.746200122821560
  0
LINE
  8
0
  6
CONTINUOUS
 62
3
 10
-463.575150775719290
 20
-172.004338063458820
 11
-463.575150775719290
 21
-241.746200122821560
  0
ARC
  8
0
  6
CONTINUOUS
 62
3
 10
-294.564252835161990
 20
-253.591206909188430
 40
7.999999999999961
 50
131.146783655315550
 51
180.000000000000000
  0
ARC
  8
0
  6
CONTINUOUS
 62
3
 10
-444.586048716276080
 20
-253.591206909188430
 40
8.000000000000000
 50
0.000000000000000
 51
48.853216344683936
  0
ARC
  8
0
  6
CONTINUOUS
 62
3
 10
-460.575150775719290
 20
-227.746200122821560
 40
2.999999999999921
 50
33.398488467987271
 51
180.000000000000000
  0
ARC
  8
0
  6
CONTINUOUS
 62
3
 10
-438.586048716276080
 20
-258.876046979368710
 40
1.999999999999997
 50
284.638791943256820
 51
0.000000000000000
  0
LINE
  8
0
  6
CONTINUOUS
 62
3
 10
-436.586048716276080
 20
-253.591206909188430
 11
-436.586048716276080
 21
-258.876046979368710
  0
ARC
  8
0
  6
CONTINUOUS
 62
3
 10
-442.075150775719290
 20
-248.467944405263840
 40
2.500000000000000
 50
0.000000000000000
 51
48.071495567384105
  0
ARC
  8
0
  6
CONTINUOUS
 62
3
 10
-369.575150775719290
 20
-167.746200122821560
 40
106.000000000000010
 50
228.671341353656600
 51
228.853216344683940
  0
ARC
  8
0
  6
CONTINUOUS
 62
3
 10
-443.412810543618210
 20
-247.246200122821560
 40
2.499999999999925
 50
47.114815451044294
 51
90.000000000000000
  0
ARC
  8
0
  6
CONTINUOUS
 62
3
 10
-369.575150775719290
 20
-167.746200122821560
 40
106.000000000000070
 50
213.398488467987250
 51
228.671341353656600
  0
ARC
  8
0
  6
CONTINUOUS
 62
3
 10
-369.575150775718840
 20
-167.746200122821560
 40
106.000000000000050
 50
311.328658646343400
 51
326.601511532012810
  0
ARC
  8
0
  6
CONTINUOUS
 62
3
 10
-297.075150775718780
 20
-248.467944405263840
 40
2.499999999999884
 50
131.928504432615880
 51
180.000000000000000
  0
ARC
  8
0
  6
CONTINUOUS
 62
3
 10
-295.737491007819870
 20
-247.246200122821560
 40
2.500000000000000
 50
90.000000000000000
 51
132.885184548955720
  0
ARC
  8
0
  6
CONTINUOUS
 62
3
 10
-300.564252835161990
 20
-258.876046979368710
 40
2.000000000000000
 50
180.000000000000000
 51
255.361208056743180
  0
LINE
  8
0
  6
CONTINUOUS
 62
3
 10
-302.564252835161990
 20
-253.591206909188430
 11
-302.564252835161990
 21
-258.876046979368710
  0
ARC
  8
0
  6
CONTINUOUS
 62
3
 10
-278.575150775718780
 20
-227.746200122821560
 40
3.000000000000000
 50
0.000000000000000
 51
146.601511532010900
  0
ARC
  8
0
  6
CONTINUOUS
 62
3
 10
-369.575150775718840
 20
-167.746200122821560
 40
106.000000000000070
 50
311.146783655316090
 51
311.328658646343400
  0
ARC
  8
0
  6
CONTINUOUS
 62
3
 10
-299.583853705507580
 20
-251.305869428231690
 40
7.999999999999901
 50
129.950233661982820
 51
178.218230102087230
  0
ARC
  8
0
  6
CONTINUOUS
 62
3
 10
-317.575150775718780
 20
-250.746200122821560
 40
10.000000000000000
 50
270.000000000000000
 51
358.218230102088230
  0
ARC
  8
0
  6
CONTINUOUS
 62
3
 10
-421.575150775718840
 20
-250.746200122821560
 40
9.999999999999675
 50
181.781769897911860
 51
270.000000000000000
  0
ARC
  8
0
  6
CONTINUOUS
 62
3
 10
-439.566447845929590
 20
-251.305869428231690
 40
8.000000000000107
 50
1.781769897912753
 51
50.049766338017157
  0
ARC
  8
0
  6
CONTINUOUS
 62
3
 10
-280.575150775718330
 20
-203.732308553714740
 40
4.999999999999877
 50
337.984630459601990
 51
0.000000000000000
  0
ARC
  8
0
  6
CONTINUOUS
 62
3
 10
-458.575150775718840
 20
-203.732308553714740
 40
5.000000000000000
 50
180.000000000000000
 51
202.015369540398010
  0
ARC
  8
0
  6
CONTINUOUS
 62
3
 10
-369.575150775718840
 20
-167.746200122821560
 40
101.000000000000310
 50
202.015369540396850
 51
230.049766338017580
  0
ARC
  8
0
  6
CONTINUOUS
 62
3
 10
-369.575150775718380
 20
-167.746200122821560
 40
101.000000000000080
 50
309.950233661982400
 51
337.984630459603120
  0
ARC
  8
0
  6
CONTINUOUS
 62
3
 10
-277.575150775718330
 20
-152.746200122821560
 40
2.000000000000000
 50
0.000000000000000
 51
90.000000000000000
  0
ARC
  8
0
  6
CONTINUOUS
 62
3
 10
-279.077153548587090
 20
-132.746200122821560
 40
2.000000000000000
 50
270.000000000000000
 51
11.262247925641974
  0
LINE
  8
0
  6
CONTINUOUS
 62
3
 10
-277.575150775718330
 20
-150.746200122821560
 11
-282.668915428735720
 21
-150.746200122821560
  0
LINE
  8
0
  6
CONTINUOUS
 62
3
 10
-279.077153548587090
 20
-134.746200122821560
 11
-282.695591619046640
 21
-134.746200122821560
  0
LINE
  8
0
  6
DASHDOT
 62
4
 10
-369.575150775718840
 20
-23.172967808841520
 11
-369.575150775718840
 21
-270.322513371167590
  0
LINE
  8
0
  6
CONTINUOUS
 62
3
 10
-359.075150775718840
 20
-36.595720288249083
 11
-380.075150775718840
 21
-36.595720288249083
  0
ARC
  8
0
  6
CONTINUOUS
 62
3
 10
-380.075150775718840
 20
-46.595720288249083
 40
10.000000000000000
 50
90.000000000000000
 51
180.000000000000000
  0
LINE
  8
0
  6
CONTINUOUS
 62
3
 10
-390.075150775718840
 20
-46.595720288249083
 11
-390.075150775718840
 21
-85.746200122821676
  0
CIRCLE
  8
0
  6
CONTINUOUS
 62
3
 10
-369.575150775718840
 20
-56.595720288249083
 40
10.000000000000000
  0
LINE
  8
0
  6
DASHDOT
 62
4
 10
-346.407237776837290
 20
-56.595720288249083
 11
-393.429751678371990
 21
-56.595720288249083
  0
LINE
  8
0
  6
CONTINUOUS
 62
3
 10
-349.075150775718840
 20
-46.595720288249083
 11
-349.075150775718840
 21
-85.746200122821676
  0
ARC
  8
0
  6
CONTINUOUS
 62
3
 10
-359.075150775718840
 20
-46.595720288249083
 40
10.000000000000000
 50
0.000000000000000
 51
90.000000000000000
  0
INSERT
  8
0
  2
SYM8
 10
-319.575150775718780
 20
-86.746200122821563
  0
INSERT
  8
0
  2
SYM9
 10
-317.575150775718780
 20
-250.746200122821560
  0
INSERT
  8
0
  2
SYM10
 10
-419.575150775718840
 20
-86.746200122821563
 41
-1.000000000000000
  0
INSERT
  8
0
  2
SYM11
 10
-421.575150775718840
 20
-250.746200122821560
 41
-1.000000000000000
  0
ARC
  8
0
  6
CONTINUOUS
 62
3
 10
-354.075150775718840
 20
-85.746200122821676
 40
4.999999999999647
 50
308.158322091910630
 51
0.000000000000000
  0
INSERT
  8
0
  2
SYM12
 10
-359.075150775718840
 20
-80.595720288250561
  0
ARC
  8
0
  6
CONTINUOUS
 62
3
 10
-385.075150775718840
 20
-85.746200122821676
 40
5.000000000000000
 50
180.000000000000000
 51
231.841677908089340
  0
INSERT
  8
0
  2
SYM13
 10
-380.075150775718380
 20
-80.595720288250561
 41
-1.000000000000000
  0
ARC
  8
0
  6
CONTINUOUS
 62
3
 10
-416.834259284303020
 20
-227.902884397919880
 40
3.000000000000335
 50
144.618555413460030
 51
231.846812084441130
  0
ARC
  8
0
  6
CONTINUOUS
 62
3
 10
-424.375926317676430
 20
-222.546975664779100
 40
6.249999999999936
 50
324.618555413454890
 51
125.381444586542400
  0
ARC
  8
0
  6
CONTINUOUS
 62
3
 10
-429.731835050816930
 20
-215.005308631406020
 40
3.000000000000101
 50
218.153187915552420
 51
305.381444586544940
  0
ARC
  8
0
  6
CONTINUOUS
 62
3
 10
-309.418466500620700
 20
-215.005308631406020
 40
2.999999999999964
 50
234.618555413455030
 51
321.846812084447610
  0
ARC
  8
0
  6
CONTINUOUS
 62
3
 10
-322.316042267134610
 20
-227.902884397919880
 40
3.000000000000177
 50
308.153187915559500
 51
35.381444586540852
  0
ARC
  8
0
  6
CONTINUOUS
 62
3
 10
-314.774375233761190
 20
-222.546975664779100
 40
6.249999999999865
 50
54.618555413457607
 51
215.381444586544720
  0
ARC
  8
0
  6
CONTINUOUS
 62
3
 10
-369.575150775718840
 20
-167.746200122821680
 40
29.999999999999918
 50
259.111672490974460
 51
280.888327509025540
  0
ARC
  8
0
  6
CONTINUOUS
 62
3
 10
-317.113928238122470
 20
-235.753292673937270
 40
2.999999999999992
 50
268.237981954255990
 51
305.556873450844530
  0
LINE
  8
0
  6
CONTINUOUS
 62
3
 10
-286.075150775718780
 20
-175.266184148370600
 11
-286.075150775718780
 21
-181.246200122821680
  0
ARC
  8
0
  6
CONTINUOUS
 62
3
 10
-356.075150775718840
 20
-181.246200122821680
 40
70.000000000000014
 50
305.556873450843060
 51
0.000000000000000
  0
ARC
  8
0
  6
CONTINUOUS
 62
3
 10
-289.075150775718780
 20
-175.266184148370600
 40
3.000000000000000
 50
0.000000000000000
 51
48.904592888798497
  0
ARC
  8
0
  6
CONTINUOUS
 62
3
 10
-330.530195095493350
 20
-243.185325393488260
 40
2.999999999999960
 50
292.412247336624090
 51
329.731138833219400
  0
ARC
  8
0
  6
CONTINUOUS
 62
3
 10
-317.575150775718780
 20
-250.746200122821680
 40
12.000000000000021
 50
88.237981954247360
 51
149.731138833220170
  0
ARC
  8
0
  6
CONTINUOUS
 62
3
 10
-356.075150775718840
 20
-181.246200122821680
 40
70.000000000000000
 50
270.000000000000000
 51
292.412247336625680
  0
LINE
  8
0
  6
CONTINUOUS
 62
3
 10
-356.075150775718840
 20
-251.246200122821680
 11
-383.075150775718840
 21
-251.246200122821680
  0
ARC
  8
0
  6
CONTINUOUS
 62
3
 10
-408.620106455943870
 20
-243.185325393488260
 40
3.000000000000296
 50
210.268861166777130
 51
247.587752663367870
  0
ARC
  8
0
  6
CONTINUOUS
 62
3
 10
-383.075150775718840
 20
-181.246200122821680
 40
70.000000000000043
 50
247.587752663374320
 51
270.000000000000000
  0
ARC
  8
0
  6
CONTINUOUS
 62
3
 10
-422.036373313315150
 20
-235.753292673937270
 40
3.000000000000101
 50
234.443126549155470
 51
271.762018045752650
  0
ARC
  8
0
  6
CONTINUOUS
 62
3
 10
-421.575150775718840
 20
-250.746200122821680
 40
11.999999999999920
 50
30.268861166779732
 51
91.762018045750480
  0
ARC
  8
0
  6
CONTINUOUS
 62
3
 10
-383.075150775718840
 20
-181.246200122821680
 40
70.000000000000000
 50
180.000000000000000
 51
180.116959156176880
  0
LINE
  8
0
  6
CONTINUOUS
 62
3
 10
-453.075150775718840
 20
-177.660248910282770
 11
-453.075150775718840
 21
-181.246200122821680
  0
ARC
  8
0
  6
CONTINUOUS
 62
3
 10
-423.889353302206700
 20
-101.112398526033530
 40
3.000000000000060
 50
73.284866328917929
 51
127.529310569733240
  0
ARC
  8
0
  6
CONTINUOUS
 62
3
 10
-419.575150775718840
 20
-86.746200122821676
 40
11.999999999999977
 50
253.284866328922110
 51
265.252798194501960
  0
ARC
  8
0
  6
CONTINUOUS
 62
3
 10
-405.191448376597920
 20
-91.001679566260066
 40
3.000000000000082
 50
109.274480644548270
 51
163.518924885355860
  0
ARC
  8
0
  6
CONTINUOUS
 62
3
 10
-383.075150775718840
 20
-154.246200122821680
 40
69.999999999999986
 50
101.188055751322350
 51
109.274480644545400
  0
LINE
  8
0
  6
CONTINUOUS
 62
3
 10
-393.075150775718840
 20
-89.936072719173978
 11
-393.075150775718840
 21
-88.519493222201731
  0
ARC
  8
0
  6
CONTINUOUS
 62
3
 10
-396.075150775718840
 20
-88.519493222201731
 40
3.000000000000000
 50
0.000000000000000
 51
101.188055751322580
  0
LINE
  8
0
  6
CONTINUOUS
 62
3
 10
-346.075150775718840
 20
-89.936072719173978
 11
-346.075150775718840
 21
-88.519493222201731
  0
ARC
  8
0
  6
CONTINUOUS
 62
3
 10
-343.075150775718840
 20
-88.519493222201731
 40
2.999999999999972
 50
78.811944248677420
 51
180.000000000000000
  0
ARC
  8
0
  6
CONTINUOUS
 62
3
 10
-356.075150775718840
 20
-154.246200122821680
 40
70.000000000000028
 50
70.725519355454594
 51
78.811944248677648
  0
ARC
  8
0
  6
CONTINUOUS
 62
3
 10
-333.958853174839760
 20
-91.001679566260066
 40
2.999999999999934
 50
16.481075114644117
 51
70.725519355451723
  0
ARC
  8
0
  6
CONTINUOUS
 62
3
 10
-319.575150775718780
 20
-86.746200122821676
 40
12.000000000000242
 50
196.481075114643660
 51
201.440250913326880
  0
ARC
  8
0
  6
CONTINUOUS
 62
3
 10
-315.260948249230920
 20
-101.112398526033530
 40
2.999999999999997
 50
52.470689430266766
 51
106.715133671082070
  0
ARC
  8
0
  6
CONTINUOUS
 62
3
 10
-356.075150775718840
 20
-154.246200122821680
 40
70.000000000000071
 50
35.853467063468187
 51
52.470689430267313
  0
ARC
  8
0
  6
CONTINUOUS
 62
3
 10
-395.075150775718840
 20
-244.362814113529680
 40
2.999999999999949
 50
259.682397487131650
 51
0.000000000000000
  0
ARC
  8
0
  6
CONTINUOUS
 62
3
 10
-384.075150775718840
 20
-245.446200122821660
 40
3.000000000000000
 50
180.000000000000000
 51
270.000000000000000
  0
ARC
  8
0
  6
CONTINUOUS
 62
3
 10
-344.075150775718840
 20
-244.362814113529680
 40
3.000000000000000
 50
180.000000000000000
 51
280.317602512868350
  0
ARC
  8
0
  6
CONTINUOUS
 62
3
 10
-355.075150775718840
 20
-245.446200122821660
 40
3.000000000000000
 50
270.000000000000000
 51
0.000000000000000
  0
LINE
  8
0
  6
CONTINUOUS
 62
3
 10
-347.075150775718840
 20
-197.246200122819120
 11
-347.075150775718840
 21
-244.362814113529680
  0
LINE
  8
0
  6
CONTINUOUS
 62
3
 10
-352.075150775718840
 20
-197.720461581287570
 11
-352.075150775718840
 21
-245.446200122821660
  0
LINE
  8
0
  6
CONTINUOUS
 62
3
 10
-387.075150775718840
 20
-197.720461581287570
 11
-387.075150775718840
 21
-245.446200122821660
  0
LINE
  8
0
  6
CONTINUOUS
 62
3
 10
-392.075150775718840
 20
-197.246200122819350
 11
-392.075150775718840
 21
-244.362814113529680
  0
ARC
  8
0
  6
CONTINUOUS
 62
3
 10
-424.375926317676430
 20
-112.945424580864250
 40
6.249999999999865
 50
234.618555413457640
 51
239.573505486895390
  0
ARC
  8
0
  6
CONTINUOUS
 62
3
 10
-429.731835050816930
 20
-120.487091614237320
 40
2.999999999999964
 50
54.618555413455020
 51
56.479995948265923
  0
ARC
  8
0
  6
CONTINUOUS
 62
3
 10
-395.075150775718840
 20
-197.246200122819350
 40
3.000000000000000
 50
0.000000000000000
 51
12.243652867701085
  0
ARC
  8
0
  6
CONTINUOUS
 62
3
 10
-384.075150775718840
 20
-197.720461581287570
 40
3.000000000000770
 50
163.514665757243880
 51
180.000000000000000
  0
ARC
  8
0
  6
CONTINUOUS
 62
3
 10
-355.075150775718840
 20
-197.720461581287570
 40
3.000000000000000
 50
0.000000000000000
 51
16.485334242756117
  0
ARC
  8
0
  6
CONTINUOUS
 62
3
 10
-344.075150775718840
 20
-197.246200122819120
 40
3.000000000000769
 50
167.756347132298490
 51
180.000000000000000
  0
LINE
  8
0
  6
DASHDOT
 62
4
 10
-261.573992613059090
 20
-143.246200122819460
 11
-482.196369699944630
 21
-143.246200122819460
  0
INSERT
  8
0
  2
SYM14
 10
-424.375926317676430
 20
-222.546975664779040
  0
INSERT
  8
0
  2
SYM14
 10
-314.774375233761190
 20
-222.546975664779040
  0
LINE
  8
0
  6
CONTINUOUS
 62
3
 10
-427.421996698648970
 20
-116.941324779857800
 11
-428.089497751682300
 21
-116.554370183005290
  0
LINE
  8
0
  6
CONTINUOUS
 62
3
 10
-429.365055875818480
 20
-110.444974777915240
 11
-429.365747596946900
 21
-110.052794619305070
  0
LINE
  8
0
  6
CONTINUOUS
 62
3
 10
-429.365743283568240
 20
-110.052795309542200
 11
-425.889509909978070
 21
-108.045795629268790
  0
ARC
  8
0
  6
CONTINUOUS
 62
3
 10
-424.375926317676430
 20
-112.945424580864190
 40
4.999999999999998
 50
108.289857495549320
 51
160.034302033855110
  0
LINE
  8
0
  6
CONTINUOUS
 62
3
 10
-313.253599063661970
 20
-108.065301647287820
 11
-309.794729800079210
 21
-110.070430111689630
  0
LINE
  8
0
  6
CONTINUOUS
 62
3
 10
-309.794726799157790
 20
-110.070429887214170
 11
-309.789125426108000
 21
-113.246200122819400
  0
ARC
  8
0
  6
CONTINUOUS
 62
3
 10
-314.774375233761190
 20
-112.945424580864190
 40
4.999999999999980
 50
356.551284094674600
 51
71.710142504450673
  0
LINE
  8
0
  6
DASHDOT
 62
4
 10
-393.419936373044040
 20
-137.746200122821560
 11
-345.578153841917810
 21
-137.746200122821560
  0
ARC
  8
0
  6
CONTINUOUS
 62
3
 10
-448.875150775718790
 20
-157.288700122819420
 40
20.799999999999986
 50
174.275189547776620
 51
205.640070215894870
  0
POINT
  8
0
  6
DASHDOT
 62
4
 10
-428.075150775718840
 20
-143.259930615945390
  0
ARC
  8
0
  6
CONTINUOUS
 62
3
 10
-448.875150775718790
 20
-157.288700122819420
 40
20.799999999999926
 50
205.640070215894870
 51
260.083463391769440
  0
POINT
  8
0
  6
DASHDOT
 62
4
 10
-428.075150775718840
 20
-143.259930615945390
  0
ARC
  8
0
  6
CONTINUOUS
 62
3
 10
-448.875150775718790
 20
-157.288700122819420
 40
20.799999999999986
 50
174.275189547776620
 51
205.640070215894870
  0
ARC
  8
0
  6
CONTINUOUS
 62
3
 10
-446.875150775718790
 20
-117.288700122819420
 40
18.799999999999955
 50
0.000000000000000
 51
79.401214733933941
  0
ARC
  8
0
  6
CONTINUOUS
 62
3
 10
-443.049396141631860
 20
-96.843563745681706
 40
1.999999999999927
 50
177.137594773887290
 51
259.401214733934010
  0
ARC
  8
0
  6
CONTINUOUS
 62
3
 10
-448.642409239347670
 20
-96.563913090795893
 40
1.999999999999928
 50
274.873974813840960
 51
357.137594773887320
  0
ARC
  8
0
  6
CONTINUOUS
 62
3
 10
-447.208603509335260
 20
-180.027711099748730
 40
1.999999999999962
 50
94.191726156001650
 51
177.137594773887290
  0
LINE
  8
0
  6
CONTINUOUS
 62
3
 10
-445.377022267402030
 20
-87.326129956484181
 11
-450.470659195678990
 21
-189.198868522024270
  0
ARC
  8
0
  6
CONTINUOUS
 62
3
 10
-452.801616607051070
 20
-179.748060444862920
 40
2.000000000000154
 50
357.137594773887600
 51
80.083463391767268
  0
LINE
  8
0
  6
CONTINUOUS
 62
3
 10
-469.571410127339730
 20
-155.213887155238410
 11
-465.581385189683710
 21
-115.413388402121140
  0
ARC
  8
0
  6
CONTINUOUS
 62
3
 10
-448.875150775718790
 20
-157.288700122819420
 40
20.800000000000082
 50
274.191726156007460
 51
354.952683218992210
  0
ARC
  8
0
  6
CONTINUOUS
 62
3
 10
-446.875150775718790
 20
-117.288700122819420
 40
18.800000000000036
 50
94.873974813842736
 51
144.191373186504250
  0
ARC
  8
0
  6
CONTINUOUS
 62
3
 10
-446.875150775718790
 20
-117.288700122819420
 40
18.799999999999933
 50
144.191373186504250
 51
174.275189547776390
  0
LINE
  8
0
  6
CONTINUOUS
 62
3
 10
-446.176024138504320
 20
-87.286179862929032
 11
-444.578020396299730
 21
-87.366080050039216
  0
LINE
  8
0
  6
CONTINUOUS
 62
3
 10
-428.075150775718840
 20
-125.915591362599850
 11
-428.075150775718840
 21
-117.288700122819420
  0
INSERT
  8
0
  2
SYM15
 10
-451.019972982062200
 20
-184.165156734079860
 41
1.000000000000000
 42
1.000000000000000
 43
1.000000000000000
 50
357.137594773886350
  0
ARC
  8
0
  6
CONTINUOUS
 62
3
 10
-440.033697635398770
 20
-92.599542286709323
 40
9.000000000000060
 50
160.536063666407810
 51
193.739143184213500
  0
POINT
  8
0
  6
CONTINUOUS
 62
3
 10
-446.425712223223170
 20
-92.279941557318068
  0
LINE
  8
0
  6
CONTINUOUS
 62
3
 10
-446.250930563919610
 20
-88.784308371245686
 11
-446.600493882526730
 21
-95.775574743390564
  0
LINE
  8
0
  6
CONTINUOUS
 62
3
 10
-446.250930563919610
 20
-88.784308371245686
 11
-446.600493882526730
 21
-95.775574743390564
  0
LINE
  8
0
  6
CONTINUOUS
 62
3
 10
-446.600493882526730
 20
-95.775574743390564
 11
-447.578297695034510
 21
-95.726684552765221
  0
LINE
  8
0
  6
CONTINUOUS
 62
3
 10
-446.250930563919610
 20
-88.784308371245686
 11
-447.228734376427160
 21
-88.735418180620343
  0
ARC
  8
0
  6
CONTINUOUS
 62
3
 10
-447.513378831106820
 20
-94.428307274211591
 40
1.299999237060493
 50
193.739143184211430
 51
267.137612759980240
  0
ARC
  8
0
  6
CONTINUOUS
 62
3
 10
-447.293653240354840
 20
-90.033795459173859
 40
1.299999237060474
 50
87.137594090651831
 51
160.536063666412870
  0
LINE
  8
0
  6
CONTINUOUS
 62
3
 10
-446.176024138504320
 20
-87.286179862929032
 11
-451.269661066781280
 21
-189.158918428469010
  0
LINE
  8
0
  6
CONTINUOUS
 62
3
 10
-449.671657324576700
 20
-189.238818615579990
 11
-451.269661066781280
 21
-189.158918428469010
  0
LINE
  8
0
  6
CONTINUOUS
 62
3
 10
-444.578020396299730
 20
-87.366080050039216
 11
-449.671657324576700
 21
-189.238818615579990
  0
LINE
  8
0
  6
CONTINUOUS
 62
3
 10
-282.075150775718780
 20
-145.746200122819400
 11
-282.075150775718780
 21
-140.746200122819400
  0
LINE
  8
0
  6
CONTINUOUS
 62
3
 10
-282.585567623236500
 20
-145.746200122819400
 11
-282.075150775718780
 21
-145.746200122819400
  0
LINE
  8
0
  6
CONTINUOUS
 62
3
 10
-282.585567623236500
 20
-140.746200122819400
 11
-282.075150775718780
 21
-140.746200122819400
  0
ARC
  8
0
  6
CONTINUOUS
 62
3
 10
-582.575150775718840
 20
-143.246200122819400
 40
300.000000000000230
 50
355.138594604201960
 51
4.861405395798035
  0
LINE
  8
0
  6
CONTINUOUS
 62
3
 10
-312.075150775718780
 20
-113.246200122819400
 11
-288.636381641737160
 21
-113.246200122819400
  0
LINE
  8
0
  6
CONTINUOUS
 62
3
 10
-312.075150775718780
 20
-173.246200122819400
 11
-288.636381641737160
 21
-173.246200122819400
  0
ARC
  8
0
  6
CONTINUOUS
 62
3
 10
-288.636381641737160
 20
-118.246200122819400
 40
4.999999999999893
 50
4.861405395798621
 51
90.000000000000000
  0
ARC
  8
0
  6
CONTINUOUS
 62
3
 10
-288.636381641737160
 20
-168.246200122819400
 40
5.000000000000000
 50
270.000000000000000
 51
355.138594604201330
  0
ARC
  8
0
  6
CONTINUOUS
 62
4
 10
-127.975150775718640
 20
-143.246200122819400
 40
290.796999999999970
 50
174.998349729065040
 51
180.000000000000000
  0
LINE
  8
0
  6
CONTINUOUS
 62
4
 10
-411.652741091574850
 20
-105.000702736570750
 11
-408.312436058297180
 21
-101.660397703292850
  0
ARC
  8
0
  6
CONTINUOUS
 62
4
 10
-396.947041363238210
 20
-119.706402464907390
 40
20.797000000000015
 50
135.000000000000000
 51
174.998349729064670
  0
ARC
  8
0
  6
CONTINUOUS
 62
4
 10
-369.575150775718840
 20
-489.846200122819540
 40
390.797000000000030
 50
90.000000000000000
 51
95.417963762360529
  0
ARC
  8
0
  6
CONTINUOUS
 62
4
 10
-406.191115714737180
 20
-103.781718046852630
 40
3.000000000000067
 50
95.417963762365673
 51
135.000000000003040
  0
ARC
  8
0
  6
CONTINUOUS
 62
4
 10
-127.975150775718640
 20
-143.246200122819400
 40
290.797000000000310
 50
180.000000000000000
 51
185.001650270934930
  0
LINE
  8
0
  6
CONTINUOUS
 62
4
 10
-411.652741091574850
 20
-181.491697509068050
 11
-408.312436058297180
 21
-184.832002542345950
  0
ARC
  8
0
  6
CONTINUOUS
 62
4
 10
-396.947041363238210
 20
-166.785997780731410
 40
20.796999999999880
 50
185.001650270935330
 51
225.000000000000000
  0
ARC
  8
0
  6
CONTINUOUS
 62
4
 10
-369.575150775718840
 20
203.353799877180730
 40
390.797000000000030
 50
264.582036237639500
 51
270.000000000000000
  0
ARC
  8
0
  6
CONTINUOUS
 62
4
 10
-406.191115714737180
 20
-182.710682198786170
 40
3.000000000000346
 50
224.999999999996960
 51
264.582036237634270
  0
ARC
  8
0
  6
CONTINUOUS
 62
4
 10
-611.175150775719200
 20
-143.246200122819400
 40
290.797000000000140
 50
354.998349729065010
 51
0.000000000000000
  0
LINE
  8
0
  6
CONTINUOUS
 62
4
 10
-327.497560459862830
 20
-181.491697509068050
 11
-330.837865493140500
 21
-184.832002542345950
  0
ARC
  8
0
  6
CONTINUOUS
 62
4
 10
-342.203260188199470
 20
-166.785997780731410
 40
20.797000000000015
 50
315.000000000000000
 51
354.998349729064670
  0
ARC
  8
0
  6
CONTINUOUS
 62
4
 10
-369.575150775718840
 20
203.353799877180730
 40
390.797000000000030
 50
270.000000000000000
 51
275.417963762360500
  0
ARC
  8
0
  6
CONTINUOUS
 62
4
 10
-332.959185836700500
 20
-182.710682198786170
 40
3.000000000000067
 50
275.417963762365730
 51
315.000000000003070
  0
ARC
  8
0
  6
CONTINUOUS
 62
4
 10
-611.175150775719200
 20
-143.246200122819400
 40
290.797000000000540
 50
0.000000000000000
 51
5.752282731536623
  0
ARC
  8
0
  6
CONTINUOUS
 62
4
 10
-332.959185836700500
 20
-103.781718046852630
 40
3.000000000000346
 50
44.999999999996930
 51
84.582036237634313
  0
ARC
  8
0
  6
CONTINUOUS
 62
4
 10
-369.575150775718840
 20
-489.846200122819540
 40
390.797000000000030
 50
84.582036237639471
 51
90.000000000000000
  0
LINE
  8
0
  6
CONTINUOUS
 62
4
 10
-324.950451621101140
 20
-107.547811575332900
 11
-330.837865493140500
 21
-101.660397703292850
  0
ARC
  8
0
  6
CONTINUOUS
 62
3
 10
-409.006017775806190
 20
-97.824253380521043
 40
6.600000000000009
 50
95.743681810995099
 51
135.000000000002790
  0
ARC
  8
0
  6
CONTINUOUS
 62
3
 10
-409.006017775806190
 20
-188.668146865117760
 40
6.600000000000278
 50
224.999999999997190
 51
264.256318189004900
  0
ARC
  8
0
  6
CONTINUOUS
 62
3
 10
-330.144283775631490
 20
-188.668146865117760
 40
6.600000000000009
 50
275.743681810995100
 51
315.000000000002790
  0
ARC
  8
0
  6
CONTINUOUS
 62
3
 10
-330.144283775631490
 20
-97.824253380521043
 40
6.600000000000278
 50
44.999999999997215
 51
84.256318189004901
  0
ARC
  8
0
  6
CONTINUOUS
 62
3
 10
-369.575150775718840
 20
-489.846200122819540
 40
400.599999999999910
 50
90.000000000000000
 51
95.743681810993436
  0
ARC
  8
0
  6
CONTINUOUS
 62
3
 10
-369.575150775718840
 20
203.353799877180730
 40
400.599999999999910
 50
264.256318189006550
 51
270.000000000000000
  0
ARC
  8
0
  6
CONTINUOUS
 62
3
 10
-369.575150775718840
 20
203.353799877180730
 40
400.599999999999910
 50
270.000000000000000
 51
275.743681810993450
  0
ARC
  8
0
  6
CONTINUOUS
 62
3
 10
-369.575150775718840
 20
-489.846200122819540
 40
400.599999999999910
 50
84.256318189006564
 51
90.000000000000000
  0
ARC
  8
0
  6
CONTINUOUS
 62
3
 10
-127.975150775718410
 20
-143.246200122819400
 40
300.599999999999970
 50
174.247717268463390
 51
180.000000000000000
  0
ARC
  8
0
  6
CONTINUOUS
 62
3
 10
-127.975150775718410
 20
-143.246200122819400
 40
300.600000000000420
 50
180.000000000000000
 51
185.752282731536610
  0
ARC
  8
0
  6
CONTINUOUS
 62
3
 10
-611.175150775719200
 20
-143.246200122819400
 40
300.599999999999970
 50
354.247717268463420
 51
0.000000000000000
  0
ARC
  8
0
  6
CONTINUOUS
 62
3
 10
-611.175150775719200
 20
-143.246200122819400
 40
300.600000000000420
 50
0.000000000000000
 51
5.752282731536603
  0
ARC
  8
0
  6
CONTINUOUS
 62
3
 10
-373.075150775718840
 20
-178.070760421551140
 40
1.000000000000000
 50
0.000000000000000
 51
84.260829522738291
  0
ARC
  8
0
  6
CONTINUOUS
 62
3
 10
-373.075150775718840
 20
-181.084672607844420
 40
1.000000000000042
 50
264.715267045464260
 51
0.000000000000000
  0
ARC
  8
0
  6
CONTINUOUS
 62
3
 10
-373.075150775718840
 20
-172.537837154573080
 40
1.000000000000077
 50
263.186145655820330
 51
0.000000000000000
  0
LINE
  8
0
  6
CONTINUOUS
 62
3
 10
-372.075150775718840
 20
-181.084672607844420
 11
-372.075150775718840
 21
-178.070760421551140
  0
ARC
  8
0
  6
CONTINUOUS
 62
3
 10
-386.616079459091680
 20
-149.043333001078570
 40
0.999999999999885
 50
300.000000000003810
 51
18.787728582346993
  0
LINE
  8
0
  6
CONTINUOUS
 62
3
 10
-388.757314616148280
 20
-151.434276233782440
 11
-386.116079459091680
 21
-149.909358404862870
  0
ARC
  8
0
  6
CONTINUOUS
 62
3
 10
-389.257314616148280
 20
-150.568250829998140
 40
1.000000000000094
 50
200.405931773138690
 51
300.000000000003810
  0
ARC
  8
0
  6
CONTINUOUS
 62
3
 10
-394.073777107873180
 20
-153.349036746137760
 40
1.000000000000082
 50
299.999999999997270
 51
22.410457608146043
  0
ARC
  8
0
  6
CONTINUOUS
 62
3
 10
-401.484104670043280
 20
-157.627391358939630
 40
1.000000000000082
 50
299.999999999997270
 51
24.260829522733715
  0
LINE
  8
0
  6
CONTINUOUS
 62
3
 10
-396.192452563650700
 20
-155.726955129235250
 11
-393.573777107873180
 21
-154.215062149922290
  0
ARC
  8
0
  6
CONTINUOUS
 62
3
 10
-396.692452563650700
 20
-154.860929725450720
 40
0.999999999999730
 50
203.186145655819840
 51
299.999999999997270
  0
LINE
  8
0
  6
CONTINUOUS
 62
3
 10
-403.594229188149030
 20
-160.000372855870690
 11
-400.984104670043280
 21
-158.493416762724170
  0
ARC
  8
0
  6
CONTINUOUS
 62
3
 10
-404.094229188149030
 20
-159.134347452086390
 40
1.000000000000248
 50
204.715267045455480
 51
300.000000000003810
  0
ARC
  8
0
  6
CONTINUOUS
 62
3
 10
-400.594229188149030
 20
-165.196525278577670
 40
1.000000000000082
 50
119.999999999997270
 51
215.284732954534320
  0
ARC
  8
0
  6
CONTINUOUS
 62
3
 10
-397.984104670043280
 20
-163.689569185430680
 40
0.999999999999807
 50
35.739170477263521
 51
120.000000000003780
  0
ARC
  8
0
  6
CONTINUOUS
 62
3
 10
-373.075150775718840
 20
-169.514051195946710
 40
1.000000000000000
 50
0.000000000000000
 51
82.410457608145762
  0
ARC
  8
0
  6
CONTINUOUS
 62
3
 10
-393.192452563650700
 20
-160.923107551941540
 40
0.999999999999885
 50
120.000000000003780
 51
216.813854344197100
  0
ARC
  8
0
  6
CONTINUOUS
 62
3
 10
-390.573777107873640
 20
-159.411214572628580
 40
1.000000000000194
 50
37.589542391851793
 51
119.999999999997270
  0
ARC
  8
0
  6
CONTINUOUS
 62
3
 10
-373.075150775718840
 20
-163.952479363667920
 40
1.000000000000268
 50
260.405931773124510
 51
0.000000000000000
  0
ARC
  8
0
  6
CONTINUOUS
 62
3
 10
-373.075150775718840
 20
-160.902643705829010
 40
1.000000000000000
 50
0.000000000000000
 51
78.787728582355996
  0
ARC
  8
0
  6
CONTINUOUS
 62
3
 10
-385.757314616147820
 20
-156.630428656489190
 40
0.999999999999885
 50
120.000000000003780
 51
219.594068226860460
  0
ARC
  8
0
  6
CONTINUOUS
 62
3
 10
-383.116079459091680
 20
-155.105510827569840
 40
1.000000000000165
 50
41.212271417643841
 51
119.999999999997270
  0
ARC
  8
0
  6
CONTINUOUS
 62
3
 10
-378.217455621132330
 20
-152.277289036064810
 40
0.999999999999885
 50
120.000000000003780
 51
226.260204708328700
  0
ARC
  8
0
  6
CONTINUOUS
 62
3
 10
-373.075150775718840
 20
-155.246200122819400
 40
0.999999999999964
 50
253.739795291702650
 51
0.000000000000000
  0
ARC
  8
0
  6
CONTINUOUS
 62
3
 10
-373.075150775718840
 20
-152.077960989147240
 40
1.000000000000000
 50
0.000000000000000
 51
68.381727577838021
  0
ARC
  8
0
  6
CONTINUOUS
 62
3
 10
-375.473680046108030
 20
-150.693169469228740
 40
0.999999999999961
 50
51.618272422159777
 51
120.000000000003780
  0
ARC
  8
0
  6
CONTINUOUS
 62
3
 10
-369.575150775718840
 20
-143.246200122819400
 40
38.999999999999865
 50
215.284732954534800
 51
264.715267045465400
  0
ARC
  8
0
  6
CONTINUOUS
 62
3
 10
-369.575150775718840
 20
-143.246200122819400
 40
30.499999999999964
 50
216.813854344181070
 51
263.186145655818960
  0
ARC
  8
0
  6
CONTINUOUS
 62
3
 10
-369.575150775718840
 20
-143.246200122819400
 40
33.999999999999964
 50
215.739170477266950
 51
264.260829522733050
  0
ARC
  8
0
  6
CONTINUOUS
 62
3
 10
-369.575150775718840
 20
-143.246200122819400
 40
25.499999999999890
 50
217.589542391857950
 51
262.410457608141830
  0
ARC
  8
0
  6
CONTINUOUS
 62
3
 10
-369.575150775718840
 20
-143.246200122819400
 40
22.000000000000025
 50
219.594068226860800
 51
260.405931773138780
  0
ARC
  8
0
  6
CONTINUOUS
 62
3
 10
-369.575150775718840
 20
-143.246200122819400
 40
16.999999999999773
 50
221.212271417650780
 51
258.787728582349980
  0
ARC
  8
0
  6
CONTINUOUS
 62
3
 10
-369.575150775718840
 20
-143.246200122819400
 40
13.499999999999927
 50
226.260204708312130
 51
253.739795291689150
  0
ARC
  8
0
  6
CONTINUOUS
 62
3
 10
-369.575150775718840
 20
-143.246200122819400
 40
8.499999999999948
 50
231.618272422157330
 51
248.381727577842330
  0
LINE
  8
0
  6
CONTINUOUS
 62
3
 10
-393.692452563650700
 20
-160.057082148157240
 11
-391.073777107873640
 21
-158.545189168844050
  0
LINE
  8
0
  6
CONTINUOUS
 62
3
 10
-401.094229188149030
 20
-164.330499874793130
 11
-398.484104670043280
 21
-162.823543781646380
  0
LINE
  8
0
  6
CONTINUOUS
 62
3
 10
-386.257314616147820
 20
-155.764403252704880
 11
-383.616079459091680
 21
-154.239485423785310
  0
LINE
  8
0
  6
CONTINUOUS
 62
3
 10
-378.717455621132330
 20
-151.411263632280510
 11
-375.973680046108030
 21
-149.827144065444430
  0
LINE
  8
0
  6
CONTINUOUS
 62
3
 10
-372.075150775718840
 20
-155.246200122819400
 11
-372.075150775718840
 21
-152.077960989147240
  0
LINE
  8
0
  6
CONTINUOUS
 62
3
 10
-372.075150775718840
 20
-163.952479363667920
 11
-372.075150775718840
 21
-160.902643705829010
  0
LINE
  8
0
  6
CONTINUOUS
 62
3
 10
-372.075150775718840
 20
-172.537837154573080
 11
-372.075150775718840
 21
-169.514051195946710
  0
ARC
  8
0
  6
CONTINUOUS
 62
3
 10
-378.973680046108030
 20
-144.630991642737910
 40
0.999999999999885
 50
300.000000000003810
 51
8.381727577845549
  0
ARC
  8
0
  6
CONTINUOUS
 62
3
 10
-369.575150775718840
 20
-143.246200122819400
 40
8.499999999999972
 50
171.618272422157790
 51
188.381727577842210
  0
LINE
  8
0
  6
CONTINUOUS
 62
3
 10
-381.217455621132330
 20
-147.081136613358300
 11
-378.473680046108030
 21
-145.497017046522220
  0
ARC
  8
0
  6
CONTINUOUS
 62
3
 10
-381.717455621132330
 20
-146.215111209573990
 40
0.999999999999879
 50
193.739795291686050
 51
300.000000000003810
  0
ARC
  8
0
  6
CONTINUOUS
 62
3
 10
-373.075150775718840
 20
-125.589756539809790
 40
0.999999999999982
 50
281.212271417643990
 51
0.000000000000000
  0
LINE
  8
0
  6
CONTINUOUS
 62
3
 10
-372.075150775718840
 20
-122.539920881970880
 11
-372.075150775718840
 21
-125.589756539809790
  0
ARC
  8
0
  6
CONTINUOUS
 62
3
 10
-373.075150775718840
 20
-122.539920881970880
 40
1.000000000000000
 50
0.000000000000000
 51
99.594068226875478
  0
ARC
  8
0
  6
CONTINUOUS
 62
3
 10
-373.075150775718840
 20
-116.978349049692090
 40
0.999999999999749
 50
277.589542391855960
 51
0.000000000013028
  0
LINE
  8
0
  6
CONTINUOUS
 62
3
 10
-372.075150775718840
 20
-113.954563091065720
 11
-372.075150775718840
 21
-116.978349049691870
  0
ARC
  8
0
  6
CONTINUOUS
 62
3
 10
-373.075150775718840
 20
-113.954563091065720
 40
1.000000000000000
 50
0.000000000000000
 51
96.813854344179688
  0
ARC
  8
0
  6
CONTINUOUS
 62
3
 10
-373.075150775718840
 20
-108.421639824087660
 40
0.999999999999973
 50
275.739170477261670
 51
0.000000000000000
  0
LINE
  8
0
  6
CONTINUOUS
 62
3
 10
-372.075150775718840
 20
-105.407727637794380
 11
-372.075150775718840
 21
-108.421639824087660
  0
ARC
  8
0
  6
CONTINUOUS
 62
3
 10
-373.075150775718840
 20
-105.407727637794380
 40
1.000000000000000
 50
0.000000000000000
 51
95.284732954535698
  0
ARC
  8
0
  6
CONTINUOUS
 62
3
 10
-393.192452563650700
 20
-125.569292693697030
 40
0.999999999999774
 50
143.186145655813330
 51
240.000000000002730
  0
LINE
  8
0
  6
CONTINUOUS
 62
3
 10
-393.692452563650700
 20
-126.435318097481570
 11
-391.073777107873180
 21
-127.947211076794750
  0
ARC
  8
0
  6
CONTINUOUS
 62
3
 10
-390.573777107873180
 20
-127.081185673010220
 40
1.000000000000082
 50
240.000000000002730
 51
322.410457608132330
  0
ARC
  8
0
  6
CONTINUOUS
 62
3
 10
-400.594229188149030
 20
-121.295874967061360
 40
0.999999999999908
 50
144.715267045455050
 51
239.999999999996220
  0
LINE
  8
0
  6
CONTINUOUS
 62
3
 10
-401.094229188149030
 20
-122.161900370845670
 11
-398.484104670043280
 21
-123.668856463992420
  0
ARC
  8
0
  6
CONTINUOUS
 62
3
 10
-397.984104670043280
 20
-122.802831060208120
 40
0.999999999999885
 50
239.999999999996220
 51
324.260829522725940
  0
ARC
  8
0
  6
CONTINUOUS
 62
3
 10
-375.473680046108030
 20
-135.799230776409840
 40
1.000000000000082
 50
240.000000000002730
 51
308.381727577840190
  0
LINE
  8
0
  6
CONTINUOUS
 62
3
 10
-378.717455621132330
 20
-135.081136613358300
 11
-375.973680046108030
 21
-136.665256180194380
  0
ARC
  8
0
  6
CONTINUOUS
 62
3
 10
-383.116079459091680
 20
-131.386889418069190
 40
0.999999999999885
 50
239.999999999996220
 51
318.787728582348790
  0
LINE
  8
0
  6
CONTINUOUS
 62
3
 10
-386.257314616147820
 20
-130.727996992933920
 11
-383.616079459091680
 21
-132.252914821853490
  0
ARC
  8
0
  6
CONTINUOUS
 62
3
 10
-385.757314616147820
 20
-129.861971589149390
 40
1.000000000000173
 50
140.405931773149600
 51
240.000000000002730
  0
ARC
  8
0
  6
CONTINUOUS
 62
3
 10
-373.075150775718840
 20
-134.414439256491560
 40
1.000000000000090
 50
291.618272422161970
 51
0.000000000000000
  0
ARC
  8
0
  6
CONTINUOUS
 62
3
 10
-369.575150775718840
 20
-143.246200122819400
 40
8.499999999999904
 50
111.618272422157710
 51
128.381727577841670
  0
ARC
  8
0
  6
CONTINUOUS
 62
3
 10
-378.217455621132330
 20
-134.215111209573990
 40
0.999999999999858
 50
133.739795291671300
 51
239.999999999996220
  0
LINE
  8
0
  6
CONTINUOUS
 62
3
 10
-372.075150775718840
 20
-131.246200122819400
 11
-372.075150775718840
 21
-134.414439256491560
  0
ARC
  8
0
  6
CONTINUOUS
 62
3
 10
-373.075150775718840
 20
-131.246200122819400
 40
1.000000000000000
 50
0.000000000000000
 51
106.260204708297360
  0
ARC
  8
0
  6
CONTINUOUS
 62
3
 10
-369.575150775718840
 20
-143.246200122819400
 40
13.499999999999963
 50
106.260204708310860
 51
133.739795291687870
  0
ARC
  8
0
  6
CONTINUOUS
 62
3
 10
-369.575150775718840
 20
-143.246200122819400
 40
17.000000000000046
 50
101.212271417650010
 51
138.787728582350240
  0
ARC
  8
0
  6
CONTINUOUS
 62
3
 10
-369.575150775718840
 20
-143.246200122819400
 40
22.000000000000131
 50
99.594068226861211
 51
140.405931773139200
  0
ARC
  8
0
  6
CONTINUOUS
 62
3
 10
-369.575150775718840
 20
-143.246200122819400
 40
30.500000000000135
 50
96.813854344181038
 51
143.186145655818930
  0
ARC
  8
0
  6
CONTINUOUS
 62
3
 10
-369.575150775718840
 20
-143.246200122819400
 40
25.500000000000160
 50
97.589542391858117
 51
142.410457608142050
  0
ARC
  8
0
  6
CONTINUOUS
 62
3
 10
-369.575150775718840
 20
-143.246200122819400
 40
34.000000000000071
 50
95.739170477266924
 51
144.260829522733360
  0
ARC
  8
0
  6
CONTINUOUS
 62
3
 10
-369.575150775718840
 20
-143.246200122819400
 40
38.999999999999986
 50
95.284732954534590
 51
144.715267045465200
  0
ARC
  8
0
  6
CONTINUOUS
 62
3
 10
-396.692452563650700
 20
-131.631470520188090
 40
1.000000000000082
 50
60.000000000002721
 51
156.813854344180160
  0
LINE
  8
0
  6
CONTINUOUS
 62
3
 10
-396.192452563650700
 20
-130.765445116403550
 11
-393.573777107873180
 21
-132.277338095716740
  0
ARC
  8
0
  6
CONTINUOUS
 62
3
 10
-394.073777107873180
 20
-133.143363499501280
 40
0.999999999999701
 50
337.589542391853970
 51
60.000000000002721
  0
ARC
  8
0
  6
CONTINUOUS
 62
3
 10
-404.094229188149030
 20
-127.358052793552410
 40
1.000000000000082
 50
60.000000000002721
 51
155.284732954544520
  0
LINE
  8
0
  6
CONTINUOUS
 62
3
 10
-403.594229188149030
 20
-126.492027389767880
 11
-400.984104670043280
 21
-127.998983482914630
  0
ARC
  8
0
  6
CONTINUOUS
 62
3
 10
-401.484104670043280
 20
-128.865008886698940
 40
0.999999999999863
 50
335.739170477254390
 51
59.999999999996206
  0
ARC
  8
0
  6
CONTINUOUS
 62
3
 10
-378.973680046108030
 20
-141.861408602901120
 40
1.000000000000026
 50
351.618272422167310
 51
60.000000000002721
  0
LINE
  8
0
  6
CONTINUOUS
 62
3
 10
-381.217455621132330
 20
-139.411263632280510
 11
-378.473680046108030
 21
-140.995383199116590
  0
ARC
  8
0
  6
CONTINUOUS
 62
3
 10
-386.616079459091680
 20
-137.449067244560240
 40
1.000000000000076
 50
341.212271417652970
 51
60.000000000002721
  0
LINE
  8
0
  6
CONTINUOUS
 62
3
 10
-388.757314616148280
 20
-135.058124011856360
 11
-386.116079459091680
 21
-136.583041840775710
  0
ARC
  8
0
  6
CONTINUOUS
 62
3
 10
-389.257314616148280
 20
-135.924149415640670
 40
0.999999999999885
 50
59.999999999996206
 51
159.594068226861310
  0
ARC
  8
0
  6
CONTINUOUS
 62
3
 10
-381.717455621132330
 20
-140.277289036064810
 40
0.999999999999885
 50
59.999999999996206
 51
166.260204708307780
  0
ARC
  8
0
  6
CONTINUOUS
 62
3
 10
-369.575150775718840
 20
-143.246200122819400
 40
13.499999999999687
 50
166.260204708311360
 51
193.739795291688180
  0
ARC
  8
0
  6
CONTINUOUS
 62
3
 10
-369.575150775718840
 20
-143.246200122819400
 40
16.999999999999716
 50
161.212271417649560
 51
198.787728582350440
  0
ARC
  8
0
  6
CONTINUOUS
 62
3
 10
-369.575150775718840
 20
-143.246200122819400
 40
22.000000000000206
 50
159.594068226860770
 51
200.405931773139230
  0
ARC
  8
0
  6
CONTINUOUS
 62
3
 10
-369.575150775718840
 20
-143.246200122819400
 40
30.499999999999947
 50
156.813854344181150
 51
203.186145655818850
  0
ARC
  8
0
  6
CONTINUOUS
 62
3
 10
-369.575150775718840
 20
-143.246200122819400
 40
25.500000000000000
 50
157.589542391857980
 51
202.410457608142480
  0
ARC
  8
0
  6
CONTINUOUS
 62
3
 10
-369.575150775718840
 20
-143.246200122819400
 40
34.000000000000007
 50
155.739170477266780
 51
204.260829522733220
  0
ARC
  8
0
  6
CONTINUOUS
 62
3
 10
-369.575150775718840
 20
-143.246200122819400
 40
39.000000000000220
 50
155.284732954534800
 51
204.715267045465200
  0
LINE
  8
0
  6
CONTINUOUS
 62
3
 10
-367.075150775718840
 20
-172.537837154573080
 11
-367.075150775718840
 21
-169.514051195946710
  0
LINE
  8
0
  6
CONTINUOUS
 62
3
 10
-367.075150775718840
 20
-163.952479363667920
 11
-367.075150775718840
 21
-160.902643705829010
  0
LINE
  8
0
  6
CONTINUOUS
 62
3
 10
-367.075150775718840
 20
-155.246200122819400
 11
-367.075150775718840
 21
-152.077960989147240
  0
LINE
  8
0
  6
CONTINUOUS
 62
3
 10
-360.432845930305350
 20
-151.411263632280510
 11
-363.176621505329650
 21
-149.827144065444430
  0
LINE
  8
0
  6
CONTINUOUS
 62
3
 10
-352.892986935289850
 20
-155.764403252704880
 11
-355.534222092346000
 21
-154.239485423785310
  0
LINE
  8
0
  6
CONTINUOUS
 62
3
 10
-338.056072363288650
 20
-164.330499874793130
 11
-340.666196881394400
 21
-162.823543781646380
  0
LINE
  8
0
  6
CONTINUOUS
 62
3
 10
-367.075150775718840
 20
-181.084672607844420
 11
-367.075150775718840
 21
-178.070760421551140
  0
LINE
  8
0
  6
CONTINUOUS
 62
3
 10
-345.457848987786970
 20
-160.057082148157240
 11
-348.076524443564040
 21
-158.545189168844050
  0
ARC
  8
0
  6
CONTINUOUS
 62
3
 10
-369.575150775718840
 20
-143.246200122819400
 40
8.499999999999904
 50
291.618272422157700
 51
308.381727577842640
  0
ARC
  8
0
  6
CONTINUOUS
 62
3
 10
-369.575150775718840
 20
-143.246200122819400
 40
13.499999999999963
 50
286.260204708310820
 51
313.739795291687870
  0
ARC
  8
0
  6
CONTINUOUS
 62
3
 10
-369.575150775718840
 20
-143.246200122819400
 40
17.000000000000046
 50
281.212271417650020
 51
318.787728582350210
  0
ARC
  8
0
  6
CONTINUOUS
 62
3
 10
-369.575150775718840
 20
-143.246200122819400
 40
22.000000000000131
 50
279.594068226861170
 51
320.405931773139170
  0
ARC
  8
0
  6
CONTINUOUS
 62
3
 10
-369.575150775718840
 20
-143.246200122819400
 40
25.499999999999932
 50
277.589542391858170
 51
322.410457608142050
  0
ARC
  8
0
  6
CONTINUOUS
 62
3
 10
-369.575150775718840
 20
-143.246200122819400
 40
34.000000000000071
 50
275.739170477266950
 51
324.260829522733050
  0
ARC
  8
0
  6
CONTINUOUS
 62
3
 10
-369.575150775718840
 20
-143.246200122819400
 40
30.500000000000135
 50
276.813854344181040
 51
323.186145655818900
  0
ARC
  8
0
  6
CONTINUOUS
 62
3
 10
-369.575150775718840
 20
-143.246200122819400
 40
38.999999999999986
 50
275.284732954534600
 51
324.715267045465230
  0
ARC
  8
0
  6
CONTINUOUS
 62
3
 10
-363.676621505329650
 20
-150.693169469228740
 40
0.999999999999885
 50
59.999999999996206
 51
128.381727577840220
  0
ARC
  8
0
  6
CONTINUOUS
 62
3
 10
-366.075150775718840
 20
-152.077960989147240
 40
1.000000000000090
 50
111.618272422161970
 51
180.000000000000000
  0
ARC
  8
0
  6
CONTINUOUS
 62
3
 10
-366.075150775718840
 20
-155.246200122819400
 40
1.000000000000000
 50
180.000000000000000
 51
286.260204708297350
  0
ARC
  8
0
  6
CONTINUOUS
 62
3
 10
-360.932845930305350
 20
-152.277289036064810
 40
0.999999999999858
 50
313.739795291671330
 51
59.999999999996206
  0
ARC
  8
0
  6
CONTINUOUS
 62
3
 10
-356.034222092346000
 20
-155.105510827569840
 40
1.000000000000082
 50
60.000000000002721
 51
138.787728582338990
  0
ARC
  8
0
  6
CONTINUOUS
 62
3
 10
-353.392986935289850
 20
-156.630428656489190
 40
1.000000000000318
 50
320.405931773139570
 51
59.999999999996206
  0
ARC
  8
0
  6
CONTINUOUS
 62
3
 10
-366.075150775718840
 20
-160.902643705829010
 40
0.999999999999982
 50
101.212271417644000
 51
180.000000000000000
  0
ARC
  8
0
  6
CONTINUOUS
 62
3
 10
-366.075150775718840
 20
-163.952479363667920
 40
1.000000000000000
 50
180.000000000000000
 51
279.594068226875490
  0
ARC
  8
0
  6
CONTINUOUS
 62
3
 10
-366.075150775718840
 20
-172.537837154573080
 40
1.000000000000000
 50
180.000000000000000
 51
276.813854344179670
  0
ARC
  8
0
  6
CONTINUOUS
 62
3
 10
-348.576524443564040
 20
-159.411214572628580
 40
1.000000000000082
 50
60.000000000002721
 51
142.410457608148220
  0
ARC
  8
0
  6
CONTINUOUS
 62
3
 10
-345.957848987786970
 20
-160.923107551941540
 40
0.999999999999911
 50
323.186145655802870
 51
59.999999999996206
  0
ARC
  8
0
  6
CONTINUOUS
 62
3
 10
-366.075150775718840
 20
-169.514051195946710
 40
0.999999999999975
 50
97.589542391854238
 51
180.000000000000000
  0
ARC
  8
0
  6
CONTINUOUS
 62
3
 10
-366.075150775718840
 20
-181.084672607844420
 40
1.000000000000000
 50
180.000000000000000
 51
275.284732954535740
  0
ARC
  8
0
  6
CONTINUOUS
 62
3
 10
-366.075150775718840
 20
-178.070760421551140
 40
0.999999999999973
 50
95.739170477261709
 51
180.000000000000000
  0
ARC
  8
0
  6
CONTINUOUS
 62
3
 10
-341.166196881394400
 20
-163.689569185430680
 40
0.999999999999885
 50
59.999999999996206
 51
144.260829522736490
  0
ARC
  8
0
  6
CONTINUOUS
 62
3
 10
-338.556072363288650
 20
-165.196525278577670
 40
0.999999999999776
 50
324.715267045465680
 51
60.000000000002721
  0
CIRCLE
  8
0
  6
CONTINUOUS
 62
3
 10
-369.575150775718840
 20
-143.246200122819400
 40
5.000000000000000
  0
ARC
  8
0
  6
CONTINUOUS
 62
3
 10
-335.056072363288650
 20
-159.134347452086390
 40
0.999999999999885
 50
239.999999999996220
 51
335.284732954544490
  0
LINE
  8
0
  6
CONTINUOUS
 62
3
 10
-335.556072363288650
 20
-160.000372855870690
 11
-338.166196881394400
 21
-158.493416762724170
  0
ARC
  8
0
  6
CONTINUOUS
 62
3
 10
-369.575150775718840
 20
-143.246200122819400
 40
39.000000000000220
 50
335.284732954534830
 51
24.715267045465190
  0
ARC
  8
0
  6
CONTINUOUS
 62
3
 10
-369.575150775718840
 20
-143.246200122819400
 40
34.000000000000007
 50
335.739170477266780
 51
24.260829522733218
  0
ARC
  8
0
  6
CONTINUOUS
 62
3
 10
-369.575150775718840
 20
-143.246200122819400
 40
25.500000000000085
 50
337.589542391857490
 51
22.410457608142021
  0
ARC
  8
0
  6
CONTINUOUS
 62
3
 10
-369.575150775718840
 20
-143.246200122819400
 40
30.499999999999947
 50
336.813854344181150
 51
23.186145655818844
  0
ARC
  8
0
  6
CONTINUOUS
 62
3
 10
-342.457848987786970
 20
-154.860929725450720
 40
1.000000000000082
 50
240.000000000002730
 51
336.813854344180130
  0
LINE
  8
0
  6
CONTINUOUS
 62
3
 10
-342.957848987786970
 20
-155.726955129235250
 11
-345.576524443564490
 21
-154.215062149922290
  0
ARC
  8
0
  6
CONTINUOUS
 62
3
 10
-369.575150775718840
 20
-143.246200122819400
 40
22.000000000000206
 50
339.594068226860770
 51
20.405931773139226
  0
ARC
  8
0
  6
CONTINUOUS
 62
3
 10
-337.666196881394400
 20
-157.627391358939630
 40
0.999999999999769
 50
155.739170477266270
 51
240.000000000002730
  0
ARC
  8
0
  6
CONTINUOUS
 62
3
 10
-345.076524443564490
 20
-153.349036746137760
 40
0.999999999999701
 50
157.589542391853940
 51
240.000000000002730
  0
ARC
  8
0
  6
CONTINUOUS
 62
3
 10
-349.892986935289400
 20
-150.568250829998140
 40
0.999999999999885
 50
239.999999999996220
 51
339.594068226861340
  0
ARC
  8
0
  6
CONTINUOUS
 62
3
 10
-369.575150775718840
 20
-143.246200122819400
 40
17.000000000000146
 50
341.212271417650070
 51
18.787728582350418
  0
LINE
  8
0
  6
CONTINUOUS
 62
3
 10
-350.392986935289400
 20
-151.434276233782440
 11
-353.034222092346000
 21
-149.909358404862870
  0
ARC
  8
0
  6
CONTINUOUS
 62
3
 10
-352.534222092346000
 20
-149.043333001078570
 40
0.999999999999646
 50
161.212271417644620
 51
239.999999999996220
  0
ARC
  8
0
  6
CONTINUOUS
 62
3
 10
-369.575150775718840
 20
-143.246200122819400
 40
13.500000000000130
 50
346.260204708311850
 51
13.739795291688171
  0
ARC
  8
0
  6
CONTINUOUS
 62
3
 10
-357.432845930305350
 20
-146.215111209573990
 40
0.999999999999885
 50
239.999999999996220
 51
346.260204708314010
  0
LINE
  8
0
  6
CONTINUOUS
 62
3
 10
-357.932845930305350
 20
-147.081136613358300
 11
-360.676621505329650
 21
-145.497017046522220
  0
ARC
  8
0
  6
CONTINUOUS
 62
3
 10
-357.432845930305350
 20
-140.277289036064810
 40
0.999999999999879
 50
13.739795291686027
 51
120.000000000003780
  0
ARC
  8
0
  6
CONTINUOUS
 62
3
 10
-369.575150775718840
 20
-143.246200122819400
 40
8.499999999999972
 50
351.618272422157820
 51
8.381727577842204
  0
ARC
  8
0
  6
CONTINUOUS
 62
3
 10
-360.176621505329650
 20
-144.630991642737910
 40
1.000000000000059
 50
171.618272422154460
 51
239.999999999996220
  0
ARC
  8
0
  6
CONTINUOUS
 62
3
 10
-349.892986935289400
 20
-135.924149415640670
 40
1.000000000000094
 50
20.405931773138686
 51
120.000000000003780
  0
LINE
  8
0
  6
CONTINUOUS
 62
3
 10
-350.392986935289400
 20
-135.058124011856360
 11
-353.034222092346000
 21
-136.583041840775710
  0
ARC
  8
0
  6
CONTINUOUS
 62
3
 10
-352.534222092346000
 20
-137.449067244560240
 40
1.000000000000082
 50
119.999999999997270
 51
198.787728582347000
  0
LINE
  8
0
  6
CONTINUOUS
 62
3
 10
-357.932845930305350
 20
-139.411263632280510
 11
-360.676621505329650
 21
-140.995383199116590
  0
ARC
  8
0
  6
CONTINUOUS
 62
3
 10
-360.176621505329650
 20
-141.861408602901120
 40
1.000000000000082
 50
119.999999999997270
 51
188.381727577832660
  0
ARC
  8
0
  6
CONTINUOUS
 62
3
 10
-337.666196881394400
 20
-128.865008886698940
 40
0.999999999999885
 50
120.000000000003780
 51
204.260829522745610
  0
LINE
  8
0
  6
CONTINUOUS
 62
3
 10
-335.556072363288650
 20
-126.492027389767880
 11
-338.166196881394400
 21
-127.998983482914630
  0
ARC
  8
0
  6
CONTINUOUS
 62
3
 10
-335.056072363288650
 20
-127.358052793552410
 40
1.000000000000248
 50
24.715267045455477
 51
119.999999999997270
  0
ARC
  8
0
  6
CONTINUOUS
 62
3
 10
-345.076524443564490
 20
-133.143363499501280
 40
1.000000000000082
 50
119.999999999997270
 51
202.410457608146060
  0
LINE
  8
0
  6
CONTINUOUS
 62
3
 10
-342.957848987786970
 20
-130.765445116403550
 11
-345.576524443564490
 21
-132.277338095716740
  0
ARC
  8
0
  6
CONTINUOUS
 62
3
 10
-342.457848987786970
 20
-131.631470520188090
 40
0.999999999999730
 50
23.186145655819850
 51
119.999999999997270
  0
ARC
  8
0
  6
CONTINUOUS
 62
3
 10
-369.575150775718840
 20
-143.246200122819400
 40
38.999999999999865
 50
35.284732954534789
 51
84.715267045465410
  0
ARC
  8
0
  6
CONTINUOUS
 62
3
 10
-369.575150775718840
 20
-143.246200122819400
 40
33.999999999999829
 50
35.739170477266640
 51
84.260829522733076
  0
ARC
  8
0
  6
CONTINUOUS
 62
3
 10
-369.575150775718840
 20
-143.246200122819400
 40
25.499999999999890
 50
37.589542391857961
 51
82.410457608141883
  0
ARC
  8
0
  6
CONTINUOUS
 62
3
 10
-369.575150775718840
 20
-143.246200122819400
 40
30.499999999999964
 50
36.813854344181067
 51
83.186145655818962
  0
ARC
  8
0
  6
CONTINUOUS
 62
3
 10
-369.575150775718840
 20
-143.246200122819400
 40
22.000000000000025
 50
39.594068226860820
 51
80.405931773138789
  0
ARC
  8
0
  6
CONTINUOUS
 62
3
 10
-369.575150775718840
 20
-143.246200122819400
 40
17.000000000000114
 50
41.212271417649760
 51
78.787728582349985
  0
ARC
  8
0
  6
CONTINUOUS
 62
3
 10
-369.575150775718840
 20
-143.246200122819400
 40
13.499999999999927
 50
46.260204708312145
 51
73.739795291689134
  0
ARC
  8
0
  6
CONTINUOUS
 62
3
 10
-366.075150775718840
 20
-131.246200122819400
 40
0.999999999999964
 50
73.739795291702634
 51
180.000000000000000
  0
LINE
  8
0
  6
CONTINUOUS
 62
3
 10
-367.075150775718840
 20
-131.246200122819400
 11
-367.075150775718840
 21
-134.414439256491560
  0
ARC
  8
0
  6
CONTINUOUS
 62
3
 10
-360.932845930305350
 20
-134.215111209573990
 40
0.999999999999885
 50
300.000000000003810
 51
46.260204708328693
  0
ARC
  8
0
  6
CONTINUOUS
 62
3
 10
-369.575150775718840
 20
-143.246200122819400
 40
8.500000000000128
 50
51.618272422158320
 51
68.381727577842284
  0
ARC
  8
0
  6
CONTINUOUS
 62
3
 10
-366.075150775718840
 20
-134.414439256491560
 40
1.000000000000000
 50
180.000000000000000
 51
248.381727577838030
  0
ARC
  8
0
  6
CONTINUOUS
 62
3
 10
-353.392986935289850
 20
-129.861971589149390
 40
1.000000000000082
 50
299.999999999997270
 51
39.594068226850403
  0
LINE
  8
0
  6
CONTINUOUS
 62
3
 10
-352.892986935289850
 20
-130.727996992933920
 11
-355.534222092346000
 21
-132.252914821853490
  0
ARC
  8
0
  6
CONTINUOUS
 62
3
 10
-356.034222092346000
 20
-131.386889418069190
 40
0.999999999999673
 50
221.212271417651210
 51
300.000000000003810
  0
LINE
  8
0
  6
CONTINUOUS
 62
3
 10
-360.432845930305350
 20
-135.081136613358300
 11
-363.176621505329650
 21
-136.665256180194380
  0
ARC
  8
0
  6
CONTINUOUS
 62
3
 10
-363.676621505329650
 20
-135.799230776409840
 40
0.999999999999961
 50
231.618272422159780
 51
299.999999999997270
  0
ARC
  8
0
  6
CONTINUOUS
 62
3
 10
-341.166196881394400
 20
-122.802831060208120
 40
0.999999999999940
 50
215.739170477274090
 51
300.000000000003810
  0
LINE
  8
0
  6
CONTINUOUS
 62
3
 10
-338.056072363288650
 20
-122.161900370845670
 11
-340.666196881394400
 21
-123.668856463992420
  0
ARC
  8
0
  6
CONTINUOUS
 62
3
 10
-338.556072363288650
 20
-121.295874967061360
 40
0.999999999999885
 50
300.000000000003810
 51
35.284732954544943
  0
ARC
  8
0
  6
CONTINUOUS
 62
3
 10
-348.576524443564490
 20
-127.081185673010220
 40
0.999999999999834
 50
217.589542391867670
 51
299.999999999997270
  0
LINE
  8
0
  6
CONTINUOUS
 62
3
 10
-345.457848987786970
 20
-126.435318097481570
 11
-348.076524443564490
 21
-127.947211076794750
  0
ARC
  8
0
  6
CONTINUOUS
 62
3
 10
-345.957848987786970
 20
-125.569292693697030
 40
1.000000000000082
 50
299.999999999997270
 51
36.813854344186687
  0
ARC
  8
0
  6
CONTINUOUS
 62
3
 10
-366.075150775718840
 20
-105.407727637794380
 40
1.000000000000042
 50
84.715267045464302
 51
180.000000000000000
  0
LINE
  8
0
  6
CONTINUOUS
 62
3
 10
-367.075150775718840
 20
-105.407727637794380
 11
-367.075150775718840
 21
-108.421639824087660
  0
ARC
  8
0
  6
CONTINUOUS
 62
3
 10
-366.075150775718840
 20
-108.421639824087660
 40
1.000000000000000
 50
180.000000000000000
 51
264.260829522738280
  0
ARC
  8
0
  6
CONTINUOUS
 62
3
 10
-366.075150775718840
 20
-113.954563091065720
 40
1.000000000000077
 50
83.186145655820312
 51
180.000000000000000
  0
LINE
  8
0
  6
CONTINUOUS
 62
3
 10
-367.075150775718840
 20
-113.954563091065720
 11
-367.075150775718840
 21
-116.978349049691870
  0
ARC
  8
0
  6
CONTINUOUS
 62
3
 10
-366.075150775718840
 20
-116.978349049692090
 40
1.000000000000000
 50
179.999999999986980
 51
262.410457608144040
  0
ARC
  8
0
  6
CONTINUOUS
 62
3
 10
-366.075150775718840
 20
-122.539920881970880
 40
1.000000000000268
 50
80.405931773124522
 51
180.000000000000000
  0
LINE
  8
0
  6
CONTINUOUS
 62
3
 10
-367.075150775718840
 20
-122.539920881970880
 11
-367.075150775718840
 21
-125.589756539809790
  0
ARC
  8
0
  6
CONTINUOUS
 62
3
 10
-366.075150775718840
 20
-125.589756539809790
 40
1.000000000000000
 50
180.000000000000000
 51
258.787728582356010
  0
LINE
  8
0
  6
CONTINUOUS
 62
3
 10
-421.131617706308820
 20
-100.616043799361530
 11
-413.672922531637820
 21
-93.157348624689860
  0
LINE
  8
0
  6
CONTINUOUS
 62
3
 10
-421.131617706308820
 20
-185.876356446277270
 11
-413.672922531637820
 21
-193.335051620948950
  0
LINE
  8
0
  6
CONTINUOUS
 62
3
 10
-318.018683845128810
 20
-185.876356446277270
 11
-325.477379019799860
 21
-193.335051620948950
  0
LINE
  8
0
  6
CONTINUOUS
 62
3
 10
-318.018683845128810
 20
-100.616043799361530
 11
-325.477379019799860
 21
-93.157348624689860
  0
LINE
  8
0
  6
CONTINUOUS
 62
3
 10
-312.075150775718780
 20
-174.746200122819400
 11
-312.075150775718780
 21
-173.234185977249640
  0
LINE
  8
0
  6
CONTINUOUS
 62
3
 10
-312.075150775718780
 20
-113.253701060557260
 11
-312.075150775718780
 21
-111.746200122819400
  0
LINE
  8
0
  6
CONTINUOUS
 62
3
 10
-312.273701715817590
 20
-111.746200122819400
 11
-312.075150775718780
 21
-111.746200122819400
  0
LINE
  8
0
  6
CONTINUOUS
 62
3
 10
-312.273701715817590
 20
-174.746200122819400
 11
-312.075150775718780
 21
-174.746200122819400
  0
ARC
  8
0
  6
CONTINUOUS
 62
3
 10
-406.565218013865210
 20
-115.182443491803780
 40
20.600000000000069
 50
135.000000000002670
 51
174.247717268463500
  0
ARC
  8
0
  6
CONTINUOUS
 62
3
 10
-406.565218013865210
 20
-171.309956753835020
 40
20.599999999999916
 50
185.752282731536500
 51
224.999999999997330
  0
ARC
  8
0
  6
CONTINUOUS
 62
3
 10
-332.585083537572470
 20
-171.309956753835020
 40
20.600000000000112
 50
315.000000000002790
 51
354.247717268463530
  0
ARC
  8
0
  6
CONTINUOUS
 62
3
 10
-332.585083537572470
 20
-115.182443491803780
 40
20.599999999999973
 50
5.752282731536472
 51
44.999999999997215
  0
ARC
  8
0
  6
CONTINUOUS
 62
4
 10
-332.585083537572470
 20
-115.182443491803780
 40
10.797000000000066
 50
5.752282731536882
 51
44.999999999998295
  0
ARC
  8
0
  6
CONTINUOUS
 62
3
 10
-50.024649749287619
 20
233.756669497761440
 40
2.000000000000000
 50
270.000000000000000
 51
0.000000000000000
  0
ARC
  8
0
  6
CONTINUOUS
 62
3
 10
-50.024649749287619
 20
234.555671368880330
 40
2.000000000000000
 50
270.000000000000000
 51
0.000000000000000
  0
ARC
  8
0
  6
CONTINUOUS
 62
3
 10
-50.024649749287619
 20
235.354673239965560
 40
2.000000000000000
 50
270.000000000000000
 51
0.000000000000000
  0
ARC
  8
0
  6
CONTINUOUS
 62
3
 10
-50.024649749287619
 20
236.448310168242760
 40
2.000000000000000
 50
0.000000000000000
 51
90.000000000000000
  0
LINE
  8
0
  6
CONTINUOUS
 62
3
 10
-51.024649749287619
 20
238.448310168242760
 11
-50.024649749287619
 21
238.448310168242760
  0
LINE
  8
0
  6
CONTINUOUS
 62
3
 10
-50.024649749287619
 20
231.756669497761440
 11
-176.024649749287510
 21
231.756669497761440
  0
LINE
  8
0
  6
CONTINUOUS
 62
3
 10
-50.024649749287619
 20
232.555671368863500
 11
-176.024649749287510
 21
232.555671368863500
  0
LINE
  8
0
  6
CONTINUOUS
 62
3
 10
-48.024649749287619
 20
236.448310168242760
 11
-48.024649749287619
 21
233.756669497761440
  0
LINE
  8
0
  6
CONTINUOUS
 62
3
 10
-51.024649749287619
 20
220.253799877180540
 11
-51.024649749287619
 21
231.555671368880330
  0
LINE
  8
0
  6
CONTINUOUS
 62
3
 10
-170.024649749287510
 20
256.853799877180450
 11
-56.024649749287619
 21
256.853799877180450
  0
ARC
  8
0
  6
CONTINUOUS
 62
3
 10
-56.024649749287619
 20
251.853799877180450
 40
5.000000000000000
 50
0.000000000000000
 51
90.000000000000000
  0
LINE
  8
0
  6
CONTINUOUS
 62
3
 10
-175.024649749287510
 20
220.253799877180540
 11
-175.024649749287510
 21
231.756669497761440
  0
ARC
  8
0
  6
CONTINUOUS
 62
3
 10
-176.024649749287510
 20
233.756669497761440
 40
2.000000000000000
 50
180.000000000000000
 51
270.000000000000000
  0
LINE
  8
0
  6
CONTINUOUS
 62
3
 10
-178.024649749287510
 20
236.448310168242760
 11
-178.024649749287510
 21
233.756669497761440
  0
ARC
  8
0
  6
CONTINUOUS
 62
3
 10
-176.024649749287510
 20
234.555671368880330
 40
2.000000000000000
 50
180.000000000000000
 51
270.000000000000000
  0
ARC
  8
0
  6
CONTINUOUS
 62
3
 10
-176.024649749287510
 20
235.354673239965560
 40
2.000000000000000
 50
180.000000000000000
 51
270.000000000000000
  0
ARC
  8
0
  6
CONTINUOUS
 62
3
 10
-176.024649749287510
 20
236.448310168242760
 40
2.000000000000000
 50
90.000000000000000
 51
180.000000000000000
  0
ARC
  8
0
  6
CONTINUOUS
 62
3
 10
-170.024649749287510
 20
251.853799877180450
 40
5.000000000000000
 50
90.000000000000000
 51
180.000000000000000
  0
ARC
  8
0
  6
CONTINUOUS
 62
3
 10
-170.024649749287510
 20
220.253799877180540
 40
5.000000000000000
 50
180.000000000000000
 51
270.000000000000000
  0
LINE
  8
0
  6
CONTINUOUS
 62
3
 10
-50.024649749287619
 20
233.354673239965560
 11
-176.024649749287510
 21
233.354673239965560
  0
LINE
  8
0
  6
CONTINUOUS
 62
3
 10
-175.024649749287510
 20
238.448310168242760
 11
-176.024649749287510
 21
238.448310168242760
  0
LINE
  8
0
  6
CONTINUOUS
 62
3
 10
-175.024649749287510
 20
238.914824936867380
 11
-175.024649749287510
 21
251.853799877180450
  0
ARC
  8
0
  6
CONTINUOUS
 62
3
 10
-56.024649749287619
 20
220.253799877180540
 40
5.000000000000000
 50
270.000000000000000
 51
0.000000000000000
  0
LINE
  8
0
  6
CONTINUOUS
 62
3
 10
-51.024649749287619
 20
238.914824936867380
 11
-51.024649749287619
 21
251.853799877180450
  0
POLYLINE
  8
0
  6
CONTINUOUS
 62
3
 66
1
  0
VERTEX
  8
0
  6
CONTINUOUS
 62
3
 10
-171.524649749287510
 20
233.604361324685330
  0
VERTEX
  8
0
  6
CONTINUOUS
 62
3
 10
-171.457398230698800
 20
233.570263114489340
  0
VERTEX
  8
0
  6
CONTINUOUS
 62
3
 10
-171.258228113077000
 20
233.537475279388700
  0
VERTEX
  8
0
  6
CONTINUOUS
 62
3
 10
-170.934793392346420
 20
233.507257837498680
  0
VERTEX
  8
0
  6
CONTINUOUS
 62
3
 10
-170.499523483440410
 20
233.480772028164980
  0
VERTEX
  8
0
  6
CONTINUOUS
 62
3
 10
-169.969145564856120
 20
233.459035686186890
  0
VERTEX
  8
0
  6
CONTINUOUS
 62
3
 10
-169.364041762565310
 20
233.442884126996720
  0
VERTEX
  8
0
  6
CONTINUOUS
 62
3
 10
-168.707465876343950
 20
233.432938045956260
  0
VERTEX
  8
0
  6
CONTINUOUS
 62
3
 10
-168.024649749287510
 20
233.429579665382110
  0
VERTEX
  8
0
  6
CONTINUOUS
 62
3
 10
-167.341833622231060
 20
233.432938045956260
  0
VERTEX
  8
0
  6
CONTINUOUS
 62
3
 10
-166.685257736009700
 20
233.442884126996720
  0
VERTEX
  8
0
  6
CONTINUOUS
 62
3
 10
-166.080153933718890
 20
233.459035686186890
  0
VERTEX
  8
0
  6
CONTINUOUS
 62
3
 10
-165.549776015134600
 20
233.480772028164980
  0
VERTEX
  8
0
  6
CONTINUOUS
 62
3
 10
-165.114506106228590
 20
233.507257837498680
  0
VERTEX
  8
0
  6
CONTINUOUS
 62
3
 10
-164.791071385498010
 20
233.537475279388700
  0
VERTEX
  8
0
  6
CONTINUOUS
 62
3
 10
-164.591901267876210
 20
233.570263114489340
  0
VERTEX
  8
0
  6
CONTINUOUS
 62
3
 10
-164.524649749287510
 20
233.604361324685330
  0
SEQEND
  8
0
  6
CONTINUOUS
 62
3
  0
ARC
  8
0
  6
CONTINUOUS
 62
3
 10
-165.824649749287690
 20
234.591371062609710
 40
1.300000000000182
 50
0.000000000000000
 51
73.398450400977637
  0
ARC
  8
0
  6
CONTINUOUS
 62
3
 10
-168.024649749287510
 20
227.212346736860240
 40
9.000000000000123
 50
73.398450400980877
 51
106.601549599019120
  0
ARC
  8
0
  6
CONTINUOUS
 62
3
 10
-170.224649749287320
 20
234.591371062609710
 40
1.300000000000019
 50
106.601549599022360
 51
180.000000000000000
  0
LINE
  8
0
  6
CONTINUOUS
 62
3
 10
-164.524649749287510
 20
234.591371062609710
 11
-164.524649749287510
 21
233.604361324685330
  0
LINE
  8
0
  6
CONTINUOUS
 62
3
 10
-171.524649749287510
 20
234.591371062609710
 11
-171.524649749287510
 21
233.604361324685330
  0
ARC
  8
0
  6
CONTINUOUS
 62
3
 10
-170.024649749287510
 20
238.914824936867380
 40
5.000000000000000
 50
180.000000000000000
 51
252.542396876278160
  0
LINE
  8
0
  6
CONTINUOUS
 62
3
 10
-175.024649749287510
 20
215.253799877180540
 11
-51.024649749287619
 21
215.253799877180540
  0
LINE
  8
0
  6
DASHDOT
 62
3
 10
-51.024649749287619
 20
210.253799877180540
 11
-51.024649749287619
 21
215.253799877180540
  0
LINE
  8
0
  6
DASHDOT
 62
3
 10
-51.024649749287619
 20
210.253799877180540
 11
-51.024649749287619
 21
215.253799877180540
  0
LINE
  8
0
  6
CONTINUOUS
 62
3
 10
-175.024649749287510
 20
210.253799877180540
 11
-175.024649749287510
 21
215.253799877180540
  0
LINE
  8
0
  6
CONTINUOUS
 62
3
 10
-61.524649749287619
 20
234.591371062609710
 11
-61.524649749287619
 21
233.604361324685330
  0
POLYLINE
  8
0
  6
CONTINUOUS
 62
3
 66
1
  0
VERTEX
  8
0
  6
CONTINUOUS
 62
3
 10
-61.524649749287619
 20
233.604361324685330
  0
VERTEX
  8
0
  6
CONTINUOUS
 62
3
 10
-61.457398230698928
 20
233.570263114489340
  0
VERTEX
  8
0
  6
CONTINUOUS
 62
3
 10
-61.258228113077124
 20
233.537475279388700
  0
VERTEX
  8
0
  6
CONTINUOUS
 62
3
 10
-60.934793392346528
 20
233.507257837498680
  0
VERTEX
  8
0
  6
CONTINUOUS
 62
3
 10
-60.499523483440534
 20
233.480772028164980
  0
VERTEX
  8
0
  6
CONTINUOUS
 62
3
 10
-59.969145564856227
 20
233.459035686186890
  0
VERTEX
  8
0
  6
CONTINUOUS
 62
3
 10
-59.364041762565435
 20
233.442884126996720
  0
VERTEX
  8
0
  6
CONTINUOUS
 62
3
 10
-58.707465876344067
 20
233.432938045956260
  0
VERTEX
  8
0
  6
CONTINUOUS
 62
3
 10
-58.024649749287619
 20
233.429579665382110
  0
VERTEX
  8
0
  6
CONTINUOUS
 62
3
 10
-57.341833622231171
 20
233.432938045956260
  0
VERTEX
  8
0
  6
CONTINUOUS
 62
3
 10
-56.685257736009802
 20
233.442884126996720
  0
VERTEX
  8
0
  6
CONTINUOUS
 62
3
 10
-56.080153933719011
 20
233.459035686186890
  0
VERTEX
  8
0
  6
CONTINUOUS
 62
3
 10
-55.549776015134704
 20
233.480772028164980
  0
VERTEX
  8
0
  6
CONTINUOUS
 62
3
 10
-55.114506106228710
 20
233.507257837498680
  0
VERTEX
  8
0
  6
CONTINUOUS
 62
3
 10
-54.791071385498114
 20
233.537475279388700
  0
VERTEX
  8
0
  6
CONTINUOUS
 62
3
 10
-54.591901267876317
 20
233.570263114489340
  0
VERTEX
  8
0
  6
CONTINUOUS
 62
3
 10
-54.524649749287619
 20
233.604361324685330
  0
SEQEND
  8
0
  6
CONTINUOUS
 62
3
  0
LINE
  8
0
  6
CONTINUOUS
 62
3
 10
-54.524649749287619
 20
234.591371062609710
 11
-54.524649749287619
 21
233.604361324685330
  0
ARC
  8
0
  6
CONTINUOUS
 62
3
 10
-60.224649749287437
 20
234.591371062609710
 40
1.300000000000019
 50
106.601549599022360
 51
180.000000000000000
  0
ARC
  8
0
  6
CONTINUOUS
 62
3
 10
-58.024649749287619
 20
227.212346736860240
 40
9.000000000000123
 50
73.398450400980877
 51
106.601549599019120
  0
ARC
  8
0
  6
CONTINUOUS
 62
3
 10
-55.824649749287801
 20
234.591371062609710
 40
1.300000000000182
 50
0.000000000000000
 51
73.398450400977637
  0
ARC
  8
0
  6
CONTINUOUS
 62
3
 10
-56.024649749287619
 20
238.914824936867380
 40
5.000000000000072
 50
287.457603123721870
 51
0.000000000000000
  0
LINE
  8
0
  6
CONTINUOUS
 62
3
 10
-61.524649749287619
 20
233.914824936867380
 11
-164.524649749287510
 21
233.914824936867380
  0
LINE
  8
0
  6
CONTINUOUS
 62
3
 10
-183.524649749287510
 20
99.253799877180541
 11
-108.524649749287390
 21
99.253799877180541
  0
LINE
  8
0
  6
CONTINUOUS
 62
3
 10
-108.524649749287390
 20
99.253799877180541
 11
-108.524649749287390
 21
104.253799877180650
  0
LINE
  8
0
  6
CONTINUOUS
 62
3
 10
-109.524649749287390
 20
70.753799877180541
 11
-109.524649749287390
 21
99.253799877180541
  0
LINE
  8
0
  6
CONTINUOUS
 62
3
 10
-182.524649749287510
 20
70.753799877180541
 11
-182.524649749287510
 21
99.253799877180541
  0
ARC
  8
0
  6
CONTINUOUS
 62
3
 10
-181.524649749287510
 20
70.753799877180541
 40
1.000000000000000
 50
180.000000000000000
 51
270.000000000000000
  0
ARC
  8
0
  6
CONTINUOUS
 62
3
 10
-110.524649749287390
 20
70.753799877180541
 40
1.000000000000000
 50
270.000000000000000
 51
0.000000000000000
  0
LINE
  8
0
  6
CONTINUOUS
 62
3
 10
-116.524649749287390
 20
69.253799877180541
 11
-116.524649749287390
 21
69.753799877180541
  0
LINE
  8
0
  6
CONTINUOUS
 62
3
 10
-124.524649749287390
 20
69.253799877180541
 11
-116.524649749287390
 21
69.253799877180541
  0
LINE
  8
0
  6
CONTINUOUS
 62
3
 10
-124.524649749287390
 20
69.253799877180541
 11
-124.524649749287390
 21
69.753799877180541
  0
LINE
  8
0
  6
CONTINUOUS
 62
3
 10
-110.524649749287390
 20
69.753799877180541
 11
-181.524649749287510
 21
69.753799877180541
  0
LINE
  8
0
  6
CONTINUOUS
 62
3
 10
-175.524649749308880
 20
105.414103516371590
 11
-175.524649749308420
 21
156.753799877180540
  0
ARC
  8
0
  6
CONTINUOUS
 62
3
 10
-178.524649749308880
 20
105.414103516371590
 40
3.000000000000000
 50
270.000000000000000
 51
0.000000000000000
  0
LINE
  8
0
  6
CONTINUOUS
 62
3
 10
-182.524649749308880
 20
102.414103516371590
 11
-178.524649749308880
 21
102.414103516371590
  0
POLYLINE
  8
0
  6
CONTINUOUS
 62
3
 66
1
 70
1
  0
VERTEX
  8
0
  6
CONTINUOUS
 62
3
 10
-181.824649749308430
 20
109.426468922833010
  0
VERTEX
  8
0
  6
CONTINUOUS
 62
3
 10
-181.914958931413250
 20
110.129425889033370
  0
VERTEX
  8
0
  6
CONTINUOUS
 62
3
 10
-182.182415946505390
 20
110.805368613245460
  0
VERTEX
  8
0
  6
CONTINUOUS
 62
3
 10
-182.616742571486470
 20
111.428320995650860
  0
VERTEX
  8
0
  6
CONTINUOUS
 62
3
 10
-183.201247877731650
 20
111.974343325549440
  0
VERTEX
  8
0
  6
CONTINUOUS
 62
3
 10
-183.913469654116310
 20
112.422452271016050
  0
VERTEX
  8
0
  6
CONTINUOUS
 62
3
 10
-184.726037617192500
 20
112.755427256578820
  0
VERTEX
  8
0
  6
CONTINUOUS
 62
3
 10
-185.607725235832620
 20
112.960472240277070
  0
VERTEX
  8
0
  6
CONTINUOUS
 62
3
 10
-186.524649749308420
 20
113.029707458377840
  0
VERTEX
  8
0
  6
CONTINUOUS
 62
3
 10
-187.441574262784230
 20
112.960472240277070
  0
VERTEX
  8
0
  6
CONTINUOUS
 62
3
 10
-188.323261881424340
 20
112.755427256578820
  0
VERTEX
  8
0
  6
CONTINUOUS
 62
3
 10
-189.135829844500530
 20
112.422452271016050
  0
VERTEX
  8
0
  6
CONTINUOUS
 62
3
 10
-189.848051620885200
 20
111.974343325549440
  0
VERTEX
  8
0
  6
CONTINUOUS
 62
3
 10
-190.432556927130380
 20
111.428320995650860
  0
VERTEX
  8
0
  6
CONTINUOUS
 62
3
 10
-190.866883552111460
 20
110.805368613245460
  0
VERTEX
  8
0
  6
CONTINUOUS
 62
3
 10
-191.134340567203590
 20
110.129425889033370
  0
VERTEX
  8
0
  6
CONTINUOUS
 62
3
 10
-191.224649749308410
 20
109.426468922833010
  0
VERTEX
  8
0
  6
CONTINUOUS
 62
3
 10
-191.134340567203590
 20
108.723511956632640
  0
VERTEX
  8
0
  6
CONTINUOUS
 62
3
 10
-190.866883552111460
 20
108.047569232420550
  0
VERTEX
  8
0
  6
CONTINUOUS
 62
3
 10
-190.432556927130380
 20
107.424616850015150
  0
VERTEX
  8
0
  6
CONTINUOUS
 62
3
 10
-189.848051620885170
 20
106.878594520116570
  0
VERTEX
  8
0
  6
CONTINUOUS
 62
3
 10
-189.135829844500530
 20
106.430485574649960
  0
VERTEX
  8
0
  6
CONTINUOUS
 62
3
 10
-188.323261881424340
 20
106.097510589087190
  0
VERTEX
  8
0
  6
CONTINUOUS
 62
3
 10
-187.441574262784230
 20
105.892465605388940
  0
VERTEX
  8
0
  6
CONTINUOUS
 62
3
 10
-186.524649749308420
 20
105.823230387288170
  0
VERTEX
  8
0
  6
CONTINUOUS
 62
3
 10
-185.607725235832620
 20
105.892465605388940
  0
VERTEX
  8
0
  6
CONTINUOUS
 62
3
 10
-184.726037617192500
 20
106.097510589087190
  0
VERTEX
  8
0
  6
CONTINUOUS
 62
3
 10
-183.913469654116310
 20
106.430485574649960
  0
VERTEX
  8
0
  6
CONTINUOUS
 62
3
 10
-183.201247877731670
 20
106.878594520116570
  0
VERTEX
  8
0
  6
CONTINUOUS
 62
3
 10
-182.616742571486470
 20
107.424616850015150
  0
VERTEX
  8
0
  6
CONTINUOUS
 62
3
 10
-182.182415946505390
 20
108.047569232420550
  0
VERTEX
  8
0
  6
CONTINUOUS
 62
3
 10
-181.914958931413250
 20
108.723511956632640
  0
SEQEND
  8
0
  6
CONTINUOUS
 62
3
  0
LINE
  8
0
  6
CONTINUOUS
 62
3
 10
-188.524649749308880
 20
106.434093368832570
 11
-186.524649749308880
 21
107.609878854455470
  0
LINE
  8
0
  6
CONTINUOUS
 62
3
 10
-186.524649749308880
 20
107.609878854455470
 11
-184.524649749308880
 21
109.262520493578790
  0
LINE
  8
0
  6
CONTINUOUS
 62
3
 10
-184.524649749308880
 20
106.434093368832570
 11
-186.524649749308880
 21
107.609878854455470
  0
LINE
  8
0
  6
CONTINUOUS
 62
3
 10
-186.524649749308880
 20
107.609878854455470
 11
-188.524649749308880
 21
109.262520493578790
  0
ARC
  8
0
  6
CONTINUOUS
 62
3
 10
-182.524649749308880
 20
99.414103516371597
 40
3.000000000000000
 50
90.000000000000000
 51
180.000000000000000
  0
LINE
  8
0
  6
CONTINUOUS
 62
3
 10
-185.524649749308880
 20
97.753799877180541
 11
-185.524649749308880
 21
99.414103516371597
  0
LINE
  8
0
  6
CONTINUOUS
 62
3
 10
-175.524649749308880
 20
215.753799877180540
 11
-175.524649749308420
 21
156.753799877180540
  0
POLYLINE
  8
0
  6
CONTINUOUS
 62
3
 66
1
 70
1
  0
VERTEX
  8
0
  6
CONTINUOUS
 62
3
 10
-181.824649749308430
 20
204.081130831528070
  0
VERTEX
  8
0
  6
CONTINUOUS
 62
3
 10
-181.914958931413250
 20
204.784087797728430
  0
VERTEX
  8
0
  6
CONTINUOUS
 62
3
 10
-182.182415946505390
 20
205.460030521940520
  0
VERTEX
  8
0
  6
CONTINUOUS
 62
3
 10
-182.616742571486470
 20
206.082982904345930
  0
VERTEX
  8
0
  6
CONTINUOUS
 62
3
 10
-183.201247877731650
 20
206.629005234244520
  0
VERTEX
  8
0
  6
CONTINUOUS
 62
3
 10
-183.913469654116310
 20
207.077114179711150
  0
VERTEX
  8
0
  6
CONTINUOUS
 62
3
 10
-184.726037617192500
 20
207.410089165273890
  0
VERTEX
  8
0
  6
CONTINUOUS
 62
3
 10
-185.607725235832620
 20
207.615134148972150
  0
VERTEX
  8
0
  6
CONTINUOUS
 62
3
 10
-186.524649749308420
 20
207.684369367072920
  0
VERTEX
  8
0
  6
CONTINUOUS
 62
3
 10
-187.441574262784230
 20
207.615134148972150
  0
VERTEX
  8
0
  6
CONTINUOUS
 62
3
 10
-188.323261881424340
 20
207.410089165273890
  0
VERTEX
  8
0
  6
CONTINUOUS
 62
3
 10
-189.135829844500530
 20
207.077114179711150
  0
VERTEX
  8
0
  6
CONTINUOUS
 62
3
 10
-189.848051620885200
 20
206.629005234244520
  0
VERTEX
  8
0
  6
CONTINUOUS
 62
3
 10
-190.432556927130380
 20
206.082982904345930
  0
VERTEX
  8
0
  6
CONTINUOUS
 62
3
 10
-190.866883552111460
 20
205.460030521940520
  0
VERTEX
  8
0
  6
CONTINUOUS
 62
3
 10
-191.134340567203590
 20
204.784087797728430
  0
VERTEX
  8
0
  6
CONTINUOUS
 62
3
 10
-191.224649749308410
 20
204.081130831528070
  0
VERTEX
  8
0
  6
CONTINUOUS
 62
3
 10
-191.134340567203590
 20
203.378173865327710
  0
VERTEX
  8
0
  6
CONTINUOUS
 62
3
 10
-190.866883552111460
 20
202.702231141115620
  0
VERTEX
  8
0
  6
CONTINUOUS
 62
3
 10
-190.432556927130380
 20
202.079278758710220
  0
VERTEX
  8
0
  6
CONTINUOUS
 62
3
 10
-189.848051620885170
 20
201.533256428811630
  0
VERTEX
  8
0
  6
CONTINUOUS
 62
3
 10
-189.135829844500530
 20
201.085147483345000
  0
VERTEX
  8
0
  6
CONTINUOUS
 62
3
 10
-188.323261881424340
 20
200.752172497782250
  0
VERTEX
  8
0
  6
CONTINUOUS
 62
3
 10
-187.441574262784230
 20
200.547127514084000
  0
VERTEX
  8
0
  6
CONTINUOUS
 62
3
 10
-186.524649749308420
 20
200.477892295983220
  0
VERTEX
  8
0
  6
CONTINUOUS
 62
3
 10
-185.607725235832620
 20
200.547127514084000
  0
VERTEX
  8
0
  6
CONTINUOUS
 62
3
 10
-184.726037617192500
 20
200.752172497782250
  0
VERTEX
  8
0
  6
CONTINUOUS
 62
3
 10
-183.913469654116310
 20
201.085147483345000
  0
VERTEX
  8
0
  6
CONTINUOUS
 62
3
 10
-183.201247877731670
 20
201.533256428811630
  0
VERTEX
  8
0
  6
CONTINUOUS
 62
3
 10
-182.616742571486470
 20
202.079278758710220
  0
VERTEX
  8
0
  6
CONTINUOUS
 62
3
 10
-182.182415946505390
 20
202.702231141115620
  0
VERTEX
  8
0
  6
CONTINUOUS
 62
3
 10
-181.914958931413250
 20
203.378173865327710
  0
SEQEND
  8
0
  6
CONTINUOUS
 62
3
  0
LINE
  8
0
  6
CONTINUOUS
 62
3
 10
-188.524649749308880
 20
207.073506385528500
 11
-186.524649749308880
 21
205.897720899905720
  0
LINE
  8
0
  6
CONTINUOUS
 62
3
 10
-186.524649749308880
 20
205.897720899905720
 11
-184.524649749308880
 21
204.245079260782290
  0
LINE
  8
0
  6
CONTINUOUS
 62
3
 10
-184.524649749308880
 20
207.073506385528500
 11
-186.524649749308880
 21
205.897720899905720
  0
LINE
  8
0
  6
CONTINUOUS
 62
3
 10
-186.524649749308880
 20
205.897720899905720
 11
-188.524649749308880
 21
204.245079260782290
  0
LINE
  8
0
  6
CONTINUOUS
 62
3
 10
-108.524649749287390
 20
104.253799877180650
 11
-175.758118443706170
 21
104.253799877180650
  0
LINE
  8
0
  6
CONTINUOUS
 62
3
 10
-183.524649749287510
 20
99.253799877180541
 11
-183.524649749287510
 21
102.242530641125200
  0
LINE
  8
0
  6
CONTINUOUS
 62
3
 10
-185.524649749308880
 20
97.753799877180541
 11
-205.029494698401660
 21
97.753799877180541
  0
LINE
  8
0
  6
CONTINUOUS
 62
3
 10
-175.524649749308880
 20
215.753799877180540
 11
-205.029494698401660
 21
215.753799877180540
  0
ARC
  8
0
  6
CONTINUOUS
 62
3
 10
-205.029494698401660
 20
118.353799877180560
 40
20.599999999999891
 50
235.000000000000400
 51
270.000000000000000
  0
ARC
  8
0
  6
CONTINUOUS
 62
3
 10
-222.924649749308970
 20
108.910179743551220
 40
2.599999999999909
 50
180.000000000000000
 51
234.999999999997390
  0
LINE
  8
0
  6
CONTINUOUS
 62
3
 10
-216.845169287233030
 20
101.479267764827340
 11
-224.415948483821810
 21
106.780384428399880
  0
LINE
  8
0
  6
CONTINUOUS
 62
3
 10
-225.524649749308880
 20
108.910179743551220
 11
-225.524649749308880
 21
156.753799877180540
  0
ARC
  8
0
  6
CONTINUOUS
 62
3
 10
-205.029494698401660
 20
195.153799877180520
 40
20.600000000000023
 50
90.000000000000000
 51
124.999999999999600
  0
ARC
  8
0
  6
CONTINUOUS
 62
3
 10
-222.924649749308970
 20
204.597420010809860
 40
2.600000000000131
 50
125.000000000001180
 51
180.000000000000000
  0
LINE
  8
0
  6
CONTINUOUS
 62
3
 10
-216.845169287233030
 20
212.028331989533850
 11
-224.415948483821810
 21
206.727215325961200
  0
LINE
  8
0
  6
CONTINUOUS
 62
3
 10
-225.524649749308880
 20
204.597420010809860
 11
-225.524649749308880
 21
156.753799877180540
  0
LINE
  8
0
  6
CONTINUOUS
 62
4
 10
-175.524649749308420
 20
105.753799877180540
 11
-35.024649749287619
 21
105.753799877180540
  0
LINE
  8
0
  6
CONTINUOUS
 62
4
 10
-175.524649749308420
 20
106.253799877180540
 11
-35.024649749287619
 21
106.253799877180540
  0
LINE
  8
0
  6
CONTINUOUS
 62
4
 10
-175.524649749308420
 20
110.620717282297840
 11
-35.024649749287619
 21
110.620717282297960
  0
LINE
  8
0
  6
CONTINUOUS
 62
4
 10
-175.524649749308420
 20
115.711886106840780
 11
-35.024649749287619
 21
115.711886106840780
  0
LINE
  8
0
  6
CONTINUOUS
 62
4
 10
-175.524649749308420
 20
125.039408718410520
 11
-35.024649749287619
 21
125.039408718410520
  0
LINE
  8
0
  6
CONTINUOUS
 62
4
 10
-175.524649749308420
 20
123.450198925671880
 11
-35.024649749287619
 21
123.450198925671880
  0
LINE
  8
0
  6
CONTINUOUS
 62
4
 10
-175.524649749308420
 20
127.997404326543460
 11
-35.024649749287619
 21
127.997404326543460
  0
LINE
  8
0
  6
CONTINUOUS
 62
4
 10
-175.524649749308420
 20
129.476427480020560
 11
-35.024649749287619
 21
129.476427480020560
  0
LINE
  8
0
  6
CONTINUOUS
 62
4
 10
-175.524649749308420
 20
132.569158471685800
 11
-35.024649749287619
 21
132.569158471685800
  0
LINE
  8
0
  6
CONTINUOUS
 62
4
 10
-175.524649749308420
 20
133.915560197184390
 11
-35.024649749287619
 21
133.915560197184390
  0
LINE
  8
0
  6
CONTINUOUS
 62
4
 10
-175.524649749308420
 20
137.125765220542690
 11
-35.024649749287619
 21
137.125765220542690
  0
LINE
  8
0
  6
CONTINUOUS
 62
4
 10
-175.524649749308420
 20
138.367685085430590
 11
-35.024649749287619
 21
138.367685085430590
  0
LINE
  8
0
  6
CONTINUOUS
 62
4
 10
-175.524649749308420
 20
142.753799877180540
 11
-35.024649749287619
 21
142.753799877180540
  0
LINE
  8
0
  6
CONTINUOUS
 62
4
 10
-175.524649749308420
 20
170.753799877180540
 11
-35.024649749287619
 21
170.753799877180540
  0
LINE
  8
0
  6
CONTINUOUS
 62
4
 10
-175.524649749308420
 20
175.139914668930490
 11
-35.024649749287619
 21
175.139914668930490
  0
LINE
  8
0
  6
CONTINUOUS
 62
4
 10
-175.524649749308420
 20
176.381834533818390
 11
-35.024649749287619
 21
176.381834533818390
  0
LINE
  8
0
  6
CONTINUOUS
 62
4
 10
-175.524649749308420
 20
179.592039557176690
 11
-35.024649749287619
 21
179.592039557176690
  0
LINE
  8
0
  6
CONTINUOUS
 62
4
 10
-175.524649749308420
 20
180.938441282675290
 11
-35.024649749287619
 21
180.938441282675290
  0
LINE
  8
0
  6
CONTINUOUS
 62
4
 10
-175.524649749308420
 20
184.031172274340630
 11
-35.024649749287619
 21
184.031172274340630
  0
LINE
  8
0
  6
CONTINUOUS
 62
4
 10
-175.524649749308420
 20
185.510195427817620
 11
-35.024649749287619
 21
185.510195427817620
  0
LINE
  8
0
  6
CONTINUOUS
 62
4
 10
-175.524649749308420
 20
188.468191035950550
 11
-35.024649749287619
 21
188.468191035950550
  0
LINE
  8
0
  6
CONTINUOUS
 62
4
 10
-175.524649749308420
 20
190.057400828689310
 11
-35.024649749287619
 21
190.057400828689310
  0
LINE
  8
0
  6
CONTINUOUS
 62
4
 10
-175.524649749308420
 20
197.795713647520300
 11
-35.024649749287619
 21
197.795713647520300
  0
LINE
  8
0
  6
CONTINUOUS
 62
4
 10
-175.524649749308420
 20
202.886882472063230
 11
-35.024649749287619
 21
202.886882472063230
  0
LINE
  8
0
  6
CONTINUOUS
 62
4
 10
-175.524649749308420
 20
207.253799877180540
 11
-35.024649749287619
 21
207.253799877180540
  0
LINE
  8
0
  6
CONTINUOUS
 62
4
 10
-175.524649749308420
 20
207.753799877180540
 11
-35.024649749287619
 21
207.753799877180540
  0
LINE
  8
0
  6
CONTINUOUS
 62
3
 10
-35.024649749287619
 20
210.253799877180540
 11
-175.524649749308420
 21
210.253799877180540
  0
LINE
  8
0
  6
CONTINUOUS
 62
3
 10
-35.024649749287619
 20
103.253799877180540
 11
-108.524649749287390
 21
103.253799877180540
  0
LINE
  8
0
  6
CONTINUOUS
 62
3
 10
-35.024649749287619
 20
210.253799877180540
 11
-35.024649749287619
 21
156.753799877180540
  0
LINE
  8
0
  6
CONTINUOUS
 62
3
 10
-35.024649749287619
 20
103.253799877180540
 11
-35.024649749287619
 21
156.753799877180540
  0
ARC
  8
0
  6
CONTINUOUS
 62
3
 10
392.559601052523020
 20
-147.979598307002500
 40
52.746750336800233
 50
0.000000000000000
 51
88.089786828289888
  0
LINE
  8
0
  6
CONTINUOUS
 62
3
 10
445.306601052523320
 20
-147.746200122821340
 11
445.306601052523320
 21
-241.746200122821340
  0
LINE
  8
0
  6
CONTINUOUS
 62
3
 10
448.931075191612540
 20
-137.746200723750860
 11
448.931075191612540
 21
-241.746200122821340
  0
ARC
  8
0
  6
CONTINUOUS
 62
3
 10
-222.924649749313520
 20
-186.089820256449000
 40
2.599999999999909
 50
180.000000000000000
 51
234.999999999997390
  0
LINE
  8
0
  6
CONTINUOUS
 62
3
 10
-225.524649749313430
 20
-186.089820256449000
 11
-225.524649749313430
 21
-143.246200122819460
  0
LINE
  8
0
  6
CONTINUOUS
 62
3
 10
-216.845169287237580
 20
-193.520732235172890
 11
-224.415948483826360
 21
-188.219615571600340
  0
ARC
  8
0
  6
CONTINUOUS
 62
3
 10
-222.924649749313520
 20
-100.402579989189910
 40
2.600000000000131
 50
125.000000000001180
 51
180.000000000000000
  0
LINE
  8
0
  6
CONTINUOUS
 62
3
 10
-225.524649749313430
 20
-100.402579989189910
 11
-225.524649749313430
 21
-143.246200122819460
  0
LINE
  8
0
  6
CONTINUOUS
 62
3
 10
-216.845169287237580
 20
-92.971668010465919
 11
-224.415948483826360
 21
-98.272784674038462
  0
LINE
  8
0
  6
CONTINUOUS
 62
3
 10
359.559601052522110
 20
-132.746200122821340
 11
367.559601052522110
 21
-132.746200122821340
  0
LINE
  8
0
  6
CONTINUOUS
 62
3
 10
359.559601052522110
 20
-142.746200122821340
 11
359.559601052522110
 21
-132.746200122821340
  0
ARC
  8
0
  6
CONTINUOUS
 62
3
 10
378.559601052522110
 20
-137.746200122821340
 40
16.000000000000192
 50
198.209956864282790
 51
161.790043135717210
  0
LINE
  8
0
  6
CONTINUOUS
 62
3
 10
367.559601052522110
 20
-142.746200122821340
 11
367.559601052522110
 21
-132.746200122821340
  0
LINE
  8
0
  6
CONTINUOUS
 62
3
 10
359.559601052522110
 20
-142.746200122821340
 11
367.559601052522110
 21
-142.746200122821340
  0
LINE
  8
0
  6
CONTINUOUS
 62
3
 10
389.059601052523020
 20
-36.595720288249083
 11
368.059601052523020
 21
-36.595720288249083
  0
ARC
  8
0
  6
CONTINUOUS
 62
3
 10
368.059601052523020
 20
-46.595720288249083
 40
10.000000000000000
 50
90.000000000000000
 51
180.000000000000000
  0
LINE
  8
0
  6
CONTINUOUS
 62
3
 10
358.059601052523020
 20
-46.595720288249083
 11
358.059601052523020
 21
-68.244098057741155
  0
CIRCLE
  8
0
  6
CONTINUOUS
 62
3
 10
378.559601052523020
 20
-56.595720288249083
 40
10.000000000000000
  0
LINE
  8
0
  6
CONTINUOUS
 62
3
 10
399.059601052523020
 20
-46.595720288249083
 11
399.059601052523020
 21
-67.746193161956796
  0
ARC
  8
0
  6
CONTINUOUS
 62
3
 10
389.059601052523020
 20
-46.595720288249083
 40
10.000000000000000
 50
0.000000000000000
 51
90.000000000000000
  0
LINE
  8
0
  6
DASHDOT
 62
4
 10
401.727514051404570
 20
-56.595720288249083
 11
354.705000149869870
 21
-56.595720288249083
  0
CIRCLE
  8
0
  6
CONTINUOUS
 62
4
 10
378.559601052523020
 20
-137.746200122821340
 40
4.000000000000000
  0
CIRCLE
  8
0
  6
CONTINUOUS
 62
3
 10
378.559601052523020
 20
-137.746200122821340
 40
3.323500000000024
  0
CIRCLE
  8
0
  6
CONTINUOUS
 62
3
 10
378.559601052523020
 20
-137.746200122821340
 40
23.500000000000000
  0
LINE
  8
0
  6
CONTINUOUS
 62
3
 10
278.559601052523020
 20
-262.746200122821340
 11
308.559601052523020
 21
-262.746200122821340
  0
LINE
  8
0
  6
CONTINUOUS
 62
3
 10
478.559601052523020
 20
-262.746200122821340
 11
448.559601052523020
 21
-262.746200122821340
  0
LINE
  8
0
  6
CONTINUOUS
 62
3
 10
278.559601052523020
 20
-262.746200122821340
 11
308.559601052523020
 21
-262.746200122821340
  0
LINE
  8
0
  6
CONTINUOUS
 62
3
 10
431.559601052523020
 20
-238.146200122821430
 11
378.559601052523020
 21
-238.146200122821430
  0
LINE
  8
0
  6
CONTINUOUS
 62
3
 10
438.559601052523020
 20
-141.246200122821340
 11
438.559601052523020
 21
-231.146200122821430
  0
LINE
  8
0
  6
CONTINUOUS
 62
3
 10
421.454822231577740
 20
-137.746200122821340
 11
435.059601052523020
 21
-137.746200122821340
  0
ARC
  8
0
  6
CONTINUOUS
 62
3
 10
378.559601052523020
 20
-137.746200122821340
 40
40.000000000000000
 50
270.000000000000000
 51
355.999370038428480
  0
ARC
  8
0
  6
CONTINUOUS
 62
3
 10
431.559601052523020
 20
-231.146200122821430
 40
7.000000000000000
 50
270.000000000000000
 51
0.000000000000000
  0
ARC
  8
0
  6
CONTINUOUS
 62
3
 10
435.059601052523020
 20
-141.246200122821340
 40
3.500000000000000
 50
0.000000000000000
 51
90.000000000000000
  0
ARC
  8
0
  6
CONTINUOUS
 62
3
 10
421.454822231577740
 20
-140.746200122821340
 40
3.000000000000000
 50
90.000000000000000
 51
175.999370038424810
  0
ARC
  8
0
  6
CONTINUOUS
 62
3
 10
325.559601052523020
 20
-231.146200122821430
 40
7.000000000000000
 50
180.000000000000000
 51
270.000000000000000
  0
LINE
  8
0
  6
CONTINUOUS
 62
3
 10
325.559601052523020
 20
-238.146200122821430
 11
378.559601052523020
 21
-238.146200122821430
  0
LINE
  8
0
  6
DASHDOT
 62
4
 10
291.059601052523020
 20
-240.585921268451270
 11
291.059601052523020
 21
-267.162991962421020
  0
LINE
  8
0
  6
CONTINUOUS
 62
3
 10
446.559601052523020
 20
-260.746200122821340
 11
378.559601052523020
 21
-260.746200122821340
  0
LINE
  8
0
  6
CONTINUOUS
 62
3
 10
476.059601052523020
 20
-244.746200122821340
 11
378.559601052523020
 21
-244.746200122821340
  0
LINE
  8
0
  6
CONTINUOUS
 62
3
 10
310.559601052523020
 20
-260.746200122821340
 11
378.559601052523020
 21
-260.746200122821340
  0
LINE
  8
0
  6
CONTINUOUS
 62
3
 10
478.559601052523020
 20
-247.246200122821340
 11
478.559601052523020
 21
-262.746200122821340
  0
LINE
  8
0
  6
DASHDOT
 62
4
 10
466.059601052523020
 20
-240.585921268451270
 11
466.059601052523020
 21
-267.162991962421020
  0
LINE
  8
0
  6
CONTINUOUS
 62
3
 10
278.559601052523020
 20
-247.246200122821340
 11
278.559601052523020
 21
-262.746200122821340
  0
LINE
  8
0
  6
CONTINUOUS
 62
3
 10
281.059601052523020
 20
-244.746200122821340
 11
378.559601052523020
 21
-244.746200122821340
  0
LINE
  8
0
  6
DASHDOT
 62
4
 10
378.559601052523020
 20
-19.211230530092450
 11
378.559601052523020
 21
-273.448278069621610
  0
ARC
  8
0
  6
CONTINUOUS
 62
3
 10
378.559601052523020
 20
-567.746200122821390
 40
472.746750336799830
 50
90.000000000000000
 51
91.910213171709955
  0
ARC
  8
0
  6
CONTINUOUS
 62
3
 10
378.559601052523020
 20
-567.746200122821390
 40
472.746750336800230
 50
88.089786828290045
 51
90.000000000000000
  0
ARC
  8
0
  6
CONTINUOUS
 62
3
 10
378.559601052523020
 20
-567.746200122821390
 40
500.000000000000060
 50
90.000000000000000
 51
91.910213171709970
  0
ARC
  8
0
  6
CONTINUOUS
 62
3
 10
378.559601052523020
 20
-567.746200122821390
 40
500.000000000000110
 50
88.089786828290030
 51
90.000000000000000
  0
ARC
  8
0
  6
CONTINUOUS
 62
3
 10
475.559601052523020
 20
-241.746200122821340
 40
3.000000000000000
 50
180.000000000000000
 51
270.000000000000000
  0
ARC
  8
0
  6
CONTINUOUS
 62
3
 10
281.559601052523020
 20
-241.746200122821340
 40
3.000000000000000
 50
270.000000000000000
 51
0.000000000000000
  0
ARC
  8
0
  6
CONTINUOUS
 62
3
 10
476.059601052523020
 20
-247.246200122821340
 40
2.500000000000000
 50
0.000000000000000
 51
90.000000000000000
  0
ARC
  8
0
  6
CONTINUOUS
 62
3
 10
446.559601052523020
 20
-262.746200122821340
 40
2.000000000000000
 50
0.000000000000000
 51
90.000000000000000
  0
ARC
  8
0
  6
CONTINUOUS
 62
3
 10
281.059601052523020
 20
-247.246200122821340
 40
2.500000000000000
 50
90.000000000000000
 51
180.000000000000000
  0
ARC
  8
0
  6
CONTINUOUS
 62
3
 10
310.559601052523020
 20
-262.746200122821340
 40
2.000000000000000
 50
90.000000000000000
 51
180.000000000000000
  0
ARC
  8
0
  6
CONTINUOUS
 62
3
 10
289.768811601217520
 20
-241.746200122821340
 40
3.000000000000000
 50
270.000000000000000
 51
0.000000000000000
  0
ARC
  8
0
  6
CONTINUOUS
 62
3
 10
305.188126913433510
 20
-241.746200122821340
 40
3.000000000000000
 50
270.000000000000000
 51
0.000000000000000
  0
ARC
  8
0
  6
CONTINUOUS
 62
3
 10
451.931075191612540
 20
-241.746200122821340
 40
3.000000000000000
 50
180.000000000000000
 51
270.000000000000000
  0
ARC
  8
0
  6
CONTINUOUS
 62
3
 10
467.350390503828520
 20
-241.746200122821340
 40
3.000000000000000
 50
180.000000000000000
 51
270.000000000000000
  0
ARC
  8
0
  6
CONTINUOUS
 62
3
 10
308.812601052522720
 20
-241.746200122821340
 40
3.000000000000000
 50
270.000000000000000
 51
0.000000000000000
  0
ARC
  8
0
  6
CONTINUOUS
 62
3
 10
448.306601052523320
 20
-241.746200122821340
 40
3.000000000000000
 50
180.000000000000000
 51
270.000000000000000
  0
ARC
  8
0
  6
CONTINUOUS
 62
3
 10
234.075365604877190
 20
-153.346200122821240
 40
0.400000000000091
 50
270.000000000000000
 51
0.000000000000000
  0
LINE
  8
0
  6
CONTINUOUS
 62
3
 10
234.475365604877280
 20
-137.746200122821340
 11
234.475365604877280
 21
-153.346200122821240
  0
ARC
  8
0
  6
CONTINUOUS
 62
3
 10
234.075365604877190
 20
-122.146200122820970
 40
0.400000000000091
 50
0.000000000000000
 51
90.000000000000000
  0
LINE
  8
0
  6
CONTINUOUS
 62
3
 10
152.475365604855450
 20
-243.698577038068780
 11
179.580064094963150
 21
-244.645093966185360
  0
ARC
  8
0
  6
CONTINUOUS
 62
3
 10
181.475365604855450
 20
-102.996200122821330
 40
1.000000000000000
 50
180.000000000000000
 51
270.000000000000000
  0
ARC
  8
0
  6
CONTINUOUS
 62
3
 10
177.475365604855450
 20
-96.062388573991427
 40
3.000000000000000
 50
0.000000000000000
 51
39.469308363522465
  0
ARC
  8
0
  6
CONTINUOUS
 62
3
 10
179.475365604855450
 20
-247.643266447242640
 40
3.000000000000000
 50
0.000000000000000
 51
87.999999999996348
  0
ARC
  8
0
  6
CONTINUOUS
 62
3
 10
182.475365604855450
 20
-243.643266447242640
 40
2.000000000000000
 50
180.000000000000000
 51
233.130102354158570
  0
ARC
  8
0
  6
CONTINUOUS
 62
3
 10
179.690250492520450
 20
-241.647113127079080
 40
3.000000000000000
 50
180.000000000000000
 51
268.000000000005000
  0
ARC
  8
0
  6
CONTINUOUS
 62
3
 10
155.561507402179220
 20
-240.804518851495630
 40
3.000000000000000
 50
180.000000000000000
 51
268.000000000005000
  0
ARC
  8
0
  6
CONTINUOUS
 62
3
 10
181.475365604855450
 20
-171.996188839124390
 40
1.000000000000000
 50
90.000000000000000
 51
180.000000000000000
  0
ARC
  8
0
  6
CONTINUOUS
 62
3
 10
125.753697154245250
 20
-138.651929692500230
 40
70.000000000000341
 50
39.469308363517086
 51
88.999999999999716
  0
LINE
  8
0
  6
CONTINUOUS
 62
3
 10
152.561507402179220
 20
-137.746200122821340
 11
152.561507402179220
 21
-240.804518851495630
  0
LINE
  8
0
  6
CONTINUOUS
 62
3
 10
176.690250492520450
 20
-137.746200122821340
 11
176.690250492520450
 21
-241.647113127079080
  0
LINE
  8
0
  6
CONTINUOUS
 62
3
 10
181.475365604855450
 20
-103.996200122821330
 11
182.475365604855450
 21
-103.996200122821330
  0
LINE
  8
0
  6
CONTINUOUS
 62
3
 10
182.475365604855450
 20
-170.996188839124390
 11
181.475365604855450
 21
-170.996188839124390
  0
LINE
  8
0
  6
CONTINUOUS
 62
3
 10
182.475365604855450
 20
-247.593093822965730
 11
182.475365604855450
 21
-249.392372559963800
  0
LINE
  8
0
  6
CONTINUOUS
 62
3
 10
180.475365604855450
 20
-171.996188839124390
 11
180.475365604855450
 21
-243.643266447242640
  0
LINE
  8
0
  6
DASHDOT
 62
4
 10
169.475365604855450
 20
-240.524160900104050
 11
169.475365604855450
 21
-268.964884510028180
  0
LINE
  8
0
  6
CONTINUOUS
 62
3
 10
182.475365604855450
 20
-103.996200122821330
 11
182.475365604855450
 21
-170.996188839124390
  0
LINE
  8
0
  6
CONTINUOUS
 62
3
 10
180.475365604855450
 20
-171.996188839124390
 11
180.475365604855450
 21
-102.996200122821330
  0
LINE
  8
0
  6
CONTINUOUS
 62
3
 10
182.475365604855450
 20
-247.643266447242640
 11
182.475365604855450
 21
-262.746200122821340
  0
LINE
  8
0
  6
CONTINUOUS
 62
3
 10
180.475365604855450
 20
-107.996200122821330
 11
180.475365604855450
 21
-96.062388573991427
  0
POLYLINE
  8
0
  6
CONTINUOUS
 62
3
 66
1
  0
VERTEX
  8
0
  6
CONTINUOUS
 62
3
 10
176.690250492520450
 20
-137.746199439964360
  0
VERTEX
  8
0
  6
CONTINUOUS
 62
3
 10
176.458436835538660
 20
-135.795296316640990
  0
VERTEX
  8
0
  6
CONTINUOUS
 62
3
 10
175.771904654096690
 20
-133.919365326012240
  0
VERTEX
  8
0
  6
CONTINUOUS
 62
3
 10
174.657036992629140
 20
-132.190497437766060
  0
VERTEX
  8
0
  6
CONTINUOUS
 62
3
 10
173.156677586428230
 20
-130.675132069529470
  0
VERTEX
  8
0
  6
CONTINUOUS
 62
3
 10
171.328484401066110
 20
-129.431503857530260
  0
VERTEX
  8
0
  6
CONTINUOUS
 62
3
 10
169.242713869304910
 20
-128.507404732378970
  0
VERTEX
  8
0
  6
CONTINUOUS
 62
3
 10
166.979520976020070
 20
-127.938347302136690
  0
VERTEX
  8
0
  6
CONTINUOUS
 62
3
 10
164.625878947349830
 20
-127.746200122821330
  0
VERTEX
  8
0
  6
CONTINUOUS
 62
3
 10
162.272236918679600
 20
-127.938347302136690
  0
VERTEX
  8
0
  6
CONTINUOUS
 62
3
 10
160.009044025394760
 20
-128.507404732378970
  0
VERTEX
  8
0
  6
CONTINUOUS
 62
3
 10
157.923273493633590
 20
-129.431503857530260
  0
VERTEX
  8
0
  6
CONTINUOUS
 62
3
 10
156.095080308271430
 20
-130.675132069529470
  0
VERTEX
  8
0
  6
CONTINUOUS
 62
3
 10
154.594720902070520
 20
-132.190497437766060
  0
VERTEX
  8
0
  6
CONTINUOUS
 62
3
 10
153.479853240602980
 20
-133.919365326012240
  0
VERTEX
  8
0
  6
CONTINUOUS
 62
3
 10
152.793321059161000
 20
-135.795296316640990
  0
VERTEX
  8
0
  6
CONTINUOUS
 62
3
 10
152.561507402179220
 20
-137.746199439964330
  0
SEQEND
  8
0
  6
CONTINUOUS
 62
3
  0
LINE
  8
0
  6
CONTINUOUS
 62
3
 10
184.475365604877280
 20
-154.546200122821060
 11
184.275365604877460
 21
-154.746200122821340
  0
ARC
  8
0
  6
CONTINUOUS
 62
3
 10
185.275365604877460
 20
-154.396200122820970
 40
0.799999999999727
 50
90.000000000000000
 51
176.296803365752200
  0
LINE
  8
0
  6
CONTINUOUS
 62
3
 10
184.475365604877280
 20
-154.546200122821060
 11
184.475365604877280
 21
-137.746200122821340
  0
LINE
  8
0
  6
CONTINUOUS
 62
3
 10
186.475365604877280
 20
-153.596200122821240
 11
185.275365604877460
 21
-153.596200122821240
  0
LINE
  8
0
  6
CONTINUOUS
 62
3
 10
234.075365604877190
 20
-153.746200122821340
 11
187.035173226012690
 21
-153.746200122821340
  0
LINE
  8
0
  6
CONTINUOUS
 62
3
 10
186.475365604877280
 20
-153.596200122821240
 11
187.035173226012690
 21
-153.746200122821340
  0
LINE
  8
0
  6
CONTINUOUS
 62
3
 10
184.475365604877280
 20
-120.946200122821150
 11
184.275365604877460
 21
-120.746200122821330
  0
ARC
  8
0
  6
CONTINUOUS
 62
3
 10
185.275365604877460
 20
-121.096200122821240
 40
0.800000000000237
 50
183.703196634280290
 51
270.000000000000000
  0
LINE
  8
0
  6
CONTINUOUS
 62
3
 10
184.475365604877280
 20
-120.946200122821150
 11
184.475365604877280
 21
-137.746200122821340
  0
LINE
  8
0
  6
CONTINUOUS
 62
3
 10
186.475365604877280
 20
-121.896200122820970
 11
185.275365604877460
 21
-121.896200122820970
  0
LINE
  8
0
  6
CONTINUOUS
 62
3
 10
186.475365604877280
 20
-121.896200122820970
 11
187.035173226012690
 21
-121.746200122821330
  0
LINE
  8
0
  6
CONTINUOUS
 62
3
 10
234.075365604877190
 20
-121.746200122821330
 11
187.035173226012690
 21
-121.746200122821330
  0
LINE
  8
0
  6
CONTINUOUS
 62
3
 10
182.475365604855450
 20
-154.746200122821340
 11
184.275365604877460
 21
-154.746200122821340
  0
LINE
  8
0
  6
CONTINUOUS
 62
3
 10
182.475365604855450
 20
-120.746200122821330
 11
184.275365604877460
 21
-120.746200122821330
  0
LINE
  8
0
  6
DASHDOT
 62
4
 10
131.404987216962890
 20
-137.746200122821340
 11
250.293981026017120
 21
-137.746200122821340
  0
LINE
  8
0
  6
CONTINUOUS
 62
3
 10
234.475365604877280
 20
-137.746200122821340
 11
234.475365604877280
 21
-122.146200122820970
  0
LINE
  8
0
  6
CONTINUOUS
 62
3
 10
234.475365604877280
 20
-142.746200122821340
 11
194.475365604878190
 21
-142.746200122821340
  0
LINE
  8
0
  6
CONTINUOUS
 62
3
 10
234.475365604877280
 20
-132.746200122821340
 11
194.475365604878190
 21
-132.746200122821340
  0
ARC
  8
0
  6
CONTINUOUS
 62
3
 10
194.475365604878190
 20
-137.746200122821340
 40
5.000000000000000
 50
90.000000000000000
 51
270.000000000000000
  0
ENDSEC
  0
EOF
