  0
SECTION
  2
HEADER
  9
$FILLMODE
 70
1
  9
$TEXTSTYLE
  7
STANDARD1
  9
$ACADVER
  1
AC1009
  9
$DIMASZ
 40
1.931851648807023
  9
$DIMEXE
 40
2.000000000000000
  9
$DIMEXO
 40
1.000000000000000
  9
$DIMLFAC
 40
1.000000000000000
  9
$DIMSCALE
 40
1.000000000000000
  9
$DIMTAD
 70
1
  9
$DIMTFAC
 40
0.714285731315613
  9
$DIMTXT
 40
3.200000047683716
  9
$LUPREC
 70
3
  9
$TEXTSIZE
 40
3.299999952316284
  9
$REGENMODE
 70
1
  0
ENDSEC
  0
SECTION
  2
TABLES
  0
TABLE
  2
LTYPE
 70
4
  0
LTYPE
  2
CONTINUOUS
 70
64
  3
Solid line
 72
65
 73
0
 40
0.0
  0
LTYPE
  2
DASHED
 70
64
  3
-- -- -- -- -- -- -- -- -- -- -- -- -- -- --
 72
65
 73
2
 40
0.75
 49
0.5
 49
-0.25
  0
LTYPE
  2
DASHDOT
 70
64
  3
__ . __ . __ . __ . __ . __ . __ . __ . __ . __
 72
65
 73
4
 40
1.0
 49
0.5
 49
-0.25
 49
0.0
 49
-0.25
  0
LTYPE
  2
DIVIDE
 70
64
  3
__ . . __ . . __ . . __ . . __ . . __ . . __
 72
65
 73
6
 40
1.25
 49
0.5
 49
-0.25
 49
0.0
 49
-0.25
 49
0.0
 49
-0.25
  0
ENDTAB
  0
TABLE
  2
LAYER
 70
1
  0
LAYER
  2
0
 70
64
 62
2
  6
CONTINUOUS
  0
ENDTAB
  0
TABLE
  2
STYLE
 70
4
  0
STYLE
  2
STANDARD1
 70
64
 40
0.0
 41
1.0
 50
0.0
 71
0
 42
3.299999952316284
  3
MONOTXT
  4
BIGFONT
  0
STYLE
  2
STANDARD2
 70
68
 40
0.0
 41
1.0
 50
0.0
 71
0
 42
3.299999952316284
  3
MONOTXT
  4
BIGFONT
  0
STYLE
  2
STANDARD3
 70
64
 40
0.0
 41
1.0
 50
0.0
 71
0
 42
3.299999952316284
  3
MONOTXT
  4

  0
STYLE
  2
STANDARD4
 70
68
 40
0.0
 41
1.0
 50
0.0
 71
0
 42
3.299999952316284
  3
MONOTXT
  4

  0
ENDTAB
  0
TABLE
  2
VIEW
 70
0
  0
ENDTAB
  0
ENDSEC
  0
SECTION
  2
BLOCKS
  0
BLOCK
  8
0
  2
SYM1
 70
64
 10
0.000000000000000
 20
0.000000000000000
  0
ARC
  8
0
  6
CONTINUOUS
 62
3
 10
1.981662750244141
 20
-0.000008163610801
 40
5.981661796569824
 50
150.999363302540700
 51
209.000072979481700
  0
ARC
  8
0
  6
CONTINUOUS
 62
3
 10
-2.269982337951660
 20
4.325008392333984
 40
1.729999542236328
 50
179.999745461767870
 51
235.499786279783790
  0
ARC
  8
0
  6
CONTINUOUS
 62
3
 10
-2.270017623901367
 20
-4.324990272521973
 40
1.729999542236328
 50
124.499759285265280
 51
179.999745461767870
  0
LINE
  8
0
  6
CONTINUOUS
 62
3
 10
-3.249984168999890
 20
2.900012016287064
 11
0.000013133145058
 21
2.899999618522375
  0
LINE
  8
0
  6
CONTINUOUS
 62
3
 10
-3.250009052584916
 20
-2.899986267083180
 11
-0.000013285950788
 21
-2.899999618524636
  0
LINE
  8
0
  6
CONTINUOUS
 62
3
 10
0.000023687533422
 20
5.749999046325684
 11
-0.000023687533422
 21
-5.749999046325684
  0
LINE
  8
0
  6
CONTINUOUS
 62
3
 10
-3.249972343459831
 20
5.750005722029982
 11
0.000027906669402
 21
5.749993324257003
  0
LINE
  8
0
  6
CONTINUOUS
 62
3
 10
-3.999972830514309
 20
4.900008662670757
 11
-3.249970339875063
 21
5.750006850331147
  0
LINE
  8
0
  6
CONTINUOUS
 62
3
 10
-4.000014781949545
 20
-4.899978112209579
 11
-3.999973773958658
 21
4.900011588107803
  0
LINE
  8
0
  6
CONTINUOUS
 62
3
 10
-3.250024308998832
 20
-5.749987011620533
 11
-4.000020133420207
 21
-4.899982163000686
  0
LINE
  8
0
  6
CONTINUOUS
 62
3
 10
-0.000027060931608
 20
-5.749995231614290
 11
-3.250020760774497
 21
-5.749981880178368
  0
POINT
  8
0
  6
CONTINUOUS
 62
3
 10
0.000000000000000
 20
0.000000000000000
  0
ENDBLK
  8
0
  0
BLOCK
  8
0
  2
SYM2
 70
64
 10
0.000000000000000
 20
0.000000000000000
  0
LINE
  8
0
  6
CONTINUOUS
 62
3
 10
-7.499999046325684
 20
6.500000000000000
 11
-7.499999046325684
 21
-6.500000000000000
  0
LINE
  8
0
  6
CONTINUOUS
 62
3
 10
-7.499997911632022
 20
-6.499999445138201
 11
-7.999998623386432
 21
-5.634070287011241
  0
LINE
  8
0
  6
CONTINUOUS
 62
3
 10
-7.499999203818277
 20
6.499999909101064
 11
-7.999999021366804
 21
5.633876130311293
  0
LINE
  8
0
  6
CONTINUOUS
 62
3
 10
-0.000000000000000
 20
-6.500000000000000
 11
-7.499998092651367
 21
-6.500000000000000
  0
LINE
  8
0
  6
CONTINUOUS
 62
3
 10
0.000000000000000
 20
6.500000000000000
 11
-7.499999046325684
 21
6.500000000000000
  0
LINE
  8
0
  6
CONTINUOUS
 62
3
 10
-7.999999046325684
 20
5.633875846862793
 11
-7.999999046325684
 21
-5.634070396423340
  0
LINE
  8
0
  6
CONTINUOUS
 62
3
 10
0.000000000000000
 20
-6.500000000000000
 11
-0.000000000000000
 21
6.500000000000000
  0
POINT
  8
0
  6
CONTINUOUS
 62
3
 10
0.000000000000000
 20
0.000000000000000
  0
ENDBLK
  8
0
  0
BLOCK
  8
0
  2
SYM3
 70
64
 10
0.000000000000000
 20
0.000000000000000
  0
LINE
  8
0
  6
CONTINUOUS
 62
3
 10
-7.499999046325684
 20
6.500000000000000
 11
-7.499999046325684
 21
-6.500000000000000
  0
LINE
  8
0
  6
CONTINUOUS
 62
3
 10
-7.499997911632022
 20
-6.499999445138201
 11
-7.999998623386432
 21
-5.634070287011241
  0
LINE
  8
0
  6
CONTINUOUS
 62
3
 10
-7.499999203818277
 20
6.499999909101064
 11
-7.999999021366804
 21
5.633876130311293
  0
LINE
  8
0
  6
CONTINUOUS
 62
3
 10
-0.000000000000000
 20
-6.500000000000000
 11
-7.499998092651367
 21
-6.500000000000000
  0
LINE
  8
0
  6
CONTINUOUS
 62
3
 10
0.000000000000000
 20
6.500000000000000
 11
-7.499999046325684
 21
6.500000000000000
  0
LINE
  8
0
  6
CONTINUOUS
 62
3
 10
-7.999999046325684
 20
5.633875846862793
 11
-7.999999046325684
 21
-5.634070396423340
  0
LINE
  8
0
  6
CONTINUOUS
 62
3
 10
0.000000000000000
 20
-6.500000000000000
 11
-0.000000000000000
 21
6.500000000000000
  0
POINT
  8
0
  6
CONTINUOUS
 62
3
 10
0.000000000000000
 20
0.000000000000000
  0
ENDBLK
  8
0
  0
BLOCK
  8
0
  2
SYM4
 70
64
 10
0.000000000000000
 20
0.000000000000000
  0
LINE
  8
0
  6
CONTINUOUS
 62
3
 10
-7.499999046325684
 20
6.500000000000000
 11
-7.499999046325684
 21
-6.500000000000000
  0
LINE
  8
0
  6
CONTINUOUS
 62
3
 10
-7.499997911632022
 20
-6.499999445138201
 11
-7.999998623386432
 21
-5.634070287011241
  0
LINE
  8
0
  6
CONTINUOUS
 62
3
 10
-7.499999203818277
 20
6.499999909101064
 11
-7.999999021366804
 21
5.633876130311293
  0
LINE
  8
0
  6
CONTINUOUS
 62
3
 10
-0.000000000000000
 20
-6.500000000000000
 11
-7.499998092651367
 21
-6.500000000000000
  0
LINE
  8
0
  6
CONTINUOUS
 62
3
 10
0.000000000000000
 20
6.500000000000000
 11
-7.499999046325684
 21
6.500000000000000
  0
LINE
  8
0
  6
CONTINUOUS
 62
3
 10
-7.999999046325684
 20
5.633875846862793
 11
-7.999999046325684
 21
-5.634070396423340
  0
LINE
  8
0
  6
CONTINUOUS
 62
3
 10
0.000000000000000
 20
-6.500000000000000
 11
-0.000000000000000
 21
6.500000000000000
  0
POINT
  8
0
  6
CONTINUOUS
 62
3
 10
0.000000000000000
 20
0.000000000000000
  0
ENDBLK
  8
0
  0
BLOCK
  8
0
  2
SYM5
 70
64
 10
0.000000000000000
 20
0.000000000000000
  0
LINE
  8
0
  6
CONTINUOUS
 62
3
 10
-7.499999046325684
 20
6.500000000000000
 11
-7.499999046325684
 21
-6.500000000000000
  0
LINE
  8
0
  6
CONTINUOUS
 62
3
 10
-7.499997911632022
 20
-6.499999445138201
 11
-7.999998623386432
 21
-5.634070287011241
  0
LINE
  8
0
  6
CONTINUOUS
 62
3
 10
-7.499999203818277
 20
6.499999909101064
 11
-7.999999021366804
 21
5.633876130311293
  0
LINE
  8
0
  6
CONTINUOUS
 62
3
 10
-0.000000000000000
 20
-6.500000000000000
 11
-7.499998092651367
 21
-6.500000000000000
  0
LINE
  8
0
  6
CONTINUOUS
 62
3
 10
0.000000000000000
 20
6.500000000000000
 11
-7.499999046325684
 21
6.500000000000000
  0
LINE
  8
0
  6
CONTINUOUS
 62
3
 10
-7.999999046325684
 20
5.633875846862793
 11
-7.999999046325684
 21
-5.634070396423340
  0
LINE
  8
0
  6
CONTINUOUS
 62
3
 10
0.000000000000000
 20
-6.500000000000000
 11
-0.000000000000000
 21
6.500000000000000
  0
POINT
  8
0
  6
CONTINUOUS
 62
3
 10
0.000000000000000
 20
0.000000000000000
  0
ENDBLK
  8
0
  0
BLOCK
  8
0
  2
SYM6
 70
64
 10
0.000000000000000
 20
0.000000000000000
  0
ARC
  8
0
  6
CONTINUOUS
 62
3
 10
-0.979025304317474
 20
-2.200000762939453
 40
1.299999237060547
 50
196.601531107481040
 51
270.000000000000000
  0
ARC
  8
0
  6
CONTINUOUS
 62
3
 10
-0.979025304317474
 20
2.200000762939453
 40
1.299999237060547
 50
90.000000000000000
 51
163.398451589674950
  0
LINE
  8
0
  6
CONTINUOUS
 62
3
 10
-0.000000000000000
 20
-3.500000000000000
 11
-0.979025304317474
 21
-3.500000000000000
  0
LINE
  8
0
  6
CONTINUOUS
 62
3
 10
0.000000000000000
 20
3.500000000000000
 11
-0.979025304317474
 21
3.500000000000000
  0
LINE
  8
0
  6
CONTINUOUS
 62
3
 10
0.000000000000000
 20
-3.500000000000000
 11
-0.000000000000000
 21
3.500000000000000
  0
LINE
  8
0
  6
CONTINUOUS
 62
3
 10
0.000000000000000
 20
-3.500000000000000
 11
-0.000000000000000
 21
3.500000000000000
  0
POINT
  8
0
  6
CONTINUOUS
 62
3
 10
0.000000000000000
 20
0.000000000000000
  0
ARC
  8
0
  6
CONTINUOUS
 62
3
 10
6.399999618530273
 20
0.000000000000000
 40
9.000000000000000
 50
163.398451589674950
 51
196.601531107481040
  0
ENDBLK
  8
0
  0
BLOCK
  8
0
  2
SYM7
 70
64
 10
0.000000000000000
 20
0.000000000000000
  0
LINE
  8
0
  6
CONTINUOUS
 62
3
 10
-7.499999046325684
 20
6.500000000000000
 11
-7.499999046325684
 21
-6.500000000000000
  0
LINE
  8
0
  6
CONTINUOUS
 62
3
 10
-7.499997911632022
 20
-6.499999445138201
 11
-7.999998623386432
 21
-5.634070287011241
  0
LINE
  8
0
  6
CONTINUOUS
 62
3
 10
-7.499999203818277
 20
6.499999909101064
 11
-7.999999021366804
 21
5.633876130311293
  0
LINE
  8
0
  6
CONTINUOUS
 62
3
 10
-0.000000000000000
 20
-6.500000000000000
 11
-7.499998092651367
 21
-6.500000000000000
  0
LINE
  8
0
  6
CONTINUOUS
 62
3
 10
0.000000000000000
 20
6.500000000000000
 11
-7.499999046325684
 21
6.500000000000000
  0
LINE
  8
0
  6
CONTINUOUS
 62
3
 10
-7.999999046325684
 20
5.633875846862793
 11
-7.999999046325684
 21
-5.634070396423340
  0
LINE
  8
0
  6
CONTINUOUS
 62
3
 10
0.000000000000000
 20
-6.500000000000000
 11
-0.000000000000000
 21
6.500000000000000
  0
POINT
  8
0
  6
CONTINUOUS
 62
3
 10
0.000000000000000
 20
0.000000000000000
  0
ENDBLK
  8
0
  0
BLOCK
  8
0
  2
SYM8
 70
64
 10
0.000000000000000
 20
0.000000000000000
  0
LINE
  8
0
  6
CONTINUOUS
 62
3
 10
-7.499999046325684
 20
6.500000000000000
 11
-7.499999046325684
 21
-6.500000000000000
  0
LINE
  8
0
  6
CONTINUOUS
 62
3
 10
-7.499997911632022
 20
-6.499999445138201
 11
-7.999998623386432
 21
-5.634070287011241
  0
LINE
  8
0
  6
CONTINUOUS
 62
3
 10
-7.499999203818277
 20
6.499999909101064
 11
-7.999999021366804
 21
5.633876130311293
  0
LINE
  8
0
  6
CONTINUOUS
 62
3
 10
-0.000000000000000
 20
-6.500000000000000
 11
-7.499998092651367
 21
-6.500000000000000
  0
LINE
  8
0
  6
CONTINUOUS
 62
3
 10
0.000000000000000
 20
6.500000000000000
 11
-7.499999046325684
 21
6.500000000000000
  0
LINE
  8
0
  6
CONTINUOUS
 62
3
 10
-7.999999046325684
 20
5.633875846862793
 11
-7.999999046325684
 21
-5.634070396423340
  0
LINE
  8
0
  6
CONTINUOUS
 62
3
 10
0.000000000000000
 20
-6.500000000000000
 11
-0.000000000000000
 21
6.500000000000000
  0
POINT
  8
0
  6
CONTINUOUS
 62
3
 10
0.000000000000000
 20
0.000000000000000
  0
ENDBLK
  8
0
  0
BLOCK
  8
0
  2
SYM9
 70
64
 10
0.000000000000000
 20
0.000000000000000
  0
LINE
  8
0
  6
CONTINUOUS
 62
3
 10
-7.499999046325684
 20
6.500000000000000
 11
-7.499999046325684
 21
-6.500000000000000
  0
LINE
  8
0
  6
CONTINUOUS
 62
3
 10
-7.499997911632022
 20
-6.499999445138201
 11
-7.999998623386432
 21
-5.634070287011241
  0
LINE
  8
0
  6
CONTINUOUS
 62
3
 10
-7.499999203818277
 20
6.499999909101064
 11
-7.999999021366804
 21
5.633876130311293
  0
LINE
  8
0
  6
CONTINUOUS
 62
3
 10
-0.000000000000000
 20
-6.500000000000000
 11
-7.499998092651367
 21
-6.500000000000000
  0
LINE
  8
0
  6
CONTINUOUS
 62
3
 10
0.000000000000000
 20
6.500000000000000
 11
-7.499999046325684
 21
6.500000000000000
  0
LINE
  8
0
  6
CONTINUOUS
 62
3
 10
-7.999999046325684
 20
5.633875846862793
 11
-7.999999046325684
 21
-5.634070396423340
  0
LINE
  8
0
  6
CONTINUOUS
 62
3
 10
0.000000000000000
 20
-6.500000000000000
 11
-0.000000000000000
 21
6.500000000000000
  0
POINT
  8
0
  6
CONTINUOUS
 62
3
 10
0.000000000000000
 20
0.000000000000000
  0
ENDBLK
  8
0
  0
BLOCK
  8
0
  2
SYM10
 70
64
 10
0.000000000000000
 20
0.000000000000000
  0
LINE
  8
0
  6
CONTINUOUS
 62
3
 10
-7.499999046325684
 20
6.500000000000000
 11
-7.499999046325684
 21
-6.500000000000000
  0
LINE
  8
0
  6
CONTINUOUS
 62
3
 10
-7.499997911632022
 20
-6.499999445138201
 11
-7.999998623386432
 21
-5.634070287011241
  0
LINE
  8
0
  6
CONTINUOUS
 62
3
 10
-7.499999203818277
 20
6.499999909101064
 11
-7.999999021366804
 21
5.633876130311293
  0
LINE
  8
0
  6
CONTINUOUS
 62
3
 10
-0.000000000000000
 20
-6.500000000000000
 11
-7.499998092651367
 21
-6.500000000000000
  0
LINE
  8
0
  6
CONTINUOUS
 62
3
 10
0.000000000000000
 20
6.500000000000000
 11
-7.499999046325684
 21
6.500000000000000
  0
LINE
  8
0
  6
CONTINUOUS
 62
3
 10
-7.999999046325684
 20
5.633875846862793
 11
-7.999999046325684
 21
-5.634070396423340
  0
LINE
  8
0
  6
CONTINUOUS
 62
3
 10
0.000000000000000
 20
-6.500000000000000
 11
-0.000000000000000
 21
6.500000000000000
  0
POINT
  8
0
  6
CONTINUOUS
 62
3
 10
0.000000000000000
 20
0.000000000000000
  0
ENDBLK
  8
0
  0
BLOCK
  8
0
  2
SYM11
 70
64
 10
0.000000000000000
 20
0.000000000000000
  0
CIRCLE
  8
0
  6
CONTINUOUS
 62
3
 10
0.000000000000000
 20
0.000000000000000
 40
5.000000000000000
  0
LINE
  8
0
  6
CONTINUOUS
 62
3
 10
4.989816965891634
 20
-2.892629271321994
 11
0.010171343047148
 21
-5.767622431692701
  0
LINE
  8
0
  6
CONTINUOUS
 62
3
 10
4.979648434603448
 20
2.874994693650046
 11
4.989821279270270
 21
-2.892629961559101
  0
LINE
  8
0
  6
CONTINUOUS
 62
3
 10
-0.010171198458579
 20
5.767622839547471
 11
4.979645433681753
 21
2.874994469174567
  0
LINE
  8
0
  6
CONTINUOUS
 62
3
 10
-4.989816965891634
 20
2.892629271321994
 11
-0.010171343047148
 21
5.767622431692701
  0
LINE
  8
0
  6
CONTINUOUS
 62
3
 10
-4.979648434603448
 20
-2.874994693650046
 11
-4.989821279270270
 21
2.892629961559101
  0
LINE
  8
0
  6
CONTINUOUS
 62
3
 10
0.010171198458579
 20
-5.767622839547471
 11
-4.979645433681753
 21
-2.874994469174567
  0
POINT
  8
0
  6
CONTINUOUS
 62
3
 10
0.000000000000000
 20
0.000000000000000
  0
ENDBLK
  8
0
  0
BLOCK
  8
0
  2
SYM12
 70
64
 10
0.000000000000000
 20
0.000000000000000
  0
POINT
  8
0
  6
CONTINUOUS
 62
3
 10
0.000000000000000
 20
5.633955001831055
  0
POINT
  8
0
  6
CONTINUOUS
 62
3
 10
0.500000119209290
 20
6.500000000000000
  0
LINE
  8
0
  6
CONTINUOUS
 62
3
 10
-0.000004704988612
 20
-3.464098175748802
 11
-2.999997577100373
 21
-1.732046218032735
  0
LINE
  8
0
  6
CONTINUOUS
 62
3
 10
0.000006618601731
 20
3.464096896385627
 11
2.999997425948948
 21
1.732046782136365
  0
LINE
  8
0
  6
CONTINUOUS
 62
3
 10
2.999998112093635
 20
-1.732051392778772
 11
-0.000004464412200
 21
-3.464098365415111
  0
LINE
  8
0
  6
CONTINUOUS
 62
3
 10
0.000006701720849
 20
3.464096999935236
 11
-2.999997939551520
 21
1.732051821705568
  0
LINE
  8
0
  6
CONTINUOUS
 62
3
 10
2.999996662140697
 20
1.732046953225571
 11
2.999997615814979
 21
-1.732051023458999
  0
LINE
  8
0
  6
CONTINUOUS
 62
3
 10
-2.999996662140960
 20
-1.732045999551255
 11
-2.999997615815242
 21
1.732051977133316
  0
POINT
  8
0
  6
CONTINUOUS
 62
3
 10
0.000000000000000
 20
0.000000000000000
  0
CIRCLE
  8
0
  6
CONTINUOUS
 62
3
 10
0.000000000000000
 20
0.000000000000000
 40
6.500000000000000
  0
CIRCLE
  8
0
  6
CONTINUOUS
 62
3
 10
0.000000000000000
 20
0.000000000000000
 40
5.633955001831055
  0
ENDBLK
  8
0
  0
BLOCK
  8
0
  2
SYM13
 70
64
 10
0.000000000000000
 20
0.000000000000000
  0
POINT
  8
0
  6
CONTINUOUS
 62
3
 10
0.000000000000000
 20
5.633955001831055
  0
POINT
  8
0
  6
CONTINUOUS
 62
3
 10
0.500000119209290
 20
6.500000000000000
  0
LINE
  8
0
  6
CONTINUOUS
 62
3
 10
-0.000004704988612
 20
-3.464098175748802
 11
-2.999997577100373
 21
-1.732046218032735
  0
LINE
  8
0
  6
CONTINUOUS
 62
3
 10
0.000006618601731
 20
3.464096896385627
 11
2.999997425948948
 21
1.732046782136365
  0
LINE
  8
0
  6
CONTINUOUS
 62
3
 10
2.999998112093635
 20
-1.732051392778772
 11
-0.000004464412200
 21
-3.464098365415111
  0
LINE
  8
0
  6
CONTINUOUS
 62
3
 10
0.000006701720849
 20
3.464096999935236
 11
-2.999997939551520
 21
1.732051821705568
  0
LINE
  8
0
  6
CONTINUOUS
 62
3
 10
2.999996662140697
 20
1.732046953225571
 11
2.999997615814979
 21
-1.732051023458999
  0
LINE
  8
0
  6
CONTINUOUS
 62
3
 10
-2.999996662140960
 20
-1.732045999551255
 11
-2.999997615815242
 21
1.732051977133316
  0
POINT
  8
0
  6
CONTINUOUS
 62
3
 10
0.000000000000000
 20
0.000000000000000
  0
CIRCLE
  8
0
  6
CONTINUOUS
 62
3
 10
0.000000000000000
 20
0.000000000000000
 40
6.500000000000000
  0
CIRCLE
  8
0
  6
CONTINUOUS
 62
3
 10
0.000000000000000
 20
0.000000000000000
 40
5.633955001831055
  0
ENDBLK
  8
0
  0
BLOCK
  8
0
  2
SYM14
 70
64
 10
0.000000000000000
 20
0.000000000000000
  0
POINT
  8
0
  6
CONTINUOUS
 62
3
 10
0.000000000000000
 20
5.633955001831055
  0
POINT
  8
0
  6
CONTINUOUS
 62
3
 10
0.500000119209290
 20
6.500000000000000
  0
LINE
  8
0
  6
CONTINUOUS
 62
3
 10
-0.000004704988612
 20
-3.464098175748802
 11
-2.999997577100373
 21
-1.732046218032735
  0
LINE
  8
0
  6
CONTINUOUS
 62
3
 10
0.000006618601731
 20
3.464096896385627
 11
2.999997425948948
 21
1.732046782136365
  0
LINE
  8
0
  6
CONTINUOUS
 62
3
 10
2.999998112093635
 20
-1.732051392778772
 11
-0.000004464412200
 21
-3.464098365415111
  0
LINE
  8
0
  6
CONTINUOUS
 62
3
 10
0.000006701720849
 20
3.464096999935236
 11
-2.999997939551520
 21
1.732051821705568
  0
LINE
  8
0
  6
CONTINUOUS
 62
3
 10
2.999996662140697
 20
1.732046953225571
 11
2.999997615814979
 21
-1.732051023458999
  0
LINE
  8
0
  6
CONTINUOUS
 62
3
 10
-2.999996662140960
 20
-1.732045999551255
 11
-2.999997615815242
 21
1.732051977133316
  0
POINT
  8
0
  6
CONTINUOUS
 62
3
 10
0.000000000000000
 20
0.000000000000000
  0
CIRCLE
  8
0
  6
CONTINUOUS
 62
3
 10
0.000000000000000
 20
0.000000000000000
 40
6.500000000000000
  0
CIRCLE
  8
0
  6
CONTINUOUS
 62
3
 10
0.000000000000000
 20
0.000000000000000
 40
5.633955001831055
  0
ENDBLK
  8
0
  0
BLOCK
  8
0
  2
SYM15
 70
64
 10
0.000000000000000
 20
0.000000000000000
  0
POINT
  8
0
  6
CONTINUOUS
 62
3
 10
0.000000000000000
 20
5.633955001831055
  0
POINT
  8
0
  6
CONTINUOUS
 62
3
 10
0.500000119209290
 20
6.500000000000000
  0
LINE
  8
0
  6
CONTINUOUS
 62
3
 10
-0.000004704988612
 20
-3.464098175748802
 11
-2.999997577100373
 21
-1.732046218032735
  0
LINE
  8
0
  6
CONTINUOUS
 62
3
 10
0.000006618601731
 20
3.464096896385627
 11
2.999997425948948
 21
1.732046782136365
  0
LINE
  8
0
  6
CONTINUOUS
 62
3
 10
2.999998112093635
 20
-1.732051392778772
 11
-0.000004464412200
 21
-3.464098365415111
  0
LINE
  8
0
  6
CONTINUOUS
 62
3
 10
0.000006701720849
 20
3.464096999935236
 11
-2.999997939551520
 21
1.732051821705568
  0
LINE
  8
0
  6
CONTINUOUS
 62
3
 10
2.999996662140697
 20
1.732046953225571
 11
2.999997615814979
 21
-1.732051023458999
  0
LINE
  8
0
  6
CONTINUOUS
 62
3
 10
-2.999996662140960
 20
-1.732045999551255
 11
-2.999997615815242
 21
1.732051977133316
  0
POINT
  8
0
  6
CONTINUOUS
 62
3
 10
0.000000000000000
 20
0.000000000000000
  0
CIRCLE
  8
0
  6
CONTINUOUS
 62
3
 10
0.000000000000000
 20
0.000000000000000
 40
6.500000000000000
  0
CIRCLE
  8
0
  6
CONTINUOUS
 62
3
 10
0.000000000000000
 20
0.000000000000000
 40
5.633955001831055
  0
ENDBLK
  8
0
  0
BLOCK
  8
0
  2
SYM16
 70
64
 10
0.000000000000000
 20
0.000000000000000
  0
POINT
  8
0
  6
CONTINUOUS
 62
3
 10
0.000000000000000
 20
5.633955001831055
  0
POINT
  8
0
  6
CONTINUOUS
 62
3
 10
0.500000119209290
 20
6.500000000000000
  0
LINE
  8
0
  6
CONTINUOUS
 62
3
 10
-0.000004704988612
 20
-3.464098175748802
 11
-2.999997577100373
 21
-1.732046218032735
  0
LINE
  8
0
  6
CONTINUOUS
 62
3
 10
0.000006618601731
 20
3.464096896385627
 11
2.999997425948948
 21
1.732046782136365
  0
LINE
  8
0
  6
CONTINUOUS
 62
3
 10
2.999998112093635
 20
-1.732051392778772
 11
-0.000004464412200
 21
-3.464098365415111
  0
LINE
  8
0
  6
CONTINUOUS
 62
3
 10
0.000006701720849
 20
3.464096999935236
 11
-2.999997939551520
 21
1.732051821705568
  0
LINE
  8
0
  6
CONTINUOUS
 62
3
 10
2.999996662140697
 20
1.732046953225571
 11
2.999997615814979
 21
-1.732051023458999
  0
LINE
  8
0
  6
CONTINUOUS
 62
3
 10
-2.999996662140960
 20
-1.732045999551255
 11
-2.999997615815242
 21
1.732051977133316
  0
POINT
  8
0
  6
CONTINUOUS
 62
3
 10
0.000000000000000
 20
0.000000000000000
  0
CIRCLE
  8
0
  6
CONTINUOUS
 62
3
 10
0.000000000000000
 20
0.000000000000000
 40
6.500000000000000
  0
CIRCLE
  8
0
  6
CONTINUOUS
 62
3
 10
0.000000000000000
 20
0.000000000000000
 40
5.633955001831055
  0
ENDBLK
  8
0
  0
BLOCK
  8
0
  2
SYM17
 70
64
 10
0.000000000000000
 20
0.000000000000000
  0
POINT
  8
0
  6
CONTINUOUS
 62
3
 10
0.000000000000000
 20
5.633955001831055
  0
POINT
  8
0
  6
CONTINUOUS
 62
3
 10
0.500000119209290
 20
6.500000000000000
  0
LINE
  8
0
  6
CONTINUOUS
 62
3
 10
-0.000004704988612
 20
-3.464098175748802
 11
-2.999997577100373
 21
-1.732046218032735
  0
LINE
  8
0
  6
CONTINUOUS
 62
3
 10
0.000006618601731
 20
3.464096896385627
 11
2.999997425948948
 21
1.732046782136365
  0
LINE
  8
0
  6
CONTINUOUS
 62
3
 10
2.999998112093635
 20
-1.732051392778772
 11
-0.000004464412200
 21
-3.464098365415111
  0
LINE
  8
0
  6
CONTINUOUS
 62
3
 10
0.000006701720849
 20
3.464096999935236
 11
-2.999997939551520
 21
1.732051821705568
  0
LINE
  8
0
  6
CONTINUOUS
 62
3
 10
2.999996662140697
 20
1.732046953225571
 11
2.999997615814979
 21
-1.732051023458999
  0
LINE
  8
0
  6
CONTINUOUS
 62
3
 10
-2.999996662140960
 20
-1.732045999551255
 11
-2.999997615815242
 21
1.732051977133316
  0
POINT
  8
0
  6
CONTINUOUS
 62
3
 10
0.000000000000000
 20
0.000000000000000
  0
CIRCLE
  8
0
  6
CONTINUOUS
 62
3
 10
0.000000000000000
 20
0.000000000000000
 40
6.500000000000000
  0
CIRCLE
  8
0
  6
CONTINUOUS
 62
3
 10
0.000000000000000
 20
0.000000000000000
 40
5.633955001831055
  0
ENDBLK
  8
0
  0
BLOCK
  8
0
  2
SYM18
 70
64
 10
0.000000000000000
 20
0.000000000000000
  0
POINT
  8
0
  6
CONTINUOUS
 62
3
 10
0.000000000000000
 20
5.633955001831055
  0
POINT
  8
0
  6
CONTINUOUS
 62
3
 10
0.500000119209290
 20
6.500000000000000
  0
LINE
  8
0
  6
CONTINUOUS
 62
3
 10
-0.000004704988612
 20
-3.464098175748802
 11
-2.999997577100373
 21
-1.732046218032735
  0
LINE
  8
0
  6
CONTINUOUS
 62
3
 10
0.000006618601731
 20
3.464096896385627
 11
2.999997425948948
 21
1.732046782136365
  0
LINE
  8
0
  6
CONTINUOUS
 62
3
 10
2.999998112093635
 20
-1.732051392778772
 11
-0.000004464412200
 21
-3.464098365415111
  0
LINE
  8
0
  6
CONTINUOUS
 62
3
 10
0.000006701720849
 20
3.464096999935236
 11
-2.999997939551520
 21
1.732051821705568
  0
LINE
  8
0
  6
CONTINUOUS
 62
3
 10
2.999996662140697
 20
1.732046953225571
 11
2.999997615814979
 21
-1.732051023458999
  0
LINE
  8
0
  6
CONTINUOUS
 62
3
 10
-2.999996662140960
 20
-1.732045999551255
 11
-2.999997615815242
 21
1.732051977133316
  0
POINT
  8
0
  6
CONTINUOUS
 62
3
 10
0.000000000000000
 20
0.000000000000000
  0
CIRCLE
  8
0
  6
CONTINUOUS
 62
3
 10
0.000000000000000
 20
0.000000000000000
 40
6.500000000000000
  0
CIRCLE
  8
0
  6
CONTINUOUS
 62
3
 10
0.000000000000000
 20
0.000000000000000
 40
5.633955001831055
  0
ENDBLK
  8
0
  0
BLOCK
  8
0
  2
SYM19
 70
64
 10
0.000000000000000
 20
0.000000000000000
  0
POINT
  8
0
  6
CONTINUOUS
 62
3
 10
0.000000000000000
 20
5.633955001831055
  0
POINT
  8
0
  6
CONTINUOUS
 62
3
 10
0.500000119209290
 20
6.500000000000000
  0
LINE
  8
0
  6
CONTINUOUS
 62
3
 10
-0.000004704988612
 20
-3.464098175748802
 11
-2.999997577100373
 21
-1.732046218032735
  0
LINE
  8
0
  6
CONTINUOUS
 62
3
 10
0.000006618601731
 20
3.464096896385627
 11
2.999997425948948
 21
1.732046782136365
  0
LINE
  8
0
  6
CONTINUOUS
 62
3
 10
2.999998112093635
 20
-1.732051392778772
 11
-0.000004464412200
 21
-3.464098365415111
  0
LINE
  8
0
  6
CONTINUOUS
 62
3
 10
0.000006701720849
 20
3.464096999935236
 11
-2.999997939551520
 21
1.732051821705568
  0
LINE
  8
0
  6
CONTINUOUS
 62
3
 10
2.999996662140697
 20
1.732046953225571
 11
2.999997615814979
 21
-1.732051023458999
  0
LINE
  8
0
  6
CONTINUOUS
 62
3
 10
-2.999996662140960
 20
-1.732045999551255
 11
-2.999997615815242
 21
1.732051977133316
  0
POINT
  8
0
  6
CONTINUOUS
 62
3
 10
0.000000000000000
 20
0.000000000000000
  0
CIRCLE
  8
0
  6
CONTINUOUS
 62
3
 10
0.000000000000000
 20
0.000000000000000
 40
6.500000000000000
  0
CIRCLE
  8
0
  6
CONTINUOUS
 62
3
 10
0.000000000000000
 20
0.000000000000000
 40
5.633955001831055
  0
ENDBLK
  8
0
  0
BLOCK
  8
0
  2
SYM20
 70
64
 10
0.000000000000000
 20
0.000000000000000
  0
POINT
  8
0
  6
CONTINUOUS
 62
3
 10
0.000000000000000
 20
5.633955001831055
  0
POINT
  8
0
  6
CONTINUOUS
 62
3
 10
0.500000119209290
 20
6.500000000000000
  0
LINE
  8
0
  6
CONTINUOUS
 62
3
 10
-0.000004704988612
 20
-3.464098175748802
 11
-2.999997577100373
 21
-1.732046218032735
  0
LINE
  8
0
  6
CONTINUOUS
 62
3
 10
0.000006618601731
 20
3.464096896385627
 11
2.999997425948948
 21
1.732046782136365
  0
LINE
  8
0
  6
CONTINUOUS
 62
3
 10
2.999998112093635
 20
-1.732051392778772
 11
-0.000004464412200
 21
-3.464098365415111
  0
LINE
  8
0
  6
CONTINUOUS
 62
3
 10
0.000006701720849
 20
3.464096999935236
 11
-2.999997939551520
 21
1.732051821705568
  0
LINE
  8
0
  6
CONTINUOUS
 62
3
 10
2.999996662140697
 20
1.732046953225571
 11
2.999997615814979
 21
-1.732051023458999
  0
LINE
  8
0
  6
CONTINUOUS
 62
3
 10
-2.999996662140960
 20
-1.732045999551255
 11
-2.999997615815242
 21
1.732051977133316
  0
POINT
  8
0
  6
CONTINUOUS
 62
3
 10
0.000000000000000
 20
0.000000000000000
  0
CIRCLE
  8
0
  6
CONTINUOUS
 62
3
 10
0.000000000000000
 20
0.000000000000000
 40
6.500000000000000
  0
CIRCLE
  8
0
  6
CONTINUOUS
 62
3
 10
0.000000000000000
 20
0.000000000000000
 40
5.633955001831055
  0
ENDBLK
  8
0
  0
BLOCK
  8
0
  2
SYM21
 70
64
 10
0.000000000000000
 20
0.000000000000000
  0
POINT
  8
0
  6
CONTINUOUS
 62
3
 10
0.000000000000000
 20
5.633955001831055
  0
POINT
  8
0
  6
CONTINUOUS
 62
3
 10
0.500000119209290
 20
6.500000000000000
  0
LINE
  8
0
  6
CONTINUOUS
 62
3
 10
-0.000004704988612
 20
-3.464098175748802
 11
-2.999997577100373
 21
-1.732046218032735
  0
LINE
  8
0
  6
CONTINUOUS
 62
3
 10
0.000006618601731
 20
3.464096896385627
 11
2.999997425948948
 21
1.732046782136365
  0
LINE
  8
0
  6
CONTINUOUS
 62
3
 10
2.999998112093635
 20
-1.732051392778772
 11
-0.000004464412200
 21
-3.464098365415111
  0
LINE
  8
0
  6
CONTINUOUS
 62
3
 10
0.000006701720849
 20
3.464096999935236
 11
-2.999997939551520
 21
1.732051821705568
  0
LINE
  8
0
  6
CONTINUOUS
 62
3
 10
2.999996662140697
 20
1.732046953225571
 11
2.999997615814979
 21
-1.732051023458999
  0
LINE
  8
0
  6
CONTINUOUS
 62
3
 10
-2.999996662140960
 20
-1.732045999551255
 11
-2.999997615815242
 21
1.732051977133316
  0
POINT
  8
0
  6
CONTINUOUS
 62
3
 10
0.000000000000000
 20
0.000000000000000
  0
CIRCLE
  8
0
  6
CONTINUOUS
 62
3
 10
0.000000000000000
 20
0.000000000000000
 40
6.500000000000000
  0
CIRCLE
  8
0
  6
CONTINUOUS
 62
3
 10
0.000000000000000
 20
0.000000000000000
 40
5.633955001831055
  0
ENDBLK
  8
0
  0
ENDSEC
  0
SECTION
  2
ENTITIES
  0
LINE
  8
0
  6
CONTINUOUS
 62
3
 10
249.034715846914710
 20
-147.706630565742670
 11
200.034715846914710
 21
-147.706630565742670
  0
LINE
  8
0
  6
CONTINUOUS
 62
3
 10
249.034715846914710
 20
-135.706630565742670
 11
200.034715846914710
 21
-135.706630565742670
  0
ARC
  8
0
  6
CONTINUOUS
 62
3
 10
200.034715846914710
 20
-141.706630565742670
 40
6.000000000000000
 50
90.000000000000000
 51
270.000000000000000
  0
LINE
  8
0
  6
CONTINUOUS
 62
3
 10
393.212472078880300
 20
-147.706630565742670
 11
401.212472078880300
 21
-147.706630565742670
  0
LINE
  8
0
  6
CONTINUOUS
 62
3
 10
393.212472078880300
 20
-135.706630565742670
 11
401.212472078880300
 21
-135.706630565742670
  0
ARC
  8
0
  6
CONTINUOUS
 62
3
 10
416.212472078880300
 20
-141.706630565742670
 40
20.000000000000014
 50
197.457603123722070
 51
162.542396876277930
  0
LINE
  8
0
  6
CONTINUOUS
 62
3
 10
401.212472078880300
 20
-135.706630565742670
 11
401.212472078880300
 21
-147.706630565742670
  0
LINE
  8
0
  6
CONTINUOUS
 62
3
 10
393.212472078880300
 20
-135.706630565742670
 11
393.212472078880300
 21
-147.706630565742670
  0
ARC
  8
0
  6
CONTINUOUS
 62
3
 10
-359.171014566717590
 20
-194.037200627839550
 40
6.099999427795406
 50
264.601927898108500
 51
5.398089404735109
  0
POINT
  8
0
  6
CONTINUOUS
 62
3
 10
-356.908273001790580
 20
-196.299942192766590
  0
LINE
  8
0
  6
CONTINUOUS
 62
3
 10
-353.584871265083730
 20
-192.976540456059720
 11
-360.231674738497420
 21
-199.623343929473460
  0
LINE
  8
0
  6
CONTINUOUS
 62
3
 10
-353.271732656114920
 20
-193.229087406910110
 11
-359.948831958587850
 21
-199.906186709383040
  0
LINE
  8
0
  6
CONTINUOUS
 62
3
 10
-360.231674738497420
 20
-199.623343929473460
 11
-359.744871346791800
 21
-200.110147321179060
  0
LINE
  8
0
  6
CONTINUOUS
 62
3
 10
-353.584871265083730
 20
-192.976540456059720
 11
-353.098067873378110
 21
-193.463343847765340
  0
ARC
  8
0
  6
CONTINUOUS
 62
3
 10
-448.832154690911410
 20
-194.037200627839550
 40
6.099999427795398
 50
174.601910595264880
 51
275.398072101891500
  0
POINT
  8
0
  6
CONTINUOUS
 62
3
 10
-451.094896255838420
 20
-196.299942192766590
  0
LINE
  8
0
  6
CONTINUOUS
 62
3
 10
-454.418297992545260
 20
-192.976540456059720
 11
-447.771494519131580
 21
-199.623343929473460
  0
LINE
  8
0
  6
CONTINUOUS
 62
3
 10
-454.731436601514080
 20
-193.229087406910110
 11
-448.054337299041150
 21
-199.906186709383040
  0
LINE
  8
0
  6
CONTINUOUS
 62
3
 10
-447.771494519131580
 20
-199.623343929473460
 11
-448.258297910837200
 21
-200.110147321179060
  0
LINE
  8
0
  6
CONTINUOUS
 62
3
 10
-454.418297992545260
 20
-192.976540456059720
 11
-454.905101384250880
 21
-193.463343847765340
  0
ARC
  8
0
  6
CONTINUOUS
 62
3
 10
-448.832154690911410
 20
-104.376060503645560
 40
6.099999427795419
 50
84.601927898108485
 51
185.398089404735120
  0
POINT
  8
0
  6
CONTINUOUS
 62
3
 10
-451.094896255838420
 20
-102.113318938718520
  0
LINE
  8
0
  6
CONTINUOUS
 62
3
 10
-454.418297992545260
 20
-105.436720675425370
 11
-447.771494519131580
 21
-98.789917202011665
  0
LINE
  8
0
  6
CONTINUOUS
 62
3
 10
-454.731436601514080
 20
-105.184173724575000
 11
-448.054337299041150
 21
-98.507074422102093
  0
LINE
  8
0
  6
CONTINUOUS
 62
3
 10
-447.771494519131580
 20
-98.789917202011665
 11
-448.258297910837200
 21
-98.303113810306044
  0
LINE
  8
0
  6
CONTINUOUS
 62
3
 10
-454.418297992545260
 20
-105.436720675425370
 11
-454.905101384250880
 21
-104.949917283719750
  0
ARC
  8
0
  6
CONTINUOUS
 62
3
 10
-359.171014566717590
 20
-104.376060503645560
 40
6.099999427795398
 50
354.601910595264880
 51
95.398072101891515
  0
POINT
  8
0
  6
CONTINUOUS
 62
3
 10
-356.908273001790580
 20
-102.113318938718520
  0
LINE
  8
0
  6
CONTINUOUS
 62
3
 10
-353.584871265083730
 20
-105.436720675425370
 11
-360.231674738497420
 21
-98.789917202011665
  0
LINE
  8
0
  6
CONTINUOUS
 62
3
 10
-353.271732656114920
 20
-105.184173724575000
 11
-359.948831958587850
 21
-98.507074422102093
  0
LINE
  8
0
  6
CONTINUOUS
 62
3
 10
-360.231674738497420
 20
-98.789917202011665
 11
-359.744871346791800
 21
-98.303113810306044
  0
LINE
  8
0
  6
CONTINUOUS
 62
3
 10
-353.584871265083730
 20
-105.436720675425370
 11
-353.098067873378110
 21
-104.949917283719750
  0
LINE
  8
0
  6
CONTINUOUS
 62
3
 10
-30.521942970561042
 20
-201.993650259344920
 11
-46.465290204296991
 21
-201.715358098206930
  0
LINE
  8
0
  6
CONTINUOUS
 62
3
 10
-34.965305558436114
 20
-190.206630565740510
 11
-34.965305558436796
 21
-201.916091076873950
  0
ARC
  8
0
  6
CONTINUOUS
 62
3
 10
-33.398560990843123
 20
-203.206630565740280
 40
3.000000000000041
 50
38.927553831334741
 51
90.000000000000000
  0
LINE
  8
0
  6
CONTINUOUS
 62
3
 10
9.368532999469664
 20
-251.381840548118930
 11
-31.064737787076467
 21
-201.321618827431850
  0
LINE
  8
0
  6
CONTINUOUS
 62
3
 10
-1.029511784670774
 20
-200.206630565740280
 11
-29.076497381897582
 21
-200.206630565740280
  0
LINE
  8
0
  6
CONTINUOUS
 62
3
 10
6.034723621750629
 20
-226.570716019131850
 11
0.175257525285645
 21
-204.702890841897330
  0
LINE
  8
0
  6
CONTINUOUS
 62
3
 10
10.034709795703009
 20
-241.498867649895260
 11
8.094362609912935
 21
-234.257393368203570
  0
ARC
  8
0
  6
CONTINUOUS
 62
3
 10
7.034709795703009
 20
-253.266852286427480
 40
3.000000000000000
 50
0.000000000000000
 51
38.927553831336432
  0
ARC
  8
0
  6
CONTINUOUS
 62
3
 10
-410.251584628814500
 20
-87.276439982270844
 40
2.999999999999993
 50
282.384537293969910
 51
0.000000000000000
  0
ARC
  8
0
  6
CONTINUOUS
 62
3
 10
-397.751584628814440
 20
-87.276439982270844
 40
3.000000000000057
 50
180.000000000000000
 51
257.615462706029010
  0
LINE
  8
0
  6
CONTINUOUS
 62
3
 10
-390.571454758751320
 20
-90.206630565744845
 11
-417.571454758751320
 21
-90.206630565744845
  0
LINE
  8
0
  6
CONTINUOUS
 62
3
 10
10.034715846914423
 20
95.979369434257222
 11
20.034715846910835
 21
95.979369434257222
  0
LINE
  8
0
  6
CONTINUOUS
 62
3
 10
10.034715846914423
 20
112.627369434257210
 11
20.034715846911926
 21
112.627369434257210
  0
LINE
  8
0
  6
CONTINUOUS
 62
3
 10
10.034715846914423
 20
127.293369434257210
 11
20.034715846912885
 21
127.293369434257220
  0
LINE
  8
0
  6
CONTINUOUS
 62
3
 10
10.034715846914423
 20
205.607369434257210
 11
20.034715846918004
 21
205.607369434257210
  0
LINE
  8
0
  6
CONTINUOUS
 62
3
 10
10.034715846914423
 20
188.959369434257210
 11
20.034715846916917
 21
188.959369434257210
  0
LINE
  8
0
  6
CONTINUOUS
 62
3
 10
10.034715846914423
 20
174.293369434257220
 11
20.034715846915958
 21
174.293369434257220
  0
LINE
  8
0
  6
DASHDOT
 62
4
 10
-182.465299507227660
 20
69.849212176581091
 11
-182.465299507227660
 21
91.397701157113147
  0
LINE
  8
0
  6
DASHDOT
 62
4
 10
-132.465299507227660
 20
69.849212176581091
 11
-132.465299507227660
 21
91.828714309116435
  0
LINE
  8
0
  6
DASHED
 62
4
 10
-125.465299507227650
 20
78.793369434257215
 11
-125.465299507227650
 21
93.293369434257215
  0
LINE
  8
0
  6
DASHED
 62
4
 10
-139.465299507227660
 20
78.793369434257215
 11
-139.465299507227660
 21
93.293369434257215
  0
LINE
  8
0
  6
DASHED
 62
4
 10
-175.465299507227660
 20
78.793369434257215
 11
-175.465299507227660
 21
93.293369434257215
  0
LINE
  8
0
  6
DASHED
 62
4
 10
-189.465299507227660
 20
78.793369434257215
 11
-189.465299507227660
 21
93.293369434257215
  0
LINE
  8
0
  6
DASHDOT
 62
4
 10
-191.550988613811230
 20
78.793369434257215
 11
-171.064400380101920
 21
78.793369434257215
  0
ARC
  8
0
  6
DASHED
 62
4
 10
-132.465299507227660
 20
78.793369434257215
 40
7.000000000000000
 50
180.000000000000000
 51
0.000000000000000
  0
ARC
  8
0
  6
DASHED
 62
4
 10
-182.465299507227660
 20
78.793369434257215
 40
7.000000000000000
 50
180.000000000000000
 51
0.000000000000000
  0
CIRCLE
  8
0
  6
DASHED
 62
4
 10
-132.465299507227660
 20
78.793369434257215
 40
6.000000000000000
  0
LINE
  8
0
  6
DASHDOT
 62
4
 10
-143.748828922954320
 20
78.793369434257215
 11
-121.981851514426010
 21
78.793369434257215
  0
ARC
  8
0
  6
CONTINUOUS
 62
3
 10
-390.501584628814270
 20
-187.206630565744830
 40
70.000000000000014
 50
292.412247336625740
 51
0.000000000000000
  0
ARC
  8
0
  6
CONTINUOUS
 62
3
 10
-417.501584628814270
 20
-187.206630565744830
 40
70.000000000000014
 50
247.587752663374630
 51
270.000000000000000
  0
ARC
  8
0
  6
CONTINUOUS
 62
3
 10
-121.965305558431220
 20
-178.206630565742780
 40
1.000000000000000
 50
270.000000000000000
 51
0.000000000000000
  0
LINE
  8
0
  6
CONTINUOUS
 62
3
 10
-121.965305558431220
 20
-179.206630565742780
 11
-192.965305558431230
 21
-179.206630565742780
  0
LINE
  8
0
  6
CONTINUOUS
 62
3
 10
-121.965305558431220
 20
-119.206630565742780
 11
-192.965305558431230
 21
-119.206630565742780
  0
ARC
  8
0
  6
CONTINUOUS
 62
3
 10
-121.965305558431220
 20
-120.206630565742780
 40
1.000000000000000
 50
0.000000000000000
 51
90.000000000000000
  0
LINE
  8
0
  6
CONTINUOUS
 62
3
 10
-120.965305558431220
 20
-120.206630565742780
 11
-120.965305558431220
 21
-149.206630565742780
  0
LINE
  8
0
  6
CONTINUOUS
 62
3
 10
-120.965305558431220
 20
-178.206630565742780
 11
-120.965305558431220
 21
-149.206630565742780
  0
ARC
  8
0
  6
CONTINUOUS
 62
3
 10
-121.965305558431220
 20
-178.706630565742780
 40
2.000000000000000
 50
270.000000000000000
 51
0.000000000000000
  0
LINE
  8
0
  6
CONTINUOUS
 62
3
 10
-121.965305558431220
 20
-180.706630565742780
 11
-192.965305558431230
 21
-180.706630565742780
  0
LINE
  8
0
  6
CONTINUOUS
 62
3
 10
-121.965305558431220
 20
-117.706630565742780
 11
-192.965305558431230
 21
-117.706630565742780
  0
ARC
  8
0
  6
CONTINUOUS
 62
3
 10
-121.965305558431220
 20
-119.706630565742780
 40
2.000000000000000
 50
0.000000000000000
 51
90.000000000000000
  0
LINE
  8
0
  6
CONTINUOUS
 62
3
 10
-119.965305558431220
 20
-149.206630565742780
 11
-119.965305558431220
 21
-119.706630565742780
  0
LINE
  8
0
  6
CONTINUOUS
 62
3
 10
-119.965305558431220
 20
-149.206630565742780
 11
-119.965305558431220
 21
-178.706630565742780
  0
ARC
  8
0
  6
CONTINUOUS
 62
3
 10
33.534709795709034
 20
-86.803180961235739
 40
3.000000000000455
 50
272.000000000003350
 51
0.000000000000000
  0
ARC
  8
0
  6
CONTINUOUS
 62
3
 10
36.534709795709034
 20
-76.706597646187220
 40
3.000000000000000
 50
180.000000000000000
 51
239.999999999989710
  0
LINE
  8
0
  6
CONTINUOUS
 62
3
 10
36.534709795709034
 20
-81.902770978558692
 11
36.534709795709034
 21
-86.803180961235739
  0
ARC
  8
0
  6
CONTINUOUS
 62
3
 10
33.534709795709034
 20
-81.902770978558692
 40
3.000000000000000
 50
0.000000000000000
 51
59.999999999998380
  0
INSERT
  8
0
  2
SYM1
 10
10.034709795708125
 20
-228.507406107700040
  0
INSERT
  8
0
  2
SYM2
 10
45.534709795709034
 20
-218.706618555851490
  0
INSERT
  8
0
  2
SYM3
 10
45.534709795709034
 20
-152.706618555851490
  0
INSERT
  8
0
  2
SYM1
 10
10.034709795708125
 20
-118.905855023785300
  0
INSERT
  8
0
  2
SYM4
 10
45.534709795709034
 20
-77.199178064513944
  0
INSERT
  8
0
  2
SYM5
 10
29.034709795706306
 20
-69.706618555852401
  0
LINE
  8
0
  6
CONTINUOUS
 62
4
 10
-119.965305558431220
 20
-120.450235015105700
 11
-46.465305558431453
 21
-120.450235015105700
  0
LINE
  8
0
  6
CONTINUOUS
 62
4
 10
-119.965305558431220
 20
-121.929258168582800
 11
-46.465305558431453
 21
-121.929258168582800
  0
LINE
  8
0
  6
CONTINUOUS
 62
4
 10
-119.965305558431220
 20
-125.021989160248040
 11
-46.465305558431453
 21
-125.021989160248040
  0
LINE
  8
0
  6
CONTINUOUS
 62
4
 10
-119.965305558431220
 20
-126.368390885746630
 11
-46.465305558431453
 21
-126.368390885746630
  0
LINE
  8
0
  6
CONTINUOUS
 62
4
 10
-119.965305558431220
 20
-129.206630565742780
 11
-46.465305558431453
 21
-129.206630565742780
  0
LINE
  8
0
  6
CONTINUOUS
 62
4
 10
-187.122905904823650
 20
-109.166195159218310
 11
-46.465305558431453
 21
-109.166195159218310
  0
LINE
  8
0
  6
CONTINUOUS
 62
4
 10
-186.965305558452370
 20
-104.701975038637890
 11
-46.465305558431453
 21
-104.701975038637890
  0
LINE
  8
0
  6
CONTINUOUS
 62
4
 10
-196.965305558452370
 20
-117.492239406972770
 11
-46.465305558431453
 21
-117.492239406972770
  0
LINE
  8
0
  6
CONTINUOUS
 62
4
 10
-196.965305558452370
 20
-115.903029614234010
 11
-46.465305558431453
 21
-115.903029614234010
  0
LINE
  8
0
  6
CONTINUOUS
 62
4
 10
-186.965305558452370
 20
-108.164716795403020
 11
-46.465305558431453
 21
-108.164716795403020
  0
LINE
  8
0
  6
CONTINUOUS
 62
4
 10
-186.965305558452370
 20
-103.073547970860090
 11
-46.465305558431453
 21
-103.073547970860090
  0
LINE
  8
0
  6
CONTINUOUS
 62
4
 10
-186.965305558452370
 20
-98.206630565742671
 11
-46.465305558431453
 21
-98.206630565742671
  0
LINE
  8
0
  6
CONTINUOUS
 62
4
 10
-186.965305558452370
 20
-98.706630565742785
 11
-46.465305558431453
 21
-98.706630565742785
  0
LINE
  8
0
  6
DASHDOT
 62
4
 10
-27.751308395813965
 20
-149.206630565742780
 11
-250.805773830477850
 21
-149.206630565742780
  0
LINE
  8
0
  6
CONTINUOUS
 62
3
 10
-46.465305558431453
 20
-96.706630565742785
 11
-186.965305558452370
 21
-96.706630565742785
  0
LINE
  8
0
  6
CONTINUOUS
 62
4
 10
-196.965305558452370
 20
-180.921021724512800
 11
-46.465305558431453
 21
-180.921021724512800
  0
LINE
  8
0
  6
CONTINUOUS
 62
4
 10
-196.965305558452370
 20
-182.510231517251440
 11
-46.465305558431453
 21
-182.510231517251440
  0
LINE
  8
0
  6
CONTINUOUS
 62
4
 10
-187.122905904823650
 20
-189.247065972267140
 11
-46.465305558431453
 21
-189.247065972267140
  0
LINE
  8
0
  6
CONTINUOUS
 62
4
 10
-186.965305558452370
 20
-190.248544336082430
 11
-46.465305558431453
 21
-190.248544336082430
  0
LINE
  8
0
  6
CONTINUOUS
 62
4
 10
-186.965305558452370
 20
-193.711286092847670
 11
-46.465305558431453
 21
-193.711286092847670
  0
LINE
  8
0
  6
CONTINUOUS
 62
4
 10
-186.965305558452370
 20
-195.339713160625480
 11
-46.465305558431453
 21
-195.339713160625480
  0
LINE
  8
0
  6
CONTINUOUS
 62
4
 10
-186.965305558452370
 20
-200.206630565742780
 11
-46.465305558431453
 21
-200.206630565742780
  0
LINE
  8
0
  6
CONTINUOUS
 62
4
 10
-186.965305558452370
 20
-199.706630565742780
 11
-46.465305558431453
 21
-199.706630565742780
  0
LINE
  8
0
  6
CONTINUOUS
 62
3
 10
-46.465305558431453
 20
-201.706630565742780
 11
-186.965305558452370
 21
-201.706630565742780
  0
LINE
  8
0
  6
CONTINUOUS
 62
4
 10
-119.965305558431220
 20
-177.963026116379870
 11
-46.465305558431453
 21
-177.963026116379870
  0
LINE
  8
0
  6
CONTINUOUS
 62
4
 10
-119.965305558431220
 20
-176.484002962902760
 11
-46.465305558431453
 21
-176.484002962902760
  0
LINE
  8
0
  6
CONTINUOUS
 62
4
 10
-119.965305558431220
 20
-173.391271971237530
 11
-46.465305558431453
 21
-173.391271971237530
  0
LINE
  8
0
  6
CONTINUOUS
 62
4
 10
-119.965305558431220
 20
-172.044870245738930
 11
-46.465305558431453
 21
-172.044870245738930
  0
LINE
  8
0
  6
CONTINUOUS
 62
4
 10
-119.965305558431220
 20
-169.206630565742780
 11
-46.465305558431453
 21
-169.206630565742780
  0
LINE
  8
0
  6
CONTINUOUS
 62
3
 10
40.034701358538598
 20
-261.676231616257610
 11
3.270298028060836
 21
-264.461513657319300
  0
ARC
  8
0
  6
CONTINUOUS
 62
3
 10
40.223612171850448
 20
-255.644725447225940
 40
5.999999999999782
 50
274.332468894032670
 51
317.350764207251640
  0
LINE
  8
0
  6
CONTINUOUS
 62
3
 10
57.034709795709034
 20
-141.706630565742670
 11
57.034709795709034
 21
-246.250276070504700
  0
LINE
  8
0
  6
CONTINUOUS
 62
3
 10
59.034709795709034
 20
-260.236785372445410
 11
147.034696853494840
 21
-263.309812635767230
  0
LINE
  8
0
  6
DASHDOT
 62
4
 10
19.034687731315728
 20
-259.496560307987240
 11
19.034687731315728
 21
-292.158622461874070
  0
LINE
  8
0
  6
CONTINUOUS
 62
3
 10
0.034701358538598
 20
-286.706657129842820
 11
0.034701358538598
 21
-267.951512350560730
  0
LINE
  8
0
  6
CONTINUOUS
 62
3
 10
58.505740111348871
 20
-244.653299108650570
 11
44.636703118769958
 21
-259.709775052608170
  0
LINE
  8
0
  6
CONTINUOUS
 62
3
 10
59.034709795711763
 20
-260.236785372445410
 11
40.034701358538598
 21
-261.676231616257610
  0
LINE
  8
0
  6
CONTINUOUS
 62
3
 10
59.034709795709034
 20
-222.472003167203180
 11
59.034709795709034
 21
-243.298282573522560
  0
ARC
  8
0
  6
CONTINUOUS
 62
3
 10
57.034709795709034
 20
-243.298282573522560
 40
1.999999999999826
 50
317.350764207258010
 51
0.000000000000000
  0
ARC
  8
0
  6
CONTINUOUS
 62
3
 10
57.034709795709034
 20
-222.472003167203180
 40
2.000000000000000
 50
0.000000000000000
 51
90.000000000000000
  0
ARC
  8
0
  6
CONTINUOUS
 62
3
 10
3.534701358538598
 20
-267.951512350560730
 40
3.499999999999234
 50
94.332468894025979
 51
180.000000000000000
  0
LINE
  8
0
  6
CONTINUOUS
 62
3
 10
187.034696853494840
 20
-286.706634177642850
 11
0.034701358538598
 21
-286.706634177642850
  0
LINE
  8
0
  6
CONTINUOUS
 62
3
 10
57.034709795709489
 20
-56.706651475407853
 11
122.064424325922400
 21
-57.841749364795760
  0
LINE
  8
0
  6
CONTINUOUS
 62
3
 10
57.034709795709489
 20
-56.706651475407853
 11
57.034709795709034
 21
-141.706630565742670
  0
LINE
  8
0
  6
CONTINUOUS
 62
3
 10
29.034709795705396
 20
-79.706618555852401
 11
29.034709795709034
 21
-21.706618555852401
  0
LINE
  8
0
  6
CONTINUOUS
 62
3
 10
33.534709795709034
 20
-21.706618555852401
 11
33.534709795709034
 21
-79.706618555852401
  0
LINE
  8
0
  6
CONTINUOUS
 62
3
 10
29.034709795705396
 20
-79.706618555852401
 11
33.534709795705396
 21
-79.706618555852401
  0
LINE
  8
0
  6
CONTINUOUS
 62
3
 10
33.534709795709034
 20
-59.706630565742671
 11
33.534709795709034
 21
-76.706618555852401
  0
ARC
  8
0
  6
CONTINUOUS
 62
3
 10
40.534709795709034
 20
-84.557516486195709
 40
5.000000000000153
 50
272.000000000003580
 51
356.081795638019740
  0
LINE
  8
0
  6
CONTINUOUS
 62
3
 10
20.034709795702668
 20
-90.276439982270858
 11
40.709207279221857
 21
-89.554470621291330
  0
ARC
  8
0
  6
CONTINUOUS
 62
3
 10
36.534709795709034
 20
-59.706609656077489
 40
3.000000000000000
 50
90.000000000000000
 51
180.000000000000000
  0
LINE
  8
0
  6
CONTINUOUS
 62
3
 10
33.534709795709034
 20
-59.706609656077489
 11
33.534709795709034
 21
-76.706597646187220
  0
ARC
  8
0
  6
CONTINUOUS
 62
3
 10
40.534709795709034
 20
-262.855680400378330
 40
4.999999999999993
 50
37.176115582706863
 51
87.999999999996049
  0
LINE
  8
0
  6
CONTINUOUS
 62
3
 10
20.034709795702668
 20
-257.136756904303180
 11
40.709207279221857
 21
-257.858726265283620
  0
LINE
  8
0
  6
CONTINUOUS
 62
3
 10
56.534709795709034
 20
-56.706630565742671
 11
36.534709795709034
 21
-56.706630565742671
  0
LINE
  8
0
  6
CONTINUOUS
 62
3
 10
45.534709795709034
 20
-141.438669363420560
 11
45.534709795709034
 21
-173.706630565742670
  0
LINE
  8
0
  6
CONTINUOUS
 62
3
 10
45.534709795709034
 20
-59.706630565742671
 11
45.534709795709034
 21
-111.974567748282420
  0
ARC
  8
0
  6
CONTINUOUS
 62
3
 10
40.534709795709034
 20
-115.974567748282420
 40
2.000000000000000
 50
90.000000000000000
 51
180.000000000000000
  0
LINE
  8
0
  6
CONTINUOUS
 62
3
 10
43.534709795709034
 20
-113.974567748282420
 11
40.534709795709034
 21
-113.974567748282420
  0
LINE
  8
0
  6
CONTINUOUS
 62
3
 10
38.534709795709034
 20
-115.974567748282420
 11
38.534709795709034
 21
-137.438669363420560
  0
ARC
  8
0
  6
CONTINUOUS
 62
3
 10
40.534709795709034
 20
-137.438669363420560
 40
2.000000000000000
 50
180.000000000000000
 51
270.000000000000000
  0
LINE
  8
0
  6
CONTINUOUS
 62
3
 10
43.534709795709034
 20
-139.438669363420560
 11
40.534709795709034
 21
-139.438669363420560
  0
ARC
  8
0
  6
CONTINUOUS
 62
3
 10
43.534709795709034
 20
-141.438669363420560
 40
2.000000000000000
 50
0.000000000000000
 51
90.000000000000000
  0
ARC
  8
0
  6
CONTINUOUS
 62
3
 10
43.534709795709034
 20
-111.974567748282420
 40
2.000000000000000
 50
270.000000000000000
 51
0.000000000000000
  0
ARC
  8
0
  6
CONTINUOUS
 62
3
 10
48.534709795709034
 20
-59.706630565742671
 40
3.000000000000000
 50
90.000000000000000
 51
180.000000000000000
  0
LINE
  8
0
  6
CONTINUOUS
 62
3
 10
45.534709795709034
 20
-258.734882856698280
 11
45.534709795709034
 21
-173.706630565742670
  0
LINE
  8
0
  6
CONTINUOUS
 62
3
 10
56.534709795709034
 20
-56.706651475407853
 11
56.534709795709034
 21
-173.706630565742670
  0
LINE
  8
0
  6
CONTINUOUS
 62
3
 10
56.534709795709034
 20
-246.793085061210150
 11
56.534709795709034
 21
-173.706630565742670
  0
LINE
  8
0
  6
CONTINUOUS
 62
3
 10
20.034709795708125
 20
-103.698670872580970
 11
10.034709795703009
 21
-103.698670872580970
  0
ARC
  8
0
  6
CONTINUOUS
 62
3
 10
-26.965305558432021
 20
-104.706630565743010
 40
3.000000000000000
 50
180.000000000002160
 51
270.000000000000000
  0
LINE
  8
0
  6
CONTINUOUS
 62
3
 10
20.034709389809848
 20
-91.479923665122897
 11
13.034709795703009
 21
-91.479923665122897
  0
ARC
  8
0
  6
CONTINUOUS
 62
3
 10
13.034709795703009
 20
-94.479923665122897
 40
3.000000000000000
 50
90.000000000000000
 51
180.000000000000000
  0
ARC
  8
0
  6
CONTINUOUS
 62
3
 10
9.034709795703009
 20
-97.706630565742785
 40
1.000000000000000
 50
0.000000000000000
 51
90.000000000000000
  0
LINE
  8
0
  6
CONTINUOUS
 62
3
 10
9.034709795703009
 20
-96.706630565742785
 11
-46.465305558431453
 21
-96.706630565742785
  0
LINE
  8
0
  6
CONTINUOUS
 62
3
 10
10.034709795703009
 20
-98.706630565742785
 11
10.034709795703009
 21
-241.498867649895260
  0
LINE
  8
0
  6
CONTINUOUS
 62
3
 10
10.034709795703009
 20
-94.479923665122897
 11
10.034709795703009
 21
-98.706630565742785
  0
ARC
  8
0
  6
CONTINUOUS
 62
3
 10
7.034709795703009
 20
-104.706630565743010
 40
3.000000000000000
 50
270.000000000000000
 51
0.000000000000000
  0
LINE
  8
0
  6
CONTINUOUS
 62
3
 10
-46.465305558431453
 20
-96.706630565742785
 11
-46.465305558436754
 21
-201.715357830199420
  0
LINE
  8
0
  6
CONTINUOUS
 62
3
 10
-30.965318502048660
 20
-112.206630565743230
 11
-30.965319958899101
 21
-112.206630565743230
  0
LINE
  8
0
  6
CONTINUOUS
 62
3
 10
13.034709795702980
 20
-257.206630565742780
 11
20.034709795703009
 21
-257.206630565742780
  0
ARC
  8
0
  6
CONTINUOUS
 62
3
 10
13.034709795702980
 20
-254.206630565742780
 40
2.999999999999972
 50
180.000000000000000
 51
270.000000000000000
  0
LINE
  8
0
  6
CONTINUOUS
 62
3
 10
20.034709795703009
 20
-244.706630565742560
 11
20.034709795703009
 21
-257.206630565742780
  0
ARC
  8
0
  6
CONTINUOUS
 62
3
 10
-34.965305558432135
 20
-101.706630565742780
 40
5.000000000000028
 50
0.000000000001303
 51
90.000000000000000
  0
LINE
  8
0
  6
CONTINUOUS
 62
3
 10
-29.965305558432107
 20
-101.706630565742670
 11
-29.965305558431282
 21
-130.706630565743010
  0
LINE
  8
0
  6
DASHDOT
 62
4
 10
-10.965290204296991
 20
-121.450742557461920
 11
-10.965290204296991
 21
-92.810840296646461
  0
ARC
  8
0
  6
CONTINUOUS
 62
3
 10
-39.965305558436171
 20
-190.206630565740280
 40
5.000000000000000
 50
359.999999999997390
 51
90.000000000000000
  0
LINE
  8
0
  6
CONTINUOUS
 62
3
 10
20.034709795703009
 20
-94.696461703247564
 11
10.034709795703009
 21
-94.696461703247564
  0
LINE
  8
0
  6
CONTINUOUS
 62
3
 10
10.034709795703009
 20
-241.498867649895260
 11
10.034709795703009
 21
-254.206630565742780
  0
ARC
  8
0
  6
CONTINUOUS
 62
3
 10
7.034709795703009
 20
-130.706630565742900
 40
3.000000000000000
 50
270.000000000000000
 51
0.000000000000000
  0
ARC
  8
0
  6
CONTINUOUS
 62
3
 10
7.034709795703009
 20
-172.206630565740510
 40
3.000000000000000
 50
0.000000000000000
 51
90.000000000000000
  0
ARC
  8
0
  6
CONTINUOUS
 62
3
 10
-26.965305558431282
 20
-130.706630565742900
 40
3.000000000000000
 50
180.000000000002160
 51
270.000000000000000
  0
LINE
  8
0
  6
CONTINUOUS
 62
3
 10
7.034709795703009
 20
-107.706630565743010
 11
-26.965305558432021
 21
-107.706630565743010
  0
LINE
  8
0
  6
CONTINUOUS
 62
3
 10
20.034709795703009
 20
-251.497212436540390
 11
10.034709795703009
 21
-251.497212436540390
  0
LINE
  8
0
  6
CONTINUOUS
 62
3
 10
20.034709795703009
 20
-244.779137803856090
 11
10.034709795703009
 21
-244.779137803856090
  0
LINE
  8
0
  6
CONTINUOUS
 62
3
 10
10.034709795703009
 20
-178.694122743461890
 11
20.034709795703009
 21
-178.694122743461890
  0
LINE
  8
0
  6
CONTINUOUS
 62
3
 10
20.034709795703009
 20
-158.719941351790280
 11
10.034709795703009
 21
-158.719941351790280
  0
LINE
  8
0
  6
CONTINUOUS
 62
3
 10
-46.465305558435915
 20
-185.206630565740280
 11
-39.965305558436171
 21
-185.206630565740280
  0
LINE
  8
0
  6
CONTINUOUS
 62
3
 10
7.034709795703009
 20
-169.206630565740510
 11
-46.465305558435105
 21
-169.206630565740510
  0
POINT
  8
0
  6
CONTINUOUS
 62
3
 10
10.034709795703009
 20
-254.206630565742780
  0
POINT
  8
0
  6
CONTINUOUS
 62
3
 10
10.034709795703009
 20
-252.206630565742780
  0
LINE
  8
0
  6
CONTINUOUS
 62
3
 10
7.034709795703009
 20
-133.706630565742900
 11
-26.965305558431282
 21
-133.706630565742900
  0
LINE
  8
0
  6
CONTINUOUS
 62
3
 10
-46.465305558433087
 20
-129.206630565740510
 11
-29.965305558431339
 21
-129.206630565740510
  0
LINE
  8
0
  6
CONTINUOUS
 62
3
 10
20.034709795703009
 20
-90.276439982270844
 11
20.034709795703009
 21
-244.706630565742560
  0
LINE
  8
0
  6
DASHDOT
 62
4
 10
40.240883010683319
 20
-69.706618555852401
 11
9.108262817386276
 21
-69.706618555852401
  0
LINE
  8
0
  6
DASHDOT
 62
4
 10
416.112472078879820
 20
-292.026251447445250
 11
416.112472078879820
 21
-13.508392122101213
  0
ARC
  8
0
  6
CONTINUOUS
 62
3
 10
296.112472078880270
 20
-261.706633629599310
 40
3.000000000000000
 50
270.000000000000000
 51
0.000000000000000
  0
LINE
  8
0
  6
CONTINUOUS
 62
3
 10
299.112472078880270
 20
-261.706633629599310
 11
299.112472078880270
 21
-142.942204835351730
  0
ARC
  8
0
  6
CONTINUOUS
 62
3
 10
294.112468965204700
 20
-267.706633629599310
 40
3.000000000000000
 50
90.000000000000000
 51
180.000000000000000
  0
LINE
  8
0
  6
CONTINUOUS
 62
3
 10
291.112468965204700
 20
-286.706634177606250
 11
291.112468965204700
 21
-267.706633629599310
  0
LINE
  8
0
  6
CONTINUOUS
 62
3
 10
416.112472078880270
 20
-257.006633629599490
 11
352.612472078880270
 21
-257.006633629599490
  0
ARC
  8
0
  6
CONTINUOUS
 62
3
 10
352.612472078880270
 20
-249.006633629599490
 40
8.000000000000000
 50
180.000000000000000
 51
270.000000000000000
  0
LINE
  8
0
  6
CONTINUOUS
 62
3
 10
344.612472078880270
 20
-249.006633629599490
 11
344.612472078880270
 21
-145.706630565742670
  0
ARC
  8
0
  6
CONTINUOUS
 62
3
 10
348.612472078880270
 20
-145.706630565742670
 40
4.000000000000000
 50
90.000000000000000
 51
180.000000000000000
  0
ARC
  8
0
  6
CONTINUOUS
 62
3
 10
416.112472078880270
 20
-141.706630565742670
 40
48.999999999999531
 50
183.307362179670630
 51
270.000000000000000
  0
LINE
  8
0
  6
CONTINUOUS
 62
3
 10
364.199082669210840
 20
-141.706630565742670
 11
348.612472078880270
 21
-141.706630565742670
  0
ARC
  8
0
  6
CONTINUOUS
 62
3
 10
364.199082669210840
 20
-144.706630565742670
 40
3.000000000000262
 50
3.307362179674563
 51
90.000000000000000
  0
ARC
  8
0
  6
CONTINUOUS
 62
3
 10
479.612472078880270
 20
-249.006633629599490
 40
8.000000000000000
 50
270.000000000000000
 51
0.000000000000000
  0
LINE
  8
0
  6
CONTINUOUS
 62
3
 10
416.112472078880270
 20
-257.006633629599490
 11
479.612472078880270
 21
-257.006633629599490
  0
ARC
  8
0
  6
CONTINUOUS
 62
3
 10
333.594459654494590
 20
-261.706633629599310
 40
3.000000000000000
 50
270.000000000000000
 51
0.000000000000000
  0
ARC
  8
0
  6
CONTINUOUS
 62
3
 10
498.630484503266420
 20
-261.706633629599310
 40
3.000000000000000
 50
180.000000000000000
 51
270.000000000000000
  0
LINE
  8
0
  6
CONTINUOUS
 62
3
 10
336.594459654494590
 20
-261.706633629599310
 11
336.594459654494590
 21
-141.706630565742670
  0
ARC
  8
0
  6
CONTINUOUS
 62
3
 10
384.112472078879360
 20
-142.942204835351730
 40
47.518012424384935
 50
94.422377585977486
 51
180.000000000000000
  0
ARC
  8
0
  6
CONTINUOUS
 62
3
 10
416.112472078880270
 20
-556.706630565742670
 40
462.518012424385230
 50
90.000000000000000
 51
94.422377585978083
  0
ARC
  8
0
  6
CONTINUOUS
 62
3
 10
338.112470086127810
 20
-286.706634177606250
 40
2.000000000000000
 50
90.000000000000000
 51
180.000000000000000
  0
ARC
  8
0
  6
CONTINUOUS
 62
3
 10
494.112474071633190
 20
-286.706634177606250
 40
2.000000000000000
 50
0.000000000000000
 51
90.000000000000000
  0
ARC
  8
0
  6
CONTINUOUS
 62
3
 10
416.112472078880270
 20
-141.706630565742670
 40
31.000000000000256
 50
70.008590721901967
 51
180.000000000000000
  0
ARC
  8
0
  6
CONTINUOUS
 62
3
 10
349.112472078880270
 20
-276.706630690289780
 40
10.000000000000053
 50
306.869864344412290
 51
315.572968020398260
  0
LINE
  8
0
  6
CONTINUOUS
 62
3
 10
355.112467429122260
 20
-284.706634177606250
 11
338.112470086127810
 21
-284.706634177606250
  0
ARC
  8
0
  6
CONTINUOUS
 62
3
 10
483.112472078880270
 20
-276.706630690289780
 40
9.999999999999833
 50
224.427031979601790
 51
233.130135655587680
  0
LINE
  8
0
  6
CONTINUOUS
 62
3
 10
477.112476728638280
 20
-284.706634177606250
 11
494.112474071633190
 21
-284.706634177606250
  0
ARC
  8
0
  6
CONTINUOUS
 62
3
 10
327.988887390021320
 20
-261.706633629599310
 40
3.000000000000000
 50
270.000000000000000
 51
0.000000000000000
  0
ARC
  8
0
  6
CONTINUOUS
 62
3
 10
301.588887390021230
 20
-261.706633629599310
 40
3.000000000000000
 50
270.000000000000000
 51
0.000000000000000
  0
LINE
  8
0
  6
CONTINUOUS
 62
3
 10
304.588887390021230
 20
-141.706630565742670
 11
304.588887390021230
 21
-261.706633629599310
  0
LINE
  8
0
  6
CONTINUOUS
 62
3
 10
330.988887390021320
 20
-141.706630565742670
 11
330.988887390021320
 21
-261.706633629599310
  0
POLYLINE
  8
0
  6
CONTINUOUS
 62
3
 66
1
  0
VERTEX
  8
0
  6
CONTINUOUS
 62
3
 10
330.988887390021490
 20
-141.706630565742670
  0
VERTEX
  8
0
  6
CONTINUOUS
 62
3
 10
330.735253091344130
 20
-137.804824125420110
  0
VERTEX
  8
0
  6
CONTINUOUS
 62
3
 10
329.984097219170450
 20
-134.052961918440870
  0
VERTEX
  8
0
  6
CONTINUOUS
 62
3
 10
328.764286272415060
 20
-130.595225905350620
  0
VERTEX
  8
0
  6
CONTINUOUS
 62
3
 10
327.122696901683920
 20
-127.564494942011720
  0
VERTEX
  8
0
  6
CONTINUOUS
 62
3
 10
325.122414465880240
 20
-125.077238319691770
  0
VERTEX
  8
0
  6
CONTINUOUS
 62
3
 10
322.840308697240690
 20
-123.229039915516950
  0
VERTEX
  8
0
  6
CONTINUOUS
 62
3
 10
320.364079640634370
 20
-122.090924957678070
  0
VERTEX
  8
0
  6
CONTINUOUS
 62
3
 10
317.788887390021500
 20
-121.706630565742670
  0
VERTEX
  8
0
  6
CONTINUOUS
 62
3
 10
315.213695139408630
 20
-122.090924957678070
  0
VERTEX
  8
0
  6
CONTINUOUS
 62
3
 10
312.737466082802310
 20
-123.229039915516950
  0
VERTEX
  8
0
  6
CONTINUOUS
 62
3
 10
310.455360314162760
 20
-125.077238319691770
  0
VERTEX
  8
0
  6
CONTINUOUS
 62
3
 10
308.455077878359080
 20
-127.564494942011730
  0
VERTEX
  8
0
  6
CONTINUOUS
 62
3
 10
306.813488507627940
 20
-130.595225905350620
  0
VERTEX
  8
0
  6
CONTINUOUS
 62
3
 10
305.593677560872550
 20
-134.052961918440870
  0
VERTEX
  8
0
  6
CONTINUOUS
 62
3
 10
304.842521688698870
 20
-137.804824125420110
  0
VERTEX
  8
0
  6
CONTINUOUS
 62
3
 10
304.588887390021510
 20
-141.706630565742670
  0
SEQEND
  8
0
  6
CONTINUOUS
 62
3
  0
ARC
  8
0
  6
CONTINUOUS
 62
3
 10
530.636056767739320
 20
-261.706633629599310
 40
3.000000000000000
 50
180.000000000000000
 51
270.000000000000000
  0
ARC
  8
0
  6
CONTINUOUS
 62
3
 10
536.112472078881180
 20
-261.706633629599310
 40
3.000000000000000
 50
180.000000000000000
 51
270.000000000000000
  0
ARC
  8
0
  6
CONTINUOUS
 62
3
 10
504.236056767738770
 20
-261.706633629599310
 40
3.000000000000000
 50
180.000000000000000
 51
270.000000000000000
  0
ARC
  8
0
  6
CONTINUOUS
 62
3
 10
416.112472078880270
 20
-141.706630565742670
 40
31.000000000000000
 50
180.000000000000000
 51
0.000000000000000
  0
ARC
  8
0
  6
CONTINUOUS
 62
3
 10
538.112475192556300
 20
-267.706633629599310
 40
3.000000000000000
 50
0.000000000000000
 51
90.000000000000000
  0
LINE
  8
0
  6
CONTINUOUS
 62
3
 10
416.112472078880270
 20
-283.706634053059130
 11
356.253897211247930
 21
-283.706634053059130
  0
LINE
  8
0
  6
DASHDOT
 62
4
 10
308.612469401119140
 20
-294.531092869217900
 11
308.612469401119140
 21
-258.993055668745000
  0
LINE
  8
0
  6
CONTINUOUS
 62
3
 10
336.112470086127810
 20
-286.706634177606250
 11
291.112468965204700
 21
-286.706634177606250
  0
LINE
  8
0
  6
CONTINUOUS
 62
3
 10
416.112472078880270
 20
-264.706633629599310
 11
294.112468965204700
 21
-264.706633629599310
  0
LINE
  8
0
  6
DASHDOT
 62
4
 10
523.612474756640950
 20
-294.531092869217900
 11
523.612474756640950
 21
-258.993055668745000
  0
LINE
  8
0
  6
CONTINUOUS
 62
3
 10
496.112474071633190
 20
-286.706634177606250
 11
541.112475192556300
 21
-286.706634177606250
  0
LINE
  8
0
  6
CONTINUOUS
 62
3
 10
541.112475192556300
 20
-286.706634177606250
 11
541.112475192556300
 21
-267.706633629599310
  0
LINE
  8
0
  6
CONTINUOUS
 62
3
 10
416.112472078880270
 20
-283.706634053059130
 11
475.971046946512620
 21
-283.706634053059130
  0
LINE
  8
0
  6
CONTINUOUS
 62
3
 10
416.112472078880270
 20
-264.706633629599310
 11
538.112475192556300
 21
-264.706633629599310
  0
ARC
  8
0
  6
CONTINUOUS
 62
3
 10
384.112472078880270
 20
-142.942204835351730
 40
84.999999999999972
 50
94.422377585978197
 51
180.000000000000000
  0
ARC
  8
0
  6
CONTINUOUS
 62
3
 10
416.112472078880270
 20
-556.706630565742670
 40
500.000000000000000
 50
90.000000000000000
 51
94.422377585978055
  0
ARC
  8
0
  6
CONTINUOUS
 62
3
 10
416.112472078880270
 20
-556.706630565742670
 40
500.000000000000230
 50
85.577622414021945
 51
90.000000000000000
  0
CIRCLE
  8
0
  6
CONTINUOUS
 62
3
 10
416.112472078880270
 20
-141.706630565742670
 40
31.000000000000057
  0
CIRCLE
  8
0
  6
CONTINUOUS
 62
4
 10
416.112472078880270
 20
-141.706630565742670
 40
4.000000000000000
  0
CIRCLE
  8
0
  6
CONTINUOUS
 62
3
 10
416.112472078880270
 20
-141.706630565742670
 40
3.324999999999989
  0
LINE
  8
0
  6
CONTINUOUS
 62
3
 10
395.612472078880270
 20
-31.706630565742671
 11
395.612472078880270
 21
-57.127057324401903
  0
CIRCLE
  8
0
  6
CONTINUOUS
 62
3
 10
416.112472078880270
 20
-41.706630565742671
 40
10.000000000000000
  0
LINE
  8
0
  6
DASHDOT
 62
4
 10
439.280385077761820
 20
-41.706630565742671
 11
392.257871176227130
 21
-41.706630565742671
  0
ARC
  8
0
  6
CONTINUOUS
 62
3
 10
405.612472078880270
 20
-31.706630565742671
 40
10.000000000000000
 50
90.000000000000000
 51
180.000000000000000
  0
LINE
  8
0
  6
CONTINUOUS
 62
3
 10
426.612472078880270
 20
-21.706630565742671
 11
405.612472078880270
 21
-21.706630565742671
  0
ARC
  8
0
  6
CONTINUOUS
 62
3
 10
426.612472078880270
 20
-31.706630565742671
 40
10.000000000000000
 50
0.000000000000000
 51
90.000000000000000
  0
LINE
  8
0
  6
CONTINUOUS
 62
3
 10
436.612472078880270
 20
-31.706630565742671
 11
436.612472078880270
 21
-57.127057324401903
  0
LINE
  8
0
  6
CONTINUOUS
 62
3
 10
29.034709795709034
 20
-21.706618555852401
 11
33.534709795709034
 21
-21.706618555852401
  0
LINE
  8
0
  6
DASHDOT
 62
4
 10
23.304462394892482
 20
-41.706618555852401
 11
41.403728410183987
 21
-41.706618555852401
  0
LINE
  8
0
  6
DASHDOT
 62
4
 10
260.255266640303320
 20
-141.706630565742670
 11
117.371657120610330
 21
-141.706630565742670
  0
LINE
  8
0
  6
CONTINUOUS
 62
3
 10
249.034715846914710
 20
-141.706630565742670
 11
249.034715846914710
 21
-122.106630565743210
  0
LINE
  8
0
  6
CONTINUOUS
 62
3
 10
188.634715846914620
 20
-164.206630565742670
 11
187.034715846915620
 21
-164.206630565742670
  0
LINE
  8
0
  6
CONTINUOUS
 62
3
 10
188.634715846914620
 20
-119.206630565742670
 11
187.034715846915620
 21
-119.206630565742670
  0
ARC
  8
0
  6
CONTINUOUS
 62
3
 10
248.634715846914620
 20
-122.106630565743210
 40
0.400000000000091
 50
0.000000000000000
 51
90.000000000000000
  0
LINE
  8
0
  6
CONTINUOUS
 62
3
 10
248.634715846914620
 20
-121.706630565742670
 11
192.094530593919270
 21
-121.706630565742670
  0
ARC
  8
0
  6
CONTINUOUS
 62
3
 10
190.634715846914620
 20
-120.256630565742850
 40
1.599999999999909
 50
180.000000000000000
 51
270.000000000000000
  0
LINE
  8
0
  6
CONTINUOUS
 62
3
 10
191.534722972783410
 20
-121.856630565743210
 11
190.634715846914620
 21
-121.856630565743210
  0
LINE
  8
0
  6
CONTINUOUS
 62
3
 10
188.634715846914620
 20
-119.206630565742670
 11
189.034715846914710
 21
-119.606630565743210
  0
LINE
  8
0
  6
CONTINUOUS
 62
3
 10
189.034715846914710
 20
-141.706630565742670
 11
189.034715846914710
 21
-119.606630565743210
  0
LINE
  8
0
  6
CONTINUOUS
 62
3
 10
192.094530593918820
 20
-121.706630565742670
 11
191.534722972783410
 21
-121.856630565743210
  0
ARC
  8
0
  6
CONTINUOUS
 62
3
 10
190.634715846914620
 20
-163.156630565742490
 40
1.599999999999454
 50
90.000000000000000
 51
180.000000000000000
  0
LINE
  8
0
  6
CONTINUOUS
 62
3
 10
191.534722972783410
 20
-161.556630565743030
 11
190.634715846914620
 21
-161.556630565743030
  0
LINE
  8
0
  6
CONTINUOUS
 62
3
 10
188.634715846914620
 20
-164.206630565742670
 11
189.034715846914710
 21
-163.806630565743030
  0
LINE
  8
0
  6
CONTINUOUS
 62
3
 10
189.034715846914710
 20
-141.706630565742670
 11
189.034715846914710
 21
-163.806630565743030
  0
LINE
  8
0
  6
CONTINUOUS
 62
3
 10
248.634715846914620
 20
-161.706630565742670
 11
192.094530593919270
 21
-161.706630565742670
  0
LINE
  8
0
  6
CONTINUOUS
 62
3
 10
192.094530593918820
 20
-161.706630565742670
 11
191.534722972783410
 21
-161.556630565743030
  0
LINE
  8
0
  6
CONTINUOUS
 62
3
 10
249.034715846914710
 20
-141.706630565742670
 11
249.034715846914710
 21
-161.306630565743030
  0
ARC
  8
0
  6
CONTINUOUS
 62
3
 10
248.634715846914620
 20
-161.306630565743030
 40
0.399999999999636
 50
270.000000000000000
 51
0.000000000000000
  0
LINE
  8
0
  6
CONTINUOUS
 62
3
 10
186.034715822005470
 20
-182.706630565742670
 11
187.034715846915620
 21
-182.706630565742670
  0
LINE
  8
0
  6
CONTINUOUS
 62
3
 10
186.034715822005470
 20
-100.706630565742670
 11
187.034715846915620
 21
-100.706630565742670
  0
LINE
  8
0
  6
CONTINUOUS
 62
3
 10
145.520495345407480
 20
-141.706630565742670
 11
145.520495345407480
 21
-260.359869229517240
  0
LINE
  8
0
  6
CONTINUOUS
 62
3
 10
180.390495345407370
 20
-141.706630565742670
 11
180.390495345407370
 21
-261.577556461694260
  0
POLYLINE
  8
0
  6
CONTINUOUS
 62
3
 66
1
  0
VERTEX
  8
0
  6
CONTINUOUS
 62
3
 10
180.390495345406980
 20
-141.706630565742670
  0
VERTEX
  8
0
  6
CONTINUOUS
 62
3
 10
180.055486709237300
 20
-137.804824125420110
  0
VERTEX
  8
0
  6
CONTINUOUS
 62
3
 10
179.063334994741270
 20
-134.052961918440870
  0
VERTEX
  8
0
  6
CONTINUOUS
 62
3
 10
177.452168035901850
 20
-130.595225905350620
  0
VERTEX
  8
0
  6
CONTINUOUS
 62
3
 10
175.283902075394420
 20
-127.564494942011720
  0
VERTEX
  8
0
  6
CONTINUOUS
 62
3
 10
172.641862358103740
 20
-125.077238319691770
  0
VERTEX
  8
0
  6
CONTINUOUS
 62
3
 10
169.627580988692300
 20
-123.229039915516950
  0
VERTEX
  8
0
  6
CONTINUOUS
 62
3
 10
166.356895109758170
 20
-122.090924957678070
  0
VERTEX
  8
0
  6
CONTINUOUS
 62
3
 10
162.955495345406970
 20
-121.706630565742670
  0
VERTEX
  8
0
  6
CONTINUOUS
 62
3
 10
159.554095581055780
 20
-122.090924957678070
  0
VERTEX
  8
0
  6
CONTINUOUS
 62
3
 10
156.283409702121650
 20
-123.229039915516950
  0
VERTEX
  8
0
  6
CONTINUOUS
 62
3
 10
153.269128332710210
 20
-125.077238319691770
  0
VERTEX
  8
0
  6
CONTINUOUS
 62
3
 10
150.627088615419520
 20
-127.564494942011730
  0
VERTEX
  8
0
  6
CONTINUOUS
 62
3
 10
148.458822654912100
 20
-130.595225905350620
  0
VERTEX
  8
0
  6
CONTINUOUS
 62
3
 10
146.847655696072710
 20
-134.052961918440870
  0
VERTEX
  8
0
  6
CONTINUOUS
 62
3
 10
145.855503981576650
 20
-137.804824125420110
  0
VERTEX
  8
0
  6
CONTINUOUS
 62
3
 10
145.520495345406970
 20
-141.706630565742670
  0
SEQEND
  8
0
  6
CONTINUOUS
 62
3
  0
LINE
  8
0
  6
CONTINUOUS
 62
3
 10
187.034715846915620
 20
-182.706630565742670
 11
187.034715846915620
 21
-141.706630565742670
  0
ARC
  8
0
  6
CONTINUOUS
 62
3
 10
186.034715822005470
 20
-183.706630590651910
 40
1.000000024909241
 50
90.000000000000000
 51
180.000000000000000
  0
ARC
  8
0
  6
CONTINUOUS
 62
3
 10
182.034715797095320
 20
-95.030102207003438
 40
3.000000000000000
 50
0.000000000000000
 51
31.668452967603624
  0
LINE
  8
0
  6
CONTINUOUS
 62
3
 10
185.034715797095320
 20
-95.030102207003438
 11
185.034715797095320
 21
-141.706630565742670
  0
ARC
  8
0
  6
CONTINUOUS
 62
3
 10
120.755493843125630
 20
-132.830326501525630
 40
74.999999999999901
 50
31.668452967610172
 51
88.999999999999616
  0
LINE
  8
0
  6
CONTINUOUS
 62
3
 10
185.034696803676350
 20
-141.706630565742670
 11
185.034696803676350
 21
-263.396138319641980
  0
LINE
  8
0
  6
CONTINUOUS
 62
3
 10
187.034715846915620
 20
-100.706630565742670
 11
187.034715846915620
 21
-141.706630565742670
  0
ARC
  8
0
  6
CONTINUOUS
 62
3
 10
186.034715822005470
 20
-99.706630540833430
 40
1.000000024909241
 50
180.000000000000000
 51
270.000000000000000
  0
LINE
  8
0
  6
CONTINUOUS
 62
3
 10
187.034696853494840
 20
-268.086554127261480
 11
187.034696853494840
 21
-286.706657129842820
  0
LINE
  8
0
  6
DASHDOT
 62
4
 10
169.034710505626950
 20
-258.688668576154670
 11
169.034710505626950
 21
-292.158622461874070
  0
ARC
  8
0
  6
CONTINUOUS
 62
3
 10
148.520495345407480
 20
-260.359869229517240
 40
3.000000000000000
 50
180.000000000000000
 51
267.999999999996650
  0
ARC
  8
0
  6
CONTINUOUS
 62
3
 10
183.390495345407370
 20
-261.577556461694260
 40
3.000000000000000
 50
180.000000000000000
 51
267.999999999996650
  0
ARC
  8
0
  6
CONTINUOUS
 62
3
 10
183.534696853494840
 20
-268.086554127261480
 40
3.500000000000000
 50
0.000000000000000
 51
46.186939148157336
  0
ARC
  8
0
  6
CONTINUOUS
 62
3
 10
183.534696853494840
 20
-268.086554127261480
 40
3.500000000000175
 50
46.186939148157336
 51
87.999999999996561
  0
ARC
  8
0
  6
CONTINUOUS
 62
3
 10
188.034696803676350
 20
-263.396138319641980
 40
3.000000000000000
 50
180.000000000000000
 51
226.186939148152190
  0
LINE
  8
0
  6
CONTINUOUS
 62
3
 10
147.034696853494840
 20
-263.309812635767230
 11
183.656845091953810
 21
-264.588686232694270
  0
LINE
  8
0
  6
CONTINUOUS
 62
4
 10
-196.965305558452370
 20
-126.368390885746630
 11
-194.965305558431230
 21
-126.368390885746630
  0
LINE
  8
0
  6
CONTINUOUS
 62
4
 10
-196.965305558452370
 20
-125.021989160248040
 11
-194.965305558431230
 21
-125.021989160248040
  0
LINE
  8
0
  6
CONTINUOUS
 62
4
 10
-196.965305558452370
 20
-121.929258168582800
 11
-194.965305558431230
 21
-121.929258168582800
  0
LINE
  8
0
  6
CONTINUOUS
 62
4
 10
-196.965305558452370
 20
-120.450235015105700
 11
-194.965305558431230
 21
-120.450235015105700
  0
LINE
  8
0
  6
CONTINUOUS
 62
4
 10
-196.965305558452370
 20
-129.206630565742780
 11
-194.965305558431230
 21
-129.206630565742780
  0
LINE
  8
0
  6
CONTINUOUS
 62
3
 10
-186.965305558452370
 20
-95.206630565742557
 11
-216.470150507545380
 21
-95.206630565742557
  0
LINE
  8
0
  6
CONTINUOUS
 62
3
 10
-228.285825096376750
 20
-98.932098453389244
 11
-235.856604292965530
 21
-104.233215116961780
  0
LINE
  8
0
  6
CONTINUOUS
 62
3
 10
-236.965305558452600
 20
-106.363010432113240
 11
-236.965305558452600
 21
-149.206630565742780
  0
ARC
  8
0
  6
CONTINUOUS
 62
3
 10
-234.365305558452690
 20
-106.363010432113240
 40
2.600000000000131
 50
125.000000000001180
 51
180.000000000000000
  0
ARC
  8
0
  6
CONTINUOUS
 62
3
 10
-216.470150507545380
 20
-115.806630565742580
 40
20.600000000000023
 50
90.000000000000000
 51
124.999999999999600
  0
LINE
  8
0
  6
CONTINUOUS
 62
3
 10
-197.965305558452600
 20
-100.062709543017600
 11
-199.965305558452370
 21
-101.715351182141030
  0
LINE
  8
0
  6
CONTINUOUS
 62
3
 10
-195.965305558452370
 20
-98.886924057394822
 11
-197.965305558452600
 21
-100.062709543017600
  0
LINE
  8
0
  6
CONTINUOUS
 62
3
 10
-197.965305558452600
 20
-100.062709543017600
 11
-195.965305558452370
 21
-101.715351182141030
  0
LINE
  8
0
  6
CONTINUOUS
 62
3
 10
-199.965305558452370
 20
-98.886924057394822
 11
-197.965305558452600
 21
-100.062709543017600
  0
POLYLINE
  8
0
  6
CONTINUOUS
 62
3
 66
1
 70
1
  0
VERTEX
  8
0
  6
CONTINUOUS
 62
3
 10
-193.265305558452160
 20
-101.879299611395140
  0
VERTEX
  8
0
  6
CONTINUOUS
 62
3
 10
-193.355614740556970
 20
-101.176342645194770
  0
VERTEX
  8
0
  6
CONTINUOUS
 62
3
 10
-193.623071755649110
 20
-100.500399920982680
  0
VERTEX
  8
0
  6
CONTINUOUS
 62
3
 10
-194.057398380630190
 20
-99.877447538577286
  0
VERTEX
  8
0
  6
CONTINUOUS
 62
3
 10
-194.641903686875370
 20
-99.331425208678709
  0
VERTEX
  8
0
  6
CONTINUOUS
 62
3
 10
-195.354125463260030
 20
-98.883316263212095
  0
VERTEX
  8
0
  6
CONTINUOUS
 62
3
 10
-196.166693426336220
 20
-98.550341277649324
  0
VERTEX
  8
0
  6
CONTINUOUS
 62
3
 10
-197.048381044976340
 20
-98.345296293951080
  0
VERTEX
  8
0
  6
CONTINUOUS
 62
3
 10
-197.965305558452140
 20
-98.276061075850308
  0
VERTEX
  8
0
  6
CONTINUOUS
 62
3
 10
-198.882230071927950
 20
-98.345296293951080
  0
VERTEX
  8
0
  6
CONTINUOUS
 62
3
 10
-199.763917690568060
 20
-98.550341277649324
  0
VERTEX
  8
0
  6
CONTINUOUS
 62
3
 10
-200.576485653644260
 20
-98.883316263212095
  0
VERTEX
  8
0
  6
CONTINUOUS
 62
3
 10
-201.288707430028920
 20
-99.331425208678709
  0
VERTEX
  8
0
  6
CONTINUOUS
 62
3
 10
-201.873212736274100
 20
-99.877447538577286
  0
VERTEX
  8
0
  6
CONTINUOUS
 62
3
 10
-202.307539361255180
 20
-100.500399920982680
  0
VERTEX
  8
0
  6
CONTINUOUS
 62
3
 10
-202.574996376347310
 20
-101.176342645194770
  0
VERTEX
  8
0
  6
CONTINUOUS
 62
3
 10
-202.665305558452130
 20
-101.879299611395140
  0
VERTEX
  8
0
  6
CONTINUOUS
 62
3
 10
-202.574996376347310
 20
-102.582256577595500
  0
VERTEX
  8
0
  6
CONTINUOUS
 62
3
 10
-202.307539361255180
 20
-103.258199301807590
  0
VERTEX
  8
0
  6
CONTINUOUS
 62
3
 10
-201.873212736274100
 20
-103.881151684212990
  0
VERTEX
  8
0
  6
CONTINUOUS
 62
3
 10
-201.288707430028890
 20
-104.427174014111570
  0
VERTEX
  8
0
  6
CONTINUOUS
 62
3
 10
-200.576485653644260
 20
-104.875282959578180
  0
VERTEX
  8
0
  6
CONTINUOUS
 62
3
 10
-199.763917690568060
 20
-105.208257945140950
  0
VERTEX
  8
0
  6
CONTINUOUS
 62
3
 10
-198.882230071927950
 20
-105.413302928839200
  0
VERTEX
  8
0
  6
CONTINUOUS
 62
3
 10
-197.965305558452140
 20
-105.482538146939970
  0
VERTEX
  8
0
  6
CONTINUOUS
 62
3
 10
-197.048381044976340
 20
-105.413302928839200
  0
VERTEX
  8
0
  6
CONTINUOUS
 62
3
 10
-196.166693426336220
 20
-105.208257945140950
  0
VERTEX
  8
0
  6
CONTINUOUS
 62
3
 10
-195.354125463260030
 20
-104.875282959578180
  0
VERTEX
  8
0
  6
CONTINUOUS
 62
3
 10
-194.641903686875390
 20
-104.427174014111570
  0
VERTEX
  8
0
  6
CONTINUOUS
 62
3
 10
-194.057398380630190
 20
-103.881151684212990
  0
VERTEX
  8
0
  6
CONTINUOUS
 62
3
 10
-193.623071755649110
 20
-103.258199301807590
  0
VERTEX
  8
0
  6
CONTINUOUS
 62
3
 10
-193.355614740556970
 20
-102.582256577595500
  0
SEQEND
  8
0
  6
CONTINUOUS
 62
3
  0
ARC
  8
0
  6
CONTINUOUS
 62
3
 10
-189.965305558452370
 20
-108.206630565742780
 40
3.000000000000000
 50
270.000000000000000
 51
0.000000000000000
  0
LINE
  8
0
  6
CONTINUOUS
 62
3
 10
-186.965305558452370
 20
-95.206630565742557
 11
-186.965305558452370
 21
-108.206630565742780
  0
ARC
  8
0
  6
CONTINUOUS
 62
3
 10
-193.965305558452370
 20
-114.206630565742780
 40
3.000000000000000
 50
90.000000000000000
 51
180.000000000000000
  0
LINE
  8
0
  6
CONTINUOUS
 62
3
 10
-189.965305558452370
 20
-111.206630565742780
 11
-193.965305558452370
 21
-111.206630565742780
  0
LINE
  8
0
  6
CONTINUOUS
 62
3
 10
-196.965305558452370
 20
-149.206630565742780
 11
-196.965305558452370
 21
-114.206630565742780
  0
LINE
  8
0
  6
CONTINUOUS
 62
3
 10
-228.285825096376750
 20
-199.481162678096210
 11
-235.856604292965530
 21
-194.180046014523670
  0
LINE
  8
0
  6
CONTINUOUS
 62
3
 10
-236.965305558452600
 20
-192.050250699372330
 11
-236.965305558452600
 21
-149.206630565742780
  0
ARC
  8
0
  6
CONTINUOUS
 62
3
 10
-234.365305558452690
 20
-192.050250699372330
 40
2.599999999999909
 50
180.000000000000000
 51
234.999999999997390
  0
ARC
  8
0
  6
CONTINUOUS
 62
3
 10
-216.470150507545380
 20
-182.606630565742990
 40
20.599999999999891
 50
235.000000000000400
 51
270.000000000000000
  0
LINE
  8
0
  6
CONTINUOUS
 62
3
 10
-186.965305558452370
 20
-203.206630565743010
 11
-216.470150507545380
 21
-203.206630565743010
  0
LINE
  8
0
  6
CONTINUOUS
 62
4
 10
-196.965305558452370
 20
-169.206630565742780
 11
-194.965305558431230
 21
-169.206630565742780
  0
LINE
  8
0
  6
CONTINUOUS
 62
4
 10
-196.965305558452370
 20
-172.044870245738930
 11
-194.965305558431230
 21
-172.044870245738930
  0
LINE
  8
0
  6
CONTINUOUS
 62
4
 10
-196.965305558452370
 20
-173.391271971237530
 11
-194.965305558431230
 21
-173.391271971237530
  0
LINE
  8
0
  6
CONTINUOUS
 62
4
 10
-196.965305558452370
 20
-176.484002962902760
 11
-194.965305558431230
 21
-176.484002962902760
  0
LINE
  8
0
  6
CONTINUOUS
 62
4
 10
-196.965305558452370
 20
-177.963026116379870
 11
-194.965305558431230
 21
-177.963026116379870
  0
LINE
  8
0
  6
CONTINUOUS
 62
3
 10
-197.965305558452600
 20
-198.350551588467850
 11
-199.965305558452370
 21
-196.697909949344530
  0
LINE
  8
0
  6
CONTINUOUS
 62
3
 10
-195.965305558452370
 20
-199.526337074090750
 11
-197.965305558452600
 21
-198.350551588467850
  0
LINE
  8
0
  6
CONTINUOUS
 62
3
 10
-197.965305558452600
 20
-198.350551588467850
 11
-195.965305558452370
 21
-196.697909949344530
  0
LINE
  8
0
  6
CONTINUOUS
 62
3
 10
-199.965305558452370
 20
-199.526337074090750
 11
-197.965305558452600
 21
-198.350551588467850
  0
POLYLINE
  8
0
  6
CONTINUOUS
 62
3
 66
1
 70
1
  0
VERTEX
  8
0
  6
CONTINUOUS
 62
3
 10
-193.265305558452160
 20
-196.533961520090320
  0
VERTEX
  8
0
  6
CONTINUOUS
 62
3
 10
-193.355614740556970
 20
-195.831004553889950
  0
VERTEX
  8
0
  6
CONTINUOUS
 62
3
 10
-193.623071755649110
 20
-195.155061829677860
  0
VERTEX
  8
0
  6
CONTINUOUS
 62
3
 10
-194.057398380630190
 20
-194.532109447272460
  0
VERTEX
  8
0
  6
CONTINUOUS
 62
3
 10
-194.641903686875370
 20
-193.986087117373870
  0
VERTEX
  8
0
  6
CONTINUOUS
 62
3
 10
-195.354125463260030
 20
-193.537978171907240
  0
VERTEX
  8
0
  6
CONTINUOUS
 62
3
 10
-196.166693426336220
 20
-193.205003186344500
  0
VERTEX
  8
0
  6
CONTINUOUS
 62
3
 10
-197.048381044976340
 20
-192.999958202646240
  0
VERTEX
  8
0
  6
CONTINUOUS
 62
3
 10
-197.965305558452140
 20
-192.930722984545470
  0
VERTEX
  8
0
  6
CONTINUOUS
 62
3
 10
-198.882230071927950
 20
-192.999958202646240
  0
VERTEX
  8
0
  6
CONTINUOUS
 62
3
 10
-199.763917690568060
 20
-193.205003186344500
  0
VERTEX
  8
0
  6
CONTINUOUS
 62
3
 10
-200.576485653644260
 20
-193.537978171907240
  0
VERTEX
  8
0
  6
CONTINUOUS
 62
3
 10
-201.288707430028920
 20
-193.986087117373870
  0
VERTEX
  8
0
  6
CONTINUOUS
 62
3
 10
-201.873212736274100
 20
-194.532109447272460
  0
VERTEX
  8
0
  6
CONTINUOUS
 62
3
 10
-202.307539361255180
 20
-195.155061829677860
  0
VERTEX
  8
0
  6
CONTINUOUS
 62
3
 10
-202.574996376347310
 20
-195.831004553889950
  0
VERTEX
  8
0
  6
CONTINUOUS
 62
3
 10
-202.665305558452130
 20
-196.533961520090320
  0
VERTEX
  8
0
  6
CONTINUOUS
 62
3
 10
-202.574996376347310
 20
-197.236918486290680
  0
VERTEX
  8
0
  6
CONTINUOUS
 62
3
 10
-202.307539361255180
 20
-197.912861210502770
  0
VERTEX
  8
0
  6
CONTINUOUS
 62
3
 10
-201.873212736274100
 20
-198.535813592908170
  0
VERTEX
  8
0
  6
CONTINUOUS
 62
3
 10
-201.288707430028890
 20
-199.081835922806760
  0
VERTEX
  8
0
  6
CONTINUOUS
 62
3
 10
-200.576485653644260
 20
-199.529944868273390
  0
VERTEX
  8
0
  6
CONTINUOUS
 62
3
 10
-199.763917690568060
 20
-199.862919853836130
  0
VERTEX
  8
0
  6
CONTINUOUS
 62
3
 10
-198.882230071927950
 20
-200.067964837534390
  0
VERTEX
  8
0
  6
CONTINUOUS
 62
3
 10
-197.965305558452140
 20
-200.137200055635160
  0
VERTEX
  8
0
  6
CONTINUOUS
 62
3
 10
-197.048381044976340
 20
-200.067964837534390
  0
VERTEX
  8
0
  6
CONTINUOUS
 62
3
 10
-196.166693426336220
 20
-199.862919853836130
  0
VERTEX
  8
0
  6
CONTINUOUS
 62
3
 10
-195.354125463260030
 20
-199.529944868273390
  0
VERTEX
  8
0
  6
CONTINUOUS
 62
3
 10
-194.641903686875390
 20
-199.081835922806760
  0
VERTEX
  8
0
  6
CONTINUOUS
 62
3
 10
-194.057398380630190
 20
-198.535813592908170
  0
VERTEX
  8
0
  6
CONTINUOUS
 62
3
 10
-193.623071755649110
 20
-197.912861210502770
  0
VERTEX
  8
0
  6
CONTINUOUS
 62
3
 10
-193.355614740556970
 20
-197.236918486290680
  0
SEQEND
  8
0
  6
CONTINUOUS
 62
3
  0
ARC
  8
0
  6
CONTINUOUS
 62
3
 10
-189.965305558452370
 20
-190.206630565742780
 40
3.000000000000000
 50
0.000000000000000
 51
90.000000000000000
  0
LINE
  8
0
  6
CONTINUOUS
 62
3
 10
-186.965305558452370
 20
-203.206630565743010
 11
-186.965305558452370
 21
-190.206630565742780
  0
ARC
  8
0
  6
CONTINUOUS
 62
3
 10
-193.965305558452370
 20
-184.206630565742780
 40
3.000000000000000
 50
180.000000000000000
 51
270.000000000000000
  0
LINE
  8
0
  6
CONTINUOUS
 62
3
 10
-189.965305558452370
 20
-187.206630565742780
 11
-193.965305558452370
 21
-187.206630565742780
  0
LINE
  8
0
  6
CONTINUOUS
 62
3
 10
-196.965305558452370
 20
-149.206630565742780
 11
-196.965305558452370
 21
-184.206630565742780
  0
LINE
  8
0
  6
DASHDOT
 62
4
 10
375.904790182459690
 20
-149.206630565742900
 11
457.674751131700760
 21
-149.206630565742900
  0
CIRCLE
  8
0
  6
CONTINUOUS
 62
3
 10
416.112472078880270
 20
-141.706630565742670
 40
40.999999999999943
  0
ARC
  8
0
  6
CONTINUOUS
 62
3
 10
448.112472078881180
 20
-142.942204835351730
 40
85.000000000000000
 50
0.000000000000000
 51
85.577622414022414
  0
LINE
  8
0
  6
DASHDOT
 62
4
 10
287.283480519923610
 20
-141.706630565742670
 11
538.391805534047310
 21
-141.706630565742670
  0
LINE
  8
0
  6
CONTINUOUS
 62
3
 10
533.112472078881180
 20
-261.706633629599310
 11
533.112472078881180
 21
-142.942204835351730
  0
LINE
  8
0
  6
CONTINUOUS
 62
3
 10
501.236056767738770
 20
-141.706630565742670
 11
501.236056767738770
 21
-261.706633629599310
  0
LINE
  8
0
  6
CONTINUOUS
 62
3
 10
527.636056767739320
 20
-141.706630565742670
 11
527.636056767739320
 21
-261.706633629599310
  0
POLYLINE
  8
0
  6
CONTINUOUS
 62
3
 66
1
  0
VERTEX
  8
0
  6
CONTINUOUS
 62
3
 10
527.636056767739550
 20
-141.706630565742670
  0
VERTEX
  8
0
  6
CONTINUOUS
 62
3
 10
527.382422469062130
 20
-137.804824125420110
  0
VERTEX
  8
0
  6
CONTINUOUS
 62
3
 10
526.631266596888510
 20
-134.052961918440870
  0
VERTEX
  8
0
  6
CONTINUOUS
 62
3
 10
525.411455650133120
 20
-130.595225905350620
  0
VERTEX
  8
0
  6
CONTINUOUS
 62
3
 10
523.769866279401870
 20
-127.564494942011720
  0
VERTEX
  8
0
  6
CONTINUOUS
 62
3
 10
521.769583843598300
 20
-125.077238319691770
  0
VERTEX
  8
0
  6
CONTINUOUS
 62
3
 10
519.487478074958630
 20
-123.229039915516950
  0
VERTEX
  8
0
  6
CONTINUOUS
 62
3
 10
517.011249018352370
 20
-122.090924957678070
  0
VERTEX
  8
0
  6
CONTINUOUS
 62
3
 10
514.436056767739500
 20
-121.706630565742670
  0
VERTEX
  8
0
  6
CONTINUOUS
 62
3
 10
511.860864517126630
 20
-122.090924957678070
  0
VERTEX
  8
0
  6
CONTINUOUS
 62
3
 10
509.384635460520310
 20
-123.229039915516950
  0
VERTEX
  8
0
  6
CONTINUOUS
 62
3
 10
507.102529691880760
 20
-125.077238319691770
  0
VERTEX
  8
0
  6
CONTINUOUS
 62
3
 10
505.102247256077080
 20
-127.564494942011730
  0
VERTEX
  8
0
  6
CONTINUOUS
 62
3
 10
503.460657885345940
 20
-130.595225905350620
  0
VERTEX
  8
0
  6
CONTINUOUS
 62
3
 10
502.240846938590550
 20
-134.052961918440870
  0
VERTEX
  8
0
  6
CONTINUOUS
 62
3
 10
501.489691066416870
 20
-137.804824125420110
  0
VERTEX
  8
0
  6
CONTINUOUS
 62
3
 10
501.236056767739510
 20
-141.706630565742670
  0
SEQEND
  8
0
  6
CONTINUOUS
 62
3
  0
LINE
  8
0
  6
CONTINUOUS
 62
3
 10
468.025861488549710
 20
-141.706630565742670
 11
483.612472078880270
 21
-141.706630565742670
  0
ARC
  8
0
  6
CONTINUOUS
 62
3
 10
416.112472078880270
 20
-556.706630565742670
 40
462.518012424385230
 50
85.577622414021917
 51
90.000000000000000
  0
ARC
  8
0
  6
CONTINUOUS
 62
3
 10
448.112472078881180
 20
-142.942204835351730
 40
47.518012424385233
 50
0.000000000000000
 51
85.577622414022514
  0
LINE
  8
0
  6
CONTINUOUS
 62
3
 10
495.630484503266420
 20
-261.706633629599310
 11
495.630484503266420
 21
-141.706630565742670
  0
ARC
  8
0
  6
CONTINUOUS
 62
3
 10
416.112472078880270
 20
-141.706630565742670
 40
49.000000000000000
 50
270.000000000000000
 51
356.692637820329420
  0
LINE
  8
0
  6
CONTINUOUS
 62
3
 10
487.612472078880270
 20
-249.006633629599490
 11
487.612472078880270
 21
-145.706630565742670
  0
ARC
  8
0
  6
CONTINUOUS
 62
3
 10
483.612472078880270
 20
-145.706630565742670
 40
4.000000000000000
 50
0.000000000000000
 51
90.000000000000000
  0
ARC
  8
0
  6
CONTINUOUS
 62
3
 10
468.025861488549710
 20
-144.706630565742670
 40
3.000000000000000
 50
90.000000000000000
 51
176.692637820325420
  0
LINE
  8
0
  6
CONTINUOUS
 62
3
 10
-46.465299507227883
 20
97.293369434257215
 11
-46.465299507227883
 21
150.793369434257220
  0
LINE
  8
0
  6
CONTINUOUS
 62
3
 10
-46.465299507227883
 20
204.293369434257220
 11
-46.465299507227883
 21
150.793369434257220
  0
LINE
  8
0
  6
CONTINUOUS
 62
3
 10
-46.465299507227883
 20
97.293369434257215
 11
-119.965299507227650
 21
97.293369434257215
  0
LINE
  8
0
  6
CONTINUOUS
 62
3
 10
-46.465299507227883
 20
204.293369434257220
 11
-186.965299507248800
 21
204.293369434257220
  0
LINE
  8
0
  6
CONTINUOUS
 62
4
 10
-186.965299507248800
 20
201.793369434257220
 11
-46.465299507227883
 21
201.793369434257220
  0
LINE
  8
0
  6
CONTINUOUS
 62
4
 10
-186.965299507248800
 20
201.293369434257220
 11
-46.465299507227883
 21
201.293369434257220
  0
LINE
  8
0
  6
CONTINUOUS
 62
4
 10
-186.965299507248800
 20
196.926452029139800
 11
-46.465299507227883
 21
196.926452029139800
  0
LINE
  8
0
  6
CONTINUOUS
 62
4
 10
-186.965299507248800
 20
191.835283204596980
 11
-46.465299507227883
 21
191.835283204596980
  0
LINE
  8
0
  6
CONTINUOUS
 62
4
 10
-186.965299507248800
 20
184.096970385765990
 11
-46.465299507227883
 21
184.096970385765990
  0
LINE
  8
0
  6
CONTINUOUS
 62
4
 10
-186.965299507248800
 20
182.507760593027230
 11
-46.465299507227883
 21
182.507760593027230
  0
LINE
  8
0
  6
CONTINUOUS
 62
4
 10
-186.965299507248800
 20
179.549764984894300
 11
-46.465299507227883
 21
179.549764984894300
  0
LINE
  8
0
  6
CONTINUOUS
 62
4
 10
-186.965299507248800
 20
178.070741831417190
 11
-46.465299507227883
 21
178.070741831417190
  0
LINE
  8
0
  6
CONTINUOUS
 62
4
 10
-186.965299507248800
 20
174.978010839751850
 11
-46.465299507227883
 21
174.978010839751850
  0
LINE
  8
0
  6
CONTINUOUS
 62
4
 10
-186.965299507248800
 20
173.631609114253370
 11
-46.465299507227883
 21
173.631609114253370
  0
LINE
  8
0
  6
CONTINUOUS
 62
4
 10
-186.965299507248800
 20
170.421404090894950
 11
-46.465299507227883
 21
170.421404090894950
  0
LINE
  8
0
  6
CONTINUOUS
 62
4
 10
-186.965299507248800
 20
169.179484226007050
 11
-46.465299507227883
 21
169.179484226007050
  0
LINE
  8
0
  6
CONTINUOUS
 62
4
 10
-186.965299507248800
 20
164.793369434257220
 11
-46.465299507227883
 21
164.793369434257220
  0
LINE
  8
0
  6
CONTINUOUS
 62
4
 10
-186.965299507248570
 20
136.793369434257220
 11
-46.465299507227883
 21
136.793369434257220
  0
LINE
  8
0
  6
CONTINUOUS
 62
4
 10
-186.965299507248570
 20
132.407254642507160
 11
-46.465299507227883
 21
132.407254642507160
  0
LINE
  8
0
  6
CONTINUOUS
 62
4
 10
-186.965299507248570
 20
131.165334777619250
 11
-46.465299507227883
 21
131.165334777619250
  0
LINE
  8
0
  6
CONTINUOUS
 62
4
 10
-186.965299507248570
 20
127.955129754261060
 11
-46.465299507227883
 21
127.955129754261060
  0
LINE
  8
0
  6
CONTINUOUS
 62
4
 10
-186.965299507248570
 20
126.608728028762350
 11
-46.465299507227883
 21
126.608728028762350
  0
LINE
  8
0
  6
CONTINUOUS
 62
4
 10
-186.965299507248570
 20
123.515997037097230
 11
-46.465299507227883
 21
123.515997037097230
  0
LINE
  8
0
  6
CONTINUOUS
 62
4
 10
-186.965299507248570
 20
122.036973883620130
 11
-46.465299507227883
 21
122.036973883620130
  0
LINE
  8
0
  6
CONTINUOUS
 62
4
 10
-186.965299507248570
 20
117.489768482748440
 11
-46.465299507227883
 21
117.489768482748440
  0
LINE
  8
0
  6
CONTINUOUS
 62
4
 10
-186.965299507248570
 20
119.078978275487200
 11
-46.465299507227883
 21
119.078978275487200
  0
LINE
  8
0
  6
CONTINUOUS
 62
4
 10
-186.965299507248570
 20
109.751455663917450
 11
-46.465299507227883
 21
109.751455663917450
  0
LINE
  8
0
  6
CONTINUOUS
 62
4
 10
-186.965299507248570
 20
104.660286839374400
 11
-46.465299507227883
 21
104.660286839374630
  0
LINE
  8
0
  6
CONTINUOUS
 62
4
 10
-186.965299507248570
 20
100.293369434257210
 11
-46.465299507227883
 21
100.293369434257210
  0
LINE
  8
0
  6
CONTINUOUS
 62
4
 10
-186.965299507248570
 20
99.793369434257215
 11
-46.465299507227883
 21
99.793369434257215
  0
LINE
  8
0
  6
CONTINUOUS
 62
3
 10
-236.965299507249260
 20
198.636989567886420
 11
-236.965299507249030
 21
150.793369434257220
  0
LINE
  8
0
  6
CONTINUOUS
 62
3
 10
-228.285819045173180
 20
206.067901546610410
 11
-235.856598241761960
 21
200.766784883037760
  0
ARC
  8
0
  6
CONTINUOUS
 62
3
 10
-234.365299507249120
 20
198.636989567886420
 40
2.600000000000224
 50
124.999999999999730
 51
180.000000000000000
  0
ARC
  8
0
  6
CONTINUOUS
 62
3
 10
-216.470144456341810
 20
189.193369434257080
 40
20.600000000000136
 50
90.000000000000000
 51
124.999999999999400
  0
LINE
  8
0
  6
CONTINUOUS
 62
3
 10
-236.965299507249260
 20
102.949749300627780
 11
-236.965299507249260
 21
150.793369434257220
  0
LINE
  8
0
  6
CONTINUOUS
 62
3
 10
-228.285819045173180
 20
95.518837321904016
 11
-235.856598241761960
 21
100.819953985476440
  0
ARC
  8
0
  6
CONTINUOUS
 62
3
 10
-234.365299507249120
 20
102.949749300627780
 40
2.600000000000136
 50
180.000000000000000
 51
234.999999999997390
  0
ARC
  8
0
  6
CONTINUOUS
 62
3
 10
-216.470144456341810
 20
112.393369434257120
 40
20.599999999999795
 50
235.000000000000260
 51
270.000000000000000
  0
LINE
  8
0
  6
CONTINUOUS
 62
3
 10
-186.965299507249030
 20
209.793369434257220
 11
-216.470144456341810
 21
209.793369434257220
  0
LINE
  8
0
  6
CONTINUOUS
 62
3
 10
-196.965299507249030
 20
91.793369434257215
 11
-216.470144456341810
 21
91.793369434257215
  0
LINE
  8
0
  6
CONTINUOUS
 62
3
 10
-194.965299507227660
 20
93.293369434257215
 11
-194.965299507227660
 21
96.282100198201874
  0
LINE
  8
0
  6
CONTINUOUS
 62
3
 10
-119.965299507227650
 20
98.293369434257215
 11
-187.198768201646320
 21
98.293369434257215
  0
LINE
  8
0
  6
CONTINUOUS
 62
3
 10
-197.965299507249030
 20
199.937290456982400
 11
-199.965299507249030
 21
198.284648817858970
  0
LINE
  8
0
  6
CONTINUOUS
 62
3
 10
-195.965299507249030
 20
201.113075942605180
 11
-197.965299507249030
 21
199.937290456982400
  0
LINE
  8
0
  6
CONTINUOUS
 62
3
 10
-197.965299507249030
 20
199.937290456982400
 11
-195.965299507249030
 21
198.284648817858970
  0
LINE
  8
0
  6
CONTINUOUS
 62
3
 10
-199.965299507249030
 20
201.113075942605180
 11
-197.965299507249030
 21
199.937290456982400
  0
POLYLINE
  8
0
  6
CONTINUOUS
 62
3
 66
1
 70
1
  0
VERTEX
  8
0
  6
CONTINUOUS
 62
3
 10
-193.265299507248810
 20
198.120700388604630
  0
VERTEX
  8
0
  6
CONTINUOUS
 62
3
 10
-193.355608689353630
 20
198.823657354804990
  0
VERTEX
  8
0
  6
CONTINUOUS
 62
3
 10
-193.623065704445760
 20
199.499600079017090
  0
VERTEX
  8
0
  6
CONTINUOUS
 62
3
 10
-194.057392329426850
 20
200.122552461422490
  0
VERTEX
  8
0
  6
CONTINUOUS
 62
3
 10
-194.641897635672020
 20
200.668574791321080
  0
VERTEX
  8
0
  6
CONTINUOUS
 62
3
 10
-195.354119412056690
 20
201.116683736787710
  0
VERTEX
  8
0
  6
CONTINUOUS
 62
3
 10
-196.166687375132880
 20
201.449658722350450
  0
VERTEX
  8
0
  6
CONTINUOUS
 62
3
 10
-197.048374993773000
 20
201.654703706048710
  0
VERTEX
  8
0
  6
CONTINUOUS
 62
3
 10
-197.965299507248800
 20
201.723938924149480
  0
VERTEX
  8
0
  6
CONTINUOUS
 62
3
 10
-198.882224020724610
 20
201.654703706048710
  0
VERTEX
  8
0
  6
CONTINUOUS
 62
3
 10
-199.763911639364720
 20
201.449658722350450
  0
VERTEX
  8
0
  6
CONTINUOUS
 62
3
 10
-200.576479602440910
 20
201.116683736787710
  0
VERTEX
  8
0
  6
CONTINUOUS
 62
3
 10
-201.288701378825580
 20
200.668574791321080
  0
VERTEX
  8
0
  6
CONTINUOUS
 62
3
 10
-201.873206685070760
 20
200.122552461422490
  0
VERTEX
  8
0
  6
CONTINUOUS
 62
3
 10
-202.307533310051840
 20
199.499600079017090
  0
VERTEX
  8
0
  6
CONTINUOUS
 62
3
 10
-202.574990325143970
 20
198.823657354804990
  0
VERTEX
  8
0
  6
CONTINUOUS
 62
3
 10
-202.665299507248790
 20
198.120700388604630
  0
VERTEX
  8
0
  6
CONTINUOUS
 62
3
 10
-202.574990325143970
 20
197.417743422404270
  0
VERTEX
  8
0
  6
CONTINUOUS
 62
3
 10
-202.307533310051840
 20
196.741800698192180
  0
VERTEX
  8
0
  6
CONTINUOUS
 62
3
 10
-201.873206685070760
 20
196.118848315786780
  0
VERTEX
  8
0
  6
CONTINUOUS
 62
3
 10
-201.288701378825550
 20
195.572825985888190
  0
VERTEX
  8
0
  6
CONTINUOUS
 62
3
 10
-200.576479602440910
 20
195.124717040421560
  0
VERTEX
  8
0
  6
CONTINUOUS
 62
3
 10
-199.763911639364720
 20
194.791742054858820
  0
VERTEX
  8
0
  6
CONTINUOUS
 62
3
 10
-198.882224020724610
 20
194.586697071160560
  0
VERTEX
  8
0
  6
CONTINUOUS
 62
3
 10
-197.965299507248800
 20
194.517461853059790
  0
VERTEX
  8
0
  6
CONTINUOUS
 62
3
 10
-197.048374993773000
 20
194.586697071160560
  0
VERTEX
  8
0
  6
CONTINUOUS
 62
3
 10
-196.166687375132880
 20
194.791742054858820
  0
VERTEX
  8
0
  6
CONTINUOUS
 62
3
 10
-195.354119412056690
 20
195.124717040421560
  0
VERTEX
  8
0
  6
CONTINUOUS
 62
3
 10
-194.641897635672050
 20
195.572825985888190
  0
VERTEX
  8
0
  6
CONTINUOUS
 62
3
 10
-194.057392329426850
 20
196.118848315786780
  0
VERTEX
  8
0
  6
CONTINUOUS
 62
3
 10
-193.623065704445760
 20
196.741800698192180
  0
VERTEX
  8
0
  6
CONTINUOUS
 62
3
 10
-193.355608689353630
 20
197.417743422404270
  0
SEQEND
  8
0
  6
CONTINUOUS
 62
3
  0
LINE
  8
0
  6
CONTINUOUS
 62
3
 10
-186.965299507249030
 20
209.793369434257220
 11
-186.965299507248800
 21
150.793369434257220
  0
LINE
  8
0
  6
CONTINUOUS
 62
3
 10
-196.965299507249030
 20
91.793369434257215
 11
-196.965299507249030
 21
93.453673073448158
  0
ARC
  8
0
  6
CONTINUOUS
 62
3
 10
-193.965299507249030
 20
93.453673073448158
 40
3.000000000000000
 50
90.000000000000000
 51
180.000000000000000
  0
LINE
  8
0
  6
CONTINUOUS
 62
3
 10
-197.965299507249030
 20
101.649448411532030
 11
-199.965299507249030
 21
103.302090050655460
  0
LINE
  8
0
  6
CONTINUOUS
 62
3
 10
-195.965299507249030
 20
100.473662925909250
 11
-197.965299507249030
 21
101.649448411532030
  0
LINE
  8
0
  6
CONTINUOUS
 62
3
 10
-197.965299507249030
 20
101.649448411532030
 11
-195.965299507249030
 21
103.302090050655460
  0
LINE
  8
0
  6
CONTINUOUS
 62
3
 10
-199.965299507249030
 20
100.473662925909250
 11
-197.965299507249030
 21
101.649448411532030
  0
POLYLINE
  8
0
  6
CONTINUOUS
 62
3
 66
1
 70
1
  0
VERTEX
  8
0
  6
CONTINUOUS
 62
3
 10
-193.265299507248810
 20
103.466038479909570
  0
VERTEX
  8
0
  6
CONTINUOUS
 62
3
 10
-193.355608689353630
 20
104.168995446109930
  0
VERTEX
  8
0
  6
CONTINUOUS
 62
3
 10
-193.623065704445760
 20
104.844938170322020
  0
VERTEX
  8
0
  6
CONTINUOUS
 62
3
 10
-194.057392329426850
 20
105.467890552727420
  0
VERTEX
  8
0
  6
CONTINUOUS
 62
3
 10
-194.641897635672020
 20
106.013912882626000
  0
VERTEX
  8
0
  6
CONTINUOUS
 62
3
 10
-195.354119412056690
 20
106.462021828092610
  0
VERTEX
  8
0
  6
CONTINUOUS
 62
3
 10
-196.166687375132880
 20
106.794996813655380
  0
VERTEX
  8
0
  6
CONTINUOUS
 62
3
 10
-197.048374993773000
 20
107.000041797353630
  0
VERTEX
  8
0
  6
CONTINUOUS
 62
3
 10
-197.965299507248800
 20
107.069277015454400
  0
VERTEX
  8
0
  6
CONTINUOUS
 62
3
 10
-198.882224020724610
 20
107.000041797353630
  0
VERTEX
  8
0
  6
CONTINUOUS
 62
3
 10
-199.763911639364720
 20
106.794996813655380
  0
VERTEX
  8
0
  6
CONTINUOUS
 62
3
 10
-200.576479602440910
 20
106.462021828092610
  0
VERTEX
  8
0
  6
CONTINUOUS
 62
3
 10
-201.288701378825580
 20
106.013912882626000
  0
VERTEX
  8
0
  6
CONTINUOUS
 62
3
 10
-201.873206685070760
 20
105.467890552727420
  0
VERTEX
  8
0
  6
CONTINUOUS
 62
3
 10
-202.307533310051840
 20
104.844938170322020
  0
VERTEX
  8
0
  6
CONTINUOUS
 62
3
 10
-202.574990325143970
 20
104.168995446109930
  0
VERTEX
  8
0
  6
CONTINUOUS
 62
3
 10
-202.665299507248790
 20
103.466038479909570
  0
VERTEX
  8
0
  6
CONTINUOUS
 62
3
 10
-202.574990325143970
 20
102.763081513709210
  0
VERTEX
  8
0
  6
CONTINUOUS
 62
3
 10
-202.307533310051840
 20
102.087138789497110
  0
VERTEX
  8
0
  6
CONTINUOUS
 62
3
 10
-201.873206685070760
 20
101.464186407091710
  0
VERTEX
  8
0
  6
CONTINUOUS
 62
3
 10
-201.288701378825550
 20
100.918164077193140
  0
VERTEX
  8
0
  6
CONTINUOUS
 62
3
 10
-200.576479602440910
 20
100.470055131726520
  0
VERTEX
  8
0
  6
CONTINUOUS
 62
3
 10
-199.763911639364720
 20
100.137080146163750
  0
VERTEX
  8
0
  6
CONTINUOUS
 62
3
 10
-198.882224020724610
 20
99.932035162465510
  0
VERTEX
  8
0
  6
CONTINUOUS
 62
3
 10
-197.965299507248800
 20
99.862799944364738
  0
VERTEX
  8
0
  6
CONTINUOUS
 62
3
 10
-197.048374993773000
 20
99.932035162465510
  0
VERTEX
  8
0
  6
CONTINUOUS
 62
3
 10
-196.166687375132880
 20
100.137080146163750
  0
VERTEX
  8
0
  6
CONTINUOUS
 62
3
 10
-195.354119412056690
 20
100.470055131726520
  0
VERTEX
  8
0
  6
CONTINUOUS
 62
3
 10
-194.641897635672050
 20
100.918164077193140
  0
VERTEX
  8
0
  6
CONTINUOUS
 62
3
 10
-194.057392329426850
 20
101.464186407091710
  0
VERTEX
  8
0
  6
CONTINUOUS
 62
3
 10
-193.623065704445760
 20
102.087138789497110
  0
VERTEX
  8
0
  6
CONTINUOUS
 62
3
 10
-193.355608689353630
 20
102.763081513709210
  0
SEQEND
  8
0
  6
CONTINUOUS
 62
3
  0
LINE
  8
0
  6
CONTINUOUS
 62
3
 10
-193.965299507249030
 20
96.453673073448158
 11
-189.965299507249030
 21
96.453673073448158
  0
ARC
  8
0
  6
CONTINUOUS
 62
3
 10
-189.965299507249030
 20
99.453673073448158
 40
3.000000000000000
 50
270.000000000000000
 51
0.000000000000000
  0
LINE
  8
0
  6
CONTINUOUS
 62
3
 10
-186.965299507249030
 20
99.453673073448158
 11
-186.965299507248800
 21
150.793369434257220
  0
LINE
  8
0
  6
CONTINUOUS
 62
3
 10
-121.965299507227650
 20
63.793369434257158
 11
-192.965299507227660
 21
63.793369434257158
  0
LINE
  8
0
  6
CONTINUOUS
 62
3
 10
-135.965299507227660
 20
63.293369434257158
 11
-135.965299507227660
 21
63.793369434257158
  0
LINE
  8
0
  6
CONTINUOUS
 62
3
 10
-135.965299507227660
 20
63.293369434257158
 11
-127.965299507227650
 21
63.293369434257158
  0
LINE
  8
0
  6
CONTINUOUS
 62
3
 10
-127.965299507227650
 20
63.293369434257158
 11
-127.965299507227650
 21
63.793369434257158
  0
ARC
  8
0
  6
CONTINUOUS
 62
3
 10
-121.965299507227650
 20
64.793369434257158
 40
1.000000000000000
 50
270.000000000000000
 51
0.000000000000000
  0
ARC
  8
0
  6
CONTINUOUS
 62
3
 10
-192.965299507227660
 20
64.793369434257158
 40
1.000000000000000
 50
180.000000000000000
 51
270.000000000000000
  0
LINE
  8
0
  6
CONTINUOUS
 62
3
 10
-193.965299507227660
 20
64.793369434257158
 11
-193.965299507227660
 21
93.293369434257215
  0
LINE
  8
0
  6
CONTINUOUS
 62
3
 10
-120.965299507227650
 20
64.793369434257158
 11
-120.965299507227650
 21
93.293369434257215
  0
LINE
  8
0
  6
CONTINUOUS
 62
3
 10
-119.965299507227650
 20
93.293369434257215
 11
-119.965299507227650
 21
98.293369434257215
  0
LINE
  8
0
  6
CONTINUOUS
 62
3
 10
-194.965299507227660
 20
93.293369434257215
 11
-119.965299507227650
 21
93.293369434257215
  0
LINE
  8
0
  6
CONTINUOUS
 62
3
 10
-72.965299507227883
 20
227.954394493944050
 11
-175.965299507227880
 21
227.954394493944050
  0
ARC
  8
0
  6
CONTINUOUS
 62
3
 10
-67.465299507227883
 20
232.954394493944050
 40
5.000000000000072
 50
287.457603123721870
 51
0.000000000000000
  0
ARC
  8
0
  6
CONTINUOUS
 62
3
 10
-67.265299507228065
 20
228.630940619686380
 40
1.300000000000182
 50
0.000000000000000
 51
73.398450400977637
  0
ARC
  8
0
  6
CONTINUOUS
 62
3
 10
-69.465299507227883
 20
221.251916293936920
 40
9.000000000000123
 50
73.398450400980877
 51
106.601549599019120
  0
ARC
  8
0
  6
CONTINUOUS
 62
3
 10
-71.665299507227701
 20
228.630940619686380
 40
1.300000000000019
 50
106.601549599022360
 51
180.000000000000000
  0
LINE
  8
0
  6
CONTINUOUS
 62
3
 10
-65.965299507227883
 20
228.630940619686380
 11
-65.965299507227883
 21
227.643930881762000
  0
POLYLINE
  8
0
  6
CONTINUOUS
 62
3
 66
1
  0
VERTEX
  8
0
  6
CONTINUOUS
 62
3
 10
-72.965299507227883
 20
227.643930881762000
  0
VERTEX
  8
0
  6
CONTINUOUS
 62
3
 10
-72.898047988639192
 20
227.609832671566010
  0
VERTEX
  8
0
  6
CONTINUOUS
 62
3
 10
-72.698877871017388
 20
227.577044836465380
  0
VERTEX
  8
0
  6
CONTINUOUS
 62
3
 10
-72.375443150286785
 20
227.546827394575360
  0
VERTEX
  8
0
  6
CONTINUOUS
 62
3
 10
-71.940173241380805
 20
227.520341585241650
  0
VERTEX
  8
0
  6
CONTINUOUS
 62
3
 10
-71.409795322796498
 20
227.498605243263570
  0
VERTEX
  8
0
  6
CONTINUOUS
 62
3
 10
-70.804691520505699
 20
227.482453684073390
  0
VERTEX
  8
0
  6
CONTINUOUS
 62
3
 10
-70.148115634284338
 20
227.472507603032940
  0
VERTEX
  8
0
  6
CONTINUOUS
 62
3
 10
-69.465299507227883
 20
227.469149222458780
  0
VERTEX
  8
0
  6
CONTINUOUS
 62
3
 10
-68.782483380171442
 20
227.472507603032940
  0
VERTEX
  8
0
  6
CONTINUOUS
 62
3
 10
-68.125907493950066
 20
227.482453684073390
  0
VERTEX
  8
0
  6
CONTINUOUS
 62
3
 10
-67.520803691659282
 20
227.498605243263570
  0
VERTEX
  8
0
  6
CONTINUOUS
 62
3
 10
-66.990425773074975
 20
227.520341585241650
  0
VERTEX
  8
0
  6
CONTINUOUS
 62
3
 10
-66.555155864168981
 20
227.546827394575360
  0
VERTEX
  8
0
  6
CONTINUOUS
 62
3
 10
-66.231721143438378
 20
227.577044836465380
  0
VERTEX
  8
0
  6
CONTINUOUS
 62
3
 10
-66.032551025816574
 20
227.609832671566010
  0
VERTEX
  8
0
  6
CONTINUOUS
 62
3
 10
-65.965299507227883
 20
227.643930881762000
  0
SEQEND
  8
0
  6
CONTINUOUS
 62
3
  0
LINE
  8
0
  6
CONTINUOUS
 62
3
 10
-72.965299507227883
 20
228.630940619686380
 11
-72.965299507227883
 21
227.643930881762000
  0
LINE
  8
0
  6
CONTINUOUS
 62
3
 10
-186.465299507227880
 20
204.293369434257220
 11
-186.465299507227880
 21
209.293369434257220
  0
LINE
  8
0
  6
DASHDOT
 62
3
 10
-62.465299507227883
 20
204.293369434257220
 11
-62.465299507227883
 21
209.293369434257220
  0
LINE
  8
0
  6
DASHDOT
 62
3
 10
-62.465299507227883
 20
204.293369434257220
 11
-62.465299507227883
 21
209.293369434257220
  0
LINE
  8
0
  6
CONTINUOUS
 62
3
 10
-186.465299507227880
 20
209.293369434257220
 11
-62.465299507227883
 21
209.293369434257220
  0
ARC
  8
0
  6
CONTINUOUS
 62
3
 10
-181.465299507227880
 20
232.954394493944050
 40
5.000000000000000
 50
180.000000000000000
 51
252.542396876278160
  0
LINE
  8
0
  6
CONTINUOUS
 62
3
 10
-182.965299507227880
 20
228.630940619686380
 11
-182.965299507227880
 21
227.643930881762000
  0
LINE
  8
0
  6
CONTINUOUS
 62
3
 10
-175.965299507227880
 20
228.630940619686380
 11
-175.965299507227880
 21
227.643930881762000
  0
ARC
  8
0
  6
CONTINUOUS
 62
3
 10
-181.665299507227700
 20
228.630940619686380
 40
1.300000000000019
 50
106.601549599022360
 51
180.000000000000000
  0
ARC
  8
0
  6
CONTINUOUS
 62
3
 10
-179.465299507227880
 20
221.251916293936920
 40
9.000000000000123
 50
73.398450400980877
 51
106.601549599019120
  0
ARC
  8
0
  6
CONTINUOUS
 62
3
 10
-177.265299507228060
 20
228.630940619686380
 40
1.300000000000182
 50
0.000000000000000
 51
73.398450400977637
  0
POLYLINE
  8
0
  6
CONTINUOUS
 62
3
 66
1
  0
VERTEX
  8
0
  6
CONTINUOUS
 62
3
 10
-182.965299507227880
 20
227.643930881762000
  0
VERTEX
  8
0
  6
CONTINUOUS
 62
3
 10
-182.898047988639180
 20
227.609832671566010
  0
VERTEX
  8
0
  6
CONTINUOUS
 62
3
 10
-182.698877871017370
 20
227.577044836465380
  0
VERTEX
  8
0
  6
CONTINUOUS
 62
3
 10
-182.375443150286800
 20
227.546827394575360
  0
VERTEX
  8
0
  6
CONTINUOUS
 62
3
 10
-181.940173241380790
 20
227.520341585241650
  0
VERTEX
  8
0
  6
CONTINUOUS
 62
3
 10
-181.409795322796500
 20
227.498605243263570
  0
VERTEX
  8
0
  6
CONTINUOUS
 62
3
 10
-180.804691520505680
 20
227.482453684073390
  0
VERTEX
  8
0
  6
CONTINUOUS
 62
3
 10
-180.148115634284320
 20
227.472507603032940
  0
VERTEX
  8
0
  6
CONTINUOUS
 62
3
 10
-179.465299507227880
 20
227.469149222458780
  0
VERTEX
  8
0
  6
CONTINUOUS
 62
3
 10
-178.782483380171440
 20
227.472507603032940
  0
VERTEX
  8
0
  6
CONTINUOUS
 62
3
 10
-178.125907493950080
 20
227.482453684073390
  0
VERTEX
  8
0
  6
CONTINUOUS
 62
3
 10
-177.520803691659270
 20
227.498605243263570
  0
VERTEX
  8
0
  6
CONTINUOUS
 62
3
 10
-176.990425773074970
 20
227.520341585241650
  0
VERTEX
  8
0
  6
CONTINUOUS
 62
3
 10
-176.555155864168970
 20
227.546827394575360
  0
VERTEX
  8
0
  6
CONTINUOUS
 62
3
 10
-176.231721143438390
 20
227.577044836465380
  0
VERTEX
  8
0
  6
CONTINUOUS
 62
3
 10
-176.032551025816590
 20
227.609832671566010
  0
VERTEX
  8
0
  6
CONTINUOUS
 62
3
 10
-175.965299507227880
 20
227.643930881762000
  0
SEQEND
  8
0
  6
CONTINUOUS
 62
3
  0
LINE
  8
0
  6
CONTINUOUS
 62
3
 10
-62.465299507227883
 20
232.954394493944050
 11
-62.465299507227883
 21
245.893369434257120
  0
ARC
  8
0
  6
CONTINUOUS
 62
3
 10
-67.465299507227883
 20
214.293369434257220
 40
5.000000000000000
 50
270.000000000000000
 51
0.000000000000000
  0
LINE
  8
0
  6
CONTINUOUS
 62
3
 10
-186.465299507227880
 20
232.954394493944050
 11
-186.465299507227880
 21
245.893369434257120
  0
LINE
  8
0
  6
CONTINUOUS
 62
3
 10
-186.465299507227880
 20
232.487879725319430
 11
-187.465299507227880
 21
232.487879725319430
  0
LINE
  8
0
  6
CONTINUOUS
 62
3
 10
-61.465299507227883
 20
227.394242797042240
 11
-187.465299507227880
 21
227.394242797042240
  0
ARC
  8
0
  6
CONTINUOUS
 62
3
 10
-181.465299507227880
 20
214.293369434257220
 40
5.000000000000000
 50
180.000000000000000
 51
270.000000000000000
  0
ARC
  8
0
  6
CONTINUOUS
 62
3
 10
-181.465299507227880
 20
245.893369434257120
 40
5.000000000000000
 50
90.000000000000000
 51
180.000000000000000
  0
ARC
  8
0
  6
CONTINUOUS
 62
3
 10
-187.465299507227880
 20
230.487879725319430
 40
2.000000000000000
 50
90.000000000000000
 51
180.000000000000000
  0
ARC
  8
0
  6
CONTINUOUS
 62
3
 10
-187.465299507227880
 20
229.394242797042240
 40
2.000000000000000
 50
180.000000000000000
 51
270.000000000000000
  0
ARC
  8
0
  6
CONTINUOUS
 62
3
 10
-187.465299507227880
 20
228.595240925957000
 40
2.000000000000000
 50
180.000000000000000
 51
270.000000000000000
  0
LINE
  8
0
  6
CONTINUOUS
 62
3
 10
-189.465299507227880
 20
230.487879725319430
 11
-189.465299507227880
 21
227.796239054838110
  0
ARC
  8
0
  6
CONTINUOUS
 62
3
 10
-187.465299507227880
 20
227.796239054838110
 40
2.000000000000000
 50
180.000000000000000
 51
270.000000000000000
  0
LINE
  8
0
  6
CONTINUOUS
 62
3
 10
-186.465299507227880
 20
214.293369434257220
 11
-186.465299507227880
 21
225.796239054838110
  0
ARC
  8
0
  6
CONTINUOUS
 62
3
 10
-67.465299507227883
 20
245.893369434257120
 40
5.000000000000000
 50
0.000000000000000
 51
90.000000000000000
  0
LINE
  8
0
  6
CONTINUOUS
 62
3
 10
-181.465299507227880
 20
250.893369434257120
 11
-67.465299507227883
 21
250.893369434257120
  0
LINE
  8
0
  6
CONTINUOUS
 62
3
 10
-62.465299507227883
 20
214.293369434257220
 11
-62.465299507227883
 21
225.595240925957000
  0
LINE
  8
0
  6
CONTINUOUS
 62
3
 10
-59.465299507227883
 20
230.487879725319430
 11
-59.465299507227883
 21
227.796239054838110
  0
LINE
  8
0
  6
CONTINUOUS
 62
3
 10
-61.465299507227883
 20
226.595240925940170
 11
-187.465299507227880
 21
226.595240925940170
  0
LINE
  8
0
  6
CONTINUOUS
 62
3
 10
-61.465299507227883
 20
225.796239054838110
 11
-187.465299507227880
 21
225.796239054838110
  0
LINE
  8
0
  6
CONTINUOUS
 62
3
 10
-62.465299507227883
 20
232.487879725319430
 11
-61.465299507227883
 21
232.487879725319430
  0
ARC
  8
0
  6
CONTINUOUS
 62
3
 10
-61.465299507227883
 20
230.487879725319430
 40
2.000000000000000
 50
0.000000000000000
 51
90.000000000000000
  0
ARC
  8
0
  6
CONTINUOUS
 62
3
 10
-61.465299507227883
 20
229.394242797042240
 40
2.000000000000000
 50
270.000000000000000
 51
0.000000000000000
  0
ARC
  8
0
  6
CONTINUOUS
 62
3
 10
-61.465299507227883
 20
228.595240925957000
 40
2.000000000000000
 50
270.000000000000000
 51
0.000000000000000
  0
ARC
  8
0
  6
CONTINUOUS
 62
3
 10
-61.465299507227883
 20
227.796239054838110
 40
2.000000000000000
 50
270.000000000000000
 51
0.000000000000000
  0
ARC
  8
0
  6
CONTINUOUS
 62
4
 10
-367.011517390668130
 20
-121.142873934727040
 40
10.797000000000011
 50
5.752282731536912
 51
44.999999999998295
  0
ARC
  8
0
  6
CONTINUOUS
 62
3
 10
-367.011517390668130
 20
-121.142873934727040
 40
20.599999999999916
 50
5.752282731536487
 51
44.999999999997321
  0
ARC
  8
0
  6
CONTINUOUS
 62
3
 10
-367.011517390668130
 20
-177.270387196758290
 40
20.600000000000069
 50
315.000000000002670
 51
354.247717268463480
  0
ARC
  8
0
  6
CONTINUOUS
 62
3
 10
-440.991651866960860
 20
-177.270387196758290
 40
20.599999999999916
 50
185.752282731536500
 51
224.999999999997330
  0
ARC
  8
0
  6
CONTINUOUS
 62
3
 10
-440.991651866960860
 20
-121.142873934727040
 40
20.600000000000069
 50
135.000000000002670
 51
174.247717268463500
  0
LINE
  8
0
  6
CONTINUOUS
 62
3
 10
-346.700135568913310
 20
-180.706630565742670
 11
-346.501584628814500
 21
-180.706630565742670
  0
LINE
  8
0
  6
CONTINUOUS
 62
3
 10
-346.700135568913310
 20
-117.706630565742670
 11
-346.501584628814500
 21
-117.706630565742670
  0
LINE
  8
0
  6
CONTINUOUS
 62
3
 10
-346.501584628814500
 20
-119.214131503480530
 11
-346.501584628814500
 21
-117.706630565742670
  0
LINE
  8
0
  6
CONTINUOUS
 62
3
 10
-346.501584628814500
 20
-180.706630565742670
 11
-346.501584628814500
 21
-179.194616420172910
  0
LINE
  8
0
  6
CONTINUOUS
 62
3
 10
-352.445117698224520
 20
-106.576474242284800
 11
-359.903812872895510
 21
-99.117779067613128
  0
LINE
  8
0
  6
CONTINUOUS
 62
3
 10
-352.445117698224520
 20
-191.836786889200540
 11
-359.903812872895510
 21
-199.295482063872210
  0
LINE
  8
0
  6
CONTINUOUS
 62
3
 10
-455.558051559404480
 20
-191.836786889200540
 11
-448.099356384733480
 21
-199.295482063872210
  0
LINE
  8
0
  6
CONTINUOUS
 62
3
 10
-455.558051559404480
 20
-106.576474242284800
 11
-448.099356384733480
 21
-99.117779067613128
  0
ARC
  8
0
  6
CONTINUOUS
 62
3
 10
-400.501584628814500
 20
-131.550186982733070
 40
1.000000000000000
 50
180.000000000000000
 51
258.787728582356010
  0
LINE
  8
0
  6
CONTINUOUS
 62
3
 10
-401.501584628814500
 20
-128.500351324894150
 11
-401.501584628814500
 21
-131.550186982733070
  0
ARC
  8
0
  6
CONTINUOUS
 62
3
 10
-400.501584628814500
 20
-128.500351324894150
 40
1.000000000000268
 50
80.405931773124522
 51
180.000000000000000
  0
ARC
  8
0
  6
CONTINUOUS
 62
3
 10
-400.501584628814500
 20
-122.938779492615360
 40
1.000000000000000
 50
179.999999999986980
 51
262.410457608144040
  0
LINE
  8
0
  6
CONTINUOUS
 62
3
 10
-401.501584628814500
 20
-119.914993533988990
 11
-401.501584628814500
 21
-122.938779492615140
  0
ARC
  8
0
  6
CONTINUOUS
 62
3
 10
-400.501584628814500
 20
-119.914993533988990
 40
1.000000000000077
 50
83.186145655820312
 51
180.000000000000000
  0
ARC
  8
0
  6
CONTINUOUS
 62
3
 10
-400.501584628814500
 20
-114.382070267010930
 40
1.000000000000000
 50
180.000000000000000
 51
264.260829522738280
  0
LINE
  8
0
  6
CONTINUOUS
 62
3
 10
-401.501584628814500
 20
-111.368158080717640
 11
-401.501584628814500
 21
-114.382070267010930
  0
ARC
  8
0
  6
CONTINUOUS
 62
3
 10
-400.501584628814500
 20
-111.368158080717640
 40
1.000000000000042
 50
84.715267045464302
 51
180.000000000000000
  0
ARC
  8
0
  6
CONTINUOUS
 62
3
 10
-380.384282840882630
 20
-131.529723136620310
 40
1.000000000000082
 50
299.999999999997270
 51
36.813854344186687
  0
LINE
  8
0
  6
CONTINUOUS
 62
3
 10
-379.884282840882630
 20
-132.395748540404840
 11
-382.502958296660150
 21
-133.907641519718030
  0
ARC
  8
0
  6
CONTINUOUS
 62
3
 10
-383.002958296660150
 20
-133.041616115933490
 40
0.999999999999834
 50
217.589542391867670
 51
299.999999999997270
  0
ARC
  8
0
  6
CONTINUOUS
 62
3
 10
-372.982506216384310
 20
-127.256305409984630
 40
0.999999999999885
 50
300.000000000003810
 51
35.284732954544943
  0
LINE
  8
0
  6
CONTINUOUS
 62
3
 10
-372.482506216384310
 20
-128.122330813768940
 11
-375.092630734490060
 21
-129.629286906915690
  0
ARC
  8
0
  6
CONTINUOUS
 62
3
 10
-375.592630734490060
 20
-128.763261503131390
 40
0.999999999999940
 50
215.739170477274090
 51
300.000000000003810
  0
ARC
  8
0
  6
CONTINUOUS
 62
3
 10
-398.103055358425310
 20
-141.759661219333110
 40
0.999999999999961
 50
231.618272422159780
 51
299.999999999997270
  0
LINE
  8
0
  6
CONTINUOUS
 62
3
 10
-394.859279783401010
 20
-141.041567056281560
 11
-397.603055358425310
 21
-142.625686623117640
  0
ARC
  8
0
  6
CONTINUOUS
 62
3
 10
-390.460655945441660
 20
-137.347319860992460
 40
0.999999999999673
 50
221.212271417651210
 51
300.000000000003810
  0
LINE
  8
0
  6
CONTINUOUS
 62
3
 10
-387.319420788385510
 20
-136.688427435857190
 11
-389.960655945441660
 21
-138.213345264776760
  0
ARC
  8
0
  6
CONTINUOUS
 62
3
 10
-387.819420788385510
 20
-135.822402032072660
 40
1.000000000000082
 50
299.999999999997270
 51
39.594068226850403
  0
ARC
  8
0
  6
CONTINUOUS
 62
3
 10
-400.501584628814500
 20
-140.374869699414830
 40
1.000000000000000
 50
180.000000000000000
 51
248.381727577838030
  0
ARC
  8
0
  6
CONTINUOUS
 62
3
 10
-404.001584628814500
 20
-149.206630565742670
 40
8.500000000000128
 50
51.618272422158320
 51
68.381727577842284
  0
ARC
  8
0
  6
CONTINUOUS
 62
3
 10
-395.359279783401010
 20
-140.175541652497260
 40
0.999999999999885
 50
300.000000000003810
 51
46.260204708328693
  0
LINE
  8
0
  6
CONTINUOUS
 62
3
 10
-401.501584628814500
 20
-137.206630565742670
 11
-401.501584628814500
 21
-140.374869699414830
  0
ARC
  8
0
  6
CONTINUOUS
 62
3
 10
-400.501584628814500
 20
-137.206630565742670
 40
0.999999999999964
 50
73.739795291702634
 51
180.000000000000000
  0
ARC
  8
0
  6
CONTINUOUS
 62
3
 10
-404.001584628814500
 20
-149.206630565742670
 40
13.499999999999927
 50
46.260204708312145
 51
73.739795291689134
  0
ARC
  8
0
  6
CONTINUOUS
 62
3
 10
-404.001584628814500
 20
-149.206630565742670
 40
17.000000000000114
 50
41.212271417649760
 51
78.787728582349985
  0
ARC
  8
0
  6
CONTINUOUS
 62
3
 10
-404.001584628814500
 20
-149.206630565742670
 40
22.000000000000025
 50
39.594068226860820
 51
80.405931773138789
  0
ARC
  8
0
  6
CONTINUOUS
 62
3
 10
-404.001584628814500
 20
-149.206630565742670
 40
30.499999999999964
 50
36.813854344181067
 51
83.186145655818962
  0
ARC
  8
0
  6
CONTINUOUS
 62
3
 10
-404.001584628814500
 20
-149.206630565742670
 40
25.499999999999890
 50
37.589542391857961
 51
82.410457608141883
  0
ARC
  8
0
  6
CONTINUOUS
 62
3
 10
-404.001584628814500
 20
-149.206630565742670
 40
33.999999999999829
 50
35.739170477266640
 51
84.260829522733076
  0
ARC
  8
0
  6
CONTINUOUS
 62
3
 10
-404.001584628814500
 20
-149.206630565742670
 40
38.999999999999865
 50
35.284732954534789
 51
84.715267045465410
  0
ARC
  8
0
  6
CONTINUOUS
 62
3
 10
-376.884282840882630
 20
-137.591900963111360
 40
0.999999999999730
 50
23.186145655819850
 51
119.999999999997270
  0
LINE
  8
0
  6
CONTINUOUS
 62
3
 10
-377.384282840882630
 20
-136.725875559326820
 11
-380.002958296660150
 21
-138.237768538640010
  0
ARC
  8
0
  6
CONTINUOUS
 62
3
 10
-379.502958296660150
 20
-139.103793942424550
 40
1.000000000000082
 50
119.999999999997270
 51
202.410457608146060
  0
ARC
  8
0
  6
CONTINUOUS
 62
3
 10
-369.482506216384310
 20
-133.318483236475690
 40
1.000000000000248
 50
24.715267045455477
 51
119.999999999997270
  0
LINE
  8
0
  6
CONTINUOUS
 62
3
 10
-369.982506216384310
 20
-132.452457832691150
 11
-372.592630734490060
 21
-133.959413925837910
  0
ARC
  8
0
  6
CONTINUOUS
 62
3
 10
-372.092630734490060
 20
-134.825439329622210
 40
0.999999999999885
 50
120.000000000003780
 51
204.260829522745610
  0
ARC
  8
0
  6
CONTINUOUS
 62
3
 10
-394.603055358425310
 20
-147.821839045824390
 40
1.000000000000082
 50
119.999999999997270
 51
188.381727577832660
  0
LINE
  8
0
  6
CONTINUOUS
 62
3
 10
-392.359279783401010
 20
-145.371694075203780
 11
-395.103055358425310
 21
-146.955813642039860
  0
ARC
  8
0
  6
CONTINUOUS
 62
3
 10
-386.960655945441660
 20
-143.409497687483510
 40
1.000000000000082
 50
119.999999999997270
 51
198.787728582347000
  0
LINE
  8
0
  6
CONTINUOUS
 62
3
 10
-384.819420788385060
 20
-141.018554454779630
 11
-387.460655945441660
 21
-142.543472283698970
  0
ARC
  8
0
  6
CONTINUOUS
 62
3
 10
-384.319420788385060
 20
-141.884579858563940
 40
1.000000000000094
 50
20.405931773138686
 51
120.000000000003780
  0
ARC
  8
0
  6
CONTINUOUS
 62
3
 10
-394.603055358425310
 20
-150.591422085661180
 40
1.000000000000059
 50
171.618272422154460
 51
239.999999999996220
  0
ARC
  8
0
  6
CONTINUOUS
 62
3
 10
-404.001584628814500
 20
-149.206630565742670
 40
8.499999999999972
 50
351.618272422157820
 51
8.381727577842204
  0
ARC
  8
0
  6
CONTINUOUS
 62
3
 10
-391.859279783401010
 20
-146.237719478988080
 40
0.999999999999879
 50
13.739795291686027
 51
120.000000000003780
  0
LINE
  8
0
  6
CONTINUOUS
 62
3
 10
-392.359279783401010
 20
-153.041567056281560
 11
-395.103055358425310
 21
-151.457447489445490
  0
ARC
  8
0
  6
CONTINUOUS
 62
3
 10
-391.859279783401010
 20
-152.175541652497260
 40
0.999999999999885
 50
239.999999999996220
 51
346.260204708314010
  0
ARC
  8
0
  6
CONTINUOUS
 62
3
 10
-404.001584628814500
 20
-149.206630565742670
 40
13.500000000000130
 50
346.260204708311850
 51
13.739795291688171
  0
ARC
  8
0
  6
CONTINUOUS
 62
3
 10
-386.960655945441660
 20
-155.003763444001830
 40
0.999999999999646
 50
161.212271417644620
 51
239.999999999996220
  0
LINE
  8
0
  6
CONTINUOUS
 62
3
 10
-384.819420788385060
 20
-157.394706676705710
 11
-387.460655945441660
 21
-155.869788847786140
  0
ARC
  8
0
  6
CONTINUOUS
 62
3
 10
-404.001584628814500
 20
-149.206630565742670
 40
17.000000000000146
 50
341.212271417650070
 51
18.787728582350418
  0
ARC
  8
0
  6
CONTINUOUS
 62
3
 10
-384.319420788385060
 20
-156.528681272921400
 40
0.999999999999885
 50
239.999999999996220
 51
339.594068226861340
  0
ARC
  8
0
  6
CONTINUOUS
 62
3
 10
-379.502958296660150
 20
-159.309467189061020
 40
0.999999999999701
 50
157.589542391853940
 51
240.000000000002730
  0
ARC
  8
0
  6
CONTINUOUS
 62
3
 10
-372.092630734490060
 20
-163.587821801862900
 40
0.999999999999769
 50
155.739170477266270
 51
240.000000000002730
  0
ARC
  8
0
  6
CONTINUOUS
 62
3
 10
-404.001584628814500
 20
-149.206630565742670
 40
22.000000000000206
 50
339.594068226860770
 51
20.405931773139226
  0
LINE
  8
0
  6
CONTINUOUS
 62
3
 10
-377.384282840882630
 20
-161.687385572158520
 11
-380.002958296660150
 21
-160.175492592845560
  0
ARC
  8
0
  6
CONTINUOUS
 62
3
 10
-376.884282840882630
 20
-160.821360168373990
 40
1.000000000000082
 50
240.000000000002730
 51
336.813854344180130
  0
ARC
  8
0
  6
CONTINUOUS
 62
3
 10
-404.001584628814500
 20
-149.206630565742670
 40
30.499999999999947
 50
336.813854344181150
 51
23.186145655818844
  0
ARC
  8
0
  6
CONTINUOUS
 62
3
 10
-404.001584628814500
 20
-149.206630565742670
 40
25.500000000000085
 50
337.589542391857490
 51
22.410457608142021
  0
ARC
  8
0
  6
CONTINUOUS
 62
3
 10
-404.001584628814500
 20
-149.206630565742670
 40
34.000000000000007
 50
335.739170477266780
 51
24.260829522733218
  0
ARC
  8
0
  6
CONTINUOUS
 62
3
 10
-404.001584628814500
 20
-149.206630565742670
 40
39.000000000000220
 50
335.284732954534830
 51
24.715267045465190
  0
LINE
  8
0
  6
CONTINUOUS
 62
3
 10
-369.982506216384310
 20
-165.960803298793960
 11
-372.592630734490060
 21
-164.453847205647430
  0
ARC
  8
0
  6
CONTINUOUS
 62
3
 10
-369.482506216384310
 20
-165.094777895009660
 40
0.999999999999885
 50
239.999999999996220
 51
335.284732954544490
  0
CIRCLE
  8
0
  6
CONTINUOUS
 62
3
 10
-404.001584628814500
 20
-149.206630565742670
 40
5.000000000000000
  0
ARC
  8
0
  6
CONTINUOUS
 62
3
 10
-372.982506216384310
 20
-171.156955721500940
 40
0.999999999999776
 50
324.715267045465680
 51
60.000000000002721
  0
ARC
  8
0
  6
CONTINUOUS
 62
3
 10
-375.592630734490060
 20
-169.649999628353950
 40
0.999999999999885
 50
59.999999999996206
 51
144.260829522736490
  0
ARC
  8
0
  6
CONTINUOUS
 62
3
 10
-400.501584628814500
 20
-184.031190864474410
 40
0.999999999999973
 50
95.739170477261709
 51
180.000000000000000
  0
ARC
  8
0
  6
CONTINUOUS
 62
3
 10
-400.501584628814500
 20
-187.045103050767690
 40
1.000000000000000
 50
180.000000000000000
 51
275.284732954535740
  0
ARC
  8
0
  6
CONTINUOUS
 62
3
 10
-400.501584628814500
 20
-175.474481638869970
 40
0.999999999999975
 50
97.589542391854238
 51
180.000000000000000
  0
ARC
  8
0
  6
CONTINUOUS
 62
3
 10
-380.384282840882630
 20
-166.883537994864810
 40
0.999999999999911
 50
323.186145655802870
 51
59.999999999996206
  0
ARC
  8
0
  6
CONTINUOUS
 62
3
 10
-383.002958296659700
 20
-165.371645015551850
 40
1.000000000000082
 50
60.000000000002721
 51
142.410457608148220
  0
ARC
  8
0
  6
CONTINUOUS
 62
3
 10
-400.501584628814500
 20
-178.498267597496350
 40
1.000000000000000
 50
180.000000000000000
 51
276.813854344179670
  0
ARC
  8
0
  6
CONTINUOUS
 62
3
 10
-400.501584628814500
 20
-169.912909806591190
 40
1.000000000000000
 50
180.000000000000000
 51
279.594068226875490
  0
ARC
  8
0
  6
CONTINUOUS
 62
3
 10
-400.501584628814500
 20
-166.863074148752280
 40
0.999999999999982
 50
101.212271417644000
 51
180.000000000000000
  0
ARC
  8
0
  6
CONTINUOUS
 62
3
 10
-387.819420788385510
 20
-162.590859099412460
 40
1.000000000000318
 50
320.405931773139570
 51
59.999999999996206
  0
ARC
  8
0
  6
CONTINUOUS
 62
3
 10
-390.460655945441660
 20
-161.065941270493110
 40
1.000000000000082
 50
60.000000000002721
 51
138.787728582338990
  0
ARC
  8
0
  6
CONTINUOUS
 62
3
 10
-395.359279783401010
 20
-158.237719478988080
 40
0.999999999999858
 50
313.739795291671330
 51
59.999999999996206
  0
ARC
  8
0
  6
CONTINUOUS
 62
3
 10
-400.501584628814500
 20
-161.206630565742670
 40
1.000000000000000
 50
180.000000000000000
 51
286.260204708297350
  0
ARC
  8
0
  6
CONTINUOUS
 62
3
 10
-400.501584628814500
 20
-158.038391432070510
 40
1.000000000000090
 50
111.618272422161970
 51
180.000000000000000
  0
ARC
  8
0
  6
CONTINUOUS
 62
3
 10
-398.103055358425310
 20
-156.653599912152000
 40
0.999999999999885
 50
59.999999999996206
 51
128.381727577840220
  0
ARC
  8
0
  6
CONTINUOUS
 62
3
 10
-404.001584628814500
 20
-149.206630565742670
 40
38.999999999999986
 50
275.284732954534600
 51
324.715267045465230
  0
ARC
  8
0
  6
CONTINUOUS
 62
3
 10
-404.001584628814500
 20
-149.206630565742670
 40
30.500000000000135
 50
276.813854344181040
 51
323.186145655818900
  0
ARC
  8
0
  6
CONTINUOUS
 62
3
 10
-404.001584628814500
 20
-149.206630565742670
 40
34.000000000000071
 50
275.739170477266950
 51
324.260829522733050
  0
ARC
  8
0
  6
CONTINUOUS
 62
3
 10
-404.001584628814500
 20
-149.206630565742670
 40
25.499999999999932
 50
277.589542391858170
 51
322.410457608142050
  0
ARC
  8
0
  6
CONTINUOUS
 62
3
 10
-404.001584628814500
 20
-149.206630565742670
 40
22.000000000000131
 50
279.594068226861170
 51
320.405931773139170
  0
ARC
  8
0
  6
CONTINUOUS
 62
3
 10
-404.001584628814500
 20
-149.206630565742670
 40
17.000000000000046
 50
281.212271417650020
 51
318.787728582350210
  0
ARC
  8
0
  6
CONTINUOUS
 62
3
 10
-404.001584628814500
 20
-149.206630565742670
 40
13.499999999999963
 50
286.260204708310820
 51
313.739795291687870
  0
ARC
  8
0
  6
CONTINUOUS
 62
3
 10
-404.001584628814500
 20
-149.206630565742670
 40
8.499999999999904
 50
291.618272422157700
 51
308.381727577842640
  0
LINE
  8
0
  6
CONTINUOUS
 62
3
 10
-379.884282840882630
 20
-166.017512591080500
 11
-382.502958296659700
 21
-164.505619611767320
  0
LINE
  8
0
  6
CONTINUOUS
 62
3
 10
-401.501584628814500
 20
-187.045103050767690
 11
-401.501584628814500
 21
-184.031190864474410
  0
LINE
  8
0
  6
CONTINUOUS
 62
3
 10
-372.482506216384310
 20
-170.290930317716400
 11
-375.092630734490060
 21
-168.783974224569650
  0
LINE
  8
0
  6
CONTINUOUS
 62
3
 10
-387.319420788385510
 20
-161.724833695628150
 11
-389.960655945441660
 21
-160.199915866708580
  0
LINE
  8
0
  6
CONTINUOUS
 62
3
 10
-394.859279783401010
 20
-157.371694075203780
 11
-397.603055358425310
 21
-155.787574508367700
  0
LINE
  8
0
  6
CONTINUOUS
 62
3
 10
-401.501584628814500
 20
-161.206630565742670
 11
-401.501584628814500
 21
-158.038391432070510
  0
LINE
  8
0
  6
CONTINUOUS
 62
3
 10
-401.501584628814500
 20
-169.912909806591190
 11
-401.501584628814500
 21
-166.863074148752280
  0
LINE
  8
0
  6
CONTINUOUS
 62
3
 10
-401.501584628814500
 20
-178.498267597496350
 11
-401.501584628814500
 21
-175.474481638869970
  0
ARC
  8
0
  6
CONTINUOUS
 62
3
 10
-404.001584628814500
 20
-149.206630565742670
 40
39.000000000000220
 50
155.284732954534800
 51
204.715267045465200
  0
ARC
  8
0
  6
CONTINUOUS
 62
3
 10
-404.001584628814500
 20
-149.206630565742670
 40
34.000000000000007
 50
155.739170477266780
 51
204.260829522733220
  0
ARC
  8
0
  6
CONTINUOUS
 62
3
 10
-404.001584628814500
 20
-149.206630565742670
 40
25.500000000000000
 50
157.589542391857980
 51
202.410457608142480
  0
ARC
  8
0
  6
CONTINUOUS
 62
3
 10
-404.001584628814500
 20
-149.206630565742670
 40
30.499999999999947
 50
156.813854344181150
 51
203.186145655818850
  0
ARC
  8
0
  6
CONTINUOUS
 62
3
 10
-404.001584628814500
 20
-149.206630565742670
 40
22.000000000000206
 50
159.594068226860770
 51
200.405931773139230
  0
ARC
  8
0
  6
CONTINUOUS
 62
3
 10
-404.001584628814500
 20
-149.206630565742670
 40
16.999999999999716
 50
161.212271417649560
 51
198.787728582350440
  0
ARC
  8
0
  6
CONTINUOUS
 62
3
 10
-404.001584628814500
 20
-149.206630565742670
 40
13.499999999999687
 50
166.260204708311360
 51
193.739795291688180
  0
ARC
  8
0
  6
CONTINUOUS
 62
3
 10
-416.143889474227990
 20
-146.237719478988080
 40
0.999999999999885
 50
59.999999999996206
 51
166.260204708307780
  0
ARC
  8
0
  6
CONTINUOUS
 62
3
 10
-423.683748469243940
 20
-141.884579858563940
 40
0.999999999999885
 50
59.999999999996206
 51
159.594068226861310
  0
LINE
  8
0
  6
CONTINUOUS
 62
3
 10
-423.183748469243940
 20
-141.018554454779630
 11
-420.542513312187340
 21
-142.543472283698970
  0
ARC
  8
0
  6
CONTINUOUS
 62
3
 10
-421.042513312187340
 20
-143.409497687483510
 40
1.000000000000076
 50
341.212271417652970
 51
60.000000000002721
  0
LINE
  8
0
  6
CONTINUOUS
 62
3
 10
-415.643889474227990
 20
-145.371694075203780
 11
-412.900113899203690
 21
-146.955813642039860
  0
ARC
  8
0
  6
CONTINUOUS
 62
3
 10
-413.400113899203690
 20
-147.821839045824390
 40
1.000000000000026
 50
351.618272422167310
 51
60.000000000002721
  0
ARC
  8
0
  6
CONTINUOUS
 62
3
 10
-435.910538523138940
 20
-134.825439329622210
 40
0.999999999999863
 50
335.739170477254390
 51
59.999999999996206
  0
LINE
  8
0
  6
CONTINUOUS
 62
3
 10
-438.020663041244690
 20
-132.452457832691150
 11
-435.410538523138940
 21
-133.959413925837910
  0
ARC
  8
0
  6
CONTINUOUS
 62
3
 10
-438.520663041244690
 20
-133.318483236475690
 40
1.000000000000082
 50
60.000000000002721
 51
155.284732954544520
  0
ARC
  8
0
  6
CONTINUOUS
 62
3
 10
-428.500210960968840
 20
-139.103793942424550
 40
0.999999999999701
 50
337.589542391853970
 51
60.000000000002721
  0
LINE
  8
0
  6
CONTINUOUS
 62
3
 10
-430.618886416746360
 20
-136.725875559326820
 11
-428.000210960968840
 21
-138.237768538640010
  0
ARC
  8
0
  6
CONTINUOUS
 62
3
 10
-431.118886416746360
 20
-137.591900963111360
 40
1.000000000000082
 50
60.000000000002721
 51
156.813854344180160
  0
ARC
  8
0
  6
CONTINUOUS
 62
3
 10
-404.001584628814500
 20
-149.206630565742670
 40
38.999999999999986
 50
95.284732954534590
 51
144.715267045465200
  0
ARC
  8
0
  6
CONTINUOUS
 62
3
 10
-404.001584628814500
 20
-149.206630565742670
 40
34.000000000000071
 50
95.739170477266924
 51
144.260829522733360
  0
ARC
  8
0
  6
CONTINUOUS
 62
3
 10
-404.001584628814500
 20
-149.206630565742670
 40
25.500000000000160
 50
97.589542391858117
 51
142.410457608142050
  0
ARC
  8
0
  6
CONTINUOUS
 62
3
 10
-404.001584628814500
 20
-149.206630565742670
 40
30.500000000000135
 50
96.813854344181038
 51
143.186145655818930
  0
ARC
  8
0
  6
CONTINUOUS
 62
3
 10
-404.001584628814500
 20
-149.206630565742670
 40
22.000000000000131
 50
99.594068226861211
 51
140.405931773139200
  0
ARC
  8
0
  6
CONTINUOUS
 62
3
 10
-404.001584628814500
 20
-149.206630565742670
 40
17.000000000000046
 50
101.212271417650010
 51
138.787728582350240
  0
ARC
  8
0
  6
CONTINUOUS
 62
3
 10
-404.001584628814500
 20
-149.206630565742670
 40
13.499999999999963
 50
106.260204708310860
 51
133.739795291687870
  0
ARC
  8
0
  6
CONTINUOUS
 62
3
 10
-407.501584628814500
 20
-137.206630565742670
 40
1.000000000000000
 50
0.000000000000000
 51
106.260204708297360
  0
LINE
  8
0
  6
CONTINUOUS
 62
3
 10
-406.501584628814500
 20
-137.206630565742670
 11
-406.501584628814500
 21
-140.374869699414830
  0
ARC
  8
0
  6
CONTINUOUS
 62
3
 10
-412.643889474227990
 20
-140.175541652497260
 40
0.999999999999858
 50
133.739795291671300
 51
239.999999999996220
  0
ARC
  8
0
  6
CONTINUOUS
 62
3
 10
-404.001584628814500
 20
-149.206630565742670
 40
8.499999999999904
 50
111.618272422157710
 51
128.381727577841670
  0
ARC
  8
0
  6
CONTINUOUS
 62
3
 10
-407.501584628814500
 20
-140.374869699414830
 40
1.000000000000090
 50
291.618272422161970
 51
0.000000000000000
  0
ARC
  8
0
  6
CONTINUOUS
 62
3
 10
-420.183748469243480
 20
-135.822402032072660
 40
1.000000000000173
 50
140.405931773149600
 51
240.000000000002730
  0
LINE
  8
0
  6
CONTINUOUS
 62
3
 10
-420.683748469243480
 20
-136.688427435857190
 11
-418.042513312187340
 21
-138.213345264776760
  0
ARC
  8
0
  6
CONTINUOUS
 62
3
 10
-417.542513312187340
 20
-137.347319860992460
 40
0.999999999999885
 50
239.999999999996220
 51
318.787728582348790
  0
LINE
  8
0
  6
CONTINUOUS
 62
3
 10
-413.143889474227990
 20
-141.041567056281560
 11
-410.400113899203690
 21
-142.625686623117640
  0
ARC
  8
0
  6
CONTINUOUS
 62
3
 10
-409.900113899203690
 20
-141.759661219333110
 40
1.000000000000082
 50
240.000000000002730
 51
308.381727577840190
  0
ARC
  8
0
  6
CONTINUOUS
 62
3
 10
-432.410538523138940
 20
-128.763261503131390
 40
0.999999999999885
 50
239.999999999996220
 51
324.260829522725940
  0
LINE
  8
0
  6
CONTINUOUS
 62
3
 10
-435.520663041244690
 20
-128.122330813768940
 11
-432.910538523138940
 21
-129.629286906915690
  0
ARC
  8
0
  6
CONTINUOUS
 62
3
 10
-435.020663041244690
 20
-127.256305409984630
 40
0.999999999999908
 50
144.715267045455050
 51
239.999999999996220
  0
ARC
  8
0
  6
CONTINUOUS
 62
3
 10
-425.000210960968840
 20
-133.041616115933490
 40
1.000000000000082
 50
240.000000000002730
 51
322.410457608132330
  0
LINE
  8
0
  6
CONTINUOUS
 62
3
 10
-428.118886416746360
 20
-132.395748540404840
 11
-425.500210960968840
 21
-133.907641519718030
  0
ARC
  8
0
  6
CONTINUOUS
 62
3
 10
-427.618886416746360
 20
-131.529723136620310
 40
0.999999999999774
 50
143.186145655813330
 51
240.000000000002730
  0
ARC
  8
0
  6
CONTINUOUS
 62
3
 10
-407.501584628814500
 20
-111.368158080717640
 40
1.000000000000000
 50
0.000000000000000
 51
95.284732954535698
  0
LINE
  8
0
  6
CONTINUOUS
 62
3
 10
-406.501584628814500
 20
-111.368158080717640
 11
-406.501584628814500
 21
-114.382070267010930
  0
ARC
  8
0
  6
CONTINUOUS
 62
3
 10
-407.501584628814500
 20
-114.382070267010930
 40
0.999999999999973
 50
275.739170477261670
 51
0.000000000000000
  0
ARC
  8
0
  6
CONTINUOUS
 62
3
 10
-407.501584628814500
 20
-119.914993533988990
 40
1.000000000000000
 50
0.000000000000000
 51
96.813854344179688
  0
LINE
  8
0
  6
CONTINUOUS
 62
3
 10
-406.501584628814500
 20
-119.914993533988990
 11
-406.501584628814500
 21
-122.938779492615140
  0
ARC
  8
0
  6
CONTINUOUS
 62
3
 10
-407.501584628814500
 20
-122.938779492615360
 40
0.999999999999749
 50
277.589542391855960
 51
0.000000000013028
  0
ARC
  8
0
  6
CONTINUOUS
 62
3
 10
-407.501584628814500
 20
-128.500351324894150
 40
1.000000000000000
 50
0.000000000000000
 51
99.594068226875478
  0
LINE
  8
0
  6
CONTINUOUS
 62
3
 10
-406.501584628814500
 20
-128.500351324894150
 11
-406.501584628814500
 21
-131.550186982733070
  0
ARC
  8
0
  6
CONTINUOUS
 62
3
 10
-407.501584628814500
 20
-131.550186982733070
 40
0.999999999999982
 50
281.212271417643990
 51
0.000000000000000
  0
ARC
  8
0
  6
CONTINUOUS
 62
3
 10
-416.143889474227990
 20
-152.175541652497260
 40
0.999999999999879
 50
193.739795291686050
 51
300.000000000003810
  0
LINE
  8
0
  6
CONTINUOUS
 62
3
 10
-415.643889474227990
 20
-153.041567056281560
 11
-412.900113899203690
 21
-151.457447489445490
  0
ARC
  8
0
  6
CONTINUOUS
 62
3
 10
-404.001584628814500
 20
-149.206630565742670
 40
8.499999999999972
 50
171.618272422157790
 51
188.381727577842210
  0
ARC
  8
0
  6
CONTINUOUS
 62
3
 10
-413.400113899203690
 20
-150.591422085661180
 40
0.999999999999885
 50
300.000000000003810
 51
8.381727577845549
  0
LINE
  8
0
  6
CONTINUOUS
 62
3
 10
-406.501584628814500
 20
-178.498267597496350
 11
-406.501584628814500
 21
-175.474481638869970
  0
LINE
  8
0
  6
CONTINUOUS
 62
3
 10
-406.501584628814500
 20
-169.912909806591190
 11
-406.501584628814500
 21
-166.863074148752280
  0
LINE
  8
0
  6
CONTINUOUS
 62
3
 10
-406.501584628814500
 20
-161.206630565742670
 11
-406.501584628814500
 21
-158.038391432070510
  0
LINE
  8
0
  6
CONTINUOUS
 62
3
 10
-413.143889474227990
 20
-157.371694075203780
 11
-410.400113899203690
 21
-155.787574508367700
  0
LINE
  8
0
  6
CONTINUOUS
 62
3
 10
-420.683748469243480
 20
-161.724833695628150
 11
-418.042513312187340
 21
-160.199915866708580
  0
LINE
  8
0
  6
CONTINUOUS
 62
3
 10
-435.520663041244690
 20
-170.290930317716400
 11
-432.910538523138940
 21
-168.783974224569650
  0
LINE
  8
0
  6
CONTINUOUS
 62
3
 10
-428.118886416746360
 20
-166.017512591080500
 11
-425.500210960969300
 21
-164.505619611767320
  0
ARC
  8
0
  6
CONTINUOUS
 62
3
 10
-404.001584628814500
 20
-149.206630565742670
 40
8.499999999999948
 50
231.618272422157330
 51
248.381727577842330
  0
ARC
  8
0
  6
CONTINUOUS
 62
3
 10
-404.001584628814500
 20
-149.206630565742670
 40
13.499999999999927
 50
226.260204708312130
 51
253.739795291689150
  0
ARC
  8
0
  6
CONTINUOUS
 62
3
 10
-404.001584628814500
 20
-149.206630565742670
 40
16.999999999999773
 50
221.212271417650780
 51
258.787728582349980
  0
ARC
  8
0
  6
CONTINUOUS
 62
3
 10
-404.001584628814500
 20
-149.206630565742670
 40
22.000000000000025
 50
219.594068226860800
 51
260.405931773138780
  0
ARC
  8
0
  6
CONTINUOUS
 62
3
 10
-404.001584628814500
 20
-149.206630565742670
 40
25.499999999999890
 50
217.589542391857950
 51
262.410457608141830
  0
ARC
  8
0
  6
CONTINUOUS
 62
3
 10
-404.001584628814500
 20
-149.206630565742670
 40
33.999999999999964
 50
215.739170477266950
 51
264.260829522733050
  0
ARC
  8
0
  6
CONTINUOUS
 62
3
 10
-404.001584628814500
 20
-149.206630565742670
 40
30.499999999999964
 50
216.813854344181070
 51
263.186145655818960
  0
ARC
  8
0
  6
CONTINUOUS
 62
3
 10
-404.001584628814500
 20
-149.206630565742670
 40
38.999999999999865
 50
215.284732954534800
 51
264.715267045465400
  0
ARC
  8
0
  6
CONTINUOUS
 62
3
 10
-409.900113899203690
 20
-156.653599912152000
 40
0.999999999999961
 50
51.618272422159777
 51
120.000000000003780
  0
ARC
  8
0
  6
CONTINUOUS
 62
3
 10
-407.501584628814500
 20
-158.038391432070510
 40
1.000000000000000
 50
0.000000000000000
 51
68.381727577838021
  0
ARC
  8
0
  6
CONTINUOUS
 62
3
 10
-407.501584628814500
 20
-161.206630565742670
 40
0.999999999999964
 50
253.739795291702650
 51
0.000000000000000
  0
ARC
  8
0
  6
CONTINUOUS
 62
3
 10
-412.643889474227990
 20
-158.237719478988080
 40
0.999999999999885
 50
120.000000000003780
 51
226.260204708328700
  0
ARC
  8
0
  6
CONTINUOUS
 62
3
 10
-417.542513312187340
 20
-161.065941270493110
 40
1.000000000000165
 50
41.212271417643841
 51
119.999999999997270
  0
ARC
  8
0
  6
CONTINUOUS
 62
3
 10
-420.183748469243480
 20
-162.590859099412460
 40
0.999999999999885
 50
120.000000000003780
 51
219.594068226860460
  0
ARC
  8
0
  6
CONTINUOUS
 62
3
 10
-407.501584628814500
 20
-166.863074148752280
 40
1.000000000000000
 50
0.000000000000000
 51
78.787728582355996
  0
ARC
  8
0
  6
CONTINUOUS
 62
3
 10
-407.501584628814500
 20
-169.912909806591190
 40
1.000000000000268
 50
260.405931773124510
 51
0.000000000000000
  0
ARC
  8
0
  6
CONTINUOUS
 62
3
 10
-425.000210960969300
 20
-165.371645015551850
 40
1.000000000000194
 50
37.589542391851793
 51
119.999999999997270
  0
ARC
  8
0
  6
CONTINUOUS
 62
3
 10
-427.618886416746360
 20
-166.883537994864810
 40
0.999999999999885
 50
120.000000000003780
 51
216.813854344197100
  0
ARC
  8
0
  6
CONTINUOUS
 62
3
 10
-407.501584628814500
 20
-175.474481638869970
 40
1.000000000000000
 50
0.000000000000000
 51
82.410457608145762
  0
ARC
  8
0
  6
CONTINUOUS
 62
3
 10
-432.410538523138940
 20
-169.649999628353950
 40
0.999999999999807
 50
35.739170477263521
 51
120.000000000003780
  0
ARC
  8
0
  6
CONTINUOUS
 62
3
 10
-435.020663041244690
 20
-171.156955721500940
 40
1.000000000000082
 50
119.999999999997270
 51
215.284732954534320
  0
ARC
  8
0
  6
CONTINUOUS
 62
3
 10
-438.520663041244690
 20
-165.094777895009660
 40
1.000000000000248
 50
204.715267045455480
 51
300.000000000003810
  0
LINE
  8
0
  6
CONTINUOUS
 62
3
 10
-438.020663041244690
 20
-165.960803298793960
 11
-435.410538523138940
 21
-164.453847205647430
  0
ARC
  8
0
  6
CONTINUOUS
 62
3
 10
-431.118886416746360
 20
-160.821360168373990
 40
0.999999999999730
 50
203.186145655819840
 51
299.999999999997270
  0
LINE
  8
0
  6
CONTINUOUS
 62
3
 10
-430.618886416746360
 20
-161.687385572158520
 11
-428.000210960968840
 21
-160.175492592845560
  0
ARC
  8
0
  6
CONTINUOUS
 62
3
 10
-435.910538523138940
 20
-163.587821801862900
 40
1.000000000000082
 50
299.999999999997270
 51
24.260829522733715
  0
ARC
  8
0
  6
CONTINUOUS
 62
3
 10
-428.500210960968840
 20
-159.309467189061020
 40
1.000000000000082
 50
299.999999999997270
 51
22.410457608146043
  0
ARC
  8
0
  6
CONTINUOUS
 62
3
 10
-423.683748469243940
 20
-156.528681272921400
 40
1.000000000000094
 50
200.405931773138690
 51
300.000000000003810
  0
LINE
  8
0
  6
CONTINUOUS
 62
3
 10
-423.183748469243940
 20
-157.394706676705710
 11
-420.542513312187340
 21
-155.869788847786140
  0
ARC
  8
0
  6
CONTINUOUS
 62
3
 10
-421.042513312187340
 20
-155.003763444001830
 40
0.999999999999885
 50
300.000000000003810
 51
18.787728582346993
  0
LINE
  8
0
  6
CONTINUOUS
 62
3
 10
-406.501584628814500
 20
-187.045103050767690
 11
-406.501584628814500
 21
-184.031190864474410
  0
ARC
  8
0
  6
CONTINUOUS
 62
3
 10
-407.501584628814500
 20
-178.498267597496350
 40
1.000000000000077
 50
263.186145655820330
 51
0.000000000000000
  0
ARC
  8
0
  6
CONTINUOUS
 62
3
 10
-407.501584628814500
 20
-187.045103050767690
 40
1.000000000000042
 50
264.715267045464260
 51
0.000000000000000
  0
ARC
  8
0
  6
CONTINUOUS
 62
3
 10
-407.501584628814500
 20
-184.031190864474410
 40
1.000000000000000
 50
0.000000000000000
 51
84.260829522738291
  0
ARC
  8
0
  6
CONTINUOUS
 62
3
 10
-645.601584628814860
 20
-149.206630565742670
 40
300.600000000000360
 50
0.000000000000000
 51
5.752282731536604
  0
ARC
  8
0
  6
CONTINUOUS
 62
3
 10
-645.601584628814860
 20
-149.206630565742670
 40
300.599999999999910
 50
354.247717268463420
 51
0.000000000000000
  0
ARC
  8
0
  6
CONTINUOUS
 62
3
 10
-162.401584628814080
 20
-149.206630565742670
 40
300.600000000000420
 50
180.000000000000000
 51
185.752282731536610
  0
ARC
  8
0
  6
CONTINUOUS
 62
3
 10
-162.401584628814080
 20
-149.206630565742670
 40
300.599999999999970
 50
174.247717268463390
 51
180.000000000000000
  0
ARC
  8
0
  6
CONTINUOUS
 62
3
 10
-404.001584628814500
 20
-495.806630565742810
 40
400.599999999999910
 50
84.256318189006564
 51
90.000000000000000
  0
ARC
  8
0
  6
CONTINUOUS
 62
3
 10
-404.001584628814500
 20
197.393369434257470
 40
400.599999999999910
 50
270.000000000000000
 51
275.743681810993450
  0
ARC
  8
0
  6
CONTINUOUS
 62
3
 10
-404.001584628814500
 20
197.393369434257470
 40
400.599999999999910
 50
264.256318189006550
 51
270.000000000000000
  0
ARC
  8
0
  6
CONTINUOUS
 62
3
 10
-404.001584628814500
 20
-495.806630565742810
 40
400.599999999999910
 50
90.000000000000000
 51
95.743681810993436
  0
ARC
  8
0
  6
CONTINUOUS
 62
3
 10
-364.570717628727150
 20
-103.784683823444310
 40
6.600000000000278
 50
44.999999999997215
 51
84.256318189004901
  0
ARC
  8
0
  6
CONTINUOUS
 62
3
 10
-364.570717628727150
 20
-194.628577308041030
 40
6.600000000000009
 50
275.743681810995100
 51
315.000000000002790
  0
ARC
  8
0
  6
CONTINUOUS
 62
3
 10
-443.432451628901840
 20
-194.628577308041030
 40
6.600000000000278
 50
224.999999999997190
 51
264.256318189004900
  0
ARC
  8
0
  6
CONTINUOUS
 62
3
 10
-443.432451628901840
 20
-103.784683823444310
 40
6.600000000000009
 50
95.743681810995099
 51
135.000000000002790
  0
LINE
  8
0
  6
CONTINUOUS
 62
4
 10
-359.376885474196800
 20
-113.508242018256160
 11
-365.264299346236160
 21
-107.620828146216120
  0
ARC
  8
0
  6
CONTINUOUS
 62
4
 10
-404.001584628814500
 20
-495.806630565742810
 40
390.797000000000030
 50
84.582036237639471
 51
90.000000000000000
  0
ARC
  8
0
  6
CONTINUOUS
 62
4
 10
-367.385619689796160
 20
-109.742148489775900
 40
3.000000000000346
 50
44.999999999996930
 51
84.582036237634313
  0
ARC
  8
0
  6
CONTINUOUS
 62
4
 10
-645.601584628814860
 20
-149.206630565742670
 40
290.797000000000480
 50
0.000000000000000
 51
5.752282731536624
  0
ARC
  8
0
  6
CONTINUOUS
 62
4
 10
-367.385619689796160
 20
-188.671112641709440
 40
3.000000000000067
 50
275.417963762365730
 51
315.000000000003070
  0
ARC
  8
0
  6
CONTINUOUS
 62
4
 10
-404.001584628814500
 20
197.393369434257470
 40
390.797000000000030
 50
270.000000000000000
 51
275.417963762360500
  0
ARC
  8
0
  6
CONTINUOUS
 62
4
 10
-376.629694041295120
 20
-172.746428223654680
 40
20.797000000000015
 50
315.000000000000000
 51
354.998349729064670
  0
LINE
  8
0
  6
CONTINUOUS
 62
4
 10
-361.923994312958480
 20
-187.452127951991320
 11
-365.264299346236160
 21
-190.792432985269220
  0
ARC
  8
0
  6
CONTINUOUS
 62
4
 10
-645.601584628814860
 20
-149.206630565742670
 40
290.797000000000140
 50
354.998349729065010
 51
0.000000000000000
  0
ARC
  8
0
  6
CONTINUOUS
 62
4
 10
-440.617549567832840
 20
-188.671112641709440
 40
3.000000000000346
 50
224.999999999996960
 51
264.582036237634270
  0
ARC
  8
0
  6
CONTINUOUS
 62
4
 10
-404.001584628814500
 20
197.393369434257470
 40
390.797000000000030
 50
264.582036237639500
 51
270.000000000000000
  0
ARC
  8
0
  6
CONTINUOUS
 62
4
 10
-431.373475216333870
 20
-172.746428223654680
 40
20.796999999999880
 50
185.001650270935330
 51
225.000000000000000
  0
LINE
  8
0
  6
CONTINUOUS
 62
4
 10
-446.079174944670510
 20
-187.452127951991320
 11
-442.738869911392840
 21
-190.792432985269220
  0
ARC
  8
0
  6
CONTINUOUS
 62
4
 10
-162.401584628814310
 20
-149.206630565742670
 40
290.797000000000310
 50
180.000000000000000
 51
185.001650270934930
  0
ARC
  8
0
  6
CONTINUOUS
 62
4
 10
-440.617549567832840
 20
-109.742148489775900
 40
3.000000000000067
 50
95.417963762365673
 51
135.000000000003040
  0
ARC
  8
0
  6
CONTINUOUS
 62
4
 10
-404.001584628814500
 20
-495.806630565742810
 40
390.797000000000030
 50
90.000000000000000
 51
95.417963762360529
  0
ARC
  8
0
  6
CONTINUOUS
 62
4
 10
-431.373475216333870
 20
-125.666832907830660
 40
20.797000000000015
 50
135.000000000000000
 51
174.998349729064670
  0
LINE
  8
0
  6
CONTINUOUS
 62
4
 10
-446.079174944670510
 20
-110.961133179494020
 11
-442.738869911392840
 21
-107.620828146216120
  0
ARC
  8
0
  6
CONTINUOUS
 62
4
 10
-162.401584628814310
 20
-149.206630565742670
 40
290.796999999999970
 50
174.998349729065040
 51
180.000000000000000
  0
ARC
  8
0
  6
CONTINUOUS
 62
3
 10
-323.062815494832880
 20
-174.206630565742670
 40
5.000000000000000
 50
270.000000000000000
 51
355.138594604201330
  0
ARC
  8
0
  6
CONTINUOUS
 62
3
 10
-323.062815494832880
 20
-124.206630565742670
 40
4.999999999999893
 50
4.861405395798621
 51
90.000000000000000
  0
LINE
  8
0
  6
CONTINUOUS
 62
3
 10
-346.501584628814500
 20
-179.206630565742670
 11
-323.062815494832880
 21
-179.206630565742670
  0
LINE
  8
0
  6
CONTINUOUS
 62
3
 10
-346.501584628814500
 20
-119.206630565742670
 11
-323.062815494832880
 21
-119.206630565742670
  0
ARC
  8
0
  6
CONTINUOUS
 62
3
 10
-617.001584628814500
 20
-149.206630565742670
 40
300.000000000000170
 50
355.138594604201960
 51
4.861405395798036
  0
LINE
  8
0
  6
CONTINUOUS
 62
3
 10
-317.012001476332220
 20
-146.706630565742670
 11
-316.501584628814500
 21
-146.706630565742670
  0
LINE
  8
0
  6
CONTINUOUS
 62
3
 10
-317.012001476332220
 20
-151.706630565742670
 11
-316.501584628814500
 21
-151.706630565742670
  0
LINE
  8
0
  6
CONTINUOUS
 62
3
 10
-316.501584628814500
 20
-151.706630565742670
 11
-316.501584628814500
 21
-146.706630565742670
  0
LINE
  8
0
  6
CONTINUOUS
 62
3
 10
-479.004454249395390
 20
-93.326510492962484
 11
-484.098091177672360
 21
-195.199249058503260
  0
LINE
  8
0
  6
CONTINUOUS
 62
3
 10
-484.098091177672360
 20
-195.199249058503260
 11
-485.696094919876940
 21
-195.119348871392280
  0
LINE
  8
0
  6
CONTINUOUS
 62
3
 10
-480.602457991599980
 20
-93.246610305852300
 11
-485.696094919876940
 21
-195.119348871392280
  0
ARC
  8
0
  6
CONTINUOUS
 62
3
 10
-481.720087093450500
 20
-95.994225902097128
 40
1.299999237060474
 50
87.137594090651831
 51
160.536063666412870
  0
ARC
  8
0
  6
CONTINUOUS
 62
3
 10
-481.939812684202480
 20
-100.388737717134850
 40
1.299999237060493
 50
193.739143184211430
 51
267.137612759980240
  0
LINE
  8
0
  6
CONTINUOUS
 62
3
 10
-480.677364417015270
 20
-94.744738814168954
 11
-481.655168229522810
 21
-94.695848623543611
  0
LINE
  8
0
  6
CONTINUOUS
 62
3
 10
-481.026927735622390
 20
-101.736005186313830
 11
-482.004731548130170
 21
-101.687114995688480
  0
LINE
  8
0
  6
CONTINUOUS
 62
3
 10
-480.677364417015270
 20
-94.744738814168954
 11
-481.026927735622390
 21
-101.736005186313830
  0
LINE
  8
0
  6
CONTINUOUS
 62
3
 10
-480.677364417015270
 20
-94.744738814168954
 11
-481.026927735622390
 21
-101.736005186313830
  0
POINT
  8
0
  6
CONTINUOUS
 62
3
 10
-480.852146076318830
 20
-98.240372000241337
  0
ARC
  8
0
  6
CONTINUOUS
 62
3
 10
-474.460131488494430
 20
-98.559972729632591
 40
9.000000000000060
 50
160.536063666407810
 51
193.739143184213500
  0
INSERT
  8
0
  2
SYM6
 10
-485.446406835157860
 20
-190.125587177003130
 41
1.000000000000000
 42
1.000000000000000
 43
1.000000000000000
 50
357.137594773886350
  0
LINE
  8
0
  6
CONTINUOUS
 62
3
 10
-462.501584628814500
 20
-131.876021805523120
 11
-462.501584628814500
 21
-123.249130565742680
  0
LINE
  8
0
  6
CONTINUOUS
 62
3
 10
-480.602457991599980
 20
-93.246610305852300
 11
-479.004454249395390
 21
-93.326510492962484
  0
ARC
  8
0
  6
CONTINUOUS
 62
3
 10
-481.301584628814450
 20
-123.249130565742680
 40
18.799999999999933
 50
144.191373186504250
 51
174.275189547776390
  0
ARC
  8
0
  6
CONTINUOUS
 62
3
 10
-481.301584628814450
 20
-123.249130565742680
 40
18.800000000000036
 50
94.873974813842736
 51
144.191373186504250
  0
ARC
  8
0
  6
CONTINUOUS
 62
3
 10
-483.301584628814450
 20
-163.249130565742690
 40
20.800000000000082
 50
274.191726156007460
 51
354.952683218992210
  0
LINE
  8
0
  6
CONTINUOUS
 62
3
 10
-503.997843980435390
 20
-161.174317598161680
 11
-500.007819042779370
 21
-121.373818845044410
  0
ARC
  8
0
  6
CONTINUOUS
 62
3
 10
-487.228050460146730
 20
-185.708490887786180
 40
2.000000000000154
 50
357.137594773887600
 51
80.083463391767268
  0
LINE
  8
0
  6
CONTINUOUS
 62
3
 10
-479.803456120497690
 20
-93.286560399407449
 11
-484.897093048774650
 21
-195.159298964947540
  0
ARC
  8
0
  6
CONTINUOUS
 62
3
 10
-481.635037362430920
 20
-185.988141542672000
 40
1.999999999999962
 50
94.191726156001650
 51
177.137594773887290
  0
ARC
  8
0
  6
CONTINUOUS
 62
3
 10
-483.068843092443330
 20
-102.524343533719160
 40
1.999999999999928
 50
274.873974813840960
 51
357.137594773887320
  0
ARC
  8
0
  6
CONTINUOUS
 62
3
 10
-477.475829994727520
 20
-102.803994188604970
 40
1.999999999999927
 50
177.137594773887290
 51
259.401214733934010
  0
ARC
  8
0
  6
CONTINUOUS
 62
3
 10
-481.301584628814450
 20
-123.249130565742680
 40
18.799999999999955
 50
0.000000000000000
 51
79.401214733933941
  0
ARC
  8
0
  6
CONTINUOUS
 62
3
 10
-483.301584628814450
 20
-163.249130565742690
 40
20.799999999999986
 50
174.275189547776620
 51
205.640070215894870
  0
POINT
  8
0
  6
DASHDOT
 62
4
 10
-462.501584628814500
 20
-149.220361058868660
  0
ARC
  8
0
  6
CONTINUOUS
 62
3
 10
-483.301584628814450
 20
-163.249130565742690
 40
20.799999999999926
 50
205.640070215894870
 51
260.083463391769440
  0
POINT
  8
0
  6
DASHDOT
 62
4
 10
-462.501584628814500
 20
-149.220361058868660
  0
ARC
  8
0
  6
CONTINUOUS
 62
3
 10
-483.301584628814450
 20
-163.249130565742690
 40
20.799999999999986
 50
174.275189547776620
 51
205.640070215894870
  0
INSERT
  8
0
  2
SYM1
 10
10.034715846914423
 20
95.992593892299851
  0
LINE
  8
0
  6
CONTINUOUS
 62
3
 10
10.034715846914423
 20
150.793369434257220
 11
10.034715846914423
 21
70.293369434257215
  0
LINE
  8
0
  6
CONTINUOUS
 62
3
 10
-29.965299507223335
 20
132.793369434257220
 11
-29.965299507223335
 21
102.293369434257210
  0
ARC
  8
0
  6
CONTINUOUS
 62
3
 10
13.034715846914423
 20
70.293369434257215
 40
3.000000000000000
 50
180.000000000000000
 51
270.000000000000000
  0
LINE
  8
0
  6
CONTINUOUS
 62
3
 10
13.034715846914423
 20
67.293369434257215
 11
20.034715846914423
 21
67.293369434257215
  0
LINE
  8
0
  6
DASHDOT
 62
4
 10
-10.965284153085577
 20
137.042604626107390
 11
-10.965284153085577
 21
164.818687397748480
  0
ARC
  8
0
  6
CONTINUOUS
 62
3
 10
-34.965299507223335
 20
102.293369434257210
 40
5.000000000000000
 50
270.000000000000000
 51
0.000000000000000
  0
LINE
  8
0
  6
CONTINUOUS
 62
3
 10
6.035174752758167
 20
97.293369434257215
 11
-46.465299507233340
 21
97.293369434257215
  0
LINE
  8
0
  6
CONTINUOUS
 62
3
 10
-26.965299507223335
 20
135.793369434257220
 11
7.034715846914423
 21
135.793369434257220
  0
ARC
  8
0
  6
CONTINUOUS
 62
3
 10
7.034715846914423
 20
132.793369434257220
 40
3.000000000000000
 50
0.000000000000000
 51
90.000000000000000
  0
ARC
  8
0
  6
CONTINUOUS
 62
3
 10
-26.965299507223335
 20
132.793369434257220
 40
3.000000000000000
 50
90.000000000000000
 51
180.000000000000000
  0
CIRCLE
  8
0
  6
CONTINUOUS
 62
3
 10
-10.965284153085577
 20
150.793369434257220
 40
10.500000000000000
  0
LINE
  8
0
  6
CONTINUOUS
 62
3
 10
-29.965299507223335
 20
168.793369434257220
 11
-29.965299507223335
 21
199.293369434257220
  0
LINE
  8
0
  6
CONTINUOUS
 62
3
 10
10.034715846914423
 20
150.793369434257220
 11
10.034715846914423
 21
231.293369434257220
  0
LINE
  8
0
  6
CONTINUOUS
 62
3
 10
6.034727011976884
 20
204.293369434257220
 11
-46.465299507233340
 21
204.293369434257220
  0
INSERT
  8
0
  2
SYM1
 10
10.034715846914423
 20
205.594144976214580
 41
-1.000000000000000
 50
180.000000000000000
  0
ARC
  8
0
  6
CONTINUOUS
 62
3
 10
-34.965299507223335
 20
199.293369434257220
 40
5.000000000000000
 50
0.000000000000000
 51
90.000000000000000
  0
ARC
  8
0
  6
CONTINUOUS
 62
3
 10
13.034715846914423
 20
231.293369434257220
 40
3.000000000000000
 50
90.000000000000000
 51
180.000000000000000
  0
LINE
  8
0
  6
CONTINUOUS
 62
3
 10
13.034715846914423
 20
234.293369434257220
 11
20.034715846914423
 21
234.293369434257220
  0
LINE
  8
0
  6
CONTINUOUS
 62
3
 10
-26.965299507223335
 20
165.793369434257220
 11
7.034715846914423
 21
165.793369434257220
  0
ARC
  8
0
  6
CONTINUOUS
 62
3
 10
7.034715846914423
 20
168.793369434257220
 40
3.000000000000000
 50
270.000000000000000
 51
0.000000000000000
  0
ARC
  8
0
  6
CONTINUOUS
 62
3
 10
-26.965299507223335
 20
168.793369434257220
 40
3.000000000000000
 50
180.000000000000000
 51
270.000000000000000
  0
LINE
  8
0
  6
CONTINUOUS
 62
3
 10
186.034715846915560
 20
191.793369434257220
 11
187.034715846915560
 21
191.793369434257220
  0
LINE
  8
0
  6
CONTINUOUS
 62
3
 10
186.034715846915560
 20
109.793369434257210
 11
187.034715846915560
 21
109.793369434257210
  0
LINE
  8
0
  6
CONTINUOUS
 62
3
 10
185.034715846915560
 20
150.793369434257220
 11
185.034715846915560
 21
229.479697313944480
  0
LINE
  8
0
  6
CONTINUOUS
 62
3
 10
187.034715846915560
 20
150.793369434257220
 11
187.034715846915560
 21
267.931794443006650
  0
LINE
  8
0
  6
CONTINUOUS
 62
3
 10
185.034715846915560
 20
150.793369434257220
 11
185.034715846915560
 21
72.107041554569946
  0
LINE
  8
0
  6
DASHDOT
 62
4
 10
-264.250794667874290
 20
150.793369434257220
 11
266.049706088417000
 21
150.793369434257220
  0
ARC
  8
0
  6
CONTINUOUS
 62
3
 10
182.034715846915560
 20
72.107041554569946
 40
3.000000000000318
 50
328.322304183038280
 51
0.000000000000000
  0
ARC
  8
0
  6
CONTINUOUS
 62
3
 10
186.034715846915560
 20
192.793369434257220
 40
1.000000000000000
 50
180.000000000000000
 51
270.000000000000000
  0
ARC
  8
0
  6
CONTINUOUS
 62
3
 10
186.034715846915560
 20
108.793369434257210
 40
1.000000000000000
 50
90.000000000000000
 51
180.000000000000000
  0
ARC
  8
0
  6
CONTINUOUS
 62
3
 10
169.034715846915560
 20
43.293366756496539
 40
21.999999999999375
 50
90.999999999999432
 51
183.430124496071130
  0
ARC
  8
0
  6
CONTINUOUS
 62
3
 10
179.644174194223300
 20
68.482363741899348
 40
3.000000000000504
 50
271.000000000010350
 51
324.866525231741780
  0
LINE
  8
0
  6
CONTINUOUS
 62
3
 10
168.650762905295550
 20
65.290016049936526
 11
179.696531413535690
 21
65.482820656429681
  0
ARC
  8
0
  6
CONTINUOUS
 62
3
 10
120.761592552647690
 20
109.917150808121610
 40
75.000000000000071
 50
324.866525231742120
 51
328.322304183047150
  0
LINE
  8
0
  6
CONTINUOUS
 62
3
 10
187.034715846915560
 20
150.793369434257220
 11
187.034715846915560
 21
33.518876519038599
  0
LINE
  8
0
  6
DASHDOT
 62
4
 10
169.034715846915560
 20
25.793366756496539
 11
169.034715846915560
 21
60.793366756496539
  0
CIRCLE
  8
0
  6
CONTINUOUS
 62
3
 10
169.034715846915560
 20
43.293366756496539
 40
7.500000000000000
  0
LINE
  8
0
  6
CONTINUOUS
 62
3
 10
249.034722972783360
 20
127.793369434257210
 11
194.034722972783360
 21
127.793369434257210
  0
LINE
  8
0
  6
CONTINUOUS
 62
3
 10
194.034715846914650
 20
130.793369434257220
 11
194.034715846914650
 21
127.793369434257210
  0
ARC
  8
0
  6
CONTINUOUS
 62
3
 10
248.634715846914560
 20
170.393369434256670
 40
0.400000000000091
 50
0.000000000000000
 51
90.000000000000000
  0
LINE
  8
0
  6
CONTINUOUS
 62
3
 10
248.634715846914560
 20
170.793369434257220
 11
192.094530593919220
 21
170.793369434256310
  0
LINE
  8
0
  6
CONTINUOUS
 62
3
 10
249.034715846914650
 20
150.793369434257220
 11
249.034715846914650
 21
170.393369434256670
  0
ARC
  8
0
  6
CONTINUOUS
 62
3
 10
190.634715846914560
 20
172.243369434257030
 40
1.599999999999909
 50
180.000000000000000
 51
270.000000000000000
  0
LINE
  8
0
  6
CONTINUOUS
 62
3
 10
191.534722972783360
 20
170.643369434256670
 11
190.634715846914560
 21
170.643369434256670
  0
LINE
  8
0
  6
CONTINUOUS
 62
3
 10
188.634715846914560
 20
173.293369434257220
 11
189.034715846914650
 21
172.893369434256670
  0
LINE
  8
0
  6
CONTINUOUS
 62
3
 10
188.634715846914560
 20
173.293369434257220
 11
187.034715846915560
 21
173.293369434257220
  0
LINE
  8
0
  6
CONTINUOUS
 62
3
 10
189.034715846914650
 20
150.793369434257220
 11
189.034715846914650
 21
172.893369434256670
  0
LINE
  8
0
  6
CONTINUOUS
 62
3
 10
192.094530593918760
 20
170.793369434256310
 11
191.534722972783360
 21
170.643369434256670
  0
LINE
  8
0
  6
CONTINUOUS
 62
3
 10
188.634715846914560
 20
128.293369434257220
 11
187.034715846915560
 21
128.293369434257220
  0
ARC
  8
0
  6
CONTINUOUS
 62
3
 10
190.634715846914560
 20
129.343369434257400
 40
1.599999999999454
 50
90.000000000000000
 51
180.000000000000000
  0
LINE
  8
0
  6
CONTINUOUS
 62
3
 10
191.534722972783360
 20
130.943369434256850
 11
190.634715846914560
 21
130.943369434256850
  0
LINE
  8
0
  6
CONTINUOUS
 62
3
 10
188.634715846914560
 20
128.293369434257220
 11
189.034715846914650
 21
128.693369434256850
  0
LINE
  8
0
  6
CONTINUOUS
 62
3
 10
189.034715846914650
 20
150.793369434257220
 11
189.034715846914650
 21
128.693369434256850
  0
LINE
  8
0
  6
CONTINUOUS
 62
3
 10
248.634715846914560
 20
130.793369434257220
 11
192.094530593919220
 21
130.793369434257220
  0
LINE
  8
0
  6
CONTINUOUS
 62
3
 10
192.094530593918760
 20
130.793369434257220
 11
191.534722972783360
 21
130.943369434256850
  0
LINE
  8
0
  6
CONTINUOUS
 62
3
 10
249.034715846914650
 20
150.793369434257220
 11
249.034715846914650
 21
127.793369434257210
  0
ARC
  8
0
  6
CONTINUOUS
 62
3
 10
248.634715846914560
 20
131.193369434256850
 40
0.399999999999636
 50
270.000000000000000
 51
0.000000000000000
  0
ARC
  8
0
  6
CONTINUOUS
 62
3
 10
8.034715846915560
 20
33.496151470248037
 40
8.000000000000000
 50
180.000000000000000
 51
267.831324413388360
  0
LINE
  8
0
  6
CONTINUOUS
 62
3
 10
7.731983909300425
 20
25.501881436408325
 11
59.034715846915560
 21
23.559118009773442
  0
CIRCLE
  8
0
  6
CONTINUOUS
 62
3
 10
19.034715846915560
 20
43.293366756496539
 40
7.500000000000000
  0
LINE
  8
0
  6
DASHDOT
 62
4
 10
19.034715846915560
 20
25.793366756496539
 11
19.034715846915560
 21
60.793366756496539
  0
LINE
  8
0
  6
CONTINUOUS
 62
3
 10
179.174335098413170
 20
25.656162864256544
 11
59.034715846915560
 21
23.559118009773442
  0
ARC
  8
0
  6
CONTINUOUS
 62
3
 10
179.034715846915560
 20
33.654944425507779
 40
8.000000000000092
 50
270.999999999995280
 51
0.000000000000000
  0
ARC
  8
0
  6
CONTINUOUS
 62
3
 10
144.079503138385690
 20
41.797586467797260
 40
2.999999999999901
 50
288.896514820060250
 51
3.430124496075548
  0
ARC
  8
0
  6
CONTINUOUS
 62
3
 10
120.761592552647690
 20
109.917150808121610
 40
75.000000000000526
 50
271.000000000000060
 51
288.896514820053600
  0
LINE
  8
0
  6
CONTINUOUS
 62
3
 10
57.034715846915560
 20
150.793369434257220
 11
57.034715846915560
 21
33.793369434257215
  0
LINE
  8
0
  6
CONTINUOUS
 62
3
 10
0.034715846915560
 20
62.931789336579527
 11
0.034715846915560
 21
33.210209464090326
  0
LINE
  8
0
  6
CONTINUOUS
 62
3
 10
57.034715846915560
 20
33.793369434257215
 11
122.070523035444010
 21
34.928573671391746
  0
ARC
  8
0
  6
CONTINUOUS
 62
3
 10
8.034715846915560
 20
238.654949531934900
 40
8.000000000000000
 50
180.000000000000000
 51
268.999999999998240
  0
LINE
  8
0
  6
CONTINUOUS
 62
3
 10
7.895096595417044
 20
230.656167970683670
 11
10.111846369323757
 21
230.617474459450590
  0
LINE
  8
0
  6
CONTINUOUS
 62
3
 10
7.895096595417044
 20
70.930570897830762
 11
10.111846369323757
 21
70.969264409063840
  0
ARC
  8
0
  6
CONTINUOUS
 62
3
 10
8.034715846915560
 20
62.931789336579527
 40
8.000000000000108
 50
91.000000000001762
 51
180.000000000000000
  0
LINE
  8
0
  6
DASHDOT
 62
4
 10
19.034715846915560
 20
244.330139380577630
 11
19.034715846915560
 21
240.793372112017890
  0
LINE
  8
0
  6
DASHDOT
 62
4
 10
36.534715846915560
 20
43.293366756496539
 11
1.534715846915560
 21
43.293366756496539
  0
LINE
  8
0
  6
DASHDOT
 62
4
 10
186.534715846915560
 20
43.293366756496539
 11
151.534715846915560
 21
43.293366756496539
  0
LINE
  8
0
  6
CONTINUOUS
 62
3
 10
7.731983909300425
 20
276.084857432106110
 11
59.034715846915560
 21
278.027620858740990
  0
ARC
  8
0
  6
CONTINUOUS
 62
3
 10
8.034715846915560
 20
268.090587398266390
 40
7.999999999999988
 50
92.168675586611627
 51
180.000000000000000
  0
LINE
  8
0
  6
CONTINUOUS
 62
3
 10
179.174335098413170
 20
275.930576004257890
 11
59.034715846915560
 21
278.027620858740990
  0
ARC
  8
0
  6
CONTINUOUS
 62
3
 10
179.034715846915560
 20
267.931794443006650
 40
8.000000000000000
 50
0.000000000000000
 51
89.000000000004761
  0
ARC
  8
0
  6
CONTINUOUS
 62
3
 10
179.644174194223300
 20
233.104375126615080
 40
3.000000000000104
 50
35.133474768258203
 51
88.999999999989711
  0
LINE
  8
0
  6
CONTINUOUS
 62
3
 10
168.650762905295550
 20
236.296722818577900
 11
179.696531413535690
 21
236.103918212084750
  0
ARC
  8
0
  6
CONTINUOUS
 62
3
 10
144.079503138385690
 20
259.789152400717170
 40
3.000000000000326
 50
356.569875503924440
 51
71.103485179939781
  0
ARC
  8
0
  6
CONTINUOUS
 62
3
 10
169.034715846915560
 20
258.293372112017890
 40
22.000000000000316
 50
176.569875503928870
 51
269.000000000000570
  0
CIRCLE
  8
0
  6
CONTINUOUS
 62
3
 10
169.034715846915560
 20
258.293372112017890
 40
7.500000000000000
  0
CIRCLE
  8
0
  6
CONTINUOUS
 62
3
 10
19.034715846915560
 20
258.293372112017890
 40
7.500000000000000
  0
ARC
  8
0
  6
CONTINUOUS
 62
3
 10
120.761592552647690
 20
191.669588060392810
 40
75.000000000000767
 50
31.677695816952838
 51
35.133474768257869
  0
ARC
  8
0
  6
CONTINUOUS
 62
3
 10
182.034715846915560
 20
229.479697313944480
 40
3.000000000000000
 50
0.000000000000000
 51
31.677695816961705
  0
ARC
  8
0
  6
CONTINUOUS
 62
3
 10
120.761592552647690
 20
191.669588060392810
 40
75.000000000000327
 50
71.103485179946389
 51
88.999999999999972
  0
LINE
  8
0
  6
CONTINUOUS
 62
3
 10
8.042483393939392
 20
57.064729356763451
 11
37.297836154438528
 21
57.575383438695894
  0
LINE
  8
0
  6
CONTINUOUS
 62
3
 10
57.034715846915560
 20
150.793369434257220
 11
57.034715846915560
 21
267.793369434257220
  0
LINE
  8
0
  6
CONTINUOUS
 62
3
 10
8.042483393939392
 20
244.522009511750980
 11
37.297836154438528
 21
244.011355429818540
  0
LINE
  8
0
  6
DASHDOT
 62
4
 10
169.034715846915560
 20
275.793372112017890
 11
169.034715846915560
 21
240.793372112017890
  0
LINE
  8
0
  6
DASHDOT
 62
4
 10
186.534715846915560
 20
258.293372112017890
 11
151.534715846915560
 21
258.293372112017890
  0
LINE
  8
0
  6
CONTINUOUS
 62
3
 10
57.034715846915560
 20
267.793369434257220
 11
122.070523035444010
 21
266.658165197122680
  0
LINE
  8
0
  6
DASHDOT
 62
4
 10
19.034715846915560
 20
275.793372112017890
 11
19.034715846915560
 21
244.330139380577630
  0
LINE
  8
0
  6
DASHDOT
 62
4
 10
36.534715846915560
 20
258.293372112017890
 11
1.534715846915560
 21
258.293372112017890
  0
LINE
  8
0
  6
CONTINUOUS
 62
3
 10
0.034715846915560
 20
238.210214570516540
 11
0.034715846915560
 21
268.090587398266390
  0
ARC
  8
0
  6
CONTINUOUS
 62
3
 10
40.534715846915333
 20
239.942419268893330
 40
4.999999999999244
 50
272.000000000003920
 51
344.651069713993190
  0
LINE
  8
0
  6
CONTINUOUS
 62
3
 10
20.034715846908966
 20
234.223495772818180
 11
20.034715846914423
 21
150.793369434257220
  0
LINE
  8
0
  6
CONTINUOUS
 62
3
 10
20.034715846908966
 20
234.223495772818180
 11
40.709213330428156
 21
234.945465133798620
  0
LINE
  8
0
  6
CONTINUOUS
 62
3
 10
45.534715846915560
 20
264.793369434257220
 11
45.534715846915788
 21
174.293369434257220
  0
LINE
  8
0
  6
CONTINUOUS
 62
3
 10
36.534715846915788
 20
171.293369434257220
 11
42.534715846915788
 21
171.293369434257220
  0
LINE
  8
0
  6
CONTINUOUS
 62
3
 10
29.034715846904874
 20
171.293369434257220
 11
33.534715846915788
 21
171.293369434257220
  0
LINE
  8
0
  6
CONTINUOUS
 62
3
 10
29.034715846904874
 20
171.293369434257220
 11
29.034715846906238
 21
150.793369434257220
  0
LINE
  8
0
  6
CONTINUOUS
 62
3
 10
33.534715846915788
 20
150.793369434257220
 11
33.534715846915788
 21
171.293369434257220
  0
ARC
  8
0
  6
CONTINUOUS
 62
3
 10
36.534715846915788
 20
168.293369434257220
 40
3.000000000000000
 50
90.000000000000000
 51
180.000000000000000
  0
ARC
  8
0
  6
CONTINUOUS
 62
3
 10
42.534715846915788
 20
174.293369434257220
 40
3.000000000000000
 50
270.000000000000000
 51
0.000000000000000
  0
ARC
  8
0
  6
CONTINUOUS
 62
3
 10
48.534715846915560
 20
264.793369434257220
 40
3.000000000000000
 50
90.000000000000000
 51
180.000000000000000
  0
LINE
  8
0
  6
CONTINUOUS
 62
3
 10
38.534715846915788
 20
250.293369434257220
 11
38.034716800589877
 21
250.293369434257220
  0
LINE
  8
0
  6
CONTINUOUS
 62
3
 10
38.534715846915788
 20
263.293369434257220
 11
38.034717754264193
 21
263.293369434257220
  0
LINE
  8
0
  6
CONTINUOUS
 62
3
 10
38.034716800589877
 20
250.293369434257220
 11
38.034716800589877
 21
263.293369434257220
  0
LINE
  8
0
  6
CONTINUOUS
 62
3
 10
38.034718065074912
 20
263.293369411556230
 11
37.534717114881687
 21
262.427439840487640
  0
LINE
  8
0
  6
CONTINUOUS
 62
3
 10
38.034717438447615
 20
250.293369410188800
 11
37.534717412300552
 21
251.159493550322960
  0
LINE
  8
0
  6
CONTINUOUS
 62
3
 10
37.534716800589877
 20
251.159493587394420
 11
37.534716800589877
 21
262.427439830680560
  0
ARC
  8
0
  6
CONTINUOUS
 62
3
 10
41.534715846915560
 20
264.793369434257220
 40
3.000000000000000
 50
90.000000000000000
 51
180.000000000000000
  0
LINE
  8
0
  6
CONTINUOUS
 62
3
 10
56.534715846915560
 20
267.793369434256760
 11
41.534715846915560
 21
267.793369434257220
  0
LINE
  8
0
  6
CONTINUOUS
 62
3
 10
38.534715846915788
 20
241.793369434257220
 11
38.534715846915560
 21
264.793369434257220
  0
ARC
  8
0
  6
CONTINUOUS
 62
3
 10
43.534715846915788
 20
237.793369434257670
 40
2.000000000000000
 50
0.000000000000000
 51
90.000000000000000
  0
LINE
  8
0
  6
CONTINUOUS
 62
3
 10
43.534715846915788
 20
239.793369434257670
 11
40.534715846915788
 21
239.793369434257220
  0
ARC
  8
0
  6
CONTINUOUS
 62
3
 10
40.534715846915788
 20
241.793369434257220
 40
2.000000000000000
 50
180.000000000000000
 51
270.000000000000000
  0
LINE
  8
0
  6
CONTINUOUS
 62
3
 10
56.534715846915560
 20
267.793369434256760
 11
56.534715846915333
 21
150.793369434257220
  0
INSERT
  8
0
  2
SYM7
 10
45.534715846915788
 20
217.793369434257220
 41
-1.000000000000000
 50
180.000000000000000
  0
INSERT
  8
0
  2
SYM8
 10
29.034715846905328
 20
161.293369434257220
 41
-1.000000000000000
 50
180.000000000000000
  0
ARC
  8
0
  6
CONTINUOUS
 62
3
 10
40.534715846915333
 20
61.644319599621213
 40
4.999999999999970
 50
15.348930286009365
 51
87.999999999996049
  0
LINE
  8
0
  6
CONTINUOUS
 62
3
 10
20.034715846908966
 20
67.363243095696362
 11
20.034715846914423
 21
150.793369434257220
  0
LINE
  8
0
  6
CONTINUOUS
 62
3
 10
20.034715846908966
 20
67.363243095696362
 11
40.709213330428156
 21
66.641273734715924
  0
LINE
  8
0
  6
CONTINUOUS
 62
3
 10
45.534715846915788
 20
36.793369434257329
 11
45.534715846915788
 21
127.293369434257320
  0
LINE
  8
0
  6
CONTINUOUS
 62
3
 10
36.534715846915788
 20
130.293369434257330
 11
42.534715846915788
 21
130.293369434257330
  0
LINE
  8
0
  6
CONTINUOUS
 62
3
 10
29.034715846904874
 20
130.293369434257330
 11
33.534715846915788
 21
130.293369434257330
  0
LINE
  8
0
  6
CONTINUOUS
 62
3
 10
29.034715846904874
 20
130.293369434257330
 11
29.034715846906238
 21
150.793369434257220
  0
LINE
  8
0
  6
CONTINUOUS
 62
3
 10
33.534715846915788
 20
150.793369434257220
 11
33.534715846915788
 21
130.293369434257330
  0
ARC
  8
0
  6
CONTINUOUS
 62
3
 10
36.534715846915788
 20
133.293369434257330
 40
3.000000000000000
 50
180.000000000000000
 51
270.000000000000000
  0
ARC
  8
0
  6
CONTINUOUS
 62
3
 10
42.534715846915788
 20
127.293369434257320
 40
3.000000000000000
 50
0.000000000000000
 51
90.000000000000000
  0
ARC
  8
0
  6
CONTINUOUS
 62
3
 10
48.534715846915788
 20
36.793369434257329
 40
3.000000000000000
 50
180.000000000000000
 51
270.000000000000000
  0
LINE
  8
0
  6
CONTINUOUS
 62
3
 10
38.534715846915788
 20
51.293369434257215
 11
38.034716800590104
 21
51.293369434257329
  0
LINE
  8
0
  6
CONTINUOUS
 62
3
 10
38.534715846915788
 20
38.293369434257215
 11
38.034717754264420
 21
38.293369434257329
  0
LINE
  8
0
  6
CONTINUOUS
 62
3
 10
38.034716800590104
 20
51.293369434257329
 11
38.034716800590104
 21
38.293369434257329
  0
LINE
  8
0
  6
CONTINUOUS
 62
3
 10
38.034718065075140
 20
38.293369456958317
 11
37.534717114881914
 21
39.159299028026908
  0
LINE
  8
0
  6
CONTINUOUS
 62
3
 10
38.034717438447842
 20
51.293369458325742
 11
37.534717412300779
 21
50.427245318191581
  0
LINE
  8
0
  6
CONTINUOUS
 62
3
 10
37.534716800590104
 20
50.427245281120122
 11
37.534716800590104
 21
39.159299037833989
  0
ARC
  8
0
  6
CONTINUOUS
 62
3
 10
41.534715846915788
 20
36.793369434257329
 40
3.000000000000000
 50
180.000000000000000
 51
270.000000000000000
  0
LINE
  8
0
  6
CONTINUOUS
 62
3
 10
56.534715846915788
 20
33.793369434257784
 11
41.534715846915788
 21
33.793369434257329
  0
LINE
  8
0
  6
CONTINUOUS
 62
3
 10
38.534715846915788
 20
59.793369434257329
 11
38.534715846915788
 21
36.793369434257329
  0
ARC
  8
0
  6
CONTINUOUS
 62
3
 10
43.534715846915788
 20
63.793369434256874
 40
2.000000000000000
 50
270.000000000000000
 51
0.000000000000000
  0
LINE
  8
0
  6
CONTINUOUS
 62
3
 10
43.534715846915788
 20
61.793369434256874
 11
40.534715846915788
 21
61.793369434257329
  0
ARC
  8
0
  6
CONTINUOUS
 62
3
 10
40.534715846915788
 20
59.793369434257329
 40
2.000000000000000
 50
90.000000000000000
 51
180.000000000000000
  0
LINE
  8
0
  6
CONTINUOUS
 62
3
 10
56.534715846915788
 20
33.793369434257784
 11
56.534715846915333
 21
150.793369434257220
  0
INSERT
  8
0
  2
SYM9
 10
45.534715846915788
 20
83.793369434257329
 50
0.000000000000014
  0
INSERT
  8
0
  2
SYM10
 10
29.034715846905328
 20
140.293369434257330
 50
0.000000000000014
  0
LINE
  8
0
  6
CONTINUOUS
 62
3
 10
-487.501584628814500
 20
-183.620679353206040
 11
-487.501584628814500
 21
-187.206630565744830
  0
INSERT
  8
0
  2
SYM11
 10
-458.802360170772090
 20
-228.507406107702200
  0
INSERT
  8
0
  2
SYM11
 10
-349.200809086856680
 20
-228.507406107702200
  0
LINE
  8
0
  6
DASHDOT
 62
4
 10
-276.460900145979390
 20
-149.206630565743010
 11
-535.506207657337650
 21
-149.206630565742530
  0
ARC
  8
0
  6
CONTINUOUS
 62
3
 10
-378.501584628814270
 20
-203.206630565742330
 40
3.000000000000763
 50
167.756347132299030
 51
180.000000000000000
  0
ARC
  8
0
  6
CONTINUOUS
 62
3
 10
-389.501584628814270
 20
-203.680892024210720
 40
3.000000000000000
 50
0.000000000000000
 51
16.485334242759059
  0
ARC
  8
0
  6
CONTINUOUS
 62
3
 10
-418.501584628814270
 20
-203.680892024210720
 40
2.999999999999749
 50
163.514665757240950
 51
180.000000000000000
  0
ARC
  8
0
  6
CONTINUOUS
 62
3
 10
-429.501584628814270
 20
-203.206630565742560
 40
3.000000000000000
 50
0.000000000000000
 51
12.243652867704167
  0
ARC
  8
0
  6
CONTINUOUS
 62
3
 10
-464.158268903912590
 20
-126.447522057160650
 40
3.000000000000228
 50
54.618555413447936
 51
56.479995948265923
  0
ARC
  8
0
  6
CONTINUOUS
 62
3
 10
-458.802360170772090
 20
-118.905855023787460
 40
6.249999999999694
 50
234.618555413461590
 51
239.573505486895330
  0
LINE
  8
0
  6
CONTINUOUS
 62
3
 10
-426.501584628814270
 20
-203.206630565742560
 11
-426.501584628814270
 21
-250.323244556453010
  0
LINE
  8
0
  6
CONTINUOUS
 62
3
 10
-421.501584628814270
 20
-203.680892024210720
 11
-421.501584628814270
 21
-251.406630565744880
  0
LINE
  8
0
  6
CONTINUOUS
 62
3
 10
-386.501584628814270
 20
-203.680892024210720
 11
-386.501584628814270
 21
-251.406630565744880
  0
LINE
  8
0
  6
CONTINUOUS
 62
3
 10
-381.501584628814270
 20
-203.206630565742330
 11
-381.501584628814270
 21
-250.323244556453010
  0
ARC
  8
0
  6
CONTINUOUS
 62
3
 10
-389.501584628814270
 20
-251.406630565744880
 40
3.000000000000000
 50
270.000000000000000
 51
0.000000000000000
  0
ARC
  8
0
  6
CONTINUOUS
 62
3
 10
-378.501584628814270
 20
-250.323244556453010
 40
3.000000000000000
 50
180.000000000000000
 51
280.317602512868580
  0
ARC
  8
0
  6
CONTINUOUS
 62
3
 10
-418.501584628814270
 20
-251.406630565744880
 40
3.000000000000000
 50
180.000000000000000
 51
270.000000000000000
  0
ARC
  8
0
  6
CONTINUOUS
 62
3
 10
-429.501584628814270
 20
-250.323244556453010
 40
2.999999999999893
 50
259.682397487131420
 51
0.000000000000000
  0
ARC
  8
0
  6
CONTINUOUS
 62
3
 10
-390.501584628814270
 20
-160.206630565744830
 40
70.000000000000043
 50
35.853467063468088
 51
70.725519355454693
  0
ARC
  8
0
  6
CONTINUOUS
 62
3
 10
-349.687382102326410
 20
-107.072828968956740
 40
2.999999999999952
 50
52.470689430266106
 51
106.715133671082380
  0
ARC
  8
0
  6
CONTINUOUS
 62
3
 10
-354.001584628814270
 20
-92.706630565744945
 40
12.000000000000204
 50
196.481075114644030
 51
201.440250913326930
  0
ARC
  8
0
  6
CONTINUOUS
 62
3
 10
-368.385287027935190
 20
-96.962110009183334
 40
2.999999999999918
 50
16.481075114643080
 51
70.725519355451723
  0
ARC
  8
0
  6
CONTINUOUS
 62
3
 10
-377.501584628814270
 20
-94.479923665125057
 40
3.000000000000028
 50
78.811944248677634
 51
180.000000000000000
  0
LINE
  8
0
  6
CONTINUOUS
 62
3
 10
-380.501584628814270
 20
-95.896503162097247
 11
-380.501584628814270
 21
-94.479923665125057
  0
ARC
  8
0
  6
CONTINUOUS
 62
3
 10
-430.501584628814270
 20
-94.479923665125057
 40
3.000000000000000
 50
0.000000000000000
 51
101.188055751322360
  0
LINE
  8
0
  6
CONTINUOUS
 62
3
 10
-427.501584628814270
 20
-95.896503162097247
 11
-427.501584628814270
 21
-94.479923665125057
  0
ARC
  8
0
  6
CONTINUOUS
 62
3
 10
-439.617882229693350
 20
-96.962110009183334
 40
3.000000000000082
 50
109.274480644548270
 51
163.518924885356910
  0
ARC
  8
0
  6
CONTINUOUS
 62
3
 10
-454.001584628814500
 20
-92.706630565744945
 40
11.999999999999977
 50
253.284866328922110
 51
265.547337514764710
  0
ARC
  8
0
  6
CONTINUOUS
 62
3
 10
-458.315787155302360
 20
-107.072828968956740
 40
3.000000000000005
 50
73.284866328917616
 51
127.529310569726980
  0
ARC
  8
0
  6
CONTINUOUS
 62
3
 10
-417.501584628814270
 20
-160.206630565744830
 40
69.999999999999986
 50
90.000000000000000
 51
109.274480644545300
  0
LINE
  8
0
  6
CONTINUOUS
 62
3
 10
-487.501584628814500
 20
-183.620679353206040
 11
-487.501584628814500
 21
-187.206630565744830
  0
ARC
  8
0
  6
CONTINUOUS
 62
3
 10
-417.501584628814270
 20
-187.206630565744830
 40
70.000000000000227
 50
180.000000000000000
 51
180.108522628564400
  0
ARC
  8
0
  6
CONTINUOUS
 62
3
 10
-456.001584628814500
 20
-256.706630565744830
 40
12.000000000000282
 50
30.268861166778397
 51
91.762018045748349
  0
ARC
  8
0
  6
CONTINUOUS
 62
3
 10
-456.462807166410360
 20
-241.713723116860480
 40
3.000000000000193
 50
234.443126549156720
 51
271.762018045752540
  0
ARC
  8
0
  6
CONTINUOUS
 62
3
 10
-443.046540309039300
 20
-249.145755836411470
 40
3.000000000000099
 50
210.268861166779320
 51
247.587752663367470
  0
LINE
  8
0
  6
CONTINUOUS
 62
3
 10
-390.501584628814270
 20
-257.206630565744830
 11
-417.501584628814270
 21
-257.206630565744830
  0
ARC
  8
0
  6
CONTINUOUS
 62
3
 10
-352.001584628814270
 20
-256.706630565744830
 40
12.000000000000021
 50
88.237981954247360
 51
149.731138833220510
  0
ARC
  8
0
  6
CONTINUOUS
 62
3
 10
-364.956628948588790
 20
-249.145755836411470
 40
2.999999999999907
 50
292.412247336624550
 51
329.731138833218490
  0
ARC
  8
0
  6
CONTINUOUS
 62
3
 10
-323.501584628814270
 20
-181.226614591293920
 40
3.000000000000000
 50
0.000000000000000
 51
48.904592888801552
  0
ARC
  8
0
  6
CONTINUOUS
 62
3
 10
-390.501584628814270
 20
-187.206630565744830
 40
70.000000000000000
 50
270.000000000000000
 51
292.412247336625740
  0
LINE
  8
0
  6
CONTINUOUS
 62
3
 10
-320.501584628814270
 20
-181.226614591293920
 11
-320.501584628814270
 21
-187.206630565744830
  0
ARC
  8
0
  6
CONTINUOUS
 62
3
 10
-351.540362091217960
 20
-241.713723116860480
 40
2.999999999999935
 50
268.237981954255990
 51
305.556873450843280
  0
ARC
  8
0
  6
CONTINUOUS
 62
3
 10
-404.001584628814270
 20
-173.706630565744830
 40
29.999999999999975
 50
259.111672490974460
 51
280.888327509025540
  0
ARC
  8
0
  6
CONTINUOUS
 62
3
 10
-349.200809086856680
 20
-228.507406107702420
 40
6.249999999999958
 50
54.618555413458211
 51
215.381444586544720
  0
ARC
  8
0
  6
CONTINUOUS
 62
3
 10
-356.742476120230090
 20
-233.863314840843150
 40
3.000000000000133
 50
308.153187915560180
 51
35.381444586539963
  0
ARC
  8
0
  6
CONTINUOUS
 62
3
 10
-343.844900353716180
 20
-220.965739074329240
 40
2.999999999999964
 50
234.618555413455030
 51
321.846812084445900
  0
ARC
  8
0
  6
CONTINUOUS
 62
3
 10
-464.158268903912590
 20
-220.965739074329240
 40
2.999999999999813
 50
218.153187915559470
 51
305.381444586552050
  0
ARC
  8
0
  6
CONTINUOUS
 62
3
 10
-458.802360170772090
 20
-228.507406107702420
 40
6.250000000000274
 50
324.618555413457670
 51
125.381444586538400
  0
ARC
  8
0
  6
CONTINUOUS
 62
3
 10
-451.260693137398680
 20
-233.863314840843150
 40
2.999999999999964
 50
144.618555413455000
 51
231.846812084446610
  0
LINE
  8
0
  6
CONTINUOUS
 62
3
 10
-463.792181444438600
 20
-116.013228239554590
 11
-460.315943763073850
 21
-114.006226072192360
  0
LINE
  8
0
  6
CONTINUOUS
 62
3
 10
-463.791489728914140
 20
-116.405405220838500
 11
-463.792181450042560
 21
-116.013225062228340
  0
LINE
  8
0
  6
CONTINUOUS
 62
3
 10
-461.848430551744510
 20
-122.901755222781020
 11
-462.515931604777960
 21
-122.514800625928500
  0
LINE
  8
0
  6
CONTINUOUS
 62
3
 10
-344.221160652253270
 20
-116.030860330137440
 11
-344.215559279203490
 21
-119.206630565742670
  0
LINE
  8
0
  6
CONTINUOUS
 62
3
 10
-347.680032916757800
 20
-114.025732090210930
 11
-344.221163653174700
 21
-116.030860554612900
  0
ARC
  8
0
  6
CONTINUOUS
 62
3
 10
-349.200809086856680
 20
-118.905855023787460
 40
4.999999999999980
 50
356.551284094674600
 51
71.710142504453458
  0
ARC
  8
0
  6
CONTINUOUS
 62
3
 10
-458.802360170772090
 20
-118.905855023787460
 40
4.999999999999998
 50
108.289857495549320
 51
160.034302033855110
  0
INSERT
  8
0
  2
SYM12
 10
-471.001584628814500
 20
-276.706629768644120
 41
-1.000000000000000
  0
INSERT
  8
0
  2
SYM13
 10
-511.001584628814500
 20
-218.706629768644120
 41
-1.000000000000000
  0
INSERT
  8
0
  2
SYM14
 10
-510.001584628814500
 20
-152.706629768643890
 41
-1.000000000000000
  0
INSERT
  8
0
  2
SYM15
 10
-471.001584628814500
 20
-76.706629768643893
 41
-1.000000000000000
  0
INSERT
  8
0
  2
SYM16
 10
-414.501584628814500
 20
-69.706629768644120
 41
-1.000000000000000
  0
INSERT
  8
0
  2
SYM17
 10
-337.001584628814500
 20
-276.706629768644120
  0
INSERT
  8
0
  2
SYM18
 10
-297.001584628814500
 20
-218.706629768644120
  0
INSERT
  8
0
  2
SYM19
 10
-298.001584628814500
 20
-152.706629768643890
  0
INSERT
  8
0
  2
SYM20
 10
-337.001584628814500
 20
-76.706629768643893
  0
INSERT
  8
0
  2
SYM21
 10
-393.501584628814500
 20
-69.706629768644120
  0
ARC
  8
0
  6
CONTINUOUS
 62
3
 10
-393.501584628814500
 20
-31.706629768644120
 40
10.000000000000000
 50
0.000000000000000
 51
90.000000000000000
  0
LINE
  8
0
  6
CONTINUOUS
 62
3
 10
-383.501584628814500
 20
-31.706629768644120
 11
-383.501584628814500
 21
-57.127056527303353
  0
LINE
  8
0
  6
CONTINUOUS
 62
3
 10
-393.501584628814500
 20
-21.706629768644120
 11
-414.501584628814500
 21
-21.706629768644120
  0
ARC
  8
0
  6
CONTINUOUS
 62
3
 10
-414.501584628814500
 20
-31.706629768644120
 40
10.000000000000000
 50
90.000000000000000
 51
180.000000000000000
  0
LINE
  8
0
  6
DASHDOT
 62
4
 10
-380.833671629932950
 20
-41.706629768644120
 11
-427.856185531467640
 21
-41.706629768644120
  0
CIRCLE
  8
0
  6
CONTINUOUS
 62
3
 10
-404.001584628814500
 20
-41.706629768644120
 40
10.000000000000000
  0
LINE
  8
0
  6
CONTINUOUS
 62
3
 10
-424.501584628814500
 20
-31.706629768644120
 11
-424.501584628814500
 21
-57.127056527303353
  0
LINE
  8
0
  6
DASHDOT
 62
4
 10
-375.778665554986220
 20
-141.706630565744150
 11
-432.178502608880080
 21
-141.706630565744150
  0
ARC
  8
0
  6
CONTINUOUS
 62
3
 10
-519.001584628814500
 20
-141.706629768643890
 40
2.000000000000000
 50
90.000000000000000
 51
180.000000000000000
  0
ARC
  8
0
  6
CONTINUOUS
 62
3
 10
-515.001584628814500
 20
-219.302683026456750
 40
6.000000000000000
 50
180.000000000000000
 51
202.331645009221920
  0
LINE
  8
0
  6
CONTINUOUS
 62
3
 10
-506.001584628814500
 20
-139.706629768643890
 11
-519.001584628814500
 21
-139.706629768643890
  0
LINE
  8
0
  6
CONTINUOUS
 62
3
 10
-506.001584628814500
 20
-113.706629768643890
 11
-512.899821930118610
 21
-113.706629768643890
  0
LINE
  8
0
  6
CONTINUOUS
 62
3
 10
-302.001584628814500
 20
-139.706629768643890
 11
-290.001584628814500
 21
-139.706629768643890
  0
LINE
  8
0
  6
CONTINUOUS
 62
3
 10
-302.001584628814500
 20
-113.706629768643890
 11
-296.603522641065180
 21
-113.706629768643890
  0
LINE
  8
0
  6
CONTINUOUS
 62
3
 10
-404.001584628814500
 20
-81.706629768644120
 11
-386.501584628814500
 21
-81.706629768644120
  0
LINE
  8
0
  6
CONTINUOUS
 62
3
 10
-404.001584628814500
 20
-81.706629768644120
 11
-421.501584628814500
 21
-81.706629768644120
  0
LINE
  8
0
  6
CONTINUOUS
 62
3
 10
-407.251584628814500
 20
-87.276439982270844
 11
-407.251584628814500
 21
-84.706629768644120
  0
LINE
  8
0
  6
CONTINUOUS
 62
3
 10
-400.751584628814500
 20
-87.276439982270844
 11
-400.751584628814500
 21
-84.706629768644120
  0
LINE
  8
0
  6
CONTINUOUS
 62
3
 10
-336.774227921944430
 20
-111.075467936587410
 11
-312.463279161929450
 21
-86.764519176572890
  0
LINE
  8
0
  6
CONTINUOUS
 62
3
 10
-341.370421999656860
 20
-106.479273858874760
 11
-317.153928219247290
 21
-82.262780078465653
  0
LINE
  8
0
  6
CONTINUOUS
 62
3
 10
-466.632747257972140
 20
-106.479273858874760
 11
-479.041647410085260
 21
-94.070373706761885
  0
LINE
  8
0
  6
CONTINUOUS
 62
3
 10
-477.458230305204890
 20
-104.846178967067230
 11
-479.479380179391230
 21
-102.825029092880860
  0
LINE
  8
0
  6
CONTINUOUS
 62
3
 10
-471.228941335684570
 20
-236.337793194902470
 11
-493.161461237283900
 21
-258.270313096501350
  0
LINE
  8
0
  6
CONTINUOUS
 62
3
 10
-466.632747257972140
 20
-240.933987272614900
 11
-488.565267159571020
 21
-262.866507174213780
  0
LINE
  8
0
  6
CONTINUOUS
 62
3
 10
-332.964930799357940
 20
-240.147090317488730
 11
-314.841708020345100
 21
-258.270313096501130
  0
LINE
  8
0
  6
CONTINUOUS
 62
3
 10
-336.865377386418230
 20
-245.439031885853300
 11
-319.437902098057980
 21
-262.866507174213780
  0
ARC
  8
0
  6
CONTINUOUS
 62
3
 10
-506.001584628814500
 20
-126.706629768643890
 40
13.000000000000000
 50
270.000000000000000
 51
288.973483482546780
  0
ARC
  8
0
  6
CONTINUOUS
 62
3
 10
-512.899821930118610
 20
-111.706629768643890
 40
2.000000000000116
 50
157.893323870137750
 51
270.000000000000000
  0
ARC
  8
0
  6
CONTINUOUS
 62
3
 10
-302.001584628814500
 20
-126.706629768643890
 40
13.000000000000000
 50
90.000000000000000
 51
270.000000000000000
  0
ARC
  8
0
  6
CONTINUOUS
 62
3
 10
-404.001584628814500
 20
-173.706630565744830
 40
125.999999999999870
 50
309.364679251356730
 51
337.668354990778480
  0
ARC
  8
0
  6
CONTINUOUS
 62
3
 10
-293.001584628814500
 20
-219.302683026456750
 40
6.000000000000214
 50
337.668354990778080
 51
0.000000000000000
  0
ARC
  8
0
  6
CONTINUOUS
 62
3
 10
-404.001584628814500
 20
-173.706630565744830
 40
126.000000000000180
 50
202.331645009221490
 51
230.635320748643100
  0
ARC
  8
0
  6
CONTINUOUS
 62
3
 10
-319.011544516163440
 20
-277.305342341760590
 40
8.000000000000215
 50
129.364679251358580
 51
178.093887109017460
  0
ARC
  8
0
  6
CONTINUOUS
 62
3
 10
-471.001584628814500
 20
-276.706629768644120
 40
10.000000000000053
 50
306.869864344412290
 51
315.572968020398260
  0
ARC
  8
0
  6
CONTINUOUS
 62
3
 10
-488.991624741465560
 20
-277.305342341760590
 40
7.999999999999923
 50
1.906112890982627
 51
50.635320748643942
  0
ARC
  8
0
  6
CONTINUOUS
 62
3
 10
-471.001584628814500
 20
-276.706629768644120
 40
10.000000000000130
 50
181.906112890982260
 51
233.130135655587680
  0
ARC
  8
0
  6
CONTINUOUS
 62
3
 10
-337.001584628814500
 20
-276.706629768644120
 40
10.000000000000158
 50
224.427031979599950
 51
233.130135655587680
  0
ARC
  8
0
  6
CONTINUOUS
 62
3
 10
-337.001584628814500
 20
-276.706629768644120
 40
10.000000000000053
 50
306.869864344412290
 51
358.093887109017660
  0
ARC
  8
0
  6
CONTINUOUS
 62
3
 10
-386.501584628814500
 20
-78.706629768644120
 40
3.000000000000000
 50
270.000000000000000
 51
0.000000000000000
  0
ARC
  8
0
  6
CONTINUOUS
 62
3
 10
-421.501584628814500
 20
-78.706629768644120
 40
3.000000000000000
 50
180.000000000000000
 51
270.000000000000000
  0
ARC
  8
0
  6
CONTINUOUS
 62
3
 10
-365.725505906179250
 20
-216.479230349462450
 40
37.999999999999936
 50
264.588104602568250
 51
355.900478402576140
  0
ARC
  8
0
  6
CONTINUOUS
 62
3
 10
-322.835526571408310
 20
-219.553262337410270
 40
4.999999999999917
 50
154.450645436618710
 51
175.900478402575570
  0
ARC
  8
0
  6
CONTINUOUS
 62
3
 10
-369.781051067094950
 20
-259.287553762646780
 40
5.000000000000205
 50
84.588104602569331
 51
106.037937568522150
  0
ARC
  8
0
  6
CONTINUOUS
 62
3
 10
-397.751584628814500
 20
-84.706629768644120
 40
3.000000000000000
 50
90.000000000000000
 51
180.000000000000000
  0
ARC
  8
0
  6
CONTINUOUS
 62
3
 10
-410.251584628814500
 20
-84.706629768644120
 40
3.000000000000000
 50
0.000000000000000
 51
90.000000000000000
  0
ARC
  8
0
  6
CONTINUOUS
 62
3
 10
-334.652907578384880
 20
-113.196788280146960
 40
2.999999999999864
 50
135.000000000000000
 51
220.088526589902530
  0
ARC
  8
0
  6
CONTINUOUS
 62
3
 10
-310.341958818369900
 20
-88.885839520132436
 40
3.000000000000097
 50
41.240714208219508
 51
135.000000000000000
  0
ARC
  8
0
  6
CONTINUOUS
 62
3
 10
-343.491742343216400
 20
-104.357953515315210
 40
3.000000000000124
 50
229.911473410096960
 51
315.000000000000000
  0
ARC
  8
0
  6
CONTINUOUS
 62
3
 10
-319.275248562806840
 20
-80.141459734905879
 40
3.000000000000024
 50
314.999999999996870
 51
49.983805954135455
  0
ARC
  8
0
  6
CONTINUOUS
 62
3
 10
-488.727920694822160
 20
-80.141459734905879
 40
2.999999999999794
 50
130.016194045864520
 51
225.000000000003070
  0
ARC
  8
0
  6
CONTINUOUS
 62
3
 10
-464.511426914412600
 20
-104.357953515315210
 40
2.999999999999864
 50
225.000000000000000
 51
310.088526589903040
  0
ARC
  8
0
  6
CONTINUOUS
 62
3
 10
-497.661210439259090
 20
-88.885839520132436
 40
2.999999999999864
 50
45.000000000000000
 51
138.759285791780480
  0
ARC
  8
0
  6
CONTINUOUS
 62
3
 10
-296.603522641065180
 20
-110.706629768643890
 40
3.000000000000000
 50
270.000000000000000
 51
23.148572820069919
  0
ARC
  8
0
  6
CONTINUOUS
 62
3
 10
-290.001584628814500
 20
-142.706629768643890
 40
3.000000000000000
 50
0.000000000000000
 51
90.000000000000000
  0
ARC
  8
0
  6
CONTINUOUS
 62
3
 10
-473.350261679244110
 20
-234.216472851342700
 40
3.000000000000024
 50
314.999999999996870
 51
40.088526589902528
  0
ARC
  8
0
  6
CONTINUOUS
 62
3
 10
-464.511426914412600
 20
-243.055307616174450
 40
3.000000000000124
 50
49.911473410096967
 51
135.000000000000000
  0
ARC
  8
0
  6
CONTINUOUS
 62
3
 10
-495.282781580843450
 20
-256.148992752941580
 40
3.000000000000218
 50
222.087374790476100
 51
314.999999999996870
  0
ARC
  8
0
  6
CONTINUOUS
 62
3
 10
-486.443946816011480
 20
-264.987827517773550
 40
3.000000000000024
 50
134.999999999996930
 51
227.912625209521000
  0
ARC
  8
0
  6
CONTINUOUS
 62
3
 10
-321.559222441617520
 20
-264.987827517773330
 40
3.000000000000218
 50
312.087374790476080
 51
45.000000000000000
  0
ARC
  8
0
  6
CONTINUOUS
 62
3
 10
-312.720387676785550
 20
-256.148992752941580
 40
2.999999999999864
 50
225.000000000000000
 51
317.912625209518070
  0
ARC
  8
0
  6
CONTINUOUS
 62
3
 10
-338.986697729978230
 20
-247.560352229412840
 40
3.000000000000185
 50
44.999999999993868
 51
130.705112768216340
  0
ARC
  8
0
  6
CONTINUOUS
 62
3
 10
-330.843610455798400
 20
-238.025769973928960
 40
2.999999999999677
 50
148.296383256597580
 51
225.000000000003070
  0
ARC
  8
0
  6
CONTINUOUS
 62
3
 10
-404.001584628814500
 20
-556.706629768644120
 40
499.999999999999940
 50
85.577622414021945
 51
87.650214394539574
  0
ARC
  8
0
  6
CONTINUOUS
 62
3
 10
-404.001584628814500
 20
-556.706629768644120
 40
499.999999999999940
 50
92.349785605460426
 51
94.422377585978055
  0
LINE
  8
0
  6
DASHDOT
 62
4
 10
-404.001584628814500
 20
-290.492046380449100
 11
-404.001584628814500
 21
-13.724091795435356
  0
LINE
  8
0
  6
CONTINUOUS
 62
3
 10
-383.501584628814500
 20
-57.127056527303580
 11
-383.501584628814500
 21
-78.706629768644120
  0
LINE
  8
0
  6
CONTINUOUS
 62
3
 10
-424.501584628814500
 20
-57.127056527303580
 11
-424.501584628814500
 21
-78.706629768644120
  0
ARC
  8
0
  6
CONTINUOUS
 62
3
 10
-516.001584628814500
 20
-249.079039310590020
 40
5.000000000000114
 50
33.939289208664569
 51
180.000000000000000
  0
ARC
  8
0
  6
CONTINUOUS
 62
3
 10
-404.001584628814500
 20
-173.706630565744830
 40
129.999999999999940
 50
213.939289208665090
 51
230.380873009517220
  0
ARC
  8
0
  6
CONTINUOUS
 62
3
 10
-292.001584628814500
 20
-249.079039310590020
 40
5.000000000000000
 50
0.000000000000000
 51
146.060710791332530
  0
ARC
  8
0
  6
CONTINUOUS
 62
3
 10
-404.001584628814500
 20
-173.706630565744830
 40
130.000000000000170
 50
309.619126990482750
 51
326.060710791335000
  0
ARC
  8
0
  6
CONTINUOUS
 62
3
 10
-337.001584628814500
 20
-276.706629768644120
 40
9.999999999999833
 50
224.427031979601790
 51
233.130135655587680
  0
ARC
  8
0
  6
CONTINUOUS
 62
3
 10
-436.001584628814500
 20
-142.942204038253410
 40
84.999999999999972
 50
94.422377585978197
 51
180.000000000000000
  0
ARC
  8
0
  6
CONTINUOUS
 62
3
 10
-524.001584628814500
 20
-261.706632832500760
 40
3.000000000000000
 50
270.000000000000000
 51
0.000000000000000
  0
ARC
  8
0
  6
CONTINUOUS
 62
3
 10
-526.001587742490070
 20
-267.706633629600790
 40
3.000000000000000
 50
90.000000000000000
 51
180.000000000000000
  0
ARC
  8
0
  6
CONTINUOUS
 62
3
 10
-482.001586621566960
 20
-286.706633255960580
 40
2.000000000000000
 50
90.000000000000000
 51
180.000000000000000
  0
ARC
  8
0
  6
CONTINUOUS
 62
3
 10
-498.091964444446830
 20
-267.706633629600790
 40
3.000000000000004
 50
44.972469343427150
 51
90.000000000000000
  0
ARC
  8
0
  6
CONTINUOUS
 62
3
 10
-471.001584628814500
 20
-276.706629768644120
 40
10.000000000000053
 50
306.869864344412290
 51
315.572968020398260
  0
ARC
  8
0
  6
CONTINUOUS
 62
3
 10
-326.001582636062040
 20
-286.706633255960580
 40
2.000000000000000
 50
0.000000000000000
 51
90.000000000000000
  0
ARC
  8
0
  6
CONTINUOUS
 62
3
 10
-372.001584628814500
 20
-142.942204038253410
 40
85.000000000000000
 50
0.000000000000000
 51
85.577622414021803
  0
ARC
  8
0
  6
CONTINUOUS
 62
3
 10
-284.001584628814500
 20
-261.706632832500760
 40
3.000000000000000
 50
180.000000000000000
 51
270.000000000000000
  0
ARC
  8
0
  6
CONTINUOUS
 62
3
 10
-282.001581515138920
 20
-267.706633629600790
 40
3.000000000000057
 50
0.000000000000000
 51
90.000000000000000
  0
ARC
  8
0
  6
CONTINUOUS
 62
3
 10
-309.911204813182170
 20
-267.706633629600790
 40
3.000000000000000
 50
90.000000000000000
 51
135.027530656572850
  0
LINE
  8
0
  6
DASHDOT
 62
4
 10
-511.501587306575170
 20
-294.531092072118890
 11
-511.501587306575170
 21
-258.993054871646450
  0
LINE
  8
0
  6
CONTINUOUS
 62
3
 10
-484.001586621566960
 20
-286.706634177607730
 11
-529.001587742490070
 21
-286.706634177607730
  0
LINE
  8
0
  6
CONTINUOUS
 62
3
 10
-529.001587742490070
 20
-286.706634177607730
 11
-529.001587742490070
 21
-267.706633629600790
  0
LINE
  8
0
  6
CONTINUOUS
 62
3
 10
-498.091964444446830
 20
-264.706633629600790
 11
-526.001587742490070
 21
-264.706633629600790
  0
LINE
  8
0
  6
CONTINUOUS
 62
3
 10
-465.001589278572510
 20
-284.706633255960580
 11
-482.001586621566960
 21
-284.706633255960580
  0
LINE
  8
0
  6
CONTINUOUS
 62
3
 10
-484.001586621566960
 20
-286.706633380507700
 11
-484.001586621566960
 21
-280.008087043422510
  0
LINE
  8
0
  6
CONTINUOUS
 62
3
 10
-404.001584628814500
 20
-283.706633255960580
 11
-463.860159618527400
 21
-283.706633255960580
  0
LINE
  8
0
  6
CONTINUOUS
 62
3
 10
-343.001579979056490
 20
-284.706633255960580
 11
-326.001582636062040
 21
-284.706633255960580
  0
LINE
  8
0
  6
CONTINUOUS
 62
3
 10
-404.001584628814500
 20
-283.706633255960580
 11
-344.143009639101590
 21
-283.706633255960580
  0
LINE
  8
0
  6
CONTINUOUS
 62
3
 10
-324.001582636062040
 20
-286.706633380507700
 11
-324.001582636062040
 21
-280.008087043422620
  0
LINE
  8
0
  6
DASHDOT
 62
4
 10
-296.501581951053820
 20
-294.531092072118890
 11
-296.501581951053820
 21
-258.993054871646450
  0
LINE
  8
0
  6
CONTINUOUS
 62
3
 10
-324.001582636062040
 20
-286.706634177607730
 11
-279.001581515138870
 21
-286.706634177607730
  0
LINE
  8
0
  6
CONTINUOUS
 62
3
 10
-279.001581515138870
 20
-286.706634177607730
 11
-279.001581515138870
 21
-267.706633629600790
  0
LINE
  8
0
  6
CONTINUOUS
 62
3
 10
-309.911204813182170
 20
-264.706633629600790
 11
-282.001581515138920
 21
-264.706633629600790
  0
LINE
  8
0
  6
CONTINUOUS
 62
3
 10
-521.001584628814500
 20
-261.706632832500760
 11
-521.001584628814500
 21
-142.942204038253410
  0
LINE
  8
0
  6
CONTINUOUS
 62
3
 10
-287.001584628814500
 20
-261.706632832500760
 11
-287.001584628814500
 21
-142.942204038253410
  0
ARC
  8
0
  6
CONTINUOUS
 62
3
 10
-293.001584628814500
 20
-216.601851744799320
 40
6.000000000000148
 50
338.871302745699890
 51
0.000000000000000
  0
ARC
  8
0
  6
CONTINUOUS
 62
3
 10
-316.001582636062040
 20
-280.008087043422620
 40
8.000000000000055
 50
129.619126990482750
 51
180.000000000000000
  0
ARC
  8
0
  6
CONTINUOUS
 62
3
 10
-492.001586621566960
 20
-280.008087043422510
 40
8.000000000000000
 50
0.000000000000000
 51
50.380873009517259
  0
TEXT
  8
0
  6
CONTINUOUS
 62
3
 10
-419.081970214843750
 20
173.033615112304690
 40
10.000000000000000
  1
S044
 50
0.000002504478167
 41
0.470000016689301
  7
STANDARD1
  0
TEXT
  8
0
  6
CONTINUOUS
 62
3
 10
-419.081970214843750
 20
161.733627319335940
 40
10.000000000000000
  1
三菱ギヤードモートル
 50
0.000002504478167
 41
0.625000000000000
  7
STANDARD1
  0
TEXT
  8
0
  6
CONTINUOUS
 62
3
 10
-419.081970214843750
 20
150.433624267578120
 40
10.000000000000000
  1
GM-SS
 50
0.000002504478167
 41
0.470000016689301
  7
STANDARD1
  0
TEXT
  8
0
  6
CONTINUOUS
 62
3
 10
-419.081970214843750
 20
139.133621215820310
 40
10.000000000000000
  1
0.2kW
 50
0.000002504478167
 41
0.470000016689301
  7
STANDARD1
  0
TEXT
  8
0
  6
CONTINUOUS
 62
3
 10
-419.081970214843750
 20
127.833625793457030
 40
10.000000000000000
  1
1/540-1/900
 50
0.000002504478167
 41
0.470000016689301
  7
STANDARD1
  0
TEXT
  8
0
  6
CONTINUOUS
 62
3
 10
-419.081970214843750
 20
116.533622741699210
 40
10.000000000000000
  1
SCALE1/1
 50
0.000002504478167
 41
0.470000016689301
  7
STANDARD1
  0
ARC
  8
0
  6
CONTINUOUS
 62
3
 10
-354.001584628814270
 20
-92.706630565744945
 40
12.000000000000005
 50
274.413429774274390
 51
286.715133671077920
  0
ARC
  8
0
  6
CONTINUOUS
 62
3
 10
-454.001584628814500
 20
-92.706630565744945
 40
12.000000000000043
 50
338.559749086673040
 51
343.518924885356280
  0
ARC
  8
0
  6
CONTINUOUS
 62
3
 10
-390.501584628814270
 20
-160.206630565744830
 40
70.000000000000000
 50
70.725519355454693
 51
90.000000000000000
  0
ARC
  8
0
  6
CONTINUOUS
 62
3
 10
-417.501584628814270
 20
-160.206630565744830
 40
70.000000000000000
 50
109.274480644545300
 51
135.181622685887930
  0
ARC
  8
0
  6
CONTINUOUS
 62
3
 10
-458.802360170772090
 20
-118.905855023787460
 40
5.000000000000003
 50
221.817788613224310
 51
232.504024278707390
  0
LINE
  8
0
  6
CONTINUOUS
 62
3
 10
-479.826618854120970
 20
-93.285402262726222
 11
-490.849241038381710
 21
-82.262780078465653
  0
LINE
  8
0
  6
CONTINUOUS
 62
3
 10
-483.455492018338530
 20
-98.848917253933749
 11
-495.539890095699550
 21
-86.764519176572890
  0
ARC
  8
0
  6
CONTINUOUS
 62
3
 10
-506.001584628814500
 20
-126.706629768643890
 40
13.000000000000025
 50
55.527135506002672
 51
90.000000000000000
  0
ARC
  8
0
  6
CONTINUOUS
 62
3
 10
-417.501584628814270
 20
-187.206630565744830
 40
69.999999999999986
 50
185.053213672530210
 51
247.587752663374630
  0
ARC
  8
0
  6
CONTINUOUS
 62
3
 10
-393.501584628814500
 20
-69.706618555852401
 40
10.000000000000000
 50
270.000000000000000
 51
0.000000000000000
  0
LINE
  8
0
  6
CONTINUOUS
 62
3
 10
-393.501584628814500
 20
-79.706618555852401
 11
-414.501584628814500
 21
-79.706618555852401
  0
ARC
  8
0
  6
CONTINUOUS
 62
3
 10
-414.501584628814500
 20
-69.706618555852401
 40
10.000000000000000
 50
180.000000000000000
 51
270.000000000000000
  0
ARC
  8
0
  6
CONTINUOUS
 62
3
 10
-192.965305558431230
 20
-119.706630565742780
 40
2.000000000000000
 50
90.000000000000000
 51
180.000000000000000
  0
LINE
  8
0
  6
CONTINUOUS
 62
3
 10
-194.965305558431230
 20
-149.206630565742780
 11
-194.965305558431230
 21
-119.706630565742780
  0
LINE
  8
0
  6
CONTINUOUS
 62
3
 10
-194.965305558431230
 20
-149.206630565742780
 11
-194.965305558431230
 21
-178.706630565742780
  0
ARC
  8
0
  6
CONTINUOUS
 62
3
 10
-192.965305558431230
 20
-178.706630565742780
 40
2.000000000000000
 50
180.000000000000000
 51
270.000000000000000
  0
ARC
  8
0
  6
CONTINUOUS
 62
3
 10
-192.965305558431230
 20
-120.206630565742780
 40
1.000000000000000
 50
90.000000000000000
 51
180.000000000000000
  0
LINE
  8
0
  6
CONTINUOUS
 62
3
 10
-193.965305558431230
 20
-149.206630565742780
 11
-193.965305558431230
 21
-120.206630565742780
  0
LINE
  8
0
  6
CONTINUOUS
 62
3
 10
-193.965305558431230
 20
-149.206630565742780
 11
-193.965305558431230
 21
-178.206630565742780
  0
ARC
  8
0
  6
CONTINUOUS
 62
3
 10
-192.965305558431230
 20
-178.206630565742780
 40
1.000000000000000
 50
180.000000000000000
 51
270.000000000000000
  0
ARC
  8
0
  6
DASHED
 62
3
 10
495.412472078879770
 20
-163.249130565742920
 40
20.799999999999976
 50
185.047316781007850
 51
265.808273843992370
  0
ARC
  8
0
  6
DASHED
 62
3
 10
493.745924812496180
 20
-185.988141542672220
 40
1.999999999999927
 50
2.862405226112724
 51
85.808273843998350
  0
LINE
  8
0
  6
DASHED
 62
3
 10
358.612472078879820
 20
-180.706630565742900
 11
358.612472078879820
 21
-117.706630565742890
  0
LINE
  8
0
  6
DASHED
 62
3
 10
363.612472078879820
 20
-180.706630565742900
 11
358.612472078879820
 21
-180.706630565742900
  0
LINE
  8
0
  6
DASHED
 62
3
 10
363.612472078879820
 20
-169.706630565742900
 11
363.612472078879820
 21
-180.706630565742900
  0
LINE
  8
0
  6
DASHED
 62
3
 10
363.612472078879820
 20
-169.706630565742900
 11
362.312472078879640
 21
-169.706630565742900
  0
ARC
  8
0
  6
DASHED
 62
3
 10
362.312472078879640
 20
-169.506630565742910
 40
0.199999999999818
 50
180.000000000000000
 51
270.000000000000000
  0
LINE
  8
0
  6
DASHED
 62
3
 10
362.112472078879820
 20
-149.206630565742900
 11
362.112472078879820
 21
-169.506630565742910
  0
LINE
  8
0
  6
DASHED
 62
3
 10
362.112472078879820
 20
-149.206630565742900
 11
362.112472078879820
 21
-128.906630565742890
  0
ARC
  8
0
  6
DASHED
 62
3
 10
362.312472078879640
 20
-128.906630565742890
 40
0.199999999999989
 50
90.000000000000000
 51
180.000000000000000
  0
LINE
  8
0
  6
DASHED
 62
3
 10
363.612472078879820
 20
-128.706630565742900
 11
362.312472078879640
 21
-128.706630565742900
  0
LINE
  8
0
  6
DASHED
 62
3
 10
363.612472078879820
 20
-128.706630565742900
 11
363.612472078879820
 21
-117.706630565742890
  0
LINE
  8
0
  6
DASHED
 62
3
 10
363.612472078879820
 20
-117.706630565742890
 11
358.612472078879820
 21
-117.706630565742890
  0
ARC
  8
0
  6
DASHED
 62
3
 10
335.173702944898200
 20
-174.206630565742900
 40
4.999999999999890
 50
184.861405395798270
 51
270.000000000000000
  0
LINE
  8
0
  6
DASHED
 62
3
 10
335.173702944898200
 20
-179.206630565742900
 11
358.612472078879820
 21
-179.206630565742900
  0
ARC
  8
0
  6
DASHED
 62
3
 10
629.112472078879820
 20
-149.206630565742900
 40
300.000000000000000
 50
180.000000000000000
 51
184.861405395798040
  0
ARC
  8
0
  6
DASHED
 62
3
 10
629.112472078879820
 20
-149.206630565742900
 40
300.000000000000110
 50
175.138594604201960
 51
180.000000000000000
  0
LINE
  8
0
  6
DASHED
 62
3
 10
328.612472078879820
 20
-146.706630565742900
 11
329.122888926397540
 21
-146.706630565742900
  0
LINE
  8
0
  6
DASHED
 62
3
 10
328.612472078879820
 20
-151.706630565742900
 11
329.122888926397540
 21
-151.706630565742900
  0
LINE
  8
0
  6
DASHED
 62
3
 10
328.612472078879820
 20
-151.706630565742900
 11
328.612472078879820
 21
-146.706630565742900
  0
ARC
  8
0
  6
DASHED
 62
3
 10
335.173702944898200
 20
-124.206630565742890
 40
5.000000000000000
 50
90.000000000000000
 51
175.138594604202010
  0
LINE
  8
0
  6
DASHED
 62
3
 10
335.173702944898200
 20
-119.206630565742890
 11
358.612472078879820
 21
-119.206630565742890
  0
ARC
  8
0
  6
DASHED
 62
3
 10
499.338937910212000
 20
-185.708490887786410
 40
1.999999999999995
 50
99.916536608232732
 51
182.862405226112400
  0
LINE
  8
0
  6
DASHED
 62
3
 10
496.208978627737620
 20
-195.199249058503480
 11
497.806982369942200
 21
-195.119348871392500
  0
ARC
  8
0
  6
DASHED
 62
3
 10
491.165279697398720
 20
-190.445187906394780
 40
9.000000000000016
 50
346.260874118632560
 51
19.463953636438596
  0
LINE
  8
0
  6
DASHED
 62
3
 10
497.382512625919390
 20
-186.629953990930910
 11
498.360316438427050
 21
-186.581063800305490
  0
LINE
  8
0
  6
DASHED
 62
3
 10
497.732075944526850
 20
-193.621220363075790
 11
498.709879757034510
 21
-193.572330172450390
  0
ARC
  8
0
  6
DASHED
 62
3
 10
498.425235302354790
 20
-187.879441078859120
 40
1.299999237060553
 50
19.463953636438703
 51
92.862423212204519
  0
ARC
  8
0
  6
DASHED
 62
3
 10
498.644960893106830
 20
-192.273952893896760
 40
1.299999237060546
 50
272.862404542868430
 51
346.260874118632100
  0
ARC
  8
0
  6
DASHED
 62
3
 10
495.412472078879770
 20
-163.249130565742920
 40
20.800000000000029
 50
279.916536608230390
 51
334.359929784105190
  0
ARC
  8
0
  6
DASHED
 62
3
 10
495.412472078879770
 20
-163.249130565742920
 40
20.799999999999926
 50
334.359929784105190
 51
5.724810452223396
  0
ARC
  8
0
  6
DASHED
 62
3
 10
495.412472078879770
 20
-163.249130565742920
 40
20.799999999999926
 50
334.359929784105190
 51
5.724810452223396
  0
LINE
  8
0
  6
DASHED
 62
3
 10
516.108731430500710
 20
-161.174317598161910
 11
512.118706492844690
 21
-121.373818845044630
  0
LINE
  8
0
  6
DASHED
 62
3
 10
492.713345441665300
 20
-93.246610305852528
 11
497.806982369942200
 21
-195.119348871392500
  0
LINE
  8
0
  6
DASHED
 62
3
 10
491.914343570563010
 20
-93.286560399407676
 11
497.007980498839910
 21
-195.159298964947770
  0
LINE
  8
0
  6
DASHED
 62
3
 10
491.115341699460710
 20
-93.326510492962711
 11
496.208978627737620
 21
-195.199249058503480
  0
ARC
  8
0
  6
DASHED
 62
3
 10
489.586717444792840
 20
-102.803994188605200
 40
1.999999999999958
 50
280.598785266065990
 51
2.862405226112724
  0
ARC
  8
0
  6
DASHED
 62
3
 10
495.179730542508650
 20
-102.524343533719380
 40
1.999999999999927
 50
182.862405226112710
 51
265.126025186159040
  0
LINE
  8
0
  6
DASHED
 62
3
 10
492.713345441665300
 20
-93.246610305852528
 11
491.115341699460710
 21
-93.326510492962711
  0
ARC
  8
0
  6
DASHED
 62
3
 10
486.571018938559750
 20
-98.559972729632818
 40
8.999999999999948
 50
346.260856815786500
 51
19.463936333592187
  0
LINE
  8
0
  6
DASHED
 62
3
 10
493.137815185687710
 20
-101.736005186314060
 11
494.115618998195490
 21
-101.687114995688710
  0
LINE
  8
0
  6
DASHED
 62
3
 10
492.788251867080590
 20
-94.744738814169182
 11
493.766055679588130
 21
-94.695848623543839
  0
ARC
  8
0
  6
DASHED
 62
3
 10
494.050700134267800
 20
-100.388737717135080
 40
1.299999237060550
 50
272.862387240019760
 51
346.260856815788600
  0
ARC
  8
0
  6
DASHED
 62
3
 10
493.830974543515820
 20
-95.994225902097355
 40
1.299999237060645
 50
19.463936333587132
 51
92.862405909348169
  0
ARC
  8
0
  6
DASHED
 62
3
 10
493.412472078879770
 20
-123.249130565742910
 40
18.799999999999983
 50
100.598785266066050
 51
180.000000000000000
  0
LINE
  8
0
  6
DASHED
 62
3
 10
474.612472078879820
 20
-165.079081369104530
 11
474.612472078879820
 21
-123.249130565742910
  0
ARC
  8
0
  6
DASHED
 62
3
 10
493.412472078879770
 20
-123.249130565742910
 40
18.799999999999933
 50
35.808626813495749
 51
85.126025186157264
  0
ARC
  8
0
  6
DASHED
 62
3
 10
493.412472078879770
 20
-123.249130565742910
 40
18.799999999999837
 50
5.724810452223617
 51
35.808626813495749
  0
ENDSEC
  0
EOF
