  0
SECTION
  2
HEADER
  9
$FILLMODE
 70
1
  9
$TEXTSTYLE
  7
STANDARD1
  9
$ACADVER
  1
AC1009
  9
$DIMASZ
 40
1.931851648807023
  9
$DIMEXE
 40
2.000000000000000
  9
$DIMEXO
 40
1.000000000000000
  9
$DIMLFAC
 40
1.000000000000000
  9
$DIMSCALE
 40
1.000000000000000
  9
$DIMTAD
 70
1
  9
$DIMTFAC
 40
0.714285731315613
  9
$DIMTXT
 40
3.200000047683716
  9
$LUPREC
 70
3
  9
$TEXTSIZE
 40
3.299999952316284
  9
$REGENMODE
 70
1
  0
ENDSEC
  0
SECTION
  2
TABLES
  0
TABLE
  2
LTYPE
 70
4
  0
LTYPE
  2
CONTINUOUS
 70
64
  3
Solid line
 72
65
 73
0
 40
0.0
  0
LTYPE
  2
DASHED
 70
64
  3
-- -- -- -- -- -- -- -- -- -- -- -- -- -- --
 72
65
 73
2
 40
0.75
 49
0.5
 49
-0.25
  0
LTYPE
  2
DASHDOT
 70
64
  3
__ . __ . __ . __ . __ . __ . __ . __ . __ . __
 72
65
 73
4
 40
1.0
 49
0.5
 49
-0.25
 49
0.0
 49
-0.25
  0
LTYPE
  2
DIVIDE
 70
64
  3
__ . . __ . . __ . . __ . . __ . . __ . . __
 72
65
 73
6
 40
1.25
 49
0.5
 49
-0.25
 49
0.0
 49
-0.25
 49
0.0
 49
-0.25
  0
ENDTAB
  0
TABLE
  2
LAYER
 70
1
  0
LAYER
  2
0
 70
64
 62
2
  6
CONTINUOUS
  0
ENDTAB
  0
TABLE
  2
STYLE
 70
4
  0
STYLE
  2
STANDARD1
 70
64
 40
0.0
 41
1.0
 50
0.0
 71
0
 42
3.299999952316284
  3
MONOTXT
  4
BIGFONT
  0
STYLE
  2
STANDARD2
 70
68
 40
0.0
 41
1.0
 50
0.0
 71
0
 42
3.299999952316284
  3
MONOTXT
  4
BIGFONT
  0
STYLE
  2
STANDARD3
 70
64
 40
0.0
 41
1.0
 50
0.0
 71
0
 42
3.299999952316284
  3
MONOTXT
  4

  0
STYLE
  2
STANDARD4
 70
68
 40
0.0
 41
1.0
 50
0.0
 71
0
 42
3.299999952316284
  3
MONOTXT
  4

  0
ENDTAB
  0
TABLE
  2
VIEW
 70
0
  0
ENDTAB
  0
ENDSEC
  0
SECTION
  2
BLOCKS
  0
BLOCK
  8
0
  2
SYM1
 70
64
 10
0.000000000000000
 20
0.000000000000000
  0
LINE
  8
0
  6
CONTINUOUS
 62
3
 10
-7.499999046325684
 20
6.500000000000000
 11
-7.499999046325684
 21
-6.500000000000000
  0
LINE
  8
0
  6
CONTINUOUS
 62
3
 10
-7.499997911632022
 20
-6.499999445138201
 11
-7.999998623386432
 21
-5.634070287011241
  0
LINE
  8
0
  6
CONTINUOUS
 62
3
 10
-7.499999203818277
 20
6.499999909101064
 11
-7.999999021366804
 21
5.633876130311293
  0
LINE
  8
0
  6
CONTINUOUS
 62
3
 10
-0.000000000000000
 20
-6.500000000000000
 11
-7.499998092651367
 21
-6.500000000000000
  0
LINE
  8
0
  6
CONTINUOUS
 62
3
 10
0.000000000000000
 20
6.500000000000000
 11
-7.499999046325684
 21
6.500000000000000
  0
LINE
  8
0
  6
CONTINUOUS
 62
3
 10
-7.999999046325684
 20
5.633875846862793
 11
-7.999999046325684
 21
-5.634070396423340
  0
LINE
  8
0
  6
CONTINUOUS
 62
3
 10
0.000000000000000
 20
-6.500000000000000
 11
-0.000000000000000
 21
6.500000000000000
  0
POINT
  8
0
  6
CONTINUOUS
 62
3
 10
0.000000000000000
 20
0.000000000000000
  0
ENDBLK
  8
0
  0
BLOCK
  8
0
  2
SYM2
 70
64
 10
0.000000000000000
 20
0.000000000000000
  0
LINE
  8
0
  6
CONTINUOUS
 62
3
 10
-7.499999046325684
 20
6.500000000000000
 11
-7.499999046325684
 21
-6.500000000000000
  0
LINE
  8
0
  6
CONTINUOUS
 62
3
 10
-7.499997911632022
 20
-6.499999445138201
 11
-7.999998623386432
 21
-5.634070287011241
  0
LINE
  8
0
  6
CONTINUOUS
 62
3
 10
-7.499999203818277
 20
6.499999909101064
 11
-7.999999021366804
 21
5.633876130311293
  0
LINE
  8
0
  6
CONTINUOUS
 62
3
 10
-0.000000000000000
 20
-6.500000000000000
 11
-7.499998092651367
 21
-6.500000000000000
  0
LINE
  8
0
  6
CONTINUOUS
 62
3
 10
0.000000000000000
 20
6.500000000000000
 11
-7.499999046325684
 21
6.500000000000000
  0
LINE
  8
0
  6
CONTINUOUS
 62
3
 10
-7.999999046325684
 20
5.633875846862793
 11
-7.999999046325684
 21
-5.634070396423340
  0
LINE
  8
0
  6
CONTINUOUS
 62
3
 10
0.000000000000000
 20
-6.500000000000000
 11
-0.000000000000000
 21
6.500000000000000
  0
POINT
  8
0
  6
CONTINUOUS
 62
3
 10
0.000000000000000
 20
0.000000000000000
  0
ENDBLK
  8
0
  0
BLOCK
  8
0
  2
SYM3
 70
64
 10
0.000000000000000
 20
0.000000000000000
  0
ARC
  8
0
  6
CONTINUOUS
 62
3
 10
1.981662750244141
 20
-0.000008163610801
 40
5.981661796569824
 50
150.999363302540700
 51
209.000072979481700
  0
ARC
  8
0
  6
CONTINUOUS
 62
3
 10
-2.269982337951660
 20
4.325008392333984
 40
1.729999542236328
 50
179.999745461767870
 51
235.499786279783790
  0
ARC
  8
0
  6
CONTINUOUS
 62
3
 10
-2.270017623901367
 20
-4.324990272521973
 40
1.729999542236328
 50
124.499759285265280
 51
179.999745461767870
  0
LINE
  8
0
  6
CONTINUOUS
 62
3
 10
-3.249984168999890
 20
2.900012016287064
 11
0.000013133145058
 21
2.899999618522375
  0
LINE
  8
0
  6
CONTINUOUS
 62
3
 10
-3.250009052584916
 20
-2.899986267083180
 11
-0.000013285950788
 21
-2.899999618524636
  0
LINE
  8
0
  6
CONTINUOUS
 62
3
 10
0.000023687533422
 20
5.749999046325684
 11
-0.000023687533422
 21
-5.749999046325684
  0
LINE
  8
0
  6
CONTINUOUS
 62
3
 10
-3.249972343459831
 20
5.750005722029982
 11
0.000027906669402
 21
5.749993324257003
  0
LINE
  8
0
  6
CONTINUOUS
 62
3
 10
-3.999972830514309
 20
4.900008662670757
 11
-3.249970339875063
 21
5.750006850331147
  0
LINE
  8
0
  6
CONTINUOUS
 62
3
 10
-4.000014781949545
 20
-4.899978112209579
 11
-3.999973773958658
 21
4.900011588107803
  0
LINE
  8
0
  6
CONTINUOUS
 62
3
 10
-3.250024308998832
 20
-5.749987011620533
 11
-4.000020133420207
 21
-4.899982163000686
  0
LINE
  8
0
  6
CONTINUOUS
 62
3
 10
-0.000027060931608
 20
-5.749995231614290
 11
-3.250020760774497
 21
-5.749981880178368
  0
POINT
  8
0
  6
CONTINUOUS
 62
3
 10
0.000000000000000
 20
0.000000000000000
  0
ENDBLK
  8
0
  0
BLOCK
  8
0
  2
SYM4
 70
64
 10
0.000000000000000
 20
0.000000000000000
  0
LINE
  8
0
  6
CONTINUOUS
 62
3
 10
-7.499999046325684
 20
6.500000000000000
 11
-7.499999046325684
 21
-6.500000000000000
  0
LINE
  8
0
  6
CONTINUOUS
 62
3
 10
-7.499997911632022
 20
-6.499999445138201
 11
-7.999998623386432
 21
-5.634070287011241
  0
LINE
  8
0
  6
CONTINUOUS
 62
3
 10
-7.499999203818277
 20
6.499999909101064
 11
-7.999999021366804
 21
5.633876130311293
  0
LINE
  8
0
  6
CONTINUOUS
 62
3
 10
-0.000000000000000
 20
-6.500000000000000
 11
-7.499998092651367
 21
-6.500000000000000
  0
LINE
  8
0
  6
CONTINUOUS
 62
3
 10
0.000000000000000
 20
6.500000000000000
 11
-7.499999046325684
 21
6.500000000000000
  0
LINE
  8
0
  6
CONTINUOUS
 62
3
 10
-7.999999046325684
 20
5.633875846862793
 11
-7.999999046325684
 21
-5.634070396423340
  0
LINE
  8
0
  6
CONTINUOUS
 62
3
 10
0.000000000000000
 20
-6.500000000000000
 11
-0.000000000000000
 21
6.500000000000000
  0
POINT
  8
0
  6
CONTINUOUS
 62
3
 10
0.000000000000000
 20
0.000000000000000
  0
ENDBLK
  8
0
  0
BLOCK
  8
0
  2
SYM5
 70
64
 10
0.000000000000000
 20
0.000000000000000
  0
LINE
  8
0
  6
CONTINUOUS
 62
3
 10
-7.499999046325684
 20
6.500000000000000
 11
-7.499999046325684
 21
-6.500000000000000
  0
LINE
  8
0
  6
CONTINUOUS
 62
3
 10
-7.499997911632022
 20
-6.499999445138201
 11
-7.999998623386432
 21
-5.634070287011241
  0
LINE
  8
0
  6
CONTINUOUS
 62
3
 10
-7.499999203818277
 20
6.499999909101064
 11
-7.999999021366804
 21
5.633876130311293
  0
LINE
  8
0
  6
CONTINUOUS
 62
3
 10
-0.000000000000000
 20
-6.500000000000000
 11
-7.499998092651367
 21
-6.500000000000000
  0
LINE
  8
0
  6
CONTINUOUS
 62
3
 10
0.000000000000000
 20
6.500000000000000
 11
-7.499999046325684
 21
6.500000000000000
  0
LINE
  8
0
  6
CONTINUOUS
 62
3
 10
-7.999999046325684
 20
5.633875846862793
 11
-7.999999046325684
 21
-5.634070396423340
  0
LINE
  8
0
  6
CONTINUOUS
 62
3
 10
0.000000000000000
 20
-6.500000000000000
 11
-0.000000000000000
 21
6.500000000000000
  0
POINT
  8
0
  6
CONTINUOUS
 62
3
 10
0.000000000000000
 20
0.000000000000000
  0
ENDBLK
  8
0
  0
BLOCK
  8
0
  2
SYM6
 70
64
 10
0.000000000000000
 20
0.000000000000000
  0
POINT
  8
0
  6
CONTINUOUS
 62
3
 10
0.000000000000000
 20
5.633955001831055
  0
POINT
  8
0
  6
CONTINUOUS
 62
3
 10
0.500000119209290
 20
6.500000000000000
  0
LINE
  8
0
  6
CONTINUOUS
 62
3
 10
-0.000004704988612
 20
-3.464098175748802
 11
-2.999997577100373
 21
-1.732046218032735
  0
LINE
  8
0
  6
CONTINUOUS
 62
3
 10
0.000006618601731
 20
3.464096896385627
 11
2.999997425948948
 21
1.732046782136365
  0
LINE
  8
0
  6
CONTINUOUS
 62
3
 10
2.999998112093635
 20
-1.732051392778772
 11
-0.000004464412200
 21
-3.464098365415111
  0
LINE
  8
0
  6
CONTINUOUS
 62
3
 10
0.000006701720849
 20
3.464096999935236
 11
-2.999997939551520
 21
1.732051821705568
  0
LINE
  8
0
  6
CONTINUOUS
 62
3
 10
2.999996662140697
 20
1.732046953225571
 11
2.999997615814979
 21
-1.732051023458999
  0
LINE
  8
0
  6
CONTINUOUS
 62
3
 10
-2.999996662140960
 20
-1.732045999551255
 11
-2.999997615815242
 21
1.732051977133316
  0
POINT
  8
0
  6
CONTINUOUS
 62
3
 10
0.000000000000000
 20
0.000000000000000
  0
CIRCLE
  8
0
  6
CONTINUOUS
 62
3
 10
0.000000000000000
 20
0.000000000000000
 40
6.500000000000000
  0
CIRCLE
  8
0
  6
CONTINUOUS
 62
3
 10
0.000000000000000
 20
0.000000000000000
 40
5.633955001831055
  0
ENDBLK
  8
0
  0
BLOCK
  8
0
  2
SYM7
 70
64
 10
0.000000000000000
 20
0.000000000000000
  0
POINT
  8
0
  6
CONTINUOUS
 62
3
 10
0.000000000000000
 20
5.633955001831055
  0
POINT
  8
0
  6
CONTINUOUS
 62
3
 10
0.500000119209290
 20
6.500000000000000
  0
LINE
  8
0
  6
CONTINUOUS
 62
3
 10
-0.000004704988612
 20
-3.464098175748802
 11
-2.999997577100373
 21
-1.732046218032735
  0
LINE
  8
0
  6
CONTINUOUS
 62
3
 10
0.000006618601731
 20
3.464096896385627
 11
2.999997425948948
 21
1.732046782136365
  0
LINE
  8
0
  6
CONTINUOUS
 62
3
 10
2.999998112093635
 20
-1.732051392778772
 11
-0.000004464412200
 21
-3.464098365415111
  0
LINE
  8
0
  6
CONTINUOUS
 62
3
 10
0.000006701720849
 20
3.464096999935236
 11
-2.999997939551520
 21
1.732051821705568
  0
LINE
  8
0
  6
CONTINUOUS
 62
3
 10
2.999996662140697
 20
1.732046953225571
 11
2.999997615814979
 21
-1.732051023458999
  0
LINE
  8
0
  6
CONTINUOUS
 62
3
 10
-2.999996662140960
 20
-1.732045999551255
 11
-2.999997615815242
 21
1.732051977133316
  0
POINT
  8
0
  6
CONTINUOUS
 62
3
 10
0.000000000000000
 20
0.000000000000000
  0
CIRCLE
  8
0
  6
CONTINUOUS
 62
3
 10
0.000000000000000
 20
0.000000000000000
 40
6.500000000000000
  0
CIRCLE
  8
0
  6
CONTINUOUS
 62
3
 10
0.000000000000000
 20
0.000000000000000
 40
5.633955001831055
  0
ENDBLK
  8
0
  0
BLOCK
  8
0
  2
SYM8
 70
64
 10
0.000000000000000
 20
0.000000000000000
  0
POINT
  8
0
  6
CONTINUOUS
 62
3
 10
0.000000000000000
 20
5.633955001831055
  0
POINT
  8
0
  6
CONTINUOUS
 62
3
 10
0.500000119209290
 20
6.500000000000000
  0
LINE
  8
0
  6
CONTINUOUS
 62
3
 10
-0.000004704988612
 20
-3.464098175748802
 11
-2.999997577100373
 21
-1.732046218032735
  0
LINE
  8
0
  6
CONTINUOUS
 62
3
 10
0.000006618601731
 20
3.464096896385627
 11
2.999997425948948
 21
1.732046782136365
  0
LINE
  8
0
  6
CONTINUOUS
 62
3
 10
2.999998112093635
 20
-1.732051392778772
 11
-0.000004464412200
 21
-3.464098365415111
  0
LINE
  8
0
  6
CONTINUOUS
 62
3
 10
0.000006701720849
 20
3.464096999935236
 11
-2.999997939551520
 21
1.732051821705568
  0
LINE
  8
0
  6
CONTINUOUS
 62
3
 10
2.999996662140697
 20
1.732046953225571
 11
2.999997615814979
 21
-1.732051023458999
  0
LINE
  8
0
  6
CONTINUOUS
 62
3
 10
-2.999996662140960
 20
-1.732045999551255
 11
-2.999997615815242
 21
1.732051977133316
  0
POINT
  8
0
  6
CONTINUOUS
 62
3
 10
0.000000000000000
 20
0.000000000000000
  0
CIRCLE
  8
0
  6
CONTINUOUS
 62
3
 10
0.000000000000000
 20
0.000000000000000
 40
6.500000000000000
  0
CIRCLE
  8
0
  6
CONTINUOUS
 62
3
 10
0.000000000000000
 20
0.000000000000000
 40
5.633955001831055
  0
ENDBLK
  8
0
  0
BLOCK
  8
0
  2
SYM9
 70
64
 10
0.000000000000000
 20
0.000000000000000
  0
POINT
  8
0
  6
CONTINUOUS
 62
3
 10
0.000000000000000
 20
5.633955001831055
  0
POINT
  8
0
  6
CONTINUOUS
 62
3
 10
0.500000119209290
 20
6.500000000000000
  0
LINE
  8
0
  6
CONTINUOUS
 62
3
 10
-0.000004704988612
 20
-3.464098175748802
 11
-2.999997577100373
 21
-1.732046218032735
  0
LINE
  8
0
  6
CONTINUOUS
 62
3
 10
0.000006618601731
 20
3.464096896385627
 11
2.999997425948948
 21
1.732046782136365
  0
LINE
  8
0
  6
CONTINUOUS
 62
3
 10
2.999998112093635
 20
-1.732051392778772
 11
-0.000004464412200
 21
-3.464098365415111
  0
LINE
  8
0
  6
CONTINUOUS
 62
3
 10
0.000006701720849
 20
3.464096999935236
 11
-2.999997939551520
 21
1.732051821705568
  0
LINE
  8
0
  6
CONTINUOUS
 62
3
 10
2.999996662140697
 20
1.732046953225571
 11
2.999997615814979
 21
-1.732051023458999
  0
LINE
  8
0
  6
CONTINUOUS
 62
3
 10
-2.999996662140960
 20
-1.732045999551255
 11
-2.999997615815242
 21
1.732051977133316
  0
POINT
  8
0
  6
CONTINUOUS
 62
3
 10
0.000000000000000
 20
0.000000000000000
  0
CIRCLE
  8
0
  6
CONTINUOUS
 62
3
 10
0.000000000000000
 20
0.000000000000000
 40
6.500000000000000
  0
CIRCLE
  8
0
  6
CONTINUOUS
 62
3
 10
0.000000000000000
 20
0.000000000000000
 40
5.633955001831055
  0
ENDBLK
  8
0
  0
BLOCK
  8
0
  2
SYM10
 70
64
 10
0.000000000000000
 20
0.000000000000000
  0
POINT
  8
0
  6
CONTINUOUS
 62
3
 10
0.000000000000000
 20
5.633955001831055
  0
POINT
  8
0
  6
CONTINUOUS
 62
3
 10
0.500000119209290
 20
6.500000000000000
  0
LINE
  8
0
  6
CONTINUOUS
 62
3
 10
-0.000004704988612
 20
-3.464098175748802
 11
-2.999997577100373
 21
-1.732046218032735
  0
LINE
  8
0
  6
CONTINUOUS
 62
3
 10
0.000006618601731
 20
3.464096896385627
 11
2.999997425948948
 21
1.732046782136365
  0
LINE
  8
0
  6
CONTINUOUS
 62
3
 10
2.999998112093635
 20
-1.732051392778772
 11
-0.000004464412200
 21
-3.464098365415111
  0
LINE
  8
0
  6
CONTINUOUS
 62
3
 10
0.000006701720849
 20
3.464096999935236
 11
-2.999997939551520
 21
1.732051821705568
  0
LINE
  8
0
  6
CONTINUOUS
 62
3
 10
2.999996662140697
 20
1.732046953225571
 11
2.999997615814979
 21
-1.732051023458999
  0
LINE
  8
0
  6
CONTINUOUS
 62
3
 10
-2.999996662140960
 20
-1.732045999551255
 11
-2.999997615815242
 21
1.732051977133316
  0
POINT
  8
0
  6
CONTINUOUS
 62
3
 10
0.000000000000000
 20
0.000000000000000
  0
CIRCLE
  8
0
  6
CONTINUOUS
 62
3
 10
0.000000000000000
 20
0.000000000000000
 40
6.500000000000000
  0
CIRCLE
  8
0
  6
CONTINUOUS
 62
3
 10
0.000000000000000
 20
0.000000000000000
 40
5.633955001831055
  0
ENDBLK
  8
0
  0
BLOCK
  8
0
  2
SYM11
 70
64
 10
0.000000000000000
 20
0.000000000000000
  0
POINT
  8
0
  6
CONTINUOUS
 62
3
 10
0.000000000000000
 20
5.633955001831055
  0
POINT
  8
0
  6
CONTINUOUS
 62
3
 10
0.500000119209290
 20
6.500000000000000
  0
LINE
  8
0
  6
CONTINUOUS
 62
3
 10
-0.000004704988612
 20
-3.464098175748802
 11
-2.999997577100373
 21
-1.732046218032735
  0
LINE
  8
0
  6
CONTINUOUS
 62
3
 10
0.000006618601731
 20
3.464096896385627
 11
2.999997425948948
 21
1.732046782136365
  0
LINE
  8
0
  6
CONTINUOUS
 62
3
 10
2.999998112093635
 20
-1.732051392778772
 11
-0.000004464412200
 21
-3.464098365415111
  0
LINE
  8
0
  6
CONTINUOUS
 62
3
 10
0.000006701720849
 20
3.464096999935236
 11
-2.999997939551520
 21
1.732051821705568
  0
LINE
  8
0
  6
CONTINUOUS
 62
3
 10
2.999996662140697
 20
1.732046953225571
 11
2.999997615814979
 21
-1.732051023458999
  0
LINE
  8
0
  6
CONTINUOUS
 62
3
 10
-2.999996662140960
 20
-1.732045999551255
 11
-2.999997615815242
 21
1.732051977133316
  0
POINT
  8
0
  6
CONTINUOUS
 62
3
 10
0.000000000000000
 20
0.000000000000000
  0
CIRCLE
  8
0
  6
CONTINUOUS
 62
3
 10
0.000000000000000
 20
0.000000000000000
 40
6.500000000000000
  0
CIRCLE
  8
0
  6
CONTINUOUS
 62
3
 10
0.000000000000000
 20
0.000000000000000
 40
5.633955001831055
  0
ENDBLK
  8
0
  0
BLOCK
  8
0
  2
SYM12
 70
64
 10
0.000000000000000
 20
0.000000000000000
  0
POINT
  8
0
  6
CONTINUOUS
 62
3
 10
0.000000000000000
 20
5.633955001831055
  0
POINT
  8
0
  6
CONTINUOUS
 62
3
 10
0.500000119209290
 20
6.500000000000000
  0
LINE
  8
0
  6
CONTINUOUS
 62
3
 10
-0.000004704988612
 20
-3.464098175748802
 11
-2.999997577100373
 21
-1.732046218032735
  0
LINE
  8
0
  6
CONTINUOUS
 62
3
 10
0.000006618601731
 20
3.464096896385627
 11
2.999997425948948
 21
1.732046782136365
  0
LINE
  8
0
  6
CONTINUOUS
 62
3
 10
2.999998112093635
 20
-1.732051392778772
 11
-0.000004464412200
 21
-3.464098365415111
  0
LINE
  8
0
  6
CONTINUOUS
 62
3
 10
0.000006701720849
 20
3.464096999935236
 11
-2.999997939551520
 21
1.732051821705568
  0
LINE
  8
0
  6
CONTINUOUS
 62
3
 10
2.999996662140697
 20
1.732046953225571
 11
2.999997615814979
 21
-1.732051023458999
  0
LINE
  8
0
  6
CONTINUOUS
 62
3
 10
-2.999996662140960
 20
-1.732045999551255
 11
-2.999997615815242
 21
1.732051977133316
  0
POINT
  8
0
  6
CONTINUOUS
 62
3
 10
0.000000000000000
 20
0.000000000000000
  0
CIRCLE
  8
0
  6
CONTINUOUS
 62
3
 10
0.000000000000000
 20
0.000000000000000
 40
6.500000000000000
  0
CIRCLE
  8
0
  6
CONTINUOUS
 62
3
 10
0.000000000000000
 20
0.000000000000000
 40
5.633955001831055
  0
ENDBLK
  8
0
  0
BLOCK
  8
0
  2
SYM13
 70
64
 10
0.000000000000000
 20
0.000000000000000
  0
POINT
  8
0
  6
CONTINUOUS
 62
3
 10
0.000000000000000
 20
5.633955001831055
  0
POINT
  8
0
  6
CONTINUOUS
 62
3
 10
0.500000119209290
 20
6.500000000000000
  0
LINE
  8
0
  6
CONTINUOUS
 62
3
 10
-0.000004704988612
 20
-3.464098175748802
 11
-2.999997577100373
 21
-1.732046218032735
  0
LINE
  8
0
  6
CONTINUOUS
 62
3
 10
0.000006618601731
 20
3.464096896385627
 11
2.999997425948948
 21
1.732046782136365
  0
LINE
  8
0
  6
CONTINUOUS
 62
3
 10
2.999998112093635
 20
-1.732051392778772
 11
-0.000004464412200
 21
-3.464098365415111
  0
LINE
  8
0
  6
CONTINUOUS
 62
3
 10
0.000006701720849
 20
3.464096999935236
 11
-2.999997939551520
 21
1.732051821705568
  0
LINE
  8
0
  6
CONTINUOUS
 62
3
 10
2.999996662140697
 20
1.732046953225571
 11
2.999997615814979
 21
-1.732051023458999
  0
LINE
  8
0
  6
CONTINUOUS
 62
3
 10
-2.999996662140960
 20
-1.732045999551255
 11
-2.999997615815242
 21
1.732051977133316
  0
POINT
  8
0
  6
CONTINUOUS
 62
3
 10
0.000000000000000
 20
0.000000000000000
  0
CIRCLE
  8
0
  6
CONTINUOUS
 62
3
 10
0.000000000000000
 20
0.000000000000000
 40
6.500000000000000
  0
CIRCLE
  8
0
  6
CONTINUOUS
 62
3
 10
0.000000000000000
 20
0.000000000000000
 40
5.633955001831055
  0
ENDBLK
  8
0
  0
BLOCK
  8
0
  2
SYM14
 70
64
 10
0.000000000000000
 20
0.000000000000000
  0
POINT
  8
0
  6
CONTINUOUS
 62
3
 10
0.000000000000000
 20
5.633955001831055
  0
POINT
  8
0
  6
CONTINUOUS
 62
3
 10
0.500000119209290
 20
6.500000000000000
  0
LINE
  8
0
  6
CONTINUOUS
 62
3
 10
-0.000004704988612
 20
-3.464098175748802
 11
-2.999997577100373
 21
-1.732046218032735
  0
LINE
  8
0
  6
CONTINUOUS
 62
3
 10
0.000006618601731
 20
3.464096896385627
 11
2.999997425948948
 21
1.732046782136365
  0
LINE
  8
0
  6
CONTINUOUS
 62
3
 10
2.999998112093635
 20
-1.732051392778772
 11
-0.000004464412200
 21
-3.464098365415111
  0
LINE
  8
0
  6
CONTINUOUS
 62
3
 10
0.000006701720849
 20
3.464096999935236
 11
-2.999997939551520
 21
1.732051821705568
  0
LINE
  8
0
  6
CONTINUOUS
 62
3
 10
2.999996662140697
 20
1.732046953225571
 11
2.999997615814979
 21
-1.732051023458999
  0
LINE
  8
0
  6
CONTINUOUS
 62
3
 10
-2.999996662140960
 20
-1.732045999551255
 11
-2.999997615815242
 21
1.732051977133316
  0
POINT
  8
0
  6
CONTINUOUS
 62
3
 10
0.000000000000000
 20
0.000000000000000
  0
CIRCLE
  8
0
  6
CONTINUOUS
 62
3
 10
0.000000000000000
 20
0.000000000000000
 40
6.500000000000000
  0
CIRCLE
  8
0
  6
CONTINUOUS
 62
3
 10
0.000000000000000
 20
0.000000000000000
 40
5.633955001831055
  0
ENDBLK
  8
0
  0
BLOCK
  8
0
  2
SYM15
 70
64
 10
0.000000000000000
 20
0.000000000000000
  0
CIRCLE
  8
0
  6
CONTINUOUS
 62
3
 10
0.000000000000000
 20
0.000000000000000
 40
5.000000000000000
  0
LINE
  8
0
  6
CONTINUOUS
 62
3
 10
4.989816965891634
 20
-2.892629271321994
 11
0.010171343047148
 21
-5.767622431692701
  0
LINE
  8
0
  6
CONTINUOUS
 62
3
 10
4.979648434603448
 20
2.874994693650046
 11
4.989821279270270
 21
-2.892629961559101
  0
LINE
  8
0
  6
CONTINUOUS
 62
3
 10
-0.010171198458579
 20
5.767622839547471
 11
4.979645433681753
 21
2.874994469174567
  0
LINE
  8
0
  6
CONTINUOUS
 62
3
 10
-4.989816965891634
 20
2.892629271321994
 11
-0.010171343047148
 21
5.767622431692701
  0
LINE
  8
0
  6
CONTINUOUS
 62
3
 10
-4.979648434603448
 20
-2.874994693650046
 11
-4.989821279270270
 21
2.892629961559101
  0
LINE
  8
0
  6
CONTINUOUS
 62
3
 10
0.010171198458579
 20
-5.767622839547471
 11
-4.979645433681753
 21
-2.874994469174567
  0
POINT
  8
0
  6
CONTINUOUS
 62
3
 10
0.000000000000000
 20
0.000000000000000
  0
ENDBLK
  8
0
  0
BLOCK
  8
0
  2
SYM16
 70
64
 10
0.000000000000000
 20
0.000000000000000
  0
LINE
  8
0
  6
CONTINUOUS
 62
3
 10
-7.499999046325684
 20
6.500000000000000
 11
-7.499999046325684
 21
-6.500000000000000
  0
LINE
  8
0
  6
CONTINUOUS
 62
3
 10
-7.499997911632022
 20
-6.499999445138201
 11
-7.999998623386432
 21
-5.634070287011241
  0
LINE
  8
0
  6
CONTINUOUS
 62
3
 10
-7.499999203818277
 20
6.499999909101064
 11
-7.999999021366804
 21
5.633876130311293
  0
LINE
  8
0
  6
CONTINUOUS
 62
3
 10
-0.000000000000000
 20
-6.500000000000000
 11
-7.499998092651367
 21
-6.500000000000000
  0
LINE
  8
0
  6
CONTINUOUS
 62
3
 10
0.000000000000000
 20
6.500000000000000
 11
-7.499999046325684
 21
6.500000000000000
  0
LINE
  8
0
  6
CONTINUOUS
 62
3
 10
-7.999999046325684
 20
5.633875846862793
 11
-7.999999046325684
 21
-5.634070396423340
  0
LINE
  8
0
  6
CONTINUOUS
 62
3
 10
0.000000000000000
 20
-6.500000000000000
 11
-0.000000000000000
 21
6.500000000000000
  0
POINT
  8
0
  6
CONTINUOUS
 62
3
 10
0.000000000000000
 20
0.000000000000000
  0
ENDBLK
  8
0
  0
BLOCK
  8
0
  2
SYM17
 70
64
 10
0.000000000000000
 20
0.000000000000000
  0
LINE
  8
0
  6
CONTINUOUS
 62
3
 10
-7.499999046325684
 20
6.500000000000000
 11
-7.499999046325684
 21
-6.500000000000000
  0
LINE
  8
0
  6
CONTINUOUS
 62
3
 10
-7.499997911632022
 20
-6.499999445138201
 11
-7.999998623386432
 21
-5.634070287011241
  0
LINE
  8
0
  6
CONTINUOUS
 62
3
 10
-7.499999203818277
 20
6.499999909101064
 11
-7.999999021366804
 21
5.633876130311293
  0
LINE
  8
0
  6
CONTINUOUS
 62
3
 10
-0.000000000000000
 20
-6.500000000000000
 11
-7.499998092651367
 21
-6.500000000000000
  0
LINE
  8
0
  6
CONTINUOUS
 62
3
 10
0.000000000000000
 20
6.500000000000000
 11
-7.499999046325684
 21
6.500000000000000
  0
LINE
  8
0
  6
CONTINUOUS
 62
3
 10
-7.999999046325684
 20
5.633875846862793
 11
-7.999999046325684
 21
-5.634070396423340
  0
LINE
  8
0
  6
CONTINUOUS
 62
3
 10
0.000000000000000
 20
-6.500000000000000
 11
-0.000000000000000
 21
6.500000000000000
  0
POINT
  8
0
  6
CONTINUOUS
 62
3
 10
0.000000000000000
 20
0.000000000000000
  0
ENDBLK
  8
0
  0
BLOCK
  8
0
  2
SYM18
 70
64
 10
0.000000000000000
 20
0.000000000000000
  0
LINE
  8
0
  6
CONTINUOUS
 62
3
 10
-7.499999046325684
 20
6.500000000000000
 11
-7.499999046325684
 21
-6.500000000000000
  0
LINE
  8
0
  6
CONTINUOUS
 62
3
 10
-7.499997911632022
 20
-6.499999445138201
 11
-7.999998623386432
 21
-5.634070287011241
  0
LINE
  8
0
  6
CONTINUOUS
 62
3
 10
-7.499999203818277
 20
6.499999909101064
 11
-7.999999021366804
 21
5.633876130311293
  0
LINE
  8
0
  6
CONTINUOUS
 62
3
 10
-0.000000000000000
 20
-6.500000000000000
 11
-7.499998092651367
 21
-6.500000000000000
  0
LINE
  8
0
  6
CONTINUOUS
 62
3
 10
0.000000000000000
 20
6.500000000000000
 11
-7.499999046325684
 21
6.500000000000000
  0
LINE
  8
0
  6
CONTINUOUS
 62
3
 10
-7.999999046325684
 20
5.633875846862793
 11
-7.999999046325684
 21
-5.634070396423340
  0
LINE
  8
0
  6
CONTINUOUS
 62
3
 10
0.000000000000000
 20
-6.500000000000000
 11
-0.000000000000000
 21
6.500000000000000
  0
POINT
  8
0
  6
CONTINUOUS
 62
3
 10
0.000000000000000
 20
0.000000000000000
  0
ENDBLK
  8
0
  0
BLOCK
  8
0
  2
SYM19
 70
64
 10
0.000000000000000
 20
0.000000000000000
  0
LINE
  8
0
  6
CONTINUOUS
 62
3
 10
-7.499999046325684
 20
6.500000000000000
 11
-7.499999046325684
 21
-6.500000000000000
  0
LINE
  8
0
  6
CONTINUOUS
 62
3
 10
-7.499997911632022
 20
-6.499999445138201
 11
-7.999998623386432
 21
-5.634070287011241
  0
LINE
  8
0
  6
CONTINUOUS
 62
3
 10
-7.499999203818277
 20
6.499999909101064
 11
-7.999999021366804
 21
5.633876130311293
  0
LINE
  8
0
  6
CONTINUOUS
 62
3
 10
-0.000000000000000
 20
-6.500000000000000
 11
-7.499998092651367
 21
-6.500000000000000
  0
LINE
  8
0
  6
CONTINUOUS
 62
3
 10
0.000000000000000
 20
6.500000000000000
 11
-7.499999046325684
 21
6.500000000000000
  0
LINE
  8
0
  6
CONTINUOUS
 62
3
 10
-7.999999046325684
 20
5.633875846862793
 11
-7.999999046325684
 21
-5.634070396423340
  0
LINE
  8
0
  6
CONTINUOUS
 62
3
 10
0.000000000000000
 20
-6.500000000000000
 11
-0.000000000000000
 21
6.500000000000000
  0
POINT
  8
0
  6
CONTINUOUS
 62
3
 10
0.000000000000000
 20
0.000000000000000
  0
ENDBLK
  8
0
  0
BLOCK
  8
0
  2
SYM20
 70
64
 10
0.000000000000000
 20
0.000000000000000
  0
ARC
  8
0
  6
CONTINUOUS
 62
3
 10
-0.979025304317474
 20
-2.200000762939453
 40
1.299999237060547
 50
196.601531107481040
 51
270.000000000000000
  0
ARC
  8
0
  6
CONTINUOUS
 62
3
 10
-0.979025304317474
 20
2.200000762939453
 40
1.299999237060547
 50
90.000000000000000
 51
163.398451589674950
  0
LINE
  8
0
  6
CONTINUOUS
 62
3
 10
-0.000000000000000
 20
-3.500000000000000
 11
-0.979025304317474
 21
-3.500000000000000
  0
LINE
  8
0
  6
CONTINUOUS
 62
3
 10
0.000000000000000
 20
3.500000000000000
 11
-0.979025304317474
 21
3.500000000000000
  0
LINE
  8
0
  6
CONTINUOUS
 62
3
 10
0.000000000000000
 20
-3.500000000000000
 11
-0.000000000000000
 21
3.500000000000000
  0
LINE
  8
0
  6
CONTINUOUS
 62
3
 10
0.000000000000000
 20
-3.500000000000000
 11
-0.000000000000000
 21
3.500000000000000
  0
POINT
  8
0
  6
CONTINUOUS
 62
3
 10
0.000000000000000
 20
0.000000000000000
  0
ARC
  8
0
  6
CONTINUOUS
 62
3
 10
6.399999618530273
 20
0.000000000000000
 40
9.000000000000000
 50
163.398451589674950
 51
196.601531107481040
  0
ENDBLK
  8
0
  0
ENDSEC
  0
SECTION
  2
ENTITIES
  0
LINE
  8
0
  6
CONTINUOUS
 62
3
 10
387.159502103744330
 20
-141.714793274440130
 11
395.159502103744330
 21
-141.714793274440130
  0
LINE
  8
0
  6
CONTINUOUS
 62
3
 10
387.159502103744330
 20
-129.714793274440130
 11
395.159502103744330
 21
-129.714793274440130
  0
ARC
  8
0
  6
CONTINUOUS
 62
3
 10
410.159502103744330
 20
-135.714793274440130
 40
20.000000000000014
 50
197.457603123722070
 51
162.542396876277930
  0
LINE
  8
0
  6
CONTINUOUS
 62
3
 10
395.159502103744330
 20
-129.714793274440130
 11
395.159502103744330
 21
-141.714793274440130
  0
LINE
  8
0
  6
CONTINUOUS
 62
3
 10
387.159502103744330
 20
-129.714793274440130
 11
387.159502103744330
 21
-141.714793274440130
  0
LINE
  8
0
  6
CONTINUOUS
 62
3
 10
242.981745871778740
 20
-141.714793274440130
 11
193.981745871778740
 21
-141.714793274440130
  0
LINE
  8
0
  6
CONTINUOUS
 62
3
 10
242.981745871778740
 20
-129.714793274440130
 11
193.981745871778740
 21
-129.714793274440130
  0
ARC
  8
0
  6
CONTINUOUS
 62
3
 10
193.981745871778740
 20
-135.714793274440130
 40
6.000000000000000
 50
90.000000000000000
 51
270.000000000000000
  0
LINE
  8
0
  6
CONTINUOUS
 62
3
 10
387.159502103744330
 20
-141.714793274440130
 11
395.159502103744330
 21
-141.714793274440130
  0
LINE
  8
0
  6
CONTINUOUS
 62
3
 10
387.159502103744330
 20
-129.714793274440130
 11
395.159502103744330
 21
-129.714793274440130
  0
ARC
  8
0
  6
CONTINUOUS
 62
3
 10
410.159502103744330
 20
-135.714793274440130
 40
20.000000000000014
 50
197.457603123722070
 51
162.542396876277930
  0
LINE
  8
0
  6
CONTINUOUS
 62
3
 10
395.159502103744330
 20
-129.714793274440130
 11
395.159502103744330
 21
-141.714793274440130
  0
LINE
  8
0
  6
CONTINUOUS
 62
3
 10
387.159502103744330
 20
-129.714793274440130
 11
387.159502103744330
 21
-141.714793274440130
  0
LINE
  8
0
  6
CONTINUOUS
 62
3
 10
242.981745871778740
 20
-141.714793274440130
 11
193.981745871778740
 21
-141.714793274440130
  0
LINE
  8
0
  6
CONTINUOUS
 62
3
 10
242.981745871778740
 20
-129.714793274440130
 11
193.981745871778740
 21
-129.714793274440130
  0
ARC
  8
0
  6
CONTINUOUS
 62
3
 10
193.981745871778740
 20
-135.714793274440130
 40
6.000000000000000
 50
90.000000000000000
 51
270.000000000000000
  0
ARC
  8
0
  6
CONTINUOUS
 62
3
 10
-365.233666660531360
 20
-181.545363336537010
 40
6.099999427795406
 50
264.601927898108500
 51
5.398089404735109
  0
POINT
  8
0
  6
CONTINUOUS
 62
3
 10
-362.970925095604340
 20
-183.808104901464050
  0
LINE
  8
0
  6
CONTINUOUS
 62
3
 10
-359.647523358897500
 20
-180.484703164757180
 11
-366.294326832311190
 21
-187.131506638170920
  0
LINE
  8
0
  6
CONTINUOUS
 62
3
 10
-359.334384749928690
 20
-180.737250115607570
 11
-366.011484052401610
 21
-187.414349418080490
  0
LINE
  8
0
  6
CONTINUOUS
 62
3
 10
-366.294326832311190
 20
-187.131506638170920
 11
-365.807523440605560
 21
-187.618310029876510
  0
LINE
  8
0
  6
CONTINUOUS
 62
3
 10
-359.647523358897500
 20
-180.484703164757180
 11
-359.160719967191880
 21
-180.971506556462800
  0
ARC
  8
0
  6
CONTINUOUS
 62
3
 10
-454.894806784725180
 20
-181.545363336537010
 40
6.099999427795398
 50
174.601910595264880
 51
275.398072101891500
  0
POINT
  8
0
  6
CONTINUOUS
 62
3
 10
-457.157548349652190
 20
-183.808104901464050
  0
LINE
  8
0
  6
CONTINUOUS
 62
3
 10
-460.480950086359030
 20
-180.484703164757180
 11
-453.834146612945350
 21
-187.131506638170920
  0
LINE
  8
0
  6
CONTINUOUS
 62
3
 10
-460.794088695327840
 20
-180.737250115607570
 11
-454.116989392854920
 21
-187.414349418080490
  0
LINE
  8
0
  6
CONTINUOUS
 62
3
 10
-453.834146612945350
 20
-187.131506638170920
 11
-454.320950004650970
 21
-187.618310029876510
  0
LINE
  8
0
  6
CONTINUOUS
 62
3
 10
-460.480950086359030
 20
-180.484703164757180
 11
-460.967753478064650
 21
-180.971506556462800
  0
ARC
  8
0
  6
CONTINUOUS
 62
3
 10
-454.894806784725180
 20
-91.884223212343016
 40
6.099999427795419
 50
84.601927898108485
 51
185.398089404735120
  0
POINT
  8
0
  6
CONTINUOUS
 62
3
 10
-457.157548349652190
 20
-89.621481647415976
  0
LINE
  8
0
  6
CONTINUOUS
 62
3
 10
-460.480950086359030
 20
-92.944883384122832
 11
-453.834146612945350
 21
-86.298079910709120
  0
LINE
  8
0
  6
CONTINUOUS
 62
3
 10
-460.794088695327840
 20
-92.692336433272459
 11
-454.116989392854920
 21
-86.015237130799548
  0
LINE
  8
0
  6
CONTINUOUS
 62
3
 10
-453.834146612945350
 20
-86.298079910709120
 11
-454.320950004650970
 21
-85.811276519003499
  0
LINE
  8
0
  6
CONTINUOUS
 62
3
 10
-460.480950086359030
 20
-92.944883384122832
 11
-460.967753478064650
 21
-92.458079992417211
  0
ARC
  8
0
  6
CONTINUOUS
 62
3
 10
-365.233666660531360
 20
-91.884223212343016
 40
6.099999427795398
 50
354.601910595264880
 51
95.398072101891515
  0
POINT
  8
0
  6
CONTINUOUS
 62
3
 10
-362.970925095604340
 20
-89.621481647415976
  0
LINE
  8
0
  6
CONTINUOUS
 62
3
 10
-359.647523358897500
 20
-92.944883384122832
 11
-366.294326832311190
 21
-86.298079910709120
  0
LINE
  8
0
  6
CONTINUOUS
 62
3
 10
-359.334384749928690
 20
-92.692336433272459
 11
-366.011484052401610
 21
-86.015237130799548
  0
LINE
  8
0
  6
CONTINUOUS
 62
3
 10
-366.294326832311190
 20
-86.298079910709120
 11
-365.807523440605560
 21
-85.811276519003499
  0
LINE
  8
0
  6
CONTINUOUS
 62
3
 10
-359.647523358897500
 20
-92.944883384122832
 11
-359.160719967191880
 21
-92.458079992417211
  0
LINE
  8
0
  6
DASHDOT
 62
4
 10
-188.518260179421530
 20
82.341049467883863
 11
-188.518260179421530
 21
103.889538448415910
  0
LINE
  8
0
  6
DASHDOT
 62
4
 10
-138.518260179421530
 20
82.341049467883863
 11
-138.518260179421530
 21
104.320551600419200
  0
LINE
  8
0
  6
DASHED
 62
4
 10
-131.518260179421530
 20
91.285206725559988
 11
-131.518260179421530
 21
105.785206725559980
  0
LINE
  8
0
  6
DASHED
 62
4
 10
-145.518260179421530
 20
91.285206725559988
 11
-145.518260179421530
 21
105.785206725559980
  0
LINE
  8
0
  6
DASHED
 62
4
 10
-181.518260179421530
 20
91.285206725559988
 11
-181.518260179421530
 21
105.785206725559980
  0
LINE
  8
0
  6
DASHED
 62
4
 10
-195.518260179421530
 20
91.285206725559988
 11
-195.518260179421530
 21
105.785206725559980
  0
LINE
  8
0
  6
DASHDOT
 62
4
 10
-197.603949286005100
 20
91.285206725559988
 11
-177.117361052295790
 21
91.285206725559988
  0
ARC
  8
0
  6
DASHED
 62
4
 10
-138.518260179421530
 20
91.285206725559988
 40
7.000000000000000
 50
180.000000000000000
 51
0.000000000000000
  0
ARC
  8
0
  6
DASHED
 62
4
 10
-188.518260179421530
 20
91.285206725559988
 40
7.000000000000000
 50
180.000000000000000
 51
0.000000000000000
  0
CIRCLE
  8
0
  6
DASHED
 62
4
 10
-138.518260179421530
 20
91.285206725559988
 40
6.000000000000000
  0
LINE
  8
0
  6
DASHDOT
 62
4
 10
-149.801789595148190
 20
91.285206725559988
 11
-128.034812186619890
 21
91.285206725559988
  0
LINE
  8
0
  6
CONTINUOUS
 62
3
 10
50.481739820573068
 20
-240.801247769907600
 11
50.481739820573068
 21
-167.714793274440130
  0
LINE
  8
0
  6
CONTINUOUS
 62
3
 10
50.481739820573068
 20
-50.714814184105308
 11
50.481739820573068
 21
-167.714793274440130
  0
LINE
  8
0
  6
CONTINUOUS
 62
3
 10
39.481739820573068
 20
-252.743045565395730
 11
39.481739820573068
 21
-167.714793274440130
  0
ARC
  8
0
  6
CONTINUOUS
 62
3
 10
42.481739820573068
 20
-53.714793274440126
 40
3.000000000000000
 50
90.000000000000000
 51
180.000000000000000
  0
ARC
  8
0
  6
CONTINUOUS
 62
3
 10
37.481739820573068
 20
-105.982730456979880
 40
2.000000000000000
 50
270.000000000000000
 51
0.000000000000000
  0
ARC
  8
0
  6
CONTINUOUS
 62
3
 10
37.481739820573068
 20
-135.446832072118010
 40
2.000000000000000
 50
0.000000000000000
 51
90.000000000000000
  0
LINE
  8
0
  6
CONTINUOUS
 62
3
 10
37.481739820573068
 20
-133.446832072118010
 11
34.481739820573068
 21
-133.446832072118010
  0
ARC
  8
0
  6
CONTINUOUS
 62
3
 10
34.481739820573068
 20
-131.446832072118010
 40
2.000000000000000
 50
180.000000000000000
 51
270.000000000000000
  0
LINE
  8
0
  6
CONTINUOUS
 62
3
 10
32.481739820573068
 20
-109.982730456979880
 11
32.481739820573068
 21
-131.446832072118010
  0
LINE
  8
0
  6
CONTINUOUS
 62
3
 10
37.481739820573068
 20
-107.982730456979880
 11
34.481739820573068
 21
-107.982730456979880
  0
ARC
  8
0
  6
CONTINUOUS
 62
3
 10
34.481739820573068
 20
-109.982730456979880
 40
2.000000000000000
 50
90.000000000000000
 51
180.000000000000000
  0
LINE
  8
0
  6
CONTINUOUS
 62
3
 10
39.481739820573068
 20
-53.714793274440126
 11
39.481739820573068
 21
-105.982730456979880
  0
LINE
  8
0
  6
CONTINUOUS
 62
3
 10
39.481739820573068
 20
-135.446832072118010
 11
39.481739820573068
 21
-167.714793274440130
  0
LINE
  8
0
  6
CONTINUOUS
 62
3
 10
50.481739820573068
 20
-50.714793274440126
 11
30.481739820573068
 21
-50.714793274440126
  0
LINE
  8
0
  6
CONTINUOUS
 62
3
 10
13.981739820566702
 20
-251.144919613000640
 11
34.656237304085892
 21
-251.866888973981080
  0
ARC
  8
0
  6
CONTINUOUS
 62
3
 10
34.481739820573068
 20
-256.863843109075790
 40
4.999999999999993
 50
37.176115582706863
 51
87.999999999996049
  0
LINE
  8
0
  6
CONTINUOUS
 62
3
 10
27.481739820573068
 20
-53.714772364774944
 11
27.481739820573068
 21
-70.714760354884675
  0
ARC
  8
0
  6
CONTINUOUS
 62
3
 10
30.481739820573068
 20
-53.714772364774944
 40
3.000000000000000
 50
90.000000000000000
 51
180.000000000000000
  0
LINE
  8
0
  6
CONTINUOUS
 62
3
 10
13.981739820566702
 20
-84.284602690968313
 11
13.981739820573978
 21
-167.714793274440130
  0
LINE
  8
0
  6
CONTINUOUS
 62
3
 10
13.981739820566702
 20
-251.144919613000640
 11
13.981739820572159
 21
-167.714793274440130
  0
LINE
  8
0
  6
CONTINUOUS
 62
3
 10
13.981739820566702
 20
-84.284602690968313
 11
34.656237304085892
 21
-83.562633329988785
  0
ARC
  8
0
  6
CONTINUOUS
 62
3
 10
34.481739820573068
 20
-78.565679194893164
 40
5.000000000000153
 50
272.000000000003580
 51
356.081795638019740
  0
LINE
  8
0
  6
CONTINUOUS
 62
3
 10
22.981739820573068
 20
-15.714781264549856
 11
27.481739820573068
 21
-15.714781264549856
  0
LINE
  8
0
  6
CONTINUOUS
 62
3
 10
27.481739820573068
 20
-53.714793274440126
 11
27.481739820573068
 21
-70.714781264549856
  0
LINE
  8
0
  6
CONTINUOUS
 62
3
 10
22.981739820569430
 20
-73.714781264549856
 11
27.481739820569430
 21
-73.714781264549856
  0
LINE
  8
0
  6
DASHDOT
 62
4
 10
17.251492419756516
 20
-35.714781264549856
 11
35.350758435048022
 21
-35.714781264549856
  0
LINE
  8
0
  6
CONTINUOUS
 62
3
 10
27.481739820573068
 20
-15.714781264549856
 11
27.481739820573068
 21
-73.714781264549856
  0
LINE
  8
0
  6
CONTINUOUS
 62
3
 10
22.981739820569430
 20
-73.714781264549856
 11
22.981739820573068
 21
-15.714781264549856
  0
LINE
  8
0
  6
CONTINUOUS
 62
3
 10
50.981739820573523
 20
-50.714814184105308
 11
50.981739820573068
 21
-135.714793274440130
  0
LINE
  8
0
  6
CONTINUOUS
 62
3
 10
50.981739820573523
 20
-50.714814184105308
 11
116.011454350786430
 21
-51.849912073493215
  0
LINE
  8
0
  6
CONTINUOUS
 62
3
 10
180.981726878358870
 20
-280.714796886340310
 11
-6.018268616597368
 21
-280.714796886340310
  0
ARC
  8
0
  6
CONTINUOUS
 62
3
 10
-2.518268616597368
 20
-261.959675059258190
 40
3.499999999999234
 50
94.332468894025979
 51
180.000000000000000
  0
ARC
  8
0
  6
CONTINUOUS
 62
3
 10
50.981739820573068
 20
-216.480165875900640
 40
2.000000000000000
 50
0.000000000000000
 51
90.000000000000000
  0
ARC
  8
0
  6
CONTINUOUS
 62
3
 10
50.981739820573068
 20
-237.306445282220010
 40
1.999999999999826
 50
317.350764207258010
 51
0.000000000000000
  0
LINE
  8
0
  6
CONTINUOUS
 62
3
 10
52.981739820573068
 20
-216.480165875900640
 11
52.981739820573068
 21
-237.306445282220010
  0
LINE
  8
0
  6
CONTINUOUS
 62
3
 10
52.981739820575797
 20
-254.244948081142870
 11
33.981731383402632
 21
-255.684394324955060
  0
LINE
  8
0
  6
CONTINUOUS
 62
3
 10
52.452770136212905
 20
-238.661461817348030
 11
38.583733143633992
 21
-253.717937761305620
  0
LINE
  8
0
  6
CONTINUOUS
 62
3
 10
-6.018268616597368
 20
-280.714819838540280
 11
-6.018268616597368
 21
-261.959675059258190
  0
LINE
  8
0
  6
DASHDOT
 62
4
 10
12.981717756179762
 20
-253.504723016684690
 11
12.981717756179762
 21
-286.166785170571530
  0
LINE
  8
0
  6
CONTINUOUS
 62
3
 10
52.981739820573068
 20
-254.244948081142870
 11
140.981726878358870
 21
-257.317975344464680
  0
LINE
  8
0
  6
CONTINUOUS
 62
3
 10
50.981739820573068
 20
-135.714793274440130
 11
50.981739820573068
 21
-240.258438779202150
  0
ARC
  8
0
  6
CONTINUOUS
 62
3
 10
34.170642196714482
 20
-249.652888155923390
 40
5.999999999999782
 50
274.332468894032670
 51
317.350764207251640
  0
LINE
  8
0
  6
CONTINUOUS
 62
3
 10
33.981731383402632
 20
-255.684394324955060
 11
-2.782671947075130
 21
-258.469676366016760
  0
ARC
  8
0
  6
CONTINUOUS
 62
3
 10
-1.018260179427841
 20
-221.543237148475270
 40
5.000000000000015
 50
53.661825893006529
 51
87.999999999996362
  0
LINE
  8
0
  6
CONTINUOUS
 62
3
 10
-52.518260179427841
 20
-189.214793274440130
 11
-193.018260179448760
 21
-189.214793274440130
  0
LINE
  8
0
  6
CONTINUOUS
 62
4
 10
-193.018260179448760
 20
-187.214793274440130
 11
-52.518260179427841
 21
-187.214793274440130
  0
LINE
  8
0
  6
CONTINUOUS
 62
4
 10
-193.018260179448760
 20
-187.714793274440130
 11
-52.518260179427841
 21
-187.714793274440130
  0
LINE
  8
0
  6
CONTINUOUS
 62
4
 10
-193.018260179448760
 20
-182.847875869322820
 11
-52.518260179427841
 21
-182.847875869322820
  0
LINE
  8
0
  6
CONTINUOUS
 62
4
 10
-193.018260179448760
 20
-181.219448801545010
 11
-52.518260179427841
 21
-181.219448801545010
  0
LINE
  8
0
  6
CONTINUOUS
 62
4
 10
-193.018260179448760
 20
-177.756707044779770
 11
-52.518260179427841
 21
-177.756707044779770
  0
LINE
  8
0
  6
CONTINUOUS
 62
4
 10
-193.175860525820040
 20
-176.755228680964480
 11
-52.518260179427841
 21
-176.755228680964480
  0
LINE
  8
0
  6
CONTINUOUS
 62
3
 10
-52.518260179427841
 20
-84.214793274440126
 11
-193.018260179448760
 21
-84.214793274440126
  0
LINE
  8
0
  6
CONTINUOUS
 62
4
 10
-193.018260179448760
 20
-86.214793274440126
 11
-52.518260179427841
 21
-86.214793274440126
  0
LINE
  8
0
  6
CONTINUOUS
 62
4
 10
-193.018260179448760
 20
-85.714793274440012
 11
-52.518260179427841
 21
-85.714793274440012
  0
LINE
  8
0
  6
CONTINUOUS
 62
4
 10
-193.018260179448760
 20
-90.581710679557432
 11
-52.518260179427841
 21
-90.581710679557432
  0
LINE
  8
0
  6
CONTINUOUS
 62
4
 10
-193.018260179448760
 20
-95.672879504100365
 11
-52.518260179427841
 21
-95.672879504100365
  0
LINE
  8
0
  6
CONTINUOUS
 62
4
 10
-193.018260179448760
 20
-92.210137747335239
 11
-52.518260179427841
 21
-92.210137747335239
  0
LINE
  8
0
  6
CONTINUOUS
 62
4
 10
-193.175860525820040
 20
-96.674357867915660
 11
-52.518260179427841
 21
-96.674357867915660
  0
INSERT
  8
0
  2
SYM1
 10
22.981739820570340
 20
-63.714781264549856
  0
INSERT
  8
0
  2
SYM2
 10
39.481739820573068
 20
-71.207340773211399
  0
INSERT
  8
0
  2
SYM3
 10
3.981739820572159
 20
-112.914017732482770
  0
INSERT
  8
0
  2
SYM4
 10
39.481739820573068
 20
-146.714781264548950
  0
INSERT
  8
0
  2
SYM3
 10
3.981739820572159
 20
-222.515568816397490
  0
INSERT
  8
0
  2
SYM5
 10
39.481739820573068
 20
-212.714781264548950
  0
ARC
  8
0
  6
CONTINUOUS
 62
3
 10
27.481739820573068
 20
-75.910933687256147
 40
3.000000000000000
 50
0.000000000000000
 51
59.999999999998380
  0
ARC
  8
0
  6
CONTINUOUS
 62
3
 10
27.481739820573068
 20
-80.811343669933194
 40
3.000000000000455
 50
272.000000000003350
 51
0.000000000000000
  0
LINE
  8
0
  6
CONTINUOUS
 62
3
 10
30.481739820573068
 20
-75.910933687256147
 11
30.481739820573068
 21
-80.811343669933194
  0
ARC
  8
0
  6
CONTINUOUS
 62
3
 10
30.481739820573068
 20
-70.714760354884675
 40
3.000000000000000
 50
180.000000000000000
 51
239.999999999989710
  0
ARC
  8
0
  6
CONTINUOUS
 62
3
 10
-128.018260179427610
 20
-165.714793274440130
 40
1.000000000000000
 50
270.000000000000000
 51
0.000000000000000
  0
ARC
  8
0
  6
CONTINUOUS
 62
3
 10
-128.018260179427610
 20
-107.714793274440120
 40
1.000000000000000
 50
0.000000000000000
 51
90.000000000000000
  0
LINE
  8
0
  6
CONTINUOUS
 62
3
 10
-127.018260179427610
 20
-107.714793274440120
 11
-127.018260179427610
 21
-136.714793274440130
  0
LINE
  8
0
  6
CONTINUOUS
 62
3
 10
-127.018260179427610
 20
-165.714793274440130
 11
-127.018260179427610
 21
-136.714793274440130
  0
ARC
  8
0
  6
CONTINUOUS
 62
3
 10
-128.018260179427610
 20
-166.214793274440130
 40
2.000000000000000
 50
270.000000000000000
 51
0.000000000000000
  0
ARC
  8
0
  6
CONTINUOUS
 62
3
 10
-128.018260179427610
 20
-107.214793274440120
 40
2.000000000000000
 50
0.000000000000000
 51
90.000000000000000
  0
LINE
  8
0
  6
CONTINUOUS
 62
3
 10
-126.018260179427610
 20
-136.714793274440130
 11
-126.018260179427610
 21
-107.214793274440120
  0
LINE
  8
0
  6
CONTINUOUS
 62
3
 10
-126.018260179427610
 20
-136.714793274440130
 11
-126.018260179427610
 21
-166.214793274440130
  0
LINE
  8
0
  6
CONTINUOUS
 62
4
 10
-126.018260179427610
 20
-107.958397723803040
 11
-52.518260179427841
 21
-107.958397723803040
  0
LINE
  8
0
  6
CONTINUOUS
 62
4
 10
-126.018260179427610
 20
-109.437420877280140
 11
-52.518260179427841
 21
-109.437420877280140
  0
LINE
  8
0
  6
CONTINUOUS
 62
4
 10
-126.018260179427610
 20
-112.530151868945380
 11
-52.518260179427841
 21
-112.530151868945380
  0
LINE
  8
0
  6
CONTINUOUS
 62
4
 10
-126.018260179427610
 20
-113.876553594443970
 11
-52.518260179427841
 21
-113.876553594443970
  0
LINE
  8
0
  6
CONTINUOUS
 62
4
 10
-126.018260179427610
 20
-116.714793274440120
 11
-52.518260179427841
 21
-116.714793274440120
  0
LINE
  8
0
  6
CONTINUOUS
 62
4
 10
-203.018260179448760
 20
-105.000402115670110
 11
-52.518260179427841
 21
-105.000402115670110
  0
LINE
  8
0
  6
CONTINUOUS
 62
4
 10
-203.018260179448760
 20
-103.411192322931350
 11
-52.518260179427841
 21
-103.411192322931350
  0
LINE
  8
0
  6
DASHDOT
 62
4
 10
-41.079771754349338
 20
-136.714793274440130
 11
-256.973674084587400
 21
-136.714793274440130
  0
LINE
  8
0
  6
CONTINUOUS
 62
4
 10
-203.018260179448760
 20
-168.429184433210140
 11
-52.518260179427841
 21
-168.429184433210140
  0
LINE
  8
0
  6
CONTINUOUS
 62
4
 10
-203.018260179448760
 20
-170.018394225948780
 11
-52.518260179427841
 21
-170.018394225948780
  0
LINE
  8
0
  6
CONTINUOUS
 62
4
 10
-126.018260179427610
 20
-165.471188825077210
 11
-52.518260179427841
 21
-165.471188825077210
  0
LINE
  8
0
  6
CONTINUOUS
 62
4
 10
-126.018260179427610
 20
-163.992165671600110
 11
-52.518260179427841
 21
-163.992165671600110
  0
LINE
  8
0
  6
CONTINUOUS
 62
4
 10
-126.018260179427610
 20
-160.899434679934870
 11
-52.518260179427841
 21
-160.899434679934870
  0
LINE
  8
0
  6
CONTINUOUS
 62
4
 10
-126.018260179427610
 20
-159.553032954436280
 11
-52.518260179427841
 21
-159.553032954436280
  0
LINE
  8
0
  6
CONTINUOUS
 62
4
 10
-126.018260179427610
 20
-156.714793274440130
 11
-52.518260179427841
 21
-156.714793274440130
  0
ARC
  8
0
  6
CONTINUOUS
 62
3
 10
-31.650763181831337
 20
-85.714793274440126
 40
4.999999999999967
 50
200.487315114722800
 51
270.000000000000000
  0
ARC
  8
0
  6
CONTINUOUS
 62
3
 10
-41.018260179428864
 20
-89.214793274440126
 40
5.000000000000000
 50
0.000000000002606
 51
90.000000000000000
  0
ARC
  8
0
  6
CONTINUOUS
 62
3
 10
-46.018260179429205
 20
-194.337740101149850
 40
5.000000000000000
 50
0.000000000002606
 51
88.999999999999545
  0
LINE
  8
0
  6
CONTINUOUS
 62
3
 10
-41.018260179428864
 20
-84.214793274440126
 11
-52.518260179427841
 21
-84.214793274440126
  0
LINE
  8
0
  6
CONTINUOUS
 62
3
 10
-45.930998147242633
 20
-189.338501625367830
 11
-52.518244825293380
 21
-189.223520806904160
  0
LINE
  8
0
  6
CONTINUOUS
 62
3
 10
-36.018260179428864
 20
-89.214793274439899
 11
-36.018260179427116
 21
-121.714793274440240
  0
LINE
  8
0
  6
CONTINUOUS
 62
3
 10
-52.518260179427841
 20
-84.214793274440126
 11
-52.518260179433156
 21
-189.223520538896540
  0
LINE
  8
0
  6
CONTINUOUS
 62
3
 10
-41.018260179429205
 20
-194.337740101149620
 11
-41.018260179429092
 21
-197.886349400404870
  0
ARC
  8
0
  6
CONTINUOUS
 62
3
 10
-33.018260179428353
 20
-98.714793274440353
 40
3.000000000000000
 50
180.000000000003270
 51
270.000000000000000
  0
LINE
  8
0
  6
CONTINUOUS
 62
3
 10
-31.239436837741863
 20
-203.056277310255610
 11
-36.192757662941631
 21
-202.883303535500200
  0
ARC
  8
0
  6
CONTINUOUS
 62
3
 10
-36.018260179429092
 20
-197.886349400404750
 40
5.000000000000000
 50
180.000000000001310
 51
267.999999999999600
  0
POINT
  8
0
  6
CONTINUOUS
 62
3
 10
3.981755174706620
 20
-246.214793274440130
  0
LINE
  8
0
  6
CONTINUOUS
 62
3
 10
-0.522166825483055
 20
-90.714793274440126
 11
-31.650763181831337
 21
-90.714793274440126
  0
LINE
  8
0
  6
CONTINUOUS
 62
3
 10
13.981755174706620
 20
-251.214793274440130
 11
13.981755174706620
 21
-238.714793274439900
  0
LINE
  8
0
  6
CONTINUOUS
 62
3
 10
6.981755174706620
 20
-251.214793274440130
 11
13.981755174706620
 21
-251.214793274440130
  0
ARC
  8
0
  6
CONTINUOUS
 62
3
 10
6.981755174706620
 20
-248.214793274440130
 40
3.000000000000003
 50
179.993727629290820
 51
270.000000000000000
  0
LINE
  8
0
  6
CONTINUOUS
 62
3
 10
3.981755174706620
 20
-235.507030358592370
 11
3.981755174706620
 21
-248.220988003173600
  0
LINE
  8
0
  6
CONTINUOUS
 62
3
 10
13.981755174706620
 20
-85.488086373820181
 11
13.981755174706620
 21
-238.714793274439900
  0
LINE
  8
0
  6
DASHDOT
 62
4
 10
-17.018244825293380
 20
-115.458905266159260
 11
-17.018244825293380
 21
-86.819003005343802
  0
LINE
  8
0
  6
CONTINUOUS
 62
3
 10
0.981755174706620
 20
-101.714793274440350
 11
-33.018260179428353
 21
-101.714793274440350
  0
ARC
  8
0
  6
CONTINUOUS
 62
3
 10
0.981755174706620
 20
-98.714793274440353
 40
3.000000000000000
 50
270.000000000000000
 51
0.000000000000000
  0
LINE
  8
0
  6
CONTINUOUS
 62
3
 10
13.981755671388385
 20
-85.488086373820181
 11
6.981755174706620
 21
-85.488086373820181
  0
ARC
  8
0
  6
CONTINUOUS
 62
3
 10
6.981755174706620
 20
-88.488086373820181
 40
3.000000000000000
 50
90.000000000000000
 51
180.000000000000000
  0
LINE
  8
0
  6
CONTINUOUS
 62
3
 10
3.981755174706620
 20
-88.488086373820181
 11
3.981755174706620
 21
-235.507030358592490
  0
ARC
  8
0
  6
CONTINUOUS
 62
3
 10
-0.522166825483055
 20
-85.714793274440126
 40
5.000000000000000
 50
270.000000000000000
 51
339.716738662470110
  0
LINE
  8
0
  6
CONTINUOUS
 62
3
 10
-33.018260179427116
 20
-124.714793274440060
 11
0.981755174706620
 21
-124.714793274440060
  0
ARC
  8
0
  6
CONTINUOUS
 62
3
 10
0.981755174706620
 20
-121.714793274440060
 40
3.000000000000000
 50
270.000000000000000
 51
0.000000000000000
  0
ARC
  8
0
  6
CONTINUOUS
 62
3
 10
-33.018260179427116
 20
-121.714793274440060
 40
3.000000000000000
 50
180.000000000003270
 51
270.000000000000000
  0
LINE
  8
0
  6
CONTINUOUS
 62
3
 10
-52.518260179429490
 20
-116.714793274440180
 11
-36.018260179427386
 21
-116.714793274440180
  0
LINE
  8
0
  6
CONTINUOUS
 62
3
 10
0.981755174706620
 20
-156.714793274440070
 11
-52.518260179431508
 21
-156.714793274440070
  0
ARC
  8
0
  6
CONTINUOUS
 62
3
 10
0.981755174706620
 20
-159.714793274440070
 40
3.000000000000000
 50
0.000000000000000
 51
90.000000000000000
  0
LINE
  8
0
  6
CONTINUOUS
 62
3
 10
-52.518260179432318
 20
-172.714793274440070
 11
-46.018260179432559
 21
-172.714793274440070
  0
LINE
  8
0
  6
CONTINUOUS
 62
3
 10
-41.018260179432559
 20
-177.714793274440350
 11
-41.018260179433412
 21
-194.337740101150080
  0
ARC
  8
0
  6
CONTINUOUS
 62
3
 10
-46.018260179432559
 20
-177.714793274440070
 40
5.000000000000000
 50
359.999999999996760
 51
90.000000000000000
  0
LINE
  8
0
  6
CONTINUOUS
 62
3
 10
-43.184238955535704
 20
-187.714793274440010
 11
-52.518260179433071
 21
-187.714793274440010
  0
ARC
  8
0
  6
CONTINUOUS
 62
3
 10
-39.626227809866648
 20
-197.524306511349150
 40
3.000000000000043
 50
39.217507581694811
 51
90.000000000000000
  0
LINE
  8
0
  6
CONTINUOUS
 62
3
 10
-32.587585309321014
 20
-194.524306511349150
 11
-0.750217718062061
 21
-194.524306511349150
  0
LINE
  8
0
  6
CONTINUOUS
 62
3
 10
-37.301973830276467
 20
-195.627508304275070
 11
2.855511807356855
 21
-244.834743663054380
  0
ARC
  8
0
  6
CONTINUOUS
 62
3
 10
-1.018244825293380
 20
-247.996074008177830
 40
5.000000000000000
 50
0.000000000000000
 51
39.217507581695060
  0
LINE
  8
0
  6
DASHDOT
 62
4
 10
32.399231253082689
 20
-63.714781264549856
 11
5.666553220547939
 21
-63.714781264549856
  0
ARC
  8
0
  6
CONTINUOUS
 62
3
 10
442.059502103745220
 20
-136.950367544049190
 40
85.000000000000000
 50
0.000000000000000
 51
85.577622414022414
  0
LINE
  8
0
  6
CONTINUOUS
 62
3
 10
495.183086792602810
 20
-135.714793274440130
 11
495.183086792602810
 21
-255.714796338296760
  0
POLYLINE
  8
0
  6
CONTINUOUS
 62
3
 66
1
  0
VERTEX
  8
0
  6
CONTINUOUS
 62
3
 10
521.583086792603580
 20
-135.714793274440130
  0
VERTEX
  8
0
  6
CONTINUOUS
 62
3
 10
521.329452493926170
 20
-131.812986834117570
  0
VERTEX
  8
0
  6
CONTINUOUS
 62
3
 10
520.578296621752540
 20
-128.061124627138330
  0
VERTEX
  8
0
  6
CONTINUOUS
 62
3
 10
519.358485674997160
 20
-124.603388614048080
  0
VERTEX
  8
0
  6
CONTINUOUS
 62
3
 10
517.716896304265900
 20
-121.572657650709170
  0
VERTEX
  8
0
  6
CONTINUOUS
 62
3
 10
515.716613868462330
 20
-119.085401028389220
  0
VERTEX
  8
0
  6
CONTINUOUS
 62
3
 10
513.434508099822660
 20
-117.237202624214400
  0
VERTEX
  8
0
  6
CONTINUOUS
 62
3
 10
510.958279043216410
 20
-116.099087666375520
  0
VERTEX
  8
0
  6
CONTINUOUS
 62
3
 10
508.383086792603540
 20
-115.714793274440120
  0
VERTEX
  8
0
  6
CONTINUOUS
 62
3
 10
505.807894541990660
 20
-116.099087666375520
  0
VERTEX
  8
0
  6
CONTINUOUS
 62
3
 10
503.331665485384350
 20
-117.237202624214400
  0
VERTEX
  8
0
  6
CONTINUOUS
 62
3
 10
501.049559716744800
 20
-119.085401028389220
  0
VERTEX
  8
0
  6
CONTINUOUS
 62
3
 10
499.049277280941110
 20
-121.572657650709180
  0
VERTEX
  8
0
  6
CONTINUOUS
 62
3
 10
497.407687910209970
 20
-124.603388614048080
  0
VERTEX
  8
0
  6
CONTINUOUS
 62
3
 10
496.187876963454580
 20
-128.061124627138330
  0
VERTEX
  8
0
  6
CONTINUOUS
 62
3
 10
495.436721091280900
 20
-131.812986834117570
  0
VERTEX
  8
0
  6
CONTINUOUS
 62
3
 10
495.183086792603550
 20
-135.714793274440130
  0
SEQEND
  8
0
  6
CONTINUOUS
 62
3
  0
LINE
  8
0
  6
CONTINUOUS
 62
3
 10
461.972891513413740
 20
-135.714793274440130
 11
477.559502103744310
 21
-135.714793274440130
  0
ARC
  8
0
  6
CONTINUOUS
 62
3
 10
442.059502103745220
 20
-136.950367544049190
 40
47.518012424385233
 50
0.000000000000000
 51
85.577622414022514
  0
LINE
  8
0
  6
CONTINUOUS
 62
3
 10
489.577514528130450
 20
-255.714796338296760
 11
489.577514528130450
 21
-135.714793274440130
  0
LINE
  8
0
  6
CONTINUOUS
 62
3
 10
481.559502103744310
 20
-243.014796338296950
 11
481.559502103744310
 21
-139.714793274440130
  0
ARC
  8
0
  6
CONTINUOUS
 62
3
 10
477.559502103744310
 20
-139.714793274440130
 40
4.000000000000000
 50
0.000000000000000
 51
90.000000000000000
  0
ARC
  8
0
  6
CONTINUOUS
 62
3
 10
461.972891513413740
 20
-138.714793274440130
 40
3.000000000000000
 50
90.000000000000000
 51
176.692637820325420
  0
ARC
  8
0
  6
DASHED
 62
3
 10
487.359502103744260
 20
-110.757293274440140
 40
18.799999999999983
 50
100.598785266066050
 51
180.000000000000000
  0
ARC
  8
0
  6
DASHED
 62
3
 10
483.533747469657330
 20
-90.312156897302430
 40
1.999999999999958
 50
280.598785266065990
 51
2.862405226112724
  0
ARC
  8
0
  6
DASHED
 62
3
 10
489.126760567373140
 20
-90.032506242416616
 40
1.999999999999927
 50
182.862405226112710
 51
265.126025186159040
  0
ARC
  8
0
  6
DASHED
 62
3
 10
487.359502103744260
 20
-110.757293274440140
 40
18.799999999999933
 50
35.808626813495749
 51
85.126025186157264
  0
LINE
  8
0
  6
DASHED
 62
3
 10
486.660375466529790
 20
-80.754773014549755
 11
485.062371724325200
 21
-80.834673201659939
  0
ARC
  8
0
  6
DASHED
 62
3
 10
480.518048963424230
 20
-86.068135438330046
 40
8.999999999999948
 50
346.260856815786500
 51
19.463936333592187
  0
LINE
  8
0
  6
DASHED
 62
3
 10
487.084845210552200
 20
-89.244167895011287
 11
488.062649023059980
 21
-89.195277704385944
  0
LINE
  8
0
  6
DASHED
 62
3
 10
486.735281891945080
 20
-82.252901522866409
 11
487.713085704452620
 21
-82.204011332241066
  0
ARC
  8
0
  6
DASHED
 62
3
 10
487.997730159132290
 20
-87.896900425832314
 40
1.299999237060550
 50
272.862387240019760
 51
346.260856815788600
  0
ARC
  8
0
  6
DASHED
 62
3
 10
487.778004568380310
 20
-83.502388610794583
 40
1.299999237060645
 50
19.463936333587132
 51
92.862405909348169
  0
LINE
  8
0
  6
DASHED
 62
3
 10
485.062371724325200
 20
-80.834673201659939
 11
490.156008652602170
 21
-182.707411767200710
  0
LINE
  8
0
  6
DASHED
 62
3
 10
468.559502103744310
 20
-150.757293274440140
 11
468.559502103744310
 21
-110.757293274440140
  0
LINE
  8
0
  6
DASHED
 62
3
 10
510.055761455365200
 20
-148.682480306859130
 11
506.065736517709180
 21
-108.881981553741860
  0
ARC
  8
0
  6
DASHED
 62
3
 10
487.359502103744260
 20
-110.757293274440140
 40
18.799999999999837
 50
5.724810452223617
 51
35.808626813495749
  0
ARC
  8
0
  6
DASHED
 62
3
 10
489.359502103744260
 20
-150.757293274440140
 40
20.799999999999955
 50
180.000000000000000
 51
265.808273843992540
  0
ARC
  8
0
  6
DASHED
 62
3
 10
487.692954837360730
 20
-173.496304251369450
 40
1.999999999999927
 50
2.862405226112724
 51
85.808273843998350
  0
LINE
  8
0
  6
DASHED
 62
3
 10
485.861373595427490
 20
-80.794723108104904
 11
490.955010523704460
 21
-182.667461673644990
  0
LINE
  8
0
  6
DASHED
 62
3
 10
490.156008652602170
 20
-182.707411767200710
 11
491.754012394806750
 21
-182.627511580089730
  0
LINE
  8
0
  6
DASHED
 62
3
 10
486.660375466529790
 20
-80.754773014549755
 11
491.754012394806750
 21
-182.627511580089730
  0
LINE
  8
0
  6
DASHED
 62
3
 10
491.679105969391400
 20
-181.129383071773020
 11
492.656909781899060
 21
-181.080492881147620
  0
ARC
  8
0
  6
DASHED
 62
3
 10
492.591990917971370
 20
-179.782115602593990
 40
1.299999237060546
 50
272.862404542868430
 51
346.260874118632100
  0
ARC
  8
0
  6
DASHED
 62
3
 10
485.112309722263260
 20
-177.953350615092010
 40
9.000000000000016
 50
346.260874118632560
 51
19.463953636438596
  0
LINE
  8
0
  6
DASHED
 62
3
 10
491.329542650783940
 20
-174.138116699628140
 11
492.307346463291590
 21
-174.089226509002710
  0
ARC
  8
0
  6
DASHED
 62
3
 10
492.372265327219340
 20
-175.387603787556340
 40
1.299999237060553
 50
19.463953636438703
 51
92.862423212204519
  0
ARC
  8
0
  6
DASHED
 62
3
 10
493.285967935076540
 20
-173.216653596483640
 40
1.999999999999995
 50
99.916536608232732
 51
182.862405226112400
  0
ARC
  8
0
  6
DASHED
 62
3
 10
489.359502103744260
 20
-150.757293274440140
 40
20.800000000000040
 50
279.916536608230560
 51
334.359929784105190
  0
ARC
  8
0
  6
DASHED
 62
3
 10
489.359502103744260
 20
-150.757293274440140
 40
20.799999999999926
 50
334.359929784105190
 51
5.724810452223396
  0
ARC
  8
0
  6
DASHED
 62
3
 10
489.359502103744260
 20
-150.757293274440140
 40
20.799999999999926
 50
334.359929784105190
 51
5.724810452223396
  0
LINE
  8
0
  6
CONTINUOUS
 62
3
 10
338.559502103744310
 20
-243.014796338296950
 11
338.559502103744310
 21
-139.714793274440130
  0
ARC
  8
0
  6
CONTINUOUS
 62
3
 10
342.559502103744310
 20
-139.714793274440130
 40
4.000000000000000
 50
90.000000000000000
 51
180.000000000000000
  0
ARC
  8
0
  6
CONTINUOUS
 62
3
 10
410.059502103744310
 20
-135.714793274440130
 40
48.999999999999531
 50
183.307362179670630
 51
270.000000000000000
  0
LINE
  8
0
  6
CONTINUOUS
 62
3
 10
358.146112694074870
 20
-135.714793274440130
 11
342.559502103744310
 21
-135.714793274440130
  0
ARC
  8
0
  6
CONTINUOUS
 62
3
 10
358.146112694074870
 20
-138.714793274440130
 40
3.000000000000262
 50
3.307362179674563
 51
90.000000000000000
  0
LINE
  8
0
  6
CONTINUOUS
 62
3
 10
330.541489679358620
 20
-255.714796338296760
 11
330.541489679358620
 21
-135.714793274440130
  0
ARC
  8
0
  6
CONTINUOUS
 62
3
 10
378.059502103743400
 20
-136.950367544049190
 40
47.518012424384935
 50
94.422377585977486
 51
180.000000000000000
  0
LINE
  8
0
  6
CONTINUOUS
 62
3
 10
324.935917414885350
 20
-135.714793274440130
 11
324.935917414885350
 21
-255.714796338296760
  0
POLYLINE
  8
0
  6
CONTINUOUS
 62
3
 66
1
  0
VERTEX
  8
0
  6
CONTINUOUS
 62
3
 10
324.935917414885520
 20
-135.714793274440130
  0
VERTEX
  8
0
  6
CONTINUOUS
 62
3
 10
324.682283116208170
 20
-131.812986834117570
  0
VERTEX
  8
0
  6
CONTINUOUS
 62
3
 10
323.931127244034490
 20
-128.061124627138330
  0
VERTEX
  8
0
  6
CONTINUOUS
 62
3
 10
322.711316297279100
 20
-124.603388614048080
  0
VERTEX
  8
0
  6
CONTINUOUS
 62
3
 10
321.069726926547960
 20
-121.572657650709170
  0
VERTEX
  8
0
  6
CONTINUOUS
 62
3
 10
319.069444490744270
 20
-119.085401028389220
  0
VERTEX
  8
0
  6
CONTINUOUS
 62
3
 10
316.787338722104720
 20
-117.237202624214400
  0
VERTEX
  8
0
  6
CONTINUOUS
 62
3
 10
314.311109665498410
 20
-116.099087666375520
  0
VERTEX
  8
0
  6
CONTINUOUS
 62
3
 10
311.735917414885530
 20
-115.714793274440120
  0
VERTEX
  8
0
  6
CONTINUOUS
 62
3
 10
309.160725164272660
 20
-116.099087666375520
  0
VERTEX
  8
0
  6
CONTINUOUS
 62
3
 10
306.684496107666350
 20
-117.237202624214400
  0
VERTEX
  8
0
  6
CONTINUOUS
 62
3
 10
304.402390339026790
 20
-119.085401028389220
  0
VERTEX
  8
0
  6
CONTINUOUS
 62
3
 10
302.402107903223110
 20
-121.572657650709180
  0
VERTEX
  8
0
  6
CONTINUOUS
 62
3
 10
300.760518532491970
 20
-124.603388614048080
  0
VERTEX
  8
0
  6
CONTINUOUS
 62
3
 10
299.540707585736580
 20
-128.061124627138330
  0
VERTEX
  8
0
  6
CONTINUOUS
 62
3
 10
298.789551713562900
 20
-131.812986834117570
  0
VERTEX
  8
0
  6
CONTINUOUS
 62
3
 10
298.535917414885550
 20
-135.714793274440130
  0
SEQEND
  8
0
  6
CONTINUOUS
 62
3
  0
LINE
  8
0
  6
DASHDOT
 62
4
 10
276.650757745544980
 20
-135.714793274440130
 11
538.791376215387570
 21
-135.714793274440130
  0
LINE
  8
0
  6
DASHED
 62
3
 10
357.559502103744310
 20
-157.214793274440130
 11
356.259502103744130
 21
-157.214793274440130
  0
LINE
  8
0
  6
DASHED
 62
3
 10
356.059502103744310
 20
-136.714793274440130
 11
356.059502103744310
 21
-157.014793274440140
  0
ARC
  8
0
  6
DASHED
 62
3
 10
356.259502103744130
 20
-157.014793274440140
 40
0.199999999999818
 50
180.000000000000000
 51
270.000000000000000
  0
LINE
  8
0
  6
DASHED
 62
3
 10
357.559502103744310
 20
-168.214793274440130
 11
352.559502103744310
 21
-168.214793274440130
  0
LINE
  8
0
  6
DASHED
 62
3
 10
329.120732969762680
 20
-166.714793274440130
 11
352.559502103744310
 21
-166.714793274440130
  0
LINE
  8
0
  6
DASHED
 62
3
 10
357.559502103744310
 20
-157.214793274440130
 11
357.559502103744310
 21
-168.214793274440130
  0
LINE
  8
0
  6
DASHED
 62
3
 10
352.559502103744310
 20
-168.214793274440130
 11
352.559502103744310
 21
-105.214793274440120
  0
LINE
  8
0
  6
DASHED
 62
3
 10
357.559502103744310
 20
-116.214793274440120
 11
357.559502103744310
 21
-105.214793274440120
  0
LINE
  8
0
  6
DASHED
 62
3
 10
357.559502103744310
 20
-116.214793274440120
 11
356.259502103744130
 21
-116.214793274440120
  0
LINE
  8
0
  6
DASHED
 62
3
 10
356.059502103744310
 20
-136.714793274440130
 11
356.059502103744310
 21
-116.414793274440110
  0
ARC
  8
0
  6
DASHED
 62
3
 10
356.259502103744130
 20
-116.414793274440110
 40
0.199999999999989
 50
90.000000000000000
 51
180.000000000000000
  0
LINE
  8
0
  6
DASHED
 62
3
 10
357.559502103744310
 20
-105.214793274440120
 11
352.559502103744310
 21
-105.214793274440120
  0
ARC
  8
0
  6
DASHED
 62
3
 10
623.059502103744310
 20
-136.714793274440130
 40
300.000000000000110
 50
175.138594604201960
 51
180.000000000000000
  0
LINE
  8
0
  6
DASHED
 62
3
 10
322.559502103744310
 20
-134.214793274440130
 11
323.069918951262030
 21
-134.214793274440130
  0
LINE
  8
0
  6
DASHED
 62
3
 10
322.559502103744310
 20
-139.214793274440130
 11
322.559502103744310
 21
-134.214793274440130
  0
ARC
  8
0
  6
DASHED
 62
3
 10
623.059502103744310
 20
-136.714793274440130
 40
300.000000000000000
 50
180.000000000000000
 51
184.861405395798040
  0
LINE
  8
0
  6
DASHED
 62
3
 10
322.559502103744310
 20
-139.214793274440130
 11
323.069918951262030
 21
-139.214793274440130
  0
LINE
  8
0
  6
DASHED
 62
3
 10
329.120732969762680
 20
-106.714793274440120
 11
352.559502103744310
 21
-106.714793274440120
  0
ARC
  8
0
  6
DASHED
 62
3
 10
329.120732969762680
 20
-111.714793274440120
 40
5.000000000000000
 50
90.000000000000000
 51
175.138594604202010
  0
ARC
  8
0
  6
DASHED
 62
3
 10
329.120732969762680
 20
-161.714793274440130
 40
4.999999999999893
 50
184.861405395798610
 51
270.000000000000000
  0
LINE
  8
0
  6
CONTINUOUS
 62
4
 10
-203.018260179448760
 20
-113.876553594443970
 11
-201.018260179427610
 21
-113.876553594443970
  0
LINE
  8
0
  6
CONTINUOUS
 62
4
 10
-203.018260179448760
 20
-112.530151868945380
 11
-201.018260179427610
 21
-112.530151868945380
  0
LINE
  8
0
  6
CONTINUOUS
 62
4
 10
-203.018260179448760
 20
-109.437420877280140
 11
-201.018260179427610
 21
-109.437420877280140
  0
LINE
  8
0
  6
CONTINUOUS
 62
4
 10
-203.018260179448760
 20
-107.958397723803040
 11
-201.018260179427610
 21
-107.958397723803040
  0
LINE
  8
0
  6
CONTINUOUS
 62
4
 10
-203.018260179448760
 20
-116.714793274440120
 11
-201.018260179427610
 21
-116.714793274440120
  0
LINE
  8
0
  6
CONTINUOUS
 62
3
 10
-203.018260179448760
 20
-136.714793274440130
 11
-203.018260179448760
 21
-101.714793274440120
  0
LINE
  8
0
  6
CONTINUOUS
 62
4
 10
-203.018260179448760
 20
-156.714793274440130
 11
-201.018260179427610
 21
-156.714793274440130
  0
LINE
  8
0
  6
CONTINUOUS
 62
4
 10
-203.018260179448760
 20
-159.553032954436280
 11
-201.018260179427610
 21
-159.553032954436280
  0
LINE
  8
0
  6
CONTINUOUS
 62
4
 10
-203.018260179448760
 20
-160.899434679934870
 11
-201.018260179427610
 21
-160.899434679934870
  0
LINE
  8
0
  6
CONTINUOUS
 62
4
 10
-203.018260179448760
 20
-163.992165671600110
 11
-201.018260179427610
 21
-163.992165671600110
  0
LINE
  8
0
  6
CONTINUOUS
 62
4
 10
-203.018260179448760
 20
-165.471188825077210
 11
-201.018260179427610
 21
-165.471188825077210
  0
LINE
  8
0
  6
CONTINUOUS
 62
3
 10
-203.018260179448760
 20
-136.714793274440130
 11
-203.018260179448760
 21
-171.714793274440130
  0
LINE
  8
0
  6
CONTINUOUS
 62
3
 10
-128.018260179427610
 20
-105.214793274440120
 11
-199.018260179427610
 21
-105.214793274440120
  0
ARC
  8
0
  6
CONTINUOUS
 62
3
 10
-199.018260179427610
 20
-107.214793274440120
 40
2.000000000000000
 50
90.000000000000000
 51
180.000000000000000
  0
LINE
  8
0
  6
CONTINUOUS
 62
3
 10
-201.018260179427610
 20
-136.714793274440130
 11
-201.018260179427610
 21
-107.214793274440120
  0
LINE
  8
0
  6
CONTINUOUS
 62
3
 10
-201.018260179427610
 20
-136.714793274440130
 11
-201.018260179427610
 21
-166.214793274440130
  0
ARC
  8
0
  6
CONTINUOUS
 62
3
 10
-199.018260179427610
 20
-166.214793274440130
 40
2.000000000000000
 50
180.000000000000000
 51
270.000000000000000
  0
LINE
  8
0
  6
CONTINUOUS
 62
3
 10
-128.018260179427610
 20
-168.214793274440130
 11
-199.018260179427610
 21
-168.214793274440130
  0
LINE
  8
0
  6
CONTINUOUS
 62
3
 10
-128.018260179427610
 20
-106.714793274440120
 11
-199.018260179427610
 21
-106.714793274440120
  0
ARC
  8
0
  6
CONTINUOUS
 62
3
 10
-199.018260179427610
 20
-107.714793274440120
 40
1.000000000000000
 50
90.000000000000000
 51
180.000000000000000
  0
LINE
  8
0
  6
CONTINUOUS
 62
3
 10
-200.018260179427610
 20
-136.714793274440130
 11
-200.018260179427610
 21
-107.714793274440120
  0
LINE
  8
0
  6
CONTINUOUS
 62
3
 10
-200.018260179427610
 20
-136.714793274440130
 11
-200.018260179427610
 21
-165.714793274440130
  0
ARC
  8
0
  6
CONTINUOUS
 62
3
 10
-199.018260179427610
 20
-165.714793274440130
 40
1.000000000000000
 50
180.000000000000000
 51
270.000000000000000
  0
LINE
  8
0
  6
CONTINUOUS
 62
3
 10
-128.018260179427610
 20
-166.714793274440130
 11
-199.018260179427610
 21
-166.714793274440130
  0
ARC
  8
0
  6
CONTINUOUS
 62
3
 10
-420.564236722628270
 20
-63.714781264549856
 40
10.000000000000000
 50
180.000000000000000
 51
270.000000000000000
  0
LINE
  8
0
  6
CONTINUOUS
 62
3
 10
-399.564236722628270
 20
-73.714781264549856
 11
-420.564236722628270
 21
-73.714781264549856
  0
ARC
  8
0
  6
CONTINUOUS
 62
3
 10
-399.564236722628270
 20
-63.714781264549856
 40
10.000000000000000
 50
270.000000000000000
 51
0.000000000000000
  0
ARC
  8
0
  6
CONTINUOUS
 62
3
 10
-464.865012264585860
 20
-112.914017732482870
 40
5.000000000000002
 50
222.281795607739500
 51
225.305749548698800
  0
LINE
  8
0
  6
CONTINUOUS
 62
3
 10
-516.064232017639710
 20
-150.178890653087990
 11
-513.064239145527840
 21
-148.446838695371920
  0
LINE
  8
0
  6
CONTINUOUS
 62
3
 10
-516.064243341229940
 20
-143.250695580953560
 11
-519.064234148577270
 21
-144.982745695202820
  0
LINE
  8
0
  6
CONTINUOUS
 62
3
 10
-519.064234834721900
 20
-148.446843870117960
 11
-516.064232258216070
 21
-150.178890842754300
  0
LINE
  8
0
  6
CONTINUOUS
 62
3
 10
-516.064243424349120
 20
-143.250695477403950
 11
-513.064238783076690
 21
-144.982740655633620
  0
LINE
  8
0
  6
CONTINUOUS
 62
3
 10
-519.064233384768950
 20
-144.982745524113620
 11
-519.064234338443270
 21
-148.446843500798200
  0
LINE
  8
0
  6
CONTINUOUS
 62
3
 10
-513.064240060487350
 20
-148.446838476890430
 11
-513.064239106813030
 21
-144.982740500205860
  0
ARC
  8
0
  6
CONTINUOUS
 62
3
 10
-516.064236722628270
 20
-146.714792477339190
 40
6.499999999999980
 50
12.608587076372890
 51
336.232418900889400
  0
CIRCLE
  8
0
  6
CONTINUOUS
 62
3
 10
-516.064236722628270
 20
-146.714792477339190
 40
5.633955001831055
  0
ARC
  8
0
  6
CONTINUOUS
 62
3
 10
-512.064236722628270
 20
-120.714792477339180
 40
12.999999999999982
 50
62.685039242332216
 51
90.000000000000000
  0
LINE
  8
0
  6
CONTINUOUS
 62
3
 10
-489.262698120771800
 20
-83.920137798584477
 11
-496.911893132195470
 21
-76.270942787160948
  0
LINE
  8
0
  6
CONTINUOUS
 62
3
 10
-493.564236722628270
 20
-180.650401339988150
 11
-493.564236722628270
 21
-181.214793274440130
  0
TEXT
  8
0
  6
CONTINUOUS
 62
3
 10
-421.213531494140620
 20
169.555587768554690
 40
10.000000000000000
  1
S045
 50
0.000002504478167
 41
0.470000016689301
  7
STANDARD1
  0
TEXT
  8
0
  6
CONTINUOUS
 62
3
 10
-421.213531494140620
 20
158.255584716796880
 40
10.000000000000000
  1
三菱ギヤードモートル
 50
0.000002504478167
 41
0.625000000000000
  7
STANDARD1
  0
TEXT
  8
0
  6
CONTINUOUS
 62
3
 10
-421.213531494140620
 20
146.955581665039060
 40
10.000000000000000
  1
GM-SS
 50
0.000002504478167
 41
0.470000016689301
  7
STANDARD1
  0
TEXT
  8
0
  6
CONTINUOUS
 62
3
 10
-421.213531494140620
 20
135.655593872070310
 40
10.000000000000000
  1
0.2kW
 50
0.000002504478167
 41
0.470000016689301
  7
STANDARD1
  0
TEXT
  8
0
  6
CONTINUOUS
 62
3
 10
-421.213531494140620
 20
124.355590820312500
 40
10.000000000000000
  1
1/1200
 50
0.000002504478167
 41
0.470000016689301
  7
STANDARD1
  0
TEXT
  8
0
  6
CONTINUOUS
 62
3
 10
-421.213531494140620
 20
113.055587768554680
 40
10.000000000000000
  1
SCALE1/1
 50
0.000002504478167
 41
0.470000016689301
  7
STANDARD1
  0
ARC
  8
0
  6
CONTINUOUS
 62
3
 10
-498.064238715380720
 20
-274.016249752117800
 40
8.000000000000000
 50
0.000000000000000
 51
50.380873009517259
  0
ARC
  8
0
  6
CONTINUOUS
 62
3
 10
-322.064234729875810
 20
-274.016249752117910
 40
8.000000000000055
 50
129.619126990482750
 51
180.000000000000000
  0
ARC
  8
0
  6
CONTINUOUS
 62
3
 10
-299.064236722628270
 20
-210.610014453494610
 40
6.000000000000148
 50
338.871302745699890
 51
0.000000000000000
  0
LINE
  8
0
  6
CONTINUOUS
 62
3
 10
-293.064236722628270
 20
-255.714795541196050
 11
-293.064236722628270
 21
-136.950366746948700
  0
LINE
  8
0
  6
CONTINUOUS
 62
3
 10
-527.064236722628270
 20
-255.714795541196050
 11
-527.064236722628270
 21
-136.950366746948700
  0
LINE
  8
0
  6
CONTINUOUS
 62
3
 10
-315.973856906995930
 20
-258.714796338296080
 11
-288.064233608952690
 21
-258.714796338296080
  0
LINE
  8
0
  6
CONTINUOUS
 62
3
 10
-285.064233608952690
 20
-280.714796886303020
 11
-285.064233608952690
 21
-261.714796338296080
  0
LINE
  8
0
  6
CONTINUOUS
 62
3
 10
-330.064234729875810
 20
-280.714796886303020
 11
-285.064233608952690
 21
-280.714796886303020
  0
LINE
  8
0
  6
DASHDOT
 62
4
 10
-302.564234044867590
 20
-288.539254780814190
 11
-302.564234044867590
 21
-253.001217580341740
  0
LINE
  8
0
  6
CONTINUOUS
 62
3
 10
-330.064234729875810
 20
-280.714796089202990
 11
-330.064234729875810
 21
-274.016249752117910
  0
LINE
  8
0
  6
CONTINUOUS
 62
3
 10
-410.064236722628270
 20
-277.714795964655880
 11
-350.205661732915360
 21
-277.714795964655880
  0
LINE
  8
0
  6
CONTINUOUS
 62
3
 10
-349.064232072870250
 20
-278.714795964655880
 11
-332.064234729875810
 21
-278.714795964655880
  0
LINE
  8
0
  6
CONTINUOUS
 62
3
 10
-410.064236722628270
 20
-277.714795964655880
 11
-469.922811712341170
 21
-277.714795964655880
  0
LINE
  8
0
  6
CONTINUOUS
 62
3
 10
-490.064238715380720
 20
-280.714796089202990
 11
-490.064238715380720
 21
-274.016249752117800
  0
LINE
  8
0
  6
CONTINUOUS
 62
3
 10
-471.064241372386280
 20
-278.714795964655880
 11
-488.064238715380720
 21
-278.714795964655880
  0
LINE
  8
0
  6
CONTINUOUS
 62
3
 10
-504.154616538260600
 20
-258.714796338296080
 11
-532.064239836303840
 21
-258.714796338296080
  0
LINE
  8
0
  6
CONTINUOUS
 62
3
 10
-535.064239836303840
 20
-280.714796886303020
 11
-535.064239836303840
 21
-261.714796338296080
  0
LINE
  8
0
  6
CONTINUOUS
 62
3
 10
-490.064238715380720
 20
-280.714796886303020
 11
-535.064239836303840
 21
-280.714796886303020
  0
LINE
  8
0
  6
DASHDOT
 62
4
 10
-517.564239400388940
 20
-288.539254780814190
 11
-517.564239400388940
 21
-253.001217580341740
  0
ARC
  8
0
  6
CONTINUOUS
 62
3
 10
-315.973856906995930
 20
-261.714796338296080
 40
3.000000000000000
 50
90.000000000000000
 51
135.027530656572850
  0
ARC
  8
0
  6
CONTINUOUS
 62
3
 10
-288.064233608952690
 20
-261.714796338296080
 40
3.000000000000000
 50
0.000000000000000
 51
90.000000000000000
  0
ARC
  8
0
  6
CONTINUOUS
 62
3
 10
-290.064236722628270
 20
-255.714795541196050
 40
3.000000000000000
 50
180.000000000000000
 51
270.000000000000000
  0
ARC
  8
0
  6
CONTINUOUS
 62
3
 10
-378.064236722628270
 20
-136.950366746948700
 40
85.000000000000000
 50
0.000000000000000
 51
85.577622414021803
  0
ARC
  8
0
  6
CONTINUOUS
 62
3
 10
-332.064234729875810
 20
-280.714795964655880
 40
2.000000000000000
 50
0.000000000000000
 51
90.000000000000000
  0
ARC
  8
0
  6
CONTINUOUS
 62
3
 10
-477.064236722628270
 20
-270.714792477339420
 40
10.000000000000053
 50
306.869864344412290
 51
315.572968020398260
  0
ARC
  8
0
  6
CONTINUOUS
 62
3
 10
-504.154616538260600
 20
-261.714796338296080
 40
3.000000000000004
 50
44.972469343427150
 51
90.000000000000000
  0
ARC
  8
0
  6
CONTINUOUS
 62
3
 10
-488.064238715380720
 20
-280.714795964655880
 40
2.000000000000000
 50
90.000000000000000
 51
180.000000000000000
  0
ARC
  8
0
  6
CONTINUOUS
 62
3
 10
-532.064239836303840
 20
-261.714796338296080
 40
3.000000000000000
 50
90.000000000000000
 51
180.000000000000000
  0
ARC
  8
0
  6
CONTINUOUS
 62
3
 10
-530.064236722628270
 20
-255.714795541196050
 40
3.000000000000000
 50
270.000000000000000
 51
0.000000000000000
  0
ARC
  8
0
  6
CONTINUOUS
 62
3
 10
-442.064236722628270
 20
-136.950366746948700
 40
84.999999999999972
 50
94.422377585978197
 51
180.000000000000000
  0
ARC
  8
0
  6
CONTINUOUS
 62
3
 10
-343.064236722628270
 20
-270.714792477339420
 40
9.999999999999833
 50
224.427031979601790
 51
233.130135655587680
  0
ARC
  8
0
  6
CONTINUOUS
 62
3
 10
-410.064236722628270
 20
-167.714793274440130
 40
130.000000000000170
 50
309.619126990482750
 51
326.060710791335000
  0
ARC
  8
0
  6
CONTINUOUS
 62
3
 10
-298.064236722628270
 20
-243.087202019285310
 40
5.000000000000000
 50
0.000000000000000
 51
146.060710791332530
  0
ARC
  8
0
  6
CONTINUOUS
 62
3
 10
-410.064236722628270
 20
-167.714793274440130
 40
129.999999999999940
 50
213.939289208665090
 51
230.380873009517220
  0
ARC
  8
0
  6
CONTINUOUS
 62
3
 10
-522.064236722628270
 20
-243.087202019285310
 40
5.000000000000114
 50
33.939289208664569
 51
180.000000000000000
  0
LINE
  8
0
  6
DASHDOT
 62
4
 10
-410.064236722628270
 20
-290.219998128181030
 11
-410.064236722628270
 21
-7.732254504130651
  0
LINE
  8
0
  6
CONTINUOUS
 62
3
 10
-430.564236722628270
 20
-25.714792477339415
 11
-430.564236722628270
 21
-51.135219235998647
  0
CIRCLE
  8
0
  6
CONTINUOUS
 62
3
 10
-410.064236722628270
 20
-35.714792477339415
 40
10.000000000000000
  0
LINE
  8
0
  6
DASHDOT
 62
4
 10
-386.896323723746720
 20
-35.714792477339415
 11
-433.918837625281410
 21
-35.714792477339415
  0
ARC
  8
0
  6
CONTINUOUS
 62
3
 10
-420.564236722628270
 20
-25.714792477339415
 40
10.000000000000000
 50
90.000000000000000
 51
180.000000000000000
  0
LINE
  8
0
  6
CONTINUOUS
 62
3
 10
-399.564236722628270
 20
-15.714792477339415
 11
-420.564236722628270
 21
-15.714792477339415
  0
LINE
  8
0
  6
CONTINUOUS
 62
3
 10
-389.564236722628270
 20
-25.714792477339415
 11
-389.564236722628270
 21
-51.135219235998647
  0
ARC
  8
0
  6
CONTINUOUS
 62
3
 10
-399.564236722628270
 20
-25.714792477339415
 40
10.000000000000000
 50
0.000000000000000
 51
90.000000000000000
  0
ARC
  8
0
  6
CONTINUOUS
 62
3
 10
-410.064236722628270
 20
-550.714792477339420
 40
499.999999999999940
 50
85.577622414021945
 51
87.650214394539574
  0
ARC
  8
0
  6
CONTINUOUS
 62
3
 10
-410.064236722628270
 20
-550.714792477339420
 40
499.999999999999940
 50
92.349785605460426
 51
94.422377585978055
  0
LINE
  8
0
  6
CONTINUOUS
 62
3
 10
-430.564236722628270
 20
-51.135219235998875
 11
-430.564236722628270
 21
-72.714792477339415
  0
LINE
  8
0
  6
CONTINUOUS
 62
3
 10
-389.564236722628270
 20
-51.135219235998875
 11
-389.564236722628270
 21
-72.714792477339415
  0
ARC
  8
0
  6
CONTINUOUS
 62
3
 10
-336.906262549612170
 20
-232.033932682624250
 40
2.999999999999677
 50
148.296383256597580
 51
225.000000000003070
  0
ARC
  8
0
  6
CONTINUOUS
 62
3
 10
-345.049349823792000
 20
-241.568514938108140
 40
3.000000000000185
 50
44.999999999993868
 51
130.705112768216340
  0
ARC
  8
0
  6
CONTINUOUS
 62
3
 10
-318.783039770599320
 20
-250.157155461636880
 40
2.999999999999864
 50
225.000000000000000
 51
317.912625209518070
  0
ARC
  8
0
  6
CONTINUOUS
 62
3
 10
-327.621874535431290
 20
-258.995990226468620
 40
3.000000000000218
 50
312.087374790476080
 51
45.000000000000000
  0
ARC
  8
0
  6
CONTINUOUS
 62
3
 10
-492.506598909825240
 20
-258.995990226468850
 40
3.000000000000024
 50
134.999999999996930
 51
227.912625209521000
  0
ARC
  8
0
  6
CONTINUOUS
 62
3
 10
-501.345433674657220
 20
-250.157155461636880
 40
3.000000000000218
 50
222.087374790476100
 51
314.999999999996870
  0
ARC
  8
0
  6
CONTINUOUS
 62
3
 10
-470.574079008226360
 20
-237.063470324869740
 40
3.000000000000124
 50
49.911473410096967
 51
135.000000000000000
  0
ARC
  8
0
  6
CONTINUOUS
 62
3
 10
-479.412913773057880
 20
-228.224635560038000
 40
3.000000000000024
 50
314.999999999996870
 51
40.088526589902528
  0
ARC
  8
0
  6
CONTINUOUS
 62
3
 10
-296.064236722628270
 20
-136.714792477339190
 40
3.000000000000000
 50
0.000000000000000
 51
90.000000000000000
  0
ARC
  8
0
  6
CONTINUOUS
 62
3
 10
-302.666174734878950
 20
-104.714792477339180
 40
3.000000000000000
 50
270.000000000000000
 51
23.148572820069919
  0
ARC
  8
0
  6
CONTINUOUS
 62
3
 10
-503.723862533072860
 20
-82.894002228827731
 40
2.999999999999864
 50
45.000000000000000
 51
138.759285791780480
  0
ARC
  8
0
  6
CONTINUOUS
 62
3
 10
-470.574079008226360
 20
-98.366116224010511
 40
2.999999999999996
 50
259.800714152385070
 51
310.088526589903040
  0
ARC
  8
0
  6
CONTINUOUS
 62
3
 10
-494.790572788635930
 20
-74.149622443601174
 40
2.999999999999794
 50
130.016194045864520
 51
225.000000000003070
  0
ARC
  8
0
  6
CONTINUOUS
 62
3
 10
-325.337900656620600
 20
-74.149622443601174
 40
3.000000000000024
 50
314.999999999996870
 51
49.983805954135455
  0
ARC
  8
0
  6
CONTINUOUS
 62
3
 10
-349.554394437030170
 20
-98.366116224010511
 40
3.000000000000124
 50
229.911473410096960
 51
315.000000000000000
  0
ARC
  8
0
  6
CONTINUOUS
 62
3
 10
-316.404610912183670
 20
-82.894002228827731
 40
3.000000000000097
 50
41.240714208219508
 51
135.000000000000000
  0
ARC
  8
0
  6
CONTINUOUS
 62
3
 10
-340.715559672198650
 20
-107.204950988842250
 40
2.999999999999864
 50
135.000000000000000
 51
170.596518781841270
  0
ARC
  8
0
  6
CONTINUOUS
 62
3
 10
-416.314236722628270
 20
-81.214793274440126
 40
3.000000000000175
 50
329.630250818605130
 51
0.000000000000000
  0
ARC
  8
0
  6
CONTINUOUS
 62
3
 10
-416.314236722628270
 20
-78.714792477339415
 40
3.000000000000000
 50
0.000000000000000
 51
90.000000000000000
  0
ARC
  8
0
  6
CONTINUOUS
 62
3
 10
-403.814236722628270
 20
-78.714792477339415
 40
3.000000000000000
 50
90.000000000000000
 51
180.000000000000000
  0
ARC
  8
0
  6
CONTINUOUS
 62
3
 10
-403.814236722628270
 20
-81.214793274440126
 40
3.000000000000000
 50
180.000000000000000
 51
210.369749181394870
  0
ARC
  8
0
  6
CONTINUOUS
 62
3
 10
-375.843703160908720
 20
-253.295716471342080
 40
5.000000000000205
 50
84.588104602569331
 51
106.037937568522150
  0
ARC
  8
0
  6
CONTINUOUS
 62
3
 10
-328.898178665222080
 20
-213.561425046105570
 40
4.999999999999917
 50
154.450645436618710
 51
175.900478402575570
  0
ARC
  8
0
  6
CONTINUOUS
 62
3
 10
-371.788157999993020
 20
-210.487393058157750
 40
37.999999999999936
 50
264.588104602568250
 51
355.900478402576140
  0
ARC
  8
0
  6
CONTINUOUS
 62
3
 10
-427.564236722628270
 20
-72.714792477339415
 40
3.000000000000000
 50
180.000000000000000
 51
270.000000000000000
  0
ARC
  8
0
  6
CONTINUOUS
 62
3
 10
-392.564236722628270
 20
-72.714792477339415
 40
3.000000000000000
 50
270.000000000000000
 51
0.000000000000000
  0
ARC
  8
0
  6
CONTINUOUS
 62
3
 10
-343.064236722628270
 20
-270.714792477339420
 40
10.000000000000053
 50
306.869864344412290
 51
358.093887109017660
  0
ARC
  8
0
  6
CONTINUOUS
 62
3
 10
-343.064236722628270
 20
-270.714792477339420
 40
10.000000000000158
 50
224.427031979599950
 51
233.130135655587680
  0
ARC
  8
0
  6
CONTINUOUS
 62
3
 10
-477.064236722628270
 20
-270.714792477339420
 40
10.000000000000130
 50
181.906112890982260
 51
233.130135655587680
  0
ARC
  8
0
  6
CONTINUOUS
 62
3
 10
-495.054276835279320
 20
-271.313505050455890
 40
7.999999999999923
 50
1.906112890982627
 51
50.635320748643942
  0
ARC
  8
0
  6
CONTINUOUS
 62
3
 10
-477.064236722628270
 20
-270.714792477339420
 40
10.000000000000053
 50
306.869864344412290
 51
315.572968020398260
  0
ARC
  8
0
  6
CONTINUOUS
 62
3
 10
-325.074196609977210
 20
-271.313505050455890
 40
8.000000000000215
 50
129.364679251358580
 51
178.093887109017460
  0
ARC
  8
0
  6
CONTINUOUS
 62
3
 10
-410.064236722628270
 20
-167.714793274440130
 40
126.000000000000180
 50
202.331645009221490
 51
230.635320748643100
  0
ARC
  8
0
  6
CONTINUOUS
 62
3
 10
-299.064236722628270
 20
-213.310845735152040
 40
6.000000000000214
 50
337.668354990778080
 51
0.000000000000000
  0
ARC
  8
0
  6
CONTINUOUS
 62
3
 10
-410.064236722628270
 20
-167.714793274440130
 40
125.999999999999870
 50
309.364679251356730
 51
337.668354990778480
  0
ARC
  8
0
  6
CONTINUOUS
 62
3
 10
-308.064236722628270
 20
-120.714792477339180
 40
13.000000000000000
 50
90.000000000000000
 51
270.000000000000000
  0
ARC
  8
0
  6
CONTINUOUS
 62
3
 10
-518.962474023932370
 20
-105.714792477339180
 40
2.000000000000116
 50
157.893323870137750
 51
270.000000000000000
  0
ARC
  8
0
  6
CONTINUOUS
 62
3
 10
-512.064236722628270
 20
-120.714792477339180
 40
13.000000000000000
 50
270.000000000000000
 51
285.865339853220580
  0
LINE
  8
0
  6
CONTINUOUS
 62
3
 10
-342.928029480232000
 20
-239.447194594548590
 11
-325.500554191871740
 21
-256.874669882909070
  0
LINE
  8
0
  6
CONTINUOUS
 62
3
 10
-339.027582893171710
 20
-234.155253026184030
 11
-320.904360114158860
 21
-252.278475805196420
  0
LINE
  8
0
  6
CONTINUOUS
 62
3
 10
-472.695399351785910
 20
-234.942149981310190
 11
-494.627919253384790
 21
-256.874669882909070
  0
LINE
  8
0
  6
CONTINUOUS
 62
3
 10
-477.291593429498330
 20
-230.345955903597770
 11
-499.224113331097670
 21
-252.278475805196650
  0
LINE
  8
0
  6
CONTINUOUS
 62
3
 10
-490.202454469775830
 20
-92.172769605005499
 11
-501.602542189513310
 21
-80.772681885268184
  0
LINE
  8
0
  6
CONTINUOUS
 62
3
 10
-479.503076358004140
 20
-93.679759561351972
 11
-485.413823313422770
 21
-87.769012605933455
  0
LINE
  8
0
  6
CONTINUOUS
 62
3
 10
-347.433074093470620
 20
-100.487436567570050
 11
-323.216580313061060
 21
-76.270942787160948
  0
LINE
  8
0
  6
CONTINUOUS
 62
3
 10
-342.836880015758200
 20
-105.083630645282710
 11
-318.525931255743220
 21
-80.772681885268184
  0
LINE
  8
0
  6
CONTINUOUS
 62
3
 10
-406.814236722628270
 20
-81.214793274440126
 11
-406.814236722628270
 21
-78.714792477339415
  0
LINE
  8
0
  6
CONTINUOUS
 62
3
 10
-413.314236722628270
 20
-81.214793274440126
 11
-413.314236722628270
 21
-78.714792477339415
  0
LINE
  8
0
  6
CONTINUOUS
 62
3
 10
-410.064236722628270
 20
-75.714792477339415
 11
-427.564236722628270
 21
-75.714792477339415
  0
LINE
  8
0
  6
CONTINUOUS
 62
3
 10
-410.064236722628270
 20
-75.714792477339415
 11
-392.564236722628270
 21
-75.714792477339415
  0
LINE
  8
0
  6
CONTINUOUS
 62
3
 10
-308.064236722628270
 20
-107.714792477339180
 11
-302.666174734878950
 21
-107.714792477339180
  0
LINE
  8
0
  6
CONTINUOUS
 62
3
 10
-308.064236722628270
 20
-133.714792477339190
 11
-296.064236722628270
 21
-133.714792477339190
  0
LINE
  8
0
  6
CONTINUOUS
 62
3
 10
-512.064236722628270
 20
-107.714792477339180
 11
-518.962474023932370
 21
-107.714792477339180
  0
LINE
  8
0
  6
CONTINUOUS
 62
3
 10
-512.064236722628270
 20
-133.714792477339190
 11
-525.064236722628270
 21
-133.714792477339190
  0
ARC
  8
0
  6
CONTINUOUS
 62
3
 10
-521.064236722628270
 20
-213.310845735152040
 40
6.000000000000000
 50
180.000000000000000
 51
202.331645009221920
  0
ARC
  8
0
  6
CONTINUOUS
 62
3
 10
-525.064236722628270
 20
-135.714792477339190
 40
2.000000000000000
 50
90.000000000000000
 51
180.000000000000000
  0
INSERT
  8
0
  2
SYM6
 10
-420.564236722628270
 20
-63.714792477339415
 41
-1.000000000000000
  0
INSERT
  8
0
  2
SYM7
 10
-477.064236722628270
 20
-70.714792477339188
 41
-1.000000000000000
  0
INSERT
  8
0
  2
SYM8
 10
-517.064236722628270
 20
-212.714792477339420
 41
-1.000000000000000
  0
INSERT
  8
0
  2
SYM9
 10
-477.064236722628270
 20
-270.714792477339420
 41
-1.000000000000000
  0
INSERT
  8
0
  2
SYM10
 10
-343.064236722628270
 20
-270.714792477339420
  0
INSERT
  8
0
  2
SYM11
 10
-303.064236722628270
 20
-212.714792477339420
  0
INSERT
  8
0
  2
SYM12
 10
-304.064236722628270
 20
-146.714792477339190
  0
INSERT
  8
0
  2
SYM13
 10
-343.064236722628270
 20
-70.714792477339188
  0
INSERT
  8
0
  2
SYM14
 10
-399.564236722628270
 20
-63.714792477339415
  0
ARC
  8
0
  6
CONTINUOUS
 62
3
 10
-423.564236722628040
 20
-154.214793274440130
 40
70.000000000000000
 50
125.466939641014630
 51
132.169547802798090
  0
LINE
  8
0
  6
CONTINUOUS
 62
3
 10
-493.564236722628270
 20
-180.650401339988150
 11
-493.564236722628270
 21
-181.214793274440150
  0
ARC
  8
0
  6
CONTINUOUS
 62
3
 10
-423.564236722628040
 20
-181.214793274440150
 40
70.000000000000227
 50
180.000000000000000
 51
270.000000000000000
  0
ARC
  8
0
  6
CONTINUOUS
 62
3
 10
-464.865012264585860
 20
-112.914017732482870
 40
4.999999999999668
 50
125.512329309462400
 51
138.339300641719060
  0
ARC
  8
0
  6
CONTINUOUS
 62
3
 10
-396.564236722628040
 20
-154.214793274440130
 40
69.999999999999957
 50
42.732110042602208
 51
54.533060358986283
  0
LINE
  8
0
  6
CONTINUOUS
 62
3
 10
-468.392550706330440
 20
-116.630807840927780
 11
-468.564236722628270
 21
-116.531280367645450
  0
ARC
  8
0
  6
CONTINUOUS
 62
3
 10
-470.220920997726350
 20
-120.455684765855830
 40
3.000000000000228
 50
54.618555413447936
 51
56.479995948265923
  0
ARC
  8
0
  6
CONTINUOUS
 62
3
 10
-464.865012264585860
 20
-112.914017732482760
 40
6.249999999999601
 50
234.618555413461000
 51
234.641864283558220
  0
LINE
  8
0
  6
CONTINUOUS
 62
3
 10
-468.620141082606890
 20
-109.308542558224710
 11
-467.766774447532380
 21
-108.815852229444630
  0
ARC
  8
0
  6
CONTINUOUS
 62
3
 10
-410.064236722628040
 20
-167.714793274440130
 40
34.999999999999886
 50
219.109992212758300
 51
320.890007787241700
  0
ARC
  8
0
  6
CONTINUOUS
 62
3
 10
-435.564236722628040
 20
-195.888362448401750
 40
3.000000000000000
 50
0.000000000000000
 51
47.851640517492825
  0
LINE
  8
0
  6
CONTINUOUS
 62
3
 10
-432.564236722628040
 20
-195.888362448401750
 11
-432.564236722628040
 21
-244.331407265148100
  0
ARC
  8
0
  6
CONTINUOUS
 62
3
 10
-424.564236722628040
 20
-202.839570853807120
 40
3.000000000000074
 50
67.568479364624139
 51
180.000000000000000
  0
LINE
  8
0
  6
CONTINUOUS
 62
3
 10
-427.564236722628040
 20
-202.839570853807120
 11
-427.564236722628040
 21
-245.414793274440140
  0
ARC
  8
0
  6
CONTINUOUS
 62
3
 10
-457.323345231212440
 20
-227.871477549538350
 40
2.999999999999964
 50
144.618555413455000
 51
231.846812084448000
  0
ARC
  8
0
  6
CONTINUOUS
 62
3
 10
-464.865012264585860
 20
-222.515568816397580
 40
6.250000000000307
 50
324.618555413457270
 51
125.381444586539010
  0
INSERT
  8
0
  2
SYM15
 10
-464.865012264585860
 20
-222.515568816397580
  0
ARC
  8
0
  6
CONTINUOUS
 62
3
 10
-470.220920997726350
 20
-214.973901783024500
 40
2.999999999999743
 50
218.153187915557770
 51
305.381444586552050
  0
ARC
  8
0
  6
CONTINUOUS
 62
3
 10
-362.805128214043860
 20
-227.871477549538350
 40
3.000000000000222
 50
308.153187915558870
 51
35.381444586539963
  0
ARC
  8
0
  6
CONTINUOUS
 62
3
 10
-349.907552447529950
 20
-214.973901783024440
 40
3.000000000000011
 50
234.618555413455650
 51
321.846812084447610
  0
ARC
  8
0
  6
CONTINUOUS
 62
3
 10
-355.263461180670450
 20
-222.515568816397520
 40
6.249999999999818
 50
54.618555413457301
 51
215.381444586545570
  0
INSERT
  8
0
  2
SYM15
 10
-355.263461180670450
 20
-222.515568816397460
  0
LINE
  8
0
  6
CONTINUOUS
 62
3
 10
-387.564236722628040
 20
-195.888362448401750
 11
-387.564236722628040
 21
-244.331407265148100
  0
ARC
  8
0
  6
CONTINUOUS
 62
3
 10
-384.564236722628040
 20
-195.888362448401750
 40
2.999999999999853
 50
132.148359482507170
 51
180.000000000000000
  0
ARC
  8
0
  6
CONTINUOUS
 62
3
 10
-395.564236722628040
 20
-202.839570853807120
 40
3.000000000000000
 50
0.000000000000000
 51
112.431520635375860
  0
LINE
  8
0
  6
CONTINUOUS
 62
3
 10
-392.564236722628040
 20
-202.839570853807120
 11
-392.564236722628040
 21
-245.414793274440140
  0
ARC
  8
0
  6
CONTINUOUS
 62
3
 10
-384.564236722628040
 20
-244.331407265148100
 40
3.000000000000000
 50
180.000000000000000
 51
280.317602512868230
  0
ARC
  8
0
  6
CONTINUOUS
 62
3
 10
-435.564236722628040
 20
-244.331407265148100
 40
3.000000000000005
 50
259.682397487131770
 51
0.000000000000000
  0
ARC
  8
0
  6
CONTINUOUS
 62
3
 10
-424.564236722628040
 20
-245.414793274440140
 40
3.000000000000000
 50
180.000000000000000
 51
270.000000000000000
  0
LINE
  8
0
  6
CONTINUOUS
 62
3
 10
-396.564236722628040
 20
-251.214793274440150
 11
-423.564236722628040
 21
-251.214793274440150
  0
ARC
  8
0
  6
CONTINUOUS
 62
3
 10
-395.564236722628040
 20
-245.414793274440140
 40
3.000000000000000
 50
270.000000000000000
 51
0.000000000000000
  0
ARC
  8
0
  6
CONTINUOUS
 62
3
 10
-396.564236722628040
 20
-181.214793274440150
 40
70.000000000000000
 50
270.000000000000000
 51
0.000000000000000
  0
LINE
  8
0
  6
CONTINUOUS
 62
3
 10
-326.564236722628040
 20
-175.234777299989100
 11
-326.564236722628040
 21
-181.214793274440150
  0
LINE
  8
0
  6
DASHDOT
 62
4
 10
-386.106728718223170
 20
-135.714793274439440
 11
-433.897925809269510
 21
-135.714793274439440
  0
LINE
  8
0
  6
DASHDOT
 62
4
 10
-542.914584757239940
 20
-136.714793274440130
 11
-274.044348970572170
 21
-136.714793274440130
  0
LINE
  8
0
  6
CONTINUOUS
 62
3
 10
-493.564236722628270
 20
-171.128842061903500
 11
-493.564236722628270
 21
-174.847720104189510
  0
LINE
  8
0
  6
CONTINUOUS
 62
3
 10
-326.564236722628040
 20
-166.008986615564110
 11
-326.564236722628040
 21
-181.214793274440130
  0
INSERT
  8
0
  2
SYM16
 10
22.981739820569373
 20
152.785206725559990
 50
0.000000000000014
  0
INSERT
  8
0
  2
SYM17
 10
39.481739820579833
 20
96.285206725559988
 50
0.000000000000014
  0
LINE
  8
0
  6
CONTINUOUS
 62
3
 10
50.481739820579833
 20
46.285206725560442
 11
50.481739820579378
 21
163.285206725559990
  0
ARC
  8
0
  6
CONTINUOUS
 62
3
 10
34.481739820579833
 20
72.285206725559988
 40
2.000000000000000
 50
90.000000000000000
 51
180.000000000000000
  0
LINE
  8
0
  6
CONTINUOUS
 62
3
 10
37.481739820579833
 20
74.285206725559533
 11
34.481739820579833
 21
74.285206725559988
  0
ARC
  8
0
  6
CONTINUOUS
 62
3
 10
37.481739820579833
 20
76.285206725559533
 40
2.000000000000000
 50
270.000000000000000
 51
0.000000000000000
  0
LINE
  8
0
  6
CONTINUOUS
 62
3
 10
32.481739820579833
 20
72.285206725559988
 11
32.481739820579833
 21
49.285206725559988
  0
LINE
  8
0
  6
CONTINUOUS
 62
3
 10
50.481739820579833
 20
46.285206725560442
 11
35.481739820579833
 21
46.285206725559988
  0
ARC
  8
0
  6
CONTINUOUS
 62
3
 10
35.481739820579833
 20
49.285206725559988
 40
3.000000000000000
 50
180.000000000000000
 51
270.000000000000000
  0
LINE
  8
0
  6
CONTINUOUS
 62
3
 10
31.481740774254149
 20
62.919082572422781
 11
31.481740774254149
 21
51.651136329136648
  0
LINE
  8
0
  6
CONTINUOUS
 62
3
 10
31.981741412111887
 20
63.785206749628401
 11
31.481741385964824
 21
62.919082609494239
  0
LINE
  8
0
  6
CONTINUOUS
 62
3
 10
31.981742038739185
 20
50.785206748260975
 11
31.481741088545959
 21
51.651136319329567
  0
LINE
  8
0
  6
CONTINUOUS
 62
3
 10
31.981740774254149
 20
63.785206725559988
 11
31.981740774254149
 21
50.785206725559988
  0
LINE
  8
0
  6
CONTINUOUS
 62
3
 10
32.481739820581879
 20
50.785206725559988
 11
31.981741727928465
 21
50.785206725559988
  0
LINE
  8
0
  6
CONTINUOUS
 62
3
 10
32.481739820581652
 20
63.785206725559988
 11
31.981740774254149
 21
63.785206725559988
  0
ARC
  8
0
  6
CONTINUOUS
 62
3
 10
42.481739820579833
 20
49.285206725559988
 40
3.000000000000000
 50
180.000000000000000
 51
270.000000000000000
  0
ARC
  8
0
  6
CONTINUOUS
 62
3
 10
36.481739820579833
 20
139.785206725559990
 40
3.000000000000000
 50
0.000000000000000
 51
90.000000000000000
  0
ARC
  8
0
  6
CONTINUOUS
 62
3
 10
30.481739820579833
 20
145.785206725559990
 40
3.000000000000000
 50
180.000000000000000
 51
270.000000000000000
  0
LINE
  8
0
  6
CONTINUOUS
 62
3
 10
27.481739820579833
 20
163.285206725559990
 11
27.481739820579833
 21
142.785206725559990
  0
LINE
  8
0
  6
CONTINUOUS
 62
3
 10
22.981739820568919
 20
142.785206725559990
 11
22.981739820570283
 21
163.285206725559990
  0
LINE
  8
0
  6
CONTINUOUS
 62
3
 10
22.981739820568919
 20
142.785206725559990
 11
27.481739820579833
 21
142.785206725559990
  0
LINE
  8
0
  6
CONTINUOUS
 62
3
 10
30.481739820579833
 20
142.785206725559990
 11
36.481739820579833
 21
142.785206725559990
  0
LINE
  8
0
  6
CONTINUOUS
 62
3
 10
39.481739820579833
 20
49.285206725559988
 11
39.481739820579833
 21
139.785206725559990
  0
LINE
  8
0
  6
CONTINUOUS
 62
3
 10
13.981739820573011
 20
79.855080386999020
 11
34.656237304092201
 21
79.133111026018582
  0
LINE
  8
0
  6
CONTINUOUS
 62
3
 10
13.981739820573011
 20
79.855080386999020
 11
13.981739820578468
 21
163.285206725559870
  0
ARC
  8
0
  6
CONTINUOUS
 62
3
 10
34.481739820579378
 20
74.136156890923871
 40
4.999999999999970
 50
15.348930286009365
 51
87.999999999996049
  0
INSERT
  8
0
  2
SYM18
 10
22.981739820569373
 20
173.785206725559990
 41
-1.000000000000000
 50
180.000000000000000
  0
INSERT
  8
0
  2
SYM19
 10
39.481739820579833
 20
230.285206725559990
 41
-1.000000000000000
 50
180.000000000000000
  0
LINE
  8
0
  6
CONTINUOUS
 62
3
 10
50.481739820579605
 20
280.285206725559420
 11
50.481739820579378
 21
163.285206725559990
  0
ARC
  8
0
  6
CONTINUOUS
 62
3
 10
34.481739820579833
 20
254.285206725559870
 40
2.000000000000000
 50
180.000000000000000
 51
270.000000000000000
  0
LINE
  8
0
  6
CONTINUOUS
 62
3
 10
37.481739820579833
 20
252.285206725560330
 11
34.481739820579833
 21
252.285206725559870
  0
ARC
  8
0
  6
CONTINUOUS
 62
3
 10
37.481739820579833
 20
250.285206725560330
 40
2.000000000000000
 50
0.000000000000000
 51
90.000000000000000
  0
LINE
  8
0
  6
CONTINUOUS
 62
3
 10
32.481739820579833
 20
254.285206725559870
 11
32.481739820579605
 21
277.285206725559870
  0
LINE
  8
0
  6
CONTINUOUS
 62
3
 10
50.481739820579605
 20
280.285206725559420
 11
35.481739820579605
 21
280.285206725559870
  0
ARC
  8
0
  6
CONTINUOUS
 62
3
 10
35.481739820579605
 20
277.285206725559870
 40
3.000000000000000
 50
90.000000000000000
 51
180.000000000000000
  0
LINE
  8
0
  6
CONTINUOUS
 62
3
 10
31.481740774253922
 20
263.651330878697080
 11
31.481740774253922
 21
274.919277121983210
  0
LINE
  8
0
  6
CONTINUOUS
 62
3
 10
31.981741412111660
 20
262.785206701491460
 11
31.481741385964597
 21
263.651330841625620
  0
LINE
  8
0
  6
CONTINUOUS
 62
3
 10
31.981742038738957
 20
275.785206702858890
 11
31.481741088545732
 21
274.919277131790300
  0
LINE
  8
0
  6
CONTINUOUS
 62
3
 10
31.981740774253922
 20
262.785206725559870
 11
31.981740774253922
 21
275.785206725559870
  0
LINE
  8
0
  6
CONTINUOUS
 62
3
 10
32.481739820579605
 20
275.785206725559870
 11
31.981741727928238
 21
275.785206725559870
  0
LINE
  8
0
  6
CONTINUOUS
 62
3
 10
32.481739820579605
 20
262.785206725559870
 11
31.981740774253922
 21
262.785206725559870
  0
ARC
  8
0
  6
CONTINUOUS
 62
3
 10
42.481739820579605
 20
277.285206725559870
 40
3.000000000000000
 50
90.000000000000000
 51
180.000000000000000
  0
ARC
  8
0
  6
CONTINUOUS
 62
3
 10
36.481739820579833
 20
186.785206725559990
 40
3.000000000000000
 50
270.000000000000000
 51
0.000000000000000
  0
ARC
  8
0
  6
CONTINUOUS
 62
3
 10
30.481739820579833
 20
180.785206725559990
 40
3.000000000000000
 50
90.000000000000000
 51
180.000000000000000
  0
LINE
  8
0
  6
CONTINUOUS
 62
3
 10
27.481739820579833
 20
163.285206725559990
 11
27.481739820579833
 21
183.785206725559990
  0
LINE
  8
0
  6
CONTINUOUS
 62
3
 10
22.981739820568919
 20
183.785206725559990
 11
22.981739820570283
 21
163.285206725559990
  0
LINE
  8
0
  6
CONTINUOUS
 62
3
 10
22.981739820568919
 20
183.785206725559990
 11
27.481739820579833
 21
183.785206725559990
  0
LINE
  8
0
  6
CONTINUOUS
 62
3
 10
30.481739820579833
 20
183.785206725559990
 11
36.481739820579833
 21
183.785206725559990
  0
LINE
  8
0
  6
CONTINUOUS
 62
3
 10
39.481739820579605
 20
277.285206725559870
 11
39.481739820579833
 21
186.785206725559990
  0
LINE
  8
0
  6
CONTINUOUS
 62
3
 10
13.981739820573011
 20
246.715333064120840
 11
34.656237304092201
 21
247.437302425101280
  0
LINE
  8
0
  6
CONTINUOUS
 62
3
 10
13.981739820573011
 20
246.715333064120840
 11
13.981739820578241
 21
163.285206725559870
  0
ARC
  8
0
  6
CONTINUOUS
 62
3
 10
34.481739820579378
 20
252.434256560195990
 40
4.999999999999244
 50
272.000000000003920
 51
344.651069713993190
  0
LINE
  8
0
  6
CONTINUOUS
 62
3
 10
-6.018254128220406
 20
250.702051861819200
 11
-6.018254128220406
 21
280.582424689569050
  0
LINE
  8
0
  6
DASHDOT
 62
4
 10
30.481745871779594
 20
270.785209403320550
 11
-4.518254128220406
 21
270.785209403320550
  0
LINE
  8
0
  6
DASHDOT
 62
4
 10
12.981745871779594
 20
288.285209403320550
 11
12.981745871779594
 21
256.821976671880290
  0
LINE
  8
0
  6
CONTINUOUS
 62
3
 10
50.981745871779594
 20
280.285206725559870
 11
116.017553060308040
 21
279.150002488425340
  0
LINE
  8
0
  6
DASHDOT
 62
4
 10
180.481745871779590
 20
270.785209403320550
 11
145.481745871779590
 21
270.785209403320550
  0
LINE
  8
0
  6
DASHDOT
 62
4
 10
162.981745871779590
 20
288.285209403320550
 11
162.981745871779590
 21
253.285209403320550
  0
LINE
  8
0
  6
CONTINUOUS
 62
3
 10
1.989513418803426
 20
257.013846803053640
 11
31.244866179302562
 21
256.503192721121200
  0
LINE
  8
0
  6
CONTINUOUS
 62
3
 10
50.981739820579605
 20
163.285206725559870
 11
50.981739820579605
 21
280.285206725559870
  0
LINE
  8
0
  6
CONTINUOUS
 62
3
 10
1.989513418803426
 20
69.556566648066109
 11
31.244866179302562
 21
70.067220729998553
  0
ARC
  8
0
  6
CONTINUOUS
 62
3
 10
114.708622577511730
 20
204.161425351695470
 40
75.000000000000327
 50
71.103485179946389
 51
88.999999999999972
  0
ARC
  8
0
  6
CONTINUOUS
 62
3
 10
175.981745871779590
 20
241.971534605247140
 40
3.000000000000000
 50
0.000000000000000
 51
31.677695816961705
  0
ARC
  8
0
  6
CONTINUOUS
 62
3
 10
114.708622577511730
 20
204.161425351695470
 40
75.000000000000767
 50
31.677695816952838
 51
35.133474768257869
  0
CIRCLE
  8
0
  6
CONTINUOUS
 62
3
 10
12.981745871779594
 20
270.785209403320550
 40
7.500000000000000
  0
CIRCLE
  8
0
  6
CONTINUOUS
 62
3
 10
162.981745871779590
 20
270.785209403320550
 40
7.500000000000000
  0
ARC
  8
0
  6
CONTINUOUS
 62
3
 10
162.981745871779590
 20
270.785209403320550
 40
22.000000000000316
 50
176.569875503928870
 51
269.000000000000570
  0
ARC
  8
0
  6
CONTINUOUS
 62
3
 10
138.026533163249720
 20
272.280989692019830
 40
3.000000000000326
 50
356.569875503924440
 51
71.103485179939781
  0
LINE
  8
0
  6
CONTINUOUS
 62
3
 10
162.597792930159590
 20
248.788560109880560
 11
173.643561438399730
 21
248.595755503387410
  0
ARC
  8
0
  6
CONTINUOUS
 62
3
 10
173.591204219087330
 20
245.596212417917740
 40
3.000000000000104
 50
35.133474768258203
 51
88.999999999989711
  0
ARC
  8
0
  6
CONTINUOUS
 62
3
 10
172.981745871779590
 20
280.423631734309310
 40
8.000000000000000
 50
0.000000000000000
 51
89.000000000004761
  0
LINE
  8
0
  6
CONTINUOUS
 62
3
 10
173.121365123277200
 20
288.422413295560550
 11
52.981745871779594
 21
290.519458150043650
  0
ARC
  8
0
  6
CONTINUOUS
 62
3
 10
1.981745871779594
 20
280.582424689569050
 40
7.999999999999988
 50
92.168675586611627
 51
180.000000000000000
  0
LINE
  8
0
  6
CONTINUOUS
 62
3
 10
1.679013934164459
 20
288.576694723408760
 11
52.981745871779594
 21
290.519458150043650
  0
LINE
  8
0
  6
DASHDOT
 62
4
 10
180.481745871779590
 20
55.785204047799198
 11
145.481745871779590
 21
55.785204047799198
  0
LINE
  8
0
  6
DASHDOT
 62
4
 10
30.481745871779594
 20
55.785204047799198
 11
-4.518254128220406
 21
55.785204047799198
  0
LINE
  8
0
  6
DASHDOT
 62
4
 10
12.981745871779594
 20
256.821976671880290
 11
12.981745871779594
 21
253.285209403320550
  0
ARC
  8
0
  6
CONTINUOUS
 62
3
 10
1.981745871779594
 20
75.423626627882186
 40
8.000000000000108
 50
91.000000000001762
 51
180.000000000000000
  0
LINE
  8
0
  6
CONTINUOUS
 62
3
 10
1.842126620281078
 20
83.422408189133421
 11
3.981745871778230
 21
83.459755382089952
  0
LINE
  8
0
  6
CONTINUOUS
 62
3
 10
1.842126620281078
 20
243.148005261986330
 11
3.981745871778230
 21
243.110658069029800
  0
ARC
  8
0
  6
CONTINUOUS
 62
3
 10
1.981745871779594
 20
251.146786823237560
 40
8.000000000000000
 50
180.000000000000000
 51
268.999999999998240
  0
LINE
  8
0
  6
CONTINUOUS
 62
3
 10
50.981745871779594
 20
46.285206725559874
 11
116.017553060308040
 21
47.420410962694405
  0
LINE
  8
0
  6
CONTINUOUS
 62
3
 10
-6.018254128220406
 20
75.423626627882186
 11
-6.018254128220406
 21
45.702046755392985
  0
LINE
  8
0
  6
CONTINUOUS
 62
3
 10
50.981739820579605
 20
163.285206725559870
 11
50.981739820579605
 21
46.285206725559874
  0
ARC
  8
0
  6
CONTINUOUS
 62
3
 10
114.708622577511730
 20
122.408988099424270
 40
75.000000000000526
 50
271.000000000000060
 51
288.896514820053600
  0
ARC
  8
0
  6
CONTINUOUS
 62
3
 10
138.026533163249720
 20
54.289423759099918
 40
2.999999999999901
 50
288.896514820060250
 51
3.430124496075548
  0
ARC
  8
0
  6
CONTINUOUS
 62
3
 10
172.981745871779590
 20
46.146781716810438
 40
8.000000000000092
 50
270.999999999995280
 51
0.000000000000000
  0
LINE
  8
0
  6
CONTINUOUS
 62
3
 10
173.121365123277200
 20
38.148000155559203
 11
52.981745871779594
 21
36.050955301076101
  0
LINE
  8
0
  6
DASHDOT
 62
4
 10
12.981745871779594
 20
38.285204047799198
 11
12.981745871779594
 21
73.285204047799198
  0
CIRCLE
  8
0
  6
CONTINUOUS
 62
3
 10
12.981745871779594
 20
55.785204047799198
 40
7.500000000000000
  0
LINE
  8
0
  6
CONTINUOUS
 62
3
 10
1.679013934164459
 20
37.993718727710984
 11
52.981745871779594
 21
36.050955301076101
  0
ARC
  8
0
  6
CONTINUOUS
 62
3
 10
1.981745871779594
 20
45.987988761550696
 40
8.000000000000000
 50
180.000000000000000
 51
267.831324413388360
  0
ARC
  8
0
  6
CONTINUOUS
 62
3
 10
242.581745871778590
 20
143.685206725559510
 40
0.399999999999636
 50
270.000000000000000
 51
0.000000000000000
  0
LINE
  8
0
  6
CONTINUOUS
 62
3
 10
242.981745871778680
 20
163.285206725559870
 11
242.981745871778680
 21
140.285206725559870
  0
LINE
  8
0
  6
CONTINUOUS
 62
3
 10
186.041560618782800
 20
143.285206725559870
 11
185.481752997647390
 21
143.435206725559510
  0
LINE
  8
0
  6
CONTINUOUS
 62
3
 10
242.581745871778590
 20
143.285206725559870
 11
186.041560618783250
 21
143.285206725559870
  0
LINE
  8
0
  6
CONTINUOUS
 62
3
 10
182.981745871778680
 20
163.285206725559870
 11
182.981745871778680
 21
141.185206725559510
  0
LINE
  8
0
  6
CONTINUOUS
 62
3
 10
182.581745871778590
 20
140.785206725559870
 11
182.981745871778680
 21
141.185206725559510
  0
LINE
  8
0
  6
CONTINUOUS
 62
3
 10
185.481752997647390
 20
143.435206725559510
 11
184.581745871778590
 21
143.435206725559510
  0
ARC
  8
0
  6
CONTINUOUS
 62
3
 10
184.581745871778590
 20
141.835206725560060
 40
1.599999999999454
 50
90.000000000000000
 51
180.000000000000000
  0
LINE
  8
0
  6
CONTINUOUS
 62
3
 10
182.581745871778590
 20
140.785206725559870
 11
180.981745871779590
 21
140.785206725559870
  0
LINE
  8
0
  6
CONTINUOUS
 62
3
 10
186.041560618782800
 20
183.285206725558960
 11
185.481752997647390
 21
183.135206725559330
  0
LINE
  8
0
  6
CONTINUOUS
 62
3
 10
182.981745871778680
 20
163.285206725559870
 11
182.981745871778680
 21
185.385206725559330
  0
LINE
  8
0
  6
CONTINUOUS
 62
3
 10
182.581745871778590
 20
185.785206725559870
 11
180.981745871779590
 21
185.785206725559870
  0
LINE
  8
0
  6
CONTINUOUS
 62
3
 10
182.581745871778590
 20
185.785206725559870
 11
182.981745871778680
 21
185.385206725559330
  0
LINE
  8
0
  6
CONTINUOUS
 62
3
 10
185.481752997647390
 20
183.135206725559330
 11
184.581745871778590
 21
183.135206725559330
  0
ARC
  8
0
  6
CONTINUOUS
 62
3
 10
184.581745871778590
 20
184.735206725559690
 40
1.599999999999909
 50
180.000000000000000
 51
270.000000000000000
  0
LINE
  8
0
  6
CONTINUOUS
 62
3
 10
242.981745871778680
 20
163.285206725559870
 11
242.981745871778680
 21
182.885206725559330
  0
LINE
  8
0
  6
CONTINUOUS
 62
3
 10
242.581745871778590
 20
183.285206725559870
 11
186.041560618783250
 21
183.285206725558960
  0
ARC
  8
0
  6
CONTINUOUS
 62
3
 10
242.581745871778590
 20
182.885206725559330
 40
0.400000000000091
 50
0.000000000000000
 51
90.000000000000000
  0
LINE
  8
0
  6
CONTINUOUS
 62
3
 10
187.981745871778680
 20
143.285206725559870
 11
187.981745871778680
 21
140.285206725559870
  0
LINE
  8
0
  6
CONTINUOUS
 62
3
 10
242.981752997647390
 20
140.285206725559870
 11
187.981752997647390
 21
140.285206725559870
  0
CIRCLE
  8
0
  6
CONTINUOUS
 62
3
 10
162.981745871779590
 20
55.785204047799198
 40
7.500000000000000
  0
LINE
  8
0
  6
DASHDOT
 62
4
 10
162.981745871779590
 20
38.285204047799198
 11
162.981745871779590
 21
73.285204047799198
  0
LINE
  8
0
  6
CONTINUOUS
 62
3
 10
180.981745871779590
 20
163.285206725559870
 11
180.981745871779590
 21
46.010713810341258
  0
ARC
  8
0
  6
CONTINUOUS
 62
3
 10
114.708622577511730
 20
122.408988099424270
 40
75.000000000000071
 50
324.866525231742120
 51
328.322304183047150
  0
LINE
  8
0
  6
CONTINUOUS
 62
3
 10
162.597792930159590
 20
77.781853341239184
 11
173.643561438399730
 21
77.974657947732339
  0
ARC
  8
0
  6
CONTINUOUS
 62
3
 10
173.591204219087330
 20
80.974201033202007
 40
3.000000000000504
 50
271.000000000010350
 51
324.866525231741780
  0
ARC
  8
0
  6
CONTINUOUS
 62
3
 10
162.981745871779590
 20
55.785204047799198
 40
21.999999999999375
 50
90.999999999999432
 51
183.430124496071130
  0
ARC
  8
0
  6
CONTINUOUS
 62
3
 10
179.981745871779590
 20
121.285206725559870
 40
1.000000000000000
 50
90.000000000000000
 51
180.000000000000000
  0
ARC
  8
0
  6
CONTINUOUS
 62
3
 10
179.981745871779590
 20
205.285206725559870
 40
1.000000000000000
 50
180.000000000000000
 51
270.000000000000000
  0
ARC
  8
0
  6
CONTINUOUS
 62
3
 10
175.981745871779590
 20
84.598878845872605
 40
3.000000000000318
 50
328.322304183038280
 51
0.000000000000000
  0
LINE
  8
0
  6
DASHDOT
 62
4
 10
-255.649071766266620
 20
163.285206725559870
 11
259.996736113281030
 21
163.285206725559870
  0
LINE
  8
0
  6
CONTINUOUS
 62
3
 10
178.981745871779590
 20
163.285206725559870
 11
178.981745871779590
 21
84.598878845872605
  0
LINE
  8
0
  6
CONTINUOUS
 62
3
 10
180.981745871779590
 20
163.285206725559870
 11
180.981745871779590
 21
280.423631734309310
  0
LINE
  8
0
  6
CONTINUOUS
 62
3
 10
178.981745871779590
 20
163.285206725559870
 11
178.981745871779590
 21
241.971534605247140
  0
LINE
  8
0
  6
CONTINUOUS
 62
3
 10
179.981745871779590
 20
122.285206725559870
 11
180.981745871779590
 21
122.285206725559870
  0
LINE
  8
0
  6
CONTINUOUS
 62
3
 10
179.981745871779590
 20
204.285206725559870
 11
180.981745871779590
 21
204.285206725559870
  0
LINE
  8
0
  6
CONTINUOUS
 62
3
 10
-52.518260179421759
 20
216.785206725559870
 11
-0.018259900532712
 21
216.785206725559870
  0
LINE
  8
0
  6
CONTINUOUS
 62
3
 10
-52.518260179421759
 20
109.785206725559760
 11
-0.018707641313767
 21
109.785206725559760
  0
INSERT
  8
0
  2
SYM3
 10
3.981739820578241
 20
218.085982267517240
  0
INSERT
  8
0
  2
SYM3
 10
3.981739820578241
 20
108.484431183602510
  0
LINE
  8
0
  6
CONTINUOUS
 62
3
 10
-1.018260179421759
 20
178.285206725559870
 11
-31.018275533556789
 21
178.285206725559870
  0
ARC
  8
0
  6
CONTINUOUS
 62
3
 10
-41.018275533556789
 20
211.785206725559870
 40
5.000000000000000
 50
0.000000000000000
 51
90.000000000000000
  0
LINE
  8
0
  6
CONTINUOUS
 62
3
 10
-36.018275533556789
 20
211.785206725559870
 11
-36.018275533556789
 21
163.285206725559870
  0
ARC
  8
0
  6
CONTINUOUS
 62
3
 10
-31.018275533556789
 20
183.285206725559870
 40
5.000000000000000
 50
180.000000000000000
 51
270.000000000000000
  0
ARC
  8
0
  6
CONTINUOUS
 62
3
 10
6.981739820578241
 20
243.785206725559870
 40
3.000000000000000
 50
90.000000000000000
 51
180.000000000000000
  0
LINE
  8
0
  6
CONTINUOUS
 62
3
 10
3.981739820578241
 20
163.285206725559870
 11
3.981739820578241
 21
243.785206725559870
  0
ARC
  8
0
  6
CONTINUOUS
 62
3
 10
-1.018260179421759
 20
183.285206725559870
 40
5.000000000000000
 50
270.000000000000000
 51
0.000000000000000
  0
LINE
  8
0
  6
CONTINUOUS
 62
3
 10
6.981739820578241
 20
246.785206725559870
 11
13.981739820578241
 21
246.785206725559870
  0
CIRCLE
  8
0
  6
CONTINUOUS
 62
3
 10
-17.018260179421759
 20
163.285206725559870
 40
10.500000000000000
  0
LINE
  8
0
  6
CONTINUOUS
 62
3
 10
3.981739820578241
 20
163.285206725559870
 11
3.981739820578241
 21
82.785206725559874
  0
ARC
  8
0
  6
CONTINUOUS
 62
3
 10
-1.018260179421759
 20
143.285206725559760
 40
5.000000000000000
 50
0.000000000000000
 51
90.000000000000000
  0
ARC
  8
0
  6
CONTINUOUS
 62
3
 10
-41.018275533556789
 20
114.785206725559760
 40
5.000000000000000
 50
270.000000000000000
 51
0.000000000000000
  0
LINE
  8
0
  6
CONTINUOUS
 62
3
 10
6.981739820578241
 20
79.785206725559874
 11
13.981739820578241
 21
79.785206725559874
  0
ARC
  8
0
  6
CONTINUOUS
 62
3
 10
6.981739820578241
 20
82.785206725559874
 40
3.000000000000000
 50
180.000000000000000
 51
270.000000000000000
  0
LINE
  8
0
  6
CONTINUOUS
 62
3
 10
-1.018260179421759
 20
148.285206725559760
 11
-31.018275533556789
 21
148.285206725559760
  0
LINE
  8
0
  6
CONTINUOUS
 62
3
 10
-36.018275533556789
 20
114.785206725559760
 11
-36.018275533556789
 21
163.285206725559870
  0
ARC
  8
0
  6
CONTINUOUS
 62
3
 10
-31.018275533556789
 20
143.285206725559760
 40
5.000000000000000
 50
90.000000000000000
 51
180.000000000000000
  0
LINE
  8
0
  6
DASHDOT
 62
4
 10
-17.018260179421759
 20
141.706223493812900
 11
-17.018260179421759
 21
180.756308745025190
  0
ARC
  8
0
  6
CONTINUOUS
 62
3
 10
-489.364236722628220
 20
-150.757293274440140
 40
20.799999999999986
 50
174.275189547776620
 51
205.640070215894870
  0
POINT
  8
0
  6
DASHDOT
 62
4
 10
-468.564236722628270
 20
-136.728523767566120
  0
ARC
  8
0
  6
CONTINUOUS
 62
3
 10
-489.364236722628220
 20
-150.757293274440140
 40
20.799999999999926
 50
205.640070215894870
 51
260.083463391769440
  0
POINT
  8
0
  6
DASHDOT
 62
4
 10
-468.564236722628270
 20
-136.728523767566120
  0
ARC
  8
0
  6
CONTINUOUS
 62
3
 10
-489.364236722628220
 20
-150.757293274440140
 40
20.799999999999986
 50
174.275189547776620
 51
205.640070215894870
  0
ARC
  8
0
  6
CONTINUOUS
 62
3
 10
-487.364236722628220
 20
-110.757293274440140
 40
18.799999999999955
 50
0.000000000000000
 51
79.401214733933941
  0
ARC
  8
0
  6
CONTINUOUS
 62
3
 10
-483.538482088541290
 20
-90.312156897302430
 40
1.999999999999927
 50
177.137594773887290
 51
259.401214733934010
  0
ARC
  8
0
  6
CONTINUOUS
 62
3
 10
-489.131495186257100
 20
-90.032506242416616
 40
1.999999999999928
 50
274.873974813840960
 51
357.137594773887320
  0
ARC
  8
0
  6
CONTINUOUS
 62
3
 10
-487.697689456244690
 20
-173.496304251369450
 40
1.999999999999962
 50
94.191726156001650
 51
177.137594773887290
  0
LINE
  8
0
  6
CONTINUOUS
 62
3
 10
-485.866108214311450
 20
-80.794723108104904
 11
-490.959745142588420
 21
-182.667461673644990
  0
ARC
  8
0
  6
CONTINUOUS
 62
3
 10
-493.290702553960500
 20
-173.216653596483640
 40
2.000000000000154
 50
357.137594773887600
 51
80.083463391767268
  0
LINE
  8
0
  6
CONTINUOUS
 62
3
 10
-510.060496074249160
 20
-148.682480306859130
 11
-506.070471136593140
 21
-108.881981553741860
  0
ARC
  8
0
  6
CONTINUOUS
 62
3
 10
-489.364236722628220
 20
-150.757293274440140
 40
20.800000000000082
 50
274.191726156007460
 51
354.952683218992210
  0
ARC
  8
0
  6
CONTINUOUS
 62
3
 10
-487.364236722628220
 20
-110.757293274440140
 40
18.800000000000036
 50
94.873974813842736
 51
144.191373186504250
  0
ARC
  8
0
  6
CONTINUOUS
 62
3
 10
-487.364236722628220
 20
-110.757293274440140
 40
18.799999999999933
 50
144.191373186504250
 51
174.275189547776390
  0
LINE
  8
0
  6
CONTINUOUS
 62
3
 10
-486.665110085413740
 20
-80.754773014549755
 11
-485.067106343209160
 21
-80.834673201659939
  0
LINE
  8
0
  6
CONTINUOUS
 62
3
 10
-468.564236722628270
 20
-119.384184514220570
 11
-468.564236722628270
 21
-110.757293274440140
  0
INSERT
  8
0
  2
SYM20
 10
-491.509058928971630
 20
-177.633749885700580
 41
1.000000000000000
 42
1.000000000000000
 43
1.000000000000000
 50
357.137594773886350
  0
ARC
  8
0
  6
CONTINUOUS
 62
3
 10
-480.522783582308190
 20
-86.068135438330046
 40
9.000000000000060
 50
160.536063666407810
 51
193.739143184213500
  0
POINT
  8
0
  6
CONTINUOUS
 62
3
 10
-486.914798170132600
 20
-85.748534708938791
  0
LINE
  8
0
  6
CONTINUOUS
 62
3
 10
-486.740016510829040
 20
-82.252901522866409
 11
-487.089579829436160
 21
-89.244167895011287
  0
LINE
  8
0
  6
CONTINUOUS
 62
3
 10
-486.740016510829040
 20
-82.252901522866409
 11
-487.089579829436160
 21
-89.244167895011287
  0
LINE
  8
0
  6
CONTINUOUS
 62
3
 10
-487.089579829436160
 20
-89.244167895011287
 11
-488.067383641943930
 21
-89.195277704385944
  0
LINE
  8
0
  6
CONTINUOUS
 62
3
 10
-486.740016510829040
 20
-82.252901522866409
 11
-487.717820323336580
 21
-82.204011332241066
  0
ARC
  8
0
  6
CONTINUOUS
 62
3
 10
-488.002464778016250
 20
-87.896900425832314
 40
1.299999237060493
 50
193.739143184211430
 51
267.137612759980240
  0
ARC
  8
0
  6
CONTINUOUS
 62
3
 10
-487.782739187264270
 20
-83.502388610794583
 40
1.299999237060474
 50
87.137594090651831
 51
160.536063666412870
  0
LINE
  8
0
  6
CONTINUOUS
 62
3
 10
-486.665110085413740
 20
-80.754773014549755
 11
-491.758747013690710
 21
-182.627511580089730
  0
LINE
  8
0
  6
CONTINUOUS
 62
3
 10
-490.160743271486130
 20
-182.707411767200710
 11
-491.758747013690710
 21
-182.627511580089730
  0
LINE
  8
0
  6
CONTINUOUS
 62
3
 10
-485.067106343209160
 20
-80.834673201659939
 11
-490.160743271486130
 21
-182.707411767200710
  0
LINE
  8
0
  6
CONTINUOUS
 62
3
 10
-322.564236722628270
 20
-139.214793274440130
 11
-322.564236722628270
 21
-134.214793274440130
  0
LINE
  8
0
  6
CONTINUOUS
 62
3
 10
-323.074653570145980
 20
-139.214793274440130
 11
-322.564236722628270
 21
-139.214793274440130
  0
LINE
  8
0
  6
CONTINUOUS
 62
3
 10
-323.074653570145980
 20
-134.214793274440130
 11
-322.564236722628270
 21
-134.214793274440130
  0
ARC
  8
0
  6
CONTINUOUS
 62
3
 10
-623.064236722628270
 20
-136.714793274440130
 40
300.000000000000170
 50
355.138594604201960
 51
4.861405395798036
  0
LINE
  8
0
  6
CONTINUOUS
 62
3
 10
-352.564236722628270
 20
-106.714793274440120
 11
-329.125467588646640
 21
-106.714793274440120
  0
LINE
  8
0
  6
CONTINUOUS
 62
3
 10
-352.564236722628270
 20
-166.714793274440130
 11
-329.125467588646640
 21
-166.714793274440130
  0
ARC
  8
0
  6
CONTINUOUS
 62
3
 10
-329.125467588646640
 20
-111.714793274440120
 40
4.999999999999893
 50
4.861405395798621
 51
90.000000000000000
  0
ARC
  8
0
  6
CONTINUOUS
 62
3
 10
-329.125467588646640
 20
-161.714793274440130
 40
5.000000000000000
 50
270.000000000000000
 51
355.138594604201330
  0
ARC
  8
0
  6
CONTINUOUS
 62
4
 10
-168.464236722628130
 20
-136.714793274440130
 40
290.796999999999910
 50
174.998349729065040
 51
180.000000000000000
  0
LINE
  8
0
  6
CONTINUOUS
 62
4
 10
-452.141827038484280
 20
-98.469295888191482
 11
-448.801522005206610
 21
-95.128990854913582
  0
ARC
  8
0
  6
CONTINUOUS
 62
4
 10
-437.436127310147640
 20
-113.174995616528120
 40
20.797000000000015
 50
135.000000000000000
 51
174.998349729064670
  0
ARC
  8
0
  6
CONTINUOUS
 62
4
 10
-410.064236722628270
 20
-483.314793274440260
 40
390.797000000000030
 50
90.000000000000000
 51
95.417963762360529
  0
ARC
  8
0
  6
CONTINUOUS
 62
4
 10
-446.680201661646610
 20
-97.250311198473355
 40
3.000000000000067
 50
95.417963762365673
 51
135.000000000003040
  0
ARC
  8
0
  6
CONTINUOUS
 62
4
 10
-168.464236722628130
 20
-136.714793274440130
 40
290.797000000000250
 50
180.000000000000000
 51
185.001650270934930
  0
LINE
  8
0
  6
CONTINUOUS
 62
4
 10
-452.141827038484280
 20
-174.960290660688770
 11
-448.801522005206610
 21
-178.300595693966670
  0
ARC
  8
0
  6
CONTINUOUS
 62
4
 10
-437.436127310147640
 20
-160.254590932352130
 40
20.796999999999880
 50
185.001650270935330
 51
225.000000000000000
  0
ARC
  8
0
  6
CONTINUOUS
 62
4
 10
-410.064236722628270
 20
209.885206725560010
 40
390.797000000000030
 50
264.582036237639500
 51
270.000000000000000
  0
ARC
  8
0
  6
CONTINUOUS
 62
4
 10
-446.680201661646610
 20
-176.179275350406900
 40
3.000000000000346
 50
224.999999999996960
 51
264.582036237634270
  0
ARC
  8
0
  6
CONTINUOUS
 62
4
 10
-651.664236722628630
 20
-136.714793274440130
 40
290.797000000000140
 50
354.998349729065010
 51
0.000000000000000
  0
LINE
  8
0
  6
CONTINUOUS
 62
4
 10
-367.986646406772250
 20
-174.960290660688770
 11
-371.326951440049920
 21
-178.300595693966670
  0
ARC
  8
0
  6
CONTINUOUS
 62
4
 10
-382.692346135108890
 20
-160.254590932352130
 40
20.797000000000015
 50
315.000000000000000
 51
354.998349729064670
  0
ARC
  8
0
  6
CONTINUOUS
 62
4
 10
-410.064236722628270
 20
209.885206725560010
 40
390.797000000000030
 50
270.000000000000000
 51
275.417963762360500
  0
ARC
  8
0
  6
CONTINUOUS
 62
4
 10
-373.448271783609930
 20
-176.179275350406900
 40
3.000000000000067
 50
275.417963762365730
 51
315.000000000003070
  0
ARC
  8
0
  6
CONTINUOUS
 62
4
 10
-651.664236722628630
 20
-136.714793274440130
 40
290.797000000000480
 50
0.000000000000000
 51
5.752282731536624
  0
ARC
  8
0
  6
CONTINUOUS
 62
4
 10
-373.448271783609930
 20
-97.250311198473355
 40
3.000000000000346
 50
44.999999999996930
 51
84.582036237634313
  0
ARC
  8
0
  6
CONTINUOUS
 62
4
 10
-410.064236722628270
 20
-483.314793274440260
 40
390.797000000000030
 50
84.582036237639471
 51
90.000000000000000
  0
LINE
  8
0
  6
CONTINUOUS
 62
4
 10
-365.439537568010560
 20
-101.016404726953620
 11
-371.326951440049920
 21
-95.128990854913582
  0
ARC
  8
0
  6
CONTINUOUS
 62
3
 10
-449.495103722715610
 20
-91.292846532141766
 40
6.600000000000009
 50
95.743681810995099
 51
135.000000000002790
  0
ARC
  8
0
  6
CONTINUOUS
 62
3
 10
-449.495103722715610
 20
-182.136740016738490
 40
6.600000000000278
 50
224.999999999997190
 51
264.256318189004900
  0
ARC
  8
0
  6
CONTINUOUS
 62
3
 10
-370.633369722540920
 20
-182.136740016738490
 40
6.600000000000009
 50
275.743681810995100
 51
315.000000000002790
  0
ARC
  8
0
  6
CONTINUOUS
 62
3
 10
-370.633369722540920
 20
-91.292846532141766
 40
6.600000000000278
 50
44.999999999997215
 51
84.256318189004901
  0
ARC
  8
0
  6
CONTINUOUS
 62
3
 10
-410.064236722628270
 20
-483.314793274440260
 40
400.599999999999910
 50
90.000000000000000
 51
95.743681810993436
  0
ARC
  8
0
  6
CONTINUOUS
 62
3
 10
-410.064236722628270
 20
209.885206725560010
 40
400.599999999999910
 50
264.256318189006550
 51
270.000000000000000
  0
ARC
  8
0
  6
CONTINUOUS
 62
3
 10
-410.064236722628270
 20
209.885206725560010
 40
400.599999999999910
 50
270.000000000000000
 51
275.743681810993450
  0
ARC
  8
0
  6
CONTINUOUS
 62
3
 10
-410.064236722628270
 20
-483.314793274440260
 40
400.599999999999910
 50
84.256318189006564
 51
90.000000000000000
  0
ARC
  8
0
  6
CONTINUOUS
 62
3
 10
-168.464236722627900
 20
-136.714793274440130
 40
300.599999999999910
 50
174.247717268463390
 51
180.000000000000000
  0
ARC
  8
0
  6
CONTINUOUS
 62
3
 10
-168.464236722627900
 20
-136.714793274440130
 40
300.600000000000360
 50
180.000000000000000
 51
185.752282731536610
  0
ARC
  8
0
  6
CONTINUOUS
 62
3
 10
-651.664236722628630
 20
-136.714793274440130
 40
300.599999999999910
 50
354.247717268463420
 51
0.000000000000000
  0
ARC
  8
0
  6
CONTINUOUS
 62
3
 10
-651.664236722628630
 20
-136.714793274440130
 40
300.600000000000360
 50
0.000000000000000
 51
5.752282731536604
  0
ARC
  8
0
  6
CONTINUOUS
 62
3
 10
-413.564236722628270
 20
-171.539353573171870
 40
1.000000000000000
 50
0.000000000000000
 51
84.260829522738291
  0
ARC
  8
0
  6
CONTINUOUS
 62
3
 10
-413.564236722628270
 20
-174.553265759465150
 40
1.000000000000042
 50
264.715267045464260
 51
0.000000000000000
  0
ARC
  8
0
  6
CONTINUOUS
 62
3
 10
-413.564236722628270
 20
-166.006430306193810
 40
1.000000000000077
 50
263.186145655820330
 51
0.000000000000000
  0
LINE
  8
0
  6
CONTINUOUS
 62
3
 10
-412.564236722628270
 20
-174.553265759465150
 11
-412.564236722628270
 21
-171.539353573171870
  0
ARC
  8
0
  6
CONTINUOUS
 62
3
 10
-427.105165406001110
 20
-142.511926152699290
 40
0.999999999999885
 50
300.000000000003810
 51
18.787728582346993
  0
LINE
  8
0
  6
CONTINUOUS
 62
3
 10
-429.246400563057700
 20
-144.902869385403160
 11
-426.605165406001110
 21
-143.377951556483590
  0
ARC
  8
0
  6
CONTINUOUS
 62
3
 10
-429.746400563057700
 20
-144.036843981618860
 40
1.000000000000094
 50
200.405931773138690
 51
300.000000000003810
  0
ARC
  8
0
  6
CONTINUOUS
 62
3
 10
-434.562863054782610
 20
-146.817629897758480
 40
1.000000000000082
 50
299.999999999997270
 51
22.410457608146043
  0
ARC
  8
0
  6
CONTINUOUS
 62
3
 10
-441.973190616952710
 20
-151.095984510560360
 40
1.000000000000082
 50
299.999999999997270
 51
24.260829522733715
  0
LINE
  8
0
  6
CONTINUOUS
 62
3
 10
-436.681538510560130
 20
-149.195548280855970
 11
-434.062863054782610
 21
-147.683655301543010
  0
ARC
  8
0
  6
CONTINUOUS
 62
3
 10
-437.181538510560130
 20
-148.329522877071440
 40
0.999999999999730
 50
203.186145655819840
 51
299.999999999997270
  0
LINE
  8
0
  6
CONTINUOUS
 62
3
 10
-444.083315135058460
 20
-153.468966007491420
 11
-441.473190616952710
 21
-151.962009914344890
  0
ARC
  8
0
  6
CONTINUOUS
 62
3
 10
-444.583315135058460
 20
-152.602940603707110
 40
1.000000000000248
 50
204.715267045455480
 51
300.000000000003810
  0
ARC
  8
0
  6
CONTINUOUS
 62
3
 10
-441.083315135058460
 20
-158.665118430198390
 40
1.000000000000082
 50
119.999999999997270
 51
215.284732954534320
  0
ARC
  8
0
  6
CONTINUOUS
 62
3
 10
-438.473190616952710
 20
-157.158162337051410
 40
0.999999999999807
 50
35.739170477263521
 51
120.000000000003780
  0
ARC
  8
0
  6
CONTINUOUS
 62
3
 10
-413.564236722628270
 20
-162.982644347567430
 40
1.000000000000000
 50
0.000000000000000
 51
82.410457608145762
  0
ARC
  8
0
  6
CONTINUOUS
 62
3
 10
-433.681538510560130
 20
-154.391700703562260
 40
0.999999999999885
 50
120.000000000003780
 51
216.813854344197100
  0
ARC
  8
0
  6
CONTINUOUS
 62
3
 10
-431.062863054783070
 20
-152.879807724249300
 40
1.000000000000194
 50
37.589542391851793
 51
119.999999999997270
  0
ARC
  8
0
  6
CONTINUOUS
 62
3
 10
-413.564236722628270
 20
-157.421072515288640
 40
1.000000000000268
 50
260.405931773124510
 51
0.000000000000000
  0
ARC
  8
0
  6
CONTINUOUS
 62
3
 10
-413.564236722628270
 20
-154.371236857449730
 40
1.000000000000000
 50
0.000000000000000
 51
78.787728582355996
  0
ARC
  8
0
  6
CONTINUOUS
 62
3
 10
-426.246400563057250
 20
-150.099021808109910
 40
0.999999999999885
 50
120.000000000003780
 51
219.594068226860460
  0
ARC
  8
0
  6
CONTINUOUS
 62
3
 10
-423.605165406001110
 20
-148.574103979190570
 40
1.000000000000165
 50
41.212271417643841
 51
119.999999999997270
  0
ARC
  8
0
  6
CONTINUOUS
 62
3
 10
-418.706541568041760
 20
-145.745882187685540
 40
0.999999999999885
 50
120.000000000003780
 51
226.260204708328700
  0
ARC
  8
0
  6
CONTINUOUS
 62
3
 10
-413.564236722628270
 20
-148.714793274440130
 40
0.999999999999964
 50
253.739795291702650
 51
0.000000000000000
  0
ARC
  8
0
  6
CONTINUOUS
 62
3
 10
-413.564236722628270
 20
-145.546554140767970
 40
1.000000000000000
 50
0.000000000000000
 51
68.381727577838021
  0
ARC
  8
0
  6
CONTINUOUS
 62
3
 10
-415.962765993017460
 20
-144.161762620849460
 40
0.999999999999961
 50
51.618272422159777
 51
120.000000000003780
  0
ARC
  8
0
  6
CONTINUOUS
 62
3
 10
-410.064236722628270
 20
-136.714793274440130
 40
38.999999999999865
 50
215.284732954534800
 51
264.715267045465400
  0
ARC
  8
0
  6
CONTINUOUS
 62
3
 10
-410.064236722628270
 20
-136.714793274440130
 40
30.499999999999964
 50
216.813854344181070
 51
263.186145655818960
  0
ARC
  8
0
  6
CONTINUOUS
 62
3
 10
-410.064236722628270
 20
-136.714793274440130
 40
33.999999999999964
 50
215.739170477266950
 51
264.260829522733050
  0
ARC
  8
0
  6
CONTINUOUS
 62
3
 10
-410.064236722628270
 20
-136.714793274440130
 40
25.499999999999890
 50
217.589542391857950
 51
262.410457608141830
  0
ARC
  8
0
  6
CONTINUOUS
 62
3
 10
-410.064236722628270
 20
-136.714793274440130
 40
22.000000000000025
 50
219.594068226860800
 51
260.405931773138780
  0
ARC
  8
0
  6
CONTINUOUS
 62
3
 10
-410.064236722628270
 20
-136.714793274440130
 40
16.999999999999773
 50
221.212271417650780
 51
258.787728582349980
  0
ARC
  8
0
  6
CONTINUOUS
 62
3
 10
-410.064236722628270
 20
-136.714793274440130
 40
13.499999999999927
 50
226.260204708312130
 51
253.739795291689150
  0
ARC
  8
0
  6
CONTINUOUS
 62
3
 10
-410.064236722628270
 20
-136.714793274440130
 40
8.499999999999948
 50
231.618272422157330
 51
248.381727577842330
  0
LINE
  8
0
  6
CONTINUOUS
 62
3
 10
-434.181538510560130
 20
-153.525675299777960
 11
-431.562863054783070
 21
-152.013782320464770
  0
LINE
  8
0
  6
CONTINUOUS
 62
3
 10
-441.583315135058460
 20
-157.799093026413860
 11
-438.973190616952710
 21
-156.292136933267100
  0
LINE
  8
0
  6
CONTINUOUS
 62
3
 10
-426.746400563057250
 20
-149.232996404325600
 11
-424.105165406001110
 21
-147.708078575406030
  0
LINE
  8
0
  6
CONTINUOUS
 62
3
 10
-419.206541568041760
 20
-144.879856783901230
 11
-416.462765993017460
 21
-143.295737217065150
  0
LINE
  8
0
  6
CONTINUOUS
 62
3
 10
-412.564236722628270
 20
-148.714793274440130
 11
-412.564236722628270
 21
-145.546554140767970
  0
LINE
  8
0
  6
CONTINUOUS
 62
3
 10
-412.564236722628270
 20
-157.421072515288640
 11
-412.564236722628270
 21
-154.371236857449730
  0
LINE
  8
0
  6
CONTINUOUS
 62
3
 10
-412.564236722628270
 20
-166.006430306193810
 11
-412.564236722628270
 21
-162.982644347567430
  0
ARC
  8
0
  6
CONTINUOUS
 62
3
 10
-419.462765993017460
 20
-138.099584794358630
 40
0.999999999999885
 50
300.000000000003810
 51
8.381727577845549
  0
ARC
  8
0
  6
CONTINUOUS
 62
3
 10
-410.064236722628270
 20
-136.714793274440130
 40
8.499999999999972
 50
171.618272422157790
 51
188.381727577842210
  0
LINE
  8
0
  6
CONTINUOUS
 62
3
 10
-421.706541568041760
 20
-140.549729764979020
 11
-418.962765993017460
 21
-138.965610198142940
  0
ARC
  8
0
  6
CONTINUOUS
 62
3
 10
-422.206541568041760
 20
-139.683704361194710
 40
0.999999999999879
 50
193.739795291686050
 51
300.000000000003810
  0
ARC
  8
0
  6
CONTINUOUS
 62
3
 10
-413.564236722628270
 20
-119.058349691430520
 40
0.999999999999982
 50
281.212271417643990
 51
0.000000000000000
  0
LINE
  8
0
  6
CONTINUOUS
 62
3
 10
-412.564236722628270
 20
-116.008514033591600
 11
-412.564236722628270
 21
-119.058349691430520
  0
ARC
  8
0
  6
CONTINUOUS
 62
3
 10
-413.564236722628270
 20
-116.008514033591600
 40
1.000000000000000
 50
0.000000000000000
 51
99.594068226875478
  0
ARC
  8
0
  6
CONTINUOUS
 62
3
 10
-413.564236722628270
 20
-110.446942201312820
 40
0.999999999999749
 50
277.589542391855960
 51
0.000000000013028
  0
LINE
  8
0
  6
CONTINUOUS
 62
3
 10
-412.564236722628270
 20
-107.423156242686440
 11
-412.564236722628270
 21
-110.446942201312590
  0
ARC
  8
0
  6
CONTINUOUS
 62
3
 10
-413.564236722628270
 20
-107.423156242686440
 40
1.000000000000000
 50
0.000000000000000
 51
96.813854344179688
  0
ARC
  8
0
  6
CONTINUOUS
 62
3
 10
-413.564236722628270
 20
-101.890232975708380
 40
0.999999999999973
 50
275.739170477261670
 51
0.000000000000000
  0
LINE
  8
0
  6
CONTINUOUS
 62
3
 10
-412.564236722628270
 20
-98.876320789415104
 11
-412.564236722628270
 21
-101.890232975708380
  0
ARC
  8
0
  6
CONTINUOUS
 62
3
 10
-413.564236722628270
 20
-98.876320789415104
 40
1.000000000000000
 50
0.000000000000000
 51
95.284732954535698
  0
ARC
  8
0
  6
CONTINUOUS
 62
3
 10
-433.681538510560130
 20
-119.037885845317760
 40
0.999999999999774
 50
143.186145655813330
 51
240.000000000002730
  0
LINE
  8
0
  6
CONTINUOUS
 62
3
 10
-434.181538510560130
 20
-119.903911249102290
 11
-431.562863054782610
 21
-121.415804228415480
  0
ARC
  8
0
  6
CONTINUOUS
 62
3
 10
-431.062863054782610
 20
-120.549778824630940
 40
1.000000000000082
 50
240.000000000002730
 51
322.410457608132330
  0
ARC
  8
0
  6
CONTINUOUS
 62
3
 10
-441.083315135058460
 20
-114.764468118682080
 40
0.999999999999908
 50
144.715267045455050
 51
239.999999999996220
  0
LINE
  8
0
  6
CONTINUOUS
 62
3
 10
-441.583315135058460
 20
-115.630493522466390
 11
-438.973190616952710
 21
-117.137449615613150
  0
ARC
  8
0
  6
CONTINUOUS
 62
3
 10
-438.473190616952710
 20
-116.271424211828840
 40
0.999999999999885
 50
239.999999999996220
 51
324.260829522725940
  0
ARC
  8
0
  6
CONTINUOUS
 62
3
 10
-415.962765993017460
 20
-129.267823928030570
 40
1.000000000000082
 50
240.000000000002730
 51
308.381727577840190
  0
LINE
  8
0
  6
CONTINUOUS
 62
3
 10
-419.206541568041760
 20
-128.549729764979020
 11
-416.462765993017460
 21
-130.133849331815100
  0
ARC
  8
0
  6
CONTINUOUS
 62
3
 10
-423.605165406001110
 20
-124.855482569689910
 40
0.999999999999885
 50
239.999999999996220
 51
318.787728582348790
  0
LINE
  8
0
  6
CONTINUOUS
 62
3
 10
-426.746400563057250
 20
-124.196590144554640
 11
-424.105165406001110
 21
-125.721507973474210
  0
ARC
  8
0
  6
CONTINUOUS
 62
3
 10
-426.246400563057250
 20
-123.330564740770110
 40
1.000000000000173
 50
140.405931773149600
 51
240.000000000002730
  0
ARC
  8
0
  6
CONTINUOUS
 62
3
 10
-413.564236722628270
 20
-127.883032408112280
 40
1.000000000000090
 50
291.618272422161970
 51
0.000000000000000
  0
ARC
  8
0
  6
CONTINUOUS
 62
3
 10
-410.064236722628270
 20
-136.714793274440130
 40
8.499999999999904
 50
111.618272422157710
 51
128.381727577841670
  0
ARC
  8
0
  6
CONTINUOUS
 62
3
 10
-418.706541568041760
 20
-127.683704361194710
 40
0.999999999999858
 50
133.739795291671300
 51
239.999999999996220
  0
LINE
  8
0
  6
CONTINUOUS
 62
3
 10
-412.564236722628270
 20
-124.714793274440120
 11
-412.564236722628270
 21
-127.883032408112280
  0
ARC
  8
0
  6
CONTINUOUS
 62
3
 10
-413.564236722628270
 20
-124.714793274440120
 40
1.000000000000000
 50
0.000000000000000
 51
106.260204708297360
  0
ARC
  8
0
  6
CONTINUOUS
 62
3
 10
-410.064236722628270
 20
-136.714793274440130
 40
13.499999999999963
 50
106.260204708310860
 51
133.739795291687870
  0
ARC
  8
0
  6
CONTINUOUS
 62
3
 10
-410.064236722628270
 20
-136.714793274440130
 40
17.000000000000046
 50
101.212271417650010
 51
138.787728582350240
  0
ARC
  8
0
  6
CONTINUOUS
 62
3
 10
-410.064236722628270
 20
-136.714793274440130
 40
22.000000000000131
 50
99.594068226861211
 51
140.405931773139200
  0
ARC
  8
0
  6
CONTINUOUS
 62
3
 10
-410.064236722628270
 20
-136.714793274440130
 40
30.500000000000135
 50
96.813854344181038
 51
143.186145655818930
  0
ARC
  8
0
  6
CONTINUOUS
 62
3
 10
-410.064236722628270
 20
-136.714793274440130
 40
25.500000000000160
 50
97.589542391858117
 51
142.410457608142050
  0
ARC
  8
0
  6
CONTINUOUS
 62
3
 10
-410.064236722628270
 20
-136.714793274440130
 40
34.000000000000071
 50
95.739170477266924
 51
144.260829522733360
  0
ARC
  8
0
  6
CONTINUOUS
 62
3
 10
-410.064236722628270
 20
-136.714793274440130
 40
38.999999999999986
 50
95.284732954534590
 51
144.715267045465200
  0
ARC
  8
0
  6
CONTINUOUS
 62
3
 10
-437.181538510560130
 20
-125.100063671808810
 40
1.000000000000082
 50
60.000000000002721
 51
156.813854344180160
  0
LINE
  8
0
  6
CONTINUOUS
 62
3
 10
-436.681538510560130
 20
-124.234038268024270
 11
-434.062863054782610
 21
-125.745931247337460
  0
ARC
  8
0
  6
CONTINUOUS
 62
3
 10
-434.562863054782610
 20
-126.611956651122000
 40
0.999999999999701
 50
337.589542391853970
 51
60.000000000002721
  0
ARC
  8
0
  6
CONTINUOUS
 62
3
 10
-444.583315135058460
 20
-120.826645945173140
 40
1.000000000000082
 50
60.000000000002721
 51
155.284732954544520
  0
LINE
  8
0
  6
CONTINUOUS
 62
3
 10
-444.083315135058460
 20
-119.960620541388600
 11
-441.473190616952710
 21
-121.467576634535360
  0
ARC
  8
0
  6
CONTINUOUS
 62
3
 10
-441.973190616952710
 20
-122.333602038319660
 40
0.999999999999863
 50
335.739170477254390
 51
59.999999999996206
  0
ARC
  8
0
  6
CONTINUOUS
 62
3
 10
-419.462765993017460
 20
-135.330001754521850
 40
1.000000000000026
 50
351.618272422167310
 51
60.000000000002721
  0
LINE
  8
0
  6
CONTINUOUS
 62
3
 10
-421.706541568041760
 20
-132.879856783901230
 11
-418.962765993017460
 21
-134.463976350737310
  0
ARC
  8
0
  6
CONTINUOUS
 62
3
 10
-427.105165406001110
 20
-130.917660396180960
 40
1.000000000000076
 50
341.212271417652970
 51
60.000000000002721
  0
LINE
  8
0
  6
CONTINUOUS
 62
3
 10
-429.246400563057700
 20
-128.526717163477090
 11
-426.605165406001110
 21
-130.051634992396430
  0
ARC
  8
0
  6
CONTINUOUS
 62
3
 10
-429.746400563057700
 20
-129.392742567261390
 40
0.999999999999885
 50
59.999999999996206
 51
159.594068226861310
  0
ARC
  8
0
  6
CONTINUOUS
 62
3
 10
-422.206541568041760
 20
-133.745882187685540
 40
0.999999999999885
 50
59.999999999996206
 51
166.260204708307780
  0
ARC
  8
0
  6
CONTINUOUS
 62
3
 10
-410.064236722628270
 20
-136.714793274440130
 40
13.499999999999687
 50
166.260204708311360
 51
193.739795291688180
  0
ARC
  8
0
  6
CONTINUOUS
 62
3
 10
-410.064236722628270
 20
-136.714793274440130
 40
16.999999999999716
 50
161.212271417649560
 51
198.787728582350440
  0
ARC
  8
0
  6
CONTINUOUS
 62
3
 10
-410.064236722628270
 20
-136.714793274440130
 40
22.000000000000206
 50
159.594068226860770
 51
200.405931773139230
  0
ARC
  8
0
  6
CONTINUOUS
 62
3
 10
-410.064236722628270
 20
-136.714793274440130
 40
30.499999999999947
 50
156.813854344181150
 51
203.186145655818850
  0
ARC
  8
0
  6
CONTINUOUS
 62
3
 10
-410.064236722628270
 20
-136.714793274440130
 40
25.500000000000000
 50
157.589542391857980
 51
202.410457608142480
  0
ARC
  8
0
  6
CONTINUOUS
 62
3
 10
-410.064236722628270
 20
-136.714793274440130
 40
34.000000000000007
 50
155.739170477266780
 51
204.260829522733220
  0
ARC
  8
0
  6
CONTINUOUS
 62
3
 10
-410.064236722628270
 20
-136.714793274440130
 40
39.000000000000220
 50
155.284732954534800
 51
204.715267045465200
  0
LINE
  8
0
  6
CONTINUOUS
 62
3
 10
-407.564236722628270
 20
-166.006430306193810
 11
-407.564236722628270
 21
-162.982644347567430
  0
LINE
  8
0
  6
CONTINUOUS
 62
3
 10
-407.564236722628270
 20
-157.421072515288640
 11
-407.564236722628270
 21
-154.371236857449730
  0
LINE
  8
0
  6
CONTINUOUS
 62
3
 10
-407.564236722628270
 20
-148.714793274440130
 11
-407.564236722628270
 21
-145.546554140767970
  0
LINE
  8
0
  6
CONTINUOUS
 62
3
 10
-400.921931877214770
 20
-144.879856783901230
 11
-403.665707452239080
 21
-143.295737217065150
  0
LINE
  8
0
  6
CONTINUOUS
 62
3
 10
-393.382072882199280
 20
-149.232996404325600
 11
-396.023308039255430
 21
-147.708078575406030
  0
LINE
  8
0
  6
CONTINUOUS
 62
3
 10
-378.545158310198080
 20
-157.799093026413860
 11
-381.155282828303830
 21
-156.292136933267100
  0
LINE
  8
0
  6
CONTINUOUS
 62
3
 10
-407.564236722628270
 20
-174.553265759465150
 11
-407.564236722628270
 21
-171.539353573171870
  0
LINE
  8
0
  6
CONTINUOUS
 62
3
 10
-385.946934934696400
 20
-153.525675299777960
 11
-388.565610390473470
 21
-152.013782320464770
  0
ARC
  8
0
  6
CONTINUOUS
 62
3
 10
-410.064236722628270
 20
-136.714793274440130
 40
8.499999999999904
 50
291.618272422157700
 51
308.381727577842640
  0
ARC
  8
0
  6
CONTINUOUS
 62
3
 10
-410.064236722628270
 20
-136.714793274440130
 40
13.499999999999963
 50
286.260204708310820
 51
313.739795291687870
  0
ARC
  8
0
  6
CONTINUOUS
 62
3
 10
-410.064236722628270
 20
-136.714793274440130
 40
17.000000000000046
 50
281.212271417650020
 51
318.787728582350210
  0
ARC
  8
0
  6
CONTINUOUS
 62
3
 10
-410.064236722628270
 20
-136.714793274440130
 40
22.000000000000131
 50
279.594068226861170
 51
320.405931773139170
  0
ARC
  8
0
  6
CONTINUOUS
 62
3
 10
-410.064236722628270
 20
-136.714793274440130
 40
25.499999999999932
 50
277.589542391858170
 51
322.410457608142050
  0
ARC
  8
0
  6
CONTINUOUS
 62
3
 10
-410.064236722628270
 20
-136.714793274440130
 40
34.000000000000071
 50
275.739170477266950
 51
324.260829522733050
  0
ARC
  8
0
  6
CONTINUOUS
 62
3
 10
-410.064236722628270
 20
-136.714793274440130
 40
30.500000000000135
 50
276.813854344181040
 51
323.186145655818900
  0
ARC
  8
0
  6
CONTINUOUS
 62
3
 10
-410.064236722628270
 20
-136.714793274440130
 40
38.999999999999986
 50
275.284732954534600
 51
324.715267045465230
  0
ARC
  8
0
  6
CONTINUOUS
 62
3
 10
-404.165707452239080
 20
-144.161762620849460
 40
0.999999999999885
 50
59.999999999996206
 51
128.381727577840220
  0
ARC
  8
0
  6
CONTINUOUS
 62
3
 10
-406.564236722628270
 20
-145.546554140767970
 40
1.000000000000090
 50
111.618272422161970
 51
180.000000000000000
  0
ARC
  8
0
  6
CONTINUOUS
 62
3
 10
-406.564236722628270
 20
-148.714793274440130
 40
1.000000000000000
 50
180.000000000000000
 51
286.260204708297350
  0
ARC
  8
0
  6
CONTINUOUS
 62
3
 10
-401.421931877214770
 20
-145.745882187685540
 40
0.999999999999858
 50
313.739795291671330
 51
59.999999999996206
  0
ARC
  8
0
  6
CONTINUOUS
 62
3
 10
-396.523308039255430
 20
-148.574103979190570
 40
1.000000000000082
 50
60.000000000002721
 51
138.787728582338990
  0
ARC
  8
0
  6
CONTINUOUS
 62
3
 10
-393.882072882199280
 20
-150.099021808109910
 40
1.000000000000318
 50
320.405931773139570
 51
59.999999999996206
  0
ARC
  8
0
  6
CONTINUOUS
 62
3
 10
-406.564236722628270
 20
-154.371236857449730
 40
0.999999999999982
 50
101.212271417644000
 51
180.000000000000000
  0
ARC
  8
0
  6
CONTINUOUS
 62
3
 10
-406.564236722628270
 20
-157.421072515288640
 40
1.000000000000000
 50
180.000000000000000
 51
279.594068226875490
  0
ARC
  8
0
  6
CONTINUOUS
 62
3
 10
-406.564236722628270
 20
-166.006430306193810
 40
1.000000000000000
 50
180.000000000000000
 51
276.813854344179670
  0
ARC
  8
0
  6
CONTINUOUS
 62
3
 10
-389.065610390473470
 20
-152.879807724249300
 40
1.000000000000082
 50
60.000000000002721
 51
142.410457608148220
  0
ARC
  8
0
  6
CONTINUOUS
 62
3
 10
-386.446934934696400
 20
-154.391700703562260
 40
0.999999999999911
 50
323.186145655802870
 51
59.999999999996206
  0
ARC
  8
0
  6
CONTINUOUS
 62
3
 10
-406.564236722628270
 20
-162.982644347567430
 40
0.999999999999975
 50
97.589542391854238
 51
180.000000000000000
  0
ARC
  8
0
  6
CONTINUOUS
 62
3
 10
-406.564236722628270
 20
-174.553265759465150
 40
1.000000000000000
 50
180.000000000000000
 51
275.284732954535740
  0
ARC
  8
0
  6
CONTINUOUS
 62
3
 10
-406.564236722628270
 20
-171.539353573171870
 40
0.999999999999973
 50
95.739170477261709
 51
180.000000000000000
  0
ARC
  8
0
  6
CONTINUOUS
 62
3
 10
-381.655282828303830
 20
-157.158162337051410
 40
0.999999999999885
 50
59.999999999996206
 51
144.260829522736490
  0
ARC
  8
0
  6
CONTINUOUS
 62
3
 10
-379.045158310198080
 20
-158.665118430198390
 40
0.999999999999776
 50
324.715267045465680
 51
60.000000000002721
  0
CIRCLE
  8
0
  6
CONTINUOUS
 62
3
 10
-410.064236722628270
 20
-136.714793274440130
 40
5.000000000000000
  0
ARC
  8
0
  6
CONTINUOUS
 62
3
 10
-375.545158310198080
 20
-152.602940603707110
 40
0.999999999999885
 50
239.999999999996220
 51
335.284732954544490
  0
LINE
  8
0
  6
CONTINUOUS
 62
3
 10
-376.045158310198080
 20
-153.468966007491420
 11
-378.655282828303830
 21
-151.962009914344890
  0
ARC
  8
0
  6
CONTINUOUS
 62
3
 10
-410.064236722628270
 20
-136.714793274440130
 40
39.000000000000220
 50
335.284732954534830
 51
24.715267045465190
  0
ARC
  8
0
  6
CONTINUOUS
 62
3
 10
-410.064236722628270
 20
-136.714793274440130
 40
34.000000000000007
 50
335.739170477266780
 51
24.260829522733218
  0
ARC
  8
0
  6
CONTINUOUS
 62
3
 10
-410.064236722628270
 20
-136.714793274440130
 40
25.500000000000085
 50
337.589542391857490
 51
22.410457608142021
  0
ARC
  8
0
  6
CONTINUOUS
 62
3
 10
-410.064236722628270
 20
-136.714793274440130
 40
30.499999999999947
 50
336.813854344181150
 51
23.186145655818844
  0
ARC
  8
0
  6
CONTINUOUS
 62
3
 10
-382.946934934696400
 20
-148.329522877071440
 40
1.000000000000082
 50
240.000000000002730
 51
336.813854344180130
  0
LINE
  8
0
  6
CONTINUOUS
 62
3
 10
-383.446934934696400
 20
-149.195548280855970
 11
-386.065610390473920
 21
-147.683655301543010
  0
ARC
  8
0
  6
CONTINUOUS
 62
3
 10
-410.064236722628270
 20
-136.714793274440130
 40
22.000000000000206
 50
339.594068226860770
 51
20.405931773139226
  0
ARC
  8
0
  6
CONTINUOUS
 62
3
 10
-378.155282828303830
 20
-151.095984510560360
 40
0.999999999999769
 50
155.739170477266270
 51
240.000000000002730
  0
ARC
  8
0
  6
CONTINUOUS
 62
3
 10
-385.565610390473920
 20
-146.817629897758480
 40
0.999999999999701
 50
157.589542391853940
 51
240.000000000002730
  0
ARC
  8
0
  6
CONTINUOUS
 62
3
 10
-390.382072882198830
 20
-144.036843981618860
 40
0.999999999999885
 50
239.999999999996220
 51
339.594068226861340
  0
ARC
  8
0
  6
CONTINUOUS
 62
3
 10
-410.064236722628270
 20
-136.714793274440130
 40
17.000000000000146
 50
341.212271417650070
 51
18.787728582350418
  0
LINE
  8
0
  6
CONTINUOUS
 62
3
 10
-390.882072882198830
 20
-144.902869385403160
 11
-393.523308039255430
 21
-143.377951556483590
  0
ARC
  8
0
  6
CONTINUOUS
 62
3
 10
-393.023308039255430
 20
-142.511926152699290
 40
0.999999999999646
 50
161.212271417644620
 51
239.999999999996220
  0
ARC
  8
0
  6
CONTINUOUS
 62
3
 10
-410.064236722628270
 20
-136.714793274440130
 40
13.500000000000130
 50
346.260204708311850
 51
13.739795291688171
  0
ARC
  8
0
  6
CONTINUOUS
 62
3
 10
-397.921931877214770
 20
-139.683704361194710
 40
0.999999999999885
 50
239.999999999996220
 51
346.260204708314010
  0
LINE
  8
0
  6
CONTINUOUS
 62
3
 10
-398.421931877214770
 20
-140.549729764979020
 11
-401.165707452239080
 21
-138.965610198142940
  0
ARC
  8
0
  6
CONTINUOUS
 62
3
 10
-397.921931877214770
 20
-133.745882187685540
 40
0.999999999999879
 50
13.739795291686027
 51
120.000000000003780
  0
ARC
  8
0
  6
CONTINUOUS
 62
3
 10
-410.064236722628270
 20
-136.714793274440130
 40
8.499999999999972
 50
351.618272422157820
 51
8.381727577842204
  0
ARC
  8
0
  6
CONTINUOUS
 62
3
 10
-400.665707452239080
 20
-138.099584794358630
 40
1.000000000000059
 50
171.618272422154460
 51
239.999999999996220
  0
ARC
  8
0
  6
CONTINUOUS
 62
3
 10
-390.382072882198830
 20
-129.392742567261390
 40
1.000000000000094
 50
20.405931773138686
 51
120.000000000003780
  0
LINE
  8
0
  6
CONTINUOUS
 62
3
 10
-390.882072882198830
 20
-128.526717163477090
 11
-393.523308039255430
 21
-130.051634992396430
  0
ARC
  8
0
  6
CONTINUOUS
 62
3
 10
-393.023308039255430
 20
-130.917660396180960
 40
1.000000000000082
 50
119.999999999997270
 51
198.787728582347000
  0
LINE
  8
0
  6
CONTINUOUS
 62
3
 10
-398.421931877214770
 20
-132.879856783901230
 11
-401.165707452239080
 21
-134.463976350737310
  0
ARC
  8
0
  6
CONTINUOUS
 62
3
 10
-400.665707452239080
 20
-135.330001754521850
 40
1.000000000000082
 50
119.999999999997270
 51
188.381727577832660
  0
ARC
  8
0
  6
CONTINUOUS
 62
3
 10
-378.155282828303830
 20
-122.333602038319660
 40
0.999999999999885
 50
120.000000000003780
 51
204.260829522745610
  0
LINE
  8
0
  6
CONTINUOUS
 62
3
 10
-376.045158310198080
 20
-119.960620541388600
 11
-378.655282828303830
 21
-121.467576634535360
  0
ARC
  8
0
  6
CONTINUOUS
 62
3
 10
-375.545158310198080
 20
-120.826645945173140
 40
1.000000000000248
 50
24.715267045455477
 51
119.999999999997270
  0
ARC
  8
0
  6
CONTINUOUS
 62
3
 10
-385.565610390473920
 20
-126.611956651122000
 40
1.000000000000082
 50
119.999999999997270
 51
202.410457608146060
  0
LINE
  8
0
  6
CONTINUOUS
 62
3
 10
-383.446934934696400
 20
-124.234038268024270
 11
-386.065610390473920
 21
-125.745931247337460
  0
ARC
  8
0
  6
CONTINUOUS
 62
3
 10
-382.946934934696400
 20
-125.100063671808810
 40
0.999999999999730
 50
23.186145655819850
 51
119.999999999997270
  0
ARC
  8
0
  6
CONTINUOUS
 62
3
 10
-410.064236722628270
 20
-136.714793274440130
 40
38.999999999999865
 50
35.284732954534789
 51
84.715267045465410
  0
ARC
  8
0
  6
CONTINUOUS
 62
3
 10
-410.064236722628270
 20
-136.714793274440130
 40
33.999999999999829
 50
35.739170477266640
 51
84.260829522733076
  0
ARC
  8
0
  6
CONTINUOUS
 62
3
 10
-410.064236722628270
 20
-136.714793274440130
 40
25.499999999999890
 50
37.589542391857961
 51
82.410457608141883
  0
ARC
  8
0
  6
CONTINUOUS
 62
3
 10
-410.064236722628270
 20
-136.714793274440130
 40
30.499999999999964
 50
36.813854344181067
 51
83.186145655818962
  0
ARC
  8
0
  6
CONTINUOUS
 62
3
 10
-410.064236722628270
 20
-136.714793274440130
 40
22.000000000000025
 50
39.594068226860820
 51
80.405931773138789
  0
ARC
  8
0
  6
CONTINUOUS
 62
3
 10
-410.064236722628270
 20
-136.714793274440130
 40
17.000000000000114
 50
41.212271417649760
 51
78.787728582349985
  0
ARC
  8
0
  6
CONTINUOUS
 62
3
 10
-410.064236722628270
 20
-136.714793274440130
 40
13.499999999999927
 50
46.260204708312145
 51
73.739795291689134
  0
ARC
  8
0
  6
CONTINUOUS
 62
3
 10
-406.564236722628270
 20
-124.714793274440120
 40
0.999999999999964
 50
73.739795291702634
 51
180.000000000000000
  0
LINE
  8
0
  6
CONTINUOUS
 62
3
 10
-407.564236722628270
 20
-124.714793274440120
 11
-407.564236722628270
 21
-127.883032408112280
  0
ARC
  8
0
  6
CONTINUOUS
 62
3
 10
-401.421931877214770
 20
-127.683704361194710
 40
0.999999999999885
 50
300.000000000003810
 51
46.260204708328693
  0
ARC
  8
0
  6
CONTINUOUS
 62
3
 10
-410.064236722628270
 20
-136.714793274440130
 40
8.500000000000128
 50
51.618272422158320
 51
68.381727577842284
  0
ARC
  8
0
  6
CONTINUOUS
 62
3
 10
-406.564236722628270
 20
-127.883032408112280
 40
1.000000000000000
 50
180.000000000000000
 51
248.381727577838030
  0
ARC
  8
0
  6
CONTINUOUS
 62
3
 10
-393.882072882199280
 20
-123.330564740770110
 40
1.000000000000082
 50
299.999999999997270
 51
39.594068226850403
  0
LINE
  8
0
  6
CONTINUOUS
 62
3
 10
-393.382072882199280
 20
-124.196590144554640
 11
-396.023308039255430
 21
-125.721507973474210
  0
ARC
  8
0
  6
CONTINUOUS
 62
3
 10
-396.523308039255430
 20
-124.855482569689910
 40
0.999999999999673
 50
221.212271417651210
 51
300.000000000003810
  0
LINE
  8
0
  6
CONTINUOUS
 62
3
 10
-400.921931877214770
 20
-128.549729764979020
 11
-403.665707452239080
 21
-130.133849331815100
  0
ARC
  8
0
  6
CONTINUOUS
 62
3
 10
-404.165707452239080
 20
-129.267823928030570
 40
0.999999999999961
 50
231.618272422159780
 51
299.999999999997270
  0
ARC
  8
0
  6
CONTINUOUS
 62
3
 10
-381.655282828303830
 20
-116.271424211828840
 40
0.999999999999940
 50
215.739170477274090
 51
300.000000000003810
  0
LINE
  8
0
  6
CONTINUOUS
 62
3
 10
-378.545158310198080
 20
-115.630493522466390
 11
-381.155282828303830
 21
-117.137449615613150
  0
ARC
  8
0
  6
CONTINUOUS
 62
3
 10
-379.045158310198080
 20
-114.764468118682080
 40
0.999999999999885
 50
300.000000000003810
 51
35.284732954544943
  0
ARC
  8
0
  6
CONTINUOUS
 62
3
 10
-389.065610390473920
 20
-120.549778824630940
 40
0.999999999999834
 50
217.589542391867670
 51
299.999999999997270
  0
LINE
  8
0
  6
CONTINUOUS
 62
3
 10
-385.946934934696400
 20
-119.903911249102290
 11
-388.565610390473920
 21
-121.415804228415480
  0
ARC
  8
0
  6
CONTINUOUS
 62
3
 10
-386.446934934696400
 20
-119.037885845317760
 40
1.000000000000082
 50
299.999999999997270
 51
36.813854344186687
  0
ARC
  8
0
  6
CONTINUOUS
 62
3
 10
-406.564236722628270
 20
-98.876320789415104
 40
1.000000000000042
 50
84.715267045464302
 51
180.000000000000000
  0
LINE
  8
0
  6
CONTINUOUS
 62
3
 10
-407.564236722628270
 20
-98.876320789415104
 11
-407.564236722628270
 21
-101.890232975708380
  0
ARC
  8
0
  6
CONTINUOUS
 62
3
 10
-406.564236722628270
 20
-101.890232975708380
 40
1.000000000000000
 50
180.000000000000000
 51
264.260829522738280
  0
ARC
  8
0
  6
CONTINUOUS
 62
3
 10
-406.564236722628270
 20
-107.423156242686440
 40
1.000000000000077
 50
83.186145655820312
 51
180.000000000000000
  0
LINE
  8
0
  6
CONTINUOUS
 62
3
 10
-407.564236722628270
 20
-107.423156242686440
 11
-407.564236722628270
 21
-110.446942201312590
  0
ARC
  8
0
  6
CONTINUOUS
 62
3
 10
-406.564236722628270
 20
-110.446942201312820
 40
1.000000000000000
 50
179.999999999986980
 51
262.410457608144040
  0
ARC
  8
0
  6
CONTINUOUS
 62
3
 10
-406.564236722628270
 20
-116.008514033591600
 40
1.000000000000268
 50
80.405931773124522
 51
180.000000000000000
  0
LINE
  8
0
  6
CONTINUOUS
 62
3
 10
-407.564236722628270
 20
-116.008514033591600
 11
-407.564236722628270
 21
-119.058349691430520
  0
ARC
  8
0
  6
CONTINUOUS
 62
3
 10
-406.564236722628270
 20
-119.058349691430520
 40
1.000000000000000
 50
180.000000000000000
 51
258.787728582356010
  0
LINE
  8
0
  6
CONTINUOUS
 62
3
 10
-461.620703653218240
 20
-94.084636950982258
 11
-454.162008478547250
 21
-86.625941776310583
  0
LINE
  8
0
  6
CONTINUOUS
 62
3
 10
-461.620703653218240
 20
-179.344949597897990
 11
-454.162008478547250
 21
-186.803644772569670
  0
LINE
  8
0
  6
CONTINUOUS
 62
3
 10
-358.507769792038290
 20
-179.344949597897990
 11
-365.966464966709280
 21
-186.803644772569670
  0
LINE
  8
0
  6
CONTINUOUS
 62
3
 10
-358.507769792038290
 20
-94.084636950982258
 11
-365.966464966709280
 21
-86.625941776310583
  0
LINE
  8
0
  6
CONTINUOUS
 62
3
 10
-352.564236722628270
 20
-168.214793274440130
 11
-352.564236722628270
 21
-166.702779128870360
  0
LINE
  8
0
  6
CONTINUOUS
 62
3
 10
-352.564236722628270
 20
-106.722294212177980
 11
-352.564236722628270
 21
-105.214793274440120
  0
LINE
  8
0
  6
CONTINUOUS
 62
3
 10
-352.762787662727080
 20
-105.214793274440120
 11
-352.564236722628270
 21
-105.214793274440120
  0
LINE
  8
0
  6
CONTINUOUS
 62
3
 10
-352.762787662727080
 20
-168.214793274440130
 11
-352.564236722628270
 21
-168.214793274440130
  0
ARC
  8
0
  6
CONTINUOUS
 62
3
 10
-447.054303960774630
 20
-108.651036643424500
 40
20.600000000000069
 50
135.000000000002670
 51
174.247717268463500
  0
ARC
  8
0
  6
CONTINUOUS
 62
3
 10
-447.054303960774630
 20
-164.778549905455750
 40
20.599999999999916
 50
185.752282731536500
 51
224.999999999997330
  0
ARC
  8
0
  6
CONTINUOUS
 62
3
 10
-373.074169484481900
 20
-164.778549905455750
 40
20.600000000000069
 50
315.000000000002670
 51
354.247717268463480
  0
ARC
  8
0
  6
CONTINUOUS
 62
3
 10
-373.074169484481900
 20
-108.651036643424500
 40
20.599999999999916
 50
5.752282731536487
 51
44.999999999997321
  0
ARC
  8
0
  6
CONTINUOUS
 62
4
 10
-373.074169484481900
 20
-108.651036643424500
 40
10.797000000000011
 50
5.752282731536912
 51
44.999999999998295
  0
ARC
  8
0
  6
CONTINUOUS
 62
3
 10
-67.518260179421759
 20
240.288076346140770
 40
2.000000000000000
 50
270.000000000000000
 51
0.000000000000000
  0
ARC
  8
0
  6
CONTINUOUS
 62
3
 10
-67.518260179421759
 20
241.087078217259660
 40
2.000000000000000
 50
270.000000000000000
 51
0.000000000000000
  0
ARC
  8
0
  6
CONTINUOUS
 62
3
 10
-67.518260179421759
 20
241.886080088344900
 40
2.000000000000000
 50
270.000000000000000
 51
0.000000000000000
  0
ARC
  8
0
  6
CONTINUOUS
 62
3
 10
-67.518260179421759
 20
242.979717016622090
 40
2.000000000000000
 50
0.000000000000000
 51
90.000000000000000
  0
LINE
  8
0
  6
CONTINUOUS
 62
3
 10
-68.518260179421759
 20
244.979717016622090
 11
-67.518260179421759
 21
244.979717016622090
  0
LINE
  8
0
  6
CONTINUOUS
 62
3
 10
-67.518260179421759
 20
238.288076346140770
 11
-193.518260179421760
 21
238.288076346140770
  0
LINE
  8
0
  6
CONTINUOUS
 62
3
 10
-67.518260179421759
 20
239.087078217242830
 11
-193.518260179421760
 21
239.087078217242830
  0
LINE
  8
0
  6
CONTINUOUS
 62
3
 10
-65.518260179421759
 20
242.979717016622090
 11
-65.518260179421759
 21
240.288076346140770
  0
LINE
  8
0
  6
CONTINUOUS
 62
3
 10
-68.518260179421759
 20
226.785206725559870
 11
-68.518260179421759
 21
238.087078217259660
  0
LINE
  8
0
  6
CONTINUOUS
 62
3
 10
-187.518260179421760
 20
263.385206725559780
 11
-73.518260179421759
 21
263.385206725559780
  0
ARC
  8
0
  6
CONTINUOUS
 62
3
 10
-73.518260179421759
 20
258.385206725559780
 40
5.000000000000000
 50
0.000000000000000
 51
90.000000000000000
  0
LINE
  8
0
  6
CONTINUOUS
 62
3
 10
-192.518260179421760
 20
226.785206725559870
 11
-192.518260179421760
 21
238.288076346140770
  0
ARC
  8
0
  6
CONTINUOUS
 62
3
 10
-193.518260179421760
 20
240.288076346140770
 40
2.000000000000000
 50
180.000000000000000
 51
270.000000000000000
  0
LINE
  8
0
  6
CONTINUOUS
 62
3
 10
-195.518260179421760
 20
242.979717016622090
 11
-195.518260179421760
 21
240.288076346140770
  0
ARC
  8
0
  6
CONTINUOUS
 62
3
 10
-193.518260179421760
 20
241.087078217259660
 40
2.000000000000000
 50
180.000000000000000
 51
270.000000000000000
  0
ARC
  8
0
  6
CONTINUOUS
 62
3
 10
-193.518260179421760
 20
241.886080088344900
 40
2.000000000000000
 50
180.000000000000000
 51
270.000000000000000
  0
ARC
  8
0
  6
CONTINUOUS
 62
3
 10
-193.518260179421760
 20
242.979717016622090
 40
2.000000000000000
 50
90.000000000000000
 51
180.000000000000000
  0
ARC
  8
0
  6
CONTINUOUS
 62
3
 10
-187.518260179421760
 20
258.385206725559780
 40
5.000000000000000
 50
90.000000000000000
 51
180.000000000000000
  0
ARC
  8
0
  6
CONTINUOUS
 62
3
 10
-187.518260179421760
 20
226.785206725559870
 40
5.000000000000000
 50
180.000000000000000
 51
270.000000000000000
  0
LINE
  8
0
  6
CONTINUOUS
 62
3
 10
-67.518260179421759
 20
239.886080088344900
 11
-193.518260179421760
 21
239.886080088344900
  0
LINE
  8
0
  6
CONTINUOUS
 62
3
 10
-192.518260179421760
 20
244.979717016622090
 11
-193.518260179421760
 21
244.979717016622090
  0
LINE
  8
0
  6
CONTINUOUS
 62
3
 10
-192.518260179421760
 20
245.446231785246710
 11
-192.518260179421760
 21
258.385206725559780
  0
ARC
  8
0
  6
CONTINUOUS
 62
3
 10
-73.518260179421759
 20
226.785206725559870
 40
5.000000000000000
 50
270.000000000000000
 51
0.000000000000000
  0
LINE
  8
0
  6
CONTINUOUS
 62
3
 10
-68.518260179421759
 20
245.446231785246710
 11
-68.518260179421759
 21
258.385206725559780
  0
POLYLINE
  8
0
  6
CONTINUOUS
 62
3
 66
1
  0
VERTEX
  8
0
  6
CONTINUOUS
 62
3
 10
-189.018260179421760
 20
240.135768173064660
  0
VERTEX
  8
0
  6
CONTINUOUS
 62
3
 10
-188.951008660833050
 20
240.101669962868670
  0
VERTEX
  8
0
  6
CONTINUOUS
 62
3
 10
-188.751838543211250
 20
240.068882127768030
  0
VERTEX
  8
0
  6
CONTINUOUS
 62
3
 10
-188.428403822480670
 20
240.038664685878020
  0
VERTEX
  8
0
  6
CONTINUOUS
 62
3
 10
-187.993133913574670
 20
240.012178876544310
  0
VERTEX
  8
0
  6
CONTINUOUS
 62
3
 10
-187.462755994990370
 20
239.990442534566230
  0
VERTEX
  8
0
  6
CONTINUOUS
 62
3
 10
-186.857652192699560
 20
239.974290975376050
  0
VERTEX
  8
0
  6
CONTINUOUS
 62
3
 10
-186.201076306478200
 20
239.964344894335600
  0
VERTEX
  8
0
  6
CONTINUOUS
 62
3
 10
-185.518260179421760
 20
239.960986513761440
  0
VERTEX
  8
0
  6
CONTINUOUS
 62
3
 10
-184.835444052365320
 20
239.964344894335600
  0
VERTEX
  8
0
  6
CONTINUOUS
 62
3
 10
-184.178868166143960
 20
239.974290975376050
  0
VERTEX
  8
0
  6
CONTINUOUS
 62
3
 10
-183.573764363853140
 20
239.990442534566230
  0
VERTEX
  8
0
  6
CONTINUOUS
 62
3
 10
-183.043386445268850
 20
240.012178876544310
  0
VERTEX
  8
0
  6
CONTINUOUS
 62
3
 10
-182.608116536362840
 20
240.038664685878020
  0
VERTEX
  8
0
  6
CONTINUOUS
 62
3
 10
-182.284681815632270
 20
240.068882127768030
  0
VERTEX
  8
0
  6
CONTINUOUS
 62
3
 10
-182.085511698010460
 20
240.101669962868670
  0
VERTEX
  8
0
  6
CONTINUOUS
 62
3
 10
-182.018260179421760
 20
240.135768173064660
  0
SEQEND
  8
0
  6
CONTINUOUS
 62
3
  0
ARC
  8
0
  6
CONTINUOUS
 62
3
 10
-183.318260179421940
 20
241.122777910989040
 40
1.300000000000182
 50
0.000000000000000
 51
73.398450400977637
  0
ARC
  8
0
  6
CONTINUOUS
 62
3
 10
-185.518260179421760
 20
233.743753585239570
 40
9.000000000000123
 50
73.398450400980877
 51
106.601549599019120
  0
ARC
  8
0
  6
CONTINUOUS
 62
3
 10
-187.718260179421580
 20
241.122777910989040
 40
1.300000000000019
 50
106.601549599022360
 51
180.000000000000000
  0
LINE
  8
0
  6
CONTINUOUS
 62
3
 10
-182.018260179421760
 20
241.122777910989040
 11
-182.018260179421760
 21
240.135768173064660
  0
LINE
  8
0
  6
CONTINUOUS
 62
3
 10
-189.018260179421760
 20
241.122777910989040
 11
-189.018260179421760
 21
240.135768173064660
  0
ARC
  8
0
  6
CONTINUOUS
 62
3
 10
-187.518260179421760
 20
245.446231785246710
 40
5.000000000000000
 50
180.000000000000000
 51
252.542396876278160
  0
LINE
  8
0
  6
CONTINUOUS
 62
3
 10
-192.518260179421760
 20
221.785206725559870
 11
-68.518260179421759
 21
221.785206725559870
  0
LINE
  8
0
  6
DASHDOT
 62
3
 10
-68.518260179421759
 20
216.785206725559870
 11
-68.518260179421759
 21
221.785206725559870
  0
LINE
  8
0
  6
DASHDOT
 62
3
 10
-68.518260179421759
 20
216.785206725559870
 11
-68.518260179421759
 21
221.785206725559870
  0
LINE
  8
0
  6
CONTINUOUS
 62
3
 10
-192.518260179421760
 20
216.785206725559870
 11
-192.518260179421760
 21
221.785206725559870
  0
LINE
  8
0
  6
CONTINUOUS
 62
3
 10
-79.018260179421759
 20
241.122777910989040
 11
-79.018260179421759
 21
240.135768173064660
  0
POLYLINE
  8
0
  6
CONTINUOUS
 62
3
 66
1
  0
VERTEX
  8
0
  6
CONTINUOUS
 62
3
 10
-79.018260179421759
 20
240.135768173064660
  0
VERTEX
  8
0
  6
CONTINUOUS
 62
3
 10
-78.951008660833068
 20
240.101669962868670
  0
VERTEX
  8
0
  6
CONTINUOUS
 62
3
 10
-78.751838543211264
 20
240.068882127768030
  0
VERTEX
  8
0
  6
CONTINUOUS
 62
3
 10
-78.428403822480661
 20
240.038664685878020
  0
VERTEX
  8
0
  6
CONTINUOUS
 62
3
 10
-77.993133913574681
 20
240.012178876544310
  0
VERTEX
  8
0
  6
CONTINUOUS
 62
3
 10
-77.462755994990374
 20
239.990442534566230
  0
VERTEX
  8
0
  6
CONTINUOUS
 62
3
 10
-76.857652192699575
 20
239.974290975376050
  0
VERTEX
  8
0
  6
CONTINUOUS
 62
3
 10
-76.201076306478214
 20
239.964344894335600
  0
VERTEX
  8
0
  6
CONTINUOUS
 62
3
 10
-75.518260179421759
 20
239.960986513761440
  0
VERTEX
  8
0
  6
CONTINUOUS
 62
3
 10
-74.835444052365318
 20
239.964344894335600
  0
VERTEX
  8
0
  6
CONTINUOUS
 62
3
 10
-74.178868166143943
 20
239.974290975376050
  0
VERTEX
  8
0
  6
CONTINUOUS
 62
3
 10
-73.573764363853158
 20
239.990442534566230
  0
VERTEX
  8
0
  6
CONTINUOUS
 62
3
 10
-73.043386445268851
 20
240.012178876544310
  0
VERTEX
  8
0
  6
CONTINUOUS
 62
3
 10
-72.608116536362857
 20
240.038664685878020
  0
VERTEX
  8
0
  6
CONTINUOUS
 62
3
 10
-72.284681815632254
 20
240.068882127768030
  0
VERTEX
  8
0
  6
CONTINUOUS
 62
3
 10
-72.085511698010450
 20
240.101669962868670
  0
VERTEX
  8
0
  6
CONTINUOUS
 62
3
 10
-72.018260179421759
 20
240.135768173064660
  0
SEQEND
  8
0
  6
CONTINUOUS
 62
3
  0
LINE
  8
0
  6
CONTINUOUS
 62
3
 10
-72.018260179421759
 20
241.122777910989040
 11
-72.018260179421759
 21
240.135768173064660
  0
ARC
  8
0
  6
CONTINUOUS
 62
3
 10
-77.718260179421577
 20
241.122777910989040
 40
1.300000000000019
 50
106.601549599022360
 51
180.000000000000000
  0
ARC
  8
0
  6
CONTINUOUS
 62
3
 10
-75.518260179421759
 20
233.743753585239570
 40
9.000000000000123
 50
73.398450400980877
 51
106.601549599019120
  0
ARC
  8
0
  6
CONTINUOUS
 62
3
 10
-73.318260179421941
 20
241.122777910989040
 40
1.300000000000182
 50
0.000000000000000
 51
73.398450400977637
  0
ARC
  8
0
  6
CONTINUOUS
 62
3
 10
-73.518260179421759
 20
245.446231785246710
 40
5.000000000000072
 50
287.457603123721870
 51
0.000000000000000
  0
LINE
  8
0
  6
CONTINUOUS
 62
3
 10
-79.018260179421759
 20
240.446231785246710
 11
-182.018260179421760
 21
240.446231785246710
  0
LINE
  8
0
  6
CONTINUOUS
 62
3
 10
-201.018260179421530
 20
105.785206725559870
 11
-126.018260179421530
 21
105.785206725559870
  0
LINE
  8
0
  6
CONTINUOUS
 62
3
 10
-126.018260179421530
 20
105.785206725559870
 11
-126.018260179421530
 21
110.785206725559980
  0
LINE
  8
0
  6
CONTINUOUS
 62
3
 10
-127.018260179421530
 20
77.285206725559874
 11
-127.018260179421530
 21
105.785206725559870
  0
LINE
  8
0
  6
CONTINUOUS
 62
3
 10
-200.018260179421530
 20
77.285206725559874
 11
-200.018260179421530
 21
105.785206725559870
  0
ARC
  8
0
  6
CONTINUOUS
 62
3
 10
-199.018260179421530
 20
77.285206725559874
 40
1.000000000000000
 50
180.000000000000000
 51
270.000000000000000
  0
ARC
  8
0
  6
CONTINUOUS
 62
3
 10
-128.018260179421530
 20
77.285206725559874
 40
1.000000000000000
 50
270.000000000000000
 51
0.000000000000000
  0
LINE
  8
0
  6
CONTINUOUS
 62
3
 10
-134.018260179421530
 20
75.785206725559874
 11
-134.018260179421530
 21
76.285206725559874
  0
LINE
  8
0
  6
CONTINUOUS
 62
3
 10
-142.018260179421530
 20
75.785206725559874
 11
-134.018260179421530
 21
75.785206725559874
  0
LINE
  8
0
  6
CONTINUOUS
 62
3
 10
-142.018260179421530
 20
75.785206725559874
 11
-142.018260179421530
 21
76.285206725559874
  0
LINE
  8
0
  6
CONTINUOUS
 62
3
 10
-128.018260179421530
 20
76.285206725559874
 11
-199.018260179421530
 21
76.285206725559874
  0
LINE
  8
0
  6
CONTINUOUS
 62
3
 10
-193.018260179442900
 20
111.945510364750930
 11
-193.018260179442680
 21
163.285206725559870
  0
ARC
  8
0
  6
CONTINUOUS
 62
3
 10
-196.018260179442900
 20
111.945510364750930
 40
3.000000000000000
 50
270.000000000000000
 51
0.000000000000000
  0
LINE
  8
0
  6
CONTINUOUS
 62
3
 10
-200.018260179442900
 20
108.945510364750930
 11
-196.018260179442900
 21
108.945510364750930
  0
POLYLINE
  8
0
  6
CONTINUOUS
 62
3
 66
1
 70
1
  0
VERTEX
  8
0
  6
CONTINUOUS
 62
3
 10
-199.318260179442690
 20
115.957875771212340
  0
VERTEX
  8
0
  6
CONTINUOUS
 62
3
 10
-199.408569361547510
 20
116.660832737412700
  0
VERTEX
  8
0
  6
CONTINUOUS
 62
3
 10
-199.676026376639640
 20
117.336775461624790
  0
VERTEX
  8
0
  6
CONTINUOUS
 62
3
 10
-200.110353001620720
 20
117.959727844030190
  0
VERTEX
  8
0
  6
CONTINUOUS
 62
3
 10
-200.694858307865900
 20
118.505750173928770
  0
VERTEX
  8
0
  6
CONTINUOUS
 62
3
 10
-201.407080084250570
 20
118.953859119395380
  0
VERTEX
  8
0
  6
CONTINUOUS
 62
3
 10
-202.219648047326760
 20
119.286834104958160
  0
VERTEX
  8
0
  6
CONTINUOUS
 62
3
 10
-203.101335665966870
 20
119.491879088656400
  0
VERTEX
  8
0
  6
CONTINUOUS
 62
3
 10
-204.018260179442680
 20
119.561114306757170
  0
VERTEX
  8
0
  6
CONTINUOUS
 62
3
 10
-204.935184692918480
 20
119.491879088656400
  0
VERTEX
  8
0
  6
CONTINUOUS
 62
3
 10
-205.816872311558600
 20
119.286834104958160
  0
VERTEX
  8
0
  6
CONTINUOUS
 62
3
 10
-206.629440274634790
 20
118.953859119395380
  0
VERTEX
  8
0
  6
CONTINUOUS
 62
3
 10
-207.341662051019450
 20
118.505750173928770
  0
VERTEX
  8
0
  6
CONTINUOUS
 62
3
 10
-207.926167357264630
 20
117.959727844030190
  0
VERTEX
  8
0
  6
CONTINUOUS
 62
3
 10
-208.360493982245710
 20
117.336775461624790
  0
VERTEX
  8
0
  6
CONTINUOUS
 62
3
 10
-208.627950997337850
 20
116.660832737412700
  0
VERTEX
  8
0
  6
CONTINUOUS
 62
3
 10
-208.718260179442670
 20
115.957875771212340
  0
VERTEX
  8
0
  6
CONTINUOUS
 62
3
 10
-208.627950997337850
 20
115.254918805011980
  0
VERTEX
  8
0
  6
CONTINUOUS
 62
3
 10
-208.360493982245710
 20
114.578976080799890
  0
VERTEX
  8
0
  6
CONTINUOUS
 62
3
 10
-207.926167357264630
 20
113.956023698394480
  0
VERTEX
  8
0
  6
CONTINUOUS
 62
3
 10
-207.341662051019430
 20
113.410001368495910
  0
VERTEX
  8
0
  6
CONTINUOUS
 62
3
 10
-206.629440274634790
 20
112.961892423029290
  0
VERTEX
  8
0
  6
CONTINUOUS
 62
3
 10
-205.816872311558600
 20
112.628917437466520
  0
VERTEX
  8
0
  6
CONTINUOUS
 62
3
 10
-204.935184692918480
 20
112.423872453768280
  0
VERTEX
  8
0
  6
CONTINUOUS
 62
3
 10
-204.018260179442680
 20
112.354637235667510
  0
VERTEX
  8
0
  6
CONTINUOUS
 62
3
 10
-203.101335665966870
 20
112.423872453768280
  0
VERTEX
  8
0
  6
CONTINUOUS
 62
3
 10
-202.219648047326760
 20
112.628917437466520
  0
VERTEX
  8
0
  6
CONTINUOUS
 62
3
 10
-201.407080084250570
 20
112.961892423029290
  0
VERTEX
  8
0
  6
CONTINUOUS
 62
3
 10
-200.694858307865930
 20
113.410001368495910
  0
VERTEX
  8
0
  6
CONTINUOUS
 62
3
 10
-200.110353001620720
 20
113.956023698394480
  0
VERTEX
  8
0
  6
CONTINUOUS
 62
3
 10
-199.676026376639640
 20
114.578976080799890
  0
VERTEX
  8
0
  6
CONTINUOUS
 62
3
 10
-199.408569361547510
 20
115.254918805011980
  0
SEQEND
  8
0
  6
CONTINUOUS
 62
3
  0
LINE
  8
0
  6
CONTINUOUS
 62
3
 10
-206.018260179442900
 20
112.965500217211910
 11
-204.018260179442900
 21
114.141285702834800
  0
LINE
  8
0
  6
CONTINUOUS
 62
3
 10
-204.018260179442900
 20
114.141285702834800
 11
-202.018260179442900
 21
115.793927341958120
  0
LINE
  8
0
  6
CONTINUOUS
 62
3
 10
-202.018260179442900
 20
112.965500217211910
 11
-204.018260179442900
 21
114.141285702834800
  0
LINE
  8
0
  6
CONTINUOUS
 62
3
 10
-204.018260179442900
 20
114.141285702834800
 11
-206.018260179442900
 21
115.793927341958120
  0
ARC
  8
0
  6
CONTINUOUS
 62
3
 10
-200.018260179442900
 20
105.945510364750930
 40
3.000000000000000
 50
90.000000000000000
 51
180.000000000000000
  0
LINE
  8
0
  6
CONTINUOUS
 62
3
 10
-203.018260179442900
 20
104.285206725559870
 11
-203.018260179442900
 21
105.945510364750930
  0
LINE
  8
0
  6
CONTINUOUS
 62
3
 10
-193.018260179442900
 20
222.285206725559870
 11
-193.018260179442680
 21
163.285206725559870
  0
POLYLINE
  8
0
  6
CONTINUOUS
 62
3
 66
1
 70
1
  0
VERTEX
  8
0
  6
CONTINUOUS
 62
3
 10
-199.318260179442690
 20
210.612537679907400
  0
VERTEX
  8
0
  6
CONTINUOUS
 62
3
 10
-199.408569361547510
 20
211.315494646107770
  0
VERTEX
  8
0
  6
CONTINUOUS
 62
3
 10
-199.676026376639640
 20
211.991437370319860
  0
VERTEX
  8
0
  6
CONTINUOUS
 62
3
 10
-200.110353001620720
 20
212.614389752725260
  0
VERTEX
  8
0
  6
CONTINUOUS
 62
3
 10
-200.694858307865900
 20
213.160412082623850
  0
VERTEX
  8
0
  6
CONTINUOUS
 62
3
 10
-201.407080084250570
 20
213.608521028090480
  0
VERTEX
  8
0
  6
CONTINUOUS
 62
3
 10
-202.219648047326760
 20
213.941496013653220
  0
VERTEX
  8
0
  6
CONTINUOUS
 62
3
 10
-203.101335665966870
 20
214.146540997351480
  0
VERTEX
  8
0
  6
CONTINUOUS
 62
3
 10
-204.018260179442680
 20
214.215776215452250
  0
VERTEX
  8
0
  6
CONTINUOUS
 62
3
 10
-204.935184692918480
 20
214.146540997351480
  0
VERTEX
  8
0
  6
CONTINUOUS
 62
3
 10
-205.816872311558600
 20
213.941496013653220
  0
VERTEX
  8
0
  6
CONTINUOUS
 62
3
 10
-206.629440274634790
 20
213.608521028090480
  0
VERTEX
  8
0
  6
CONTINUOUS
 62
3
 10
-207.341662051019450
 20
213.160412082623850
  0
VERTEX
  8
0
  6
CONTINUOUS
 62
3
 10
-207.926167357264630
 20
212.614389752725260
  0
VERTEX
  8
0
  6
CONTINUOUS
 62
3
 10
-208.360493982245710
 20
211.991437370319860
  0
VERTEX
  8
0
  6
CONTINUOUS
 62
3
 10
-208.627950997337850
 20
211.315494646107770
  0
VERTEX
  8
0
  6
CONTINUOUS
 62
3
 10
-208.718260179442670
 20
210.612537679907400
  0
VERTEX
  8
0
  6
CONTINUOUS
 62
3
 10
-208.627950997337850
 20
209.909580713707040
  0
VERTEX
  8
0
  6
CONTINUOUS
 62
3
 10
-208.360493982245710
 20
209.233637989494950
  0
VERTEX
  8
0
  6
CONTINUOUS
 62
3
 10
-207.926167357264630
 20
208.610685607089550
  0
VERTEX
  8
0
  6
CONTINUOUS
 62
3
 10
-207.341662051019430
 20
208.064663277190960
  0
VERTEX
  8
0
  6
CONTINUOUS
 62
3
 10
-206.629440274634790
 20
207.616554331724330
  0
VERTEX
  8
0
  6
CONTINUOUS
 62
3
 10
-205.816872311558600
 20
207.283579346161590
  0
VERTEX
  8
0
  6
CONTINUOUS
 62
3
 10
-204.935184692918480
 20
207.078534362463330
  0
VERTEX
  8
0
  6
CONTINUOUS
 62
3
 10
-204.018260179442680
 20
207.009299144362560
  0
VERTEX
  8
0
  6
CONTINUOUS
 62
3
 10
-203.101335665966870
 20
207.078534362463330
  0
VERTEX
  8
0
  6
CONTINUOUS
 62
3
 10
-202.219648047326760
 20
207.283579346161590
  0
VERTEX
  8
0
  6
CONTINUOUS
 62
3
 10
-201.407080084250570
 20
207.616554331724330
  0
VERTEX
  8
0
  6
CONTINUOUS
 62
3
 10
-200.694858307865930
 20
208.064663277190960
  0
VERTEX
  8
0
  6
CONTINUOUS
 62
3
 10
-200.110353001620720
 20
208.610685607089550
  0
VERTEX
  8
0
  6
CONTINUOUS
 62
3
 10
-199.676026376639640
 20
209.233637989494950
  0
VERTEX
  8
0
  6
CONTINUOUS
 62
3
 10
-199.408569361547510
 20
209.909580713707040
  0
SEQEND
  8
0
  6
CONTINUOUS
 62
3
  0
LINE
  8
0
  6
CONTINUOUS
 62
3
 10
-206.018260179442900
 20
213.604913233907840
 11
-204.018260179442900
 21
212.429127748285050
  0
LINE
  8
0
  6
CONTINUOUS
 62
3
 10
-204.018260179442900
 20
212.429127748285050
 11
-202.018260179442900
 21
210.776486109161620
  0
LINE
  8
0
  6
CONTINUOUS
 62
3
 10
-202.018260179442900
 20
213.604913233907840
 11
-204.018260179442900
 21
212.429127748285050
  0
LINE
  8
0
  6
CONTINUOUS
 62
3
 10
-204.018260179442900
 20
212.429127748285050
 11
-206.018260179442900
 21
210.776486109161620
  0
LINE
  8
0
  6
CONTINUOUS
 62
3
 10
-126.018260179421530
 20
110.785206725559980
 11
-193.251728873840190
 21
110.785206725559980
  0
LINE
  8
0
  6
CONTINUOUS
 62
3
 10
-201.018260179421530
 20
105.785206725559870
 11
-201.018260179421530
 21
108.773937489504530
  0
LINE
  8
0
  6
CONTINUOUS
 62
3
 10
-203.018260179442900
 20
104.285206725559870
 11
-222.523105128535690
 21
104.285206725559870
  0
LINE
  8
0
  6
CONTINUOUS
 62
3
 10
-193.018260179442900
 20
222.285206725559870
 11
-222.523105128535690
 21
222.285206725559870
  0
ARC
  8
0
  6
CONTINUOUS
 62
3
 10
-222.523105128535690
 20
124.885206725559890
 40
20.599999999999891
 50
235.000000000000400
 51
270.000000000000000
  0
ARC
  8
0
  6
CONTINUOUS
 62
3
 10
-240.418260179443000
 20
115.441586591930550
 40
2.600000000000136
 50
180.000000000000000
 51
234.999999999997390
  0
LINE
  8
0
  6
CONTINUOUS
 62
3
 10
-234.338779717367060
 20
108.010674613206670
 11
-241.909558913955830
 21
113.311791276779210
  0
LINE
  8
0
  6
CONTINUOUS
 62
3
 10
-243.018260179443130
 20
115.441586591930550
 11
-243.018260179443130
 21
163.285206725559870
  0
ARC
  8
0
  6
CONTINUOUS
 62
3
 10
-222.523105128535690
 20
201.685206725559850
 40
20.600000000000023
 50
90.000000000000000
 51
124.999999999999600
  0
ARC
  8
0
  6
CONTINUOUS
 62
3
 10
-240.418260179443000
 20
211.128826859189190
 40
2.600000000000131
 50
125.000000000001180
 51
180.000000000000000
  0
LINE
  8
0
  6
CONTINUOUS
 62
3
 10
-234.338779717367060
 20
218.559738837913190
 11
-241.909558913955830
 21
213.258622174340530
  0
LINE
  8
0
  6
CONTINUOUS
 62
3
 10
-243.018260179443130
 20
211.128826859189190
 11
-243.018260179442900
 21
163.285206725559870
  0
LINE
  8
0
  6
CONTINUOUS
 62
4
 10
-193.018260179442450
 20
112.285206725559870
 11
-52.518260179421759
 21
112.285206725559870
  0
LINE
  8
0
  6
CONTINUOUS
 62
4
 10
-193.018260179442450
 20
112.785206725559870
 11
-52.518260179421759
 21
112.785206725559870
  0
LINE
  8
0
  6
CONTINUOUS
 62
4
 10
-193.018260179442450
 20
117.152124130677180
 11
-52.518260179421759
 21
117.152124130677290
  0
LINE
  8
0
  6
CONTINUOUS
 62
4
 10
-193.018260179442450
 20
122.243292955220110
 11
-52.518260179421759
 21
122.243292955220110
  0
LINE
  8
0
  6
CONTINUOUS
 62
4
 10
-193.018260179442450
 20
131.570815566789860
 11
-52.518260179421759
 21
131.570815566789860
  0
LINE
  8
0
  6
CONTINUOUS
 62
4
 10
-193.018260179442450
 20
129.981605774051220
 11
-52.518260179421759
 21
129.981605774051220
  0
LINE
  8
0
  6
CONTINUOUS
 62
4
 10
-193.018260179442450
 20
134.528811174922790
 11
-52.518260179421759
 21
134.528811174922790
  0
LINE
  8
0
  6
CONTINUOUS
 62
4
 10
-193.018260179442450
 20
136.007834328399890
 11
-52.518260179421759
 21
136.007834328399890
  0
LINE
  8
0
  6
CONTINUOUS
 62
4
 10
-193.018260179442450
 20
139.100565320065130
 11
-52.518260179421759
 21
139.100565320065130
  0
LINE
  8
0
  6
CONTINUOUS
 62
4
 10
-193.018260179442450
 20
140.446967045563720
 11
-52.518260179421759
 21
140.446967045563720
  0
LINE
  8
0
  6
CONTINUOUS
 62
4
 10
-193.018260179442450
 20
143.657172068922020
 11
-52.518260179421759
 21
143.657172068922020
  0
LINE
  8
0
  6
CONTINUOUS
 62
4
 10
-193.018260179442450
 20
144.899091933809930
 11
-52.518260179421759
 21
144.899091933809930
  0
LINE
  8
0
  6
CONTINUOUS
 62
4
 10
-193.018260179442450
 20
149.285206725559870
 11
-52.518260179421759
 21
149.285206725559870
  0
LINE
  8
0
  6
CONTINUOUS
 62
4
 10
-193.018260179442680
 20
177.285206725559870
 11
-52.518260179421759
 21
177.285206725559870
  0
LINE
  8
0
  6
CONTINUOUS
 62
4
 10
-193.018260179442680
 20
181.671321517309820
 11
-52.518260179421759
 21
181.671321517309820
  0
LINE
  8
0
  6
CONTINUOUS
 62
4
 10
-193.018260179442680
 20
182.913241382197730
 11
-52.518260179421759
 21
182.913241382197730
  0
LINE
  8
0
  6
CONTINUOUS
 62
4
 10
-193.018260179442680
 20
186.123446405556020
 11
-52.518260179421759
 21
186.123446405556020
  0
LINE
  8
0
  6
CONTINUOUS
 62
4
 10
-193.018260179442680
 20
187.469848131054620
 11
-52.518260179421759
 21
187.469848131054620
  0
LINE
  8
0
  6
CONTINUOUS
 62
4
 10
-193.018260179442680
 20
190.562579122719970
 11
-52.518260179421759
 21
190.562579122719970
  0
LINE
  8
0
  6
CONTINUOUS
 62
4
 10
-193.018260179442680
 20
192.041602276196950
 11
-52.518260179421759
 21
192.041602276196950
  0
LINE
  8
0
  6
CONTINUOUS
 62
4
 10
-193.018260179442680
 20
194.999597884329890
 11
-52.518260179421759
 21
194.999597884329890
  0
LINE
  8
0
  6
CONTINUOUS
 62
4
 10
-193.018260179442680
 20
196.588807677068640
 11
-52.518260179421759
 21
196.588807677068640
  0
LINE
  8
0
  6
CONTINUOUS
 62
4
 10
-193.018260179442680
 20
204.327120495899630
 11
-52.518260179421759
 21
204.327120495899630
  0
LINE
  8
0
  6
CONTINUOUS
 62
4
 10
-193.018260179442680
 20
209.418289320442570
 11
-52.518260179421759
 21
209.418289320442570
  0
LINE
  8
0
  6
CONTINUOUS
 62
4
 10
-193.018260179442680
 20
213.785206725559870
 11
-52.518260179421759
 21
213.785206725559870
  0
LINE
  8
0
  6
CONTINUOUS
 62
4
 10
-193.018260179442680
 20
214.285206725559870
 11
-52.518260179421759
 21
214.285206725559870
  0
LINE
  8
0
  6
CONTINUOUS
 62
3
 10
-52.518260179421759
 20
216.785206725559870
 11
-193.018260179442680
 21
216.785206725559870
  0
LINE
  8
0
  6
CONTINUOUS
 62
3
 10
-52.518260179421759
 20
109.785206725559870
 11
-126.018260179421530
 21
109.785206725559870
  0
LINE
  8
0
  6
CONTINUOUS
 62
3
 10
-52.518260179421759
 20
216.785206725559870
 11
-52.518260179421759
 21
163.285206725559870
  0
LINE
  8
0
  6
CONTINUOUS
 62
3
 10
-52.518260179421759
 20
109.785206725559870
 11
-52.518260179421759
 21
163.285206725559870
  0
ARC
  8
0
  6
CONTINUOUS
 62
3
 10
410.059502103744310
 20
-135.714793274440130
 40
49.000000000000000
 50
270.000000000000000
 51
356.692637820329420
  0
ARC
  8
0
  6
CONTINUOUS
 62
3
 10
410.059502103744310
 20
-550.714793274440130
 40
462.518012424385230
 50
85.577622414021917
 51
90.000000000000000
  0
ARC
  8
0
  6
CONTINUOUS
 62
3
 10
410.059502103744310
 20
-135.714793274440130
 40
31.000000000000000
 50
180.000000000000000
 51
0.000000000000000
  0
CIRCLE
  8
0
  6
CONTINUOUS
 62
3
 10
410.059502103744310
 20
-135.714793274440130
 40
31.000000000000057
  0
CIRCLE
  8
0
  6
CONTINUOUS
 62
3
 10
410.059502103744310
 20
-135.714793274440130
 40
40.999999999999943
  0
LINE
  8
0
  6
DASHDOT
 62
4
 10
443.606325835814460
 20
-136.714793274440130
 11
377.165503887516930
 21
-136.714793274440130
  0
LINE
  8
0
  6
CONTINUOUS
 62
3
 10
521.583086792603350
 20
-135.714793274440130
 11
521.583086792603350
 21
-255.714796338296760
  0
LINE
  8
0
  6
CONTINUOUS
 62
3
 10
-196.018260179448760
 20
-174.714793274440130
 11
-200.018260179448760
 21
-174.714793274440130
  0
ARC
  8
0
  6
CONTINUOUS
 62
3
 10
-200.018260179448760
 20
-171.714793274440130
 40
3.000000000000000
 50
180.000000000000000
 51
270.000000000000000
  0
LINE
  8
0
  6
CONTINUOUS
 62
3
 10
-193.018260179448760
 20
-190.714793274440350
 11
-193.018260179448760
 21
-177.714793274440130
  0
ARC
  8
0
  6
CONTINUOUS
 62
3
 10
-196.018260179448760
 20
-177.714793274440130
 40
3.000000000000000
 50
0.000000000000000
 51
90.000000000000000
  0
POLYLINE
  8
0
  6
CONTINUOUS
 62
3
 66
1
 70
1
  0
VERTEX
  8
0
  6
CONTINUOUS
 62
3
 10
-199.318260179448540
 20
-184.042124228787660
  0
VERTEX
  8
0
  6
CONTINUOUS
 62
3
 10
-199.408569361553360
 20
-183.339167262587300
  0
VERTEX
  8
0
  6
CONTINUOUS
 62
3
 10
-199.676026376645500
 20
-182.663224538375200
  0
VERTEX
  8
0
  6
CONTINUOUS
 62
3
 10
-200.110353001626580
 20
-182.040272155969800
  0
VERTEX
  8
0
  6
CONTINUOUS
 62
3
 10
-200.694858307871750
 20
-181.494249826071210
  0
VERTEX
  8
0
  6
CONTINUOUS
 62
3
 10
-201.407080084256420
 20
-181.046140880604580
  0
VERTEX
  8
0
  6
CONTINUOUS
 62
3
 10
-202.219648047332610
 20
-180.713165895041840
  0
VERTEX
  8
0
  6
CONTINUOUS
 62
3
 10
-203.101335665972730
 20
-180.508120911343580
  0
VERTEX
  8
0
  6
CONTINUOUS
 62
3
 10
-204.018260179448530
 20
-180.438885693242810
  0
VERTEX
  8
0
  6
CONTINUOUS
 62
3
 10
-204.935184692924340
 20
-180.508120911343580
  0
VERTEX
  8
0
  6
CONTINUOUS
 62
3
 10
-205.816872311564450
 20
-180.713165895041840
  0
VERTEX
  8
0
  6
CONTINUOUS
 62
3
 10
-206.629440274640640
 20
-181.046140880604580
  0
VERTEX
  8
0
  6
CONTINUOUS
 62
3
 10
-207.341662051025310
 20
-181.494249826071210
  0
VERTEX
  8
0
  6
CONTINUOUS
 62
3
 10
-207.926167357270490
 20
-182.040272155969800
  0
VERTEX
  8
0
  6
CONTINUOUS
 62
3
 10
-208.360493982251570
 20
-182.663224538375200
  0
VERTEX
  8
0
  6
CONTINUOUS
 62
3
 10
-208.627950997343700
 20
-183.339167262587300
  0
VERTEX
  8
0
  6
CONTINUOUS
 62
3
 10
-208.718260179448520
 20
-184.042124228787660
  0
VERTEX
  8
0
  6
CONTINUOUS
 62
3
 10
-208.627950997343700
 20
-184.745081194988020
  0
VERTEX
  8
0
  6
CONTINUOUS
 62
3
 10
-208.360493982251570
 20
-185.421023919200110
  0
VERTEX
  8
0
  6
CONTINUOUS
 62
3
 10
-207.926167357270490
 20
-186.043976301605510
  0
VERTEX
  8
0
  6
CONTINUOUS
 62
3
 10
-207.341662051025280
 20
-186.589998631504100
  0
VERTEX
  8
0
  6
CONTINUOUS
 62
3
 10
-206.629440274640640
 20
-187.038107576970730
  0
VERTEX
  8
0
  6
CONTINUOUS
 62
3
 10
-205.816872311564450
 20
-187.371082562533470
  0
VERTEX
  8
0
  6
CONTINUOUS
 62
3
 10
-204.935184692924340
 20
-187.576127546231730
  0
VERTEX
  8
0
  6
CONTINUOUS
 62
3
 10
-204.018260179448530
 20
-187.645362764332500
  0
VERTEX
  8
0
  6
CONTINUOUS
 62
3
 10
-203.101335665972730
 20
-187.576127546231730
  0
VERTEX
  8
0
  6
CONTINUOUS
 62
3
 10
-202.219648047332610
 20
-187.371082562533470
  0
VERTEX
  8
0
  6
CONTINUOUS
 62
3
 10
-201.407080084256420
 20
-187.038107576970730
  0
VERTEX
  8
0
  6
CONTINUOUS
 62
3
 10
-200.694858307871780
 20
-186.589998631504100
  0
VERTEX
  8
0
  6
CONTINUOUS
 62
3
 10
-200.110353001626580
 20
-186.043976301605510
  0
VERTEX
  8
0
  6
CONTINUOUS
 62
3
 10
-199.676026376645500
 20
-185.421023919200110
  0
VERTEX
  8
0
  6
CONTINUOUS
 62
3
 10
-199.408569361553360
 20
-184.745081194988020
  0
SEQEND
  8
0
  6
CONTINUOUS
 62
3
  0
LINE
  8
0
  6
CONTINUOUS
 62
3
 10
-206.018260179448760
 20
-187.034499782788090
 11
-204.018260179448990
 21
-185.858714297165190
  0
LINE
  8
0
  6
CONTINUOUS
 62
3
 10
-204.018260179448990
 20
-185.858714297165190
 11
-202.018260179448760
 21
-184.206072658041880
  0
LINE
  8
0
  6
CONTINUOUS
 62
3
 10
-202.018260179448760
 20
-187.034499782788090
 11
-204.018260179448990
 21
-185.858714297165190
  0
LINE
  8
0
  6
CONTINUOUS
 62
3
 10
-204.018260179448990
 20
-185.858714297165190
 11
-206.018260179448760
 21
-184.206072658041880
  0
LINE
  8
0
  6
CONTINUOUS
 62
3
 10
-193.018260179448760
 20
-190.714793274440350
 11
-222.523105128541770
 21
-190.714793274440350
  0
ARC
  8
0
  6
CONTINUOUS
 62
3
 10
-222.523105128541770
 20
-170.114793274440330
 40
20.599999999999891
 50
235.000000000000400
 51
270.000000000000000
  0
ARC
  8
0
  6
CONTINUOUS
 62
3
 10
-240.418260179449080
 20
-179.558413408069670
 40
2.599999999999909
 50
180.000000000000000
 51
234.999999999997390
  0
LINE
  8
0
  6
CONTINUOUS
 62
3
 10
-243.018260179448990
 20
-179.558413408069670
 11
-243.018260179448990
 21
-136.714793274440130
  0
LINE
  8
0
  6
CONTINUOUS
 62
3
 10
-234.338779717373140
 20
-186.989325386793550
 11
-241.909558913961920
 21
-181.688208723221010
  0
LINE
  8
0
  6
CONTINUOUS
 62
3
 10
-196.018260179448760
 20
-98.714793274440126
 11
-200.018260179448760
 21
-98.714793274440126
  0
ARC
  8
0
  6
CONTINUOUS
 62
3
 10
-200.018260179448760
 20
-101.714793274440120
 40
3.000000000000000
 50
90.000000000000000
 51
180.000000000000000
  0
LINE
  8
0
  6
CONTINUOUS
 62
3
 10
-193.018260179448760
 20
-82.714793274439899
 11
-193.018260179448760
 21
-95.714793274440126
  0
ARC
  8
0
  6
CONTINUOUS
 62
3
 10
-196.018260179448760
 20
-95.714793274440126
 40
3.000000000000000
 50
270.000000000000000
 51
0.000000000000000
  0
POLYLINE
  8
0
  6
CONTINUOUS
 62
3
 66
1
 70
1
  0
VERTEX
  8
0
  6
CONTINUOUS
 62
3
 10
-199.318260179448540
 20
-89.387462320092482
  0
VERTEX
  8
0
  6
CONTINUOUS
 62
3
 10
-199.408569361553360
 20
-88.684505353892121
  0
VERTEX
  8
0
  6
CONTINUOUS
 62
3
 10
-199.676026376645500
 20
-88.008562629680029
  0
VERTEX
  8
0
  6
CONTINUOUS
 62
3
 10
-200.110353001626580
 20
-87.385610247274627
  0
VERTEX
  8
0
  6
CONTINUOUS
 62
3
 10
-200.694858307871750
 20
-86.839587917376051
  0
VERTEX
  8
0
  6
CONTINUOUS
 62
3
 10
-201.407080084256420
 20
-86.391478971909436
  0
VERTEX
  8
0
  6
CONTINUOUS
 62
3
 10
-202.219648047332610
 20
-86.058503986346665
  0
VERTEX
  8
0
  6
CONTINUOUS
 62
3
 10
-203.101335665972730
 20
-85.853459002648421
  0
VERTEX
  8
0
  6
CONTINUOUS
 62
3
 10
-204.018260179448530
 20
-85.784223784547649
  0
VERTEX
  8
0
  6
CONTINUOUS
 62
3
 10
-204.935184692924340
 20
-85.853459002648421
  0
VERTEX
  8
0
  6
CONTINUOUS
 62
3
 10
-205.816872311564450
 20
-86.058503986346665
  0
VERTEX
  8
0
  6
CONTINUOUS
 62
3
 10
-206.629440274640640
 20
-86.391478971909436
  0
VERTEX
  8
0
  6
CONTINUOUS
 62
3
 10
-207.341662051025310
 20
-86.839587917376051
  0
VERTEX
  8
0
  6
CONTINUOUS
 62
3
 10
-207.926167357270490
 20
-87.385610247274627
  0
VERTEX
  8
0
  6
CONTINUOUS
 62
3
 10
-208.360493982251570
 20
-88.008562629680029
  0
VERTEX
  8
0
  6
CONTINUOUS
 62
3
 10
-208.627950997343700
 20
-88.684505353892121
  0
VERTEX
  8
0
  6
CONTINUOUS
 62
3
 10
-208.718260179448520
 20
-89.387462320092482
  0
VERTEX
  8
0
  6
CONTINUOUS
 62
3
 10
-208.627950997343700
 20
-90.090419286292843
  0
VERTEX
  8
0
  6
CONTINUOUS
 62
3
 10
-208.360493982251570
 20
-90.766362010504935
  0
VERTEX
  8
0
  6
CONTINUOUS
 62
3
 10
-207.926167357270490
 20
-91.389314392910336
  0
VERTEX
  8
0
  6
CONTINUOUS
 62
3
 10
-207.341662051025280
 20
-91.935336722808913
  0
VERTEX
  8
0
  6
CONTINUOUS
 62
3
 10
-206.629440274640640
 20
-92.383445668275527
  0
VERTEX
  8
0
  6
CONTINUOUS
 62
3
 10
-205.816872311564450
 20
-92.716420653838298
  0
VERTEX
  8
0
  6
CONTINUOUS
 62
3
 10
-204.935184692924340
 20
-92.921465637536542
  0
VERTEX
  8
0
  6
CONTINUOUS
 62
3
 10
-204.018260179448530
 20
-92.990700855637314
  0
VERTEX
  8
0
  6
CONTINUOUS
 62
3
 10
-203.101335665972730
 20
-92.921465637536542
  0
VERTEX
  8
0
  6
CONTINUOUS
 62
3
 10
-202.219648047332610
 20
-92.716420653838298
  0
VERTEX
  8
0
  6
CONTINUOUS
 62
3
 10
-201.407080084256420
 20
-92.383445668275527
  0
VERTEX
  8
0
  6
CONTINUOUS
 62
3
 10
-200.694858307871780
 20
-91.935336722808913
  0
VERTEX
  8
0
  6
CONTINUOUS
 62
3
 10
-200.110353001626580
 20
-91.389314392910336
  0
VERTEX
  8
0
  6
CONTINUOUS
 62
3
 10
-199.676026376645500
 20
-90.766362010504935
  0
VERTEX
  8
0
  6
CONTINUOUS
 62
3
 10
-199.408569361553360
 20
-90.090419286292843
  0
SEQEND
  8
0
  6
CONTINUOUS
 62
3
  0
LINE
  8
0
  6
CONTINUOUS
 62
3
 10
-206.018260179448760
 20
-86.395086766092163
 11
-204.018260179448990
 21
-87.570872251714945
  0
LINE
  8
0
  6
CONTINUOUS
 62
3
 10
-204.018260179448990
 20
-87.570872251714945
 11
-202.018260179448760
 21
-89.223513890838376
  0
LINE
  8
0
  6
CONTINUOUS
 62
3
 10
-204.018260179448990
 20
-87.570872251714945
 11
-206.018260179448760
 21
-89.223513890838376
  0
ARC
  8
0
  6
CONTINUOUS
 62
3
 10
-222.523105128541770
 20
-103.314793274439920
 40
20.600000000000023
 50
90.000000000000000
 51
124.999999999999600
  0
ARC
  8
0
  6
CONTINUOUS
 62
3
 10
-240.418260179449080
 20
-93.871173140810583
 40
2.600000000000131
 50
125.000000000001180
 51
180.000000000000000
  0
LINE
  8
0
  6
CONTINUOUS
 62
3
 10
-243.018260179448990
 20
-93.871173140810583
 11
-243.018260179448990
 21
-136.714793274440130
  0
LINE
  8
0
  6
CONTINUOUS
 62
3
 10
-234.338779717373140
 20
-86.440261162086586
 11
-241.909558913961920
 21
-91.741377825659129
  0
LINE
  8
0
  6
CONTINUOUS
 62
3
 10
-193.018260179448760
 20
-82.714793274439899
 11
-222.523105128541770
 21
-82.714793274439899
  0
LINE
  8
0
  6
CONTINUOUS
 62
3
 10
140.981726878358870
 20
-257.317975344464680
 11
177.603875116817850
 21
-258.596848941391730
  0
ARC
  8
0
  6
CONTINUOUS
 62
3
 10
181.981726828540390
 20
-257.404301028339430
 40
3.000000000000000
 50
180.000000000000000
 51
226.186939148152190
  0
ARC
  8
0
  6
CONTINUOUS
 62
3
 10
177.481726878358870
 20
-262.094716835958930
 40
3.500000000000175
 50
46.186939148157336
 51
87.999999999996561
  0
ARC
  8
0
  6
CONTINUOUS
 62
3
 10
177.481726878358870
 20
-262.094716835958930
 40
3.500000000000000
 50
0.000000000000000
 51
46.186939148157336
  0
ARC
  8
0
  6
CONTINUOUS
 62
3
 10
177.337525370271410
 20
-255.585719170391710
 40
3.000000000000000
 50
180.000000000000000
 51
267.999999999996650
  0
ARC
  8
0
  6
CONTINUOUS
 62
3
 10
142.467525370271520
 20
-254.368031938214700
 40
3.000000000000000
 50
180.000000000000000
 51
267.999999999996650
  0
LINE
  8
0
  6
DASHDOT
 62
4
 10
162.981740530490980
 20
-252.696831284852120
 11
162.981740530490980
 21
-286.166785170571530
  0
LINE
  8
0
  6
CONTINUOUS
 62
3
 10
180.981726878358870
 20
-262.094716835958930
 11
180.981726878358870
 21
-280.714819838540280
  0
ARC
  8
0
  6
CONTINUOUS
 62
3
 10
179.981745846869500
 20
-93.714793249530885
 40
1.000000024909241
 50
180.000000000000000
 51
270.000000000000000
  0
LINE
  8
0
  6
CONTINUOUS
 62
3
 10
180.981745871779650
 20
-94.714793274440126
 11
180.981745871779650
 21
-135.714793274440130
  0
LINE
  8
0
  6
CONTINUOUS
 62
3
 10
178.981726828540390
 20
-135.714793274440130
 11
178.981726828540390
 21
-257.404301028339430
  0
ARC
  8
0
  6
CONTINUOUS
 62
3
 10
114.702523867989660
 20
-126.838489210223080
 40
74.999999999999901
 50
31.668452967610172
 51
88.999999999999616
  0
LINE
  8
0
  6
CONTINUOUS
 62
3
 10
178.981745821959350
 20
-89.038264915700893
 11
178.981745821959350
 21
-135.714793274440130
  0
ARC
  8
0
  6
CONTINUOUS
 62
3
 10
175.981745821959350
 20
-89.038264915700893
 40
3.000000000000000
 50
0.000000000000000
 51
31.668452967603624
  0
ARC
  8
0
  6
CONTINUOUS
 62
3
 10
179.981745846869500
 20
-177.714793299349370
 40
1.000000024909241
 50
90.000000000000000
 51
180.000000000000000
  0
LINE
  8
0
  6
CONTINUOUS
 62
3
 10
180.981745871779650
 20
-176.714793274440130
 11
180.981745871779650
 21
-135.714793274440130
  0
POLYLINE
  8
0
  6
CONTINUOUS
 62
3
 66
1
  0
VERTEX
  8
0
  6
CONTINUOUS
 62
3
 10
174.337525370271010
 20
-135.714793274440130
  0
VERTEX
  8
0
  6
CONTINUOUS
 62
3
 10
174.002516734101330
 20
-131.812986834117570
  0
VERTEX
  8
0
  6
CONTINUOUS
 62
3
 10
173.010365019605300
 20
-128.061124627138330
  0
VERTEX
  8
0
  6
CONTINUOUS
 62
3
 10
171.399198060765880
 20
-124.603388614048080
  0
VERTEX
  8
0
  6
CONTINUOUS
 62
3
 10
169.230932100258460
 20
-121.572657650709170
  0
VERTEX
  8
0
  6
CONTINUOUS
 62
3
 10
166.588892382967770
 20
-119.085401028389220
  0
VERTEX
  8
0
  6
CONTINUOUS
 62
3
 10
163.574611013556340
 20
-117.237202624214400
  0
VERTEX
  8
0
  6
CONTINUOUS
 62
3
 10
160.303925134622200
 20
-116.099087666375520
  0
VERTEX
  8
0
  6
CONTINUOUS
 62
3
 10
156.902525370271010
 20
-115.714793274440120
  0
VERTEX
  8
0
  6
CONTINUOUS
 62
3
 10
153.501125605919810
 20
-116.099087666375520
  0
VERTEX
  8
0
  6
CONTINUOUS
 62
3
 10
150.230439726985680
 20
-117.237202624214400
  0
VERTEX
  8
0
  6
CONTINUOUS
 62
3
 10
147.216158357574240
 20
-119.085401028389220
  0
VERTEX
  8
0
  6
CONTINUOUS
 62
3
 10
144.574118640283560
 20
-121.572657650709180
  0
VERTEX
  8
0
  6
CONTINUOUS
 62
3
 10
142.405852679776130
 20
-124.603388614048080
  0
VERTEX
  8
0
  6
CONTINUOUS
 62
3
 10
140.794685720936740
 20
-128.061124627138330
  0
VERTEX
  8
0
  6
CONTINUOUS
 62
3
 10
139.802534006440680
 20
-131.812986834117570
  0
VERTEX
  8
0
  6
CONTINUOUS
 62
3
 10
139.467525370271010
 20
-135.714793274440130
  0
SEQEND
  8
0
  6
CONTINUOUS
 62
3
  0
LINE
  8
0
  6
CONTINUOUS
 62
3
 10
174.337525370271410
 20
-135.714793274440130
 11
174.337525370271410
 21
-255.585719170391710
  0
LINE
  8
0
  6
CONTINUOUS
 62
3
 10
139.467525370271520
 20
-135.714793274440130
 11
139.467525370271520
 21
-254.368031938214700
  0
LINE
  8
0
  6
CONTINUOUS
 62
3
 10
179.981745846869500
 20
-94.714793274440126
 11
180.981745871779650
 21
-94.714793274440126
  0
LINE
  8
0
  6
CONTINUOUS
 62
3
 10
179.981745846869500
 20
-176.714793274440130
 11
180.981745871779650
 21
-176.714793274440130
  0
ARC
  8
0
  6
CONTINUOUS
 62
3
 10
242.581745871778650
 20
-155.314793274440490
 40
0.399999999999636
 50
270.000000000000000
 51
0.000000000000000
  0
LINE
  8
0
  6
CONTINUOUS
 62
3
 10
242.981745871778740
 20
-135.714793274440130
 11
242.981745871778740
 21
-155.314793274440490
  0
LINE
  8
0
  6
CONTINUOUS
 62
3
 10
186.041560618782850
 20
-155.714793274440130
 11
185.481752997647450
 21
-155.564793274440490
  0
LINE
  8
0
  6
CONTINUOUS
 62
3
 10
242.581745871778650
 20
-155.714793274440130
 11
186.041560618783310
 21
-155.714793274440130
  0
LINE
  8
0
  6
CONTINUOUS
 62
3
 10
182.981745871778740
 20
-135.714793274440130
 11
182.981745871778740
 21
-157.814793274440490
  0
LINE
  8
0
  6
CONTINUOUS
 62
3
 10
182.581745871778650
 20
-158.214793274440130
 11
182.981745871778740
 21
-157.814793274440490
  0
LINE
  8
0
  6
CONTINUOUS
 62
3
 10
185.481752997647450
 20
-155.564793274440490
 11
184.581745871778650
 21
-155.564793274440490
  0
ARC
  8
0
  6
CONTINUOUS
 62
3
 10
184.581745871778650
 20
-157.164793274439940
 40
1.599999999999454
 50
90.000000000000000
 51
180.000000000000000
  0
LINE
  8
0
  6
CONTINUOUS
 62
3
 10
186.041560618782850
 20
-115.714793274440120
 11
185.481752997647450
 21
-115.864793274440670
  0
LINE
  8
0
  6
CONTINUOUS
 62
3
 10
182.981745871778740
 20
-135.714793274440130
 11
182.981745871778740
 21
-113.614793274440670
  0
LINE
  8
0
  6
CONTINUOUS
 62
3
 10
182.581745871778650
 20
-113.214793274440120
 11
182.981745871778740
 21
-113.614793274440670
  0
LINE
  8
0
  6
CONTINUOUS
 62
3
 10
185.481752997647450
 20
-115.864793274440670
 11
184.581745871778650
 21
-115.864793274440670
  0
ARC
  8
0
  6
CONTINUOUS
 62
3
 10
184.581745871778650
 20
-114.264793274440300
 40
1.599999999999909
 50
180.000000000000000
 51
270.000000000000000
  0
LINE
  8
0
  6
CONTINUOUS
 62
3
 10
242.581745871778650
 20
-115.714793274440120
 11
186.041560618783310
 21
-115.714793274440120
  0
ARC
  8
0
  6
CONTINUOUS
 62
3
 10
242.581745871778650
 20
-116.114793274440670
 40
0.400000000000091
 50
0.000000000000000
 51
90.000000000000000
  0
LINE
  8
0
  6
CONTINUOUS
 62
3
 10
182.581745871778650
 20
-113.214793274440120
 11
180.981745871779650
 21
-113.214793274440120
  0
LINE
  8
0
  6
CONTINUOUS
 62
3
 10
182.581745871778650
 20
-158.214793274440130
 11
180.981745871779650
 21
-158.214793274440130
  0
LINE
  8
0
  6
CONTINUOUS
 62
3
 10
242.981745871778740
 20
-135.714793274440130
 11
242.981745871778740
 21
-116.114793274440670
  0
LINE
  8
0
  6
DASHDOT
 62
4
 10
260.883791213716900
 20
-135.714793274440130
 11
111.318687145474370
 21
-135.714793274440130
  0
LINE
  8
0
  6
CONTINUOUS
 62
3
 10
430.559502103744310
 20
-25.714793274440126
 11
430.559502103744310
 21
-51.135220033099358
  0
ARC
  8
0
  6
CONTINUOUS
 62
3
 10
420.559502103744310
 20
-25.714793274440126
 40
10.000000000000000
 50
0.000000000000000
 51
90.000000000000000
  0
LINE
  8
0
  6
CONTINUOUS
 62
3
 10
420.559502103744310
 20
-15.714793274440126
 11
399.559502103744310
 21
-15.714793274440126
  0
ARC
  8
0
  6
CONTINUOUS
 62
3
 10
399.559502103744310
 20
-25.714793274440126
 40
10.000000000000000
 50
90.000000000000000
 51
180.000000000000000
  0
LINE
  8
0
  6
DASHDOT
 62
4
 10
433.227415102625860
 20
-35.714793274440126
 11
386.204901201091160
 21
-35.714793274440126
  0
CIRCLE
  8
0
  6
CONTINUOUS
 62
3
 10
410.059502103744310
 20
-35.714793274440126
 40
10.000000000000000
  0
LINE
  8
0
  6
CONTINUOUS
 62
3
 10
389.559502103744310
 20
-25.714793274440126
 11
389.559502103744310
 21
-51.135220033099358
  0
ARC
  8
0
  6
CONTINUOUS
 62
3
 10
410.059502103744310
 20
-550.714793274440130
 40
500.000000000000230
 50
85.577622414021945
 51
90.000000000000000
  0
ARC
  8
0
  6
CONTINUOUS
 62
3
 10
410.059502103744310
 20
-550.714793274440130
 40
500.000000000000000
 50
90.000000000000000
 51
94.422377585978055
  0
LINE
  8
0
  6
CONTINUOUS
 62
3
 10
410.059502103744310
 20
-258.714796338296760
 11
532.059505217420340
 21
-258.714796338296760
  0
LINE
  8
0
  6
CONTINUOUS
 62
3
 10
410.059502103744310
 20
-277.714796761756590
 11
469.918076971376650
 21
-277.714796761756590
  0
LINE
  8
0
  6
CONTINUOUS
 62
3
 10
535.059505217420340
 20
-280.714796886303700
 11
535.059505217420340
 21
-261.714796338296760
  0
LINE
  8
0
  6
CONTINUOUS
 62
3
 10
490.059504096497220
 20
-280.714796886303700
 11
535.059505217420340
 21
-280.714796886303700
  0
LINE
  8
0
  6
DASHDOT
 62
4
 10
517.559504781504980
 20
-288.539255577915360
 11
517.559504781504980
 21
-253.001218377442460
  0
LINE
  8
0
  6
CONTINUOUS
 62
3
 10
410.059502103744310
 20
-258.714796338296760
 11
288.059498990068730
 21
-258.714796338296760
  0
LINE
  8
0
  6
CONTINUOUS
 62
3
 10
330.059500110991850
 20
-280.714796886303700
 11
285.059498990068730
 21
-280.714796886303700
  0
LINE
  8
0
  6
DASHDOT
 62
4
 10
302.559499425983180
 20
-288.539255577915360
 11
302.559499425983180
 21
-253.001218377442460
  0
LINE
  8
0
  6
CONTINUOUS
 62
3
 10
410.059502103744310
 20
-277.714796761756590
 11
350.200927236111970
 21
-277.714796761756590
  0
ARC
  8
0
  6
CONTINUOUS
 62
3
 10
532.059505217420340
 20
-261.714796338296760
 40
3.000000000000000
 50
0.000000000000000
 51
90.000000000000000
  0
LINE
  8
0
  6
CONTINUOUS
 62
3
 10
527.059502103745220
 20
-255.714796338296760
 11
527.059502103745220
 21
-136.950367544049190
  0
ARC
  8
0
  6
CONTINUOUS
 62
3
 10
498.183086792602810
 20
-255.714796338296760
 40
3.000000000000000
 50
180.000000000000000
 51
270.000000000000000
  0
ARC
  8
0
  6
CONTINUOUS
 62
3
 10
530.059502103745220
 20
-255.714796338296760
 40
3.000000000000000
 50
180.000000000000000
 51
270.000000000000000
  0
ARC
  8
0
  6
CONTINUOUS
 62
3
 10
524.583086792603350
 20
-255.714796338296760
 40
3.000000000000000
 50
180.000000000000000
 51
270.000000000000000
  0
ARC
  8
0
  6
CONTINUOUS
 62
3
 10
295.535917414885260
 20
-255.714796338296760
 40
3.000000000000000
 50
270.000000000000000
 51
0.000000000000000
  0
ARC
  8
0
  6
CONTINUOUS
 62
3
 10
321.935917414885350
 20
-255.714796338296760
 40
3.000000000000000
 50
270.000000000000000
 51
0.000000000000000
  0
LINE
  8
0
  6
CONTINUOUS
 62
3
 10
471.059506753502320
 20
-278.714796886303700
 11
488.059504096497220
 21
-278.714796886303700
  0
ARC
  8
0
  6
CONTINUOUS
 62
3
 10
477.059502103744310
 20
-270.714793398987240
 40
9.999999999999833
 50
224.427031979601790
 51
233.130135655587680
  0
LINE
  8
0
  6
CONTINUOUS
 62
3
 10
349.059497453986300
 20
-278.714796886303700
 11
332.059500110991850
 21
-278.714796886303700
  0
ARC
  8
0
  6
CONTINUOUS
 62
3
 10
343.059502103744310
 20
-270.714793398987240
 40
10.000000000000053
 50
306.869864344412290
 51
315.572968020398260
  0
ARC
  8
0
  6
CONTINUOUS
 62
3
 10
488.059504096497220
 20
-280.714796886303700
 40
2.000000000000000
 50
0.000000000000000
 51
90.000000000000000
  0
ARC
  8
0
  6
CONTINUOUS
 62
3
 10
332.059500110991850
 20
-280.714796886303700
 40
2.000000000000000
 50
90.000000000000000
 51
180.000000000000000
  0
ARC
  8
0
  6
CONTINUOUS
 62
3
 10
492.577514528130450
 20
-255.714796338296760
 40
3.000000000000000
 50
180.000000000000000
 51
270.000000000000000
  0
ARC
  8
0
  6
CONTINUOUS
 62
3
 10
327.541489679358620
 20
-255.714796338296760
 40
3.000000000000000
 50
270.000000000000000
 51
0.000000000000000
  0
LINE
  8
0
  6
CONTINUOUS
 62
3
 10
410.059502103744310
 20
-251.014796338296950
 11
473.559502103744310
 21
-251.014796338296950
  0
ARC
  8
0
  6
CONTINUOUS
 62
3
 10
473.559502103744310
 20
-243.014796338296950
 40
8.000000000000000
 50
270.000000000000000
 51
0.000000000000000
  0
ARC
  8
0
  6
CONTINUOUS
 62
3
 10
346.559502103744310
 20
-243.014796338296950
 40
8.000000000000000
 50
180.000000000000000
 51
270.000000000000000
  0
LINE
  8
0
  6
CONTINUOUS
 62
3
 10
410.059502103744310
 20
-251.014796338296950
 11
346.559502103744310
 21
-251.014796338296950
  0
LINE
  8
0
  6
CONTINUOUS
 62
3
 10
285.059498990068730
 20
-280.714796886303700
 11
285.059498990068730
 21
-261.714796338296760
  0
ARC
  8
0
  6
CONTINUOUS
 62
3
 10
288.059498990068730
 20
-261.714796338296760
 40
3.000000000000000
 50
90.000000000000000
 51
180.000000000000000
  0
ARC
  8
0
  6
CONTINUOUS
 62
3
 10
290.059502103744310
 20
-255.714796338296760
 40
3.000000000000000
 50
270.000000000000000
 51
0.000000000000000
  0
CIRCLE
  8
0
  6
CONTINUOUS
 62
3
 10
410.059502103744310
 20
-135.714793274440130
 40
3.324999999999989
  0
CIRCLE
  8
0
  6
CONTINUOUS
 62
4
 10
410.059502103744310
 20
-135.714793274440130
 40
4.000000000000000
  0
ARC
  8
0
  6
CONTINUOUS
 62
3
 10
378.059502103744310
 20
-136.950367544049190
 40
84.999999999999972
 50
94.422377585978197
 51
180.000000000000000
  0
LINE
  8
0
  6
DASHDOT
 62
4
 10
410.059502103744310
 20
-291.209908898294090
 11
410.059502103744310
 21
-8.670562497038190
  0
LINE
  8
0
  6
CONTINUOUS
 62
3
 10
298.535917414885260
 20
-135.714793274440130
 11
298.535917414885260
 21
-255.714796338296760
  0
ARC
  8
0
  6
CONTINUOUS
 62
3
 10
410.059502103744310
 20
-135.714793274440130
 40
31.000000000000256
 50
70.008590721901967
 51
180.000000000000000
  0
ARC
  8
0
  6
CONTINUOUS
 62
3
 10
410.059502103744310
 20
-550.714793274440130
 40
462.518012424385230
 50
90.000000000000000
 51
94.422377585978083
  0
LINE
  8
0
  6
CONTINUOUS
 62
3
 10
293.059502103744310
 20
-255.714796338296760
 11
293.059502103744310
 21
-136.950367544049190
  0
ENDSEC
  0
EOF
