  0
SECTION
  2
HEADER
  9
$FILLMODE
 70
1
  9
$TEXTSTYLE
  7
STANDARD1
  9
$ACADVER
  1
AC1009
  9
$DIMASZ
 40
1.931851648807023
  9
$DIMEXE
 40
2.000000000000000
  9
$DIMEXO
 40
1.000000000000000
  9
$DIMLFAC
 40
1.000000000000000
  9
$DIMSCALE
 40
1.000000000000000
  9
$DIMTAD
 70
1
  9
$DIMTFAC
 40
0.714285731315613
  9
$DIMTXT
 40
2.799999952316284
  9
$LUPREC
 70
3
  9
$TEXTSIZE
 40
2.799999952316284
  9
$REGENMODE
 70
1
  0
ENDSEC
  0
SECTION
  2
TABLES
  0
TABLE
  2
LTYPE
 70
4
  0
LTYPE
  2
CONTINUOUS
 70
64
  3
Solid line
 72
65
 73
0
 40
0.0
  0
LTYPE
  2
DASHED
 70
64
  3
-- -- -- -- -- -- -- -- -- -- -- -- -- -- --
 72
65
 73
2
 40
0.75
 49
0.5
 49
-0.25
  0
LTYPE
  2
DASHDOT
 70
64
  3
__ . __ . __ . __ . __ . __ . __ . __ . __ . __
 72
65
 73
4
 40
1.0
 49
0.5
 49
-0.25
 49
0.0
 49
-0.25
  0
LTYPE
  2
DIVIDE
 70
64
  3
__ . . __ . . __ . . __ . . __ . . __ . . __
 72
65
 73
6
 40
1.25
 49
0.5
 49
-0.25
 49
0.0
 49
-0.25
 49
0.0
 49
-0.25
  0
ENDTAB
  0
TABLE
  2
LAYER
 70
1
  0
LAYER
  2
0
 70
64
 62
2
  6
CONTINUOUS
  0
ENDTAB
  0
TABLE
  2
STYLE
 70
4
  0
STYLE
  2
STANDARD1
 70
64
 40
0.0
 41
1.0
 50
0.0
 71
0
 42
2.799999952316284
  3
MONOTXT
  4
BIGFONT
  0
STYLE
  2
STANDARD2
 70
68
 40
0.0
 41
1.0
 50
0.0
 71
0
 42
2.799999952316284
  3
MONOTXT
  4
BIGFONT
  0
STYLE
  2
STANDARD3
 70
64
 40
0.0
 41
1.0
 50
0.0
 71
0
 42
2.799999952316284
  3
MONOTXT
  4

  0
STYLE
  2
STANDARD4
 70
68
 40
0.0
 41
1.0
 50
0.0
 71
0
 42
2.799999952316284
  3
MONOTXT
  4

  0
ENDTAB
  0
TABLE
  2
VIEW
 70
0
  0
ENDTAB
  0
ENDSEC
  0
SECTION
  2
BLOCKS
  0
BLOCK
  8
0
  2
SYM1
 70
64
 10
0.000000000000000
 20
0.000000000000000
  0
ARC
  8
0
  6
CONTINUOUS
 62
3
 10
-0.979025304317474
 20
-2.200000762939453
 40
1.299999237060547
 50
196.601531107481040
 51
270.000000000000000
  0
ARC
  8
0
  6
CONTINUOUS
 62
3
 10
-0.979025304317474
 20
2.200000762939453
 40
1.299999237060547
 50
90.000000000000000
 51
163.398451589674950
  0
LINE
  8
0
  6
CONTINUOUS
 62
3
 10
-0.000000000000000
 20
-3.500000000000000
 11
-0.979025304317474
 21
-3.500000000000000
  0
LINE
  8
0
  6
CONTINUOUS
 62
3
 10
0.000000000000000
 20
3.500000000000000
 11
-0.979025304317474
 21
3.500000000000000
  0
LINE
  8
0
  6
CONTINUOUS
 62
3
 10
0.000000000000000
 20
-3.500000000000000
 11
-0.000000000000000
 21
3.500000000000000
  0
LINE
  8
0
  6
CONTINUOUS
 62
3
 10
0.000000000000000
 20
-3.500000000000000
 11
-0.000000000000000
 21
3.500000000000000
  0
POINT
  8
0
  6
CONTINUOUS
 62
3
 10
0.000000000000000
 20
0.000000000000000
  0
ARC
  8
0
  6
CONTINUOUS
 62
3
 10
6.399999618530273
 20
0.000000000000000
 40
9.000000000000000
 50
163.398451589674950
 51
196.601531107481040
  0
ENDBLK
  8
0
  0
BLOCK
  8
0
  2
SYM2
 70
64
 10
0.000000000000000
 20
0.000000000000000
  0
LINE
  8
0
  6
CONTINUOUS
 62
3
 10
-0.000000000000000
 20
-5.000000000000000
 11
-6.000000000000000
 21
-5.000000000000000
  0
LINE
  8
0
  6
CONTINUOUS
 62
3
 10
0.000000000000000
 20
5.000000000000000
 11
-6.000000000000000
 21
5.000000000000000
  0
LINE
  8
0
  6
CONTINUOUS
 62
3
 10
-6.000000000000000
 20
-5.000000000000000
 11
-6.000000000000000
 21
5.000000000000000
  0
LINE
  8
0
  6
CONTINUOUS
 62
3
 10
0.000000000000000
 20
5.000000000000000
 11
0.000000000000000
 21
-5.000000000000000
  0
POINT
  8
0
  6
CONTINUOUS
 62
3
 10
0.000000000000000
 20
0.000000000000000
  0
ENDBLK
  8
0
  0
BLOCK
  8
0
  2
SYM3
 70
64
 10
0.000000000000000
 20
0.000000000000000
  0
ARC
  8
0
  6
CONTINUOUS
 62
3
 10
6.399999618530273
 20
0.000000000000000
 40
9.000000000000000
 50
163.398451589674950
 51
196.601531107481040
  0
POINT
  8
0
  6
CONTINUOUS
 62
3
 10
0.000000000000000
 20
0.000000000000000
  0
LINE
  8
0
  6
CONTINUOUS
 62
3
 10
0.000000000000000
 20
-3.500000000000000
 11
-0.000000000000000
 21
3.500000000000000
  0
LINE
  8
0
  6
CONTINUOUS
 62
3
 10
0.000000000000000
 20
-3.500000000000000
 11
-0.000000000000000
 21
3.500000000000000
  0
LINE
  8
0
  6
CONTINUOUS
 62
3
 10
0.000000000000000
 20
3.500000000000000
 11
-0.979025304317474
 21
3.500000000000000
  0
LINE
  8
0
  6
CONTINUOUS
 62
3
 10
-0.000000000000000
 20
-3.500000000000000
 11
-0.979025304317474
 21
-3.500000000000000
  0
ARC
  8
0
  6
CONTINUOUS
 62
3
 10
-0.979025304317474
 20
2.200000762939453
 40
1.299999237060547
 50
90.000000000000000
 51
163.398451589674950
  0
ARC
  8
0
  6
CONTINUOUS
 62
3
 10
-0.979025304317474
 20
-2.200000762939453
 40
1.299999237060547
 50
196.601531107481040
 51
270.000000000000000
  0
ENDBLK
  8
0
  0
ENDSEC
  0
SECTION
  2
ENTITIES
  0
LINE
  8
0
  6
CONTINUOUS
 62
3
 10
-369.292701914394340
 20
-147.610405519877390
 11
-369.779505306099960
 21
-148.097208911583010
  0
LINE
  8
0
  6
CONTINUOUS
 62
3
 10
-362.645898440980660
 20
-154.257208993291130
 11
-363.132701832686280
 21
-154.744012384996720
  0
LINE
  8
0
  6
CONTINUOUS
 62
3
 10
-369.605840523363160
 20
-147.862952470727780
 11
-362.928741220890230
 21
-154.540051773200700
  0
LINE
  8
0
  6
CONTINUOUS
 62
3
 10
-369.292701914394340
 20
-147.610405519877390
 11
-362.645898440980660
 21
-154.257208993291130
  0
POINT
  8
0
  6
CONTINUOUS
 62
3
 10
-365.969300177687500
 20
-150.933807256584260
  0
ARC
  8
0
  6
CONTINUOUS
 62
3
 10
-363.706558612760490
 20
-148.671065691657220
 40
6.099999427795398
 50
174.601910595264880
 51
275.398072101891500
  0
LINE
  8
0
  6
CONTINUOUS
 62
3
 10
-369.292701914394340
 20
-50.878197583817737
 11
-369.779505306099960
 21
-50.391394192112116
  0
LINE
  8
0
  6
CONTINUOUS
 62
3
 10
-362.645898440980660
 20
-44.231394110404025
 11
-363.132701832686280
 21
-43.744590718698404
  0
LINE
  8
0
  6
CONTINUOUS
 62
3
 10
-369.605840523363160
 20
-50.625650632967371
 11
-362.928741220890230
 21
-43.948551330494446
  0
LINE
  8
0
  6
CONTINUOUS
 62
3
 10
-369.292701914394340
 20
-50.878197583817737
 11
-362.645898440980660
 21
-44.231394110404025
  0
POINT
  8
0
  6
CONTINUOUS
 62
3
 10
-365.969300177687500
 20
-47.554795847110881
  0
ARC
  8
0
  6
CONTINUOUS
 62
3
 10
-363.706558612760490
 20
-49.817537412037915
 40
6.099999427795406
 50
84.601927898108471
 51
185.398089404735260
  0
LINE
  8
0
  6
CONTINUOUS
 62
3
 10
-259.266887031507510
 20
-50.878197583817737
 11
-258.780083639801890
 21
-50.391394192112116
  0
LINE
  8
0
  6
CONTINUOUS
 62
3
 10
-265.913690504921190
 20
-44.231394110404025
 11
-265.426887113215570
 21
-43.744590718698404
  0
LINE
  8
0
  6
CONTINUOUS
 62
3
 10
-258.953748422538690
 20
-50.625650632967371
 11
-265.630847725011620
 21
-43.948551330494446
  0
LINE
  8
0
  6
CONTINUOUS
 62
3
 10
-259.266887031507510
 20
-50.878197583817737
 11
-265.913690504921190
 21
-44.231394110404025
  0
POINT
  8
0
  6
CONTINUOUS
 62
3
 10
-262.590288768214350
 20
-47.554795847110881
  0
ARC
  8
0
  6
CONTINUOUS
 62
3
 10
-264.853030333141360
 20
-49.817537412037915
 40
6.099999427795398
 50
354.601910595264830
 51
95.398072101891529
  0
TEXT
  8
0
  6
CONTINUOUS
 62
3
 10
-355.707061767578120
 20
131.856597900390620
 40
10.295999526977539
  1
Ｓ０４７
 50
0.000002504478167
 41
0.984848625190477
  7
STANDARD1
  0
TEXT
  8
0
  6
CONTINUOUS
 62
3
 10
-355.707061767578120
 20
115.320594787597650
 40
10.295999526977539
  1
三菱ギヤードモートル
 50
0.000002504478167
 41
0.984848625190477
  7
STANDARD1
  0
TEXT
  8
0
  6
CONTINUOUS
 62
3
 10
-355.707061767578120
 20
98.784591674804688
 40
10.295999526977539
  1
ＧＭ－ＳＳ
 50
0.000002504478167
 41
0.984848625190477
  7
STANDARD1
  0
TEXT
  8
0
  6
CONTINUOUS
 62
3
 10
-355.707061767578120
 20
82.248596191406250
 40
10.295999526977539
  1
０．４ｋＷ
 50
0.000002504478167
 41
0.984848625190477
  7
STANDARD1
  0
TEXT
  8
0
  6
CONTINUOUS
 62
3
 10
-355.707061767578120
 20
65.712593078613281
 40
10.295999526977539
  1
１／４０,１／５０
 50
0.000002504478167
 41
0.965694827915001
  7
STANDARD1
  0
TEXT
  8
0
  6
CONTINUOUS
 62
3
 10
-355.707061767578120
 20
49.176593780517578
 40
10.295999526977539
  1
ＳＣＡＬＥ１／１
 50
0.000002504478167
 41
0.984848625190477
  7
STANDARD1
  0
LINE
  8
0
  6
CONTINUOUS
 62
3
 10
-356.779792088765820
 20
-156.300929906848470
 11
-356.779793042440130
 21
-159.187675359729330
  0
LINE
  8
0
  6
CONTINUOUS
 62
3
 10
-354.279788960825390
 20
-160.631048489569590
 11
-351.779796655781870
 21
-159.187673142825470
  0
LINE
  8
0
  6
CONTINUOUS
 62
3
 10
-356.779793824895020
 20
-159.187675526523490
 11
-354.279789475388500
 21
-160.631049103219370
  0
LINE
  8
0
  6
CONTINUOUS
 62
3
 10
-271.779796857136030
 20
-156.300929906848470
 11
-271.779795903461720
 21
-159.187675359729330
  0
LINE
  8
0
  6
CONTINUOUS
 62
3
 10
-274.279799985076350
 20
-160.631048489569590
 11
-276.779792290119990
 21
-159.187673142825470
  0
LINE
  8
0
  6
CONTINUOUS
 62
3
 10
-271.779795121006830
 20
-159.187675526523490
 11
-274.279799470513350
 21
-160.631049103219370
  0
LINE
  8
0
  6
CONTINUOUS
 62
3
 10
-314.279794472950930
 20
-162.244301551847460
 11
-280.629007022551150
 21
-162.244301551847460
  0
LINE
  8
0
  6
CONTINUOUS
 62
3
 10
-280.089269492262250
 20
-163.244301551847460
 11
-269.949667454028710
 21
-163.244301551847460
  0
LINE
  8
0
  6
CONTINUOUS
 62
3
 10
-314.279794472950930
 20
-162.244301551847460
 11
-347.930581923350700
 21
-162.244301551847460
  0
LINE
  8
0
  6
CONTINUOUS
 62
3
 10
-348.470319453639600
 20
-163.244301551847460
 11
-358.609921491873140
 21
-163.244301551847460
  0
ARC
  8
0
  6
CONTINUOUS
 62
3
 10
-314.279794472950930
 20
-433.244301551847460
 40
400.000000000000170
 50
86.642182578429313
 51
90.000000000000000
  0
ARC
  8
0
  6
CONTINUOUS
 62
3
 10
-314.279794472950930
 20
-433.244301551847460
 40
400.000000000000000
 50
90.000000000000000
 51
93.357817421570687
  0
ARC
  8
0
  6
CONTINUOUS
 62
3
 10
-355.529794472950930
 20
-39.455564207079192
 40
1.000000000000000
 50
0.000000000000000
 51
115.053819043254990
  0
ARC
  8
0
  6
CONTINUOUS
 62
3
 10
-341.029794472950930
 20
-35.245405959984964
 40
0.999999999999975
 50
97.328097969880389
 51
180.000000000000000
  0
ARC
  8
0
  6
CONTINUOUS
 62
3
 10
-287.529794472950930
 20
-35.245405959984964
 40
1.000000000000000
 50
0.000000000000000
 51
82.671902030119611
  0
ARC
  8
0
  6
CONTINUOUS
 62
3
 10
-273.029794472950930
 20
-39.455564207079192
 40
0.999999999999987
 50
64.946180956746389
 51
180.000000000000000
  0
ARC
  8
0
  6
CONTINUOUS
 62
3
 10
-274.279794472950930
 20
-157.744301551847570
 40
6.999999999999923
 50
308.213210701738890
 51
8.736046408089175
  0
ARC
  8
0
  6
CONTINUOUS
 62
3
 10
-280.629007022551150
 20
-161.244301551847460
 40
1.000000000000000
 50
270.000000000000000
 51
28.865727415011673
  0
ARC
  8
0
  6
CONTINUOUS
 62
3
 10
-274.279794472950930
 20
-157.744301551847510
 40
8.000000000000130
 50
214.228866327811460
 51
223.432536557788520
  0
ARC
  8
0
  6
CONTINUOUS
 62
3
 10
-347.930581923350700
 20
-161.244301551847460
 40
0.999999999999849
 50
151.134272584988340
 51
270.000000000000000
  0
ARC
  8
0
  6
CONTINUOUS
 62
3
 10
-354.279794472950930
 20
-157.744301551847510
 40
8.000000000000103
 50
316.567463442211480
 51
325.771133672188510
  0
ARC
  8
0
  6
CONTINUOUS
 62
3
 10
-354.279794472950930
 20
-157.744301551847570
 40
6.999999999999847
 50
171.263953591911300
 51
231.786789298261110
  0
LINE
  8
0
  6
CONTINUOUS
 62
3
 10
-362.779794472950930
 20
-163.744301551847460
 11
-386.779794472950930
 21
-163.744301551847460
  0
LINE
  8
0
  6
CONTINUOUS
 62
3
 10
-265.779794472950930
 20
-163.744301551847460
 11
-241.779794472950930
 21
-163.744301551847460
  0
LINE
  8
0
  6
CONTINUOUS
 62
3
 10
-314.279794472950930
 20
-162.244301551847460
 11
-347.665416195289480
 21
-162.244301551847460
  0
LINE
  8
0
  6
CONTINUOUS
 62
3
 10
-348.470319453639830
 20
-163.244301551847460
 11
-361.779794472950930
 21
-163.244301551847460
  0
LINE
  8
0
  6
CONTINUOUS
 62
3
 10
-376.318364933496010
 20
-139.244301551847460
 11
-381.779794472950930
 21
-139.244301551847460
  0
LINE
  8
0
  6
CONTINUOUS
 62
3
 10
-362.779794472950930
 20
-164.244301551847460
 11
-386.779794472950930
 21
-164.244301551847460
  0
LINE
  8
0
  6
CONTINUOUS
 62
3
 10
-362.779794472950930
 20
-164.244301551847460
 11
-362.779794472950930
 21
-155.648264709525620
  0
LINE
  8
0
  6
CONTINUOUS
 62
3
 10
-386.779794472950930
 20
-164.244301551847460
 11
-386.779794472950930
 21
-152.244301551847460
  0
LINE
  8
0
  6
DASHDOT
 62
4
 10
-376.802051095265140
 20
-167.824805320768520
 11
-376.802051095265140
 21
-148.302457145719700
  0
LINE
  8
0
  6
CONTINUOUS
 62
3
 10
-314.279794472950930
 20
-162.244301551847460
 11
-280.894172750612600
 21
-162.244301551847460
  0
LINE
  8
0
  6
CONTINUOUS
 62
3
 10
-280.089269492262250
 20
-163.244301551847460
 11
-266.779794472950930
 21
-163.244301551847460
  0
LINE
  8
0
  6
CONTINUOUS
 62
3
 10
-252.241224012405840
 20
-139.244301551847460
 11
-246.779794472950930
 21
-139.244301551847460
  0
LINE
  8
0
  6
CONTINUOUS
 62
3
 10
-265.779794472950930
 20
-164.244301551847460
 11
-241.779794472950930
 21
-164.244301551847460
  0
LINE
  8
0
  6
CONTINUOUS
 62
3
 10
-265.779794472950930
 20
-164.244301551847460
 11
-265.779794472950930
 21
-155.648264709525620
  0
LINE
  8
0
  6
CONTINUOUS
 62
3
 10
-241.779794472950930
 20
-164.244301551847460
 11
-241.779794472950930
 21
-152.244301551847460
  0
LINE
  8
0
  6
DASHDOT
 62
4
 10
-251.757537850636710
 20
-167.824805320768520
 11
-251.757537850636710
 21
-148.302457145719700
  0
ARC
  8
0
  6
CONTINUOUS
 62
3
 10
-314.279794472950930
 20
-433.244301551847460
 40
400.000000000000000
 50
90.000000000000000
 51
93.357817421570687
  0
ARC
  8
0
  6
CONTINUOUS
 62
3
 10
-314.279794472950930
 20
-433.244301551847460
 40
400.000000000000170
 50
86.642182578429313
 51
90.000000000000000
  0
ARC
  8
0
  6
CONTINUOUS
 62
3
 10
-381.779794472950930
 20
-142.244301551847460
 40
3.000000000000000
 50
90.000000000000000
 51
180.000000000000000
  0
ARC
  8
0
  6
CONTINUOUS
 62
3
 10
-361.779794472950930
 20
-164.244301551847460
 40
1.000000000000000
 50
90.000000000000000
 51
180.000000000000000
  0
ARC
  8
0
  6
CONTINUOUS
 62
3
 10
-383.779794472950930
 20
-152.244301551847460
 40
3.000000000000000
 50
90.000000000000000
 51
180.000000000000000
  0
ARC
  8
0
  6
CONTINUOUS
 62
3
 10
-387.779794472950930
 20
-147.772165596847910
 40
3.000000000000029
 50
311.810314895778110
 51
0.000000000000000
  0
ARC
  8
0
  6
CONTINUOUS
 62
3
 10
-246.779794472950930
 20
-142.244301551847460
 40
3.000000000000000
 50
0.000000000000000
 51
90.000000000000000
  0
ARC
  8
0
  6
CONTINUOUS
 62
3
 10
-266.779794472950930
 20
-164.244301551847460
 40
1.000000000000000
 50
0.000000000000000
 51
90.000000000000000
  0
ARC
  8
0
  6
CONTINUOUS
 62
3
 10
-244.779794472950930
 20
-152.244301551847460
 40
3.000000000000000
 50
0.000000000000000
 51
90.000000000000000
  0
ARC
  8
0
  6
CONTINUOUS
 62
3
 10
-240.779794472950930
 20
-147.772165596847910
 40
3.000000000000000
 50
180.000000000000000
 51
228.189685104221890
  0
ARC
  8
0
  6
CONTINUOUS
 62
3
 10
-354.279794472950930
 20
-157.744301551847510
 40
7.000000000000081
 50
171.263953591911100
 51
231.786789298261400
  0
ARC
  8
0
  6
CONTINUOUS
 62
3
 10
-274.279794472951150
 20
-157.744301551847510
 40
7.000000000000107
 50
308.213210701740080
 51
8.736046408088891
  0
ARC
  8
0
  6
CONTINUOUS
 62
3
 10
-354.279794472950930
 20
-157.744301551847510
 40
7.999999999999938
 50
316.567463442210340
 51
325.771133672187600
  0
ARC
  8
0
  6
CONTINUOUS
 62
3
 10
-274.279794472951150
 20
-157.744301551847510
 40
7.999999999999941
 50
214.228866327812370
 51
223.432536557789660
  0
ARC
  8
0
  6
CONTINUOUS
 62
4
 10
-314.279794472950930
 20
-339.844301551847370
 40
289.396999999999930
 50
90.000000000000000
 51
97.897988672427743
  0
ARC
  8
0
  6
CONTINUOUS
 62
4
 10
-353.221312428333020
 20
-59.135524011260713
 40
5.999999999999923
 50
97.897988672425626
 51
134.999999999996930
  0
LINE
  8
0
  6
CONTINUOUS
 62
4
 10
-357.463953115452110
 20
-54.892883324141167
 11
-362.040018508090720
 21
-59.468948716779778
  0
ARC
  8
0
  6
CONTINUOUS
 62
4
 10
-78.679794472951016
 20
-99.244301551847457
 40
289.396999999999930
 50
173.948014641331470
 51
180.000000000000000
  0
LINE
  8
0
  6
CONTINUOUS
 62
3
 10
-250.934799532409900
 20
-130.744301551847460
 11
-250.779794472950930
 21
-130.744301551847460
  0
LINE
  8
0
  6
CONTINUOUS
 62
3
 10
-250.779794472950930
 20
-69.251802489580541
 11
-250.779794472950930
 21
-67.744301551847229
  0
LINE
  8
0
  6
CONTINUOUS
 62
3
 10
-250.779794472950930
 20
-130.744301551847460
 11
-250.779794472950930
 21
-129.236800614114140
  0
LINE
  8
0
  6
CONTINUOUS
 62
3
 10
-227.341025338969500
 20
-69.244301551847229
 11
-250.780546730667080
 21
-69.244301551847229
  0
LINE
  8
0
  6
CONTINUOUS
 62
3
 10
-250.934799532409900
 20
-67.744301551847229
 11
-250.779794472950930
 21
-67.744301551847229
  0
LINE
  8
0
  6
CONTINUOUS
 62
3
 10
-220.779794472950900
 20
-101.744301551847000
 11
-220.779794472950900
 21
-96.744301551847002
  0
LINE
  8
0
  6
CONTINUOUS
 62
3
 10
-220.779794472950900
 20
-101.744301551847000
 11
-221.290211320468610
 21
-101.744301551847000
  0
LINE
  8
0
  6
CONTINUOUS
 62
3
 10
-220.779794472950900
 20
-96.744301551847002
 11
-221.290211320468610
 21
-96.744301551847002
  0
ARC
  8
0
  6
CONTINUOUS
 62
3
 10
-521.279794472950930
 20
-99.244301551847002
 40
300.000000000000000
 50
0.000000000000000
 51
4.861405395797992
  0
ARC
  8
0
  6
CONTINUOUS
 62
3
 10
-227.341025338969500
 20
-74.244301551847229
 40
5.000000000000119
 50
4.861405395798401
 51
90.000000000000000
  0
ARC
  8
0
  6
CONTINUOUS
 62
3
 10
-227.341025338969500
 20
-124.244301551847000
 40
5.000000000000000
 50
270.000000000000000
 51
355.138594604199000
  0
LINE
  8
0
  6
CONTINUOUS
 62
3
 10
-227.341025338969500
 20
-129.244301551847000
 11
-250.779794472950930
 21
-129.244301551847000
  0
ARC
  8
0
  6
CONTINUOUS
 62
3
 10
-521.279794472950930
 20
-99.244301551847002
 40
300.000000000000170
 50
355.138594604201900
 51
0.000000000000000
  0
ARC
  8
0
  6
CONTINUOUS
 62
3
 10
-358.228381903233410
 20
-49.147687084319159
 40
6.599999999999971
 50
98.597082237248614
 51
134.999999999998610
  0
ARC
  8
0
  6
CONTINUOUS
 62
3
 10
-318.279794472950930
 20
-70.521488319157015
 40
1.499999999999998
 50
277.928141766204020
 51
0.000000000000000
  0
ARC
  8
0
  6
CONTINUOUS
 62
3
 10
-314.279794472950470
 20
-99.244301551847457
 40
33.499999999999950
 50
97.180755781459069
 51
142.819244218541740
  0
ARC
  8
0
  6
CONTINUOUS
 62
3
 10
-314.279794472950470
 20
-99.244301551847457
 40
43.000000000000043
 50
95.531071524839788
 51
144.468928475160770
  0
ARC
  8
0
  6
CONTINUOUS
 62
3
 10
-314.279794472950470
 20
-99.244301551847457
 40
37.000000000000099
 50
95.963570118321798
 51
144.036429881678830
  0
ARC
  8
0
  6
CONTINUOUS
 62
3
 10
-337.154480400616650
 20
-81.418793320364330
 40
1.499999999999926
 50
239.999999999998410
 51
322.071858233800300
  0
ARC
  8
0
  6
CONTINUOUS
 62
3
 10
-339.775248642685480
 20
-79.905692070322175
 40
1.500000000000103
 50
142.819244218542510
 51
239.999999999998410
  0
ARC
  8
0
  6
CONTINUOUS
 62
3
 10
-345.441330927101720
 20
-76.634377938163880
 40
1.500000000000123
 50
240.000000000002730
 51
324.036429881683720
  0
LINE
  8
0
  6
CONTINUOUS
 62
3
 10
-337.904480400616650
 20
-82.717831426040902
 11
-340.525248642685480
 21
-81.204730175998748
  0
LINE
  8
0
  6
CONTINUOUS
 62
3
 10
-346.191330927101720
 20
-77.933416043840680
 11
-348.802514526085820
 21
-76.425848490063572
  0
ARC
  8
0
  6
CONTINUOUS
 62
3
 10
-348.052514526085820
 20
-75.126810384386772
 40
1.499999999999976
 50
144.468928475160790
 51
240.000000000002730
  0
ARC
  8
0
  6
CONTINUOUS
 62
3
 10
-343.775248642685940
 20
-111.654707803097150
 40
1.500000000000157
 50
202.819244218546660
 51
300.000000000001590
  0
LINE
  8
0
  6
CONTINUOUS
 62
3
 10
-343.025248642685940
 20
-112.953745908773720
 11
-340.404480400616650
 21
-111.440644658731790
  0
ARC
  8
0
  6
CONTINUOUS
 62
3
 10
-349.441330927102170
 20
-114.926021935255440
 40
1.499999999999926
 50
300.000000000001590
 51
24.036429881677126
  0
LINE
  8
0
  6
CONTINUOUS
 62
3
 10
-351.302514526086270
 20
-117.732627594709350
 11
-348.691330927102170
 21
-116.225060040932020
  0
ARC
  8
0
  6
CONTINUOUS
 62
3
 10
-352.052514526086270
 20
-116.433589489032320
 40
1.500000000000128
 50
204.468928475167470
 51
299.999999999992950
  0
ARC
  8
0
  6
CONTINUOUS
 62
3
 10
-341.154480400616650
 20
-110.141606553054770
 40
1.500000000000320
 50
299.999999999992950
 51
22.071858233784546
  0
ARC
  8
0
  6
CONTINUOUS
 62
3
 10
-314.279794472950700
 20
-99.244301551847911
 40
33.499999999999794
 50
157.180755781458400
 51
202.819244218540940
  0
ARC
  8
0
  6
CONTINUOUS
 62
3
 10
-314.279794472950700
 20
-99.244301551847911
 40
43.000000000000121
 50
155.531071524839230
 51
204.468928475160200
  0
ARC
  8
0
  6
CONTINUOUS
 62
3
 10
-314.279794472950700
 20
-99.244301551847911
 40
37.000000000000156
 50
155.963570118321120
 51
204.036429881678230
  0
ARC
  8
0
  6
CONTINUOUS
 62
3
 10
-314.279794472951380
 20
-99.244301551847457
 40
27.499999999999886
 50
157.928141766202200
 51
202.071858233798680
  0
ARC
  8
0
  6
CONTINUOUS
 62
3
 10
-341.154480400616880
 20
-88.346996550640142
 40
1.500000000000110
 50
337.928141766202600
 51
59.999999999998380
  0
ARC
  8
0
  6
CONTINUOUS
 62
3
 10
-343.775248642685710
 20
-86.833895300598215
 40
1.500000000000123
 50
60.000000000002721
 51
157.180755781457980
  0
ARC
  8
0
  6
CONTINUOUS
 62
3
 10
-349.441330927101940
 20
-83.562581168439920
 40
1.499999999999855
 50
335.963570118319300
 51
59.999999999990862
  0
LINE
  8
0
  6
CONTINUOUS
 62
3
 10
-340.404480400616880
 20
-87.047958444963569
 11
-343.025248642685710
 21
-85.534857194921415
  0
LINE
  8
0
  6
CONTINUOUS
 62
3
 10
-348.691330927101720
 20
-82.263543062763347
 11
-351.302514526086270
 21
-80.755975508986239
  0
ARC
  8
0
  6
CONTINUOUS
 62
3
 10
-352.052514526086270
 20
-82.055013614662812
 40
1.499999999999926
 50
59.999999999998380
 51
155.531071524840400
  0
ARC
  8
0
  6
CONTINUOUS
 62
3
 10
-339.775248642685940
 20
-118.582911033372510
 40
1.499999999999926
 50
120.000000000001620
 51
217.180755781464400
  0
LINE
  8
0
  6
CONTINUOUS
 62
3
 10
-340.525248642685940
 20
-117.283872927695930
 11
-337.904480400616650
 21
-115.770771677653550
  0
ARC
  8
0
  6
CONTINUOUS
 62
3
 10
-345.441330927102170
 20
-121.854225165530800
 40
1.499999999999968
 50
35.963570118309242
 51
120.000000000001620
  0
LINE
  8
0
  6
CONTINUOUS
 62
3
 10
-348.802514526086270
 20
-122.062754613631560
 11
-346.191330927102170
 21
-120.555187059854230
  0
ARC
  8
0
  6
CONTINUOUS
 62
3
 10
-348.052514526086270
 20
-123.361792719308140
 40
1.499999999999926
 50
120.000000000001620
 51
215.531071524832130
  0
ARC
  8
0
  6
CONTINUOUS
 62
3
 10
-337.154480400616650
 20
-117.069809783330580
 40
1.500000000000122
 50
37.928141766218701
 51
119.999999999992930
  0
ARC
  8
0
  6
CONTINUOUS
 62
3
 10
-314.279794472951150
 20
-99.244301551847002
 40
33.500000000000163
 50
217.180755781459110
 51
262.819244218541770
  0
ARC
  8
0
  6
CONTINUOUS
 62
3
 10
-314.279794472951150
 20
-99.244301551847002
 40
42.999999999999858
 50
215.531071524839690
 51
264.468928475160850
  0
ARC
  8
0
  6
CONTINUOUS
 62
3
 10
-314.279794472951150
 20
-99.244301551847002
 40
37.000000000000021
 50
215.963570118321970
 51
264.036429881678940
  0
ARC
  8
0
  6
CONTINUOUS
 62
3
 10
-314.279794472951150
 20
-99.244301551847911
 40
27.499999999999780
 50
217.928141766201070
 51
262.071858233797400
  0
ARC
  8
0
  6
CONTINUOUS
 62
3
 10
-318.279794472951150
 20
-127.967114784537890
 40
1.500000000000000
 50
0.000000000000000
 51
82.071858233804562
  0
ARC
  8
0
  6
CONTINUOUS
 62
3
 10
-318.279794472951150
 20
-130.993317284622210
 40
1.499999999999998
 50
262.819244218541710
 51
0.000000000000000
  0
ARC
  8
0
  6
CONTINUOUS
 62
3
 10
-318.279794472951150
 20
-137.535945548938800
 40
1.500000000000000
 50
0.000000000017370
 51
84.036429881682594
  0
LINE
  8
0
  6
CONTINUOUS
 62
3
 10
-316.779794472951150
 20
-127.967114784537890
 11
-316.779794472951150
 21
-130.993317284622210
  0
LINE
  8
0
  6
CONTINUOUS
 62
3
 10
-316.779794472951150
 20
-137.535945548938340
 11
-316.779794472951150
 21
-140.551080656492560
  0
ARC
  8
0
  6
CONTINUOUS
 62
3
 10
-318.279794472951150
 20
-140.551080656492560
 40
1.500000000000430
 50
264.468928475160000
 51
0.000000000000000
  0
ARC
  8
0
  6
CONTINUOUS
 62
3
 10
-288.784340303215910
 20
-118.582911033372510
 40
1.500000000000240
 50
322.819244218535570
 51
59.999999999998380
  0
LINE
  8
0
  6
CONTINUOUS
 62
3
 10
-288.034340303215910
 20
-117.283872927695930
 11
-290.655108545285200
 21
-115.770771677653550
  0
ARC
  8
0
  6
CONTINUOUS
 62
3
 10
-283.118258018799680
 20
-121.854225165530800
 40
1.499999999999926
 50
59.999999999998380
 51
144.036429881690740
  0
ARC
  8
0
  6
CONTINUOUS
 62
3
 10
-291.405108545285200
 20
-117.069809783330580
 40
1.500000000000320
 50
60.000000000007070
 51
142.071858233781280
  0
ARC
  8
0
  6
CONTINUOUS
 62
3
 10
-314.279794472950700
 20
-99.244301551847002
 40
33.500000000000114
 50
277.180755781458230
 51
322.819244218540860
  0
ARC
  8
0
  6
CONTINUOUS
 62
3
 10
-314.279794472950700
 20
-99.244301551847002
 40
43.000000000000199
 50
275.531071524838860
 51
324.468928475160340
  0
ARC
  8
0
  6
CONTINUOUS
 62
3
 10
-314.279794472950700
 20
-99.244301551847002
 40
37.000000000000028
 50
275.963570118320770
 51
324.036429881678030
  0
ARC
  8
0
  6
CONTINUOUS
 62
3
 10
-314.279794472950700
 20
-99.244301551847911
 40
27.499999999999879
 50
277.928141766202600
 51
322.071858233798930
  0
ARC
  8
0
  6
CONTINUOUS
 62
3
 10
-310.279794472950700
 20
-127.967114784537890
 40
1.499999999999967
 50
97.928141766195438
 51
180.000000000000000
  0
ARC
  8
0
  6
CONTINUOUS
 62
3
 10
-310.279794472950700
 20
-130.993317284622210
 40
1.500000000000000
 50
180.000000000000000
 51
277.180755781458290
  0
ARC
  8
0
  6
CONTINUOUS
 62
3
 10
-310.279794472950700
 20
-137.535945548938800
 40
1.500000000000182
 50
95.963570118326047
 51
179.999999999982630
  0
LINE
  8
0
  6
CONTINUOUS
 62
3
 10
-311.779794472950700
 20
-127.967114784537890
 11
-311.779794472950700
 21
-130.993317284622210
  0
LINE
  8
0
  6
CONTINUOUS
 62
3
 10
-311.779794472950700
 20
-137.535945548938340
 11
-311.779794472950700
 21
-140.551080656492560
  0
ARC
  8
0
  6
CONTINUOUS
 62
3
 10
-310.279794472950700
 20
-140.551080656492560
 40
1.500000000000000
 50
180.000000000000000
 51
275.531071524831360
  0
ARC
  8
0
  6
CONTINUOUS
 62
3
 10
-284.784340303215910
 20
-111.654707803097150
 40
1.499999999999926
 50
239.999999999998410
 51
337.180755781453340
  0
LINE
  8
0
  6
CONTINUOUS
 62
3
 10
-285.534340303215910
 20
-112.953745908773720
 11
-288.155108545285200
 21
-111.440644658731790
  0
ARC
  8
0
  6
CONTINUOUS
 62
3
 10
-287.405108545285200
 20
-110.141606553054770
 40
1.499999999999899
 50
157.928141766199360
 51
240.000000000007050
  0
ARC
  8
0
  6
CONTINUOUS
 62
3
 10
-314.279794472951150
 20
-99.244301551847911
 40
33.500000000000128
 50
337.180755781459030
 51
22.819244218541968
  0
ARC
  8
0
  6
CONTINUOUS
 62
3
 10
-314.279794472950470
 20
-99.244301551847457
 40
27.499999999999886
 50
337.928141766202200
 51
22.071858233797812
  0
ARC
  8
0
  6
CONTINUOUS
 62
3
 10
-287.405108545284970
 20
-88.346996550640142
 40
1.499999999999926
 50
120.000000000001620
 51
202.071858233797370
  0
ARC
  8
0
  6
CONTINUOUS
 62
3
 10
-284.784340303216140
 20
-86.833895300598215
 40
1.499999999999948
 50
22.819244218550043
 51
119.999999999997270
  0
LINE
  8
0
  6
CONTINUOUS
 62
3
 10
-288.155108545284970
 20
-87.047958444963569
 11
-285.534340303216140
 21
-85.534857194921415
  0
ARC
  8
0
  6
CONTINUOUS
 62
3
 10
-314.279794472951380
 20
-99.244301551847457
 40
33.500000000000071
 50
37.180755781458259
 51
82.819244218540931
  0
ARC
  8
0
  6
CONTINUOUS
 62
3
 10
-314.279794472951380
 20
-99.244301551847457
 40
36.999999999999943
 50
35.963570118321194
 51
84.036429881678174
  0
ARC
  8
0
  6
CONTINUOUS
 62
3
 10
-283.118258018800130
 20
-76.634377938163880
 40
1.500000000000102
 50
215.963570118316280
 51
299.999999999997270
  0
ARC
  8
0
  6
CONTINUOUS
 62
3
 10
-288.784340303216370
 20
-79.905692070322175
 40
1.499999999999926
 50
300.000000000001590
 51
37.180755781457485
  0
ARC
  8
0
  6
CONTINUOUS
 62
3
 10
-314.279794472950700
 20
-99.244301551847002
 40
27.500000000000060
 50
37.928141766201819
 51
82.071858233798309
  0
ARC
  8
0
  6
CONTINUOUS
 62
3
 10
-310.279794472950930
 20
-70.521488319157015
 40
1.500000000000000
 50
180.000000000000000
 51
262.071858233795980
  0
LINE
  8
0
  6
CONTINUOUS
 62
3
 10
-290.655108545285200
 20
-82.717831426040902
 11
-288.034340303216370
 21
-81.204730175998748
  0
ARC
  8
0
  6
CONTINUOUS
 62
3
 10
-291.405108545285200
 20
-81.418793320364330
 40
1.499999999999843
 50
217.928141766204990
 51
300.000000000001590
  0
CIRCLE
  8
0
  6
CONTINUOUS
 62
3
 10
-314.279794472950930
 20
-99.244301551847002
 40
5.000000000000000
  0
ARC
  8
0
  6
CONTINUOUS
 62
3
 10
-308.342540539757010
 20
-91.197624241753601
 40
1.499999999999693
 50
233.578178478195410
 51
300.000000000001590
  0
ARC
  8
0
  6
CONTINUOUS
 62
3
 10
-310.279794472950930
 20
-90.079150161935104
 40
1.500000000000000
 50
180.000000000000000
 51
246.421821521804280
  0
ARC
  8
0
  6
CONTINUOUS
 62
3
 10
-297.104615203906180
 20
-84.709405023967065
 40
1.499999999999926
 50
300.000000000001590
 51
40.240348321182964
  0
ARC
  8
0
  6
CONTINUOUS
 62
3
 10
-310.279794472950930
 20
-86.874984674994039
 40
1.500000000000138
 50
72.079786860605225
 51
180.000000000000000
  0
ARC
  8
0
  6
CONTINUOUS
 62
3
 10
-310.279794472950930
 20
-80.158966867854815
 40
1.500000000000000
 50
180.000000000000000
 51
258.162995844103310
  0
ARC
  8
0
  6
CONTINUOUS
 62
3
 10
-299.751409796885130
 20
-86.237532594713230
 40
1.499999999999967
 50
221.837004155893280
 51
300.000000000001590
  0
ARC
  8
0
  6
CONTINUOUS
 62
3
 10
-310.279794472950930
 20
-77.102711726362486
 40
1.499999999999952
 50
79.759651678814024
 51
180.000000000000000
  0
ARC
  8
0
  6
CONTINUOUS
 62
3
 10
-305.567651830136580
 20
-89.595541498282728
 40
1.499999999999926
 50
300.000000000001590
 51
47.920213139381872
  0
LINE
  8
0
  6
CONTINUOUS
 62
3
 10
-299.001409796885130
 20
-87.536570700389802
 11
-296.354615203906180
 21
-86.008443129643638
  0
ARC
  8
0
  6
CONTINUOUS
 62
3
 10
-314.279794472950700
 20
-99.244301551847002
 40
14.499999999999860
 50
47.920213139391755
 51
72.079786860608309
  0
LINE
  8
0
  6
CONTINUOUS
 62
3
 10
-311.779794472950930
 20
-86.874984674994039
 11
-311.779794472950930
 21
-90.079150161935104
  0
LINE
  8
0
  6
CONTINUOUS
 62
3
 10
-311.779794472950930
 20
-77.102711726362486
 11
-311.779794472950930
 21
-80.158966867854815
  0
LINE
  8
0
  6
CONTINUOUS
 62
3
 10
-307.592540539757010
 20
-92.496662347430174
 11
-304.817651830136580
 21
-90.894579603959301
  0
ARC
  8
0
  6
CONTINUOUS
 62
3
 10
-314.279794472950700
 20
-99.244301551847002
 40
23.999999999999819
 50
40.240348321186090
 51
79.759651678814322
  0
ARC
  8
0
  6
CONTINUOUS
 62
3
 10
-314.279794472950700
 20
-99.244301551847002
 40
8.500000000000101
 50
53.578178478202659
 51
66.421821521799089
  0
ARC
  8
0
  6
CONTINUOUS
 62
3
 10
-301.567651830136580
 20
-101.964858375135910
 40
1.499999999999926
 50
239.999999999998410
 51
347.920213139390400
  0
LINE
  8
0
  6
CONTINUOUS
 62
3
 10
-302.317651830136580
 20
-103.263896480812490
 11
-305.092540539757010
 21
-101.661813737342070
  0
ARC
  8
0
  6
CONTINUOUS
 62
3
 10
-304.342540539757010
 20
-100.362775631665500
 40
1.500000000000099
 50
173.578178478198990
 51
239.999999999998410
  0
ARC
  8
0
  6
CONTINUOUS
 62
3
 10
-314.279794472950700
 20
-99.244301551847002
 40
8.499999999999865
 50
353.578178478199500
 51
6.421821521797448
  0
ARC
  8
0
  6
CONTINUOUS
 62
3
 10
-304.342540539757010
 20
-98.125827472028959
 40
1.499999999999926
 50
120.000000000001620
 51
186.421821521801010
  0
LINE
  8
0
  6
CONTINUOUS
 62
3
 10
-305.092540539757010
 20
-96.826789366352386
 11
-302.317651830136580
 21
-95.224706622881513
  0
ARC
  8
0
  6
CONTINUOUS
 62
3
 10
-301.567651830136580
 20
-96.523744728558086
 40
1.500000000000192
 50
12.079786860592611
 51
120.000000000001620
  0
ARC
  8
0
  6
CONTINUOUS
 62
3
 10
-314.279794472950700
 20
-99.244301551847002
 40
14.500000000000169
 50
347.920213139391310
 51
12.079786860606980
  0
ARC
  8
0
  6
CONTINUOUS
 62
3
 10
-293.104615203906180
 20
-106.850994849451580
 40
1.499999999999926
 50
239.999999999998410
 51
340.240348321188210
  0
LINE
  8
0
  6
CONTINUOUS
 62
3
 10
-293.854615203906180
 20
-108.150032955128150
 11
-296.501409796885130
 21
-106.621905384382440
  0
ARC
  8
0
  6
CONTINUOUS
 62
3
 10
-295.751409796885130
 20
-105.322867278705410
 40
1.500000000000038
 50
161.837004155895410
 51
240.000000000007050
  0
ARC
  8
0
  6
CONTINUOUS
 62
3
 10
-314.279794472950700
 20
-99.244301551847002
 40
17.999999999999943
 50
341.837004155893340
 51
18.162995844106646
  0
ARC
  8
0
  6
CONTINUOUS
 62
3
 10
-295.751409796885130
 20
-93.165735824988587
 40
1.499999999999926
 50
120.000000000001620
 51
198.162995844104590
  0
LINE
  8
0
  6
CONTINUOUS
 62
3
 10
-296.501409796885130
 20
-91.866697719312015
 11
-293.854615203906180
 21
-90.338570148565850
  0
ARC
  8
0
  6
CONTINUOUS
 62
3
 10
-293.104615203906180
 20
-91.637608254242423
 40
1.500000000000246
 50
19.759651678811824
 51
120.000000000001620
  0
ARC
  8
0
  6
CONTINUOUS
 62
3
 10
-314.279794472950700
 20
-99.244301551847002
 40
24.000000000000139
 50
340.240348321186050
 51
19.759651678813924
  0
ARC
  8
0
  6
CONTINUOUS
 62
3
 10
-326.991937115765270
 20
-101.964858375135910
 40
1.500000000000287
 50
192.079786860609600
 51
300.000000000001590
  0
LINE
  8
0
  6
CONTINUOUS
 62
3
 10
-326.241937115765270
 20
-103.263896480812490
 11
-323.467048406144840
 21
-101.661813737342070
  0
ARC
  8
0
  6
CONTINUOUS
 62
3
 10
-324.217048406144840
 20
-100.362775631665500
 40
1.499999999999926
 50
300.000000000001590
 51
6.421821521801967
  0
ARC
  8
0
  6
CONTINUOUS
 62
3
 10
-314.279794472951380
 20
-99.244301551847002
 40
8.499999999999813
 50
173.578178478202550
 51
186.421821521800500
  0
ARC
  8
0
  6
CONTINUOUS
 62
3
 10
-324.217048406144840
 20
-98.125827472028959
 40
1.499999999999873
 50
353.578178478198030
 51
59.999999999998380
  0
LINE
  8
0
  6
CONTINUOUS
 62
3
 10
-323.467048406144840
 20
-96.826789366352386
 11
-326.241937115765500
 21
-95.224706622881513
  0
ARC
  8
0
  6
CONTINUOUS
 62
3
 10
-326.991937115765500
 20
-96.523744728558086
 40
1.499999999999926
 50
59.999999999998380
 51
167.920213139405550
  0
ARC
  8
0
  6
CONTINUOUS
 62
3
 10
-314.279794472951380
 20
-99.244301551847002
 40
14.499999999999851
 50
167.920213139392840
 51
192.079786860608920
  0
ARC
  8
0
  6
CONTINUOUS
 62
3
 10
-335.454973741995670
 20
-106.850994849451580
 40
1.500000000000246
 50
199.759651678811820
 51
300.000000000001590
  0
LINE
  8
0
  6
CONTINUOUS
 62
3
 10
-334.704973741995670
 20
-108.150032955128150
 11
-332.058179149016720
 21
-106.621905384382440
  0
ARC
  8
0
  6
CONTINUOUS
 62
3
 10
-332.808179149016720
 20
-105.322867278705410
 40
1.500000000000320
 50
299.999999999992950
 51
18.162995844104589
  0
ARC
  8
0
  6
CONTINUOUS
 62
3
 10
-314.279794472951380
 20
-99.244301551847002
 40
17.999999999999726
 50
161.837004155893140
 51
198.162995844106860
  0
ARC
  8
0
  6
CONTINUOUS
 62
3
 10
-332.808179149016720
 20
-93.165735824988587
 40
1.500000000000038
 50
341.837004155895390
 51
59.999999999998380
  0
LINE
  8
0
  6
CONTINUOUS
 62
3
 10
-332.058179149016720
 20
-91.866697719312015
 11
-334.704973741995900
 21
-90.338570148565850
  0
ARC
  8
0
  6
CONTINUOUS
 62
3
 10
-335.454973741995900
 20
-91.637608254242423
 40
1.499999999999926
 50
59.999999999998380
 51
160.240348321185250
  0
ARC
  8
0
  6
CONTINUOUS
 62
3
 10
-314.279794472951380
 20
-99.244301551847002
 40
23.999999999999925
 50
160.240348321185910
 51
199.759651678814090
  0
ARC
  8
0
  6
CONTINUOUS
 62
3
 10
-322.991937115765270
 20
-108.893061605411730
 40
1.500000000000320
 50
119.999999999992930
 51
227.920213139381870
  0
LINE
  8
0
  6
CONTINUOUS
 62
3
 10
-323.741937115765270
 20
-107.594023499734700
 11
-320.967048406144840
 21
-105.991940756264280
  0
ARC
  8
0
  6
CONTINUOUS
 62
3
 10
-320.217048406144840
 20
-107.290978861940850
 40
1.500000000000059
 50
53.578178478205707
 51
120.000000000001620
  0
ARC
  8
0
  6
CONTINUOUS
 62
3
 10
-314.279794472950930
 20
-99.244301551847457
 40
8.499999999999870
 50
233.578178478199590
 51
246.421821521797680
  0
ARC
  8
0
  6
CONTINUOUS
 62
3
 10
-318.279794472950930
 20
-108.409452941759350
 40
1.500000000000000
 50
0.000000000017370
 51
66.421821521804304
  0
LINE
  8
0
  6
CONTINUOUS
 62
3
 10
-316.779794472950930
 20
-108.409452941758900
 11
-316.779794472950930
 21
-111.613618428700190
  0
ARC
  8
0
  6
CONTINUOUS
 62
3
 10
-318.279794472950930
 20
-111.613618428700190
 40
1.500000000000355
 50
252.079786860607900
 51
0.000000000000000
  0
ARC
  8
0
  6
CONTINUOUS
 62
3
 10
-314.279794472950930
 20
-99.244301551847457
 40
14.500000000000011
 50
227.920213139391080
 51
252.079786860607410
  0
ARC
  8
0
  6
CONTINUOUS
 62
3
 10
-331.454973741995670
 20
-113.779198079727390
 40
1.499999999999926
 50
120.000000000001620
 51
220.240348321176330
  0
LINE
  8
0
  6
CONTINUOUS
 62
3
 10
-332.204973741995670
 20
-112.480159974050820
 11
-329.558179149016720
 21
-110.952032403304650
  0
ARC
  8
0
  6
CONTINUOUS
 62
3
 10
-328.808179149016720
 20
-112.251070508981220
 40
1.500000000000118
 50
41.837004155899741
 51
120.000000000001620
  0
ARC
  8
0
  6
CONTINUOUS
 62
3
 10
-314.279794472950930
 20
-99.244301551847457
 40
17.999999999999940
 50
221.837004155892320
 51
258.162995844106770
  0
ARC
  8
0
  6
CONTINUOUS
 62
3
 10
-318.279794472950930
 20
-118.329636235839640
 40
1.500000000000000
 50
0.000000000000000
 51
78.162995844101530
  0
LINE
  8
0
  6
CONTINUOUS
 62
3
 10
-316.779794472950930
 20
-118.329636235839640
 11
-316.779794472950930
 21
-121.385891377331970
  0
ARC
  8
0
  6
CONTINUOUS
 62
3
 10
-318.279794472950930
 20
-121.385891377331970
 40
1.499999999999728
 50
259.759651678812470
 51
0.000000000000000
  0
ARC
  8
0
  6
CONTINUOUS
 62
3
 10
-314.279794472950930
 20
-99.244301551847457
 40
23.999999999999844
 50
220.240348321185340
 51
259.759651678813730
  0
ARC
  8
0
  6
CONTINUOUS
 62
3
 10
-305.567651830136580
 20
-108.893061605411730
 40
1.499999999999944
 50
312.079786860618130
 51
60.000000000007070
  0
LINE
  8
0
  6
CONTINUOUS
 62
3
 10
-304.817651830136580
 20
-107.594023499734700
 11
-307.592540539757010
 21
-105.991940756264280
  0
ARC
  8
0
  6
CONTINUOUS
 62
3
 10
-308.342540539757010
 20
-107.290978861940850
 40
1.499999999999926
 50
59.999999999998380
 51
126.421821521801260
  0
ARC
  8
0
  6
CONTINUOUS
 62
3
 10
-314.279794472950930
 20
-99.244301551847457
 40
8.500000000000060
 50
293.578178478202350
 51
306.421821521799190
  0
ARC
  8
0
  6
CONTINUOUS
 62
3
 10
-310.279794472950930
 20
-108.409452941759350
 40
1.500000000000139
 50
113.578178478195690
 51
179.999999999982630
  0
LINE
  8
0
  6
CONTINUOUS
 62
3
 10
-311.779794472950930
 20
-108.409452941758900
 11
-311.779794472950930
 21
-111.613618428700190
  0
ARC
  8
0
  6
CONTINUOUS
 62
3
 10
-310.279794472950930
 20
-111.613618428700190
 40
1.500000000000000
 50
180.000000000000000
 51
287.920213139392100
  0
ARC
  8
0
  6
CONTINUOUS
 62
3
 10
-314.279794472950930
 20
-99.244301551847457
 40
14.500000000000121
 50
287.920213139392560
 51
312.079786860608860
  0
ARC
  8
0
  6
CONTINUOUS
 62
3
 10
-297.104615203906180
 20
-113.779198079727390
 40
1.499999999999828
 50
319.759651678823670
 51
59.999999999998380
  0
LINE
  8
0
  6
CONTINUOUS
 62
3
 10
-296.354615203906180
 20
-112.480159974050820
 11
-299.001409796885130
 21
-110.952032403304650
  0
ARC
  8
0
  6
CONTINUOUS
 62
3
 10
-299.751409796885130
 20
-112.251070508981220
 40
1.499999999999926
 50
59.999999999998380
 51
138.162995844100240
  0
ARC
  8
0
  6
CONTINUOUS
 62
3
 10
-314.279794472950930
 20
-99.244301551847457
 40
18.000000000000146
 50
281.837004155893230
 51
318.162995844107680
  0
ARC
  8
0
  6
CONTINUOUS
 62
3
 10
-310.279794472950930
 20
-118.329636235839640
 40
1.499999999999731
 50
101.837004155898450
 51
180.000000000000000
  0
LINE
  8
0
  6
CONTINUOUS
 62
3
 10
-311.779794472950930
 20
-118.329636235839640
 11
-311.779794472950930
 21
-121.385891377331970
  0
ARC
  8
0
  6
CONTINUOUS
 62
3
 10
-310.279794472950930
 20
-121.385891377331970
 40
1.500000000000000
 50
180.000000000000000
 51
280.240348321187530
  0
ARC
  8
0
  6
CONTINUOUS
 62
3
 10
-314.279794472950930
 20
-99.244301551847457
 40
23.999999999999716
 50
280.240348321186270
 51
319.759651678814690
  0
ARC
  8
0
  6
CONTINUOUS
 62
3
 10
-318.279794472950930
 20
-86.874984674994039
 40
1.500000000000000
 50
0.000000000000000
 51
107.920213139394770
  0
LINE
  8
0
  6
CONTINUOUS
 62
3
 10
-316.779794472950930
 20
-86.874984674994039
 11
-316.779794472950930
 21
-90.079150161935104
  0
ARC
  8
0
  6
CONTINUOUS
 62
3
 10
-318.279794472950930
 20
-90.079150161935104
 40
1.500000000000139
 50
293.578178478195700
 51
0.000000000000000
  0
ARC
  8
0
  6
CONTINUOUS
 62
3
 10
-314.279794472951380
 20
-99.244301551847002
 40
8.499999999999879
 50
113.578178478199500
 51
126.421821521797340
  0
ARC
  8
0
  6
CONTINUOUS
 62
3
 10
-320.217048406144840
 20
-91.197624241753601
 40
1.499999999999926
 50
239.999999999998410
 51
306.421821521797600
  0
LINE
  8
0
  6
CONTINUOUS
 62
3
 10
-320.967048406144840
 20
-92.496662347430174
 11
-323.741937115765500
 21
-90.894579603959301
  0
ARC
  8
0
  6
CONTINUOUS
 62
3
 10
-322.991937115765500
 20
-89.595541498282728
 40
1.499999999999792
 50
132.079786860611680
 51
239.999999999998410
  0
ARC
  8
0
  6
CONTINUOUS
 62
3
 10
-314.279794472951380
 20
-99.244301551847002
 40
14.499999999999980
 50
107.920213139390830
 51
132.079786860607560
  0
ARC
  8
0
  6
CONTINUOUS
 62
3
 10
-318.279794472950930
 20
-77.102711726362486
 40
1.500000000000000
 50
0.000000000000000
 51
100.240348321194510
  0
LINE
  8
0
  6
CONTINUOUS
 62
3
 10
-316.779794472950930
 20
-77.102711726362486
 11
-316.779794472950930
 21
-80.158966867854815
  0
ARC
  8
0
  6
CONTINUOUS
 62
3
 10
-318.279794472950930
 20
-80.158966867854815
 40
1.499999999999954
 50
281.837004155896690
 51
0.000000000000000
  0
ARC
  8
0
  6
CONTINUOUS
 62
3
 10
-314.279794472951380
 20
-99.244301551847002
 40
17.999999999999829
 50
101.837004155891980
 51
138.162995844106210
  0
ARC
  8
0
  6
CONTINUOUS
 62
3
 10
-328.808179149016720
 20
-86.237532594713230
 40
1.499999999999926
 50
239.999999999998410
 51
318.162995844106720
  0
LINE
  8
0
  6
CONTINUOUS
 62
3
 10
-329.558179149016720
 20
-87.536570700389802
 11
-332.204973741995900
 21
-86.008443129643638
  0
ARC
  8
0
  6
CONTINUOUS
 62
3
 10
-331.454973741995900
 20
-84.709405023967065
 40
1.499999999999802
 50
139.759651678811420
 51
239.999999999998410
  0
ARC
  8
0
  6
CONTINUOUS
 62
3
 10
-314.279794472951380
 20
-99.244301551847002
 40
23.999999999999901
 50
100.240348321185670
 51
139.759651678813550
  0
ARC
  8
0
  6
CONTINUOUS
 62
3
 10
-318.279794472950930
 20
-67.495285819072478
 40
1.500000000000000
 50
0.000000000000000
 51
97.180755781458288
  0
LINE
  8
0
  6
CONTINUOUS
 62
3
 10
-316.779794472950930
 20
-67.495285819072478
 11
-316.779794472950930
 21
-70.521488319157015
  0
ARC
  8
0
  6
CONTINUOUS
 62
3
 10
-318.279794472950930
 20
-60.952657554755888
 40
1.499999999999933
 50
275.963570118318330
 51
0.000000000000000
  0
LINE
  8
0
  6
CONTINUOUS
 62
3
 10
-316.779794472950930
 20
-57.937522447201673
 11
-316.779794472950930
 21
-60.952657554755888
  0
LINE
  8
0
  6
CONTINUOUS
 62
3
 10
-279.757074419815580
 20
-122.062754613631560
 11
-282.368258018799680
 21
-120.555187059854230
  0
ARC
  8
0
  6
CONTINUOUS
 62
3
 10
-280.507074419815580
 20
-123.361792719308140
 40
1.499999999999844
 50
324.468928475167900
 51
59.999999999998380
  0
ARC
  8
0
  6
CONTINUOUS
 62
3
 10
-279.118258018799680
 20
-114.926021935255440
 40
1.500000000000063
 50
155.963570118322880
 51
239.999999999998410
  0
LINE
  8
0
  6
CONTINUOUS
 62
3
 10
-277.257074419815580
 20
-117.732627594709350
 11
-279.868258018799680
 21
-116.225060040932020
  0
ARC
  8
0
  6
CONTINUOUS
 62
3
 10
-276.507074419815580
 20
-116.433589489032320
 40
1.500000000000320
 50
240.000000000007050
 51
335.531071524832500
  0
ARC
  8
0
  6
CONTINUOUS
 62
3
 10
-314.279794472951150
 20
-99.244301551847911
 40
42.999999999999936
 50
335.531071524839770
 51
24.468928475160769
  0
ARC
  8
0
  6
CONTINUOUS
 62
3
 10
-314.279794472951150
 20
-99.244301551847911
 40
36.999999999999972
 50
335.963570118321740
 51
24.036429881678870
  0
ARC
  8
0
  6
CONTINUOUS
 62
3
 10
-279.118258018799910
 20
-83.562581168439920
 40
1.500000000000123
 50
119.999999999997270
 51
204.036429881680680
  0
LINE
  8
0
  6
CONTINUOUS
 62
3
 10
-279.868258018799910
 20
-82.263543062763119
 11
-277.257074419815580
 21
-80.755975508986012
  0
ARC
  8
0
  6
CONTINUOUS
 62
3
 10
-276.507074419815580
 20
-82.055013614662812
 40
1.500000000000034
 50
24.468928475159590
 51
119.999999999997270
  0
ARC
  8
0
  6
CONTINUOUS
 62
3
 10
-314.279794472951380
 20
-99.244301551847457
 40
42.999999999999908
 50
35.531071524839248
 51
84.468928475160212
  0
ARC
  8
0
  6
CONTINUOUS
 62
3
 10
-280.507074419816040
 20
-75.126810384386772
 40
1.500000000000123
 50
299.999999999997270
 51
35.531071524839192
  0
ARC
  8
0
  6
CONTINUOUS
 62
3
 10
-310.279794472950930
 20
-60.952657554755888
 40
1.500000000000000
 50
180.000000000000000
 51
264.036429881682580
  0
ARC
  8
0
  6
CONTINUOUS
 62
3
 10
-310.279794472950930
 20
-67.495285819072478
 40
1.499999999999998
 50
82.819244218541712
 51
180.000000000000000
  0
LINE
  8
0
  6
CONTINUOUS
 62
3
 10
-311.779794472950930
 20
-67.495285819072478
 11
-311.779794472950930
 21
-70.521488319157015
  0
LINE
  8
0
  6
CONTINUOUS
 62
3
 10
-282.368258018800130
 20
-77.933416043840680
 11
-279.757074419816040
 21
-76.425848490063572
  0
LINE
  8
0
  6
CONTINUOUS
 62
3
 10
-311.779794472950930
 20
-57.937522447201900
 11
-311.779794472950930
 21
-60.952657554755888
  0
ARC
  8
0
  6
CONTINUOUS
 62
3
 10
-314.279794472951150
 20
-99.244301551847002
 40
27.499999999999815
 50
97.928141766201691
 51
142.071858233797880
  0
ARC
  8
0
  6
CONTINUOUS
 62
3
 10
-314.279794472950700
 20
-99.244301551847002
 40
17.999999999999922
 50
41.837004155893325
 51
78.162995844107314
  0
ARC
  8
0
  6
CONTINUOUS
 62
3
 10
-318.279794472950930
 20
-57.937522447201673
 40
1.500000000000000
 50
0.000000000000000
 51
95.531071524841693
  0
ARC
  8
0
  6
CONTINUOUS
 62
3
 10
-310.279794472950930
 20
-57.937522447201900
 40
1.500000000000203
 50
84.468928475159132
 51
180.000000000000000
  0
LINE
  8
0
  6
CONTINUOUS
 62
3
 10
-362.895286659064600
 20
-154.007820775207160
 11
-369.961735777723790
 21
-146.941371656547520
  0
LINE
  8
0
  6
CONTINUOUS
 62
3
 10
-265.664302286837260
 20
-44.480782328487976
 11
-258.597853168178290
 21
-51.547231447146942
  0
ARC
  8
0
  6
CONTINUOUS
 62
3
 10
-78.679794472951016
 20
-99.244301551847457
 40
300.599999999999850
 50
173.948014641331500
 51
186.051985358668500
  0
ARC
  8
0
  6
CONTINUOUS
 62
3
 10
-314.279794472950930
 20
-339.844301551847370
 40
300.599999999999910
 50
90.000000000000000
 51
98.597082237249069
  0
ARC
  8
0
  6
CONTINUOUS
 62
3
 10
-314.279794472950930
 20
141.355698448152680
 40
300.600000000000140
 50
270.000000000000000
 51
278.597082237249080
  0
ARC
  8
0
  6
CONTINUOUS
 62
3
 10
-270.331207042668440
 20
-49.147687084319159
 40
6.600000000000118
 50
45.000000000001400
 51
81.402917762751386
  0
ARC
  8
0
  6
CONTINUOUS
 62
3
 10
-314.279794472950930
 20
-339.844301551847370
 40
300.599999999999800
 50
81.402917762750931
 51
90.000000000000000
  0
ARC
  8
0
  6
CONTINUOUS
 62
3
 10
-549.879794472950830
 20
-99.244301551847457
 40
300.600000000000080
 50
353.948014641331500
 51
6.051985358668499
  0
LINE
  8
0
  6
CONTINUOUS
 62
3
 10
-265.664302286837260
 20
-154.007820775207160
 11
-258.597853168177830
 21
-146.941371656547520
  0
ARC
  8
0
  6
CONTINUOUS
 62
3
 10
-270.331207042668440
 20
-149.340916019375980
 40
6.599999999999747
 50
278.597082237248910
 51
315.000000000000000
  0
ARC
  8
0
  6
CONTINUOUS
 62
3
 10
-314.279794472950930
 20
141.355698448152680
 40
300.600000000000020
 50
261.402917762750920
 51
270.000000000000000
  0
ARC
  8
0
  6
CONTINUOUS
 62
3
 10
-358.228381903233410
 20
-149.340916019375980
 40
6.599999999999957
 50
225.000000000000000
 51
261.402917762751090
  0
LINE
  8
0
  6
CONTINUOUS
 62
3
 10
-362.895286659064600
 20
-44.480782328487976
 11
-369.961735777723560
 21
-51.547231447146942
  0
ARC
  8
0
  6
CONTINUOUS
 62
3
 10
-277.406893547740540
 20
-70.356271826709190
 40
26.600000000000193
 50
6.051985358668552
 51
45.000000000000000
  0
ARC
  8
0
  6
CONTINUOUS
 62
3
 10
-351.152695398161310
 20
-70.356271826709190
 40
26.600000000000119
 50
135.000000000000000
 51
173.948014641331410
  0
ARC
  8
0
  6
CONTINUOUS
 62
3
 10
-351.152695398161310
 20
-128.132331276985720
 40
26.599999999999969
 50
186.051985358668590
 51
224.999999999998980
  0
ARC
  8
0
  6
CONTINUOUS
 62
3
 10
-277.406893547740310
 20
-128.132331276985720
 40
26.599999999999955
 50
315.000000000001020
 51
353.948014641331380
  0
ARC
  8
0
  6
CONTINUOUS
 62
4
 10
-351.152695398161310
 20
-70.356271826709190
 40
15.396999999999876
 50
135.000000000000000
 51
173.948014641331160
  0
ARC
  8
0
  6
CONTINUOUS
 62
4
 10
-549.879794472950830
 20
-99.244301551847457
 40
289.397000000000160
 50
0.000000000000000
 51
6.051985358668508
  0
ARC
  8
0
  6
CONTINUOUS
 62
4
 10
-277.406893547740310
 20
-70.356271826709190
 40
15.397000000000052
 50
6.051985358668849
 51
45.000000000000000
  0
LINE
  8
0
  6
CONTINUOUS
 62
4
 10
-271.095635830449510
 20
-54.892883324141167
 11
-266.519570437810900
 21
-59.468948716779778
  0
ARC
  8
0
  6
CONTINUOUS
 62
4
 10
-275.338276517568600
 20
-59.135524011260713
 40
6.000000000000049
 50
45.000000000003077
 51
82.102011327574374
  0
ARC
  8
0
  6
CONTINUOUS
 62
4
 10
-314.279794472950930
 20
-339.844301551847370
 40
289.396999999999820
 50
82.102011327572214
 51
90.000000000000000
  0
ARC
  8
0
  6
CONTINUOUS
 62
4
 10
-549.879794472950830
 20
-99.244301551847457
 40
289.397000000000160
 50
353.948014641331500
 51
0.000000000000000
  0
ARC
  8
0
  6
CONTINUOUS
 62
4
 10
-277.406893547740310
 20
-128.132331276985720
 40
15.396999999999876
 50
315.000000000000000
 51
353.948014641331160
  0
LINE
  8
0
  6
CONTINUOUS
 62
4
 10
-271.095635830449510
 20
-143.595719779553750
 11
-266.519570437810900
 21
-139.019654386915140
  0
ARC
  8
0
  6
CONTINUOUS
 62
4
 10
-275.338276517568600
 20
-139.353079092434200
 40
5.999999999999923
 50
277.897988672425640
 51
314.999999999996870
  0
ARC
  8
0
  6
CONTINUOUS
 62
4
 10
-314.279794472950930
 20
141.355698448152450
 40
289.396999999999930
 50
270.000000000000000
 51
277.897988672427800
  0
ARC
  8
0
  6
CONTINUOUS
 62
4
 10
-78.679794472950789
 20
-99.244301551847457
 40
289.397000000000160
 50
180.000000000000000
 51
186.051985358668500
  0
ARC
  8
0
  6
CONTINUOUS
 62
4
 10
-351.152695398161310
 20
-128.132331276985720
 40
15.397000000000052
 50
186.051985358668840
 51
225.000000000000000
  0
LINE
  8
0
  6
CONTINUOUS
 62
4
 10
-357.463953115452110
 20
-143.595719779553750
 11
-362.040018508090720
 21
-139.019654386915140
  0
ARC
  8
0
  6
CONTINUOUS
 62
4
 10
-353.221312428333020
 20
-139.353079092434200
 40
6.000000000000049
 50
225.000000000003070
 51
262.102011327574360
  0
ARC
  8
0
  6
CONTINUOUS
 62
4
 10
-314.279794472950700
 20
141.355698448152450
 40
289.396999999999820
 50
262.102011327572200
 51
270.000000000000000
  0
ARC
  8
0
  6
CONTINUOUS
 62
3
 10
-399.579794472950880
 20
-113.286801551847470
 40
20.800000000000082
 50
274.191726156007460
 51
354.952683218987430
  0
LINE
  8
0
  6
CONTINUOUS
 62
3
 10
-378.779794472950930
 20
-81.913692791622054
 11
-378.779794472950930
 21
-73.286801551847475
  0
ARC
  8
0
  6
CONTINUOUS
 62
3
 10
-397.579794472950880
 20
-73.286801551847475
 40
18.799999999999955
 50
0.000000000000000
 51
79.401214733933941
  0
ARC
  8
0
  6
CONTINUOUS
 62
3
 10
-399.579794472950880
 20
-113.286801551847470
 40
20.799999999999986
 50
174.275189547776620
 51
205.640070215894870
  0
ARC
  8
0
  6
CONTINUOUS
 62
3
 10
-399.579794472950880
 20
-113.286801551847470
 40
20.799999999999926
 50
205.640070215894870
 51
260.083463391769440
  0
ARC
  8
0
  6
CONTINUOUS
 62
3
 10
-399.579794472950880
 20
-113.286801551847470
 40
20.799999999999986
 50
174.275189547776620
 51
205.640070215894870
  0
ARC
  8
0
  6
CONTINUOUS
 62
3
 10
-393.754039838863950
 20
-52.841665174709760
 40
1.999999999999927
 50
177.137594773887290
 51
259.401214733934010
  0
ARC
  8
0
  6
CONTINUOUS
 62
3
 10
-399.347052936579760
 20
-52.562014519823947
 40
1.999999999999928
 50
274.873974813840960
 51
357.137594773887320
  0
ARC
  8
0
  6
CONTINUOUS
 62
3
 10
-397.913247206567350
 20
-136.025812528776780
 40
1.999999999999962
 50
94.191726156001650
 51
177.137594773887290
  0
LINE
  8
0
  6
CONTINUOUS
 62
3
 10
-396.081665964634110
 20
-43.324231385512235
 11
-401.175302892911080
 21
-145.196969951052320
  0
ARC
  8
0
  6
CONTINUOUS
 62
3
 10
-403.506260304283160
 20
-135.746161873890970
 40
2.000000000000154
 50
357.137594773887600
 51
80.083463391767268
  0
LINE
  8
0
  6
CONTINUOUS
 62
3
 10
-420.276053824571820
 20
-111.211988584266460
 11
-416.286028886915800
 21
-71.411489831149197
  0
ARC
  8
0
  6
CONTINUOUS
 62
3
 10
-397.579794472950880
 20
-73.286801551847475
 40
18.800000000000036
 50
94.873974813842736
 51
144.191373186504250
  0
ARC
  8
0
  6
CONTINUOUS
 62
3
 10
-397.579794472950880
 20
-73.286801551847475
 40
18.799999999999933
 50
144.191373186504250
 51
174.275189547776390
  0
LINE
  8
0
  6
CONTINUOUS
 62
3
 10
-396.880667835736400
 20
-43.284281291957086
 11
-395.282664093531820
 21
-43.364181479067270
  0
ARC
  8
0
  6
CONTINUOUS
 62
3
 10
-390.738341332630850
 20
-48.597643715737377
 40
9.000000000000060
 50
160.536063666407810
 51
193.739143184213500
  0
POINT
  8
0
  6
CONTINUOUS
 62
3
 10
-397.130355920455260
 20
-48.278042986346122
  0
LINE
  8
0
  6
CONTINUOUS
 62
3
 10
-396.955574261151700
 20
-44.782409800273740
 11
-397.305137579758820
 21
-51.773676172418618
  0
LINE
  8
0
  6
CONTINUOUS
 62
3
 10
-396.955574261151700
 20
-44.782409800273740
 11
-397.305137579758820
 21
-51.773676172418618
  0
LINE
  8
0
  6
CONTINUOUS
 62
3
 10
-397.305137579758820
 20
-51.773676172418618
 11
-398.282941392266590
 21
-51.724785981793275
  0
LINE
  8
0
  6
CONTINUOUS
 62
3
 10
-396.955574261151700
 20
-44.782409800273740
 11
-397.933378073659240
 21
-44.733519609648397
  0
ARC
  8
0
  6
CONTINUOUS
 62
3
 10
-398.218022528338910
 20
-50.426408703239645
 40
1.299999237060493
 50
193.739143184211430
 51
267.137612759980240
  0
ARC
  8
0
  6
CONTINUOUS
 62
3
 10
-397.998296937586930
 20
-46.031896888201913
 40
1.299999237060474
 50
87.137594090651831
 51
160.536063666412870
  0
LINE
  8
0
  6
CONTINUOUS
 62
3
 10
-396.880667835736400
 20
-43.284281291957086
 11
-401.974304764013370
 21
-145.157019857497060
  0
LINE
  8
0
  6
CONTINUOUS
 62
3
 10
-400.376301021808790
 20
-145.236920044608040
 11
-401.974304764013370
 21
-145.157019857497060
  0
LINE
  8
0
  6
CONTINUOUS
 62
3
 10
-395.282664093531820
 20
-43.364181479067270
 11
-400.376301021808790
 21
-145.236920044608040
  0
INSERT
  8
0
  2
SYM1
 10
-401.724616679294290
 20
-140.163258163107910
 41
1.000000000000000
 42
1.000000000000000
 43
1.000000000000000
 50
357.137594773886350
  0
LINE
  8
0
  6
CONTINUOUS
 62
3
 10
-243.779794472950930
 20
-147.772165596847910
 11
-243.779794472950930
 21
-129.244301551847000
  0
ARC
  8
0
  6
CONTINUOUS
 62
3
 10
-293.779794472950930
 20
-83.845174477952241
 40
50.000000000000036
 50
53.210972997734139
 51
86.642182578429427
  0
ARC
  8
0
  6
CONTINUOUS
 62
3
 10
-293.779794472950930
 20
-83.845174477952241
 40
49.999999999999957
 50
16.978776992020585
 51
46.053555941996024
  0
LINE
  8
0
  6
CONTINUOUS
 62
3
 10
-280.279789751743690
 20
-40.357552811491360
 11
-278.508356966225730
 21
-41.380293238110369
  0
LINE
  8
0
  6
CONTINUOUS
 62
3
 10
-280.279789690514240
 20
-40.357553291634076
 11
-281.463458497678740
 21
-41.040941307759624
  0
ARC
  8
0
  6
CONTINUOUS
 62
3
 10
-280.279794472950930
 20
-43.244301551847457
 40
4.999999999999924
 50
17.324497767505882
 51
149.596673703376070
  0
LINE
  8
0
  6
CONTINUOUS
 62
3
 10
-274.029794472950930
 20
-39.455564207079192
 11
-274.029794472950930
 21
-41.951204115871178
  0
LINE
  8
0
  6
CONTINUOUS
 62
3
 10
-286.529794472950930
 20
-35.245405959984964
 11
-286.529794472950930
 21
-40.527917937451775
  0
LINE
  8
0
  6
CONTINUOUS
 62
3
 10
-348.279799255387620
 20
-40.357553291634076
 11
-347.096130448223110
 21
-41.040941307759624
  0
LINE
  8
0
  6
CONTINUOUS
 62
3
 10
-348.279799194158160
 20
-40.357552811491360
 11
-350.051231979676120
 21
-41.380293238110369
  0
ARC
  8
0
  6
CONTINUOUS
 62
3
 10
-348.279794472950930
 20
-43.244301551847457
 40
5.000000000000032
 50
30.403326296623931
 51
162.675502232494100
  0
LINE
  8
0
  6
CONTINUOUS
 62
3
 10
-342.029794472950930
 20
-35.245405959984964
 11
-342.029794472950930
 21
-40.527917937451775
  0
LINE
  8
0
  6
CONTINUOUS
 62
3
 10
-354.529794472950930
 20
-39.455564207079192
 11
-354.529794472950930
 21
-41.951204115871178
  0
ARC
  8
0
  6
CONTINUOUS
 62
3
 10
-334.779794472950930
 20
-83.845174477952241
 40
50.000000000000185
 50
93.357817421570559
 51
126.789027002265860
  0
ARC
  8
0
  6
CONTINUOUS
 62
3
 10
-334.779794472950930
 20
-83.845174477952241
 40
49.999999999999957
 50
133.946444058003980
 51
157.335070973377470
  0
ARC
  8
0
  6
CONTINUOUS
 62
3
 10
-376.279794472950700
 20
-80.244301551847400
 40
8.000000000000055
 50
103.028386429423430
 51
108.291688906694120
  0
POINT
  8
0
  6
DASHDOT
 62
4
 10
-378.779794472950930
 20
-99.258032044973447
  0
POINT
  8
0
  6
DASHDOT
 62
4
 10
-378.779794472950930
 20
-99.258032044973447
  0
LINE
  8
0
  6
CONTINUOUS
 62
3
 10
-384.779794472950930
 20
-147.772165596847910
 11
-384.779794472950930
 21
-127.901862277003600
  0
LINE
  8
0
  6
CONTINUOUS
 62
3
 10
-381.840695583053390
 20
-124.147941941992370
 11
-377.615393452044710
 21
-130.833344953167800
  0
ARC
  8
0
  6
CONTINUOUS
 62
3
 10
-376.318364933496010
 20
-142.244301551847460
 40
2.999999999999956
 50
68.615550436502090
 51
90.000000000000000
  0
ARC
  8
0
  6
CONTINUOUS
 62
3
 10
-365.779794472950930
 20
-155.648264709525620
 40
3.000000000000000
 50
0.000000000000000
 51
20.745440867465728
  0
LINE
  8
0
  6
CONTINUOUS
 62
3
 10
-369.779563936955010
 20
-149.244301551847460
 11
-383.779794472950930
 21
-149.244301551847460
  0
ARC
  8
0
  6
CONTINUOUS
 62
3
 10
-367.128975346012340
 20
-155.769826712466910
 40
5.999999999999944
 50
351.263953591910710
 51
4.887340907919993
  0
LINE
  8
0
  6
CONTINUOUS
 62
3
 10
-351.779796857135470
 20
-159.187673196845420
 11
-351.779796100071050
 21
-156.896057419211840
  0
LINE
  8
0
  6
CONTINUOUS
 62
3
 10
-356.673955849750200
 20
-156.239824167961160
 11
-356.779792978949440
 21
-156.300929456038890
  0
ARC
  8
0
  6
CONTINUOUS
 62
3
 10
-354.279794472950930
 20
-157.744301551847510
 40
5.000000000000019
 50
158.399758328943590
 51
6.293159398580574
  0
ARC
  8
0
  6
CONTINUOUS
 62
3
 10
-354.279794472950930
 20
-157.744301551847510
 40
6.250000000000191
 50
331.134272584994330
 51
3.688916890120574
  0
ARC
  8
0
  6
CONTINUOUS
 62
3
 10
-274.279794472950930
 20
-157.744301551847510
 40
4.999999999999634
 50
173.706840601419430
 51
21.527615257751961
  0
LINE
  8
0
  6
CONTINUOUS
 62
3
 10
-276.779792088766380
 20
-159.187673196845420
 11
-276.779792845830800
 21
-156.896057419211840
  0
LINE
  8
0
  6
CONTINUOUS
 62
3
 10
-271.885633096151650
 20
-156.239824167961160
 11
-271.779795966952410
 21
-156.300929456038890
  0
ARC
  8
0
  6
CONTINUOUS
 62
3
 10
-261.430613599889510
 20
-155.769826712466910
 40
5.999999999999956
 50
175.112659092080010
 51
188.736046408088780
  0
ARC
  8
0
  6
CONTINUOUS
 62
3
 10
-274.279794472950930
 20
-157.744301551847510
 40
6.249999999999699
 50
176.311083109879410
 51
208.865727415005670
  0
ARC
  8
0
  6
CONTINUOUS
 62
3
 10
-262.779794472950930
 20
-155.648264709525620
 40
3.000000000000036
 50
159.254559132534270
 51
180.000000000000000
  0
ARC
  8
0
  6
CONTINUOUS
 62
3
 10
-252.241224012405840
 20
-142.244301551847460
 40
3.000000000000000
 50
90.000000000000000
 51
111.384449563493070
  0
LINE
  8
0
  6
CONTINUOUS
 62
3
 10
-249.939889776065570
 20
-129.244301551847000
 11
-250.779794472950930
 21
-130.573224600556100
  0
LINE
  8
0
  6
CONTINUOUS
 62
3
 10
-250.887918367000220
 20
-130.744301551847400
 11
-250.944417750636600
 21
-130.833696614680950
  0
LINE
  8
0
  6
CONTINUOUS
 62
3
 10
-259.266887031507510
 20
-147.610405519877420
 11
-258.780083639801890
 21
-148.097208911583040
  0
LINE
  8
0
  6
CONTINUOUS
 62
3
 10
-265.913690504921190
 20
-154.257208993291100
 11
-265.426887113215570
 21
-154.744012384996720
  0
LINE
  8
0
  6
CONTINUOUS
 62
3
 10
-258.953748422538750
 20
-147.862952470727750
 11
-265.630847725011680
 21
-154.540051773200670
  0
LINE
  8
0
  6
CONTINUOUS
 62
3
 10
-259.266887031507510
 20
-147.610405519877420
 11
-265.913690504921190
 21
-154.257208993291100
  0
POINT
  8
0
  6
CONTINUOUS
 62
3
 10
-262.590288768214350
 20
-150.933807256584260
  0
ARC
  8
0
  6
CONTINUOUS
 62
3
 10
-264.853030333141420
 20
-148.671065691657250
 40
6.099999427795394
 50
264.601927898109520
 51
5.398089404735375
  0
LINE
  8
0
  6
CONTINUOUS
 62
3
 10
-258.780025008946840
 20
-149.244301551847460
 11
-244.779794472950930
 21
-149.244301551847460
  0
LINE
  8
0
  6
DASHDOT
 62
4
 10
-210.468656809873210
 20
-99.244301551847457
 11
-429.007559259509430
 21
-99.244301551847457
  0
LINE
  8
0
  6
DASHDOT
 62
4
 10
-314.279794472950930
 20
-23.377224155170666
 11
-314.279794472950930
 21
-172.472602737041710
  0
LINE
  8
0
  6
DASHDOT
 62
4
 10
-296.188776407507250
 20
-79.244301551847457
 11
-332.312331493259990
 21
-79.244301551847457
  0
LINE
  8
0
  6
CONTINUOUS
 62
3
 10
52.335858541325024
 20
138.726001900166920
 11
52.335858541325024
 21
150.926000755757740
  0
LINE
  8
0
  6
CONTINUOUS
 62
3
 10
46.335858541325024
 20
149.826001327962330
 11
46.335858541325024
 21
139.826001327962330
  0
LINE
  8
0
  6
CONTINUOUS
 62
3
 10
52.335858541325024
 20
139.826001327962330
 11
46.335858541325024
 21
139.826001327962330
  0
LINE
  8
0
  6
CONTINUOUS
 62
3
 10
52.335858541325024
 20
149.826001327962330
 11
46.335858541325024
 21
149.826001327962330
  0
LINE
  8
0
  6
CONTINUOUS
 62
3
 10
52.335858541325024
 20
82.926000755756831
 11
52.335858541325024
 21
70.726001900166011
  0
LINE
  8
0
  6
CONTINUOUS
 62
3
 10
46.335858541325024
 20
71.826001327961421
 11
46.335858541325024
 21
81.826001327961421
  0
LINE
  8
0
  6
CONTINUOUS
 62
3
 10
52.335858541325024
 20
81.826001327961421
 11
46.335858541325024
 21
81.826001327961421
  0
LINE
  8
0
  6
CONTINUOUS
 62
3
 10
52.335858541325024
 20
71.826001327961421
 11
46.335858541325024
 21
71.826001327961421
  0
ARC
  8
0
  6
CONTINUOUS
 62
3
 10
27.835858541324967
 20
169.826001327961420
 40
0.500000000000176
 50
19.471220634520403
 51
90.000000000000000
  0
ARC
  8
0
  6
CONTINUOUS
 62
3
 10
37.735353477936485
 20
173.326001327961420
 40
9.999999999999684
 50
199.471220634489500
 51
270.000000000000000
  0
ARC
  8
0
  6
CONTINUOUS
 62
3
 10
42.335858541325024
 20
169.326001327961420
 40
6.000000000000000
 50
270.000000000000000
 51
0.000000000000000
  0
ARC
  8
0
  6
CONTINUOUS
 62
3
 10
52.235858541325570
 20
150.976001327961970
 40
0.099999999999454
 50
0.000000000000000
 51
90.000000000000000
  0
ARC
  8
0
  6
CONTINUOUS
 62
3
 10
50.335858541325024
 20
152.076001327962330
 40
1.000000000000000
 50
180.000000000000000
 51
270.000000000000000
  0
ARC
  8
0
  6
CONTINUOUS
 62
3
 10
52.235858541325570
 20
138.676001327961790
 40
0.099999999999454
 50
270.000000000000000
 51
0.000000000000000
  0
ARC
  8
0
  6
CONTINUOUS
 62
3
 10
50.335858541325024
 20
137.576001327962330
 40
1.000000000000000
 50
90.000000000000000
 51
180.000000000000000
  0
LINE
  8
0
  6
CONTINUOUS
 62
3
 10
52.335858541325024
 20
150.976001327961970
 11
52.335858541325024
 21
138.676001327961790
  0
LINE
  8
0
  6
CONTINUOUS
 62
3
 10
50.335858541325024
 20
151.076001327962330
 11
52.235858541325570
 21
151.076001327962330
  0
LINE
  8
0
  6
CONTINUOUS
 62
3
 10
50.335858541325024
 20
138.576001327962330
 11
52.235858541325570
 21
138.576001327962330
  0
LINE
  8
0
  6
CONTINUOUS
 62
3
 10
49.335858541325024
 20
139.826001327962330
 11
49.335858541325024
 21
110.826001327961420
  0
LINE
  8
0
  6
CONTINUOUS
 62
3
 10
48.335858541325024
 20
168.787929158245790
 11
48.335858541325024
 21
179.959975924177340
  0
LINE
  8
0
  6
CONTINUOUS
 62
3
 10
46.335858541325024
 20
179.826001327962330
 11
46.335858541325024
 21
169.826001327962330
  0
LINE
  8
0
  6
CONTINUOUS
 62
3
 10
48.335858541325024
 20
179.826001327962330
 11
46.335858541325024
 21
179.826001327962330
  0
LINE
  8
0
  6
CONTINUOUS
 62
3
 10
48.335858541325024
 20
169.826001327962330
 11
46.335858541325024
 21
169.826001327962330
  0
LINE
  8
0
  6
CONTINUOUS
 62
3
 10
37.735353477936485
 20
163.326001327961420
 11
43.335858541325024
 21
163.326001327961420
  0
ARC
  8
0
  6
CONTINUOUS
 62
3
 10
43.335858541325024
 20
169.326001327961420
 40
6.000000000000000
 50
270.000000000000000
 51
0.000000000000000
  0
LINE
  8
0
  6
CONTINUOUS
 62
3
 10
24.835858541324967
 20
170.326001327961420
 11
27.835858541324967
 21
170.326001327961420
  0
LINE
  8
0
  6
CONTINUOUS
 62
3
 10
24.835858541324967
 20
110.826001327961420
 11
24.835858541324967
 21
170.326001327961420
  0
LINE
  8
0
  6
CONTINUOUS
 62
3
 10
58.335858541325024
 20
110.826001327961420
 11
58.335858541325024
 21
181.326001327961420
  0
LINE
  8
0
  6
CONTINUOUS
 62
3
 10
49.335858541325024
 20
180.326001327960510
 11
49.335858541325024
 21
149.826001327962330
  0
ARC
  8
0
  6
CONTINUOUS
 62
3
 10
50.335858541325024
 20
180.326001327960510
 40
1.000000000000129
 50
106.783233262703770
 51
180.000000000000000
  0
LINE
  8
0
  6
CONTINUOUS
 62
3
 10
50.335858541325024
 20
181.326001327960510
 11
58.335858541325024
 21
181.326001327961420
  0
ARC
  8
0
  6
CONTINUOUS
 62
3
 10
50.335858541325024
 20
180.326001327960510
 40
1.000000000000000
 50
90.000000000000000
 51
106.783233262703770
  0
ARC
  8
0
  6
CONTINUOUS
 62
3
 10
49.335858541325024
 20
179.959975924177340
 40
0.999999999999742
 50
94.664415204609853
 51
180.000000000000000
  0
ARC
  8
0
  6
CONTINUOUS
 62
3
 10
49.173219522429235
 20
181.953352092774370
 40
0.999999999999742
 50
274.664415204609840
 51
305.543403517313660
  0
ARC
  8
0
  6
CONTINUOUS
 62
3
 10
27.835858541324967
 20
51.826001327961421
 40
0.500000000000000
 50
270.000000000000000
 51
340.528779365577860
  0
ARC
  8
0
  6
CONTINUOUS
 62
3
 10
37.735353477936485
 20
48.326001327961421
 40
10.000000000000000
 50
90.000000000000000
 51
160.528779365505610
  0
ARC
  8
0
  6
CONTINUOUS
 62
3
 10
42.335858541325024
 20
52.326001327961421
 40
6.000000000000000
 50
0.000000000000000
 51
90.000000000000000
  0
ARC
  8
0
  6
CONTINUOUS
 62
3
 10
52.235858541325570
 20
70.676001327961785
 40
0.100000000000364
 50
270.000000000000000
 51
0.000000000000000
  0
ARC
  8
0
  6
CONTINUOUS
 62
3
 10
50.335858541325024
 20
69.576001327961421
 40
1.000000000000000
 50
90.000000000000000
 51
180.000000000000000
  0
ARC
  8
0
  6
CONTINUOUS
 62
3
 10
52.235858541325570
 20
82.976001327961058
 40
0.099999999999454
 50
0.000000000000000
 51
90.000000000000000
  0
ARC
  8
0
  6
CONTINUOUS
 62
3
 10
50.335858541325024
 20
84.076001327961421
 40
1.000000000000000
 50
180.000000000000000
 51
270.000000000000000
  0
LINE
  8
0
  6
CONTINUOUS
 62
3
 10
52.335858541325024
 20
70.676001327961785
 11
52.335858541325024
 21
82.976001327961058
  0
LINE
  8
0
  6
CONTINUOUS
 62
3
 10
50.335858541325024
 20
70.576001327961421
 11
52.235858541325570
 21
70.576001327961421
  0
LINE
  8
0
  6
CONTINUOUS
 62
3
 10
50.335858541325024
 20
83.076001327961421
 11
52.235858541325570
 21
83.076001327961421
  0
LINE
  8
0
  6
CONTINUOUS
 62
3
 10
49.335858541325024
 20
81.826001327960512
 11
49.335858541325024
 21
110.826001327961420
  0
LINE
  8
0
  6
CONTINUOUS
 62
3
 10
48.335858541325024
 20
52.864073497677055
 11
48.335858541325024
 21
41.692026731746409
  0
LINE
  8
0
  6
CONTINUOUS
 62
3
 10
46.335858541325024
 20
41.826001327961421
 11
46.335858541325024
 21
51.826001327961421
  0
LINE
  8
0
  6
CONTINUOUS
 62
3
 10
48.335858541325024
 20
41.826001327960910
 11
46.335858541325024
 21
41.826001327961421
  0
LINE
  8
0
  6
CONTINUOUS
 62
3
 10
48.335858541325024
 20
51.826001327960910
 11
46.335858541325024
 21
51.826001327961421
  0
LINE
  8
0
  6
CONTINUOUS
 62
3
 10
37.735353477936485
 20
58.326001327961421
 11
43.335858541325024
 21
58.326001327961421
  0
ARC
  8
0
  6
CONTINUOUS
 62
3
 10
43.335858541325024
 20
52.326001327961421
 40
6.000000000000000
 50
0.000000000000000
 51
90.000000000000000
  0
LINE
  8
0
  6
CONTINUOUS
 62
3
 10
24.835858541324967
 20
51.326001327961421
 11
27.835858541324967
 21
51.326001327961421
  0
LINE
  8
0
  6
CONTINUOUS
 62
3
 10
24.835858541324967
 20
110.826001327961420
 11
24.835858541324967
 21
51.326001327961421
  0
LINE
  8
0
  6
CONTINUOUS
 62
3
 10
58.335858541325024
 20
110.826001327961420
 11
58.335858541325024
 21
40.326001327961421
  0
LINE
  8
0
  6
CONTINUOUS
 62
3
 10
49.335858541325024
 20
41.326001327962331
 11
49.335858541325024
 21
71.826001327960512
  0
ARC
  8
0
  6
CONTINUOUS
 62
3
 10
50.335858541325024
 20
41.326001327962331
 40
1.000000000000000
 50
180.000000000000000
 51
253.216766737296240
  0
LINE
  8
0
  6
CONTINUOUS
 62
3
 10
50.335858541325024
 20
40.326001327962331
 11
58.335858541325024
 21
40.326001327961421
  0
ARC
  8
0
  6
CONTINUOUS
 62
3
 10
50.335858541325024
 20
41.326001327962331
 40
1.000000000000129
 50
253.216766737296240
 51
270.000000000000000
  0
ARC
  8
0
  6
CONTINUOUS
 62
3
 10
49.335858541325024
 20
41.692026731746409
 40
1.000000000000000
 50
180.000000000000000
 51
265.335584795394370
  0
ARC
  8
0
  6
CONTINUOUS
 62
3
 10
49.173219522429235
 20
39.698650563148476
 40
1.000000000000270
 50
54.456596482686322
 51
85.335584795390147
  0
CIRCLE
  8
0
  6
CONTINUOUS
 62
3
 10
128.835858541325020
 20
173.326001327961420
 40
5.000000000000000
  0
CIRCLE
  8
0
  6
CONTINUOUS
 62
3
 10
35.835858541324967
 20
173.326001327961420
 40
5.000000000000000
  0
ARC
  8
0
  6
CONTINUOUS
 62
3
 10
139.835858541325020
 20
131.826001327961420
 40
1.000000000000000
 50
0.000000000000000
 51
90.000000000000000
  0
ARC
  8
0
  6
CONTINUOUS
 62
3
 10
139.835858541325020
 20
133.826001327961420
 40
1.000000000000000
 50
180.000000000000000
 51
270.000000000000000
  0
ARC
  8
0
  6
CONTINUOUS
 62
3
 10
91.788714155088428
 20
120.741667411018170
 40
60.000000000000000
 50
39.042867178556605
 51
40.227417040431980
  0
ARC
  8
0
  6
CONTINUOUS
 62
3
 10
128.835858541325020
 20
173.326001327961420
 40
12.999999999999615
 50
175.997884408560510
 51
270.000000000000000
  0
ARC
  8
0
  6
CONTINUOUS
 62
3
 10
113.872436432987110
 20
174.372900944777940
 40
1.999999999999929
 50
355.997884408536380
 51
67.619615415393611
  0
ARC
  8
0
  6
CONTINUOUS
 62
3
 10
136.070964697584490
 20
158.199407424152920
 40
1.999999999999549
 50
40.227417040425401
 51
88.999999999998238
  0
ARC
  8
0
  6
CONTINUOUS
 62
3
 10
136.835858541325020
 20
157.275963389530260
 40
2.000000000000000
 50
0.000000000000000
 51
39.042867178546516
  0
CIRCLE
  8
0
  6
CONTINUOUS
 62
3
 10
128.835858541325020
 20
48.326001327960512
 40
5.000000000000000
  0
CIRCLE
  8
0
  6
CONTINUOUS
 62
3
 10
35.835858541324967
 20
48.326001327960512
 40
5.000000000000000
  0
ARC
  8
0
  6
CONTINUOUS
 62
3
 10
139.835858541325020
 20
89.826001327961421
 40
1.000000000000000
 50
270.000000000000000
 51
0.000000000000000
  0
ARC
  8
0
  6
CONTINUOUS
 62
3
 10
139.835858541325020
 20
87.826001327961421
 40
1.000000000000000
 50
90.000000000000000
 51
180.000000000000000
  0
ARC
  8
0
  6
CONTINUOUS
 62
3
 10
91.788714155088428
 20
100.910335244903760
 40
59.999999999999872
 50
270.999999999999660
 51
292.380384584606300
  0
ARC
  8
0
  6
CONTINUOUS
 62
3
 10
91.788714155088428
 20
100.910335244903760
 40
60.000000000000036
 50
319.772582959567330
 51
320.957132821443390
  0
ARC
  8
0
  6
CONTINUOUS
 62
3
 10
128.835858541325020
 20
48.326001327960512
 40
13.000000000000000
 50
90.000000000000000
 51
184.002115591443470
  0
ARC
  8
0
  6
CONTINUOUS
 62
3
 10
113.872436432987110
 20
47.279101711143994
 40
2.000000000000135
 50
292.380384584596470
 51
4.002115591437622
  0
ARC
  8
0
  6
CONTINUOUS
 62
3
 10
136.070964697584490
 20
63.452595231769010
 40
2.000000000000027
 50
271.000000000001760
 51
319.772582959554710
  0
ARC
  8
0
  6
CONTINUOUS
 62
3
 10
136.835858541325020
 20
64.376039266391672
 40
2.000000000000242
 50
320.957132821453510
 51
0.000000000000000
  0
ARC
  8
0
  6
CONTINUOUS
 62
3
 10
91.788714155088428
 20
120.741667411018170
 40
59.999999999999616
 50
67.619615415393312
 51
89.000000000000398
  0
ARC
  8
0
  6
CONTINUOUS
 62
3
 10
25.835858541324967
 20
181.400058837654800
 40
1.999999999999720
 50
92.161355940224595
 51
180.000000000000000
  0
ARC
  8
0
  6
CONTINUOUS
 62
3
 10
138.835858541325020
 20
181.360606801729770
 40
2.000000000000000
 50
0.000000000000000
 51
88.999999999998238
  0
ARC
  8
0
  6
CONTINUOUS
 62
3
 10
25.835858541324967
 20
40.251943818267137
 40
2.000000000000000
 50
180.000000000000000
 51
267.838644059775390
  0
ARC
  8
0
  6
CONTINUOUS
 62
3
 10
138.835858541325020
 20
40.291395854192160
 40
2.000000000000027
 50
271.000000000001760
 51
0.000000000000000
  0
LINE
  8
0
  6
CONTINUOUS
 62
3
 10
92.835858541325024
 20
180.732529120401520
 11
58.835858541325024
 21
181.326001327961420
  0
LINE
  8
0
  6
CONTINUOUS
 62
3
 10
136.105869510459120
 20
160.199102814465730
 11
128.835858541325020
 21
160.326001327961420
  0
LINE
  8
0
  6
CONTINUOUS
 62
3
 10
138.835858541325020
 20
157.275963389530260
 11
138.835858541325020
 21
110.826001327961420
  0
LINE
  8
0
  6
CONTINUOUS
 62
4
 10
128.835858541325020
 20
160.326001327961420
 11
135.518041339712680
 21
160.326001327961420
  0
LINE
  8
0
  6
CONTINUOUS
 62
3
 10
58.835858541325024
 20
181.334728860425460
 11
58.835858541325024
 21
110.826001327961420
  0
LINE
  8
0
  6
CONTINUOUS
 62
3
 10
92.835858541325024
 20
40.919473535520410
 11
58.835858541325024
 21
40.326001327961421
  0
LINE
  8
0
  6
CONTINUOUS
 62
3
 10
136.105869510459120
 20
61.452899841456201
 11
128.835858541325020
 21
61.326001327960512
  0
LINE
  8
0
  6
CONTINUOUS
 62
3
 10
138.835858541325020
 20
64.376039266391672
 11
138.835858541325020
 21
110.826001327961420
  0
LINE
  8
0
  6
CONTINUOUS
 62
3
 10
58.835858541325024
 20
40.317273795496476
 11
58.835858541325024
 21
110.826001327961420
  0
LINE
  8
0
  6
CONTINUOUS
 62
3
 10
60.835858541325024
 20
184.722406522218080
 11
25.760430878393606
 21
183.398635998452850
  0
LINE
  8
0
  6
CONTINUOUS
 62
3
 10
60.835858541325024
 20
36.929596133703853
 11
25.760430878393606
 21
38.253366657469087
  0
LINE
  8
0
  6
CONTINUOUS
 62
3
 10
140.835858541325020
 20
40.291395854192160
 11
140.835858541325020
 21
110.826001327961420
  0
LINE
  8
0
  6
CONTINUOUS
 62
3
 10
138.870763354199650
 20
38.291700463879351
 11
60.835858541325024
 21
36.929596133703853
  0
LINE
  8
0
  6
CONTINUOUS
 62
3
 10
138.870763354199650
 20
183.360302192042580
 11
60.835858541325024
 21
184.722406522218080
  0
LINE
  8
0
  6
CONTINUOUS
 62
3
 10
140.835858541325020
 20
181.360606801729770
 11
140.835858541325020
 21
110.826001327961420
  0
LINE
  8
0
  6
CONTINUOUS
 62
4
 10
58.835858541325024
 20
40.377943498606328
 11
65.906711005525494
 21
40.377943498606328
  0
LINE
  8
0
  6
CONTINUOUS
 62
3
 10
142.835858541325020
 20
99.226001327961058
 11
142.435858541324930
 21
98.826001327961421
  0
LINE
  8
0
  6
CONTINUOUS
 62
3
 10
145.395666162460430
 20
99.826001327961421
 11
144.835858541325020
 21
99.976001327961058
  0
LINE
  8
0
  6
CONTINUOUS
 62
3
 10
144.835858541325020
 20
99.976001327961058
 11
143.635858541324750
 21
99.976001327961058
  0
ARC
  8
0
  6
CONTINUOUS
 62
3
 10
143.635858541324750
 20
99.176001327960876
 40
0.800000000000182
 50
90.000000000000000
 51
176.296803365717580
  0
LINE
  8
0
  6
CONTINUOUS
 62
3
 10
142.835858541325020
 20
99.226001327961058
 11
142.435858541324930
 21
98.826001327961421
  0
LINE
  8
0
  6
CONTINUOUS
 62
3
 10
145.395666162460430
 20
99.826001327961421
 11
144.835858541325020
 21
99.976001327961058
  0
LINE
  8
0
  6
CONTINUOUS
 62
3
 10
144.835858541325020
 20
99.976001327961058
 11
143.635858541324750
 21
99.976001327961058
  0
LINE
  8
0
  6
CONTINUOUS
 62
3
 10
142.835858541325020
 20
110.826001327961420
 11
142.835858541325020
 21
99.226001327961058
  0
LINE
  8
0
  6
CONTINUOUS
 62
3
 10
140.835858541325020
 20
98.826001327960512
 11
142.435858541324930
 21
98.826001327961421
  0
LINE
  8
0
  6
CONTINUOUS
 62
3
 10
140.835858541325020
 20
98.826001327960512
 11
142.435858541324930
 21
98.826001327961421
  0
LINE
  8
0
  6
CONTINUOUS
 62
3
 10
146.835858541325020
 20
99.826001327961421
 11
146.835858541325020
 21
97.326001327961421
  0
LINE
  8
0
  6
CONTINUOUS
 62
3
 10
178.835860448627730
 20
97.326001327961421
 11
146.835860448627730
 21
97.326001327961421
  0
LINE
  8
0
  6
CONTINUOUS
 62
3
 10
178.835858541325020
 20
100.226001327961050
 11
178.835858541325020
 21
97.326001327961421
  0
ARC
  8
0
  6
CONTINUOUS
 62
3
 10
178.435858541324930
 20
100.226001327961050
 40
0.399999999999636
 50
270.000000000000000
 51
0.000000000000000
  0
LINE
  8
0
  6
CONTINUOUS
 62
3
 10
178.435858541324930
 20
99.826001327961421
 11
145.395666162460430
 21
99.826001327961421
  0
LINE
  8
0
  6
CONTINUOUS
 62
3
 10
178.435858541324930
 20
99.826001327961421
 11
145.395666162460430
 21
99.826001327961421
  0
LINE
  8
0
  6
CONTINUOUS
 62
3
 10
178.835858541325020
 20
110.826001327961420
 11
178.835858541325020
 21
100.226001327961050
  0
LINE
  8
0
  6
CONTINUOUS
 62
3
 10
142.835858541325020
 20
122.426001327960870
 11
142.435858541324930
 21
122.826001327961420
  0
LINE
  8
0
  6
CONTINUOUS
 62
3
 10
145.395666162460430
 20
121.826001327961420
 11
144.835858541325020
 21
121.676001327960870
  0
LINE
  8
0
  6
CONTINUOUS
 62
3
 10
144.835858541325020
 20
121.676001327960870
 11
143.635858541324750
 21
121.676001327960870
  0
ARC
  8
0
  6
CONTINUOUS
 62
3
 10
143.635858541324750
 20
122.476001327961050
 40
0.799999999999783
 50
183.703196634282420
 51
270.000000000000000
  0
LINE
  8
0
  6
CONTINUOUS
 62
3
 10
142.835858541325020
 20
122.426001327960870
 11
142.435858541324930
 21
122.826001327961420
  0
LINE
  8
0
  6
CONTINUOUS
 62
3
 10
145.395666162460430
 20
121.826001327961420
 11
144.835858541325020
 21
121.676001327960870
  0
LINE
  8
0
  6
CONTINUOUS
 62
3
 10
144.835858541325020
 20
121.676001327960870
 11
143.635858541324750
 21
121.676001327960870
  0
LINE
  8
0
  6
CONTINUOUS
 62
3
 10
142.835858541325020
 20
110.826001327961420
 11
142.835858541325020
 21
122.426001327960870
  0
LINE
  8
0
  6
CONTINUOUS
 62
3
 10
140.835858541325020
 20
122.826001327961420
 11
142.435858541324930
 21
122.826001327961420
  0
ARC
  8
0
  6
CONTINUOUS
 62
3
 10
178.435858541324930
 20
121.426001327960870
 40
0.400000000000091
 50
0.000000000000000
 51
90.000000000000000
  0
LINE
  8
0
  6
CONTINUOUS
 62
3
 10
178.835858541325020
 20
110.826001327961420
 11
178.835858541325020
 21
121.426001327960870
  0
LINE
  8
0
  6
CONTINUOUS
 62
3
 10
178.435858541324930
 20
121.826001327961420
 11
145.395666162460430
 21
121.826001327961420
  0
LINE
  8
0
  6
CONTINUOUS
 62
3
 10
178.435858541324930
 20
121.826001327961420
 11
145.395666162460430
 21
121.826001327961420
  0
POLYLINE
  8
0
  6
CONTINUOUS
 62
3
 66
1
 70
1
  0
VERTEX
  8
0
  6
CONTINUOUS
 62
3
 10
-130.464141458674360
 20
58.902476295901579
  0
VERTEX
  8
0
  6
CONTINUOUS
 62
3
 10
-130.554450640779180
 20
59.605433262101940
  0
VERTEX
  8
0
  6
CONTINUOUS
 62
3
 10
-130.821907655871310
 20
60.281375986314032
  0
VERTEX
  8
0
  6
CONTINUOUS
 62
3
 10
-131.256234280852400
 20
60.904328368719433
  0
VERTEX
  8
0
  6
CONTINUOUS
 62
3
 10
-131.840739587097570
 20
61.450350698618017
  0
VERTEX
  8
0
  6
CONTINUOUS
 62
3
 10
-132.552961363482240
 20
61.898459644084632
  0
VERTEX
  8
0
  6
CONTINUOUS
 62
3
 10
-133.365529326558430
 20
62.231434629647389
  0
VERTEX
  8
0
  6
CONTINUOUS
 62
3
 10
-134.247216945198550
 20
62.436479613345639
  0
VERTEX
  8
0
  6
CONTINUOUS
 62
3
 10
-135.164141458674350
 20
62.505714831446411
  0
VERTEX
  8
0
  6
CONTINUOUS
 62
3
 10
-136.081065972150160
 20
62.436479613345639
  0
VERTEX
  8
0
  6
CONTINUOUS
 62
3
 10
-136.962753590790270
 20
62.231434629647389
  0
VERTEX
  8
0
  6
CONTINUOUS
 62
3
 10
-137.775321553866460
 20
61.898459644084632
  0
VERTEX
  8
0
  6
CONTINUOUS
 62
3
 10
-138.487543330251130
 20
61.450350698618017
  0
VERTEX
  8
0
  6
CONTINUOUS
 62
3
 10
-139.072048636496310
 20
60.904328368719433
  0
VERTEX
  8
0
  6
CONTINUOUS
 62
3
 10
-139.506375261477390
 20
60.281375986314032
  0
VERTEX
  8
0
  6
CONTINUOUS
 62
3
 10
-139.773832276569520
 20
59.605433262101940
  0
VERTEX
  8
0
  6
CONTINUOUS
 62
3
 10
-139.864141458674340
 20
58.902476295901579
  0
VERTEX
  8
0
  6
CONTINUOUS
 62
3
 10
-139.773832276569520
 20
58.199519329701218
  0
VERTEX
  8
0
  6
CONTINUOUS
 62
3
 10
-139.506375261477390
 20
57.523576605489126
  0
VERTEX
  8
0
  6
CONTINUOUS
 62
3
 10
-139.072048636496310
 20
56.900624223083724
  0
VERTEX
  8
0
  6
CONTINUOUS
 62
3
 10
-138.487543330251100
 20
56.354601893185148
  0
VERTEX
  8
0
  6
CONTINUOUS
 62
3
 10
-137.775321553866460
 20
55.906492947718526
  0
VERTEX
  8
0
  6
CONTINUOUS
 62
3
 10
-136.962753590790270
 20
55.573517962155769
  0
VERTEX
  8
0
  6
CONTINUOUS
 62
3
 10
-136.081065972150160
 20
55.368472978457518
  0
VERTEX
  8
0
  6
CONTINUOUS
 62
3
 10
-135.164141458674350
 20
55.299237760356746
  0
VERTEX
  8
0
  6
CONTINUOUS
 62
3
 10
-134.247216945198550
 20
55.368472978457518
  0
VERTEX
  8
0
  6
CONTINUOUS
 62
3
 10
-133.365529326558430
 20
55.573517962155769
  0
VERTEX
  8
0
  6
CONTINUOUS
 62
3
 10
-132.552961363482240
 20
55.906492947718526
  0
VERTEX
  8
0
  6
CONTINUOUS
 62
3
 10
-131.840739587097600
 20
56.354601893185148
  0
VERTEX
  8
0
  6
CONTINUOUS
 62
3
 10
-131.256234280852400
 20
56.900624223083724
  0
VERTEX
  8
0
  6
CONTINUOUS
 62
3
 10
-130.821907655871310
 20
57.523576605489126
  0
VERTEX
  8
0
  6
CONTINUOUS
 62
3
 10
-130.554450640779180
 20
58.199519329701218
  0
SEQEND
  8
0
  6
CONTINUOUS
 62
3
  0
LINE
  8
0
  6
CONTINUOUS
 62
3
 10
-137.164141458674350
 20
55.910100741901260
 11
-135.164141458674350
 21
57.085886227523588
  0
LINE
  8
0
  6
CONTINUOUS
 62
3
 10
-135.164141458674350
 20
57.085886227523588
 11
-133.164141458674350
 21
58.738527866647019
  0
LINE
  8
0
  6
CONTINUOUS
 62
3
 10
-133.164141458674350
 20
55.910100741901260
 11
-135.164141458674350
 21
57.085886227523588
  0
LINE
  8
0
  6
CONTINUOUS
 62
3
 10
-135.164141458674350
 20
57.085886227523588
 11
-137.164141458674350
 21
58.738527866647019
  0
POLYLINE
  8
0
  6
CONTINUOUS
 62
3
 66
1
 70
1
  0
VERTEX
  8
0
  6
CONTINUOUS
 62
3
 10
-130.464141458674360
 20
162.749526360021490
  0
VERTEX
  8
0
  6
CONTINUOUS
 62
3
 10
-130.554450640779180
 20
163.452483326221850
  0
VERTEX
  8
0
  6
CONTINUOUS
 62
3
 10
-130.821907655871310
 20
164.128426050433940
  0
VERTEX
  8
0
  6
CONTINUOUS
 62
3
 10
-131.256234280852400
 20
164.751378432839350
  0
VERTEX
  8
0
  6
CONTINUOUS
 62
3
 10
-131.840739587097570
 20
165.297400762737940
  0
VERTEX
  8
0
  6
CONTINUOUS
 62
3
 10
-132.552961363482240
 20
165.745509708204570
  0
VERTEX
  8
0
  6
CONTINUOUS
 62
3
 10
-133.365529326558430
 20
166.078484693767310
  0
VERTEX
  8
0
  6
CONTINUOUS
 62
3
 10
-134.247216945198550
 20
166.283529677465570
  0
VERTEX
  8
0
  6
CONTINUOUS
 62
3
 10
-135.164141458674350
 20
166.352764895566340
  0
VERTEX
  8
0
  6
CONTINUOUS
 62
3
 10
-136.081065972150160
 20
166.283529677465570
  0
VERTEX
  8
0
  6
CONTINUOUS
 62
3
 10
-136.962753590790270
 20
166.078484693767310
  0
VERTEX
  8
0
  6
CONTINUOUS
 62
3
 10
-137.775321553866460
 20
165.745509708204570
  0
VERTEX
  8
0
  6
CONTINUOUS
 62
3
 10
-138.487543330251130
 20
165.297400762737940
  0
VERTEX
  8
0
  6
CONTINUOUS
 62
3
 10
-139.072048636496310
 20
164.751378432839350
  0
VERTEX
  8
0
  6
CONTINUOUS
 62
3
 10
-139.506375261477390
 20
164.128426050433940
  0
VERTEX
  8
0
  6
CONTINUOUS
 62
3
 10
-139.773832276569520
 20
163.452483326221850
  0
VERTEX
  8
0
  6
CONTINUOUS
 62
3
 10
-139.864141458674340
 20
162.749526360021490
  0
VERTEX
  8
0
  6
CONTINUOUS
 62
3
 10
-139.773832276569520
 20
162.046569393821130
  0
VERTEX
  8
0
  6
CONTINUOUS
 62
3
 10
-139.506375261477390
 20
161.370626669609040
  0
VERTEX
  8
0
  6
CONTINUOUS
 62
3
 10
-139.072048636496310
 20
160.747674287203640
  0
VERTEX
  8
0
  6
CONTINUOUS
 62
3
 10
-138.487543330251100
 20
160.201651957305050
  0
VERTEX
  8
0
  6
CONTINUOUS
 62
3
 10
-137.775321553866460
 20
159.753543011838420
  0
VERTEX
  8
0
  6
CONTINUOUS
 62
3
 10
-136.962753590790270
 20
159.420568026275670
  0
VERTEX
  8
0
  6
CONTINUOUS
 62
3
 10
-136.081065972150160
 20
159.215523042577420
  0
VERTEX
  8
0
  6
CONTINUOUS
 62
3
 10
-135.164141458674350
 20
159.146287824476640
  0
VERTEX
  8
0
  6
CONTINUOUS
 62
3
 10
-134.247216945198550
 20
159.215523042577420
  0
VERTEX
  8
0
  6
CONTINUOUS
 62
3
 10
-133.365529326558430
 20
159.420568026275670
  0
VERTEX
  8
0
  6
CONTINUOUS
 62
3
 10
-132.552961363482240
 20
159.753543011838420
  0
VERTEX
  8
0
  6
CONTINUOUS
 62
3
 10
-131.840739587097600
 20
160.201651957305050
  0
VERTEX
  8
0
  6
CONTINUOUS
 62
3
 10
-131.256234280852400
 20
160.747674287203640
  0
VERTEX
  8
0
  6
CONTINUOUS
 62
3
 10
-130.821907655871310
 20
161.370626669609040
  0
VERTEX
  8
0
  6
CONTINUOUS
 62
3
 10
-130.554450640779180
 20
162.046569393821130
  0
SEQEND
  8
0
  6
CONTINUOUS
 62
3
  0
LINE
  8
0
  6
CONTINUOUS
 62
3
 10
-137.164141458674350
 20
165.741901914021810
 11
-135.164141458674350
 21
164.566116428399030
  0
LINE
  8
0
  6
CONTINUOUS
 62
3
 10
-135.164141458674350
 20
164.566116428399030
 11
-133.164141458674350
 21
162.913474789275600
  0
LINE
  8
0
  6
CONTINUOUS
 62
3
 10
-133.164141458674350
 20
165.741901914021810
 11
-135.164141458674350
 21
164.566116428399030
  0
LINE
  8
0
  6
CONTINUOUS
 62
3
 10
-135.164141458674350
 20
164.566116428399030
 11
-137.164141458674350
 21
162.913474789275600
  0
LINE
  8
0
  6
CONTINUOUS
 62
3
 10
-124.164141458674800
 20
110.826001327961420
 11
-124.164141458674800
 21
175.826001327961420
  0
LINE
  8
0
  6
CONTINUOUS
 62
3
 10
24.835858541324967
 20
170.326001327961190
 11
24.835858541324967
 21
110.826001327961420
  0
LINE
  8
0
  6
CONTINUOUS
 62
3
 10
-124.164141458674800
 20
175.826001327961420
 11
-152.858165681095270
 21
175.826001327961420
  0
LINE
  8
0
  6
CONTINUOUS
 62
3
 10
-175.164141458624780
 20
110.826001327961420
 11
-175.164141458624780
 21
163.269206385206870
  0
ARC
  8
0
  6
CONTINUOUS
 62
3
 10
-152.858165681095270
 20
155.826001327961420
 40
20.000000000000000
 50
90.000000000000000
 51
125.000000000000240
  0
LINE
  8
0
  6
CONTINUOUS
 62
3
 10
-164.329694408116270
 20
172.209042213741210
 11
-174.055440193137260
 21
165.399001700357990
  0
ARC
  8
0
  6
CONTINUOUS
 62
3
 10
-172.564141458624650
 20
163.269206385206870
 40
2.599999999999721
 50
125.000000000001370
 51
180.000000000000000
  0
LINE
  8
0
  6
CONTINUOUS
 62
3
 10
-124.164141458674800
 20
110.826001327961420
 11
-124.164141458674800
 21
52.206780411088630
  0
LINE
  8
0
  6
CONTINUOUS
 62
3
 10
24.835858541324967
 20
51.326001327961421
 11
24.835858541324967
 21
110.826001327961420
  0
LINE
  8
0
  6
CONTINUOUS
 62
3
 10
-175.164141458624780
 20
110.826001327961420
 11
-175.164141458624780
 21
58.382796270715971
  0
LINE
  8
0
  6
CONTINUOUS
 62
3
 10
-164.329694408116270
 20
49.442960442181629
 11
-174.055440193137260
 21
56.253000955564858
  0
ARC
  8
0
  6
CONTINUOUS
 62
3
 10
-172.564141458624650
 20
58.382796270715971
 40
2.600000000000136
 50
180.000000000000000
 51
234.999999999998610
  0
LINE
  8
0
  6
CONTINUOUS
 62
3
 10
-134.164141458674810
 20
45.826001327961421
 11
-152.858165681095270
 21
45.826001327961421
  0
ARC
  8
0
  6
CONTINUOUS
 62
3
 10
-152.858165681095270
 20
65.826001327961421
 40
20.000000000000007
 50
234.999999999999740
 51
270.000000000000000
  0
LINE
  8
0
  6
CONTINUOUS
 62
3
 10
-132.164141458674810
 20
47.326001327961649
 11
-132.164141458674810
 21
49.035207535834843
  0
LINE
  8
0
  6
CONTINUOUS
 62
3
 10
-57.164141458674806
 20
52.326001327961649
 11
-124.164141458674800
 21
52.326001327961649
  0
LINE
  8
0
  6
CONTINUOUS
 62
3
 10
-57.164141458674806
 20
47.326001327961649
 11
-132.164141458674810
 21
47.326001327961649
  0
LINE
  8
0
  6
CONTINUOUS
 62
3
 10
-131.164141458674810
 20
18.826001327961876
 11
-131.164141458674810
 21
47.326001327961649
  0
LINE
  8
0
  6
CONTINUOUS
 62
3
 10
-58.164141458674806
 20
18.826001327961876
 11
-58.164141458674806
 21
47.326001327961649
  0
ARC
  8
0
  6
CONTINUOUS
 62
3
 10
-59.164141458674806
 20
18.826001327961876
 40
1.000000000000000
 50
270.000000000000000
 51
0.000000000000000
  0
ARC
  8
0
  6
CONTINUOUS
 62
3
 10
-130.164141458674810
 20
18.826001327961876
 40
1.000000000000000
 50
180.000000000000000
 51
270.000000000000000
  0
LINE
  8
0
  6
CONTINUOUS
 62
3
 10
-59.164141458674806
 20
17.826001327961876
 11
-130.164141458674810
 21
17.826001327961876
  0
LINE
  8
0
  6
CONTINUOUS
 62
3
 10
-65.164141458674806
 20
17.826001327961876
 11
-65.164141458674806
 21
17.326001327961876
  0
LINE
  8
0
  6
CONTINUOUS
 62
3
 10
-67.664141458674806
 20
17.826001327961876
 11
-67.664141458674806
 21
17.326001327961876
  0
LINE
  8
0
  6
CONTINUOUS
 62
3
 10
-73.164141458674806
 20
17.826001327961876
 11
-73.164141458674806
 21
17.326001327961876
  0
LINE
  8
0
  6
CONTINUOUS
 62
3
 10
-65.164141458674806
 20
17.326001327961876
 11
-73.164141458674806
 21
17.326001327961876
  0
LINE
  8
0
  6
CONTINUOUS
 62
3
 10
-57.164141458674806
 20
47.326001327961649
 11
-57.164141458674806
 21
52.326001327961649
  0
LINE
  8
0
  6
CONTINUOUS
 62
3
 10
-131.164141458674810
 20
49.206780411088630
 11
-127.164141458674800
 21
49.206780411088630
  0
LINE
  8
0
  6
CONTINUOUS
 62
3
 10
-134.164141458674810
 20
45.826001327961421
 11
-134.164141458674810
 21
46.206780411088630
  0
ARC
  8
0
  6
CONTINUOUS
 62
3
 10
-127.164141458674800
 20
52.206780411088630
 40
3.000000000000000
 50
270.000000000000000
 51
0.000000000000000
  0
ARC
  8
0
  6
CONTINUOUS
 62
3
 10
-131.164141458674810
 20
46.206780411088630
 40
3.000000000000000
 50
90.000000000000000
 51
180.000000000000000
  0
LINE
  8
0
  6
CONTINUOUS
 62
3
 10
-124.164141458674800
 20
170.326001327961190
 11
24.835858541324967
 21
170.326001327961190
  0
LINE
  8
0
  6
CONTINUOUS
 62
3
 10
-57.164141458674806
 20
51.326001327961421
 11
24.835858541324967
 21
51.326001327961421
  0
LINE
  8
0
  6
CONTINUOUS
 62
4
 10
-124.164141458674800
 20
53.826001327961421
 11
29.383706933691457
 21
53.826001327961421
  0
LINE
  8
0
  6
CONTINUOUS
 62
4
 10
-124.164141458674800
 20
54.826001327961421
 11
30.136011401151166
 21
54.826001327961421
  0
LINE
  8
0
  6
CONTINUOUS
 62
4
 10
-124.164141458674800
 20
55.826001327961421
 11
31.120975200275012
 21
55.826001327961421
  0
LINE
  8
0
  6
CONTINUOUS
 62
4
 10
-124.164141458674800
 20
60.510467141185700
 11
49.335858541325024
 21
60.510467141185707
  0
LINE
  8
0
  6
CONTINUOUS
 62
4
 10
-124.164141458674800
 20
65.460214609491459
 11
49.335858541325024
 21
65.460214609491459
  0
LINE
  8
0
  6
CONTINUOUS
 62
4
 10
-124.164141458674800
 20
73.506816272225478
 11
46.335858541325024
 21
73.506816272225478
  0
LINE
  8
0
  6
CONTINUOUS
 62
4
 10
-124.164141458674800
 20
75.111464187787533
 11
46.335858541325024
 21
75.111464187787533
  0
LINE
  8
0
  6
CONTINUOUS
 62
4
 10
-124.164141458674800
 20
79.075209611587070
 11
46.335858541325024
 21
79.075209611587070
  0
LINE
  8
0
  6
CONTINUOUS
 62
4
 10
-124.164141458674800
 20
80.543567001391693
 11
46.335858541325024
 21
80.543567001391693
  0
LINE
  8
0
  6
CONTINUOUS
 62
4
 10
-124.164141458674800
 20
84.634067535481563
 11
49.335858541325024
 21
84.634067535481563
  0
LINE
  8
0
  6
CONTINUOUS
 62
4
 10
-124.164141458674800
 20
85.995947870830832
 11
49.335858541325024
 21
85.995947870830832
  0
LINE
  8
0
  6
CONTINUOUS
 62
4
 10
-124.164141458674800
 20
90.186501602373028
 11
49.335858541325024
 21
90.186501602373028
  0
LINE
  8
0
  6
CONTINUOUS
 62
4
 10
-124.164141458674800
 20
91.452739518460248
 11
49.335858541325024
 21
91.452739518460248
  0
LINE
  8
0
  6
CONTINUOUS
 62
4
 10
-124.164141458674800
 20
95.826001327961421
 11
49.335858541325024
 21
95.826001327961421
  0
LINE
  8
0
  6
CONTINUOUS
 62
4
 10
-124.164141458674800
 20
148.145186383697360
 11
46.335858541325024
 21
148.145186383697360
  0
LINE
  8
0
  6
CONTINUOUS
 62
4
 10
-124.164141458674800
 20
146.540538468135310
 11
46.335858541325024
 21
146.540538468135310
  0
LINE
  8
0
  6
CONTINUOUS
 62
4
 10
-124.164141458674800
 20
142.576793044335770
 11
46.335858541325024
 21
142.576793044335770
  0
LINE
  8
0
  6
CONTINUOUS
 62
4
 10
-124.164141458674800
 20
141.108435654531150
 11
46.335858541325024
 21
141.108435654531150
  0
LINE
  8
0
  6
CONTINUOUS
 62
4
 10
-124.164141458674800
 20
137.017935120441280
 11
49.335858541325024
 21
137.017935120441280
  0
LINE
  8
0
  6
CONTINUOUS
 62
4
 10
-124.164141458674800
 20
135.656054785092010
 11
49.335858541325024
 21
135.656054785092010
  0
LINE
  8
0
  6
CONTINUOUS
 62
4
 10
-124.164141458674800
 20
131.465501053549810
 11
49.335858541325024
 21
131.465501053549810
  0
LINE
  8
0
  6
CONTINUOUS
 62
4
 10
-124.164141458674800
 20
130.199263137462590
 11
49.335858541325024
 21
130.199263137462590
  0
LINE
  8
0
  6
CONTINUOUS
 62
4
 10
-124.164141458674800
 20
125.826001327961420
 11
49.335858541325024
 21
125.826001327961420
  0
LINE
  8
0
  6
CONTINUOUS
 62
4
 10
-124.164141458674800
 20
156.191788046431380
 11
49.335858541325024
 21
156.191788046431380
  0
LINE
  8
0
  6
CONTINUOUS
 62
4
 10
-124.164141458674800
 20
161.141535514737140
 11
49.335858541325024
 21
161.141535514737140
  0
LINE
  8
0
  6
CONTINUOUS
 62
4
 10
-124.164141458674800
 20
165.826001327961420
 11
31.120975200275012
 21
165.826001327961420
  0
LINE
  8
0
  6
CONTINUOUS
 62
4
 10
-124.164141458674800
 20
166.826001327961420
 11
30.136011401151166
 21
166.826001327961420
  0
LINE
  8
0
  6
CONTINUOUS
 62
4
 10
-124.164141458674800
 20
167.826001327961420
 11
29.383706933691457
 21
167.826001327961420
  0
LINE
  8
0
  6
CONTINUOUS
 62
3
 10
-57.164141458674806
 20
170.326001327961420
 11
24.835858541324967
 21
170.326001327961420
  0
LINE
  8
0
  6
CONTINUOUS
 62
3
 10
0.335858541324967
 20
170.326001327961190
 11
-123.664141458675030
 21
170.326001327961190
  0
LINE
  8
0
  6
DASHDOT
 62
3
 10
0.335858541324967
 20
170.326001327961190
 11
0.335858541324967
 21
175.326001327961190
  0
LINE
  8
0
  6
CONTINUOUS
 62
3
 10
-123.664141458675030
 20
170.326001327961190
 11
-123.664141458675030
 21
175.326001327961190
  0
ARC
  8
0
  6
CONTINUOUS
 62
3
 10
1.335858541324967
 20
193.828870948542090
 40
2.000000000000000
 50
270.000000000000000
 51
0.000000000000000
  0
ARC
  8
0
  6
CONTINUOUS
 62
3
 10
1.335858541324967
 20
194.627872819660980
 40
2.000000000000000
 50
270.000000000000000
 51
0.000000000000000
  0
ARC
  8
0
  6
CONTINUOUS
 62
3
 10
1.335858541324967
 20
195.426874690746220
 40
2.000000000000000
 50
270.000000000000000
 51
0.000000000000000
  0
ARC
  8
0
  6
CONTINUOUS
 62
3
 10
1.335858541324967
 20
196.520511619023410
 40
2.000000000000000
 50
0.000000000000000
 51
90.000000000000000
  0
LINE
  8
0
  6
CONTINUOUS
 62
3
 10
0.335858541324967
 20
198.520511619023410
 11
1.335858541324967
 21
198.520511619023410
  0
LINE
  8
0
  6
CONTINUOUS
 62
3
 10
1.335858541324967
 20
191.828870948542090
 11
-124.664141458675030
 21
191.828870948542090
  0
LINE
  8
0
  6
CONTINUOUS
 62
3
 10
1.335858541324967
 20
192.627872819644150
 11
-124.664141458675030
 21
192.627872819644150
  0
LINE
  8
0
  6
CONTINUOUS
 62
3
 10
3.335858541324967
 20
196.520511619023410
 11
3.335858541324967
 21
193.828870948542090
  0
LINE
  8
0
  6
CONTINUOUS
 62
3
 10
0.335858541324967
 20
180.326001327961190
 11
0.335858541324967
 21
191.627872819660980
  0
LINE
  8
0
  6
CONTINUOUS
 62
3
 10
-118.664141458675030
 20
216.926001327961100
 11
-4.664141458675033
 21
216.926001327961100
  0
ARC
  8
0
  6
CONTINUOUS
 62
3
 10
-4.664141458675033
 20
211.926001327961100
 40
5.000000000000000
 50
0.000000000000000
 51
90.000000000000000
  0
LINE
  8
0
  6
CONTINUOUS
 62
3
 10
-123.664141458675030
 20
180.326001327961190
 11
-123.664141458675030
 21
191.828870948542090
  0
ARC
  8
0
  6
CONTINUOUS
 62
3
 10
-124.664141458675030
 20
193.828870948542090
 40
2.000000000000000
 50
180.000000000000000
 51
270.000000000000000
  0
LINE
  8
0
  6
CONTINUOUS
 62
3
 10
-126.664141458675030
 20
196.520511619023410
 11
-126.664141458675030
 21
193.828870948542090
  0
ARC
  8
0
  6
CONTINUOUS
 62
3
 10
-124.664141458675030
 20
194.627872819660980
 40
2.000000000000000
 50
180.000000000000000
 51
270.000000000000000
  0
ARC
  8
0
  6
CONTINUOUS
 62
3
 10
-124.664141458675030
 20
195.426874690746220
 40
2.000000000000000
 50
180.000000000000000
 51
270.000000000000000
  0
ARC
  8
0
  6
CONTINUOUS
 62
3
 10
-124.664141458675030
 20
196.520511619023410
 40
2.000000000000000
 50
90.000000000000000
 51
180.000000000000000
  0
ARC
  8
0
  6
CONTINUOUS
 62
3
 10
-118.664141458675030
 20
211.926001327961100
 40
5.000000000000000
 50
90.000000000000000
 51
180.000000000000000
  0
ARC
  8
0
  6
CONTINUOUS
 62
3
 10
-118.664141458675030
 20
180.326001327961190
 40
5.000000000000000
 50
180.000000000000000
 51
270.000000000000000
  0
LINE
  8
0
  6
CONTINUOUS
 62
3
 10
1.335858541324967
 20
193.426874690746220
 11
-124.664141458675030
 21
193.426874690746220
  0
LINE
  8
0
  6
CONTINUOUS
 62
3
 10
-123.664141458675030
 20
198.520511619023410
 11
-124.664141458675030
 21
198.520511619023410
  0
LINE
  8
0
  6
CONTINUOUS
 62
3
 10
-123.664141458675030
 20
198.987026387648030
 11
-123.664141458675030
 21
211.926001327961100
  0
ARC
  8
0
  6
CONTINUOUS
 62
3
 10
-4.664141458675033
 20
180.326001327961190
 40
5.000000000000000
 50
270.000000000000000
 51
0.000000000000000
  0
LINE
  8
0
  6
CONTINUOUS
 62
3
 10
0.335858541324967
 20
198.987026387648030
 11
0.335858541324967
 21
211.926001327961100
  0
POLYLINE
  8
0
  6
CONTINUOUS
 62
3
 66
1
  0
VERTEX
  8
0
  6
CONTINUOUS
 62
3
 10
-120.164141458675030
 20
193.676562775465980
  0
VERTEX
  8
0
  6
CONTINUOUS
 62
3
 10
-120.096889940086340
 20
193.642464565269990
  0
VERTEX
  8
0
  6
CONTINUOUS
 62
3
 10
-119.897719822464530
 20
193.609676730169350
  0
VERTEX
  8
0
  6
CONTINUOUS
 62
3
 10
-119.574285101733930
 20
193.579459288279340
  0
VERTEX
  8
0
  6
CONTINUOUS
 62
3
 10
-119.139015192827950
 20
193.552973478945630
  0
VERTEX
  8
0
  6
CONTINUOUS
 62
3
 10
-118.608637274243640
 20
193.531237136967550
  0
VERTEX
  8
0
  6
CONTINUOUS
 62
3
 10
-118.003533471952840
 20
193.515085577777370
  0
VERTEX
  8
0
  6
CONTINUOUS
 62
3
 10
-117.346957585731480
 20
193.505139496736920
  0
VERTEX
  8
0
  6
CONTINUOUS
 62
3
 10
-116.664141458675030
 20
193.501781116162760
  0
VERTEX
  8
0
  6
CONTINUOUS
 62
3
 10
-115.981325331618590
 20
193.505139496736920
  0
VERTEX
  8
0
  6
CONTINUOUS
 62
3
 10
-115.324749445397210
 20
193.515085577777370
  0
VERTEX
  8
0
  6
CONTINUOUS
 62
3
 10
-114.719645643106430
 20
193.531237136967550
  0
VERTEX
  8
0
  6
CONTINUOUS
 62
3
 10
-114.189267724522120
 20
193.552973478945630
  0
VERTEX
  8
0
  6
CONTINUOUS
 62
3
 10
-113.753997815616130
 20
193.579459288279340
  0
VERTEX
  8
0
  6
CONTINUOUS
 62
3
 10
-113.430563094885520
 20
193.609676730169350
  0
VERTEX
  8
0
  6
CONTINUOUS
 62
3
 10
-113.231392977263720
 20
193.642464565269990
  0
VERTEX
  8
0
  6
CONTINUOUS
 62
3
 10
-113.164141458675030
 20
193.676562775465980
  0
SEQEND
  8
0
  6
CONTINUOUS
 62
3
  0
ARC
  8
0
  6
CONTINUOUS
 62
3
 10
-114.464141458675210
 20
194.663572513390360
 40
1.300000000000182
 50
0.000000000000000
 51
73.398450400977637
  0
ARC
  8
0
  6
CONTINUOUS
 62
3
 10
-116.664141458675030
 20
187.284548187640890
 40
9.000000000000123
 50
73.398450400980877
 51
106.601549599019120
  0
ARC
  8
0
  6
CONTINUOUS
 62
3
 10
-118.864141458674850
 20
194.663572513390360
 40
1.300000000000019
 50
106.601549599022360
 51
180.000000000000000
  0
LINE
  8
0
  6
CONTINUOUS
 62
3
 10
-113.164141458675030
 20
194.663572513390360
 11
-113.164141458675030
 21
193.676562775465980
  0
LINE
  8
0
  6
CONTINUOUS
 62
3
 10
-120.164141458675030
 20
194.663572513390360
 11
-120.164141458675030
 21
193.676562775465980
  0
ARC
  8
0
  6
CONTINUOUS
 62
3
 10
-118.664141458675030
 20
198.987026387648030
 40
5.000000000000000
 50
180.000000000000000
 51
252.542396876278160
  0
LINE
  8
0
  6
CONTINUOUS
 62
3
 10
-10.164141458675033
 20
194.663572513390360
 11
-10.164141458675033
 21
193.676562775465980
  0
POLYLINE
  8
0
  6
CONTINUOUS
 62
3
 66
1
  0
VERTEX
  8
0
  6
CONTINUOUS
 62
3
 10
-10.164141458675033
 20
193.676562775465980
  0
VERTEX
  8
0
  6
CONTINUOUS
 62
3
 10
-10.096889940086339
 20
193.642464565269990
  0
VERTEX
  8
0
  6
CONTINUOUS
 62
3
 10
-9.897719822464536
 20
193.609676730169350
  0
VERTEX
  8
0
  6
CONTINUOUS
 62
3
 10
-9.574285101733942
 20
193.579459288279340
  0
VERTEX
  8
0
  6
CONTINUOUS
 62
3
 10
-9.139015192827950
 20
193.552973478945630
  0
VERTEX
  8
0
  6
CONTINUOUS
 62
3
 10
-8.608637274243641
 20
193.531237136967550
  0
VERTEX
  8
0
  6
CONTINUOUS
 62
3
 10
-8.003533471952847
 20
193.515085577777370
  0
VERTEX
  8
0
  6
CONTINUOUS
 62
3
 10
-7.346957585731483
 20
193.505139496736920
  0
VERTEX
  8
0
  6
CONTINUOUS
 62
3
 10
-6.664141458675034
 20
193.501781116162760
  0
VERTEX
  8
0
  6
CONTINUOUS
 62
3
 10
-5.981325331618585
 20
193.505139496736920
  0
VERTEX
  8
0
  6
CONTINUOUS
 62
3
 10
-5.324749445397220
 20
193.515085577777370
  0
VERTEX
  8
0
  6
CONTINUOUS
 62
3
 10
-4.719645643106427
 20
193.531237136967550
  0
VERTEX
  8
0
  6
CONTINUOUS
 62
3
 10
-4.189267724522118
 20
193.552973478945630
  0
VERTEX
  8
0
  6
CONTINUOUS
 62
3
 10
-3.753997815616127
 20
193.579459288279340
  0
VERTEX
  8
0
  6
CONTINUOUS
 62
3
 10
-3.430563094885531
 20
193.609676730169350
  0
VERTEX
  8
0
  6
CONTINUOUS
 62
3
 10
-3.231392977263729
 20
193.642464565269990
  0
VERTEX
  8
0
  6
CONTINUOUS
 62
3
 10
-3.164141458675035
 20
193.676562775465980
  0
SEQEND
  8
0
  6
CONTINUOUS
 62
3
  0
LINE
  8
0
  6
CONTINUOUS
 62
3
 10
-3.164141458675033
 20
194.663572513390360
 11
-3.164141458675033
 21
193.676562775465980
  0
ARC
  8
0
  6
CONTINUOUS
 62
3
 10
-8.864141458674851
 20
194.663572513390360
 40
1.300000000000019
 50
106.601549599022360
 51
180.000000000000000
  0
ARC
  8
0
  6
CONTINUOUS
 62
3
 10
-6.664141458675033
 20
187.284548187640890
 40
9.000000000000123
 50
73.398450400980877
 51
106.601549599019120
  0
ARC
  8
0
  6
CONTINUOUS
 62
3
 10
-4.464141458675215
 20
194.663572513390360
 40
1.300000000000182
 50
0.000000000000000
 51
73.398450400977637
  0
ARC
  8
0
  6
CONTINUOUS
 62
3
 10
-4.664141458675033
 20
198.987026387648030
 40
5.000000000000072
 50
287.457603123721870
 51
0.000000000000000
  0
LINE
  8
0
  6
CONTINUOUS
 62
3
 10
-10.164141458675033
 20
193.987026387648030
 11
-113.164141458675030
 21
193.987026387648030
  0
LINE
  8
0
  6
CONTINUOUS
 62
3
 10
-123.664141458675030
 20
175.326001327961190
 11
0.335858541324967
 21
175.326001327961190
  0
LINE
  8
0
  6
DASHDOT
 62
3
 10
0.335858541324967
 20
170.326001327961190
 11
0.335858541324967
 21
175.326001327961190
  0
LINE
  8
0
  6
DASHDOT
 62
4
 10
-119.664141458674800
 20
23.881844070285524
 11
-119.664141458674800
 21
45.430333050817239
  0
LINE
  8
0
  6
DASHDOT
 62
4
 10
-128.749830565258380
 20
32.826001327961649
 11
-108.263242331549060
 21
32.826001327961649
  0
LINE
  8
0
  6
DASHDOT
 62
4
 10
-69.664141458674806
 20
23.881844070285524
 11
-69.664141458674806
 21
45.861346202820528
  0
LINE
  8
0
  6
DASHDOT
 62
4
 10
-80.947670874401467
 20
32.826001327961649
 11
-59.180693465873162
 21
32.826001327961649
  0
LINE
  8
0
  6
DASHED
 62
4
 10
-112.664141458674800
 20
32.826001327961649
 11
-112.664141458674800
 21
47.326001327961649
  0
LINE
  8
0
  6
DASHED
 62
4
 10
-126.664141458674800
 20
32.826001327961649
 11
-126.664141458674800
 21
47.326001327961649
  0
ARC
  8
0
  6
DASHED
 62
4
 10
-119.664141458674800
 20
32.826001327961649
 40
7.000000000000000
 50
180.000000000000000
 51
0.000000000000000
  0
LINE
  8
0
  6
DASHED
 62
4
 10
-62.664141458674806
 20
32.826001327961649
 11
-62.664141458674806
 21
47.326001327961649
  0
LINE
  8
0
  6
DASHED
 62
4
 10
-76.664141458674806
 20
32.826001327961649
 11
-76.664141458674806
 21
47.326001327961649
  0
ARC
  8
0
  6
DASHED
 62
4
 10
-69.664141458674806
 20
32.826001327961649
 40
7.000000000000000
 50
180.000000000000000
 51
0.000000000000000
  0
CIRCLE
  8
0
  6
DASHED
 62
4
 10
-69.664141458674806
 20
32.826001327961649
 40
6.000000000000000
  0
LINE
  8
0
  6
DASHDOT
 62
4
 10
193.245254053760390
 20
110.826001327961420
 11
-196.711433898983220
 21
110.826001327961420
  0
LINE
  8
0
  6
CONTINUOUS
 62
3
 10
23.835858541324967
 20
181.400058837654800
 11
23.835858541324967
 21
170.326001327961190
  0
LINE
  8
0
  6
CONTINUOUS
 62
3
 10
23.835858541324967
 20
40.251943818267137
 11
23.835858541324967
 21
51.326001327961421
  0
LINE
  8
0
  6
DASHDOT
 62
4
 10
44.831684801300071
 20
173.326001327961420
 11
26.344252838739237
 21
173.326001327961420
  0
LINE
  8
0
  6
DASHDOT
 62
4
 10
35.835858541324967
 20
182.808408949844190
 11
35.835858541324967
 21
164.180826022686120
  0
LINE
  8
0
  6
DASHDOT
 62
4
 10
44.546027540616706
 20
48.326001327960512
 11
26.344252838739237
 21
48.326001327960512
  0
LINE
  8
0
  6
DASHDOT
 62
4
 10
35.835858541324967
 20
38.771279469976321
 11
35.835858541324967
 21
57.290225534525121
  0
LINE
  8
0
  6
DASHDOT
 62
4
 10
138.561635307769390
 20
48.326001327960512
 11
119.344252838739290
 21
48.326001327960512
  0
LINE
  8
0
  6
DASHDOT
 62
4
 10
128.835858541325020
 20
39.048017879645954
 11
128.835858541325020
 21
58.438168037537139
  0
LINE
  8
0
  6
DASHDOT
 62
4
 10
137.573748931843510
 20
173.326001327961420
 11
119.344252838739290
 21
173.326001327961420
  0
LINE
  8
0
  6
DASHDOT
 62
4
 10
128.835858541325020
 20
182.581740067187520
 11
128.835858541325020
 21
162.474809778708620
  0
ARC
  8
0
  6
CONTINUOUS
 62
3
 10
291.000488870704430
 20
-83.845174477952014
 40
49.999999999999631
 50
93.357817421570857
 51
180.000000000000000
  0
ARC
  8
0
  6
CONTINUOUS
 62
3
 10
311.500488870704430
 20
-433.244301551847460
 40
400.000000000000110
 50
90.000000000000000
 51
93.357817421570701
  0
ARC
  8
0
  6
CONTINUOUS
 62
3
 10
311.500488870704430
 20
-433.244301551847460
 40
376.652999999999910
 50
90.000000000000000
 51
93.357817421570715
  0
ARC
  8
0
  6
CONTINUOUS
 62
3
 10
291.000488870704430
 20
-83.845174477952014
 40
26.652999999999416
 50
93.357817421571156
 51
180.000000000000000
  0
ARC
  8
0
  6
CONTINUOUS
 62
3
 10
332.000488870704430
 20
-83.845174477952014
 40
26.653000000000247
 50
0.000000000000000
 51
86.642182578428844
  0
ARC
  8
0
  6
CONTINUOUS
 62
3
 10
311.500488870704430
 20
-433.244301551847460
 40
376.652999999999620
 50
86.642182578429285
 51
90.000000000000000
  0
ARC
  8
0
  6
CONTINUOUS
 62
3
 10
332.000488870704430
 20
-83.845174477952014
 40
50.000000000000000
 50
0.000000000000000
 51
86.642182578429143
  0
ARC
  8
0
  6
CONTINUOUS
 62
3
 10
311.500488870704430
 20
-433.244301551847460
 40
399.999999999999830
 50
86.642182578429299
 51
90.000000000000000
  0
ARC
  8
0
  6
CONTINUOUS
 62
3
 10
311.500488870704430
 20
-79.244301551847229
 40
22.000000000000060
 50
74.570234885459911
 51
40.667845852653258
  0
ARC
  8
0
  6
CONTINUOUS
 62
3
 10
311.500488870704430
 20
-79.244301551847229
 40
22.000000000000224
 50
38.816131624159461
 51
78.293519882306398
  0
CIRCLE
  8
0
  6
CONTINUOUS
 62
3
 10
311.500488870704430
 20
-79.244301551847229
 40
19.000000000000000
  0
ARC
  8
0
  6
CONTINUOUS
 62
3
 10
394.800488870704380
 20
-73.286801551847248
 40
18.799999999999983
 50
100.598785266066050
 51
152.404382371857680
  0
LINE
  8
0
  6
DASHDOT
 62
4
 10
311.500488870704430
 20
-23.850856925235234
 11
311.500488870704430
 21
-176.105751082166310
  0
ARC
  8
0
  6
CONTINUOUS
 62
3
 10
360.927253010514050
 20
-49.817537412037666
 40
6.099999427795340
 50
18.859369386502486
 51
80.405159553228714
  0
ARC
  8
0
  6
CONTINUOUS
 62
3
 10
262.073724730894810
 20
-49.817537412037666
 40
6.099999427795424
 50
99.594840446771286
 51
161.140630613497540
  0
INSERT
  8
0
  2
SYM2
 10
52.335858541326388
 20
-101.244301551847340
  0
LINE
  8
0
  6
CONTINUOUS
 62
3
 10
49.335858541326388
 20
-48.244301551847343
 11
46.335858541326388
 21
-48.244301551847343
  0
LINE
  8
0
  6
CONTINUOUS
 62
3
 10
46.335858541326388
 20
-48.244301551847343
 11
46.335858541326388
 21
-38.244301551847343
  0
LINE
  8
0
  6
CONTINUOUS
 62
3
 10
49.590636978173279
 20
-38.244301551847343
 11
46.335858541326388
 21
-38.244301551847343
  0
LINE
  8
0
  6
CONTINUOUS
 62
3
 10
-135.164141458672080
 20
-152.984416652285290
 11
-137.164141458672080
 21
-151.331775013161860
  0
LINE
  8
0
  6
CONTINUOUS
 62
3
 10
-133.164141458672080
 20
-154.160202137907620
 11
-135.164141458672080
 21
-152.984416652285290
  0
LINE
  8
0
  6
CONTINUOUS
 62
3
 10
-135.164141458672080
 20
-152.984416652285290
 11
-133.164141458672080
 21
-151.331775013161860
  0
LINE
  8
0
  6
CONTINUOUS
 62
3
 10
-137.164141458672080
 20
-154.160202137907620
 11
-135.164141458672080
 21
-152.984416652285290
  0
POLYLINE
  8
0
  6
CONTINUOUS
 62
3
 66
1
 70
1
  0
VERTEX
  8
0
  6
CONTINUOUS
 62
3
 10
-130.464141458672090
 20
-151.167826583907300
  0
VERTEX
  8
0
  6
CONTINUOUS
 62
3
 10
-130.554450640776910
 20
-150.464869617706940
  0
VERTEX
  8
0
  6
CONTINUOUS
 62
3
 10
-130.821907655869040
 20
-149.788926893494850
  0
VERTEX
  8
0
  6
CONTINUOUS
 62
3
 10
-131.256234280850120
 20
-149.165974511089440
  0
VERTEX
  8
0
  6
CONTINUOUS
 62
3
 10
-131.840739587095300
 20
-148.619952181190850
  0
VERTEX
  8
0
  6
CONTINUOUS
 62
3
 10
-132.552961363479970
 20
-148.171843235724220
  0
VERTEX
  8
0
  6
CONTINUOUS
 62
3
 10
-133.365529326556160
 20
-147.838868250161480
  0
VERTEX
  8
0
  6
CONTINUOUS
 62
3
 10
-134.247216945196270
 20
-147.633823266463220
  0
VERTEX
  8
0
  6
CONTINUOUS
 62
3
 10
-135.164141458672080
 20
-147.564588048362450
  0
VERTEX
  8
0
  6
CONTINUOUS
 62
3
 10
-136.081065972147880
 20
-147.633823266463220
  0
VERTEX
  8
0
  6
CONTINUOUS
 62
3
 10
-136.962753590788000
 20
-147.838868250161480
  0
VERTEX
  8
0
  6
CONTINUOUS
 62
3
 10
-137.775321553864190
 20
-148.171843235724220
  0
VERTEX
  8
0
  6
CONTINUOUS
 62
3
 10
-138.487543330248850
 20
-148.619952181190850
  0
VERTEX
  8
0
  6
CONTINUOUS
 62
3
 10
-139.072048636494030
 20
-149.165974511089440
  0
VERTEX
  8
0
  6
CONTINUOUS
 62
3
 10
-139.506375261475110
 20
-149.788926893494850
  0
VERTEX
  8
0
  6
CONTINUOUS
 62
3
 10
-139.773832276567250
 20
-150.464869617706940
  0
VERTEX
  8
0
  6
CONTINUOUS
 62
3
 10
-139.864141458672070
 20
-151.167826583907300
  0
VERTEX
  8
0
  6
CONTINUOUS
 62
3
 10
-139.773832276567250
 20
-151.870783550107660
  0
VERTEX
  8
0
  6
CONTINUOUS
 62
3
 10
-139.506375261475110
 20
-152.546726274319750
  0
VERTEX
  8
0
  6
CONTINUOUS
 62
3
 10
-139.072048636494030
 20
-153.169678656725150
  0
VERTEX
  8
0
  6
CONTINUOUS
 62
3
 10
-138.487543330248830
 20
-153.715700986623740
  0
VERTEX
  8
0
  6
CONTINUOUS
 62
3
 10
-137.775321553864190
 20
-154.163809932090370
  0
VERTEX
  8
0
  6
CONTINUOUS
 62
3
 10
-136.962753590788000
 20
-154.496784917653120
  0
VERTEX
  8
0
  6
CONTINUOUS
 62
3
 10
-136.081065972147880
 20
-154.701829901351370
  0
VERTEX
  8
0
  6
CONTINUOUS
 62
3
 10
-135.164141458672080
 20
-154.771065119452150
  0
VERTEX
  8
0
  6
CONTINUOUS
 62
3
 10
-134.247216945196270
 20
-154.701829901351370
  0
VERTEX
  8
0
  6
CONTINUOUS
 62
3
 10
-133.365529326556160
 20
-154.496784917653120
  0
VERTEX
  8
0
  6
CONTINUOUS
 62
3
 10
-132.552961363479970
 20
-154.163809932090370
  0
VERTEX
  8
0
  6
CONTINUOUS
 62
3
 10
-131.840739587095330
 20
-153.715700986623740
  0
VERTEX
  8
0
  6
CONTINUOUS
 62
3
 10
-131.256234280850120
 20
-153.169678656725150
  0
VERTEX
  8
0
  6
CONTINUOUS
 62
3
 10
-130.821907655869040
 20
-152.546726274319750
  0
VERTEX
  8
0
  6
CONTINUOUS
 62
3
 10
-130.554450640776910
 20
-151.870783550107660
  0
SEQEND
  8
0
  6
CONTINUOUS
 62
3
  0
LINE
  8
0
  6
CONTINUOUS
 62
3
 10
-135.164141458672080
 20
-45.504186451409851
 11
-137.164141458672080
 21
-47.156828090533281
  0
LINE
  8
0
  6
CONTINUOUS
 62
3
 10
-133.164141458672080
 20
-44.328400965787068
 11
-135.164141458672080
 21
-45.504186451409851
  0
LINE
  8
0
  6
CONTINUOUS
 62
3
 10
-135.164141458672080
 20
-45.504186451409851
 11
-133.164141458672080
 21
-47.156828090533281
  0
LINE
  8
0
  6
CONTINUOUS
 62
3
 10
-137.164141458672080
 20
-44.328400965787068
 11
-135.164141458672080
 21
-45.504186451409851
  0
POLYLINE
  8
0
  6
CONTINUOUS
 62
3
 66
1
 70
1
  0
VERTEX
  8
0
  6
CONTINUOUS
 62
3
 10
-130.464141458672090
 20
-47.320776519787387
  0
VERTEX
  8
0
  6
CONTINUOUS
 62
3
 10
-130.554450640776910
 20
-46.617819553587026
  0
VERTEX
  8
0
  6
CONTINUOUS
 62
3
 10
-130.821907655869040
 20
-45.941876829374934
  0
VERTEX
  8
0
  6
CONTINUOUS
 62
3
 10
-131.256234280850120
 20
-45.318924446969532
  0
VERTEX
  8
0
  6
CONTINUOUS
 62
3
 10
-131.840739587095300
 20
-44.772902117070949
  0
VERTEX
  8
0
  6
CONTINUOUS
 62
3
 10
-132.552961363479970
 20
-44.324793171604334
  0
VERTEX
  8
0
  6
CONTINUOUS
 62
3
 10
-133.365529326556160
 20
-43.991818186041577
  0
VERTEX
  8
0
  6
CONTINUOUS
 62
3
 10
-134.247216945196270
 20
-43.786773202343326
  0
VERTEX
  8
0
  6
CONTINUOUS
 62
3
 10
-135.164141458672080
 20
-43.717537984242554
  0
VERTEX
  8
0
  6
CONTINUOUS
 62
3
 10
-136.081065972147880
 20
-43.786773202343326
  0
VERTEX
  8
0
  6
CONTINUOUS
 62
3
 10
-136.962753590788000
 20
-43.991818186041577
  0
VERTEX
  8
0
  6
CONTINUOUS
 62
3
 10
-137.775321553864190
 20
-44.324793171604334
  0
VERTEX
  8
0
  6
CONTINUOUS
 62
3
 10
-138.487543330248850
 20
-44.772902117070949
  0
VERTEX
  8
0
  6
CONTINUOUS
 62
3
 10
-139.072048636494030
 20
-45.318924446969532
  0
VERTEX
  8
0
  6
CONTINUOUS
 62
3
 10
-139.506375261475110
 20
-45.941876829374934
  0
VERTEX
  8
0
  6
CONTINUOUS
 62
3
 10
-139.773832276567250
 20
-46.617819553587026
  0
VERTEX
  8
0
  6
CONTINUOUS
 62
3
 10
-139.864141458672070
 20
-47.320776519787387
  0
VERTEX
  8
0
  6
CONTINUOUS
 62
3
 10
-139.773832276567250
 20
-48.023733485987748
  0
VERTEX
  8
0
  6
CONTINUOUS
 62
3
 10
-139.506375261475110
 20
-48.699676210199840
  0
VERTEX
  8
0
  6
CONTINUOUS
 62
3
 10
-139.072048636494030
 20
-49.322628592605241
  0
VERTEX
  8
0
  6
CONTINUOUS
 62
3
 10
-138.487543330248830
 20
-49.868650922503818
  0
VERTEX
  8
0
  6
CONTINUOUS
 62
3
 10
-137.775321553864190
 20
-50.316759867970440
  0
VERTEX
  8
0
  6
CONTINUOUS
 62
3
 10
-136.962753590788000
 20
-50.649734853533197
  0
VERTEX
  8
0
  6
CONTINUOUS
 62
3
 10
-136.081065972147880
 20
-50.854779837231447
  0
VERTEX
  8
0
  6
CONTINUOUS
 62
3
 10
-135.164141458672080
 20
-50.924015055332220
  0
VERTEX
  8
0
  6
CONTINUOUS
 62
3
 10
-134.247216945196270
 20
-50.854779837231447
  0
VERTEX
  8
0
  6
CONTINUOUS
 62
3
 10
-133.365529326556160
 20
-50.649734853533197
  0
VERTEX
  8
0
  6
CONTINUOUS
 62
3
 10
-132.552961363479970
 20
-50.316759867970440
  0
VERTEX
  8
0
  6
CONTINUOUS
 62
3
 10
-131.840739587095330
 20
-49.868650922503818
  0
VERTEX
  8
0
  6
CONTINUOUS
 62
3
 10
-131.256234280850120
 20
-49.322628592605241
  0
VERTEX
  8
0
  6
CONTINUOUS
 62
3
 10
-130.821907655869040
 20
-48.699676210199840
  0
VERTEX
  8
0
  6
CONTINUOUS
 62
3
 10
-130.554450640776910
 20
-48.023733485987748
  0
SEQEND
  8
0
  6
CONTINUOUS
 62
3
  0
ARC
  8
0
  6
CONTINUOUS
 62
3
 10
-172.564141458622370
 20
-146.687506609092910
 40
2.600000000000136
 50
180.000000000000000
 51
234.999999999998610
  0
LINE
  8
0
  6
CONTINUOUS
 62
3
 10
-164.329694408113990
 20
-155.627342437627250
 11
-174.055440193134980
 21
-148.817301924244020
  0
ARC
  8
0
  6
CONTINUOUS
 62
3
 10
-152.858165681093000
 20
-139.244301551847460
 40
20.000000000000007
 50
234.999999999999740
 51
270.000000000000000
  0
LINE
  8
0
  6
CONTINUOUS
 62
3
 10
-175.164141458622510
 20
-99.244301551847457
 11
-175.164141458622510
 21
-146.687506609092910
  0
LINE
  8
0
  6
CONTINUOUS
 62
3
 10
-124.164141458672640
 20
-159.244301551847460
 11
-152.858165681093000
 21
-159.244301551847460
  0
LINE
  8
0
  6
CONTINUOUS
 62
3
 10
23.835858541324967
 20
-157.744301551847460
 11
-124.164141458672640
 21
-157.744301551847460
  0
LINE
  8
0
  6
CONTINUOUS
 62
3
 10
-134.164141458672530
 20
-134.244301551847460
 11
-134.164141458672530
 21
-99.244301551847457
  0
ARC
  8
0
  6
CONTINUOUS
 62
3
 10
-127.164141458672640
 20
-140.244301551847460
 40
3.000000000000000
 50
0.000000000000000
 51
90.000000000000000
  0
LINE
  8
0
  6
CONTINUOUS
 62
3
 10
-127.164141458672640
 20
-137.244301551847460
 11
-131.164141458672530
 21
-137.244301551847460
  0
ARC
  8
0
  6
CONTINUOUS
 62
3
 10
-131.164141458672530
 20
-134.244301551847460
 40
3.000000000000000
 50
180.000000000000000
 51
270.000000000000000
  0
LINE
  8
0
  6
CONTINUOUS
 62
3
 10
-124.164141458672640
 20
-140.244301551847460
 11
-124.164141458672640
 21
-159.244301551847460
  0
LINE
  8
0
  6
CONTINUOUS
 62
3
 10
-59.164141458672646
 20
-130.744301551847460
 11
-130.164141458672530
 21
-130.744301551847460
  0
ARC
  8
0
  6
CONTINUOUS
 62
3
 10
-130.164141458672530
 20
-128.744301551847460
 40
2.000000000000000
 50
180.000000000000000
 51
270.000000000000000
  0
LINE
  8
0
  6
CONTINUOUS
 62
3
 10
-132.164141458672530
 20
-99.244301551847457
 11
-132.164141458672530
 21
-128.744301551847460
  0
LINE
  8
0
  6
CONTINUOUS
 62
3
 10
-57.164141458672646
 20
-99.244301551847457
 11
-57.164141458672646
 21
-128.744301551847460
  0
ARC
  8
0
  6
CONTINUOUS
 62
3
 10
-59.164141458672646
 20
-128.744301551847460
 40
2.000000000000000
 50
270.000000000000000
 51
0.000000000000000
  0
ARC
  8
0
  6
CONTINUOUS
 62
3
 10
-59.164141458672646
 20
-128.244301551847460
 40
1.000000000000000
 50
270.000000000000000
 51
0.000000000000000
  0
ARC
  8
0
  6
CONTINUOUS
 62
3
 10
-130.164141458672530
 20
-128.244301551847460
 40
1.000000000000000
 50
180.000000000000000
 51
270.000000000000000
  0
LINE
  8
0
  6
CONTINUOUS
 62
3
 10
-59.164141458672646
 20
-129.244301551847460
 11
-130.164141458672530
 21
-129.244301551847460
  0
LINE
  8
0
  6
DASHDOT
 62
4
 10
64.236005917266766
 20
-99.244301551847457
 11
-194.666032535159790
 21
-99.244301551847457
  0
LINE
  8
0
  6
CONTINUOUS
 62
4
 10
-134.164141458672530
 20
-130.995093268221810
 11
49.335858541326388
 21
-130.995093268221810
  0
LINE
  8
0
  6
CONTINUOUS
 62
4
 10
-134.077805247669460
 20
-134.958838692021350
 11
49.335858541326388
 21
-134.958838692021350
  0
LINE
  8
0
  6
CONTINUOUS
 62
4
 10
-133.067134017052750
 20
-136.563486607583400
 11
49.335858541326388
 21
-136.563486607583400
  0
LINE
  8
0
  6
CONTINUOUS
 62
4
 10
-124.164141458672640
 20
-144.610088270317190
 11
49.335858541326388
 21
-144.610088270317190
  0
LINE
  8
0
  6
CONTINUOUS
 62
4
 10
-124.164141458672640
 20
-149.559835738622950
 11
25.297426095941887
 21
-149.559835738622950
  0
LINE
  8
0
  6
CONTINUOUS
 62
4
 10
-124.164141458672640
 20
-154.244301551847460
 11
23.835858541324967
 21
-154.244301551847460
  0
LINE
  8
0
  6
CONTINUOUS
 62
4
 10
-124.164141458672640
 20
-155.244301551847460
 11
23.835858541324967
 21
-155.244301551847460
  0
LINE
  8
0
  6
CONTINUOUS
 62
4
 10
-124.164141458672640
 20
-156.744301551847460
 11
23.835858541324967
 21
-156.744301551847460
  0
LINE
  8
0
  6
CONTINUOUS
 62
4
 10
-124.164141458672640
 20
-156.244301551847460
 11
23.835858541324967
 21
-156.244301551847460
  0
LINE
  8
0
  6
CONTINUOUS
 62
4
 10
-134.164141458672530
 20
-119.244301551847450
 11
-132.164141458672530
 21
-119.244301551847450
  0
LINE
  8
0
  6
CONTINUOUS
 62
4
 10
-57.164141458672646
 20
-119.244301551847450
 11
49.335858541326388
 21
-119.244301551847470
  0
LINE
  8
0
  6
CONTINUOUS
 62
4
 10
-134.164141458672530
 20
-125.436235344327080
 11
-132.164141458672530
 21
-125.436235344327080
  0
LINE
  8
0
  6
CONTINUOUS
 62
4
 10
-57.164141458672646
 20
-125.436235344327080
 11
49.335858541326388
 21
-125.436235344327100
  0
LINE
  8
0
  6
CONTINUOUS
 62
4
 10
-134.164141458672530
 20
-124.074355008977810
 11
-132.164141458672530
 21
-124.074355008977810
  0
LINE
  8
0
  6
CONTINUOUS
 62
4
 10
-57.164141458672646
 20
-124.074355008977810
 11
49.335858541326388
 21
-124.074355008977810
  0
LINE
  8
0
  6
CONTINUOUS
 62
4
 10
-134.164141458672530
 20
-129.526735878416730
 11
-132.004738243578740
 21
-129.526735878416730
  0
LINE
  8
0
  6
CONTINUOUS
 62
4
 10
-57.323544673766548
 20
-129.526735878416730
 11
49.335858541326388
 21
-129.526735878416730
  0
LINE
  8
0
  6
CONTINUOUS
 62
3
 10
-58.164141458672646
 20
-128.244301551847460
 11
-58.164141458672646
 21
-99.244301551847457
  0
LINE
  8
0
  6
CONTINUOUS
 62
3
 10
-131.164141458672530
 20
-128.244301551847460
 11
-131.164141458672760
 21
-99.244301551847457
  0
ARC
  8
0
  6
CONTINUOUS
 62
3
 10
-172.564141458622370
 20
-51.801096494602007
 40
2.599999999999721
 50
125.000000000001370
 51
180.000000000000000
  0
LINE
  8
0
  6
CONTINUOUS
 62
3
 10
-164.329694408113990
 20
-42.861260666067665
 11
-174.055440193134980
 21
-49.671301179450893
  0
ARC
  8
0
  6
CONTINUOUS
 62
3
 10
-152.858165681093000
 20
-59.244301551847457
 40
20.000000000000000
 50
90.000000000000000
 51
125.000000000000240
  0
LINE
  8
0
  6
CONTINUOUS
 62
3
 10
-175.164141458622510
 20
-99.244301551847457
 11
-175.164141458622510
 21
-51.801096494602007
  0
LINE
  8
0
  6
CONTINUOUS
 62
3
 10
-124.164141458672640
 20
-39.244301551847457
 11
-152.858165681093000
 21
-39.244301551847457
  0
LINE
  8
0
  6
CONTINUOUS
 62
3
 10
24.835858541327241
 20
-40.744301551847457
 11
-124.164141458672640
 21
-40.744301551847457
  0
LINE
  8
0
  6
CONTINUOUS
 62
3
 10
-134.164141458672530
 20
-64.244301551847457
 11
-134.164141458672530
 21
-99.244301551847457
  0
ARC
  8
0
  6
CONTINUOUS
 62
3
 10
-127.164141458672640
 20
-58.244301551847457
 40
3.000000000000000
 50
270.000000000000000
 51
0.000000000000000
  0
LINE
  8
0
  6
CONTINUOUS
 62
3
 10
-127.164141458672640
 20
-61.244301551847457
 11
-131.164141458672530
 21
-61.244301551847457
  0
ARC
  8
0
  6
CONTINUOUS
 62
3
 10
-131.164141458672530
 20
-64.244301551847457
 40
3.000000000000000
 50
90.000000000000000
 51
180.000000000000000
  0
LINE
  8
0
  6
CONTINUOUS
 62
3
 10
-124.164141458672640
 20
-58.244301551847457
 11
-124.164141458672640
 21
-39.244301551847457
  0
LINE
  8
0
  6
CONTINUOUS
 62
3
 10
-59.164141458672646
 20
-67.744301551847457
 11
-130.164141458672530
 21
-67.744301551847457
  0
ARC
  8
0
  6
CONTINUOUS
 62
3
 10
-130.164141458672530
 20
-69.744301551847457
 40
2.000000000000000
 50
90.000000000000000
 51
180.000000000000000
  0
LINE
  8
0
  6
CONTINUOUS
 62
3
 10
-132.164141458672530
 20
-99.244301551847457
 11
-132.164141458672530
 21
-69.744301551847457
  0
LINE
  8
0
  6
CONTINUOUS
 62
3
 10
-57.164141458672646
 20
-99.244301551847457
 11
-57.164141458672646
 21
-69.744301551847457
  0
ARC
  8
0
  6
CONTINUOUS
 62
3
 10
-59.164141458672646
 20
-69.744301551847457
 40
2.000000000000000
 50
0.000000000000000
 51
90.000000000000000
  0
ARC
  8
0
  6
CONTINUOUS
 62
3
 10
-59.164141458672646
 20
-70.244301551847457
 40
1.000000000000000
 50
0.000000000000000
 51
90.000000000000000
  0
ARC
  8
0
  6
CONTINUOUS
 62
3
 10
-130.164141458672530
 20
-70.244301551847457
 40
1.000000000000000
 50
90.000000000000000
 51
180.000000000000000
  0
LINE
  8
0
  6
CONTINUOUS
 62
3
 10
-59.164141458672646
 20
-69.244301551847457
 11
-130.164141458672530
 21
-69.244301551847457
  0
LINE
  8
0
  6
CONTINUOUS
 62
4
 10
-134.164141458672530
 20
-67.493509835473105
 11
49.335858541326388
 21
-67.493509835473105
  0
LINE
  8
0
  6
CONTINUOUS
 62
4
 10
-134.077805247669460
 20
-63.529764411673568
 11
49.335858541326388
 21
-63.529764411673561
  0
LINE
  8
0
  6
CONTINUOUS
 62
4
 10
-133.067134017052750
 20
-61.925116496111514
 11
49.335858541326388
 21
-61.925116496111514
  0
LINE
  8
0
  6
CONTINUOUS
 62
4
 10
-124.164141458672640
 20
-53.878514833377722
 11
49.335858541326388
 21
-53.878514833377722
  0
LINE
  8
0
  6
CONTINUOUS
 62
4
 10
-124.164141458672640
 20
-48.928767365071963
 11
49.335858541326388
 21
-48.928767365071963
  0
LINE
  8
0
  6
CONTINUOUS
 62
4
 10
-124.164141458672640
 20
-44.244301551847457
 11
46.335858541326388
 21
-44.244301551847457
  0
LINE
  8
0
  6
CONTINUOUS
 62
4
 10
-124.164141458672640
 20
-43.244301551847457
 11
46.335858541326388
 21
-43.244301551847457
  0
LINE
  8
0
  6
CONTINUOUS
 62
4
 10
-124.164141458672640
 20
-41.744301551847457
 11
46.335858541326388
 21
-41.744301551847457
  0
LINE
  8
0
  6
CONTINUOUS
 62
4
 10
-124.164141458672640
 20
-42.244301551847457
 11
46.335858541326388
 21
-42.244301551847457
  0
LINE
  8
0
  6
CONTINUOUS
 62
4
 10
-134.164141458672530
 20
-79.244301551847457
 11
-132.164141458672530
 21
-79.244301551847457
  0
LINE
  8
0
  6
CONTINUOUS
 62
4
 10
-57.164141458672646
 20
-79.244301551847457
 11
48.335858541326388
 21
-79.244301551847457
  0
LINE
  8
0
  6
CONTINUOUS
 62
4
 10
-134.164141458672530
 20
-73.052367759367826
 11
-132.164141458672530
 21
-73.052367759367826
  0
LINE
  8
0
  6
CONTINUOUS
 62
4
 10
-57.164141458672646
 20
-73.052367759367826
 11
48.335858541326388
 21
-73.052367759367826
  0
LINE
  8
0
  6
CONTINUOUS
 62
4
 10
-134.164141458672530
 20
-74.414248094717095
 11
-132.164141458672530
 21
-74.414248094717095
  0
LINE
  8
0
  6
CONTINUOUS
 62
4
 10
-57.164141458672646
 20
-74.414248094717095
 11
48.335858541326388
 21
-74.414248094717095
  0
LINE
  8
0
  6
CONTINUOUS
 62
4
 10
-134.164141458672530
 20
-68.961867225278183
 11
-132.004738243578740
 21
-68.961867225278183
  0
LINE
  8
0
  6
CONTINUOUS
 62
4
 10
-57.323544673766548
 20
-68.961867225278183
 11
49.335858541326388
 21
-68.961867225278183
  0
LINE
  8
0
  6
CONTINUOUS
 62
3
 10
-58.164141458672646
 20
-70.244301551847457
 11
-58.164141458672646
 21
-99.244301551847457
  0
LINE
  8
0
  6
CONTINUOUS
 62
3
 10
-131.164141458672530
 20
-70.244301551847457
 11
-131.164141458672760
 21
-99.244301551847457
  0
INSERT
  8
0
  2
SYM3
 10
398.945311077047790
 20
-140.163258163107680
 41
-1.000000000000000
 42
1.000000000000000
 43
1.000000000000000
 50
2.862405226113666
  0
LINE
  8
0
  6
CONTINUOUS
 62
3
 10
392.503358491285330
 20
-43.364181479067042
 11
397.596995419562290
 21
-145.236920044607810
  0
LINE
  8
0
  6
CONTINUOUS
 62
3
 10
397.596995419562290
 20
-145.236920044607810
 11
399.194999161766870
 21
-145.157019857496830
  0
LINE
  8
0
  6
CONTINUOUS
 62
3
 10
394.101362233489910
 20
-43.284281291956859
 11
399.194999161766870
 21
-145.157019857496830
  0
ARC
  8
0
  6
CONTINUOUS
 62
3
 10
395.218991335340430
 20
-46.031896888201686
 40
1.299999237060645
 50
19.463936333587132
 51
92.862405909348169
  0
ARC
  8
0
  6
CONTINUOUS
 62
3
 10
395.438716926092410
 20
-50.426408703239417
 40
1.299999237060550
 50
272.862387240019760
 51
346.260856815788600
  0
LINE
  8
0
  6
CONTINUOUS
 62
3
 10
394.176268658905200
 20
-44.782409800273513
 11
395.154072471412750
 21
-44.733519609648170
  0
LINE
  8
0
  6
CONTINUOUS
 62
3
 10
394.525831977512330
 20
-51.773676172418391
 11
395.503635790020100
 21
-51.724785981793048
  0
LINE
  8
0
  6
CONTINUOUS
 62
3
 10
394.176268658905200
 20
-44.782409800273513
 11
394.525831977512330
 21
-51.773676172418391
  0
LINE
  8
0
  6
CONTINUOUS
 62
3
 10
394.176268658905200
 20
-44.782409800273513
 11
394.525831977512330
 21
-51.773676172418391
  0
POINT
  8
0
  6
CONTINUOUS
 62
3
 10
394.351050318208760
 20
-48.278042986345895
  0
ARC
  8
0
  6
CONTINUOUS
 62
3
 10
387.959035730384360
 20
-48.597643715737149
 40
8.999999999999948
 50
346.260856815786500
 51
19.463936333592187
  0
LINE
  8
0
  6
CONTINUOUS
 62
3
 10
394.101362233489910
 20
-43.284281291956859
 11
392.503358491285330
 21
-43.364181479067042
  0
ARC
  8
0
  6
CONTINUOUS
 62
3
 10
394.800488870704380
 20
-73.286801551847248
 40
18.799999999999837
 50
5.724810452223617
 51
35.808626813495749
  0
ARC
  8
0
  6
CONTINUOUS
 62
3
 10
394.800488870704380
 20
-73.286801551847248
 40
18.799999999999933
 50
35.808626813495749
 51
85.126025186157264
  0
LINE
  8
0
  6
CONTINUOUS
 62
3
 10
417.496748222325320
 20
-111.211988584266230
 11
413.506723284669310
 21
-71.411489831148970
  0
ARC
  8
0
  6
CONTINUOUS
 62
3
 10
400.726954702036660
 20
-135.746161873890740
 40
1.999999999999995
 50
99.916536608232732
 51
182.862405226112400
  0
LINE
  8
0
  6
CONTINUOUS
 62
3
 10
393.302360362387620
 20
-43.324231385512007
 11
398.395997290664580
 21
-145.196969951052100
  0
ARC
  8
0
  6
CONTINUOUS
 62
3
 10
395.133941604320850
 20
-136.025812528776560
 40
1.999999999999927
 50
2.862405226112724
 51
85.808273843998350
  0
ARC
  8
0
  6
CONTINUOUS
 62
3
 10
396.567747334333260
 20
-52.562014519823720
 40
1.999999999999927
 50
182.862405226112710
 51
265.126025186159040
  0
ARC
  8
0
  6
CONTINUOUS
 62
3
 10
390.974734236617450
 20
-52.841665174709533
 40
1.999999999999958
 50
280.598785266065990
 51
2.862405226112724
  0
ARC
  8
0
  6
CONTINUOUS
 62
3
 10
396.800488870704380
 20
-113.286801551847240
 40
20.799999999999926
 50
334.359929784105190
 51
5.724810452223396
  0
ARC
  8
0
  6
CONTINUOUS
 62
3
 10
396.800488870704380
 20
-113.286801551847240
 40
20.800000000000040
 50
279.916536608230560
 51
334.359929784105190
  0
ARC
  8
0
  6
CONTINUOUS
 62
3
 10
396.800488870704380
 20
-113.286801551847240
 40
20.799999999999926
 50
334.359929784105190
 51
5.724810452223396
  0
ARC
  8
0
  6
CONTINUOUS
 62
3
 10
396.800488870704380
 20
-113.286801551847240
 40
20.799999999999994
 50
224.639772958603290
 51
265.808273843992540
  0
POLYLINE
  8
0
  6
CONTINUOUS
 62
3
 66
1
  0
VERTEX
  8
0
  6
CONTINUOUS
 62
3
 10
376.296602391417880
 20
-83.845174477952014
  0
VERTEX
  8
0
  6
CONTINUOUS
 62
3
 10
376.147970154416730
 20
-80.918819647710095
  0
VERTEX
  8
0
  6
CONTINUOUS
 62
3
 10
375.707785296927400
 20
-78.104922992475665
  0
VERTEX
  8
0
  6
CONTINUOUS
 62
3
 10
374.992963876164650
 20
-75.511620982657973
  0
VERTEX
  8
0
  6
CONTINUOUS
 62
3
 10
374.030976078451940
 20
-73.238572760153801
  0
VERTEX
  8
0
  6
CONTINUOUS
 62
3
 10
372.858790555366400
 20
-71.373130293413837
  0
VERTEX
  8
0
  6
CONTINUOUS
 62
3
 10
371.521453739190970
 20
-69.986981490282716
  0
VERTEX
  8
0
  6
CONTINUOUS
 62
3
 10
370.070358733784130
 20
-69.133395271903566
  0
VERTEX
  8
0
  6
CONTINUOUS
 62
3
 10
368.561270306420280
 20
-68.845174477952014
  0
VERTEX
  8
0
  6
CONTINUOUS
 62
3
 10
367.052181879056430
 20
-69.133395271903566
  0
VERTEX
  8
0
  6
CONTINUOUS
 62
3
 10
365.601086873649590
 20
-69.986981490282716
  0
VERTEX
  8
0
  6
CONTINUOUS
 62
3
 10
364.263750057474170
 20
-71.373130293413837
  0
VERTEX
  8
0
  6
CONTINUOUS
 62
3
 10
363.091564534388620
 20
-73.238572760153801
  0
VERTEX
  8
0
  6
CONTINUOUS
 62
3
 10
362.129576736675920
 20
-75.511620982657988
  0
VERTEX
  8
0
  6
CONTINUOUS
 62
3
 10
361.414755315913170
 20
-78.104922992475665
  0
VERTEX
  8
0
  6
CONTINUOUS
 62
3
 10
360.974570458423840
 20
-80.918819647710095
  0
VERTEX
  8
0
  6
CONTINUOUS
 62
3
 10
360.825938221422690
 20
-83.845174477952014
  0
SEQEND
  8
0
  6
CONTINUOUS
 62
3
  0
POLYLINE
  8
0
  6
CONTINUOUS
 62
3
 66
1
  0
VERTEX
  8
0
  6
CONTINUOUS
 62
3
 10
262.175039519986630
 20
-83.845174477952014
  0
VERTEX
  8
0
  6
CONTINUOUS
 62
3
 10
262.026407282985470
 20
-80.918819647710095
  0
VERTEX
  8
0
  6
CONTINUOUS
 62
3
 10
261.586222425496150
 20
-78.104922992475665
  0
VERTEX
  8
0
  6
CONTINUOUS
 62
3
 10
260.871401004733400
 20
-75.511620982657973
  0
VERTEX
  8
0
  6
CONTINUOUS
 62
3
 10
259.909413207020690
 20
-73.238572760153801
  0
VERTEX
  8
0
  6
CONTINUOUS
 62
3
 10
258.737227683935150
 20
-71.373130293413837
  0
VERTEX
  8
0
  6
CONTINUOUS
 62
3
 10
257.399890867759720
 20
-69.986981490282716
  0
VERTEX
  8
0
  6
CONTINUOUS
 62
3
 10
255.948795862352910
 20
-69.133395271903566
  0
VERTEX
  8
0
  6
CONTINUOUS
 62
3
 10
254.439707434989030
 20
-68.845174477952014
  0
VERTEX
  8
0
  6
CONTINUOUS
 62
3
 10
252.930619007625150
 20
-69.133395271903566
  0
VERTEX
  8
0
  6
CONTINUOUS
 62
3
 10
251.479524002218340
 20
-69.986981490282716
  0
VERTEX
  8
0
  6
CONTINUOUS
 62
3
 10
250.142187186042920
 20
-71.373130293413837
  0
VERTEX
  8
0
  6
CONTINUOUS
 62
3
 10
248.970001662957370
 20
-73.238572760153801
  0
VERTEX
  8
0
  6
CONTINUOUS
 62
3
 10
248.008013865244640
 20
-75.511620982657988
  0
VERTEX
  8
0
  6
CONTINUOUS
 62
3
 10
247.293192444481890
 20
-78.104922992475665
  0
VERTEX
  8
0
  6
CONTINUOUS
 62
3
 10
246.853007586992560
 20
-80.918819647710095
  0
VERTEX
  8
0
  6
CONTINUOUS
 62
3
 10
246.704375349991440
 20
-83.845174477952014
  0
SEQEND
  8
0
  6
CONTINUOUS
 62
3
  0
POLYLINE
  8
0
  6
CONTINUOUS
 62
3
 66
1
  0
VERTEX
  8
0
  6
CONTINUOUS
 62
3
 10
137.003164699889910
 20
-84.345174477952014
  0
VERTEX
  8
0
  6
CONTINUOUS
 62
3
 10
136.801766341443710
 20
-81.418819682910453
  0
VERTEX
  8
0
  6
CONTINUOUS
 62
3
 10
136.205310891886650
 20
-78.604923058791712
  0
VERTEX
  8
0
  6
CONTINUOUS
 62
3
 10
135.236719799092330
 20
-76.011621072182265
  0
VERTEX
  8
0
  6
CONTINUOUS
 62
3
 10
133.933215474660410
 20
-73.738572861666000
  0
VERTEX
  8
0
  6
CONTINUOUS
 62
3
 10
132.344890857548280
 20
-71.873130393110870
  0
VERTEX
  8
0
  6
CONTINUOUS
 62
3
 10
130.532784370566020
 20
-70.486981572689729
  0
VERTEX
  8
0
  6
CONTINUOUS
 62
3
 10
128.566534248075610
 20
-69.633395320916065
  0
VERTEX
  8
0
  6
CONTINUOUS
 62
3
 10
126.521702377762940
 20
-69.345174477952014
  0
VERTEX
  8
0
  6
CONTINUOUS
 62
3
 10
124.476870499740210
 20
-69.633395208887464
  0
VERTEX
  8
0
  6
CONTINUOUS
 62
3
 10
122.510620354415900
 20
-70.486981352937690
  0
VERTEX
  8
0
  6
CONTINUOUS
 62
3
 10
120.698513830353420
 20
-71.873130074080365
  0
VERTEX
  8
0
  6
CONTINUOUS
 62
3
 10
119.110189163339690
 20
-73.738572455617202
  0
VERTEX
  8
0
  6
CONTINUOUS
 62
3
 10
117.806684778102500
 20
-76.011620594719389
  0
VERTEX
  8
0
  6
CONTINUOUS
 62
3
 10
116.838093615935940
 20
-78.604922528263373
  0
VERTEX
  8
0
  6
CONTINUOUS
 62
3
 10
116.241638091105620
 20
-81.418819119704580
  0
VERTEX
  8
0
  6
CONTINUOUS
 62
3
 10
116.040239654377840
 20
-84.345173903712293
  0
SEQEND
  8
0
  6
CONTINUOUS
 62
3
  0
ARC
  8
0
  6
CONTINUOUS
 62
3
 10
178.435858541324930
 20
-89.844301551847252
 40
0.399999999999977
 50
270.000000000000000
 51
0.000000000000000
  0
ARC
  8
0
  6
CONTINUOUS
 62
3
 10
143.635858541324750
 20
-90.894301551847207
 40
0.799999999999955
 50
90.000000000000000
 51
176.296803365725710
  0
ARC
  8
0
  6
CONTINUOUS
 62
3
 10
149.835858541325480
 20
-79.244301551847116
 40
3.000000000000000
 50
90.000000000000000
 51
270.000000000000000
  0
ARC
  8
0
  6
CONTINUOUS
 62
3
 10
143.635858541324750
 20
-67.594301551847252
 40
0.799999999999776
 50
183.703196634274290
 51
270.000000000000000
  0
ARC
  8
0
  6
CONTINUOUS
 62
3
 10
178.435858541324930
 20
-68.644301551847207
 40
0.400000000000091
 50
0.000000000000000
 51
90.000000000000000
  0
ARC
  8
0
  6
CONTINUOUS
 62
3
 10
50.335858541326388
 20
-34.244301551847400
 40
1.000000000000000
 50
90.000000000000000
 51
180.000000000000000
  0
ARC
  8
0
  6
CONTINUOUS
 62
3
 10
48.335858541326388
 20
-71.244301551847343
 40
0.999999999999984
 50
300.000000000000510
 51
0.000000000000000
  0
ARC
  8
0
  6
CONTINUOUS
 62
3
 10
49.335858541326388
 20
-72.976352359416182
 40
0.999999999999984
 50
120.000000000000520
 51
180.000000000000000
  0
ARC
  8
0
  6
CONTINUOUS
 62
3
 10
48.335858541326388
 20
-89.244301551847343
 40
1.000000000000000
 50
0.000000000000000
 51
60.000000000001087
  0
ARC
  8
0
  6
CONTINUOUS
 62
3
 10
49.335858541326388
 20
-87.512250744278447
 40
1.000000000000000
 50
180.000000000000000
 51
239.999999999999460
  0
ARC
  8
0
  6
CONTINUOUS
 62
3
 10
50.335858541326388
 20
-108.494301551847340
 40
1.000000000000000
 50
90.000000000000000
 51
180.000000000000000
  0
ARC
  8
0
  6
CONTINUOUS
 62
3
 10
50.335858541326388
 20
-93.994301551847343
 40
1.000000000000000
 50
180.000000000000000
 51
270.000000000000000
  0
ARC
  8
0
  6
CONTINUOUS
 62
3
 10
50.335858541326388
 20
-38.911118484604458
 40
1.000000000000000
 50
90.000000000000000
 51
180.000000000000000
  0
ARC
  8
0
  6
CONTINUOUS
 62
3
 10
50.335858541326388
 20
-35.373591725830693
 40
1.000000000000000
 50
90.000000000000000
 51
180.000000000000000
  0
ARC
  8
0
  6
CONTINUOUS
 62
3
 10
52.235858541326024
 20
-95.094301551847366
 40
0.100000000000364
 50
0.000000000000000
 51
90.000000000000000
  0
ARC
  8
0
  6
CONTINUOUS
 62
3
 10
52.235858541326024
 20
-107.394301551847320
 40
0.100000000000023
 50
270.000000000000000
 51
0.000000000000000
  0
ARC
  8
0
  6
CONTINUOUS
 62
3
 10
52.235858541326934
 20
-34.473591725830715
 40
0.099999999999454
 50
0.000000000000000
 51
90.000000000000000
  0
ARC
  8
0
  6
CONTINUOUS
 62
3
 10
52.235858541326934
 20
-37.811118484604435
 40
0.100000000000023
 50
270.000000000000000
 51
0.000000000000000
  0
ARC
  8
0
  6
CONTINUOUS
 62
3
 10
139.835858541325020
 20
-58.244301551847229
 40
1.000000000000000
 50
0.000000000000000
 51
80.022062996018562
  0
ARC
  8
0
  6
CONTINUOUS
 62
3
 10
140.355665370282850
 20
-55.289677910743535
 40
1.999999999999936
 50
218.432783305177220
 51
260.022062996057060
  0
ARC
  8
0
  6
CONTINUOUS
 62
3
 10
91.788714155087973
 20
-93.828635468790026
 40
60.000000000000291
 50
38.432783305177097
 51
88.999999999999957
  0
ARC
  8
0
  6
CONTINUOUS
 62
3
 10
139.835858541325020
 20
-102.244301551847220
 40
1.000000000000000
 50
90.000000000000000
 51
180.000000000000000
  0
ARC
  8
0
  6
CONTINUOUS
 62
3
 10
139.835858541325020
 20
-100.244301551847220
 40
1.000000000000000
 50
270.000000000000000
 51
0.000000000000000
  0
ARC
  8
0
  6
CONTINUOUS
 62
3
 10
139.835858541325020
 20
-148.728291726056450
 40
1.000000000000000
 50
180.000000000000000
 51
239.999999999999460
  0
ARC
  8
0
  6
CONTINUOUS
 62
3
 10
137.835858541325020
 20
-152.192393341194250
 40
3.000000000000000
 50
0.000000000000000
 51
88.999999999989512
  0
ARC
  8
0
  6
CONTINUOUS
 62
3
 10
58.835858541325024
 20
-121.497609265314960
 40
2.000000000000000
 50
0.000000000000000
 51
90.000000000000000
  0
ARC
  8
0
  6
CONTINUOUS
 62
3
 10
48.713431585326589
 20
-145.321660164814600
 40
3.000000000000099
 50
272.119248310867080
 51
309.407385823777130
  0
ARC
  8
0
  6
CONTINUOUS
 62
3
 10
58.835858541325024
 20
-138.299063588474270
 40
2.000000000000015
 50
309.407385823783900
 51
0.000000000000000
  0
ARC
  8
0
  6
CONTINUOUS
 62
3
 10
140.003164699890250
 20
-146.597504243540360
 40
3.000000000000000
 50
180.000000000000000
 51
248.825002431726630
  0
ARC
  8
0
  6
CONTINUOUS
 62
3
 10
119.040239654378410
 20
-145.863400624892620
 40
3.000000000000000
 50
180.000000000000000
 51
268.999999999989540
  0
ARC
  8
0
  6
CONTINUOUS
 62
3
 10
26.835858541324967
 20
-152.135340662126960
 40
2.999999999999986
 50
92.119248310867135
 51
180.000000000000000
  0
CIRCLE
  8
0
  6
CONTINUOUS
 62
3
 10
311.500488870704430
 20
-79.244301551847229
 40
3.323500000000024
  0
CIRCLE
  8
0
  6
CONTINUOUS
 62
4
 10
311.500488870704430
 20
-79.244301551847229
 40
4.000000000000000
  0
ARC
  8
0
  6
CONTINUOUS
 62
3
 10
311.500488870704430
 20
-79.244301551847116
 40
11.000000000000037
 50
195.826620131872290
 51
164.173379868127710
  0
ARC
  8
0
  6
CONTINUOUS
 62
3
 10
351.500488870704430
 20
-157.744301551847460
 40
7.999999999999785
 50
214.228866327813620
 51
223.432536557791050
  0
ARC
  8
0
  6
CONTINUOUS
 62
3
 10
271.500488870704880
 20
-157.744301551847570
 40
7.999999999999734
 50
316.567463442209540
 51
325.771133672187030
  0
ARC
  8
0
  6
CONTINUOUS
 62
3
 10
264.000488870704430
 20
-164.244301551847460
 40
1.000000000000000
 50
90.000000000000000
 51
180.000000000000000
  0
ARC
  8
0
  6
CONTINUOUS
 62
3
 10
359.000488870704430
 20
-164.244301551847460
 40
1.000000000000000
 50
0.000000000000000
 51
90.000000000000000
  0
ARC
  8
0
  6
CONTINUOUS
 62
3
 10
379.296602391417760
 20
-146.244301551847230
 40
3.000000000000000
 50
180.000000000000000
 51
270.000000000000000
  0
ARC
  8
0
  6
CONTINUOUS
 62
3
 10
363.825938221422800
 20
-146.244301551847230
 40
3.000000000000000
 50
180.000000000000000
 51
270.000000000000000
  0
ARC
  8
0
  6
CONTINUOUS
 62
3
 10
259.175039519986510
 20
-146.244301551847230
 40
3.000000000000227
 50
270.000000000000000
 51
0.000000000000000
  0
ARC
  8
0
  6
CONTINUOUS
 62
3
 10
243.704375349991100
 20
-146.244301551847230
 40
3.000000000000227
 50
270.000000000000000
 51
0.000000000000000
  0
ARC
  8
0
  6
CONTINUOUS
 62
3
 10
385.000488870704430
 20
-147.772165596848030
 40
3.000000000000000
 50
180.000000000000000
 51
228.189685104220470
  0
ARC
  8
0
  6
CONTINUOUS
 62
3
 10
381.000488870704430
 20
-152.244301551847460
 40
3.000000000000000
 50
0.000000000000000
 51
90.000000000000000
  0
ARC
  8
0
  6
CONTINUOUS
 62
3
 10
361.653488870704680
 20
-146.244301551847230
 40
3.000000000000000
 50
180.000000000000000
 51
270.000000000000000
  0
ARC
  8
0
  6
CONTINUOUS
 62
3
 10
261.347488870704640
 20
-146.244301551847230
 40
3.000000000000227
 50
270.000000000000000
 51
0.000000000000000
  0
ARC
  8
0
  6
CONTINUOUS
 62
3
 10
238.000488870704430
 20
-147.772165596848030
 40
2.999999999999944
 50
311.810314895779530
 51
0.000000000000000
  0
ARC
  8
0
  6
CONTINUOUS
 62
3
 10
242.000488870704430
 20
-152.244301551847460
 40
3.000000000000000
 50
90.000000000000000
 51
180.000000000000000
  0
ARC
  8
0
  6
CONTINUOUS
 62
3
 10
264.000488870704430
 20
-164.244301551847460
 40
1.000000000000000
 50
90.000000000000000
 51
180.000000000000000
  0
ARC
  8
0
  6
CONTINUOUS
 62
3
 10
311.500488870704880
 20
-79.244301551847229
 40
27.000000000000338
 50
183.954572122090720
 51
356.045427877909220
  0
ARC
  8
0
  6
CONTINUOUS
 62
3
 10
348.500488870704430
 20
-139.244301551847460
 40
5.000000000000000
 50
270.000000000000000
 51
0.000000000000000
  0
ARC
  8
0
  6
CONTINUOUS
 62
3
 10
274.500488870704430
 20
-139.244301551847460
 40
5.000000000000000
 50
180.000000000000000
 51
270.000000000000000
  0
ARC
  8
0
  6
CONTINUOUS
 62
3
 10
351.000488870704430
 20
-81.744301551847229
 40
2.500000000000000
 50
0.000000000000000
 51
90.000000000000000
  0
ARC
  8
0
  6
CONTINUOUS
 62
3
 10
272.000488870704430
 20
-81.744301551847229
 40
2.500000000000000
 50
90.000000000000000
 51
180.000000000000000
  0
ARC
  8
0
  6
CONTINUOUS
 62
3
 10
274.500488870704430
 20
-139.244301551847460
 40
5.000000000000000
 50
180.000000000000000
 51
270.000000000000000
  0
ARC
  8
0
  6
CONTINUOUS
 62
3
 10
340.431441153683410
 20
-81.244301551847229
 40
2.000000000000000
 50
90.000000000000000
 51
176.045427877907830
  0
ARC
  8
0
  6
CONTINUOUS
 62
3
 10
282.569536587725910
 20
-81.244301551847229
 40
1.999999999999775
 50
3.954572122092177
 51
90.000000000000000
  0
ARC
  8
0
  6
CONTINUOUS
 62
3
 10
518.500488870704430
 20
-99.244301551846775
 40
300.000000000000000
 50
180.000000000000000
 51
184.861405395798070
  0
ARC
  8
0
  6
CONTINUOUS
 62
3
 10
224.561719736723030
 20
-124.244301551846770
 40
5.000000000000139
 50
184.861405395801000
 51
270.000000000000000
  0
ARC
  8
0
  6
CONTINUOUS
 62
3
 10
224.561719736723030
 20
-74.244301551847002
 40
5.000000000000000
 50
90.000000000000000
 51
175.138594604201610
  0
ARC
  8
0
  6
CONTINUOUS
 62
3
 10
518.500488870704430
 20
-99.244301551846775
 40
300.000000000000110
 50
175.138594604202010
 51
180.000000000000000
  0
LINE
  8
0
  6
CONTINUOUS
 62
3
 10
311.500488870704430
 20
-162.244301551847460
 11
344.886110593043210
 21
-162.244301551847460
  0
LINE
  8
0
  6
CONTINUOUS
 62
3
 10
345.691013851393560
 20
-163.244301551847460
 11
359.000488870704430
 21
-163.244301551847460
  0
LINE
  8
0
  6
CONTINUOUS
 62
3
 10
311.500488870704430
 20
-162.244301551847460
 11
278.114867148366100
 21
-162.244301551847460
  0
LINE
  8
0
  6
CONTINUOUS
 62
3
 10
277.309963890015750
 20
-163.244301551847460
 11
264.000488870704430
 21
-163.244301551847460
  0
LINE
  8
0
  6
CONTINUOUS
 62
3
 10
263.000488870704430
 20
-164.244301551847460
 11
239.000488870704430
 21
-164.244301551847460
  0
LINE
  8
0
  6
CONTINUOUS
 62
3
 10
360.000488870704430
 20
-164.244301551847460
 11
384.000488870704880
 21
-164.244301551847460
  0
LINE
  8
0
  6
CONTINUOUS
 62
3
 10
311.500488870704430
 20
-162.244301551847460
 11
342.500488870704430
 21
-162.244301551847460
  0
LINE
  8
0
  6
CONTINUOUS
 62
3
 10
263.000488870704430
 20
-164.244301551847460
 11
239.000488870704430
 21
-164.244301551847460
  0
LINE
  8
0
  6
CONTINUOUS
 62
3
 10
311.500488870704430
 20
-162.244301551847460
 11
280.500488870704430
 21
-162.244301551847460
  0
LINE
  8
0
  6
CONTINUOUS
 62
3
 10
360.000488870704430
 20
-164.244301551847460
 11
360.000488870704430
 21
-164.244301551847460
  0
LINE
  8
0
  6
CONTINUOUS
 62
3
 10
263.000488870704430
 20
-164.244301551847460
 11
263.000488870704430
 21
-164.244301551847460
  0
LINE
  8
0
  6
CONTINUOUS
 62
3
 10
298.000488870704430
 20
-76.244301551847116
 11
304.000488870704430
 21
-76.244301551847116
  0
LINE
  8
0
  6
CONTINUOUS
 62
3
 10
298.000488870704430
 20
-82.244301551847116
 11
304.000488870704430
 21
-82.244301551847116
  0
LINE
  8
0
  6
CONTINUOUS
 62
3
 10
304.000488870704430
 20
-82.244301551847116
 11
304.000488870704430
 21
-76.244301551847116
  0
LINE
  8
0
  6
CONTINUOUS
 62
3
 10
298.000488870704430
 20
-76.244301551847116
 11
298.000488870704430
 21
-82.244301551847116
  0
LINE
  8
0
  6
CONTINUOUS
 62
3
 10
376.296602391417760
 20
-83.845173793240292
 11
376.296602391417760
 21
-146.244301551847230
  0
LINE
  8
0
  6
CONTINUOUS
 62
3
 10
360.825938221422800
 20
-83.845174477952014
 11
360.825938221422800
 21
-146.244301551847230
  0
LINE
  8
0
  6
CONTINUOUS
 62
3
 10
262.175039519986510
 20
-83.845174477952014
 11
262.175039519986510
 21
-146.244301551847230
  0
LINE
  8
0
  6
CONTINUOUS
 62
3
 10
384.000488870704880
 20
-164.244301551847460
 11
384.000488870704430
 21
-152.244301551847460
  0
LINE
  8
0
  6
CONTINUOUS
 62
3
 10
382.000488870704430
 20
-147.772165596848030
 11
382.000488870704430
 21
-83.845174477952014
  0
LINE
  8
0
  6
DASHDOT
 62
4
 10
288.329102529587540
 20
-99.244301551847229
 11
333.471944107968740
 21
-99.244301551847229
  0
LINE
  8
0
  6
CONTINUOUS
 62
3
 10
358.653488870704680
 20
-83.845174477952014
 11
358.653488870704680
 21
-146.244301551847230
  0
LINE
  8
0
  6
CONTINUOUS
 62
3
 10
311.500488870704430
 20
-149.244301551847460
 11
381.000488870704430
 21
-149.244301551847460
  0
LINE
  8
0
  6
CONTINUOUS
 62
3
 10
264.347488870704640
 20
-83.845174477952014
 11
264.347488870704640
 21
-146.244301551847230
  0
LINE
  8
0
  6
CONTINUOUS
 62
3
 10
311.500488870704430
 20
-149.244301551847460
 11
242.000488870704430
 21
-149.244301551847460
  0
LINE
  8
0
  6
CONTINUOUS
 62
3
 10
239.000488870704430
 20
-164.244301551847460
 11
239.000488870704430
 21
-152.244301551847460
  0
LINE
  8
0
  6
DASHDOT
 62
4
 10
249.000488870704430
 20
-146.659494943527760
 11
249.000488870704430
 21
-166.656469062833820
  0
LINE
  8
0
  6
DASHDOT
 62
4
 10
374.000488870704430
 20
-146.159494943527760
 11
374.000488870704430
 21
-166.656469062833820
  0
LINE
  8
0
  6
CONTINUOUS
 62
3
 10
311.500488870704430
 20
-144.244301551847460
 11
348.500488870704430
 21
-144.244301551847460
  0
LINE
  8
0
  6
CONTINUOUS
 62
3
 10
353.500488870704430
 20
-81.744301551847229
 11
353.500488870704430
 21
-139.244301551847460
  0
LINE
  8
0
  6
CONTINUOUS
 62
3
 10
269.500488870704430
 20
-81.539917547182654
 11
269.500488870704430
 21
-139.244301551847460
  0
LINE
  8
0
  6
CONTINUOUS
 62
3
 10
311.500488870704430
 20
-144.244301551847460
 11
274.500488870704430
 21
-144.244301551847460
  0
LINE
  8
0
  6
CONTINUOUS
 62
3
 10
340.431441153683410
 20
-79.244301551847229
 11
351.000488870704430
 21
-79.244301551847229
  0
LINE
  8
0
  6
CONTINUOUS
 62
3
 10
282.569536587725910
 20
-79.244301551847229
 11
272.000488870704430
 21
-79.244301551847229
  0
LINE
  8
0
  6
CONTINUOUS
 62
3
 10
269.500488870704430
 20
-81.744301551847229
 11
269.500488870704430
 21
-139.244301551847460
  0
LINE
  8
0
  6
CONTINUOUS
 62
3
 10
311.500488870704430
 20
-144.244301551847460
 11
274.500488870704430
 21
-144.244301551847460
  0
LINE
  8
0
  6
CONTINUOUS
 62
3
 10
246.704375349991100
 20
-83.845173793240292
 11
246.704375349991100
 21
-146.244301551847230
  0
LINE
  8
0
  6
CONTINUOUS
 62
3
 10
241.000488870704430
 20
-147.772165596848030
 11
241.000488870704430
 21
-83.845174477952014
  0
LINE
  8
0
  6
DASHDOT
 62
4
 10
425.752308279663340
 20
-79.244301551847229
 11
204.658907145474590
 21
-79.244301551847229
  0
LINE
  8
0
  6
CONTINUOUS
 62
3
 10
224.561719736723030
 20
-129.244301551846770
 11
241.000488870704430
 21
-129.244301551846770
  0
LINE
  8
0
  6
CONTINUOUS
 62
3
 10
218.000488870704430
 20
-96.744301551846775
 11
218.510905718222150
 21
-96.744301551846775
  0
LINE
  8
0
  6
CONTINUOUS
 62
3
 10
218.000488870704430
 20
-101.744301551846770
 11
218.510905718222150
 21
-101.744301551846770
  0
LINE
  8
0
  6
CONTINUOUS
 62
3
 10
218.000488870704430
 20
-101.744301551846770
 11
218.000488870704430
 21
-96.744301551846775
  0
LINE
  8
0
  6
CONTINUOUS
 62
3
 10
224.561719736723030
 20
-69.244301551847002
 11
243.179839462778890
 21
-69.244301551847002
  0
LINE
  8
0
  6
CONTINUOUS
 62
3
 10
140.835858541325020
 20
-91.244301551847229
 11
142.435858541324930
 21
-91.244301551847229
  0
LINE
  8
0
  6
CONTINUOUS
 62
3
 10
178.835858541325020
 20
-76.244301551847116
 11
149.835858541325480
 21
-76.244301551847116
  0
LINE
  8
0
  6
CONTINUOUS
 62
3
 10
178.835858541325020
 20
-79.244301551847229
 11
178.835858541325020
 21
-89.844301551847252
  0
LINE
  8
0
  6
CONTINUOUS
 62
3
 10
178.435858541324930
 20
-90.244301551847229
 11
145.395666162460430
 21
-90.244301551847229
  0
LINE
  8
0
  6
CONTINUOUS
 62
3
 10
142.835858541325020
 20
-90.844301551847252
 11
142.435858541324930
 21
-91.244301551847229
  0
LINE
  8
0
  6
CONTINUOUS
 62
3
 10
145.395666162460430
 20
-90.244301551847229
 11
144.835858541325020
 21
-90.094301551847252
  0
LINE
  8
0
  6
CONTINUOUS
 62
3
 10
144.835858541325020
 20
-90.094301551847252
 11
143.635858541324750
 21
-90.094301551847252
  0
LINE
  8
0
  6
CONTINUOUS
 62
3
 10
178.435858541324930
 20
-90.244301551847229
 11
145.395666162460430
 21
-90.244301551847229
  0
LINE
  8
0
  6
CONTINUOUS
 62
3
 10
142.835858541325020
 20
-90.844301551847252
 11
142.435858541324930
 21
-91.244301551847229
  0
LINE
  8
0
  6
CONTINUOUS
 62
3
 10
145.395666162460430
 20
-90.244301551847229
 11
144.835858541325020
 21
-90.094301551847252
  0
LINE
  8
0
  6
CONTINUOUS
 62
3
 10
144.835858541325020
 20
-90.094301551847252
 11
143.635858541324750
 21
-90.094301551847252
  0
LINE
  8
0
  6
CONTINUOUS
 62
3
 10
142.835858541325020
 20
-79.244301551847229
 11
142.835858541325020
 21
-90.844301551847252
  0
LINE
  8
0
  6
CONTINUOUS
 62
3
 10
178.835858541325020
 20
-82.244301551847116
 11
149.835858541325480
 21
-82.244301551847116
  0
LINE
  8
0
  6
CONTINUOUS
 62
3
 10
142.835858541325020
 20
-67.644301551847207
 11
142.435858541324930
 21
-67.244301551847229
  0
LINE
  8
0
  6
CONTINUOUS
 62
3
 10
145.395666162460430
 20
-68.244301551847229
 11
144.835858541325020
 21
-68.394301551847207
  0
LINE
  8
0
  6
CONTINUOUS
 62
3
 10
144.835858541325020
 20
-68.394301551847207
 11
143.635858541324750
 21
-68.394301551847207
  0
LINE
  8
0
  6
CONTINUOUS
 62
3
 10
142.835858541325020
 20
-67.644301551847207
 11
142.435858541324930
 21
-67.244301551847229
  0
LINE
  8
0
  6
CONTINUOUS
 62
3
 10
145.395666162460430
 20
-68.244301551847229
 11
144.835858541325020
 21
-68.394301551847207
  0
LINE
  8
0
  6
CONTINUOUS
 62
3
 10
144.835858541325020
 20
-68.394301551847207
 11
143.635858541324750
 21
-68.394301551847207
  0
LINE
  8
0
  6
CONTINUOUS
 62
3
 10
142.835858541325020
 20
-79.244301551847229
 11
142.835858541325020
 21
-67.644301551847207
  0
LINE
  8
0
  6
CONTINUOUS
 62
3
 10
178.435858541324930
 20
-68.244301551847229
 11
145.395666162460430
 21
-68.244301551847229
  0
LINE
  8
0
  6
CONTINUOUS
 62
3
 10
178.435858541324930
 20
-68.244301551847229
 11
145.395666162460430
 21
-68.244301551847229
  0
LINE
  8
0
  6
CONTINUOUS
 62
3
 10
178.835858541325020
 20
-79.244301551847229
 11
178.835858541325020
 21
-68.644301551847207
  0
LINE
  8
0
  6
CONTINUOUS
 62
3
 10
140.835858541325020
 20
-67.244301551847229
 11
142.435858541324930
 21
-67.244301551847229
  0
LINE
  8
0
  6
CONTINUOUS
 62
3
 10
140.835858541325020
 20
-67.244301551847229
 11
142.435858541324930
 21
-67.244301551847229
  0
LINE
  8
0
  6
CONTINUOUS
 62
3
 10
50.335858541326388
 20
-33.244301551847400
 11
58.335858541326388
 21
-33.244301551847343
  0
LINE
  8
0
  6
CONTINUOUS
 62
3
 10
58.335858541326388
 20
-33.244301551847343
 11
58.335858541326388
 21
-99.244301551847457
  0
LINE
  8
0
  6
CONTINUOUS
 62
3
 10
58.335858541326843
 20
-141.298364465744670
 11
58.335858541327298
 21
-99.244301551847457
  0
LINE
  8
0
  6
CONTINUOUS
 62
3
 10
48.335858541326388
 20
-72.976352359416182
 11
48.335858541326388
 21
-87.512250744278447
  0
LINE
  8
0
  6
CONTINUOUS
 62
3
 10
49.335858541326388
 20
-34.244301551847400
 11
49.335858541326388
 21
-38.244301551847343
  0
LINE
  8
0
  6
CONTINUOUS
 62
3
 10
49.335858541326388
 20
-38.911118484604458
 11
49.335858541326388
 21
-96.244301551847343
  0
LINE
  8
0
  6
CONTINUOUS
 62
3
 10
50.335858541326388
 20
-94.994301551847343
 11
52.235858541326024
 21
-94.994301551847343
  0
LINE
  8
0
  6
CONTINUOUS
 62
3
 10
50.335858541326388
 20
-107.494301551847340
 11
52.235858541326024
 21
-107.494301551847340
  0
LINE
  8
0
  6
CONTINUOUS
 62
3
 10
52.335858541326388
 20
-107.394301551847320
 11
52.335858541326388
 21
-95.094301551847366
  0
LINE
  8
0
  6
CONTINUOUS
 62
3
 10
50.335858541326388
 20
-34.373591725830693
 11
52.235858541326934
 21
-34.373591725830693
  0
LINE
  8
0
  6
CONTINUOUS
 62
3
 10
50.335858541326388
 20
-37.911118484604458
 11
52.235858541326934
 21
-37.911118484604458
  0
LINE
  8
0
  6
CONTINUOUS
 62
3
 10
52.335858541326388
 20
-37.811118484604435
 11
52.335858541326388
 21
-34.473591725830715
  0
LINE
  8
0
  6
CONTINUOUS
 62
3
 10
49.335858541326388
 20
-106.244301551847340
 11
49.335858541326388
 21
-148.256380711041230
  0
LINE
  8
0
  6
CONTINUOUS
 62
3
 10
58.835858541325479
 20
-140.887551882966250
 11
58.835858541325024
 21
-79.244301551847229
  0
LINE
  8
0
  6
CONTINUOUS
 62
3
 10
58.835858541325024
 20
-33.244301551847229
 11
58.835858541325024
 21
-79.244301551847229
  0
LINE
  8
0
  6
DASHDOT
 62
4
 10
189.095907778317950
 20
-79.244301551847229
 11
99.322987257598243
 21
-79.244301551847229
  0
LINE
  8
0
  6
CONTINUOUS
 62
3
 10
92.835858541325024
 20
-33.837773759406446
 11
58.835858541325024
 21
-33.244301551847229
  0
LINE
  8
0
  6
CONTINUOUS
 62
3
 10
140.835858541325020
 20
-152.192393341194250
 11
140.835858541325020
 21
-163.744301551847230
  0
LINE
  8
0
  6
DASHDOT
 62
4
 10
128.835858541325020
 20
-147.141732822446560
 11
128.835858541325020
 21
-166.892357582120670
  0
LINE
  8
0
  6
DASHDOT
 62
4
 10
35.835858541324967
 20
-167.077919563321760
 11
35.835858541324967
 21
-146.877852284482740
  0
LINE
  8
0
  6
CONTINUOUS
 62
3
 10
140.835858541325020
 20
-79.244301551847229
 11
140.835858541325020
 21
-100.244301551847220
  0
LINE
  8
0
  6
CONTINUOUS
 62
3
 10
140.835858541325020
 20
-79.244301551847229
 11
140.835858541325020
 21
-58.244301551847229
  0
LINE
  8
0
  6
CONTINUOUS
 62
3
 10
138.835858541325020
 20
-56.592010956079889
 11
138.835858541325020
 21
-148.728291726056450
  0
LINE
  8
0
  6
CONTINUOUS
 62
3
 10
137.888215760637420
 20
-149.192850255725150
 11
61.335858541325024
 21
-147.856623890051540
  0
LINE
  8
0
  6
CONTINUOUS
 62
3
 10
50.617921941279519
 20
-147.639615402536610
 11
60.105518778627129
 21
-139.844367080288860
  0
LINE
  8
0
  6
CONTINUOUS
 62
3
 10
60.835858541325024
 20
-138.299063588474270
 11
60.835858541325024
 21
-121.497609265314960
  0
LINE
  8
0
  6
CONTINUOUS
 62
3
 10
116.040239654378410
 20
-84.345173921014180
 11
116.040239654378410
 21
-145.863400624892620
  0
LINE
  8
0
  6
CONTINUOUS
 62
3
 10
137.003164699890250
 20
-84.345174477952014
 11
137.003164699890250
 21
-146.597504243540360
  0
LINE
  8
0
  6
CONTINUOUS
 62
3
 10
24.835858541327241
 20
-99.244301551847457
 11
24.835858541327241
 21
-149.899272684625150
  0
LINE
  8
0
  6
CONTINUOUS
 62
3
 10
24.835858541326331
 20
-99.244301551847457
 11
24.835858541326331
 21
-40.744301551847627
  0
LINE
  8
0
  6
CONTINUOUS
 62
3
 10
24.835858541326331
 20
-40.735574019383535
 11
46.335858541326388
 21
-40.360290123426580
  0
LINE
  8
0
  6
CONTINUOUS
 62
3
 10
23.835858541324967
 20
-163.744301551847230
 11
23.835858541324967
 21
-152.135340662126960
  0
LINE
  8
0
  6
CONTINUOUS
 62
3
 10
26.724920259098496
 20
-149.137392580932670
 11
61.335858541326843
 21
-147.856623890051540
  0
LINE
  8
0
  6
CONTINUOUS
 62
3
 10
24.835858541327241
 20
-40.744301551847457
 11
24.835858541327241
 21
-99.244301551847457
  0
LINE
  8
0
  6
CONTINUOUS
 62
3
 10
24.848182056521125
 20
-99.109363343813470
 11
24.848182056521125
 21
-46.609363343813470
  0
LINE
  8
0
  6
CONTINUOUS
 62
3
 10
24.835858541327241
 20
-99.244301551847457
 11
24.835858541327241
 21
-149.899272684625150
  0
LINE
  8
0
  6
CONTINUOUS
 62
3
 10
24.835858541327241
 20
-99.244301551847457
 11
24.835858541327241
 21
-46.744301551847457
  0
LINE
  8
0
  6
CONTINUOUS
 62
3
 10
23.835858541324967
 20
-163.744301551847230
 11
25.835858541324967
 21
-163.744301551847230
  0
LINE
  8
0
  6
CONTINUOUS
 62
3
 10
25.835858541324967
 20
-163.744301551847230
 11
25.835858541324967
 21
-164.244301551847230
  0
LINE
  8
0
  6
CONTINUOUS
 62
3
 10
138.835858541325020
 20
-163.744301551847230
 11
140.835858541325020
 21
-163.744301551847230
  0
LINE
  8
0
  6
CONTINUOUS
 62
3
 10
138.835858541325020
 20
-164.244301551847230
 11
138.835858541325020
 21
-163.744301551847230
  0
LINE
  8
0
  6
CONTINUOUS
 62
3
 10
138.835858541325020
 20
-164.244301551847230
 11
25.835858541324967
 21
-164.244301551847230
  0
ENDSEC
  0
EOF
