  0
SECTION
  2
HEADER
  9
$FILLMODE
 70
1
  9
$TEXTSTYLE
  7
STANDARD1
  9
$ACADVER
  1
AC1009
  9
$DIMASZ
 40
1.931851648807023
  9
$DIMEXE
 40
2.000000000000000
  9
$DIMEXO
 40
1.000000000000000
  9
$DIMLFAC
 40
1.000000000000000
  9
$DIMSCALE
 40
1.000000000000000
  9
$DIMTAD
 70
1
  9
$DIMTFAC
 40
0.714285731315613
  9
$DIMTXT
 40
2.799999952316284
  9
$LUPREC
 70
3
  9
$TEXTSIZE
 40
3.299999952316284
  9
$REGENMODE
 70
1
  0
ENDSEC
  0
SECTION
  2
TABLES
  0
TABLE
  2
LTYPE
 70
4
  0
LTYPE
  2
CONTINUOUS
 70
64
  3
Solid line
 72
65
 73
0
 40
0.0
  0
LTYPE
  2
DASHED
 70
64
  3
-- -- -- -- -- -- -- -- -- -- -- -- -- -- --
 72
65
 73
2
 40
0.75
 49
0.5
 49
-0.25
  0
LTYPE
  2
DASHDOT
 70
64
  3
__ . __ . __ . __ . __ . __ . __ . __ . __ . __
 72
65
 73
4
 40
1.0
 49
0.5
 49
-0.25
 49
0.0
 49
-0.25
  0
LTYPE
  2
DIVIDE
 70
64
  3
__ . . __ . . __ . . __ . . __ . . __ . . __
 72
65
 73
6
 40
1.25
 49
0.5
 49
-0.25
 49
0.0
 49
-0.25
 49
0.0
 49
-0.25
  0
ENDTAB
  0
TABLE
  2
LAYER
 70
1
  0
LAYER
  2
0
 70
64
 62
2
  6
CONTINUOUS
  0
ENDTAB
  0
TABLE
  2
STYLE
 70
4
  0
STYLE
  2
STANDARD1
 70
64
 40
0.0
 41
1.0
 50
0.0
 71
0
 42
3.299999952316284
  3
MONOTXT
  4
BIGFONT
  0
STYLE
  2
STANDARD2
 70
68
 40
0.0
 41
1.0
 50
0.0
 71
0
 42
3.299999952316284
  3
MONOTXT
  4
BIGFONT
  0
STYLE
  2
STANDARD3
 70
64
 40
0.0
 41
1.0
 50
0.0
 71
0
 42
3.299999952316284
  3
MONOTXT
  4

  0
STYLE
  2
STANDARD4
 70
68
 40
0.0
 41
1.0
 50
0.0
 71
0
 42
3.299999952316284
  3
MONOTXT
  4

  0
ENDTAB
  0
TABLE
  2
VIEW
 70
0
  0
ENDTAB
  0
ENDSEC
  0
SECTION
  2
BLOCKS
  0
BLOCK
  8
0
  2
SYM1
 70
64
 10
0.000000000000000
 20
0.000000000000000
  0
ARC
  8
0
  6
CONTINUOUS
 62
3
 10
-0.979025304317474
 20
-2.200000762939453
 40
1.299999237060547
 50
196.601531107481040
 51
270.000000000000000
  0
ARC
  8
0
  6
CONTINUOUS
 62
3
 10
-0.979025304317474
 20
2.200000762939453
 40
1.299999237060547
 50
90.000000000000000
 51
163.398451589674950
  0
LINE
  8
0
  6
CONTINUOUS
 62
3
 10
-0.000000000000000
 20
-3.500000000000000
 11
-0.979025304317474
 21
-3.500000000000000
  0
LINE
  8
0
  6
CONTINUOUS
 62
3
 10
0.000000000000000
 20
3.500000000000000
 11
-0.979025304317474
 21
3.500000000000000
  0
LINE
  8
0
  6
CONTINUOUS
 62
3
 10
0.000000000000000
 20
-3.500000000000000
 11
-0.000000000000000
 21
3.500000000000000
  0
LINE
  8
0
  6
CONTINUOUS
 62
3
 10
0.000000000000000
 20
-3.500000000000000
 11
-0.000000000000000
 21
3.500000000000000
  0
POINT
  8
0
  6
CONTINUOUS
 62
3
 10
0.000000000000000
 20
0.000000000000000
  0
ARC
  8
0
  6
CONTINUOUS
 62
3
 10
6.399999618530273
 20
0.000000000000000
 40
9.000000000000000
 50
163.398451589674950
 51
196.601531107481040
  0
ENDBLK
  8
0
  0
BLOCK
  8
0
  2
SYM2
 70
64
 10
0.000000000000000
 20
0.000000000000000
  0
LINE
  8
0
  6
CONTINUOUS
 62
3
 10
-7.499999046325684
 20
6.500000000000000
 11
-7.499999046325684
 21
-6.500000000000000
  0
LINE
  8
0
  6
CONTINUOUS
 62
3
 10
-7.499997911632022
 20
-6.499999445138201
 11
-7.999998623386432
 21
-5.634070287011241
  0
LINE
  8
0
  6
CONTINUOUS
 62
3
 10
-7.499999203818277
 20
6.499999909101064
 11
-7.999999021366804
 21
5.633876130311293
  0
LINE
  8
0
  6
CONTINUOUS
 62
3
 10
-0.000000000000000
 20
-6.500000000000000
 11
-7.499998092651367
 21
-6.500000000000000
  0
LINE
  8
0
  6
CONTINUOUS
 62
3
 10
0.000000000000000
 20
6.500000000000000
 11
-7.499999046325684
 21
6.500000000000000
  0
LINE
  8
0
  6
CONTINUOUS
 62
3
 10
-7.999999046325684
 20
5.633875846862793
 11
-7.999999046325684
 21
-5.634070396423340
  0
LINE
  8
0
  6
CONTINUOUS
 62
3
 10
0.000000000000000
 20
-6.500000000000000
 11
-0.000000000000000
 21
6.500000000000000
  0
POINT
  8
0
  6
CONTINUOUS
 62
3
 10
0.000000000000000
 20
0.000000000000000
  0
ENDBLK
  8
0
  0
BLOCK
  8
0
  2
SYM3
 70
64
 10
0.000000000000000
 20
0.000000000000000
  0
LINE
  8
0
  6
CONTINUOUS
 62
3
 10
-7.499999046325684
 20
6.500000000000000
 11
-7.499999046325684
 21
-6.500000000000000
  0
LINE
  8
0
  6
CONTINUOUS
 62
3
 10
-7.499997911632022
 20
-6.499999445138201
 11
-7.999998623386432
 21
-5.634070287011241
  0
LINE
  8
0
  6
CONTINUOUS
 62
3
 10
-7.499999203818277
 20
6.499999909101064
 11
-7.999999021366804
 21
5.633876130311293
  0
LINE
  8
0
  6
CONTINUOUS
 62
3
 10
-0.000000000000000
 20
-6.500000000000000
 11
-7.499998092651367
 21
-6.500000000000000
  0
LINE
  8
0
  6
CONTINUOUS
 62
3
 10
0.000000000000000
 20
6.500000000000000
 11
-7.499999046325684
 21
6.500000000000000
  0
LINE
  8
0
  6
CONTINUOUS
 62
3
 10
-7.999999046325684
 20
5.633875846862793
 11
-7.999999046325684
 21
-5.634070396423340
  0
LINE
  8
0
  6
CONTINUOUS
 62
3
 10
0.000000000000000
 20
-6.500000000000000
 11
-0.000000000000000
 21
6.500000000000000
  0
POINT
  8
0
  6
CONTINUOUS
 62
3
 10
0.000000000000000
 20
0.000000000000000
  0
ENDBLK
  8
0
  0
BLOCK
  8
0
  2
SYM4
 70
64
 10
0.000000000000000
 20
0.000000000000000
  0
LINE
  8
0
  6
CONTINUOUS
 62
3
 10
-7.499999046325684
 20
6.500000000000000
 11
-7.499999046325684
 21
-6.500000000000000
  0
LINE
  8
0
  6
CONTINUOUS
 62
3
 10
-7.499997911632022
 20
-6.499999445138201
 11
-7.999998623386432
 21
-5.634070287011241
  0
LINE
  8
0
  6
CONTINUOUS
 62
3
 10
-7.499999203818277
 20
6.499999909101064
 11
-7.999999021366804
 21
5.633876130311293
  0
LINE
  8
0
  6
CONTINUOUS
 62
3
 10
-0.000000000000000
 20
-6.500000000000000
 11
-7.499998092651367
 21
-6.500000000000000
  0
LINE
  8
0
  6
CONTINUOUS
 62
3
 10
0.000000000000000
 20
6.500000000000000
 11
-7.499999046325684
 21
6.500000000000000
  0
LINE
  8
0
  6
CONTINUOUS
 62
3
 10
-7.999999046325684
 20
5.633875846862793
 11
-7.999999046325684
 21
-5.634070396423340
  0
LINE
  8
0
  6
CONTINUOUS
 62
3
 10
0.000000000000000
 20
-6.500000000000000
 11
-0.000000000000000
 21
6.500000000000000
  0
POINT
  8
0
  6
CONTINUOUS
 62
3
 10
0.000000000000000
 20
0.000000000000000
  0
ENDBLK
  8
0
  0
ENDSEC
  0
SECTION
  2
ENTITIES
  0
LINE
  8
0
  6
CONTINUOUS
 62
3
 10
-295.049199612428880
 20
-204.718808675743530
 11
-294.562396220723260
 21
-205.205612067449150
  0
LINE
  8
0
  6
CONTINUOUS
 62
3
 10
-301.696003085842560
 20
-211.365612149157270
 11
-301.209199694136940
 21
-211.852415540862860
  0
LINE
  8
0
  6
CONTINUOUS
 62
3
 10
-294.736061003460070
 20
-204.971355626593920
 11
-301.413160305932990
 21
-211.648454929066840
  0
LINE
  8
0
  6
CONTINUOUS
 62
3
 10
-295.049199612428880
 20
-204.718808675743530
 11
-301.696003085842560
 21
-211.365612149157270
  0
POINT
  8
0
  6
CONTINUOUS
 62
3
 10
-298.372601349135720
 20
-208.042210412450400
  0
ARC
  8
0
  6
CONTINUOUS
 62
3
 10
-300.635342914062730
 20
-205.779468847523360
 40
6.099999427795406
 50
264.601927898108500
 51
5.398089404735109
  0
LINE
  8
0
  6
CONTINUOUS
 62
3
 10
-405.075014495315710
 20
-204.718808675743530
 11
-405.561817887021330
 21
-205.205612067449150
  0
LINE
  8
0
  6
CONTINUOUS
 62
3
 10
-398.428211021902030
 20
-211.365612149157270
 11
-398.915014413607650
 21
-211.852415540862860
  0
LINE
  8
0
  6
CONTINUOUS
 62
3
 10
-405.388153104284530
 20
-204.971355626593920
 11
-398.711053801811600
 21
-211.648454929066840
  0
LINE
  8
0
  6
CONTINUOUS
 62
3
 10
-405.075014495315710
 20
-204.718808675743530
 11
-398.428211021902030
 21
-211.365612149157270
  0
POINT
  8
0
  6
CONTINUOUS
 62
3
 10
-401.751612758608870
 20
-208.042210412450400
  0
ARC
  8
0
  6
CONTINUOUS
 62
3
 10
-399.488871193681860
 20
-205.779468847523360
 40
6.099999427795398
 50
174.601910595264880
 51
275.398072101891500
  0
LINE
  8
0
  6
CONTINUOUS
 62
3
 10
-405.075014495315710
 20
-107.986600739683930
 11
-405.561817887021330
 21
-107.499797347978310
  0
LINE
  8
0
  6
CONTINUOUS
 62
3
 10
-398.428211021902030
 20
-101.339797266270220
 11
-398.915014413607650
 21
-100.852993874564600
  0
LINE
  8
0
  6
CONTINUOUS
 62
3
 10
-405.388153104284530
 20
-107.734053788833560
 11
-398.711053801811600
 21
-101.056954486360650
  0
LINE
  8
0
  6
CONTINUOUS
 62
3
 10
-405.075014495315710
 20
-107.986600739683930
 11
-398.428211021902030
 21
-101.339797266270220
  0
POINT
  8
0
  6
CONTINUOUS
 62
3
 10
-401.751612758608870
 20
-104.663199002977080
  0
ARC
  8
0
  6
CONTINUOUS
 62
3
 10
-399.488871193681860
 20
-106.925940567904120
 40
6.099999427795419
 50
84.601927898108485
 51
185.398089404735120
  0
LINE
  8
0
  6
CONTINUOUS
 62
3
 10
-295.049199612428880
 20
-107.986600739683930
 11
-294.562396220723260
 21
-107.499797347978310
  0
LINE
  8
0
  6
CONTINUOUS
 62
3
 10
-301.696003085842560
 20
-101.339797266270220
 11
-301.209199694136940
 21
-100.852993874564600
  0
LINE
  8
0
  6
CONTINUOUS
 62
3
 10
-294.736061003460070
 20
-107.734053788833560
 11
-301.413160305932990
 21
-101.056954486360650
  0
LINE
  8
0
  6
CONTINUOUS
 62
3
 10
-295.049199612428880
 20
-107.986600739683930
 11
-301.696003085842560
 21
-101.339797266270220
  0
POINT
  8
0
  6
CONTINUOUS
 62
3
 10
-298.372601349135720
 20
-104.663199002977080
  0
ARC
  8
0
  6
CONTINUOUS
 62
3
 10
-300.635342914062730
 20
-106.925940567904120
 40
6.099999427795398
 50
354.601910595264880
 51
95.398072101891515
  0
TEXT
  8
0
  6
CONTINUOUS
 62
3
 10
-396.272827148437500
 20
147.213470458984380
 40
10.295999526977539
  1
Ｓ０４９
 50
0.000002504478167
 41
0.984848625190477
  7
STANDARD1
  0
TEXT
  8
0
  6
CONTINUOUS
 62
3
 10
-396.272827148437500
 20
130.677459716796880
 40
10.295999526977539
  1
三菱ギヤードモートル
 50
0.000002504478167
 41
0.984848625190477
  7
STANDARD1
  0
TEXT
  8
0
  6
CONTINUOUS
 62
3
 10
-396.272827148437500
 20
114.141464233398430
 40
10.295999526977539
  1
ＧＭ－ＳＳ
 50
0.000002504478167
 41
0.984848625190477
  7
STANDARD1
  0
TEXT
  8
0
  6
CONTINUOUS
 62
3
 10
-396.272827148437500
 20
97.605461120605469
 40
10.295999526977539
  1
０．４ｋＷ
 50
0.000002504478167
 41
0.984848625190477
  7
STANDARD1
  0
TEXT
  8
0
  6
CONTINUOUS
 62
3
 10
-396.272827148437500
 20
81.069465637207031
 40
10.295999526977539
  1
１／１２０～１／２００
 50
0.000002504478167
 41
0.984848625190477
  7
STANDARD1
  0
TEXT
  8
0
  6
CONTINUOUS
 62
3
 10
-396.272827148437500
 20
64.533462524414062
 40
10.295999526977539
  1
ＳＣＡＬＥ１／１
 50
0.000002504478167
 41
0.984848625190477
  7
STANDARD1
  0
ARC
  8
0
  6
CONTINUOUS
 62
3
 10
-334.562107053872520
 20
-70.352704707723206
 40
5.000000000000000
 50
270.000000000000000
 51
0.000000000000000
  0
CIRCLE
  8
0
  6
CONTINUOUS
 62
3
 10
-339.562107053872300
 20
-65.352704707723206
 40
5.633955001831055
  0
CIRCLE
  8
0
  6
CONTINUOUS
 62
3
 10
-339.562107053872300
 20
-65.352704707723206
 40
6.500000000000000
  0
LINE
  8
0
  6
CONTINUOUS
 62
3
 10
-342.562103716013330
 20
-67.084750707274452
 11
-342.562104669687640
 21
-63.620652730589882
  0
LINE
  8
0
  6
CONTINUOUS
 62
3
 10
-336.562110391731490
 20
-63.620657754497643
 11
-336.562109438057400
 21
-67.084755731182213
  0
LINE
  8
0
  6
CONTINUOUS
 62
3
 10
-339.562100352151450
 20
-61.888607707787969
 11
-342.562104993423870
 21
-63.620652886017638
  0
LINE
  8
0
  6
CONTINUOUS
 62
3
 10
-336.562108941778660
 20
-67.084756100501977
 11
-339.562111518284380
 21
-68.816803073138317
  0
LINE
  8
0
  6
CONTINUOUS
 62
3
 10
-339.562100435270620
 20
-61.888607811337579
 11
-336.562109627923290
 21
-63.620657925586784
  0
LINE
  8
0
  6
CONTINUOUS
 62
3
 10
-339.562111758860960
 20
-68.816802883471951
 11
-342.562104630972730
 21
-67.084750925755884
  0
ARC
  8
0
  6
CONTINUOUS
 62
3
 10
-365.562107053872300
 20
-70.352704707723319
 40
5.000000000000000
 50
180.000000000000000
 51
270.000000000000000
  0
LINE
  8
0
  6
CONTINUOUS
 62
3
 10
-334.562107053872520
 20
-75.352704707723206
 11
-365.562107053872300
 21
-75.352704707723206
  0
CIRCLE
  8
0
  6
CONTINUOUS
 62
3
 10
-360.562107053872300
 20
-65.352704707723206
 40
5.633955001831055
  0
CIRCLE
  8
0
  6
CONTINUOUS
 62
3
 10
-360.562107053872300
 20
-65.352704707723206
 40
6.500000000000000
  0
LINE
  8
0
  6
CONTINUOUS
 62
3
 10
-357.562110391731270
 20
-67.084750707274452
 11
-357.562109438056950
 21
-63.620652730589882
  0
LINE
  8
0
  6
CONTINUOUS
 62
3
 10
-363.562103716013100
 20
-63.620657754497643
 11
-363.562104669687190
 21
-67.084755731182213
  0
LINE
  8
0
  6
CONTINUOUS
 62
3
 10
-360.562113755593150
 20
-61.888607707787969
 11
-357.562109114320720
 21
-63.620652886017638
  0
LINE
  8
0
  6
CONTINUOUS
 62
3
 10
-363.562105165965930
 20
-67.084756100501977
 11
-360.562102589459980
 21
-68.816803073138317
  0
LINE
  8
0
  6
CONTINUOUS
 62
3
 10
-360.562113672473970
 20
-61.888607811337579
 11
-363.562104479821300
 21
-63.620657925586784
  0
LINE
  8
0
  6
CONTINUOUS
 62
3
 10
-360.562102348883630
 20
-68.816802883471951
 11
-357.562109476771870
 21
-67.084750925755884
  0
CIRCLE
  8
0
  6
CONTINUOUS
 62
3
 10
-402.062107053872070
 20
-239.352704707713830
 40
5.633955001831055
  0
CIRCLE
  8
0
  6
CONTINUOUS
 62
3
 10
-402.062107053872070
 20
-239.352704707713830
 40
6.500000000000000
  0
LINE
  8
0
  6
CONTINUOUS
 62
3
 10
-399.062110391731040
 20
-241.084750707265070
 11
-399.062109438056720
 21
-237.620652730580500
  0
LINE
  8
0
  6
CONTINUOUS
 62
3
 10
-405.062103716012870
 20
-237.620657754488260
 11
-405.062104669686960
 21
-241.084755731172830
  0
LINE
  8
0
  6
CONTINUOUS
 62
3
 10
-402.062113755592920
 20
-235.888607707778590
 11
-399.062109114320490
 21
-237.620652886008260
  0
LINE
  8
0
  6
CONTINUOUS
 62
3
 10
-405.062105165965700
 20
-241.084756100492600
 11
-402.062102589459760
 21
-242.816803073128940
  0
LINE
  8
0
  6
CONTINUOUS
 62
3
 10
-402.062113672473740
 20
-235.888607811328200
 11
-405.062104479821070
 21
-237.620657925577460
  0
LINE
  8
0
  6
CONTINUOUS
 62
3
 10
-402.062102348883400
 20
-242.816802883462630
 11
-399.062109476771640
 21
-241.084750925746560
  0
CIRCLE
  8
0
  6
CONTINUOUS
 62
3
 10
-400.062107053872300
 20
-75.352704707713883
 40
5.633955001831055
  0
CIRCLE
  8
0
  6
CONTINUOUS
 62
3
 10
-400.062107053872300
 20
-75.352704707713883
 40
6.500000000000000
  0
LINE
  8
0
  6
CONTINUOUS
 62
3
 10
-397.062110391731270
 20
-77.084750707265130
 11
-397.062109438056950
 21
-73.620652730580559
  0
LINE
  8
0
  6
CONTINUOUS
 62
3
 10
-403.062103716013100
 20
-73.620657754488320
 11
-403.062104669687190
 21
-77.084755731172891
  0
LINE
  8
0
  6
CONTINUOUS
 62
3
 10
-400.062113755593150
 20
-71.888607707778647
 11
-397.062109114320720
 21
-73.620652886008315
  0
LINE
  8
0
  6
CONTINUOUS
 62
3
 10
-403.062105165965930
 20
-77.084756100492655
 11
-400.062102589459980
 21
-78.816803073128995
  0
LINE
  8
0
  6
CONTINUOUS
 62
3
 10
-400.062113672473970
 20
-71.888607811328257
 11
-403.062104479821300
 21
-73.620657925577461
  0
LINE
  8
0
  6
CONTINUOUS
 62
3
 10
-400.062102348883630
 20
-78.816802883462628
 11
-397.062109476771870
 21
-77.084750925746562
  0
CIRCLE
  8
0
  6
CONTINUOUS
 62
3
 10
-300.062107053872300
 20
-75.352704707713656
 40
5.633955001831055
  0
CIRCLE
  8
0
  6
CONTINUOUS
 62
3
 10
-300.062107053872300
 20
-75.352704707713656
 40
6.500000000000000
  0
LINE
  8
0
  6
CONTINUOUS
 62
3
 10
-303.062103716013330
 20
-77.084750707264902
 11
-303.062104669687640
 21
-73.620652730580332
  0
LINE
  8
0
  6
CONTINUOUS
 62
3
 10
-297.062110391731490
 20
-73.620657754488093
 11
-297.062109438057400
 21
-77.084755731172663
  0
LINE
  8
0
  6
CONTINUOUS
 62
3
 10
-300.062100352151450
 20
-71.888607707778419
 11
-303.062104993423870
 21
-73.620652886008088
  0
LINE
  8
0
  6
CONTINUOUS
 62
3
 10
-297.062108941778660
 20
-77.084756100492427
 11
-300.062111518284380
 21
-78.816803073128767
  0
LINE
  8
0
  6
CONTINUOUS
 62
3
 10
-300.062100435270620
 20
-71.888607811328029
 11
-297.062109627923290
 21
-73.620657925577234
  0
LINE
  8
0
  6
CONTINUOUS
 62
3
 10
-300.062111758860960
 20
-78.816802883462401
 11
-303.062104630972730
 21
-77.084750925746334
  0
CIRCLE
  8
0
  6
CONTINUOUS
 62
3
 10
-298.062107053872300
 20
-239.352704707713600
 40
5.633955001831055
  0
CIRCLE
  8
0
  6
CONTINUOUS
 62
3
 10
-298.062107053872300
 20
-239.352704707713600
 40
6.500000000000000
  0
LINE
  8
0
  6
CONTINUOUS
 62
3
 10
-301.062103716013330
 20
-241.084750707264850
 11
-301.062104669687640
 21
-237.620652730580280
  0
LINE
  8
0
  6
CONTINUOUS
 62
3
 10
-295.062110391731490
 20
-237.620657754488040
 11
-295.062109438057400
 21
-241.084755731172610
  0
LINE
  8
0
  6
CONTINUOUS
 62
3
 10
-298.062100352151450
 20
-235.888607707778360
 11
-301.062104993423870
 21
-237.620652886008030
  0
LINE
  8
0
  6
CONTINUOUS
 62
3
 10
-295.062108941778660
 20
-241.084756100492370
 11
-298.062111518284380
 21
-242.816803073128710
  0
LINE
  8
0
  6
CONTINUOUS
 62
3
 10
-298.062100435270620
 20
-235.888607811327970
 11
-295.062109627923290
 21
-237.620657925577230
  0
LINE
  8
0
  6
CONTINUOUS
 62
3
 10
-298.062111758860960
 20
-242.816802883462400
 11
-301.062104630972730
 21
-241.084750925746330
  0
LINE
  8
0
  6
CONTINUOUS
 62
3
 10
-370.562107053872300
 20
-31.352704707713656
 11
-370.562107053872300
 21
-70.352704707723319
  0
ARC
  8
0
  6
CONTINUOUS
 62
3
 10
-360.562107053872300
 20
-31.352704707713656
 40
10.000000000000000
 50
90.000000000000000
 51
180.000000000000000
  0
LINE
  8
0
  6
CONTINUOUS
 62
3
 10
-339.562107053872300
 20
-21.352704707713656
 11
-360.562107053872300
 21
-21.352704707713656
  0
ARC
  8
0
  6
CONTINUOUS
 62
3
 10
-339.562107053872300
 20
-31.352704707713656
 40
10.000000000000000
 50
0.000000000000000
 51
90.000000000000000
  0
LINE
  8
0
  6
DASHDOT
 62
4
 10
-326.894194054990750
 20
-41.352704707713656
 11
-373.916707956525440
 21
-41.352704707713656
  0
LINE
  8
0
  6
CONTINUOUS
 62
3
 10
-329.562107053872300
 20
-31.352704707713656
 11
-329.562107053872300
 21
-70.352704707723206
  0
CIRCLE
  8
0
  6
CONTINUOUS
 62
3
 10
-350.062107053872300
 20
-41.352704707713656
 40
10.000000000000000
  0
LINE
  8
0
  6
CONTINUOUS
 62
3
 10
-259.564109826740830
 20
-123.352704707713650
 11
-265.062107053872300
 21
-123.352704707713650
  0
LINE
  8
0
  6
CONTINUOUS
 62
3
 10
-402.062107053872300
 20
-249.352704707713600
 11
-350.062107053872520
 21
-249.352704707713600
  0
LINE
  8
0
  6
CONTINUOUS
 62
3
 10
-298.062107053872300
 20
-249.352704707713600
 11
-350.062107053872300
 21
-249.352704707713600
  0
LINE
  8
0
  6
CONTINUOUS
 62
3
 10
-256.062107053872300
 20
-136.586102891895050
 11
-256.062107053872300
 21
-192.338813138606780
  0
LINE
  8
0
  6
CONTINUOUS
 62
3
 10
-353.062107053872300
 20
-78.352704707723206
 11
-353.062107053872300
 21
-94.852704707713656
  0
LINE
  8
0
  6
CONTINUOUS
 62
3
 10
-347.062107053872300
 20
-78.352704707723206
 11
-347.062107053872300
 21
-94.852704707713656
  0
ARC
  8
0
  6
CONTINUOUS
 62
3
 10
-259.564109826740830
 20
-121.352704707713650
 40
2.000000000000000
 50
270.000000000000000
 51
11.262247925640054
  0
ARC
  8
0
  6
CONTINUOUS
 62
3
 10
-336.062107053872070
 20
-136.586102891895050
 40
80.000000000000000
 50
0.000000000000000
 51
85.339580615885367
  0
ARC
  8
0
  6
CONTINUOUS
 62
3
 10
-280.070809983661550
 20
-239.912374013123720
 40
7.999999999999901
 50
129.950233661982820
 51
178.218230102087180
  0
ARC
  8
0
  6
CONTINUOUS
 62
3
 10
-298.062107053872300
 20
-239.352704707713600
 40
10.000000000000000
 50
270.000000000000000
 51
358.218230102088230
  0
ARC
  8
0
  6
CONTINUOUS
 62
3
 10
-402.062107053872300
 20
-239.352704707713600
 40
10.000000000000128
 50
181.781769897911770
 51
270.000000000000000
  0
ARC
  8
0
  6
CONTINUOUS
 62
3
 10
-420.053404124083270
 20
-239.912374013123720
 40
7.999999999999879
 50
1.781769897912804
 51
50.049766338017157
  0
ARC
  8
0
  6
CONTINUOUS
 62
3
 10
-261.062107053872070
 20
-192.338813138606780
 40
4.999999999999877
 50
337.984630459601990
 51
0.000000000000000
  0
ARC
  8
0
  6
CONTINUOUS
 62
3
 10
-439.062107053872520
 20
-192.338813138606780
 40
5.000000000000000
 50
180.000000000000000
 51
202.015369540398010
  0
ARC
  8
0
  6
CONTINUOUS
 62
3
 10
-350.062107053872520
 20
-156.352704707713660
 40
101.000000000000070
 50
202.015369540396850
 51
230.049766338017580
  0
ARC
  8
0
  6
CONTINUOUS
 62
3
 10
-350.062107053872300
 20
-156.352704707713660
 40
101.000000000000010
 50
309.950233661982400
 51
337.984630459603180
  0
ARC
  8
0
  6
CONTINUOUS
 62
3
 10
-356.062107053872300
 20
-78.352704707723206
 40
3.000000000000000
 50
0.000000000000000
 51
90.000000000000000
  0
ARC
  8
0
  6
CONTINUOUS
 62
3
 10
-344.062107053872300
 20
-78.352704707723206
 40
3.000000000000000
 50
90.000000000000000
 51
180.000000000000000
  0
ARC
  8
0
  6
CONTINUOUS
 62
3
 10
-261.062107053871840
 20
-192.338813138606780
 40
4.999999999999877
 50
337.984630459601990
 51
0.000000000000000
  0
ARC
  8
0
  6
CONTINUOUS
 62
3
 10
-439.062107053872300
 20
-192.338813138606780
 40
5.000000000000000
 50
180.000000000000000
 51
202.015369540397050
  0
ARC
  8
0
  6
CONTINUOUS
 62
3
 10
-350.062107053871840
 20
-156.352704707713660
 40
105.999999999999920
 50
311.146783655315970
 51
311.328658646343460
  0
ARC
  8
0
  6
CONTINUOUS
 62
3
 10
-259.062107053871840
 20
-216.352704707713600
 40
3.000000000000000
 50
0.000000000000000
 51
146.601511532013290
  0
LINE
  8
0
  6
CONTINUOUS
 62
3
 10
-283.051209113315050
 20
-242.197711494080470
 11
-283.051209113315050
 21
-247.482551564260520
  0
ARC
  8
0
  6
CONTINUOUS
 62
3
 10
-281.051209113315050
 20
-247.482551564260520
 40
2.000000000000000
 50
180.000000000000000
 51
255.361208056745620
  0
ARC
  8
0
  6
CONTINUOUS
 62
3
 10
-276.224447285972930
 20
-235.852704707713600
 40
2.500000000000000
 50
90.000000000000000
 51
132.885184548963080
  0
ARC
  8
0
  6
CONTINUOUS
 62
3
 10
-277.562107053871840
 20
-237.074448990155760
 40
2.499999999999951
 50
131.928504432621510
 51
180.000000000000000
  0
ARC
  8
0
  6
CONTINUOUS
 62
3
 10
-350.062107053871840
 20
-156.352704707713660
 40
105.999999999999880
 50
311.328658646343460
 51
326.601511532012750
  0
ARC
  8
0
  6
CONTINUOUS
 62
3
 10
-350.062107053872300
 20
-156.352704707713660
 40
105.999999999999980
 50
213.398488467987190
 51
228.671341353656540
  0
ARC
  8
0
  6
CONTINUOUS
 62
3
 10
-423.899766821771210
 20
-235.852704707713600
 40
2.499999999999758
 50
47.114815451040748
 51
90.000000000000000
  0
ARC
  8
0
  6
CONTINUOUS
 62
3
 10
-350.062107053872300
 20
-156.352704707713660
 40
105.999999999999880
 50
228.671341353656540
 51
228.853216344683940
  0
ARC
  8
0
  6
CONTINUOUS
 62
3
 10
-422.562107053872300
 20
-237.074448990155760
 40
2.500000000000000
 50
0.000000000000000
 51
48.071495567382364
  0
LINE
  8
0
  6
CONTINUOUS
 62
3
 10
-417.073004994429080
 20
-242.197711494080470
 11
-417.073004994429080
 21
-247.482551564260520
  0
ARC
  8
0
  6
CONTINUOUS
 62
3
 10
-419.073004994429080
 20
-247.482551564260520
 40
2.000000000000327
 50
284.638791943254380
 51
0.000000000000000
  0
ARC
  8
0
  6
CONTINUOUS
 62
3
 10
-441.062107053872300
 20
-216.352704707713600
 40
2.999999999999984
 50
33.398488467989075
 51
180.000000000000000
  0
ARC
  8
0
  6
CONTINUOUS
 62
3
 10
-425.073004994429080
 20
-242.197711494080470
 40
8.000000000000000
 50
0.000000000000000
 51
48.853216344683936
  0
ARC
  8
0
  6
CONTINUOUS
 62
3
 10
-275.051209113315050
 20
-242.197711494080470
 40
8.000000000000025
 50
131.146783655317310
 51
180.000000000000000
  0
LINE
  8
0
  6
CONTINUOUS
 62
3
 10
-256.062107053871840
 20
-136.586102891895280
 11
-256.062107053871840
 21
-230.352704707713600
  0
LINE
  8
0
  6
CONTINUOUS
 62
3
 10
-418.062107053872300
 20
-249.352704707713600
 11
-350.062107053872300
 21
-249.352704707713600
  0
LINE
  8
0
  6
CONTINUOUS
 62
3
 10
-282.062107053871840
 20
-249.352704707713600
 11
-350.062107053871840
 21
-249.352704707713600
  0
LINE
  8
0
  6
CONTINUOUS
 62
3
 10
-450.062107053872300
 20
-251.352704707713600
 11
-420.062107053872300
 21
-251.352704707713600
  0
LINE
  8
0
  6
DASHDOT
 62
4
 10
-437.562107053872300
 20
-229.192425853343540
 11
-437.562107053872300
 21
-255.769496547313280
  0
LINE
  8
0
  6
CONTINUOUS
 62
3
 10
-450.062107053872300
 20
-235.852704707713600
 11
-450.062107053872300
 21
-251.352704707713600
  0
LINE
  8
0
  6
DASHDOT
 62
4
 10
-350.062107053872300
 20
-9.447655940216464
 11
-350.062107053872300
 21
-263.726890634229160
  0
LINE
  8
0
  6
CONTINUOUS
 62
3
 10
-252.562107053871840
 20
-233.352704707713600
 11
-276.224447285972930
 21
-233.352704707713600
  0
LINE
  8
0
  6
CONTINUOUS
 62
3
 10
-250.062107053871840
 20
-251.352704707713600
 11
-280.062107053871840
 21
-251.352704707713600
  0
LINE
  8
0
  6
DASHDOT
 62
4
 10
-262.562107053871840
 20
-229.192425853343540
 11
-262.562107053871840
 21
-255.769496547313280
  0
LINE
  8
0
  6
CONTINUOUS
 62
3
 10
-250.062107053871840
 20
-235.852704707713600
 11
-250.062107053871840
 21
-251.352704707713600
  0
LINE
  8
0
  6
CONTINUOUS
 62
3
 10
-280.062107053871840
 20
-237.074448990155760
 11
-280.062107053871840
 21
-251.352704707713600
  0
ARC
  8
0
  6
CONTINUOUS
 62
3
 10
-298.062107053872300
 20
-239.352704707713600
 40
10.000000000000000
 50
270.000000000000000
 51
358.218230102088230
  0
ARC
  8
0
  6
CONTINUOUS
 62
3
 10
-350.062107053871840
 20
-156.352704707713660
 40
100.999999999999910
 50
320.054316807191530
 51
337.984630459603120
  0
ARC
  8
0
  6
CONTINUOUS
 62
3
 10
-336.062107053871840
 20
-136.586102891895280
 40
80.000000000000000
 50
0.000000000000000
 51
85.339580615885538
  0
ARC
  8
0
  6
CONTINUOUS
 62
3
 10
-447.062107053872300
 20
-230.352704707713600
 40
3.000000000000000
 50
270.000000000000000
 51
0.000000000000000
  0
ARC
  8
0
  6
CONTINUOUS
 62
3
 10
-402.062107053872300
 20
-239.352704707713600
 40
9.999999999999675
 50
181.781769897911860
 51
270.000000000000000
  0
ARC
  8
0
  6
CONTINUOUS
 62
3
 10
-280.070809983661090
 20
-239.912374013123950
 40
8.000000000000075
 50
129.950233661981800
 51
178.218230102085610
  0
ARC
  8
0
  6
CONTINUOUS
 62
3
 10
-350.062107053871840
 20
-156.352704707713660
 40
101.000000000000010
 50
309.950233661982400
 51
320.054316807191530
  0
ARC
  8
0
  6
CONTINUOUS
 62
3
 10
-253.062107053871840
 20
-230.352704707713600
 40
3.000000000000000
 50
180.000000000000000
 51
270.000000000000000
  0
ARC
  8
0
  6
CONTINUOUS
 62
3
 10
-447.562107053872300
 20
-235.852704707713600
 40
2.500000000000000
 50
90.000000000000000
 51
180.000000000000000
  0
ARC
  8
0
  6
CONTINUOUS
 62
3
 10
-418.062107053872300
 20
-251.352704707713600
 40
2.000000000000000
 50
90.000000000000000
 51
180.000000000000000
  0
ARC
  8
0
  6
CONTINUOUS
 62
3
 10
-252.562107053871840
 20
-235.852704707713600
 40
2.500000000000000
 50
0.000000000000000
 51
90.000000000000000
  0
ARC
  8
0
  6
CONTINUOUS
 62
3
 10
-282.062107053871840
 20
-251.352704707713600
 40
2.000000000000000
 50
0.000000000000000
 51
90.000000000000000
  0
LINE
  8
0
  6
CONTINUOUS
 62
3
 10
-447.562107053872300
 20
-233.352704707713600
 11
-423.899766821771210
 21
-233.352704707713600
  0
LINE
  8
0
  6
CONTINUOUS
 62
3
 10
-420.062107053872300
 20
-237.074448990155760
 11
-420.062107053872300
 21
-251.352704707713600
  0
ARC
  8
0
  6
CONTINUOUS
 62
3
 10
-350.062107053872300
 20
-156.352704707713660
 40
101.000000000000070
 50
202.015369540396850
 51
230.049766338017580
  0
ARC
  8
0
  6
CONTINUOUS
 62
3
 10
-420.053404124083040
 20
-239.912374013123950
 40
8.000000000000114
 50
1.781769897914381
 51
50.049766338018202
  0
INSERT
  8
0
  2
SYM1
 10
-437.506929260215660
 20
-197.271661318974050
 41
1.000000000000000
 42
1.000000000000000
 43
1.000000000000000
 50
357.137594773886350
  0
ARC
  8
0
  6
CONTINUOUS
 62
4
 10
-350.062107053872300
 20
-396.952704707713510
 40
289.396999999999880
 50
90.000000000000000
 51
97.897988672427743
  0
ARC
  8
0
  6
CONTINUOUS
 62
4
 10
-389.003625009254390
 20
-116.243927167126910
 40
5.999999999999923
 50
97.897988672425626
 51
134.999999999996930
  0
LINE
  8
0
  6
CONTINUOUS
 62
4
 10
-393.246265696373480
 20
-112.001286480007360
 11
-397.822331089012100
 21
-116.577351872645970
  0
ARC
  8
0
  6
CONTINUOUS
 62
4
 10
-114.462107053872380
 20
-156.352704707713660
 40
289.396999999999930
 50
173.948014641331470
 51
180.000000000000000
  0
LINE
  8
0
  6
CONTINUOUS
 62
3
 10
-286.717112113331270
 20
-187.852704707713600
 11
-286.562107053872300
 21
-187.852704707713600
  0
LINE
  8
0
  6
CONTINUOUS
 62
3
 10
-286.562107053872300
 20
-126.360205645446740
 11
-286.562107053872300
 21
-124.852704707713420
  0
LINE
  8
0
  6
CONTINUOUS
 62
3
 10
-286.562107053872300
 20
-187.852704707713600
 11
-286.562107053872300
 21
-186.345203769980290
  0
LINE
  8
0
  6
CONTINUOUS
 62
3
 10
-263.123337919890900
 20
-126.352704707713420
 11
-286.562859311588450
 21
-126.352704707713420
  0
LINE
  8
0
  6
CONTINUOUS
 62
3
 10
-286.717112113331270
 20
-124.852704707713420
 11
-286.562107053872300
 21
-124.852704707713420
  0
LINE
  8
0
  6
CONTINUOUS
 62
3
 10
-256.562107053872300
 20
-158.852704707713200
 11
-256.562107053872300
 21
-153.852704707713200
  0
LINE
  8
0
  6
CONTINUOUS
 62
3
 10
-256.562107053872300
 20
-158.852704707713200
 11
-257.072523901390010
 21
-158.852704707713200
  0
LINE
  8
0
  6
CONTINUOUS
 62
3
 10
-256.562107053872300
 20
-153.852704707713200
 11
-257.072523901390010
 21
-153.852704707713200
  0
ARC
  8
0
  6
CONTINUOUS
 62
3
 10
-557.062107053872300
 20
-156.352704707713200
 40
300.000000000000000
 50
0.000000000000000
 51
4.861405395797992
  0
ARC
  8
0
  6
CONTINUOUS
 62
3
 10
-263.123337919890900
 20
-131.352704707713430
 40
5.000000000000119
 50
4.861405395798401
 51
90.000000000000000
  0
ARC
  8
0
  6
CONTINUOUS
 62
3
 10
-263.123337919890900
 20
-181.352704707713140
 40
5.000000000000000
 50
270.000000000000000
 51
355.138594604199000
  0
LINE
  8
0
  6
CONTINUOUS
 62
3
 10
-263.123337919890900
 20
-186.352704707713140
 11
-286.562107053872300
 21
-186.352704707713140
  0
ARC
  8
0
  6
CONTINUOUS
 62
3
 10
-557.062107053872300
 20
-156.352704707713200
 40
300.000000000000170
 50
355.138594604201900
 51
0.000000000000000
  0
ARC
  8
0
  6
CONTINUOUS
 62
3
 10
-394.010694484154780
 20
-106.256090240185350
 40
6.599999999999971
 50
98.597082237248614
 51
134.999999999998610
  0
ARC
  8
0
  6
CONTINUOUS
 62
3
 10
-354.062107053872300
 20
-127.629891475023210
 40
1.499999999999998
 50
277.928141766204020
 51
0.000000000000000
  0
ARC
  8
0
  6
CONTINUOUS
 62
3
 10
-350.062107053871840
 20
-156.352704707713660
 40
33.499999999999950
 50
97.180755781459069
 51
142.819244218541740
  0
ARC
  8
0
  6
CONTINUOUS
 62
3
 10
-350.062107053871840
 20
-156.352704707713660
 40
43.000000000000043
 50
95.531071524839788
 51
144.468928475160770
  0
ARC
  8
0
  6
CONTINUOUS
 62
3
 10
-350.062107053871840
 20
-156.352704707713660
 40
37.000000000000099
 50
95.963570118321798
 51
144.036429881678830
  0
ARC
  8
0
  6
CONTINUOUS
 62
3
 10
-372.936792981538020
 20
-138.527196476230530
 40
1.499999999999926
 50
239.999999999998410
 51
322.071858233800300
  0
ARC
  8
0
  6
CONTINUOUS
 62
3
 10
-375.557561223606850
 20
-137.014095226188370
 40
1.500000000000103
 50
142.819244218542510
 51
239.999999999998410
  0
ARC
  8
0
  6
CONTINUOUS
 62
3
 10
-381.223643508023090
 20
-133.742781094030080
 40
1.500000000000123
 50
240.000000000002730
 51
324.036429881683720
  0
LINE
  8
0
  6
CONTINUOUS
 62
3
 10
-373.686792981538020
 20
-139.826234581907100
 11
-376.307561223606850
 21
-138.313133331864950
  0
LINE
  8
0
  6
CONTINUOUS
 62
3
 10
-381.973643508023090
 20
-135.041819199706880
 11
-384.584827107007190
 21
-133.534251645929770
  0
ARC
  8
0
  6
CONTINUOUS
 62
3
 10
-383.834827107007190
 20
-132.235213540252970
 40
1.499999999999976
 50
144.468928475160790
 51
240.000000000002730
  0
ARC
  8
0
  6
CONTINUOUS
 62
3
 10
-379.557561223607310
 20
-168.763110958963350
 40
1.500000000000157
 50
202.819244218546660
 51
300.000000000001590
  0
LINE
  8
0
  6
CONTINUOUS
 62
3
 10
-378.807561223607310
 20
-170.062149064639930
 11
-376.186792981538020
 21
-168.549047814598000
  0
ARC
  8
0
  6
CONTINUOUS
 62
3
 10
-385.223643508023540
 20
-172.034425091121590
 40
1.499999999999926
 50
300.000000000001590
 51
24.036429881675147
  0
LINE
  8
0
  6
CONTINUOUS
 62
3
 10
-387.084827107007640
 20
-174.841030750575500
 11
-384.473643508023540
 21
-173.333463196798160
  0
ARC
  8
0
  6
CONTINUOUS
 62
3
 10
-387.834827107007640
 20
-173.541992644898470
 40
1.500000000000128
 50
204.468928475167470
 51
299.999999999992950
  0
ARC
  8
0
  6
CONTINUOUS
 62
3
 10
-376.936792981538020
 20
-167.250009708920970
 40
1.500000000000320
 50
299.999999999992950
 51
22.071858233784546
  0
ARC
  8
0
  6
CONTINUOUS
 62
3
 10
-350.062107053872070
 20
-156.352704707714110
 40
33.499999999999794
 50
157.180755781458400
 51
202.819244218540940
  0
ARC
  8
0
  6
CONTINUOUS
 62
3
 10
-350.062107053872070
 20
-156.352704707714110
 40
43.000000000000121
 50
155.531071524839230
 51
204.468928475160140
  0
ARC
  8
0
  6
CONTINUOUS
 62
3
 10
-350.062107053872070
 20
-156.352704707714110
 40
37.000000000000156
 50
155.963570118321120
 51
204.036429881678230
  0
ARC
  8
0
  6
CONTINUOUS
 62
3
 10
-350.062107053872750
 20
-156.352704707713660
 40
27.499999999999886
 50
157.928141766202200
 51
202.071858233798680
  0
ARC
  8
0
  6
CONTINUOUS
 62
3
 10
-376.936792981538250
 20
-145.455399706506340
 40
1.500000000000110
 50
337.928141766202600
 51
59.999999999998380
  0
ARC
  8
0
  6
CONTINUOUS
 62
3
 10
-379.557561223607080
 20
-143.942298456464410
 40
1.500000000000123
 50
60.000000000002721
 51
157.180755781457980
  0
ARC
  8
0
  6
CONTINUOUS
 62
3
 10
-385.223643508023320
 20
-140.670984324306120
 40
1.499999999999855
 50
335.963570118319300
 51
59.999999999990862
  0
LINE
  8
0
  6
CONTINUOUS
 62
3
 10
-376.186792981538250
 20
-144.156361600829770
 11
-378.807561223607080
 21
-142.643260350787610
  0
LINE
  8
0
  6
CONTINUOUS
 62
3
 10
-384.473643508023090
 20
-139.371946218629550
 11
-387.084827107007640
 21
-137.864378664852440
  0
ARC
  8
0
  6
CONTINUOUS
 62
3
 10
-387.834827107007640
 20
-139.163416770529010
 40
1.499999999999926
 50
59.999999999998380
 51
155.531071524840400
  0
ARC
  8
0
  6
CONTINUOUS
 62
3
 10
-375.557561223607310
 20
-175.691314189238650
 40
1.499999999999926
 50
120.000000000001620
 51
217.180755781464400
  0
LINE
  8
0
  6
CONTINUOUS
 62
3
 10
-376.307561223607310
 20
-174.392276083562080
 11
-373.686792981538020
 21
-172.879174833519700
  0
ARC
  8
0
  6
CONTINUOUS
 62
3
 10
-381.223643508023540
 20
-178.962628321396950
 40
1.499999999999968
 50
35.963570118309242
 51
120.000000000001620
  0
LINE
  8
0
  6
CONTINUOUS
 62
3
 10
-384.584827107007640
 20
-179.171157769497710
 11
-381.973643508023540
 21
-177.663590215720380
  0
ARC
  8
0
  6
CONTINUOUS
 62
3
 10
-383.834827107007640
 20
-180.470195875174280
 40
1.499999999999926
 50
120.000000000001620
 51
215.531071524832130
  0
ARC
  8
0
  6
CONTINUOUS
 62
3
 10
-372.936792981538020
 20
-174.178212939196730
 40
1.500000000000122
 50
37.928141766218701
 51
119.999999999992930
  0
ARC
  8
0
  6
CONTINUOUS
 62
3
 10
-350.062107053872520
 20
-156.352704707713200
 40
33.500000000000128
 50
217.180755781459030
 51
262.819244218541710
  0
ARC
  8
0
  6
CONTINUOUS
 62
3
 10
-350.062107053872520
 20
-156.352704707713200
 40
42.999999999999822
 50
215.531071524839600
 51
264.468928475160850
  0
ARC
  8
0
  6
CONTINUOUS
 62
3
 10
-350.062107053872520
 20
-156.352704707713200
 40
36.999999999999993
 50
215.963570118321880
 51
264.036429881678880
  0
ARC
  8
0
  6
CONTINUOUS
 62
3
 10
-350.062107053872520
 20
-156.352704707714110
 40
27.499999999999744
 50
217.928141766200980
 51
262.071858233797340
  0
ARC
  8
0
  6
CONTINUOUS
 62
3
 10
-354.062107053872520
 20
-185.075517940404040
 40
1.500000000000000
 50
0.000000000000000
 51
82.071858233804562
  0
ARC
  8
0
  6
CONTINUOUS
 62
3
 10
-354.062107053872520
 20
-188.101720440488350
 40
1.499999999999998
 50
262.819244218541710
 51
0.000000000000000
  0
ARC
  8
0
  6
CONTINUOUS
 62
3
 10
-354.062107053872520
 20
-194.644348704804940
 40
1.500000000000000
 50
0.000000000017370
 51
84.036429881682594
  0
LINE
  8
0
  6
CONTINUOUS
 62
3
 10
-352.562107053872520
 20
-185.075517940404040
 11
-352.562107053872520
 21
-188.101720440488350
  0
LINE
  8
0
  6
CONTINUOUS
 62
3
 10
-352.562107053872520
 20
-194.644348704804490
 11
-352.562107053872520
 21
-197.659483812358700
  0
ARC
  8
0
  6
CONTINUOUS
 62
3
 10
-354.062107053872520
 20
-197.659483812358700
 40
1.500000000000430
 50
264.468928475160000
 51
0.000000000000000
  0
ARC
  8
0
  6
CONTINUOUS
 62
3
 10
-324.566652884137280
 20
-175.691314189238650
 40
1.500000000000240
 50
322.819244218535570
 51
59.999999999998380
  0
LINE
  8
0
  6
CONTINUOUS
 62
3
 10
-323.816652884137280
 20
-174.392276083562080
 11
-326.437421126206570
 21
-172.879174833519700
  0
ARC
  8
0
  6
CONTINUOUS
 62
3
 10
-318.900570599721050
 20
-178.962628321396950
 40
1.499999999999926
 50
59.999999999998380
 51
144.036429881690740
  0
ARC
  8
0
  6
CONTINUOUS
 62
3
 10
-327.187421126206570
 20
-174.178212939196730
 40
1.500000000000320
 50
60.000000000007070
 51
142.071858233781280
  0
ARC
  8
0
  6
CONTINUOUS
 62
3
 10
-350.062107053872070
 20
-156.352704707713200
 40
33.500000000000064
 50
277.180755781458290
 51
322.819244218540970
  0
ARC
  8
0
  6
CONTINUOUS
 62
3
 10
-350.062107053872070
 20
-156.352704707713200
 40
43.000000000000142
 50
275.531071524838860
 51
324.468928475160400
  0
ARC
  8
0
  6
CONTINUOUS
 62
3
 10
-350.062107053872070
 20
-156.352704707713200
 40
36.999999999999972
 50
275.963570118320770
 51
324.036429881678090
  0
ARC
  8
0
  6
CONTINUOUS
 62
3
 10
-350.062107053872070
 20
-156.352704707714110
 40
27.499999999999822
 50
277.928141766202660
 51
322.071858233798990
  0
ARC
  8
0
  6
CONTINUOUS
 62
3
 10
-346.062107053872070
 20
-185.075517940404040
 40
1.499999999999967
 50
97.928141766195438
 51
180.000000000000000
  0
ARC
  8
0
  6
CONTINUOUS
 62
3
 10
-346.062107053872070
 20
-188.101720440488350
 40
1.500000000000000
 50
180.000000000000000
 51
277.180755781458290
  0
ARC
  8
0
  6
CONTINUOUS
 62
3
 10
-346.062107053872070
 20
-194.644348704804940
 40
1.500000000000182
 50
95.963570118326047
 51
179.999999999982630
  0
LINE
  8
0
  6
CONTINUOUS
 62
3
 10
-347.562107053872070
 20
-185.075517940404040
 11
-347.562107053872070
 21
-188.101720440488350
  0
LINE
  8
0
  6
CONTINUOUS
 62
3
 10
-347.562107053872070
 20
-194.644348704804490
 11
-347.562107053872070
 21
-197.659483812358700
  0
ARC
  8
0
  6
CONTINUOUS
 62
3
 10
-346.062107053872070
 20
-197.659483812358700
 40
1.500000000000000
 50
180.000000000000000
 51
275.531071524831360
  0
ARC
  8
0
  6
CONTINUOUS
 62
3
 10
-320.566652884137280
 20
-168.763110958963350
 40
1.499999999999926
 50
239.999999999998410
 51
337.180755781453340
  0
LINE
  8
0
  6
CONTINUOUS
 62
3
 10
-321.316652884137280
 20
-170.062149064639930
 11
-323.937421126206570
 21
-168.549047814598000
  0
ARC
  8
0
  6
CONTINUOUS
 62
3
 10
-323.187421126206570
 20
-167.250009708920970
 40
1.499999999999899
 50
157.928141766199360
 51
240.000000000007050
  0
ARC
  8
0
  6
CONTINUOUS
 62
3
 10
-350.062107053872520
 20
-156.352704707714110
 40
33.500000000000128
 50
337.180755781459030
 51
22.819244218541968
  0
ARC
  8
0
  6
CONTINUOUS
 62
3
 10
-350.062107053871840
 20
-156.352704707713660
 40
27.499999999999886
 50
337.928141766202200
 51
22.071858233797812
  0
ARC
  8
0
  6
CONTINUOUS
 62
3
 10
-323.187421126206350
 20
-145.455399706506340
 40
1.499999999999926
 50
120.000000000001620
 51
202.071858233797370
  0
ARC
  8
0
  6
CONTINUOUS
 62
3
 10
-320.566652884137510
 20
-143.942298456464410
 40
1.499999999999948
 50
22.819244218550043
 51
119.999999999997270
  0
LINE
  8
0
  6
CONTINUOUS
 62
3
 10
-323.937421126206350
 20
-144.156361600829770
 11
-321.316652884137510
 21
-142.643260350787610
  0
ARC
  8
0
  6
CONTINUOUS
 62
3
 10
-350.062107053872750
 20
-156.352704707713660
 40
33.500000000000071
 50
37.180755781458259
 51
82.819244218540931
  0
ARC
  8
0
  6
CONTINUOUS
 62
3
 10
-350.062107053872750
 20
-156.352704707713660
 40
36.999999999999943
 50
35.963570118321194
 51
84.036429881678174
  0
ARC
  8
0
  6
CONTINUOUS
 62
3
 10
-318.900570599721500
 20
-133.742781094030080
 40
1.500000000000102
 50
215.963570118316280
 51
299.999999999997270
  0
ARC
  8
0
  6
CONTINUOUS
 62
3
 10
-324.566652884137740
 20
-137.014095226188370
 40
1.499999999999926
 50
300.000000000001590
 51
37.180755781457485
  0
ARC
  8
0
  6
CONTINUOUS
 62
3
 10
-350.062107053872070
 20
-156.352704707713200
 40
27.500000000000060
 50
37.928141766201819
 51
82.071858233798309
  0
ARC
  8
0
  6
CONTINUOUS
 62
3
 10
-346.062107053872300
 20
-127.629891475023210
 40
1.500000000000000
 50
180.000000000000000
 51
262.071858233795980
  0
LINE
  8
0
  6
CONTINUOUS
 62
3
 10
-326.437421126206570
 20
-139.826234581907100
 11
-323.816652884137740
 21
-138.313133331864950
  0
ARC
  8
0
  6
CONTINUOUS
 62
3
 10
-327.187421126206570
 20
-138.527196476230530
 40
1.499999999999843
 50
217.928141766204990
 51
300.000000000001590
  0
CIRCLE
  8
0
  6
CONTINUOUS
 62
3
 10
-350.062107053872300
 20
-156.352704707713200
 40
5.000000000000000
  0
ARC
  8
0
  6
CONTINUOUS
 62
3
 10
-344.124853120678380
 20
-148.306027397619800
 40
1.499999999999693
 50
233.578178478195410
 51
300.000000000001590
  0
ARC
  8
0
  6
CONTINUOUS
 62
3
 10
-346.062107053872300
 20
-147.187553317801300
 40
1.500000000000000
 50
180.000000000000000
 51
246.421821521804280
  0
ARC
  8
0
  6
CONTINUOUS
 62
3
 10
-332.886927784827550
 20
-141.817808179833260
 40
1.499999999999926
 50
300.000000000001590
 51
40.240348321182964
  0
ARC
  8
0
  6
CONTINUOUS
 62
3
 10
-346.062107053872300
 20
-143.983387830860240
 40
1.500000000000138
 50
72.079786860605225
 51
180.000000000000000
  0
ARC
  8
0
  6
CONTINUOUS
 62
3
 10
-346.062107053872300
 20
-137.267370023721010
 40
1.500000000000000
 50
180.000000000000000
 51
258.162995844103310
  0
ARC
  8
0
  6
CONTINUOUS
 62
3
 10
-335.533722377806500
 20
-143.345935750579430
 40
1.499999999999967
 50
221.837004155893280
 51
300.000000000001590
  0
ARC
  8
0
  6
CONTINUOUS
 62
3
 10
-346.062107053872300
 20
-134.211114882228690
 40
1.499999999999952
 50
79.759651678814024
 51
180.000000000000000
  0
ARC
  8
0
  6
CONTINUOUS
 62
3
 10
-341.349964411057950
 20
-146.703944654148930
 40
1.499999999999926
 50
300.000000000001590
 51
47.920213139381872
  0
LINE
  8
0
  6
CONTINUOUS
 62
3
 10
-334.783722377806500
 20
-144.644973856256000
 11
-332.136927784827550
 21
-143.116846285509840
  0
ARC
  8
0
  6
CONTINUOUS
 62
3
 10
-350.062107053872070
 20
-156.352704707713200
 40
14.499999999999860
 50
47.920213139391755
 51
72.079786860608309
  0
LINE
  8
0
  6
CONTINUOUS
 62
3
 10
-347.562107053872300
 20
-143.983387830860240
 11
-347.562107053872300
 21
-147.187553317801300
  0
LINE
  8
0
  6
CONTINUOUS
 62
3
 10
-347.562107053872300
 20
-134.211114882228690
 11
-347.562107053872300
 21
-137.267370023721010
  0
LINE
  8
0
  6
CONTINUOUS
 62
3
 10
-343.374853120678380
 20
-149.605065503296370
 11
-340.599964411057950
 21
-148.002982759825500
  0
ARC
  8
0
  6
CONTINUOUS
 62
3
 10
-350.062107053872070
 20
-156.352704707713200
 40
23.999999999999819
 50
40.240348321186090
 51
79.759651678814322
  0
ARC
  8
0
  6
CONTINUOUS
 62
3
 10
-350.062107053872070
 20
-156.352704707713200
 40
8.500000000000101
 50
53.578178478202659
 51
66.421821521799089
  0
ARC
  8
0
  6
CONTINUOUS
 62
3
 10
-337.349964411057950
 20
-159.073261531002120
 40
1.499999999999926
 50
239.999999999998410
 51
347.920213139390400
  0
LINE
  8
0
  6
CONTINUOUS
 62
3
 10
-338.099964411057950
 20
-160.372299636678690
 11
-340.874853120678380
 21
-158.770216893208270
  0
ARC
  8
0
  6
CONTINUOUS
 62
3
 10
-340.124853120678380
 20
-157.471178787531700
 40
1.500000000000099
 50
173.578178478198990
 51
239.999999999998410
  0
ARC
  8
0
  6
CONTINUOUS
 62
3
 10
-350.062107053872070
 20
-156.352704707713200
 40
8.499999999999865
 50
353.578178478199500
 51
6.421821521797448
  0
ARC
  8
0
  6
CONTINUOUS
 62
3
 10
-340.124853120678380
 20
-155.234230627895160
 40
1.499999999999926
 50
120.000000000001620
 51
186.421821521801010
  0
LINE
  8
0
  6
CONTINUOUS
 62
3
 10
-340.874853120678380
 20
-153.935192522218590
 11
-338.099964411057950
 21
-152.333109778747710
  0
ARC
  8
0
  6
CONTINUOUS
 62
3
 10
-337.349964411057950
 20
-153.632147884424280
 40
1.500000000000192
 50
12.079786860592611
 51
120.000000000001620
  0
ARC
  8
0
  6
CONTINUOUS
 62
3
 10
-350.062107053872070
 20
-156.352704707713200
 40
14.500000000000169
 50
347.920213139391310
 51
12.079786860606980
  0
ARC
  8
0
  6
CONTINUOUS
 62
3
 10
-328.886927784827550
 20
-163.959398005317780
 40
1.499999999999926
 50
239.999999999998410
 51
340.240348321188210
  0
LINE
  8
0
  6
CONTINUOUS
 62
3
 10
-329.636927784827550
 20
-165.258436110994350
 11
-332.283722377806500
 21
-163.730308540248640
  0
ARC
  8
0
  6
CONTINUOUS
 62
3
 10
-331.533722377806500
 20
-162.431270434571620
 40
1.500000000000038
 50
161.837004155895410
 51
240.000000000007050
  0
ARC
  8
0
  6
CONTINUOUS
 62
3
 10
-350.062107053872070
 20
-156.352704707713200
 40
17.999999999999943
 50
341.837004155893340
 51
18.162995844106646
  0
ARC
  8
0
  6
CONTINUOUS
 62
3
 10
-331.533722377806500
 20
-150.274138980854790
 40
1.499999999999926
 50
120.000000000001620
 51
198.162995844104590
  0
LINE
  8
0
  6
CONTINUOUS
 62
3
 10
-332.283722377806500
 20
-148.975100875178210
 11
-329.636927784827550
 21
-147.446973304432050
  0
ARC
  8
0
  6
CONTINUOUS
 62
3
 10
-328.886927784827550
 20
-148.746011410108620
 40
1.500000000000246
 50
19.759651678811824
 51
120.000000000001620
  0
ARC
  8
0
  6
CONTINUOUS
 62
3
 10
-350.062107053872070
 20
-156.352704707713200
 40
24.000000000000139
 50
340.240348321186050
 51
19.759651678813924
  0
ARC
  8
0
  6
CONTINUOUS
 62
3
 10
-362.774249696686640
 20
-159.073261531002120
 40
1.500000000000287
 50
192.079786860609600
 51
300.000000000001590
  0
LINE
  8
0
  6
CONTINUOUS
 62
3
 10
-362.024249696686640
 20
-160.372299636678690
 11
-359.249360987066210
 21
-158.770216893208270
  0
ARC
  8
0
  6
CONTINUOUS
 62
3
 10
-359.999360987066210
 20
-157.471178787531700
 40
1.499999999999926
 50
300.000000000001590
 51
6.421821521801967
  0
ARC
  8
0
  6
CONTINUOUS
 62
3
 10
-350.062107053872750
 20
-156.352704707713200
 40
8.499999999999813
 50
173.578178478202550
 51
186.421821521800500
  0
ARC
  8
0
  6
CONTINUOUS
 62
3
 10
-359.999360987066210
 20
-155.234230627895160
 40
1.499999999999873
 50
353.578178478198030
 51
59.999999999998380
  0
LINE
  8
0
  6
CONTINUOUS
 62
3
 10
-359.249360987066210
 20
-153.935192522218590
 11
-362.024249696686870
 21
-152.333109778747710
  0
ARC
  8
0
  6
CONTINUOUS
 62
3
 10
-362.774249696686870
 20
-153.632147884424280
 40
1.499999999999926
 50
59.999999999998380
 51
167.920213139405550
  0
ARC
  8
0
  6
CONTINUOUS
 62
3
 10
-350.062107053872750
 20
-156.352704707713200
 40
14.499999999999851
 50
167.920213139392840
 51
192.079786860608920
  0
ARC
  8
0
  6
CONTINUOUS
 62
3
 10
-371.237286322917040
 20
-163.959398005317780
 40
1.500000000000246
 50
199.759651678811820
 51
300.000000000001590
  0
LINE
  8
0
  6
CONTINUOUS
 62
3
 10
-370.487286322917040
 20
-165.258436110994350
 11
-367.840491729938090
 21
-163.730308540248640
  0
ARC
  8
0
  6
CONTINUOUS
 62
3
 10
-368.590491729938090
 20
-162.431270434571620
 40
1.500000000000320
 50
299.999999999992950
 51
18.162995844104589
  0
ARC
  8
0
  6
CONTINUOUS
 62
3
 10
-350.062107053872750
 20
-156.352704707713200
 40
17.999999999999726
 50
161.837004155893140
 51
198.162995844106860
  0
ARC
  8
0
  6
CONTINUOUS
 62
3
 10
-368.590491729938090
 20
-150.274138980854790
 40
1.500000000000038
 50
341.837004155895390
 51
59.999999999998380
  0
LINE
  8
0
  6
CONTINUOUS
 62
3
 10
-367.840491729938090
 20
-148.975100875178210
 11
-370.487286322917270
 21
-147.446973304432050
  0
ARC
  8
0
  6
CONTINUOUS
 62
3
 10
-371.237286322917270
 20
-148.746011410108620
 40
1.499999999999926
 50
59.999999999998380
 51
160.240348321185250
  0
ARC
  8
0
  6
CONTINUOUS
 62
3
 10
-350.062107053872750
 20
-156.352704707713200
 40
23.999999999999925
 50
160.240348321185910
 51
199.759651678814090
  0
ARC
  8
0
  6
CONTINUOUS
 62
3
 10
-358.774249696686640
 20
-166.001464761277930
 40
1.500000000000320
 50
119.999999999992930
 51
227.920213139381870
  0
LINE
  8
0
  6
CONTINUOUS
 62
3
 10
-359.524249696686640
 20
-164.702426655600900
 11
-356.749360987066210
 21
-163.100343912130480
  0
ARC
  8
0
  6
CONTINUOUS
 62
3
 10
-355.999360987066210
 20
-164.399382017807060
 40
1.500000000000059
 50
53.578178478205707
 51
120.000000000001620
  0
ARC
  8
0
  6
CONTINUOUS
 62
3
 10
-350.062107053872300
 20
-156.352704707713660
 40
8.499999999999870
 50
233.578178478199590
 51
246.421821521797680
  0
ARC
  8
0
  6
CONTINUOUS
 62
3
 10
-354.062107053872300
 20
-165.517856097625550
 40
1.500000000000000
 50
0.000000000017370
 51
66.421821521804304
  0
LINE
  8
0
  6
CONTINUOUS
 62
3
 10
-352.562107053872300
 20
-165.517856097625100
 11
-352.562107053872300
 21
-168.722021584566390
  0
ARC
  8
0
  6
CONTINUOUS
 62
3
 10
-354.062107053872300
 20
-168.722021584566390
 40
1.500000000000355
 50
252.079786860607900
 51
0.000000000000000
  0
ARC
  8
0
  6
CONTINUOUS
 62
3
 10
-350.062107053872300
 20
-156.352704707713660
 40
14.500000000000011
 50
227.920213139391080
 51
252.079786860607410
  0
ARC
  8
0
  6
CONTINUOUS
 62
3
 10
-367.237286322917040
 20
-170.887601235593590
 40
1.499999999999926
 50
120.000000000001620
 51
220.240348321174710
  0
LINE
  8
0
  6
CONTINUOUS
 62
3
 10
-367.987286322917040
 20
-169.588563129917020
 11
-365.340491729938090
 21
-168.060435559170860
  0
ARC
  8
0
  6
CONTINUOUS
 62
3
 10
-364.590491729938090
 20
-169.359473664847430
 40
1.500000000000118
 50
41.837004155899741
 51
120.000000000001620
  0
ARC
  8
0
  6
CONTINUOUS
 62
3
 10
-350.062107053872300
 20
-156.352704707713660
 40
17.999999999999940
 50
221.837004155892320
 51
258.162995844106720
  0
ARC
  8
0
  6
CONTINUOUS
 62
3
 10
-354.062107053872300
 20
-175.438039391705790
 40
1.500000000000000
 50
0.000000000000000
 51
78.162995844101530
  0
LINE
  8
0
  6
CONTINUOUS
 62
3
 10
-352.562107053872300
 20
-175.438039391705790
 11
-352.562107053872300
 21
-178.494294533198120
  0
ARC
  8
0
  6
CONTINUOUS
 62
3
 10
-354.062107053872300
 20
-178.494294533198120
 40
1.499999999999728
 50
259.759651678812470
 51
0.000000000000000
  0
ARC
  8
0
  6
CONTINUOUS
 62
3
 10
-350.062107053872300
 20
-156.352704707713660
 40
23.999999999999805
 50
220.240348321185220
 51
259.759651678813670
  0
ARC
  8
0
  6
CONTINUOUS
 62
3
 10
-341.349964411057950
 20
-166.001464761277930
 40
1.499999999999944
 50
312.079786860618130
 51
60.000000000007070
  0
LINE
  8
0
  6
CONTINUOUS
 62
3
 10
-340.599964411057950
 20
-164.702426655600900
 11
-343.374853120678380
 21
-163.100343912130480
  0
ARC
  8
0
  6
CONTINUOUS
 62
3
 10
-344.124853120678380
 20
-164.399382017807060
 40
1.499999999999926
 50
59.999999999998380
 51
126.421821521801260
  0
ARC
  8
0
  6
CONTINUOUS
 62
3
 10
-350.062107053872300
 20
-156.352704707713660
 40
8.500000000000060
 50
293.578178478202350
 51
306.421821521799190
  0
ARC
  8
0
  6
CONTINUOUS
 62
3
 10
-346.062107053872300
 20
-165.517856097625550
 40
1.500000000000139
 50
113.578178478195690
 51
179.999999999982630
  0
LINE
  8
0
  6
CONTINUOUS
 62
3
 10
-347.562107053872300
 20
-165.517856097625100
 11
-347.562107053872300
 21
-168.722021584566390
  0
ARC
  8
0
  6
CONTINUOUS
 62
3
 10
-346.062107053872300
 20
-168.722021584566390
 40
1.500000000000000
 50
180.000000000000000
 51
287.920213139392100
  0
ARC
  8
0
  6
CONTINUOUS
 62
3
 10
-350.062107053872300
 20
-156.352704707713660
 40
14.500000000000121
 50
287.920213139392560
 51
312.079786860608860
  0
ARC
  8
0
  6
CONTINUOUS
 62
3
 10
-332.886927784827550
 20
-170.887601235593590
 40
1.499999999999792
 50
319.759651678825320
 51
59.999999999998380
  0
LINE
  8
0
  6
CONTINUOUS
 62
3
 10
-332.136927784827550
 20
-169.588563129917020
 11
-334.783722377806500
 21
-168.060435559170860
  0
ARC
  8
0
  6
CONTINUOUS
 62
3
 10
-335.533722377806500
 20
-169.359473664847430
 40
1.499999999999926
 50
59.999999999998380
 51
138.162995844100240
  0
ARC
  8
0
  6
CONTINUOUS
 62
3
 10
-350.062107053872300
 20
-156.352704707713660
 40
18.000000000000089
 50
281.837004155893280
 51
318.162995844107680
  0
ARC
  8
0
  6
CONTINUOUS
 62
3
 10
-346.062107053872300
 20
-175.438039391705790
 40
1.499999999999731
 50
101.837004155898450
 51
180.000000000000000
  0
LINE
  8
0
  6
CONTINUOUS
 62
3
 10
-347.562107053872300
 20
-175.438039391705790
 11
-347.562107053872300
 21
-178.494294533198120
  0
ARC
  8
0
  6
CONTINUOUS
 62
3
 10
-346.062107053872300
 20
-178.494294533198120
 40
1.500000000000000
 50
180.000000000000000
 51
280.240348321187530
  0
ARC
  8
0
  6
CONTINUOUS
 62
3
 10
-350.062107053872300
 20
-156.352704707713660
 40
23.999999999999659
 50
280.240348321186330
 51
319.759651678814750
  0
ARC
  8
0
  6
CONTINUOUS
 62
3
 10
-354.062107053872300
 20
-143.983387830860240
 40
1.500000000000000
 50
0.000000000000000
 51
107.920213139394770
  0
LINE
  8
0
  6
CONTINUOUS
 62
3
 10
-352.562107053872300
 20
-143.983387830860240
 11
-352.562107053872300
 21
-147.187553317801300
  0
ARC
  8
0
  6
CONTINUOUS
 62
3
 10
-354.062107053872300
 20
-147.187553317801300
 40
1.500000000000139
 50
293.578178478195700
 51
0.000000000000000
  0
ARC
  8
0
  6
CONTINUOUS
 62
3
 10
-350.062107053872750
 20
-156.352704707713200
 40
8.499999999999879
 50
113.578178478199500
 51
126.421821521797340
  0
ARC
  8
0
  6
CONTINUOUS
 62
3
 10
-355.999360987066210
 20
-148.306027397619800
 40
1.499999999999926
 50
239.999999999998410
 51
306.421821521797600
  0
LINE
  8
0
  6
CONTINUOUS
 62
3
 10
-356.749360987066210
 20
-149.605065503296370
 11
-359.524249696686870
 21
-148.002982759825500
  0
ARC
  8
0
  6
CONTINUOUS
 62
3
 10
-358.774249696686870
 20
-146.703944654148930
 40
1.499999999999792
 50
132.079786860611680
 51
239.999999999998410
  0
ARC
  8
0
  6
CONTINUOUS
 62
3
 10
-350.062107053872750
 20
-156.352704707713200
 40
14.499999999999980
 50
107.920213139390830
 51
132.079786860607560
  0
ARC
  8
0
  6
CONTINUOUS
 62
3
 10
-354.062107053872300
 20
-134.211114882228690
 40
1.500000000000000
 50
0.000000000000000
 51
100.240348321194510
  0
LINE
  8
0
  6
CONTINUOUS
 62
3
 10
-352.562107053872300
 20
-134.211114882228690
 11
-352.562107053872300
 21
-137.267370023721010
  0
ARC
  8
0
  6
CONTINUOUS
 62
3
 10
-354.062107053872300
 20
-137.267370023721010
 40
1.499999999999954
 50
281.837004155896690
 51
0.000000000000000
  0
ARC
  8
0
  6
CONTINUOUS
 62
3
 10
-350.062107053872750
 20
-156.352704707713200
 40
17.999999999999829
 50
101.837004155891980
 51
138.162995844106210
  0
ARC
  8
0
  6
CONTINUOUS
 62
3
 10
-364.590491729938090
 20
-143.345935750579430
 40
1.499999999999926
 50
239.999999999998410
 51
318.162995844106720
  0
LINE
  8
0
  6
CONTINUOUS
 62
3
 10
-365.340491729938090
 20
-144.644973856256000
 11
-367.987286322917270
 21
-143.116846285509840
  0
ARC
  8
0
  6
CONTINUOUS
 62
3
 10
-367.237286322917270
 20
-141.817808179833260
 40
1.499999999999802
 50
139.759651678811420
 51
239.999999999998410
  0
ARC
  8
0
  6
CONTINUOUS
 62
3
 10
-350.062107053872750
 20
-156.352704707713200
 40
23.999999999999901
 50
100.240348321185670
 51
139.759651678813550
  0
ARC
  8
0
  6
CONTINUOUS
 62
3
 10
-354.062107053872300
 20
-124.603688974938670
 40
1.500000000000000
 50
0.000000000000000
 51
97.180755781458288
  0
LINE
  8
0
  6
CONTINUOUS
 62
3
 10
-352.562107053872300
 20
-124.603688974938670
 11
-352.562107053872300
 21
-127.629891475023210
  0
ARC
  8
0
  6
CONTINUOUS
 62
3
 10
-354.062107053872300
 20
-118.061060710622080
 40
1.499999999999933
 50
275.963570118318330
 51
0.000000000000000
  0
LINE
  8
0
  6
CONTINUOUS
 62
3
 10
-352.562107053872300
 20
-115.045925603067870
 11
-352.562107053872300
 21
-118.061060710622080
  0
LINE
  8
0
  6
CONTINUOUS
 62
3
 10
-315.539387000736950
 20
-179.171157769497710
 11
-318.150570599721050
 21
-177.663590215720380
  0
ARC
  8
0
  6
CONTINUOUS
 62
3
 10
-316.289387000736950
 20
-180.470195875174280
 40
1.499999999999844
 50
324.468928475167900
 51
59.999999999998380
  0
ARC
  8
0
  6
CONTINUOUS
 62
3
 10
-314.900570599721050
 20
-172.034425091121590
 40
1.500000000000040
 50
155.963570118324870
 51
239.999999999998410
  0
LINE
  8
0
  6
CONTINUOUS
 62
3
 10
-313.039387000736950
 20
-174.841030750575500
 11
-315.650570599721050
 21
-173.333463196798160
  0
ARC
  8
0
  6
CONTINUOUS
 62
3
 10
-312.289387000736950
 20
-173.541992644898470
 40
1.500000000000320
 50
240.000000000007050
 51
335.531071524832500
  0
ARC
  8
0
  6
CONTINUOUS
 62
3
 10
-350.062107053872520
 20
-156.352704707714110
 40
42.999999999999908
 50
335.531071524839830
 51
24.468928475160769
  0
ARC
  8
0
  6
CONTINUOUS
 62
3
 10
-350.062107053872520
 20
-156.352704707714110
 40
36.999999999999972
 50
335.963570118321740
 51
24.036429881678870
  0
ARC
  8
0
  6
CONTINUOUS
 62
3
 10
-314.900570599721280
 20
-140.670984324306120
 40
1.500000000000123
 50
119.999999999997270
 51
204.036429881680680
  0
LINE
  8
0
  6
CONTINUOUS
 62
3
 10
-315.650570599721280
 20
-139.371946218629320
 11
-313.039387000736950
 21
-137.864378664852210
  0
ARC
  8
0
  6
CONTINUOUS
 62
3
 10
-312.289387000736950
 20
-139.163416770529010
 40
1.500000000000034
 50
24.468928475159590
 51
119.999999999997270
  0
ARC
  8
0
  6
CONTINUOUS
 62
3
 10
-350.062107053872750
 20
-156.352704707713660
 40
42.999999999999908
 50
35.531071524839248
 51
84.468928475160212
  0
ARC
  8
0
  6
CONTINUOUS
 62
3
 10
-316.289387000737410
 20
-132.235213540252970
 40
1.500000000000123
 50
299.999999999997270
 51
35.531071524839192
  0
ARC
  8
0
  6
CONTINUOUS
 62
3
 10
-346.062107053872300
 20
-118.061060710622080
 40
1.500000000000000
 50
180.000000000000000
 51
264.036429881682580
  0
ARC
  8
0
  6
CONTINUOUS
 62
3
 10
-346.062107053872300
 20
-124.603688974938670
 40
1.499999999999998
 50
82.819244218541712
 51
180.000000000000000
  0
LINE
  8
0
  6
CONTINUOUS
 62
3
 10
-347.562107053872300
 20
-124.603688974938670
 11
-347.562107053872300
 21
-127.629891475023210
  0
LINE
  8
0
  6
CONTINUOUS
 62
3
 10
-318.150570599721500
 20
-135.041819199706880
 11
-315.539387000737410
 21
-133.534251645929770
  0
LINE
  8
0
  6
CONTINUOUS
 62
3
 10
-347.562107053872300
 20
-115.045925603068090
 11
-347.562107053872300
 21
-118.061060710622080
  0
ARC
  8
0
  6
CONTINUOUS
 62
3
 10
-350.062107053872520
 20
-156.352704707713200
 40
27.499999999999815
 50
97.928141766201691
 51
142.071858233797880
  0
ARC
  8
0
  6
CONTINUOUS
 62
3
 10
-350.062107053872070
 20
-156.352704707713200
 40
17.999999999999922
 50
41.837004155893325
 51
78.162995844107314
  0
ARC
  8
0
  6
CONTINUOUS
 62
3
 10
-354.062107053872300
 20
-115.045925603067870
 40
1.500000000000000
 50
0.000000000000000
 51
95.531071524841693
  0
ARC
  8
0
  6
CONTINUOUS
 62
3
 10
-346.062107053872300
 20
-115.045925603068090
 40
1.500000000000203
 50
84.468928475159132
 51
180.000000000000000
  0
LINE
  8
0
  6
CONTINUOUS
 62
3
 10
-398.677599239985970
 20
-211.116223931073310
 11
-405.744048358645160
 21
-204.049774812413660
  0
LINE
  8
0
  6
CONTINUOUS
 62
3
 10
-301.446614867758630
 20
-101.589185484354170
 11
-294.380165749099660
 21
-108.655634603013140
  0
ARC
  8
0
  6
CONTINUOUS
 62
3
 10
-114.462107053872380
 20
-156.352704707713660
 40
300.599999999999850
 50
173.948014641331500
 51
186.051985358668500
  0
ARC
  8
0
  6
CONTINUOUS
 62
3
 10
-350.062107053872300
 20
-396.952704707713510
 40
300.599999999999850
 50
90.000000000000000
 51
98.597082237249069
  0
ARC
  8
0
  6
CONTINUOUS
 62
3
 10
-350.062107053872300
 20
84.247295292286481
 40
300.600000000000080
 50
270.000000000000000
 51
278.597082237249080
  0
ARC
  8
0
  6
CONTINUOUS
 62
3
 10
-306.113519623589810
 20
-106.256090240185350
 40
6.600000000000118
 50
45.000000000001400
 51
81.402917762751386
  0
ARC
  8
0
  6
CONTINUOUS
 62
3
 10
-350.062107053872300
 20
-396.952704707713510
 40
300.599999999999740
 50
81.402917762750931
 51
90.000000000000000
  0
ARC
  8
0
  6
CONTINUOUS
 62
3
 10
-585.662107053872210
 20
-156.352704707713660
 40
300.600000000000080
 50
353.948014641331550
 51
6.051985358668499
  0
LINE
  8
0
  6
CONTINUOUS
 62
3
 10
-301.446614867758630
 20
-211.116223931073310
 11
-294.380165749099210
 21
-204.049774812413660
  0
ARC
  8
0
  6
CONTINUOUS
 62
3
 10
-306.113519623589810
 20
-206.449319175242120
 40
6.599999999999747
 50
278.597082237248910
 51
315.000000000000000
  0
ARC
  8
0
  6
CONTINUOUS
 62
3
 10
-350.062107053872300
 20
84.247295292286481
 40
300.599999999999970
 50
261.402917762750920
 51
270.000000000000000
  0
ARC
  8
0
  6
CONTINUOUS
 62
3
 10
-394.010694484154780
 20
-206.449319175242120
 40
6.599999999999957
 50
225.000000000000000
 51
261.402917762751090
  0
LINE
  8
0
  6
CONTINUOUS
 62
3
 10
-398.677599239985970
 20
-101.589185484354170
 11
-405.744048358644930
 21
-108.655634603013140
  0
ARC
  8
0
  6
CONTINUOUS
 62
3
 10
-313.189206128661910
 20
-127.464674982575380
 40
26.600000000000193
 50
6.051985358668552
 51
45.000000000000000
  0
ARC
  8
0
  6
CONTINUOUS
 62
3
 10
-386.935007979082680
 20
-127.464674982575380
 40
26.600000000000119
 50
135.000000000000000
 51
173.948014641331410
  0
ARC
  8
0
  6
CONTINUOUS
 62
3
 10
-386.935007979082680
 20
-185.240734432851870
 40
26.599999999999969
 50
186.051985358668590
 51
224.999999999998980
  0
ARC
  8
0
  6
CONTINUOUS
 62
3
 10
-313.189206128661680
 20
-185.240734432851870
 40
26.599999999999955
 50
315.000000000001020
 51
353.948014641331380
  0
ARC
  8
0
  6
CONTINUOUS
 62
4
 10
-386.935007979082680
 20
-127.464674982575380
 40
15.396999999999876
 50
135.000000000000000
 51
173.948014641331160
  0
ARC
  8
0
  6
CONTINUOUS
 62
4
 10
-585.662107053872210
 20
-156.352704707713660
 40
289.397000000000160
 50
0.000000000000000
 51
6.051985358668508
  0
ARC
  8
0
  6
CONTINUOUS
 62
4
 10
-313.189206128661680
 20
-127.464674982575380
 40
15.397000000000052
 50
6.051985358668849
 51
45.000000000000000
  0
LINE
  8
0
  6
CONTINUOUS
 62
4
 10
-306.877948411370880
 20
-112.001286480007360
 11
-302.301883018732270
 21
-116.577351872645970
  0
ARC
  8
0
  6
CONTINUOUS
 62
4
 10
-311.120589098489970
 20
-116.243927167126910
 40
6.000000000000049
 50
45.000000000003077
 51
82.102011327574374
  0
ARC
  8
0
  6
CONTINUOUS
 62
4
 10
-350.062107053872300
 20
-396.952704707713510
 40
289.396999999999760
 50
82.102011327572200
 51
90.000000000000000
  0
ARC
  8
0
  6
CONTINUOUS
 62
4
 10
-585.662107053872210
 20
-156.352704707713660
 40
289.397000000000160
 50
353.948014641331500
 51
0.000000000000000
  0
ARC
  8
0
  6
CONTINUOUS
 62
4
 10
-313.189206128661680
 20
-185.240734432851870
 40
15.396999999999876
 50
315.000000000000000
 51
353.948014641331160
  0
LINE
  8
0
  6
CONTINUOUS
 62
4
 10
-306.877948411370880
 20
-200.704122935419890
 11
-302.301883018732270
 21
-196.128057542781280
  0
ARC
  8
0
  6
CONTINUOUS
 62
4
 10
-311.120589098489970
 20
-196.461482248300340
 40
5.999999999999923
 50
277.897988672425640
 51
314.999999999996870
  0
ARC
  8
0
  6
CONTINUOUS
 62
4
 10
-350.062107053872300
 20
84.247295292286253
 40
289.396999999999880
 50
270.000000000000000
 51
277.897988672427800
  0
ARC
  8
0
  6
CONTINUOUS
 62
4
 10
-114.462107053872160
 20
-156.352704707713660
 40
289.397000000000160
 50
180.000000000000000
 51
186.051985358668500
  0
ARC
  8
0
  6
CONTINUOUS
 62
4
 10
-386.935007979082680
 20
-185.240734432851870
 40
15.397000000000052
 50
186.051985358668840
 51
225.000000000000000
  0
LINE
  8
0
  6
CONTINUOUS
 62
4
 10
-393.246265696373480
 20
-200.704122935419890
 11
-397.822331089012100
 21
-196.128057542781280
  0
ARC
  8
0
  6
CONTINUOUS
 62
4
 10
-389.003625009254390
 20
-196.461482248300340
 40
6.000000000000049
 50
225.000000000003070
 51
262.102011327574360
  0
ARC
  8
0
  6
CONTINUOUS
 62
4
 10
-350.062107053872070
 20
84.247295292286253
 40
289.396999999999760
 50
262.102011327572200
 51
270.000000000000000
  0
ARC
  8
0
  6
CONTINUOUS
 62
3
 10
-435.362107053872250
 20
-170.395204707713670
 40
20.800000000000026
 50
274.191726156007460
 51
354.952683218987540
  0
LINE
  8
0
  6
CONTINUOUS
 62
3
 10
-414.562107053872300
 20
-139.022095947488200
 11
-414.562107053872300
 21
-130.395204707713670
  0
POINT
  8
0
  6
DASHDOT
 62
4
 10
-414.562107053872300
 20
-156.366435200839530
  0
POINT
  8
0
  6
DASHDOT
 62
4
 10
-414.562107053872300
 20
-156.366435200839530
  0
ARC
  8
0
  6
CONTINUOUS
 62
3
 10
-433.362107053872250
 20
-130.395204707713670
 40
18.799999999999955
 50
0.000000000000000
 51
79.401214733933941
  0
ARC
  8
0
  6
CONTINUOUS
 62
3
 10
-435.362107053872250
 20
-170.395204707713670
 40
20.799999999999986
 50
174.275189547776620
 51
205.640070215894700
  0
ARC
  8
0
  6
CONTINUOUS
 62
3
 10
-435.362107053872250
 20
-170.395204707713670
 40
20.799999999999901
 50
205.640070215894700
 51
260.083463391769380
  0
ARC
  8
0
  6
CONTINUOUS
 62
3
 10
-435.362107053872250
 20
-170.395204707713670
 40
20.799999999999986
 50
174.275189547776620
 51
205.640070215894700
  0
ARC
  8
0
  6
CONTINUOUS
 62
3
 10
-429.536352419785320
 20
-109.950068330575950
 40
1.999999999999927
 50
177.137594773887290
 51
259.401214733934010
  0
ARC
  8
0
  6
CONTINUOUS
 62
3
 10
-435.129365517501130
 20
-109.670417675690030
 40
1.999999999999928
 50
274.873974813840960
 51
357.137594773887320
  0
ARC
  8
0
  6
CONTINUOUS
 62
3
 10
-433.695559787488720
 20
-193.134215684642920
 40
1.999999999999962
 50
94.191726156001650
 51
177.137594773887290
  0
LINE
  8
0
  6
CONTINUOUS
 62
3
 10
-431.863978545555480
 20
-100.432634541378320
 11
-436.957615473832450
 21
-202.305373106918470
  0
ARC
  8
0
  6
CONTINUOUS
 62
3
 10
-439.288572885204530
 20
-192.854565029757110
 40
2.000000000000154
 50
357.137594773887600
 51
80.083463391767268
  0
LINE
  8
0
  6
CONTINUOUS
 62
3
 10
-456.058366405493190
 20
-168.320391740132660
 11
-452.068341467837170
 21
-128.519892987015280
  0
ARC
  8
0
  6
CONTINUOUS
 62
3
 10
-433.362107053872250
 20
-130.395204707713670
 40
18.800000000000150
 50
94.873974813842707
 51
144.191373186503970
  0
ARC
  8
0
  6
CONTINUOUS
 62
3
 10
-433.362107053872250
 20
-130.395204707713670
 40
18.800000000000001
 50
144.191373186503970
 51
174.275189547776020
  0
LINE
  8
0
  6
CONTINUOUS
 62
3
 10
-432.662980416657770
 20
-100.392684447823280
 11
-431.064976674453190
 21
-100.472584634933350
  0
ARC
  8
0
  6
CONTINUOUS
 62
3
 10
-426.520653913552220
 20
-105.706046871603570
 40
9.000000000000099
 50
160.536063666407130
 51
193.739143184213500
  0
POINT
  8
0
  6
CONTINUOUS
 62
3
 10
-432.912668501376630
 20
-105.386446142212200
  0
LINE
  8
0
  6
CONTINUOUS
 62
3
 10
-432.737886842073070
 20
-101.890812956139820
 11
-433.087450160680190
 21
-108.882079328284810
  0
LINE
  8
0
  6
CONTINUOUS
 62
3
 10
-432.737886842073070
 20
-101.890812956139820
 11
-433.087450160680190
 21
-108.882079328284810
  0
LINE
  8
0
  6
CONTINUOUS
 62
3
 10
-433.087450160680190
 20
-108.882079328284810
 11
-434.065253973187960
 21
-108.833189137659470
  0
LINE
  8
0
  6
CONTINUOUS
 62
3
 10
-432.737886842073070
 20
-101.890812956139820
 11
-433.715690654580610
 21
-101.841922765514480
  0
ARC
  8
0
  6
CONTINUOUS
 62
3
 10
-434.000335109260280
 20
-107.534811859105730
 40
1.299999237060493
 50
193.739143184211430
 51
267.137612759980580
  0
ARC
  8
0
  6
CONTINUOUS
 62
3
 10
-433.780609518508300
 20
-103.140300044067990
 40
1.299999237060361
 50
87.137594090651589
 51
160.536063666417590
  0
LINE
  8
0
  6
CONTINUOUS
 62
3
 10
-432.662980416657770
 20
-100.392684447823280
 11
-437.756617344934740
 21
-202.265423013363200
  0
LINE
  8
0
  6
CONTINUOUS
 62
3
 10
-436.158613602730160
 20
-202.345323200474180
 11
-437.756617344934740
 21
-202.265423013363200
  0
LINE
  8
0
  6
CONTINUOUS
 62
3
 10
-431.064976674453190
 20
-100.472584634933350
 11
-436.158613602730160
 21
-202.345323200474180
  0
ARC
  8
0
  6
CONTINUOUS
 62
3
 10
-265.062107053872300
 20
-131.352704707713660
 40
8.000000000000000
 50
90.000000000000000
 51
141.317812546508240
  0
ARC
  8
0
  6
CONTINUOUS
 62
3
 10
-258.062107053872300
 20
-141.352704707713660
 40
2.000000000000000
 50
0.000000000000000
 51
74.874433046238650
  0
ARC
  8
0
  6
CONTINUOUS
 62
3
 10
-344.062107053872300
 20
-94.852704707713656
 40
3.000000000000000
 50
180.000000000000000
 51
210.428285803703010
  0
ARC
  8
0
  6
CONTINUOUS
 62
3
 10
-356.062107053872300
 20
-94.852704707713656
 40
2.999999999999921
 50
329.571714196296970
 51
0.000000000000000
  0
ARC
  8
0
  6
CONTINUOUS
 62
3
 10
-364.062107053872520
 20
-136.586102891895050
 40
80.000000000000057
 50
94.660419384114633
 51
162.857588701217000
  0
LINE
  8
0
  6
CONTINUOUS
 62
3
 10
-444.062107053872300
 20
-189.288325148763020
 11
-444.062107053872300
 21
-230.352704707713600
  0
LINE
  8
0
  6
DASHDOT
 62
4
 10
-469.894446153324220
 20
-156.352704707713660
 11
-240.219330253264620
 21
-156.352704707713660
  0
LINE
  8
0
  6
DASHDOT
 62
4
 10
-331.800272270239930
 20
-126.352704707713650
 11
-368.658774065340820
 21
-126.352704707713650
  0
LINE
  8
0
  6
CONTINUOUS
 62
3
 10
25.018979829108048
 20
221.622415221543630
 11
25.018979829108048
 21
208.354466029112700
  0
LINE
  8
0
  6
CONTINUOUS
 62
3
 10
3.518980782781910
 20
134.488539374682430
 11
3.518980782782819
 21
145.756485617968560
  0
LINE
  8
0
  6
CONTINUOUS
 62
3
 10
11.518979829107593
 20
133.622415221544540
 11
4.018980782781910
 21
133.622415221545000
  0
LINE
  8
0
  6
CONTINUOUS
 62
3
 10
11.518979829108503
 20
146.622415221544540
 11
4.018981736457135
 21
146.622415221545000
  0
LINE
  8
0
  6
CONTINUOUS
 62
3
 10
4.018981420639648
 20
133.622415197477040
 11
3.518981394492812
 21
134.488539337610970
  0
LINE
  8
0
  6
CONTINUOUS
 62
3
 10
4.018982047267627
 20
146.622415198844010
 11
3.518981097074629
 21
145.756485627775650
  0
LINE
  8
0
  6
CONTINUOUS
 62
3
 10
4.018980782781910
 20
133.622415221545000
 11
4.018980782782819
 21
146.622415221545000
  0
LINE
  8
0
  6
CONTINUOUS
 62
3
 10
3.518980782781910
 20
124.756291068407790
 11
3.518980782781910
 21
113.488344825121650
  0
LINE
  8
0
  6
CONTINUOUS
 62
3
 10
11.518979829107593
 20
125.622415221544990
 11
4.018980782781910
 21
125.622415221544990
  0
LINE
  8
0
  6
CONTINUOUS
 62
3
 10
11.518979829107593
 20
112.622415221544990
 11
4.018981736456226
 21
112.622415221544990
  0
LINE
  8
0
  6
CONTINUOUS
 62
3
 10
4.018981420639648
 20
125.622415245613180
 11
3.518981394492585
 21
124.756291105479020
  0
LINE
  8
0
  6
CONTINUOUS
 62
3
 10
4.018982047266945
 20
112.622415244245980
 11
3.518981097073720
 21
113.488344815314340
  0
LINE
  8
0
  6
CONTINUOUS
 62
3
 10
4.018980782781910
 20
125.622415221544990
 11
4.018980782781910
 21
112.622415221544990
  0
LINE
  8
0
  6
CONTINUOUS
 62
3
 10
27.018979829102136
 20
87.322415030810134
 11
27.018979829102136
 21
71.922415412279861
  0
LINE
  8
0
  6
CONTINUOUS
 62
3
 10
19.018980782776453
 20
85.256291068407677
 11
19.018980782776453
 21
73.988344825121544
  0
LINE
  8
0
  6
CONTINUOUS
 62
3
 10
27.018979829102136
 20
86.122415221544884
 11
19.518980782776453
 21
86.122415221544884
  0
LINE
  8
0
  6
CONTINUOUS
 62
3
 10
27.018979829102136
 20
73.122415221544884
 11
19.518981736450769
 21
73.122415221544884
  0
LINE
  8
0
  6
CONTINUOUS
 62
3
 10
19.518981420634191
 20
86.122415245613070
 11
19.018981394487128
 21
85.256291105479022
  0
LINE
  8
0
  6
CONTINUOUS
 62
3
 10
19.518982047261488
 20
73.122415244245872
 11
19.018981097068263
 21
73.988344815314235
  0
LINE
  8
0
  6
CONTINUOUS
 62
3
 10
19.518980782776453
 20
86.122415221544884
 11
19.518980782776453
 21
73.122415221544884
  0
LINE
  8
0
  6
CONTINUOUS
 62
3
 10
27.018979829104865
 20
171.922415412278500
 11
27.018979829105774
 21
187.322415030808770
  0
LINE
  8
0
  6
CONTINUOUS
 62
3
 10
19.018980782779181
 20
173.988539374681300
 11
19.018980782780091
 21
185.256485617967430
  0
LINE
  8
0
  6
CONTINUOUS
 62
3
 10
27.018979829104865
 20
173.122415221543630
 11
19.518980782779181
 21
173.122415221544090
  0
LINE
  8
0
  6
CONTINUOUS
 62
3
 10
27.018979829105774
 20
186.122415221543630
 11
19.518981736454407
 21
186.122415221544090
  0
LINE
  8
0
  6
CONTINUOUS
 62
3
 10
19.518981420636919
 20
173.122415197475900
 11
19.018981394490083
 21
173.988539337610060
  0
LINE
  8
0
  6
CONTINUOUS
 62
3
 10
19.518982047264899
 20
186.122415198843100
 11
19.018981097071901
 21
185.256485627774740
  0
LINE
  8
0
  6
CONTINUOUS
 62
3
 10
19.518980782779181
 20
173.122415221544090
 11
19.518980782780091
 21
186.122415221544090
  0
LINE
  8
0
  6
CONTINUOUS
 62
3
 10
39.018979829102136
 20
129.622415221543630
 11
39.018979829102136
 21
35.622415221544998
  0
ARC
  8
0
  6
CONTINUOUS
 62
3
 10
29.018979829102136
 20
37.622415221544998
 40
2.000000000000000
 50
180.000000000000000
 51
270.000000000000000
  0
ARC
  8
0
  6
CONTINUOUS
 62
3
 10
19.018979829108048
 20
112.122415221544990
 40
3.000000000000000
 50
180.000000000000000
 51
270.000000000000000
  0
LINE
  8
0
  6
CONTINUOUS
 62
3
 10
24.018979829102136
 20
109.122415221544990
 11
19.018979829108048
 21
109.122415221544990
  0
ARC
  8
0
  6
CONTINUOUS
 62
3
 10
24.018979829102136
 20
106.122415221544990
 40
3.000000000000000
 50
0.000000000000000
 51
90.000000000000000
  0
LINE
  8
0
  6
CONTINUOUS
 62
3
 10
11.518979829107138
 20
129.622415221545000
 11
11.518979829107138
 21
109.122415221544990
  0
LINE
  8
0
  6
CONTINUOUS
 62
3
 10
16.018979829108048
 20
129.622415221544540
 11
16.018979829108048
 21
109.122415221544990
  0
LINE
  8
0
  6
CONTINUOUS
 62
3
 10
16.018979829108048
 20
109.122415221544990
 11
11.518979829107138
 21
109.122415221544990
  0
LINE
  8
0
  6
CONTINUOUS
 62
3
 10
4.518979829103955
 20
129.622415221545000
 11
4.518979829103955
 21
125.622415221544990
  0
ARC
  8
0
  6
CONTINUOUS
 62
3
 10
25.018979829102136
 20
54.354466029114064
 40
2.000000000000164
 50
299.999999999997270
 51
0.000000000000000
  0
ARC
  8
0
  6
CONTINUOUS
 62
3
 10
27.018979829102136
 20
50.890364413975931
 40
2.000000000000164
 50
119.999999999997270
 51
180.000000000000000
  0
LINE
  8
0
  6
CONTINUOUS
 62
3
 10
39.518979829102136
 20
35.622415221544998
 11
27.018979829102136
 21
35.622415221544998
  0
ARC
  8
0
  6
CONTINUOUS
 62
3
 10
27.018979829102136
 20
37.622415221544998
 40
2.000000000000000
 50
180.000000000000000
 51
270.000000000000000
  0
LINE
  8
0
  6
CONTINUOUS
 62
3
 10
19.018980782776453
 20
51.256291068407677
 11
19.018980782776453
 21
39.988344825121544
  0
LINE
  8
0
  6
CONTINUOUS
 62
3
 10
25.443527256801417
 20
52.122415221544884
 11
19.518980782776453
 21
52.122415221544884
  0
LINE
  8
0
  6
CONTINUOUS
 62
3
 10
25.018979829102136
 20
39.122415221544884
 11
19.518981736450769
 21
39.122415221544884
  0
LINE
  8
0
  6
CONTINUOUS
 62
3
 10
19.518981420634191
 20
52.122415245612842
 11
19.018981394487128
 21
51.256291105479136
  0
LINE
  8
0
  6
CONTINUOUS
 62
3
 10
19.518982047261488
 20
39.122415244245872
 11
19.018981097068263
 21
39.988344815314463
  0
LINE
  8
0
  6
CONTINUOUS
 62
3
 10
19.518980782776453
 20
52.122415221544884
 11
19.518980782776453
 21
39.122415221544884
  0
LINE
  8
0
  6
CONTINUOUS
 62
3
 10
25.018979829102136
 20
50.890364413975931
 11
25.018979829102136
 21
37.622415221544998
  0
LINE
  8
0
  6
CONTINUOUS
 62
3
 10
27.018979829102136
 20
106.122415221544990
 11
27.018979829102136
 21
37.622415221544998
  0
ARC
  8
0
  6
CONTINUOUS
 62
3
 10
24.018979829102136
 20
66.096346487532173
 40
3.000000000000000
 50
0.000000000000000
 51
86.999999999994344
  0
LINE
  8
0
  6
CONTINUOUS
 62
3
 10
4.518979829103955
 20
70.122415221544998
 11
24.175987697831260
 21
69.092235091795828
  0
LINE
  8
0
  6
CONTINUOUS
 62
3
 10
4.518979829103955
 20
112.622415221544990
 11
4.518979829103955
 21
70.122415221544998
  0
LINE
  8
0
  6
CONTINUOUS
 62
3
 10
39.018979829102136
 20
129.622415221544090
 11
39.018979829108048
 21
223.622415221542720
  0
ARC
  8
0
  6
CONTINUOUS
 62
3
 10
29.018979829108048
 20
221.622415221543630
 40
2.000000000000000
 50
90.000000000000000
 51
180.000000000000000
  0
ARC
  8
0
  6
CONTINUOUS
 62
3
 10
19.018979829108957
 20
147.122415221544090
 40
3.000000000000000
 50
90.000000000000000
 51
179.999999999991330
  0
LINE
  8
0
  6
CONTINUOUS
 62
3
 10
24.018979829103046
 20
150.122415221544090
 11
19.018979829108957
 21
150.122415221544090
  0
ARC
  8
0
  6
CONTINUOUS
 62
3
 10
24.018979829103500
 20
153.122415221544090
 40
3.000000000000000
 50
270.000000000000000
 51
359.999999999991300
  0
LINE
  8
0
  6
CONTINUOUS
 62
3
 10
11.518979829107138
 20
129.622415221544540
 11
11.518979829108048
 21
150.122415221544540
  0
LINE
  8
0
  6
CONTINUOUS
 62
3
 10
16.018979829108048
 20
129.622415221545000
 11
16.018979829108957
 21
150.122415221544540
  0
LINE
  8
0
  6
CONTINUOUS
 62
3
 10
16.018979829108957
 20
150.122415221544540
 11
11.518979829108048
 21
150.122415221544540
  0
ARC
  8
0
  6
CONTINUOUS
 62
3
 10
25.018979829106684
 20
204.890364413974570
 40
2.000000000000000
 50
0.000000000000000
 51
60.000000000002721
  0
ARC
  8
0
  6
CONTINUOUS
 62
3
 10
27.018979829107138
 20
208.354466029112700
 40
2.000000000000000
 50
180.000000000000000
 51
239.999999999991450
  0
LINE
  8
0
  6
CONTINUOUS
 62
3
 10
39.518979829102136
 20
223.622415221542720
 11
27.018979829108048
 21
223.622415221543630
  0
ARC
  8
0
  6
CONTINUOUS
 62
3
 10
27.018979829108048
 20
221.622415221543630
 40
2.000000000000000
 50
90.000000000000000
 51
180.000000000000000
  0
LINE
  8
0
  6
CONTINUOUS
 62
3
 10
19.018980782781455
 20
207.988539374681520
 11
19.018980782781910
 21
219.256485617967660
  0
LINE
  8
0
  6
CONTINUOUS
 62
3
 10
25.443527256806647
 20
207.122415221543630
 11
19.518980782781455
 21
207.122415221543860
  0
LINE
  8
0
  6
CONTINUOUS
 62
3
 10
25.018979829108048
 20
220.122415221543410
 11
19.518981736456226
 21
220.122415221543860
  0
LINE
  8
0
  6
CONTINUOUS
 62
3
 10
19.518981420639193
 20
207.122415197475900
 11
19.018981394492130
 21
207.988539337610060
  0
LINE
  8
0
  6
CONTINUOUS
 62
3
 10
19.518982047266945
 20
220.122415198842870
 11
19.018981097073720
 21
219.256485627774740
  0
LINE
  8
0
  6
CONTINUOUS
 62
3
 10
19.518980782781455
 20
207.122415221543860
 11
19.518980782781910
 21
220.122415221543860
  0
LINE
  8
0
  6
CONTINUOUS
 62
3
 10
27.018979829103500
 20
153.122415221544090
 11
27.018979829108048
 21
221.622415221543630
  0
ARC
  8
0
  6
CONTINUOUS
 62
3
 10
24.018979829106229
 20
193.148483955556910
 40
2.999999999999925
 50
272.999999999996990
 51
359.999999999991300
  0
LINE
  8
0
  6
CONTINUOUS
 62
3
 10
4.518979829107593
 20
189.122415221545000
 11
24.175987697834898
 21
190.152595351293260
  0
LINE
  8
0
  6
CONTINUOUS
 62
3
 10
4.518979829104865
 20
146.622415221545000
 11
4.518979829107593
 21
189.122415221545000
  0
LINE
  8
0
  6
CONTINUOUS
 62
3
 10
149.518979829124870
 20
112.822415221543450
 11
149.318979829125060
 21
112.622415221543170
  0
ARC
  8
0
  6
CONTINUOUS
 62
3
 10
150.318979829125060
 20
112.972415221543080
 40
0.800000000000182
 50
90.000000000000000
 51
176.296803365719710
  0
LINE
  8
0
  6
CONTINUOUS
 62
3
 10
149.518979829124870
 20
112.822415221543450
 11
149.518979829124870
 21
129.622415221543180
  0
LINE
  8
0
  6
CONTINUOUS
 62
3
 10
151.518979829124870
 20
113.772415221543270
 11
150.318979829125060
 21
113.772415221543270
  0
LINE
  8
0
  6
CONTINUOUS
 62
3
 10
199.118979829124780
 20
113.622415221543170
 11
152.078787450260280
 21
113.622415221543170
  0
LINE
  8
0
  6
CONTINUOUS
 62
3
 10
147.518979829102590
 20
112.622415221542720
 11
149.318979829125060
 21
112.622415221543170
  0
LINE
  8
0
  6
CONTINUOUS
 62
3
 10
151.518979829124870
 20
113.772415221543270
 11
152.078787450260280
 21
113.622415221543170
  0
LINE
  8
0
  6
CONTINUOUS
 62
3
 10
149.518979829124870
 20
146.422415221543360
 11
149.318979829125060
 21
146.622415221543180
  0
ARC
  8
0
  6
CONTINUOUS
 62
3
 10
150.318979829125060
 20
146.272415221543270
 40
0.800000000000237
 50
183.703196634280290
 51
270.000000000000000
  0
LINE
  8
0
  6
CONTINUOUS
 62
3
 10
149.518979829124870
 20
146.422415221543360
 11
149.518979829124870
 21
129.622415221543180
  0
LINE
  8
0
  6
CONTINUOUS
 62
3
 10
147.518979829102590
 20
146.622415221543630
 11
149.318979829125060
 21
146.622415221543180
  0
LINE
  8
0
  6
CONTINUOUS
 62
3
 10
151.518979829124870
 20
145.472415221543090
 11
150.318979829125060
 21
145.472415221543090
  0
LINE
  8
0
  6
CONTINUOUS
 62
3
 10
151.518979829124870
 20
145.472415221543090
 11
152.078787450260280
 21
145.622415221543180
  0
LINE
  8
0
  6
CONTINUOUS
 62
3
 10
154.518979829124870
 20
113.622415221543630
 11
154.518979829124870
 21
110.622415221543630
  0
LINE
  8
0
  6
CONTINUOUS
 62
3
 10
199.118979829124780
 20
145.622415221543180
 11
152.078787450260280
 21
145.622415221543180
  0
LINE
  8
0
  6
CONTINUOUS
 62
3
 10
199.518979829124870
 20
110.622415221543630
 11
154.518979829124870
 21
110.622415221543630
  0
LINE
  8
0
  6
CONTINUOUS
 62
3
 10
44.518979829102136
 20
27.824543533936776
 11
142.606241861287800
 21
29.536663061339823
  0
ARC
  8
0
  6
CONTINUOUS
 62
3
 10
142.518979829102140
 20
195.358591965157760
 40
3.000000000000000
 50
0.000000000000000
 51
39.469308363515758
  0
ARC
  8
0
  6
CONTINUOUS
 62
3
 10
141.118821801651390
 20
197.004167990518450
 40
3.000000000000300
 50
41.317082812093204
 51
88.999999999989555
  0
ARC
  8
0
  6
CONTINUOUS
 62
3
 10
114.593203107090630
 20
215.400955949726270
 40
2.999999999999899
 50
4.937727294942317
 51
69.196592175621532
  0
ARC
  8
0
  6
CONTINUOUS
 62
3
 10
90.797311378491941
 20
152.769050846648950
 40
70.000000000000043
 50
39.469308363516802
 51
41.317082812097503
  0
ARC
  8
0
  6
CONTINUOUS
 62
3
 10
90.797311378491941
 20
152.769050846648950
 40
70.000000000000156
 50
69.196592175610675
 51
88.999999999999716
  0
CIRCLE
  8
0
  6
CONTINUOUS
 62
3
 10
-0.481020170897864
 20
217.122415221543630
 40
6.000000000000000
  0
ARC
  8
0
  6
CONTINUOUS
 62
3
 10
146.518979829103050
 20
164.122415221543630
 40
1.000000000000000
 50
180.000000000000000
 51
270.000000000000000
  0
ARC
  8
0
  6
CONTINUOUS
 62
3
 10
134.518979829102140
 20
217.122415221543630
 40
16.999999999999638
 50
184.937727294950460
 51
268.999999999999770
  0
ARC
  8
0
  6
CONTINUOUS
 62
3
 10
134.518979829102140
 20
42.122415221543633
 40
16.999999999999773
 50
91.000000000000256
 51
175.062272705051070
  0
ARC
  8
0
  6
CONTINUOUS
 62
3
 10
146.518979829102140
 20
95.122415221543633
 40
1.000000000000000
 50
90.000000000000000
 51
180.000000000000000
  0
CIRCLE
  8
0
  6
CONTINUOUS
 62
3
 10
134.518979829102140
 20
42.122415221543633
 40
6.000000000000000
  0
CIRCLE
  8
0
  6
CONTINUOUS
 62
3
 10
-0.481020170897864
 20
42.122415221543633
 40
6.000000000000000
  0
ARC
  8
0
  6
CONTINUOUS
 62
3
 10
90.797311378491941
 20
106.475779596437860
 40
70.000000000000014
 50
271.000000000000280
 51
290.803407824389690
  0
ARC
  8
0
  6
CONTINUOUS
 62
3
 10
90.797311378491941
 20
106.475779596437860
 40
70.000000000000327
 50
318.682917187902550
 51
320.530691636482910
  0
ARC
  8
0
  6
CONTINUOUS
 62
3
 10
114.593203107090630
 20
43.843874493361000
 40
3.000000000000189
 50
290.803407824383500
 51
355.062272705049050
  0
ARC
  8
0
  6
CONTINUOUS
 62
3
 10
141.118821801651390
 20
62.240662452568358
 40
3.000000000000049
 50
271.000000000010400
 51
318.682917187906810
  0
ARC
  8
0
  6
CONTINUOUS
 62
3
 10
142.518979829102140
 20
63.886238477928600
 40
3.000000000000058
 50
320.530691636484220
 51
0.000000000000000
  0
CIRCLE
  8
0
  6
CONTINUOUS
 62
3
 10
134.518979829102140
 20
217.122415221543630
 40
6.000000000000000
  0
LINE
  8
0
  6
DASHDOT
 62
4
 10
-0.481020170897864
 20
229.146511607085810
 11
-0.481020170897864
 21
205.098318836001450
  0
LINE
  8
0
  6
DASHDOT
 62
4
 10
11.543076214644316
 20
217.122415221543630
 11
-12.505116556440043
 21
217.122415221543630
  0
LINE
  8
0
  6
CONTINUOUS
 62
3
 10
39.518979829102136
 20
129.622415221543630
 11
39.518979829102136
 21
223.622415221543630
  0
LINE
  8
0
  6
CONTINUOUS
 62
3
 10
39.518979829102136
 20
223.674780416328300
 11
92.018979829102136
 21
222.758389507596350
  0
LINE
  8
0
  6
CONTINUOUS
 62
3
 10
134.222288919668240
 20
200.125004403884760
 11
141.171179020963790
 21
200.003711075987670
  0
LINE
  8
0
  6
CONTINUOUS
 62
3
 10
145.518979829102140
 20
129.622415221543630
 11
145.518979829102140
 21
195.358591965157760
  0
LINE
  8
0
  6
CONTINUOUS
 62
3
 10
147.518979829103500
 20
129.622415221543630
 11
147.518979829101230
 21
224.708928905964970
  0
LINE
  8
0
  6
CONTINUOUS
 62
3
 10
147.518979829102140
 20
54.622415221543179
 11
147.518979829101230
 21
34.622418193139310
  0
LINE
  8
0
  6
CONTINUOUS
 62
3
 10
147.518979829103050
 20
129.622415221543630
 11
147.518979829101230
 21
34.535901537121845
  0
LINE
  8
0
  6
CONTINUOUS
 62
3
 10
145.518979829102140
 20
129.622415221543630
 11
145.518979829102140
 21
63.886238477928600
  0
LINE
  8
0
  6
CONTINUOUS
 62
3
 10
134.222288919668240
 20
59.119826039202053
 11
141.171179020963790
 21
59.241119367099145
  0
LINE
  8
0
  6
CONTINUOUS
 62
3
 10
39.518979829102136
 20
35.570050026758963
 11
92.018979829102136
 21
36.486440935490464
  0
LINE
  8
0
  6
CONTINUOUS
 62
3
 10
39.518979829102136
 20
129.622415221543630
 11
39.518979829102136
 21
35.622415221543633
  0
LINE
  8
0
  6
DASHDOT
 62
4
 10
11.543076214644316
 20
42.122415221543633
 11
-12.505116556440043
 21
42.122415221543633
  0
LINE
  8
0
  6
CONTINUOUS
 62
3
 10
-13.481020170897864
 20
204.321948131854700
 11
-13.481020170897864
 21
224.775002579780450
  0
LINE
  8
0
  6
CONTINUOUS
 62
3
 10
44.518979829102136
 20
231.420286909149580
 11
142.606241861287800
 21
229.708167381746990
  0
LINE
  8
0
  6
CONTINUOUS
 62
3
 10
-13.481020170897864
 20
54.922882311231660
 11
-13.481020170897864
 21
34.469827863305909
  0
ARC
  8
0
  6
CONTINUOUS
 62
3
 10
6.154301846664112
 20
64.965912682465841
 40
5.000000000000068
 50
271.000000000001760
 51
273.824403028645630
  0
LINE
  8
0
  6
CONTINUOUS
 62
3
 10
6.487796202612572
 20
59.977046928153868
 11
27.018979829102136
 21
61.349509968366419
  0
ARC
  8
0
  6
CONTINUOUS
 62
3
 10
-8.481020170897864
 20
54.708928905964967
 40
4.999999999999606
 50
90.999999999996646
 51
180.000000000000000
  0
LINE
  8
0
  6
CONTINUOUS
 62
3
 10
-8.568282203083982
 20
59.708167381746534
 11
6.241563878850684
 21
59.966674206683820
  0
LINE
  8
0
  6
CONTINUOUS
 62
3
 10
6.487796202612572
 20
199.267783514933400
 11
27.018979829106684
 21
197.895320474719940
  0
ARC
  8
0
  6
CONTINUOUS
 62
3
 10
6.154301846664112
 20
194.278917760620970
 40
5.000000000000079
 50
86.175596971354679
 51
88.999999999998138
  0
ARC
  8
0
  6
CONTINUOUS
 62
3
 10
-8.481020170897864
 20
204.535901537121840
 40
5.000000000000000
 50
180.000000000000000
 51
269.000000000003410
  0
LINE
  8
0
  6
CONTINUOUS
 62
3
 10
-8.568282203083982
 20
199.536663061339820
 11
6.241563878850684
 21
199.278156236402540
  0
LINE
  8
0
  6
CONTINUOUS
 62
3
 10
-8.472948014186386
 20
55.848278453921921
 11
20.283166395388434
 21
56.350218298024629
  0
LINE
  8
0
  6
CONTINUOUS
 62
3
 10
-8.472948014186386
 20
203.396551989164890
 11
20.283166395388434
 21
202.894612145062640
  0
ARC
  8
0
  6
CONTINUOUS
 62
3
 10
-8.481020170897864
 20
34.469827863305909
 40
5.000000000000000
 50
180.000000000000000
 51
268.224526106217870
  0
LINE
  8
0
  6
CONTINUOUS
 62
3
 10
-8.635934701545921
 20
29.472228290692328
 11
44.518979829102136
 21
27.824543533936776
  0
ARC
  8
0
  6
CONTINUOUS
 62
3
 10
142.518979829101230
 20
34.535901537121845
 40
5.000000000000068
 50
271.000000000001760
 51
359.999999999994830
  0
LINE
  8
0
  6
CONTINUOUS
 62
3
 10
146.518979829102140
 20
96.122415221543633
 11
147.518979829102140
 21
96.122415221543633
  0
LINE
  8
0
  6
CONTINUOUS
 62
3
 10
146.518979829103050
 20
163.122415221543630
 11
147.518979829103050
 21
163.122415221543630
  0
LINE
  8
0
  6
CONTINUOUS
 62
3
 10
-8.635934701545921
 20
229.772602152394940
 11
44.518979829102136
 21
231.420286909149580
  0
ARC
  8
0
  6
CONTINUOUS
 62
3
 10
-8.481020170897864
 20
224.775002579780450
 40
5.000000000000244
 50
91.775473893781850
 51
180.000000000000000
  0
ARC
  8
0
  6
CONTINUOUS
 62
3
 10
142.518979829101230
 20
224.708928905964970
 40
5.000000000000000
 50
0.000000000000000
 51
88.999999999998238
  0
LINE
  8
0
  6
CONTINUOUS
 62
3
 10
4.518979829103955
 20
129.622415221545000
 11
4.518979829103955
 21
133.622415221545000
  0
LINE
  8
0
  6
DASHDOT
 62
3
 10
-19.981020170896045
 20
189.122415221543410
 11
-19.981020170896045
 21
194.122415221543410
  0
LINE
  8
0
  6
CONTINUOUS
 62
3
 10
-143.981020170896040
 20
194.122415221543410
 11
-19.981020170896045
 21
194.122415221543410
  0
LINE
  8
0
  6
CONTINUOUS
 62
3
 10
-30.481020170896045
 20
212.783440281230240
 11
-133.481020170896040
 21
212.783440281230240
  0
ARC
  8
0
  6
CONTINUOUS
 62
3
 10
-24.981020170896045
 20
217.783440281230240
 40
5.000000000000072
 50
287.457603123721870
 51
0.000000000000000
  0
ARC
  8
0
  6
CONTINUOUS
 62
3
 10
-24.781020170896227
 20
213.459986406972580
 40
1.300000000000182
 50
0.000000000000000
 51
73.398450400977637
  0
ARC
  8
0
  6
CONTINUOUS
 62
3
 10
-26.981020170896045
 20
206.080962081223110
 40
9.000000000000123
 50
73.398450400980877
 51
106.601549599019120
  0
ARC
  8
0
  6
CONTINUOUS
 62
3
 10
-29.181020170895863
 20
213.459986406972580
 40
1.300000000000019
 50
106.601549599022360
 51
180.000000000000000
  0
LINE
  8
0
  6
CONTINUOUS
 62
3
 10
-23.481020170896045
 20
213.459986406972580
 11
-23.481020170896045
 21
212.472976669048190
  0
POLYLINE
  8
0
  6
CONTINUOUS
 62
3
 66
1
  0
VERTEX
  8
0
  6
CONTINUOUS
 62
3
 10
-30.481020170896045
 20
212.472976669048190
  0
VERTEX
  8
0
  6
CONTINUOUS
 62
3
 10
-30.413768652307350
 20
212.438878458852200
  0
VERTEX
  8
0
  6
CONTINUOUS
 62
3
 10
-30.214598534685550
 20
212.406090623751570
  0
VERTEX
  8
0
  6
CONTINUOUS
 62
3
 10
-29.891163813954954
 20
212.375873181861550
  0
VERTEX
  8
0
  6
CONTINUOUS
 62
3
 10
-29.455893905048960
 20
212.349387372527840
  0
VERTEX
  8
0
  6
CONTINUOUS
 62
3
 10
-28.925515986464653
 20
212.327651030549760
  0
VERTEX
  8
0
  6
CONTINUOUS
 62
3
 10
-28.320412184173861
 20
212.311499471359580
  0
VERTEX
  8
0
  6
CONTINUOUS
 62
3
 10
-27.663836297952493
 20
212.301553390319130
  0
VERTEX
  8
0
  6
CONTINUOUS
 62
3
 10
-26.981020170896045
 20
212.298195009744970
  0
VERTEX
  8
0
  6
CONTINUOUS
 62
3
 10
-26.298204043839597
 20
212.301553390319130
  0
VERTEX
  8
0
  6
CONTINUOUS
 62
3
 10
-25.641628157618232
 20
212.311499471359580
  0
VERTEX
  8
0
  6
CONTINUOUS
 62
3
 10
-25.036524355327440
 20
212.327651030549760
  0
VERTEX
  8
0
  6
CONTINUOUS
 62
3
 10
-24.506146436743130
 20
212.349387372527840
  0
VERTEX
  8
0
  6
CONTINUOUS
 62
3
 10
-24.070876527837139
 20
212.375873181861550
  0
VERTEX
  8
0
  6
CONTINUOUS
 62
3
 10
-23.747441807106544
 20
212.406090623751570
  0
VERTEX
  8
0
  6
CONTINUOUS
 62
3
 10
-23.548271689484739
 20
212.438878458852200
  0
VERTEX
  8
0
  6
CONTINUOUS
 62
3
 10
-23.481020170896048
 20
212.472976669048190
  0
SEQEND
  8
0
  6
CONTINUOUS
 62
3
  0
LINE
  8
0
  6
CONTINUOUS
 62
3
 10
-30.481020170896045
 20
213.459986406972580
 11
-30.481020170896045
 21
212.472976669048190
  0
ARC
  8
0
  6
CONTINUOUS
 62
3
 10
-138.981020170896040
 20
217.783440281230240
 40
5.000000000000000
 50
180.000000000000000
 51
252.542396876278160
  0
LINE
  8
0
  6
CONTINUOUS
 62
3
 10
-140.481020170896040
 20
213.459986406972580
 11
-140.481020170896040
 21
212.472976669048190
  0
LINE
  8
0
  6
CONTINUOUS
 62
3
 10
-133.481020170896040
 20
213.459986406972580
 11
-133.481020170896040
 21
212.472976669048190
  0
ARC
  8
0
  6
CONTINUOUS
 62
3
 10
-139.181020170895860
 20
213.459986406972580
 40
1.300000000000019
 50
106.601549599022360
 51
180.000000000000000
  0
ARC
  8
0
  6
CONTINUOUS
 62
3
 10
-136.981020170896040
 20
206.080962081223110
 40
9.000000000000123
 50
73.398450400980877
 51
106.601549599019120
  0
ARC
  8
0
  6
CONTINUOUS
 62
3
 10
-134.781020170896230
 20
213.459986406972580
 40
1.300000000000182
 50
0.000000000000000
 51
73.398450400977637
  0
POLYLINE
  8
0
  6
CONTINUOUS
 62
3
 66
1
  0
VERTEX
  8
0
  6
CONTINUOUS
 62
3
 10
-140.481020170896040
 20
212.472976669048190
  0
VERTEX
  8
0
  6
CONTINUOUS
 62
3
 10
-140.413768652307340
 20
212.438878458852200
  0
VERTEX
  8
0
  6
CONTINUOUS
 62
3
 10
-140.214598534685540
 20
212.406090623751570
  0
VERTEX
  8
0
  6
CONTINUOUS
 62
3
 10
-139.891163813954960
 20
212.375873181861550
  0
VERTEX
  8
0
  6
CONTINUOUS
 62
3
 10
-139.455893905048950
 20
212.349387372527840
  0
VERTEX
  8
0
  6
CONTINUOUS
 62
3
 10
-138.925515986464660
 20
212.327651030549760
  0
VERTEX
  8
0
  6
CONTINUOUS
 62
3
 10
-138.320412184173850
 20
212.311499471359580
  0
VERTEX
  8
0
  6
CONTINUOUS
 62
3
 10
-137.663836297952490
 20
212.301553390319130
  0
VERTEX
  8
0
  6
CONTINUOUS
 62
3
 10
-136.981020170896040
 20
212.298195009744970
  0
VERTEX
  8
0
  6
CONTINUOUS
 62
3
 10
-136.298204043839600
 20
212.301553390319130
  0
VERTEX
  8
0
  6
CONTINUOUS
 62
3
 10
-135.641628157618240
 20
212.311499471359580
  0
VERTEX
  8
0
  6
CONTINUOUS
 62
3
 10
-135.036524355327430
 20
212.327651030549760
  0
VERTEX
  8
0
  6
CONTINUOUS
 62
3
 10
-134.506146436743140
 20
212.349387372527840
  0
VERTEX
  8
0
  6
CONTINUOUS
 62
3
 10
-134.070876527837130
 20
212.375873181861550
  0
VERTEX
  8
0
  6
CONTINUOUS
 62
3
 10
-133.747441807106550
 20
212.406090623751570
  0
VERTEX
  8
0
  6
CONTINUOUS
 62
3
 10
-133.548271689484750
 20
212.438878458852200
  0
VERTEX
  8
0
  6
CONTINUOUS
 62
3
 10
-133.481020170896040
 20
212.472976669048190
  0
SEQEND
  8
0
  6
CONTINUOUS
 62
3
  0
LINE
  8
0
  6
CONTINUOUS
 62
3
 10
-19.981020170896045
 20
217.783440281230240
 11
-19.981020170896045
 21
230.722415221543320
  0
ARC
  8
0
  6
CONTINUOUS
 62
3
 10
-24.981020170896045
 20
199.122415221543410
 40
5.000000000000000
 50
270.000000000000000
 51
0.000000000000000
  0
LINE
  8
0
  6
CONTINUOUS
 62
3
 10
-143.981020170896040
 20
217.783440281230240
 11
-143.981020170896040
 21
230.722415221543320
  0
LINE
  8
0
  6
CONTINUOUS
 62
3
 10
-143.981020170896040
 20
217.316925512605620
 11
-144.981020170896040
 21
217.316925512605620
  0
LINE
  8
0
  6
CONTINUOUS
 62
3
 10
-18.981020170896045
 20
212.223288584328430
 11
-144.981020170896040
 21
212.223288584328430
  0
ARC
  8
0
  6
CONTINUOUS
 62
3
 10
-138.981020170896040
 20
199.122415221543410
 40
5.000000000000000
 50
180.000000000000000
 51
270.000000000000000
  0
ARC
  8
0
  6
CONTINUOUS
 62
3
 10
-138.981020170896040
 20
230.722415221543320
 40
5.000000000000000
 50
90.000000000000000
 51
180.000000000000000
  0
ARC
  8
0
  6
CONTINUOUS
 62
3
 10
-144.981020170896040
 20
215.316925512605620
 40
2.000000000000000
 50
90.000000000000000
 51
180.000000000000000
  0
ARC
  8
0
  6
CONTINUOUS
 62
3
 10
-144.981020170896040
 20
214.223288584328430
 40
2.000000000000000
 50
180.000000000000000
 51
270.000000000000000
  0
ARC
  8
0
  6
CONTINUOUS
 62
3
 10
-144.981020170896040
 20
213.424286713243190
 40
2.000000000000000
 50
180.000000000000000
 51
270.000000000000000
  0
LINE
  8
0
  6
CONTINUOUS
 62
3
 10
-146.981020170896040
 20
215.316925512605620
 11
-146.981020170896040
 21
212.625284842124300
  0
ARC
  8
0
  6
CONTINUOUS
 62
3
 10
-144.981020170896040
 20
212.625284842124300
 40
2.000000000000000
 50
180.000000000000000
 51
270.000000000000000
  0
LINE
  8
0
  6
CONTINUOUS
 62
3
 10
-143.981020170896040
 20
199.122415221543410
 11
-143.981020170896040
 21
210.625284842124300
  0
ARC
  8
0
  6
CONTINUOUS
 62
3
 10
-24.981020170896045
 20
230.722415221543320
 40
5.000000000000000
 50
0.000000000000000
 51
90.000000000000000
  0
LINE
  8
0
  6
CONTINUOUS
 62
3
 10
-138.981020170896040
 20
235.722415221543320
 11
-24.981020170896045
 21
235.722415221543320
  0
LINE
  8
0
  6
CONTINUOUS
 62
3
 10
-19.981020170896045
 20
199.122415221543410
 11
-19.981020170896045
 21
210.424286713243190
  0
LINE
  8
0
  6
CONTINUOUS
 62
3
 10
-16.981020170896045
 20
215.316925512605620
 11
-16.981020170896045
 21
212.625284842124300
  0
LINE
  8
0
  6
CONTINUOUS
 62
3
 10
-18.981020170896045
 20
211.424286713226370
 11
-144.981020170896040
 21
211.424286713226370
  0
LINE
  8
0
  6
CONTINUOUS
 62
3
 10
-18.981020170896045
 20
210.625284842124300
 11
-144.981020170896040
 21
210.625284842124300
  0
LINE
  8
0
  6
CONTINUOUS
 62
3
 10
-19.981020170896045
 20
217.316925512605620
 11
-18.981020170896045
 21
217.316925512605620
  0
ARC
  8
0
  6
CONTINUOUS
 62
3
 10
-18.981020170896045
 20
215.316925512605620
 40
2.000000000000000
 50
0.000000000000000
 51
90.000000000000000
  0
ARC
  8
0
  6
CONTINUOUS
 62
3
 10
-18.981020170896045
 20
214.223288584328430
 40
2.000000000000000
 50
270.000000000000000
 51
0.000000000000000
  0
ARC
  8
0
  6
CONTINUOUS
 62
3
 10
-18.981020170896045
 20
213.424286713243190
 40
2.000000000000000
 50
270.000000000000000
 51
0.000000000000000
  0
ARC
  8
0
  6
CONTINUOUS
 62
3
 10
-18.981020170896045
 20
212.625284842124300
 40
2.000000000000000
 50
270.000000000000000
 51
0.000000000000000
  0
LINE
  8
0
  6
CONTINUOUS
 62
3
 10
-143.981020170896040
 20
189.122415221543410
 11
-143.981020170896040
 21
194.122415221543410
  0
LINE
  8
0
  6
DASHDOT
 62
3
 10
-19.981020170896045
 20
189.122415221543410
 11
-19.981020170896045
 21
194.122415221543410
  0
LINE
  8
0
  6
CONTINUOUS
 62
3
 10
-19.981020170896045
 20
189.122415221543410
 11
-143.981020170896040
 21
189.122415221543410
  0
LINE
  8
0
  6
CONTINUOUS
 62
3
 10
-77.481020170895818
 20
189.122415221543630
 11
4.518979829103955
 21
189.122415221543630
  0
LINE
  8
0
  6
CONTINUOUS
 62
4
 10
-144.481020170895820
 20
186.622415221543630
 11
4.518979829103955
 21
186.622415221543630
  0
LINE
  8
0
  6
CONTINUOUS
 62
4
 10
-144.481020170895820
 20
185.622415221543630
 11
4.518979829103955
 21
185.622415221543630
  0
LINE
  8
0
  6
CONTINUOUS
 62
4
 10
-144.481020170895820
 20
184.622415221543630
 11
4.518979829103955
 21
184.622415221543630
  0
LINE
  8
0
  6
CONTINUOUS
 62
4
 10
-144.481020170895820
 20
179.937949408319350
 11
4.518979829103955
 21
179.937949408319350
  0
LINE
  8
0
  6
CONTINUOUS
 62
4
 10
-144.481020170895820
 20
174.988201940013600
 11
4.518979829103955
 21
174.988201940013600
  0
LINE
  8
0
  6
CONTINUOUS
 62
4
 10
-144.481020170895820
 20
148.995677031044810
 11
4.518979829103955
 21
148.995677031044810
  0
LINE
  8
0
  6
CONTINUOUS
 62
4
 10
-144.481020170895820
 20
150.261914947132030
 11
4.518979829103955
 21
150.261914947132030
  0
LINE
  8
0
  6
CONTINUOUS
 62
4
 10
-144.481020170895820
 20
154.452468678674220
 11
4.518979829103955
 21
154.452468678674220
  0
LINE
  8
0
  6
CONTINUOUS
 62
4
 10
-144.481020170895820
 20
155.814349014023490
 11
4.518979829103955
 21
155.814349014023490
  0
LINE
  8
0
  6
CONTINUOUS
 62
4
 10
-144.481020170895820
 20
159.904849548113360
 11
4.518979829103955
 21
159.904849548113360
  0
LINE
  8
0
  6
CONTINUOUS
 62
4
 10
-144.481020170895820
 20
161.373206937917980
 11
4.518979829103955
 21
161.373206937917980
  0
LINE
  8
0
  6
CONTINUOUS
 62
4
 10
-144.481020170895820
 20
165.336952361717520
 11
4.518979829103955
 21
165.336952361717520
  0
LINE
  8
0
  6
CONTINUOUS
 62
4
 10
-144.481020170895820
 20
166.941600277279580
 11
4.518979829103955
 21
166.941600277279580
  0
LINE
  8
0
  6
CONTINUOUS
 62
4
 10
-144.481020170895820
 20
110.249153412042460
 11
4.518979829103955
 21
110.249153412042460
  0
LINE
  8
0
  6
CONTINUOUS
 62
4
 10
-144.481020170895820
 20
108.982915495955240
 11
4.518979829103955
 21
108.982915495955240
  0
LINE
  8
0
  6
CONTINUOUS
 62
4
 10
-144.481020170895820
 20
104.792361764413040
 11
4.518979829103955
 21
104.792361764413040
  0
LINE
  8
0
  6
CONTINUOUS
 62
4
 10
-144.481020170895820
 20
103.430481429063770
 11
4.518979829103955
 21
103.430481429063770
  0
LINE
  8
0
  6
DASHDOT
 62
4
 10
-101.264549586622470
 20
51.622415221543861
 11
-79.497572178094174
 21
51.622415221543861
  0
CIRCLE
  8
0
  6
DASHED
 62
4
 10
-89.981020170895818
 20
51.622415221543861
 40
6.000000000000000
  0
ARC
  8
0
  6
DASHED
 62
4
 10
-139.981020170895820
 20
51.622415221543861
 40
7.000000000000000
 50
180.000000000000000
 51
0.000000000000000
  0
LINE
  8
0
  6
CONTINUOUS
 62
4
 10
-144.481020170895820
 20
99.339980894973905
 11
4.518979829103955
 21
99.339980894973905
  0
LINE
  8
0
  6
CONTINUOUS
 62
4
 10
-144.481020170895820
 20
97.871623505169282
 11
4.518979829103955
 21
97.871623505169282
  0
ARC
  8
0
  6
DASHED
 62
4
 10
-89.981020170895818
 20
51.622415221543861
 40
7.000000000000000
 50
180.000000000000000
 51
0.000000000000000
  0
LINE
  8
0
  6
DASHDOT
 62
4
 10
-149.066709277479390
 20
51.622415221543861
 11
-128.580121043770080
 21
51.622415221543861
  0
LINE
  8
0
  6
DASHED
 62
4
 10
-146.981020170895820
 20
51.622415221543861
 11
-146.981020170895820
 21
66.122415221543861
  0
LINE
  8
0
  6
DASHED
 62
4
 10
-132.981020170895820
 20
51.622415221543861
 11
-132.981020170895820
 21
66.122415221543861
  0
LINE
  8
0
  6
DASHED
 62
4
 10
-96.981020170895818
 20
51.622415221543861
 11
-96.981020170895818
 21
66.122415221543861
  0
LINE
  8
0
  6
DASHED
 62
4
 10
-82.981020170895818
 20
51.622415221543861
 11
-82.981020170895818
 21
66.122415221543861
  0
LINE
  8
0
  6
DASHDOT
 62
4
 10
-89.981020170895818
 20
42.678257963867736
 11
-89.981020170895818
 21
64.657760096402853
  0
LINE
  8
0
  6
DASHDOT
 62
4
 10
-139.981020170895820
 20
42.678257963867736
 11
-139.981020170895820
 21
64.226746944399565
  0
LINE
  8
0
  6
CONTINUOUS
 62
4
 10
-144.481020170895820
 20
93.907878081369745
 11
4.518979829103955
 21
93.907878081369745
  0
LINE
  8
0
  6
CONTINUOUS
 62
4
 10
-144.481020170895820
 20
92.303230165807690
 11
4.518979829103955
 21
92.303230165807690
  0
LINE
  8
0
  6
CONTINUOUS
 62
4
 10
-144.481020170895820
 20
84.256628503073671
 11
4.518979829103955
 21
84.256628503073671
  0
LINE
  8
0
  6
CONTINUOUS
 62
4
 10
-144.481020170895820
 20
79.306881034767912
 11
4.518979829103955
 21
79.306881034767912
  0
LINE
  8
0
  6
CONTINUOUS
 62
4
 10
-144.481020170895820
 20
74.622415221543633
 11
4.518979829103955
 21
74.622415221543633
  0
LINE
  8
0
  6
CONTINUOUS
 62
4
 10
-144.481020170895820
 20
73.622415221543633
 11
4.518979829103955
 21
73.622415221543633
  0
LINE
  8
0
  6
CONTINUOUS
 62
4
 10
-144.481020170895820
 20
72.622415221543633
 11
4.518979829103955
 21
72.622415221543633
  0
LINE
  8
0
  6
CONTINUOUS
 62
3
 10
-77.481020170895818
 20
70.122415221543633
 11
4.518979829103955
 21
70.122415221543633
  0
LINE
  8
0
  6
CONTINUOUS
 62
3
 10
-144.481020170895820
 20
189.122415221543410
 11
4.518979829103955
 21
189.122415221543410
  0
ARC
  8
0
  6
CONTINUOUS
 62
3
 10
-151.481020170895820
 20
65.003194304670842
 40
3.000000000000000
 50
90.000000000000000
 51
180.000000000000000
  0
ARC
  8
0
  6
CONTINUOUS
 62
3
 10
-147.481020170895820
 20
71.003194304670842
 40
3.000000000000000
 50
270.000000000000000
 51
0.000000000000000
  0
LINE
  8
0
  6
CONTINUOUS
 62
3
 10
-154.481020170895820
 20
64.622415221543633
 11
-154.481020170895820
 21
65.003194304670842
  0
LINE
  8
0
  6
CONTINUOUS
 62
3
 10
-151.481020170895820
 20
68.003194304670842
 11
-147.481020170895820
 21
68.003194304670842
  0
LINE
  8
0
  6
CONTINUOUS
 62
3
 10
-77.481020170895818
 20
66.122415221543861
 11
-77.481020170895818
 21
71.122415221543861
  0
LINE
  8
0
  6
CONTINUOUS
 62
3
 10
-85.481020170895818
 20
36.122415221544088
 11
-93.481020170895818
 21
36.122415221544088
  0
LINE
  8
0
  6
CONTINUOUS
 62
3
 10
-93.481020170895818
 20
36.622415221544088
 11
-93.481020170895818
 21
36.122415221544088
  0
LINE
  8
0
  6
CONTINUOUS
 62
3
 10
-87.981020170895818
 20
36.622415221544088
 11
-87.981020170895818
 21
36.122415221544088
  0
LINE
  8
0
  6
CONTINUOUS
 62
3
 10
-85.481020170895818
 20
36.622415221544088
 11
-85.481020170895818
 21
36.122415221544088
  0
LINE
  8
0
  6
CONTINUOUS
 62
3
 10
-79.481020170895818
 20
36.622415221544088
 11
-150.481020170895820
 21
36.622415221544088
  0
ARC
  8
0
  6
CONTINUOUS
 62
3
 10
-150.481020170895820
 20
37.622415221544088
 40
1.000000000000000
 50
180.000000000000000
 51
270.000000000000000
  0
ARC
  8
0
  6
CONTINUOUS
 62
3
 10
-79.481020170895818
 20
37.622415221544088
 40
1.000000000000000
 50
270.000000000000000
 51
0.000000000000000
  0
LINE
  8
0
  6
CONTINUOUS
 62
3
 10
-78.481020170895818
 20
37.622415221544088
 11
-78.481020170895818
 21
66.122415221543861
  0
LINE
  8
0
  6
CONTINUOUS
 62
3
 10
-151.481020170895820
 20
37.622415221544088
 11
-151.481020170895820
 21
66.122415221543861
  0
LINE
  8
0
  6
CONTINUOUS
 62
3
 10
-77.481020170895818
 20
66.122415221543861
 11
-152.481020170895820
 21
66.122415221543861
  0
LINE
  8
0
  6
CONTINUOUS
 62
3
 10
-77.481020170895818
 20
71.122415221543861
 11
-144.481020170895820
 21
71.122415221543861
  0
LINE
  8
0
  6
CONTINUOUS
 62
3
 10
-152.481020170895820
 20
66.122415221543861
 11
-152.481020170895820
 21
67.831621429417055
  0
ARC
  8
0
  6
CONTINUOUS
 62
3
 10
-173.175044393316280
 20
84.622415221543633
 40
20.000000000000007
 50
234.999999999999740
 51
270.000000000000000
  0
LINE
  8
0
  6
CONTINUOUS
 62
3
 10
-154.481020170895820
 20
64.622415221543633
 11
-173.175044393316280
 21
64.622415221543633
  0
ARC
  8
0
  6
CONTINUOUS
 62
3
 10
-192.881020170845660
 20
77.179210164298183
 40
2.600000000000136
 50
180.000000000000000
 51
234.999999999998610
  0
LINE
  8
0
  6
CONTINUOUS
 62
3
 10
-184.646573120337280
 20
68.239374335763841
 11
-194.372318905358270
 21
75.049414849147070
  0
LINE
  8
0
  6
CONTINUOUS
 62
3
 10
-195.481020170845800
 20
129.622415221543630
 11
-195.481020170845800
 21
77.179210164298183
  0
LINE
  8
0
  6
CONTINUOUS
 62
3
 10
-144.481020170895820
 20
129.622415221543630
 11
-144.481020170895820
 21
71.003194304670842
  0
ARC
  8
0
  6
CONTINUOUS
 62
3
 10
-192.881020170845660
 20
182.065620278789080
 40
2.599999999999721
 50
125.000000000001370
 51
180.000000000000000
  0
LINE
  8
0
  6
CONTINUOUS
 62
3
 10
-184.646573120337280
 20
191.005456107323430
 11
-194.372318905358270
 21
184.195415593940200
  0
ARC
  8
0
  6
CONTINUOUS
 62
3
 10
-173.175044393316280
 20
174.622415221543630
 40
20.000000000000000
 50
90.000000000000000
 51
125.000000000000240
  0
LINE
  8
0
  6
CONTINUOUS
 62
3
 10
-195.481020170845800
 20
129.622415221543630
 11
-195.481020170845800
 21
182.065620278789080
  0
LINE
  8
0
  6
CONTINUOUS
 62
3
 10
-144.481020170895820
 20
194.622415221543630
 11
-173.175044393316280
 21
194.622415221543630
  0
LINE
  8
0
  6
CONTINUOUS
 62
3
 10
-144.481020170895820
 20
129.622415221543630
 11
-144.481020170895820
 21
194.622415221543630
  0
LINE
  8
0
  6
CONTINUOUS
 62
3
 10
-155.481020170895360
 20
183.362530321981240
 11
-157.481020170895360
 21
181.709888682857810
  0
LINE
  8
0
  6
CONTINUOUS
 62
3
 10
-153.481020170895360
 20
184.538315807604020
 11
-155.481020170895360
 21
183.362530321981240
  0
LINE
  8
0
  6
CONTINUOUS
 62
3
 10
-155.481020170895360
 20
183.362530321981240
 11
-153.481020170895360
 21
181.709888682857810
  0
LINE
  8
0
  6
CONTINUOUS
 62
3
 10
-157.481020170895360
 20
184.538315807604020
 11
-155.481020170895360
 21
183.362530321981240
  0
POLYLINE
  8
0
  6
CONTINUOUS
 62
3
 66
1
 70
1
  0
VERTEX
  8
0
  6
CONTINUOUS
 62
3
 10
-150.781020170895370
 20
181.545940253603700
  0
VERTEX
  8
0
  6
CONTINUOUS
 62
3
 10
-150.871329353000190
 20
182.248897219804060
  0
VERTEX
  8
0
  6
CONTINUOUS
 62
3
 10
-151.138786368092330
 20
182.924839944016160
  0
VERTEX
  8
0
  6
CONTINUOUS
 62
3
 10
-151.573112993073410
 20
183.547792326421560
  0
VERTEX
  8
0
  6
CONTINUOUS
 62
3
 10
-152.157618299318590
 20
184.093814656320150
  0
VERTEX
  8
0
  6
CONTINUOUS
 62
3
 10
-152.869840075703250
 20
184.541923601786780
  0
VERTEX
  8
0
  6
CONTINUOUS
 62
3
 10
-153.682408038779440
 20
184.874898587349520
  0
VERTEX
  8
0
  6
CONTINUOUS
 62
3
 10
-154.564095657419560
 20
185.079943571047780
  0
VERTEX
  8
0
  6
CONTINUOUS
 62
3
 10
-155.481020170895360
 20
185.149178789148550
  0
VERTEX
  8
0
  6
CONTINUOUS
 62
3
 10
-156.397944684371170
 20
185.079943571047780
  0
VERTEX
  8
0
  6
CONTINUOUS
 62
3
 10
-157.279632303011280
 20
184.874898587349520
  0
VERTEX
  8
0
  6
CONTINUOUS
 62
3
 10
-158.092200266087470
 20
184.541923601786780
  0
VERTEX
  8
0
  6
CONTINUOUS
 62
3
 10
-158.804422042472140
 20
184.093814656320150
  0
VERTEX
  8
0
  6
CONTINUOUS
 62
3
 10
-159.388927348717320
 20
183.547792326421560
  0
VERTEX
  8
0
  6
CONTINUOUS
 62
3
 10
-159.823253973698400
 20
182.924839944016160
  0
VERTEX
  8
0
  6
CONTINUOUS
 62
3
 10
-160.090710988790530
 20
182.248897219804060
  0
VERTEX
  8
0
  6
CONTINUOUS
 62
3
 10
-160.181020170895350
 20
181.545940253603700
  0
VERTEX
  8
0
  6
CONTINUOUS
 62
3
 10
-160.090710988790530
 20
180.842983287403340
  0
VERTEX
  8
0
  6
CONTINUOUS
 62
3
 10
-159.823253973698400
 20
180.167040563191250
  0
VERTEX
  8
0
  6
CONTINUOUS
 62
3
 10
-159.388927348717320
 20
179.544088180785850
  0
VERTEX
  8
0
  6
CONTINUOUS
 62
3
 10
-158.804422042472110
 20
178.998065850887260
  0
VERTEX
  8
0
  6
CONTINUOUS
 62
3
 10
-158.092200266087470
 20
178.549956905420630
  0
VERTEX
  8
0
  6
CONTINUOUS
 62
3
 10
-157.279632303011280
 20
178.216981919857890
  0
VERTEX
  8
0
  6
CONTINUOUS
 62
3
 10
-156.397944684371170
 20
178.011936936159630
  0
VERTEX
  8
0
  6
CONTINUOUS
 62
3
 10
-155.481020170895360
 20
177.942701718058860
  0
VERTEX
  8
0
  6
CONTINUOUS
 62
3
 10
-154.564095657419560
 20
178.011936936159630
  0
VERTEX
  8
0
  6
CONTINUOUS
 62
3
 10
-153.682408038779440
 20
178.216981919857890
  0
VERTEX
  8
0
  6
CONTINUOUS
 62
3
 10
-152.869840075703250
 20
178.549956905420630
  0
VERTEX
  8
0
  6
CONTINUOUS
 62
3
 10
-152.157618299318610
 20
178.998065850887260
  0
VERTEX
  8
0
  6
CONTINUOUS
 62
3
 10
-151.573112993073410
 20
179.544088180785850
  0
VERTEX
  8
0
  6
CONTINUOUS
 62
3
 10
-151.138786368092330
 20
180.167040563191250
  0
VERTEX
  8
0
  6
CONTINUOUS
 62
3
 10
-150.871329353000190
 20
180.842983287403340
  0
SEQEND
  8
0
  6
CONTINUOUS
 62
3
  0
LINE
  8
0
  6
CONTINUOUS
 62
3
 10
-155.481020170895360
 20
75.882300121105800
 11
-157.481020170895360
 21
77.534941760229231
  0
LINE
  8
0
  6
CONTINUOUS
 62
3
 10
-153.481020170895360
 20
74.706514635483472
 11
-155.481020170895360
 21
75.882300121105800
  0
LINE
  8
0
  6
CONTINUOUS
 62
3
 10
-155.481020170895360
 20
75.882300121105800
 11
-153.481020170895360
 21
77.534941760229231
  0
LINE
  8
0
  6
CONTINUOUS
 62
3
 10
-157.481020170895360
 20
74.706514635483472
 11
-155.481020170895360
 21
75.882300121105800
  0
POLYLINE
  8
0
  6
CONTINUOUS
 62
3
 66
1
 70
1
  0
VERTEX
  8
0
  6
CONTINUOUS
 62
3
 10
-150.781020170895370
 20
77.698890189483791
  0
VERTEX
  8
0
  6
CONTINUOUS
 62
3
 10
-150.871329353000190
 20
78.401847155684152
  0
VERTEX
  8
0
  6
CONTINUOUS
 62
3
 10
-151.138786368092330
 20
79.077789879896244
  0
VERTEX
  8
0
  6
CONTINUOUS
 62
3
 10
-151.573112993073410
 20
79.700742262301645
  0
VERTEX
  8
0
  6
CONTINUOUS
 62
3
 10
-152.157618299318590
 20
80.246764592200222
  0
VERTEX
  8
0
  6
CONTINUOUS
 62
3
 10
-152.869840075703250
 20
80.694873537666837
  0
VERTEX
  8
0
  6
CONTINUOUS
 62
3
 10
-153.682408038779440
 20
81.027848523229608
  0
VERTEX
  8
0
  6
CONTINUOUS
 62
3
 10
-154.564095657419560
 20
81.232893506927851
  0
VERTEX
  8
0
  6
CONTINUOUS
 62
3
 10
-155.481020170895360
 20
81.302128725028624
  0
VERTEX
  8
0
  6
CONTINUOUS
 62
3
 10
-156.397944684371170
 20
81.232893506927851
  0
VERTEX
  8
0
  6
CONTINUOUS
 62
3
 10
-157.279632303011280
 20
81.027848523229608
  0
VERTEX
  8
0
  6
CONTINUOUS
 62
3
 10
-158.092200266087470
 20
80.694873537666837
  0
VERTEX
  8
0
  6
CONTINUOUS
 62
3
 10
-158.804422042472140
 20
80.246764592200222
  0
VERTEX
  8
0
  6
CONTINUOUS
 62
3
 10
-159.388927348717320
 20
79.700742262301645
  0
VERTEX
  8
0
  6
CONTINUOUS
 62
3
 10
-159.823253973698400
 20
79.077789879896244
  0
VERTEX
  8
0
  6
CONTINUOUS
 62
3
 10
-160.090710988790530
 20
78.401847155684152
  0
VERTEX
  8
0
  6
CONTINUOUS
 62
3
 10
-160.181020170895350
 20
77.698890189483791
  0
VERTEX
  8
0
  6
CONTINUOUS
 62
3
 10
-160.090710988790530
 20
76.995933223283430
  0
VERTEX
  8
0
  6
CONTINUOUS
 62
3
 10
-159.823253973698400
 20
76.319990499071338
  0
VERTEX
  8
0
  6
CONTINUOUS
 62
3
 10
-159.388927348717320
 20
75.697038116665937
  0
VERTEX
  8
0
  6
CONTINUOUS
 62
3
 10
-158.804422042472110
 20
75.151015786767360
  0
VERTEX
  8
0
  6
CONTINUOUS
 62
3
 10
-158.092200266087470
 20
74.702906841300745
  0
VERTEX
  8
0
  6
CONTINUOUS
 62
3
 10
-157.279632303011280
 20
74.369931855737974
  0
VERTEX
  8
0
  6
CONTINUOUS
 62
3
 10
-156.397944684371170
 20
74.164886872039730
  0
VERTEX
  8
0
  6
CONTINUOUS
 62
3
 10
-155.481020170895360
 20
74.095651653938958
  0
VERTEX
  8
0
  6
CONTINUOUS
 62
3
 10
-154.564095657419560
 20
74.164886872039730
  0
VERTEX
  8
0
  6
CONTINUOUS
 62
3
 10
-153.682408038779440
 20
74.369931855737974
  0
VERTEX
  8
0
  6
CONTINUOUS
 62
3
 10
-152.869840075703250
 20
74.702906841300745
  0
VERTEX
  8
0
  6
CONTINUOUS
 62
3
 10
-152.157618299318610
 20
75.151015786767360
  0
VERTEX
  8
0
  6
CONTINUOUS
 62
3
 10
-151.573112993073410
 20
75.697038116665937
  0
VERTEX
  8
0
  6
CONTINUOUS
 62
3
 10
-151.138786368092330
 20
76.319990499071338
  0
VERTEX
  8
0
  6
CONTINUOUS
 62
3
 10
-150.871329353000190
 20
76.995933223283430
  0
SEQEND
  8
0
  6
CONTINUOUS
 62
3
  0
LINE
  8
0
  6
CONTINUOUS
 62
4
 10
-144.481020170895820
 20
144.622415221543630
 11
3.518980782782705
 21
144.622415221543630
  0
LINE
  8
0
  6
CONTINUOUS
 62
4
 10
-144.481020170895820
 20
114.622415221543630
 11
3.518980782781910
 21
114.622415221543630
  0
LINE
  8
0
  6
DASHDOT
 62
4
 10
-219.753011153895390
 20
129.622415221543630
 11
217.599678041467090
 21
129.622415221543630
  0
LINE
  8
0
  6
DASHDOT
 62
4
 10
-0.481020170897864
 20
30.560804006421677
 11
-0.481020170897864
 21
54.057431321308741
  0
LINE
  8
0
  6
DASHDOT
 62
4
 10
134.518979829102140
 20
30.663837138870349
 11
134.518979829102140
 21
54.879651441352962
  0
LINE
  8
0
  6
DASHDOT
 62
4
 10
145.765739407273030
 20
42.122415221543633
 11
121.258669606303550
 21
42.122415221543633
  0
LINE
  8
0
  6
DASHDOT
 62
4
 10
145.162650939232660
 20
217.122415221543630
 11
122.785063421254560
 21
217.122415221543630
  0
LINE
  8
0
  6
DASHDOT
 62
4
 10
134.518979829102140
 20
228.407706308183610
 11
134.518979829102140
 21
204.201884515857730
  0
LINE
  8
0
  6
CONTINUOUS
 62
3
 10
199.518979829124870
 20
129.622415221543630
 11
199.518979829124870
 21
110.622415221543630
  0
ARC
  8
0
  6
CONTINUOUS
 62
3
 10
199.118979829124780
 20
145.222415221543090
 40
0.400000000000091
 50
0.000000000000000
 51
90.000000000000000
  0
LINE
  8
0
  6
CONTINUOUS
 62
3
 10
199.518979829124870
 20
129.622415221543630
 11
199.518979829124870
 21
145.222415221543540
  0
ARC
  8
0
  6
CONTINUOUS
 62
3
 10
199.118979829124780
 20
114.022415221543270
 40
0.400000000000091
 50
270.000000000000000
 51
0.000000000000000
  0
INSERT
  8
0
  2
SYM2
 10
27.018979829100317
 20
-151.352704707715020
  0
ARC
  8
0
  6
CONTINUOUS
 62
3
 10
16.018979829104978
 20
-79.548857130421197
 40
3.000000000002046
 50
359.999999999991300
 51
59.999999999990706
  0
ARC
  8
0
  6
CONTINUOUS
 62
3
 10
19.018979829105774
 20
-74.352704707715020
 40
3.000000000000000
 50
180.000000000000000
 51
239.999999999991790
  0
INSERT
  8
0
  2
SYM3
 10
27.018979829100317
 20
-75.352704707715020
  0
INSERT
  8
0
  2
SYM4
 10
11.518979829103955
 20
-65.352704707715020
  0
LINE
  8
0
  6
DASHDOT
 62
4
 10
50.613741690163351
 20
-156.352704707713660
 11
-219.586182469413420
 21
-156.352704707713660
  0
LINE
  8
0
  6
CONTINUOUS
 62
3
 10
-155.481020170897180
 20
-210.092819808151430
 11
-157.481020170897180
 21
-208.440178169028000
  0
LINE
  8
0
  6
CONTINUOUS
 62
3
 10
-153.481020170897180
 20
-211.268605293773760
 11
-155.481020170897180
 21
-210.092819808151430
  0
LINE
  8
0
  6
CONTINUOUS
 62
3
 10
-155.481020170897180
 20
-210.092819808151430
 11
-153.481020170897180
 21
-208.440178169028000
  0
LINE
  8
0
  6
CONTINUOUS
 62
3
 10
-157.481020170897180
 20
-211.268605293773760
 11
-155.481020170897180
 21
-210.092819808151430
  0
POLYLINE
  8
0
  6
CONTINUOUS
 62
3
 66
1
 70
1
  0
VERTEX
  8
0
  6
CONTINUOUS
 62
3
 10
-150.781020170897190
 20
-208.276229739773440
  0
VERTEX
  8
0
  6
CONTINUOUS
 62
3
 10
-150.871329353002010
 20
-207.573272773573080
  0
VERTEX
  8
0
  6
CONTINUOUS
 62
3
 10
-151.138786368094150
 20
-206.897330049360990
  0
VERTEX
  8
0
  6
CONTINUOUS
 62
3
 10
-151.573112993075230
 20
-206.274377666955590
  0
VERTEX
  8
0
  6
CONTINUOUS
 62
3
 10
-152.157618299320400
 20
-205.728355337057000
  0
VERTEX
  8
0
  6
CONTINUOUS
 62
3
 10
-152.869840075705070
 20
-205.280246391590370
  0
VERTEX
  8
0
  6
CONTINUOUS
 62
3
 10
-153.682408038781260
 20
-204.947271406027620
  0
VERTEX
  8
0
  6
CONTINUOUS
 62
3
 10
-154.564095657421380
 20
-204.742226422329370
  0
VERTEX
  8
0
  6
CONTINUOUS
 62
3
 10
-155.481020170897180
 20
-204.672991204228590
  0
VERTEX
  8
0
  6
CONTINUOUS
 62
3
 10
-156.397944684372990
 20
-204.742226422329370
  0
VERTEX
  8
0
  6
CONTINUOUS
 62
3
 10
-157.279632303013100
 20
-204.947271406027620
  0
VERTEX
  8
0
  6
CONTINUOUS
 62
3
 10
-158.092200266089290
 20
-205.280246391590370
  0
VERTEX
  8
0
  6
CONTINUOUS
 62
3
 10
-158.804422042473960
 20
-205.728355337057000
  0
VERTEX
  8
0
  6
CONTINUOUS
 62
3
 10
-159.388927348719140
 20
-206.274377666955590
  0
VERTEX
  8
0
  6
CONTINUOUS
 62
3
 10
-159.823253973700220
 20
-206.897330049360990
  0
VERTEX
  8
0
  6
CONTINUOUS
 62
3
 10
-160.090710988792350
 20
-207.573272773573080
  0
VERTEX
  8
0
  6
CONTINUOUS
 62
3
 10
-160.181020170897170
 20
-208.276229739773440
  0
VERTEX
  8
0
  6
CONTINUOUS
 62
3
 10
-160.090710988792350
 20
-208.979186705973800
  0
VERTEX
  8
0
  6
CONTINUOUS
 62
3
 10
-159.823253973700220
 20
-209.655129430185890
  0
VERTEX
  8
0
  6
CONTINUOUS
 62
3
 10
-159.388927348719140
 20
-210.278081812591300
  0
VERTEX
  8
0
  6
CONTINUOUS
 62
3
 10
-158.804422042473930
 20
-210.824104142489890
  0
VERTEX
  8
0
  6
CONTINUOUS
 62
3
 10
-158.092200266089290
 20
-211.272213087956520
  0
VERTEX
  8
0
  6
CONTINUOUS
 62
3
 10
-157.279632303013100
 20
-211.605188073519260
  0
VERTEX
  8
0
  6
CONTINUOUS
 62
3
 10
-156.397944684372990
 20
-211.810233057217520
  0
VERTEX
  8
0
  6
CONTINUOUS
 62
3
 10
-155.481020170897180
 20
-211.879468275318290
  0
VERTEX
  8
0
  6
CONTINUOUS
 62
3
 10
-154.564095657421380
 20
-211.810233057217520
  0
VERTEX
  8
0
  6
CONTINUOUS
 62
3
 10
-153.682408038781260
 20
-211.605188073519260
  0
VERTEX
  8
0
  6
CONTINUOUS
 62
3
 10
-152.869840075705070
 20
-211.272213087956520
  0
VERTEX
  8
0
  6
CONTINUOUS
 62
3
 10
-152.157618299320430
 20
-210.824104142489890
  0
VERTEX
  8
0
  6
CONTINUOUS
 62
3
 10
-151.573112993075230
 20
-210.278081812591300
  0
VERTEX
  8
0
  6
CONTINUOUS
 62
3
 10
-151.138786368094150
 20
-209.655129430185890
  0
VERTEX
  8
0
  6
CONTINUOUS
 62
3
 10
-150.871329353002010
 20
-208.979186705973800
  0
SEQEND
  8
0
  6
CONTINUOUS
 62
3
  0
LINE
  8
0
  6
CONTINUOUS
 62
3
 10
-155.481020170897180
 20
-102.612589607276050
 11
-157.481020170897180
 21
-104.265231246399480
  0
LINE
  8
0
  6
CONTINUOUS
 62
3
 10
-153.481020170897180
 20
-101.436804121653260
 11
-155.481020170897180
 21
-102.612589607276050
  0
LINE
  8
0
  6
CONTINUOUS
 62
3
 10
-155.481020170897180
 20
-102.612589607276050
 11
-153.481020170897180
 21
-104.265231246399480
  0
LINE
  8
0
  6
CONTINUOUS
 62
3
 10
-157.481020170897180
 20
-101.436804121653260
 11
-155.481020170897180
 21
-102.612589607276050
  0
POLYLINE
  8
0
  6
CONTINUOUS
 62
3
 66
1
 70
1
  0
VERTEX
  8
0
  6
CONTINUOUS
 62
3
 10
-150.781020170897190
 20
-104.429179675653580
  0
VERTEX
  8
0
  6
CONTINUOUS
 62
3
 10
-150.871329353002010
 20
-103.726222709453220
  0
VERTEX
  8
0
  6
CONTINUOUS
 62
3
 10
-151.138786368094150
 20
-103.050279985241130
  0
VERTEX
  8
0
  6
CONTINUOUS
 62
3
 10
-151.573112993075230
 20
-102.427327602835730
  0
VERTEX
  8
0
  6
CONTINUOUS
 62
3
 10
-152.157618299320400
 20
-101.881305272937150
  0
VERTEX
  8
0
  6
CONTINUOUS
 62
3
 10
-152.869840075705070
 20
-101.433196327470540
  0
VERTEX
  8
0
  6
CONTINUOUS
 62
3
 10
-153.682408038781260
 20
-101.100221341907760
  0
VERTEX
  8
0
  6
CONTINUOUS
 62
3
 10
-154.564095657421380
 20
-100.895176358209520
  0
VERTEX
  8
0
  6
CONTINUOUS
 62
3
 10
-155.481020170897180
 20
-100.825941140108750
  0
VERTEX
  8
0
  6
CONTINUOUS
 62
3
 10
-156.397944684372990
 20
-100.895176358209520
  0
VERTEX
  8
0
  6
CONTINUOUS
 62
3
 10
-157.279632303013100
 20
-101.100221341907760
  0
VERTEX
  8
0
  6
CONTINUOUS
 62
3
 10
-158.092200266089290
 20
-101.433196327470540
  0
VERTEX
  8
0
  6
CONTINUOUS
 62
3
 10
-158.804422042473960
 20
-101.881305272937150
  0
VERTEX
  8
0
  6
CONTINUOUS
 62
3
 10
-159.388927348719140
 20
-102.427327602835730
  0
VERTEX
  8
0
  6
CONTINUOUS
 62
3
 10
-159.823253973700220
 20
-103.050279985241130
  0
VERTEX
  8
0
  6
CONTINUOUS
 62
3
 10
-160.090710988792350
 20
-103.726222709453220
  0
VERTEX
  8
0
  6
CONTINUOUS
 62
3
 10
-160.181020170897170
 20
-104.429179675653580
  0
VERTEX
  8
0
  6
CONTINUOUS
 62
3
 10
-160.090710988792350
 20
-105.132136641853940
  0
VERTEX
  8
0
  6
CONTINUOUS
 62
3
 10
-159.823253973700220
 20
-105.808079366066030
  0
VERTEX
  8
0
  6
CONTINUOUS
 62
3
 10
-159.388927348719140
 20
-106.431031748471440
  0
VERTEX
  8
0
  6
CONTINUOUS
 62
3
 10
-158.804422042473930
 20
-106.977054078370010
  0
VERTEX
  8
0
  6
CONTINUOUS
 62
3
 10
-158.092200266089290
 20
-107.425163023836630
  0
VERTEX
  8
0
  6
CONTINUOUS
 62
3
 10
-157.279632303013100
 20
-107.758138009399400
  0
VERTEX
  8
0
  6
CONTINUOUS
 62
3
 10
-156.397944684372990
 20
-107.963182993097640
  0
VERTEX
  8
0
  6
CONTINUOUS
 62
3
 10
-155.481020170897180
 20
-108.032418211198410
  0
VERTEX
  8
0
  6
CONTINUOUS
 62
3
 10
-154.564095657421380
 20
-107.963182993097640
  0
VERTEX
  8
0
  6
CONTINUOUS
 62
3
 10
-153.682408038781260
 20
-107.758138009399400
  0
VERTEX
  8
0
  6
CONTINUOUS
 62
3
 10
-152.869840075705070
 20
-107.425163023836630
  0
VERTEX
  8
0
  6
CONTINUOUS
 62
3
 10
-152.157618299320430
 20
-106.977054078370010
  0
VERTEX
  8
0
  6
CONTINUOUS
 62
3
 10
-151.573112993075230
 20
-106.431031748471440
  0
VERTEX
  8
0
  6
CONTINUOUS
 62
3
 10
-151.138786368094150
 20
-105.808079366066030
  0
VERTEX
  8
0
  6
CONTINUOUS
 62
3
 10
-150.871329353002010
 20
-105.132136641853940
  0
SEQEND
  8
0
  6
CONTINUOUS
 62
3
  0
ARC
  8
0
  6
CONTINUOUS
 62
3
 10
-192.881020170847480
 20
-203.795909764959050
 40
2.600000000000136
 50
180.000000000000000
 51
234.999999999998610
  0
LINE
  8
0
  6
CONTINUOUS
 62
3
 10
-184.646573120339100
 20
-212.735745593493390
 11
-194.372318905360090
 21
-205.925705080110160
  0
ARC
  8
0
  6
CONTINUOUS
 62
3
 10
-173.175044393318100
 20
-196.352704707713600
 40
20.000000000000007
 50
234.999999999999740
 51
270.000000000000000
  0
LINE
  8
0
  6
CONTINUOUS
 62
3
 10
-195.481020170847610
 20
-156.352704707713660
 11
-195.481020170847610
 21
-203.795909764959050
  0
LINE
  8
0
  6
CONTINUOUS
 62
3
 10
-144.481020170897750
 20
-216.352704707713600
 11
-173.175044393318100
 21
-216.352704707713600
  0
LINE
  8
0
  6
CONTINUOUS
 62
3
 10
4.518979829102136
 20
-214.852704707713600
 11
-144.481020170897750
 21
-214.852704707713600
  0
LINE
  8
0
  6
CONTINUOUS
 62
3
 10
-154.481020170897640
 20
-191.352704707713600
 11
-154.481020170897640
 21
-156.352704707713660
  0
ARC
  8
0
  6
CONTINUOUS
 62
3
 10
-147.481020170897750
 20
-197.352704707713600
 40
3.000000000000000
 50
0.000000000000000
 51
90.000000000000000
  0
LINE
  8
0
  6
CONTINUOUS
 62
3
 10
-147.481020170897750
 20
-194.352704707713600
 11
-151.481020170897640
 21
-194.352704707713600
  0
ARC
  8
0
  6
CONTINUOUS
 62
3
 10
-151.481020170897640
 20
-191.352704707713600
 40
3.000000000000000
 50
180.000000000000000
 51
270.000000000000000
  0
LINE
  8
0
  6
CONTINUOUS
 62
3
 10
-144.481020170897750
 20
-197.352704707713600
 11
-144.481020170897750
 21
-216.352704707713600
  0
LINE
  8
0
  6
CONTINUOUS
 62
3
 10
-79.481020170897750
 20
-187.852704707713600
 11
-150.481020170897640
 21
-187.852704707713600
  0
ARC
  8
0
  6
CONTINUOUS
 62
3
 10
-150.481020170897640
 20
-185.852704707713600
 40
2.000000000000000
 50
180.000000000000000
 51
270.000000000000000
  0
LINE
  8
0
  6
CONTINUOUS
 62
3
 10
-152.481020170897640
 20
-156.352704707713660
 11
-152.481020170897640
 21
-185.852704707713600
  0
LINE
  8
0
  6
CONTINUOUS
 62
3
 10
-77.481020170897750
 20
-156.352704707713660
 11
-77.481020170897750
 21
-185.852704707713600
  0
ARC
  8
0
  6
CONTINUOUS
 62
3
 10
-79.481020170897750
 20
-185.852704707713600
 40
2.000000000000000
 50
270.000000000000000
 51
0.000000000000000
  0
ARC
  8
0
  6
CONTINUOUS
 62
3
 10
-79.481020170897750
 20
-185.352704707713600
 40
1.000000000000000
 50
270.000000000000000
 51
0.000000000000000
  0
ARC
  8
0
  6
CONTINUOUS
 62
3
 10
-150.481020170897640
 20
-185.352704707713600
 40
1.000000000000000
 50
180.000000000000000
 51
270.000000000000000
  0
LINE
  8
0
  6
CONTINUOUS
 62
3
 10
-79.481020170897750
 20
-186.352704707713600
 11
-150.481020170897640
 21
-186.352704707713600
  0
LINE
  8
0
  6
CONTINUOUS
 62
4
 10
-154.481020170897640
 20
-188.103496424087950
 11
4.518979829102136
 21
-188.103496424087950
  0
LINE
  8
0
  6
CONTINUOUS
 62
4
 10
-154.394683959894560
 20
-192.067241847887490
 11
4.518979829102136
 21
-192.067241847887490
  0
LINE
  8
0
  6
CONTINUOUS
 62
4
 10
-153.384012729277860
 20
-193.671889763449540
 11
4.518979829102136
 21
-193.671889763449540
  0
LINE
  8
0
  6
CONTINUOUS
 62
4
 10
-144.481020170897750
 20
-201.718491426183330
 11
4.518979829102136
 21
-201.718491426183330
  0
LINE
  8
0
  6
CONTINUOUS
 62
4
 10
-144.481020170897750
 20
-206.668238894489090
 11
4.518979829102136
 21
-206.668238894489090
  0
LINE
  8
0
  6
CONTINUOUS
 62
4
 10
-144.481020170897750
 20
-211.352704707713600
 11
4.518979829102136
 21
-211.352704707713600
  0
LINE
  8
0
  6
CONTINUOUS
 62
4
 10
-144.481020170897750
 20
-212.352704707713600
 11
4.518979829102136
 21
-212.352704707713600
  0
LINE
  8
0
  6
CONTINUOUS
 62
4
 10
-144.481020170897750
 20
-213.852704707713600
 11
4.518979829102136
 21
-213.852704707713600
  0
LINE
  8
0
  6
CONTINUOUS
 62
4
 10
-144.481020170897750
 20
-213.352704707713600
 11
4.518979829102136
 21
-213.352704707713600
  0
LINE
  8
0
  6
CONTINUOUS
 62
4
 10
-154.481020170897640
 20
-176.352704707713600
 11
-152.481020170897640
 21
-176.352704707713600
  0
LINE
  8
0
  6
CONTINUOUS
 62
4
 10
-77.481020170897750
 20
-176.352704707713600
 11
4.518979829102136
 21
-176.352704707713600
  0
LINE
  8
0
  6
CONTINUOUS
 62
4
 10
-154.481020170897640
 20
-182.544638500193230
 11
-152.481020170897640
 21
-182.544638500193230
  0
LINE
  8
0
  6
CONTINUOUS
 62
4
 10
-77.481020170897750
 20
-182.544638500193230
 11
4.518979829102136
 21
-182.544638500193230
  0
LINE
  8
0
  6
CONTINUOUS
 62
4
 10
-154.481020170897640
 20
-181.182758164843960
 11
-152.481020170897640
 21
-181.182758164843960
  0
LINE
  8
0
  6
CONTINUOUS
 62
4
 10
-77.481020170897750
 20
-181.182758164843960
 11
4.518979829102136
 21
-181.182758164843960
  0
LINE
  8
0
  6
CONTINUOUS
 62
4
 10
-154.481020170897640
 20
-186.635139034282870
 11
-152.321616955803850
 21
-186.635139034282870
  0
LINE
  8
0
  6
CONTINUOUS
 62
4
 10
-77.640423385991653
 20
-186.635139034282870
 11
4.518979829102136
 21
-186.635139034282870
  0
LINE
  8
0
  6
CONTINUOUS
 62
3
 10
-78.481020170897750
 20
-185.352704707713600
 11
-78.481020170897750
 21
-156.352704707713660
  0
LINE
  8
0
  6
CONTINUOUS
 62
3
 10
-151.481020170897640
 20
-185.352704707713600
 11
-151.481020170897860
 21
-156.352704707713660
  0
ARC
  8
0
  6
CONTINUOUS
 62
3
 10
-192.881020170847480
 20
-108.909499650468200
 40
2.599999999999721
 50
125.000000000001370
 51
180.000000000000000
  0
LINE
  8
0
  6
CONTINUOUS
 62
3
 10
-184.646573120339100
 20
-99.969663821933864
 11
-194.372318905360090
 21
-106.779704335317090
  0
ARC
  8
0
  6
CONTINUOUS
 62
3
 10
-173.175044393318100
 20
-116.352704707713650
 40
20.000000000000000
 50
90.000000000000000
 51
125.000000000000240
  0
LINE
  8
0
  6
CONTINUOUS
 62
3
 10
-195.481020170847610
 20
-156.352704707713660
 11
-195.481020170847610
 21
-108.909499650468200
  0
LINE
  8
0
  6
CONTINUOUS
 62
3
 10
-144.481020170897750
 20
-96.352704707713656
 11
-173.175044393318100
 21
-96.352704707713656
  0
LINE
  8
0
  6
CONTINUOUS
 62
3
 10
4.518979829102136
 20
-97.852704707713656
 11
-144.481020170897750
 21
-97.852704707713656
  0
LINE
  8
0
  6
CONTINUOUS
 62
3
 10
-154.481020170897640
 20
-121.352704707713650
 11
-154.481020170897640
 21
-156.352704707713660
  0
ARC
  8
0
  6
CONTINUOUS
 62
3
 10
-147.481020170897750
 20
-115.352704707713650
 40
3.000000000000000
 50
270.000000000000000
 51
0.000000000000000
  0
LINE
  8
0
  6
CONTINUOUS
 62
3
 10
-147.481020170897750
 20
-118.352704707713650
 11
-151.481020170897640
 21
-118.352704707713650
  0
ARC
  8
0
  6
CONTINUOUS
 62
3
 10
-151.481020170897640
 20
-121.352704707713650
 40
3.000000000000000
 50
90.000000000000000
 51
180.000000000000000
  0
LINE
  8
0
  6
CONTINUOUS
 62
3
 10
-144.481020170897750
 20
-115.352704707713650
 11
-144.481020170897750
 21
-96.352704707713656
  0
LINE
  8
0
  6
CONTINUOUS
 62
3
 10
-79.481020170897750
 20
-124.852704707713650
 11
-150.481020170897640
 21
-124.852704707713650
  0
ARC
  8
0
  6
CONTINUOUS
 62
3
 10
-150.481020170897640
 20
-126.852704707713650
 40
2.000000000000000
 50
90.000000000000000
 51
180.000000000000000
  0
LINE
  8
0
  6
CONTINUOUS
 62
3
 10
-152.481020170897640
 20
-156.352704707713660
 11
-152.481020170897640
 21
-126.852704707713650
  0
LINE
  8
0
  6
CONTINUOUS
 62
3
 10
-77.481020170897750
 20
-156.352704707713660
 11
-77.481020170897750
 21
-126.852704707713650
  0
ARC
  8
0
  6
CONTINUOUS
 62
3
 10
-79.481020170897750
 20
-126.852704707713650
 40
2.000000000000000
 50
0.000000000000000
 51
90.000000000000000
  0
ARC
  8
0
  6
CONTINUOUS
 62
3
 10
-79.481020170897750
 20
-127.352704707713650
 40
1.000000000000000
 50
0.000000000000000
 51
90.000000000000000
  0
ARC
  8
0
  6
CONTINUOUS
 62
3
 10
-150.481020170897640
 20
-127.352704707713650
 40
1.000000000000000
 50
90.000000000000000
 51
180.000000000000000
  0
LINE
  8
0
  6
CONTINUOUS
 62
3
 10
-79.481020170897750
 20
-126.352704707713650
 11
-150.481020170897640
 21
-126.352704707713650
  0
LINE
  8
0
  6
CONTINUOUS
 62
4
 10
-154.481020170897640
 20
-124.601912991339300
 11
4.518979829102136
 21
-124.601912991339300
  0
LINE
  8
0
  6
CONTINUOUS
 62
4
 10
-154.394683959894560
 20
-120.638167567539760
 11
4.518979829102136
 21
-120.638167567539760
  0
LINE
  8
0
  6
CONTINUOUS
 62
4
 10
-153.384012729277860
 20
-119.033519651977710
 11
4.518979829102136
 21
-119.033519651977710
  0
LINE
  8
0
  6
CONTINUOUS
 62
4
 10
-144.481020170897750
 20
-110.986917989243920
 11
4.518979829102136
 21
-110.986917989243920
  0
LINE
  8
0
  6
CONTINUOUS
 62
4
 10
-144.481020170897750
 20
-106.037170520938160
 11
4.518979829102136
 21
-106.037170520938160
  0
LINE
  8
0
  6
CONTINUOUS
 62
4
 10
-144.481020170897750
 20
-101.352704707713650
 11
4.518979829102136
 21
-101.352704707713650
  0
LINE
  8
0
  6
CONTINUOUS
 62
4
 10
-144.481020170897750
 20
-100.352704707713650
 11
4.518979829102136
 21
-100.352704707713650
  0
LINE
  8
0
  6
CONTINUOUS
 62
4
 10
-144.481020170897750
 20
-98.852704707713656
 11
4.518979829102136
 21
-98.852704707713656
  0
LINE
  8
0
  6
CONTINUOUS
 62
4
 10
-144.481020170897750
 20
-99.352704707713656
 11
4.518979829102136
 21
-99.352704707713656
  0
LINE
  8
0
  6
CONTINUOUS
 62
4
 10
-154.481020170897640
 20
-136.352704707713660
 11
-152.481020170897640
 21
-136.352704707713660
  0
LINE
  8
0
  6
CONTINUOUS
 62
4
 10
-77.481020170897750
 20
-136.352704707713660
 11
4.518979829102136
 21
-136.352704707713660
  0
LINE
  8
0
  6
CONTINUOUS
 62
4
 10
-154.481020170897640
 20
-130.160770915234020
 11
-152.481020170897640
 21
-130.160770915234020
  0
LINE
  8
0
  6
CONTINUOUS
 62
4
 10
-77.481020170897750
 20
-130.160770915234020
 11
4.518979829102136
 21
-130.160770915234020
  0
LINE
  8
0
  6
CONTINUOUS
 62
4
 10
-154.481020170897640
 20
-131.522651250583290
 11
-152.481020170897640
 21
-131.522651250583290
  0
LINE
  8
0
  6
CONTINUOUS
 62
4
 10
-77.481020170897750
 20
-131.522651250583290
 11
4.518979829102136
 21
-131.522651250583290
  0
LINE
  8
0
  6
CONTINUOUS
 62
4
 10
-154.481020170897640
 20
-126.070270381144380
 11
-152.321616955803850
 21
-126.070270381144380
  0
LINE
  8
0
  6
CONTINUOUS
 62
4
 10
-77.640423385991653
 20
-126.070270381144380
 11
4.518979829102136
 21
-126.070270381144380
  0
LINE
  8
0
  6
CONTINUOUS
 62
3
 10
-78.481020170897750
 20
-127.352704707713650
 11
-78.481020170897750
 21
-156.352704707713660
  0
LINE
  8
0
  6
CONTINUOUS
 62
3
 10
-151.481020170897640
 20
-127.352704707713650
 11
-151.481020170897860
 21
-156.352704707713660
  0
ARC
  8
0
  6
CONTINUOUS
 62
3
 10
447.969080410157180
 20
-170.395204707715040
 40
20.799999999999990
 50
294.725364927288070
 51
334.359929784105190
  0
ARC
  8
0
  6
CONTINUOUS
 62
3
 10
445.969080410157180
 20
-130.395204707715040
 40
18.799999999999837
 50
5.724810452223617
 51
35.808626813495749
  0
ARC
  8
0
  6
CONTINUOUS
 62
3
 10
445.969080410157180
 20
-130.395204707715040
 40
18.799999999999933
 50
35.808626813495749
 51
67.659701385399330
  0
LINE
  8
0
  6
CONTINUOUS
 62
3
 10
468.665339761778110
 20
-168.320391740134030
 11
464.675314824122100
 21
-128.519892987016760
  0
ARC
  8
0
  6
CONTINUOUS
 62
3
 10
447.969080410157180
 20
-170.395204707715040
 40
20.799999999999926
 50
334.359929784105190
 51
5.724810452223396
  0
ARC
  8
0
  6
CONTINUOUS
 62
3
 10
447.969080410157180
 20
-170.395204707715040
 40
20.799999999999926
 50
334.359929784105190
 51
5.724810452223396
  0
LINE
  8
0
  6
CONTINUOUS
 62
3
 10
4.518979829102136
 20
-156.410765378129330
 11
4.518979829102136
 21
-208.910765378129330
  0
LINE
  8
0
  6
CONTINUOUS
 62
3
 10
4.518979829102136
 20
-156.410765378129330
 11
4.518979829102136
 21
-103.910765378129320
  0
LINE
  8
0
  6
CONTINUOUS
 62
3
 10
4.518979829102136
 20
-156.410765378129330
 11
4.518979829102136
 21
-208.910765378129330
  0
LINE
  8
0
  6
CONTINUOUS
 62
3
 10
4.518979829102136
 20
-156.410765378129330
 11
4.518979829102136
 21
-103.910765378129320
  0
LINE
  8
0
  6
CONTINUOUS
 62
3
 10
4.518979829102136
 20
-156.410765378129330
 11
4.518979829102136
 21
-208.910765378129330
  0
LINE
  8
0
  6
CONTINUOUS
 62
3
 10
4.518979829102136
 20
-156.410765378129330
 11
4.518979829102136
 21
-103.910765378129320
  0
LINE
  8
0
  6
DASHDOT
 62
4
 10
339.104057202394420
 20
-156.352704707715020
 11
386.435043057931130
 21
-156.352704707715020
  0
ARC
  8
0
  6
CONTINUOUS
 62
3
 10
362.669080410157220
 20
-126.352704707715020
 40
40.000000000000249
 50
184.000629961571520
 51
270.000000000000000
  0
ARC
  8
0
  6
CONTINUOUS
 62
3
 10
319.773859231102510
 20
-129.352704707715020
 40
3.000000000000032
 50
4.000629961575198
 51
90.000000000000000
  0
CIRCLE
  8
0
  6
CONTINUOUS
 62
3
 10
362.669080410157220
 20
-126.352704707715020
 40
33.500000000000000
  0
LINE
  8
0
  6
DASHED
 62
3
 10
275.730311276175830
 20
-126.352704707714790
 11
299.169832667873380
 21
-126.352704707714790
  0
LINE
  8
0
  6
DASHED
 62
3
 10
269.169080410157220
 20
-158.852704707714570
 11
269.169080410157220
 21
-153.852704707714570
  0
LINE
  8
0
  6
DASHED
 62
3
 10
269.169080410157220
 20
-158.852704707714570
 11
269.679497257674940
 21
-158.852704707714570
  0
LINE
  8
0
  6
DASHED
 62
3
 10
269.169080410157220
 20
-153.852704707714570
 11
269.679497257674940
 21
-153.852704707714570
  0
ARC
  8
0
  6
DASHED
 62
3
 10
569.669080410157220
 20
-156.352704707714570
 40
300.000000000000110
 50
175.138594604202010
 51
180.000000000000000
  0
ARC
  8
0
  6
DASHED
 62
3
 10
275.730311276175830
 20
-131.352704707714790
 40
5.000000000000000
 50
90.000000000000000
 51
175.138594604201610
  0
ARC
  8
0
  6
DASHED
 62
3
 10
275.730311276175830
 20
-181.352704707714570
 40
5.000000000000139
 50
184.861405395801000
 51
270.000000000000000
  0
LINE
  8
0
  6
DASHED
 62
3
 10
275.730311276175830
 20
-186.352704707714570
 11
299.169080410157220
 21
-186.352704707714570
  0
ARC
  8
0
  6
DASHED
 62
3
 10
569.669080410157220
 20
-156.352704707714570
 40
300.000000000000000
 50
180.000000000000000
 51
184.861405395798070
  0
ARC
  8
0
  6
DASHED
 62
3
 10
598.269080410157130
 20
-156.352704707715020
 40
300.600000000000080
 50
174.272323304163000
 51
185.727676695836860
  0
POLYLINE
  8
0
  6
CONTINUOUS
 62
3
 66
1
  0
VERTEX
  8
0
  6
CONTINUOUS
 62
3
 10
292.297606271067650
 20
-126.352705308644540
  0
VERTEX
  8
0
  6
CONTINUOUS
 62
3
 10
292.166334778808620
 20
-124.515210085499950
  0
VERTEX
  8
0
  6
CONTINUOUS
 62
3
 10
291.776990425167240
 20
-122.740288540270040
  0
VERTEX
  8
0
  6
CONTINUOUS
 62
3
 10
291.142831865645520
 20
-121.088383499699580
  0
VERTEX
  8
0
  6
CONTINUOUS
 62
3
 10
290.285454610222420
 20
-119.615748610849430
  0
VERTEX
  8
0
  6
CONTINUOUS
 62
3
 10
289.234055614134490
 20
-118.372532690541530
  0
VERTEX
  8
0
  6
CONTINUOUS
 62
3
 10
288.024439010545170
 20
-117.401071967483850
  0
VERTEX
  8
0
  6
CONTINUOUS
 62
3
 10
286.697796843685920
 20
-116.734448372723400
  0
VERTEX
  8
0
  6
CONTINUOUS
 62
3
 10
285.299306323140570
 20
-116.395362974118850
  0
VERTEX
  8
0
  6
CONTINUOUS
 62
3
 10
283.876591368098620
 20
-116.395362918672070
  0
VERTEX
  8
0
  6
CONTINUOUS
 62
3
 10
282.478100831843560
 20
-116.734448208271230
  0
VERTEX
  8
0
  6
CONTINUOUS
 62
3
 10
281.151458634099920
 20
-117.401071699626510
  0
VERTEX
  8
0
  6
CONTINUOUS
 62
3
 10
279.941841985503230
 20
-118.372532328400580
  0
VERTEX
  8
0
  6
CONTINUOUS
 62
3
 10
278.890442931817570
 20
-119.615748166757140
  0
VERTEX
  8
0
  6
CONTINUOUS
 62
3
 10
278.033065608167820
 20
-121.088382988779000
  0
VERTEX
  8
0
  6
CONTINUOUS
 62
3
 10
277.398906972113990
 20
-122.740287979919950
  0
VERTEX
  8
0
  6
CONTINUOUS
 62
3
 10
277.009562536241220
 20
-124.515209494802400
  0
VERTEX
  8
0
  6
CONTINUOUS
 62
3
 10
276.878290958851780
 20
-126.352704707715020
  0
SEQEND
  8
0
  6
CONTINUOUS
 62
3
  0
LINE
  8
0
  6
CONTINUOUS
 62
3
 10
319.773859231102510
 20
-126.352704707715020
 11
306.169080410157220
 21
-126.352704707715020
  0
ARC
  8
0
  6
CONTINUOUS
 62
3
 10
306.169080410157220
 20
-129.852704707715020
 40
3.500000000000000
 50
90.000000000000000
 51
180.000000000000000
  0
LINE
  8
0
  6
CONTINUOUS
 62
3
 10
302.669080410157220
 20
-129.852704707715020
 11
302.669080410157220
 21
-219.752704707715110
  0
LINE
  8
0
  6
CONTINUOUS
 62
3
 10
268.669080410157220
 20
-136.586102891896190
 11
268.669080410157220
 21
-230.352704707715020
  0
LINE
  8
0
  6
DASHDOT
 62
4
 10
247.366844266629870
 20
-126.352704707715020
 11
483.987424341298270
 21
-126.352704707715020
  0
LINE
  8
0
  6
CONTINUOUS
 62
3
 10
276.878290958851720
 20
-126.352704707715020
 11
276.878290958851720
 21
-230.352704707715020
  0
LINE
  8
0
  6
CONTINUOUS
 62
3
 10
292.297606271067710
 20
-126.352705308644540
 11
292.297606271067710
 21
-230.352704707715020
  0
LINE
  8
0
  6
CONTINUOUS
 62
3
 10
295.922080410156920
 20
-136.352704707715020
 11
295.922080410156920
 21
-230.352704707715020
  0
ARC
  8
0
  6
CONTINUOUS
 62
3
 10
348.669080410157220
 20
-136.586102891896190
 40
52.746750336799941
 50
91.910213171710112
 51
180.000000000000000
  0
ARC
  8
0
  6
CONTINUOUS
 62
3
 10
348.669080410157220
 20
-136.586102891896190
 40
79.999999999999844
 50
91.910213171710154
 51
180.000000000000000
  0
LINE
  8
0
  6
CONTINUOUS
 62
3
 10
11.518979829106684
 20
-21.352704707715020
 11
16.018979829106684
 21
-21.352704707715020
  0
ARC
  8
0
  6
CONTINUOUS
 62
3
 10
24.018979829100317
 20
-221.871667688812070
 40
3.000000000000000
 50
0.000000000000000
 51
86.999999999994344
  0
LINE
  8
0
  6
CONTINUOUS
 62
3
 10
4.518979829102136
 20
-217.845598954799240
 11
24.175987697829441
 21
-218.875779084548410
  0
LINE
  8
0
  6
CONTINUOUS
 62
3
 10
4.518979829102136
 20
-156.352704707713660
 11
4.518979829102136
 21
-217.845598954799240
  0
LINE
  8
0
  6
CONTINUOUS
 62
3
 10
39.018979829100317
 20
-156.352704707715020
 11
39.018979829100317
 21
-215.557601086336040
  0
LINE
  8
0
  6
CONTINUOUS
 62
3
 10
25.018979829100317
 20
-125.352704707715020
 11
25.018979829100317
 21
-137.352704707715020
  0
ARC
  8
0
  6
CONTINUOUS
 62
3
 10
27.018979829100317
 20
-125.352704707715020
 40
2.000000000000164
 50
119.999999999997270
 51
180.000000000000000
  0
ARC
  8
0
  6
CONTINUOUS
 62
3
 10
27.018979829100317
 20
-137.352704707715020
 40
2.000000000000000
 50
180.000000000000000
 51
240.000000000002730
  0
ARC
  8
0
  6
CONTINUOUS
 62
3
 10
25.018979829100317
 20
-140.816806322852700
 40
2.000000000000000
 50
0.000000000000000
 51
59.999999999996206
  0
ARC
  8
0
  6
CONTINUOUS
 62
3
 10
25.018979829100317
 20
-121.888603092577340
 40
1.999999999999770
 50
300.000000000003810
 51
0.000000000000000
  0
LINE
  8
0
  6
CONTINUOUS
 62
3
 10
4.518979829102136
 20
-136.352704707715020
 11
25.018979829100317
 21
-136.352704707715020
  0
LINE
  8
0
  6
CONTINUOUS
 62
3
 10
4.518979829102136
 20
-176.352704707715020
 11
27.018979829100317
 21
-176.352704707715020
  0
ARC
  8
0
  6
CONTINUOUS
 62
3
 10
39.518979829103046
 20
-212.449900312986760
 40
1.999999999999916
 50
311.410957896496880
 51
0.000000000000000
  0
LINE
  8
0
  6
CONTINUOUS
 62
3
 10
40.841890455103567
 20
-213.949869471207880
 11
22.793807847835524
 21
-229.867530263920340
  0
LINE
  8
0
  6
CONTINUOUS
 62
3
 10
41.518979829103046
 20
-195.298611111537410
 11
41.518979829103046
 21
-212.449900312986760
  0
ARC
  8
0
  6
CONTINUOUS
 62
3
 10
39.518979829103046
 20
-195.298611111537410
 40
2.000000000000000
 50
0.000000000000000
 51
90.000000000000000
  0
LINE
  8
0
  6
CONTINUOUS
 62
3
 10
27.018979829100317
 20
-140.816806322852700
 11
27.018979829100317
 21
-226.141103703706900
  0
LINE
  8
0
  6
CONTINUOUS
 62
3
 10
27.018979829100317
 20
-59.352704707714111
 11
27.018979829100317
 21
-121.888603092577340
  0
LINE
  8
0
  6
DASHDOT
 62
4
 10
5.788732428290132
 20
-41.352704707715020
 11
23.887998443581637
 21
-41.352704707715020
  0
LINE
  8
0
  6
CONTINUOUS
 62
3
 10
16.018979829106684
 20
-21.352704707715020
 11
16.018979829106684
 21
-75.352704707715020
  0
LINE
  8
0
  6
CONTINUOUS
 62
3
 10
11.518979829103046
 20
-75.352704707715020
 11
11.518979829106684
 21
-21.352704707715020
  0
LINE
  8
0
  6
CONTINUOUS
 62
3
 10
11.518979829103046
 20
-75.352704707715020
 11
16.018979829103046
 21
-75.352704707715020
  0
LINE
  8
0
  6
CONTINUOUS
 62
3
 10
19.018979829104865
 20
-94.245898207965183
 11
19.018979829106854
 21
-80.986772610641310
  0
ARC
  8
0
  6
CONTINUOUS
 62
3
 10
24.018979829104865
 20
-93.826635973700832
 40
2.999999999999901
 50
272.999999999988290
 51
0.000000000000000
  0
LINE
  8
0
  6
CONTINUOUS
 62
3
 10
39.018979829102136
 20
-156.352704707715020
 11
39.018979829106684
 21
-56.352704707715020
  0
LINE
  8
0
  6
CONTINUOUS
 62
3
 10
4.518979829102136
 20
-156.352704707713660
 11
4.518979829102136
 21
-97.852704707713656
  0
LINE
  8
0
  6
CONTINUOUS
 62
3
 10
24.175987697833989
 20
-96.822524577964487
 11
4.518979829102136
 21
-97.852704707714111
  0
ARC
  8
0
  6
CONTINUOUS
 62
3
 10
16.018979829104865
 20
-94.245898207965183
 40
2.999999999999901
 50
272.999999999988290
 51
0.000000000000000
  0
ARC
  8
0
  6
CONTINUOUS
 62
3
 10
19.018979829106684
 20
-59.352704707713656
 40
3.000000000000000
 50
90.000000000000000
 51
179.999999999991330
  0
ARC
  8
0
  6
DASHED
 62
3
 10
30.018979829106684
 20
-59.352704707714111
 40
3.000000000000000
 50
90.000000000000000
 51
180.000000000000000
  0
LINE
  8
0
  6
CONTINUOUS
 62
3
 10
39.018979829106684
 20
-56.352704707715020
 11
19.018979829106684
 21
-56.352704707713656
  0
LINE
  8
0
  6
CONTINUOUS
 62
3
 10
16.018979829105774
 20
-74.352704707715020
 11
16.018979829106684
 21
-59.352704707713201
  0
LINE
  8
0
  6
CONTINUOUS
 62
3
 10
39.518979829103046
 20
-56.352704707715020
 11
92.018979829103046
 21
-57.269095616446521
  0
LINE
  8
0
  6
CONTINUOUS
 62
4
 10
39.518979829103046
 20
-56.352704707715020
 11
59.876040985980580
 21
-56.352704707715020
  0
LINE
  8
0
  6
CONTINUOUS
 62
3
 10
39.518979829103046
 20
-56.352704707715020
 11
39.518979829103046
 21
-215.116621810610010
  0
CIRCLE
  8
0
  6
CONTINUOUS
 62
3
 10
362.669080410157220
 20
-126.352704707715020
 40
23.500000000000000
  0
LINE
  8
0
  6
CONTINUOUS
 62
3
 10
30.518979829103046
 20
-251.352704707715020
 11
-13.481020170896954
 21
-251.352704707715020
  0
LINE
  8
0
  6
CONTINUOUS
 62
3
 10
147.518979829103050
 20
-251.352704707715020
 11
30.518979829103046
 21
-251.352704707715020
  0
LINE
  8
0
  6
CONTINUOUS
 62
3
 10
262.669080410157220
 20
-251.352704707715020
 11
292.669080410157220
 21
-251.352704707715020
  0
LINE
  8
0
  6
CONTINUOUS
 62
3
 10
462.669080410157220
 20
-251.352704707715020
 11
432.669080410157220
 21
-251.352704707715020
  0
LINE
  8
0
  6
CONTINUOUS
 62
3
 10
262.669080410157220
 20
-251.352704707715020
 11
292.669080410157220
 21
-251.352704707715020
  0
POLYLINE
  8
0
  6
CONTINUOUS
 62
3
 66
1
  0
VERTEX
  8
0
  6
CONTINUOUS
 62
3
 10
448.459869861462660
 20
-126.352704707715020
  0
VERTEX
  8
0
  6
CONTINUOUS
 62
3
 10
448.328598284073220
 20
-124.515209494802400
  0
VERTEX
  8
0
  6
CONTINUOUS
 62
3
 10
447.939253848200450
 20
-122.740287979919950
  0
VERTEX
  8
0
  6
CONTINUOUS
 62
3
 10
447.305095212146570
 20
-121.088382988779000
  0
VERTEX
  8
0
  6
CONTINUOUS
 62
3
 10
446.447717888496870
 20
-119.615748166757140
  0
VERTEX
  8
0
  6
CONTINUOUS
 62
3
 10
445.396318834811210
 20
-118.372532328400580
  0
VERTEX
  8
0
  6
CONTINUOUS
 62
3
 10
444.186702186214520
 20
-117.401071699626510
  0
VERTEX
  8
0
  6
CONTINUOUS
 62
3
 10
442.860059988470880
 20
-116.734448208271230
  0
VERTEX
  8
0
  6
CONTINUOUS
 62
3
 10
441.461569452215830
 20
-116.395362918672070
  0
VERTEX
  8
0
  6
CONTINUOUS
 62
3
 10
440.038854497173870
 20
-116.395362974118850
  0
VERTEX
  8
0
  6
CONTINUOUS
 62
3
 10
438.640363976628520
 20
-116.734448372723400
  0
VERTEX
  8
0
  6
CONTINUOUS
 62
3
 10
437.313721809769280
 20
-117.401071967483850
  0
VERTEX
  8
0
  6
CONTINUOUS
 62
3
 10
436.104105206179950
 20
-118.372532690541530
  0
VERTEX
  8
0
  6
CONTINUOUS
 62
3
 10
435.052706210092030
 20
-119.615748610849430
  0
VERTEX
  8
0
  6
CONTINUOUS
 62
3
 10
434.195328954668920
 20
-121.088383499699600
  0
VERTEX
  8
0
  6
CONTINUOUS
 62
3
 10
433.561170395147200
 20
-122.740288540270050
  0
VERTEX
  8
0
  6
CONTINUOUS
 62
3
 10
433.171826041505820
 20
-124.515210085499970
  0
VERTEX
  8
0
  6
CONTINUOUS
 62
3
 10
433.040554549246790
 20
-126.352705308644540
  0
SEQEND
  8
0
  6
CONTINUOUS
 62
3
  0
LINE
  8
0
  6
CONTINUOUS
 62
3
 10
415.669080410157220
 20
-226.752704707715110
 11
362.669080410157220
 21
-226.752704707715110
  0
LINE
  8
0
  6
CONTINUOUS
 62
3
 10
422.669080410157220
 20
-129.852704707715020
 11
422.669080410157220
 21
-219.752704707715110
  0
LINE
  8
0
  6
CONTINUOUS
 62
3
 10
405.564301589211940
 20
-126.352704707715020
 11
419.169080410157220
 21
-126.352704707715020
  0
ARC
  8
0
  6
CONTINUOUS
 62
3
 10
362.669080410157220
 20
-126.352704707715020
 40
40.000000000000000
 50
270.000000000000000
 51
355.999370038428480
  0
ARC
  8
0
  6
CONTINUOUS
 62
3
 10
415.669080410157220
 20
-219.752704707715110
 40
7.000000000000000
 50
270.000000000000000
 51
0.000000000000000
  0
ARC
  8
0
  6
CONTINUOUS
 62
3
 10
419.169080410157220
 20
-129.852704707715020
 40
3.500000000000000
 50
0.000000000000000
 51
90.000000000000000
  0
ARC
  8
0
  6
CONTINUOUS
 62
3
 10
405.564301589211940
 20
-129.352704707715020
 40
3.000000000000000
 50
90.000000000000000
 51
175.999370038424810
  0
ARC
  8
0
  6
CONTINUOUS
 62
3
 10
309.669080410157220
 20
-219.752704707715110
 40
7.000000000000000
 50
180.000000000000000
 51
270.000000000000000
  0
LINE
  8
0
  6
CONTINUOUS
 62
3
 10
309.669080410157220
 20
-226.752704707715110
 11
362.669080410157220
 21
-226.752704707715110
  0
ARC
  8
0
  6
CONTINUOUS
 62
3
 10
19.486531282833766
 20
-226.117607368367770
 40
4.999999999999822
 50
273.858884296473550
 51
311.410957896502510
  0
LINE
  8
0
  6
CONTINUOUS
 62
3
 10
147.518979829103050
 20
-236.249771032136320
 11
147.518979829103050
 21
-251.352704707715020
  0
LINE
  8
0
  6
DASHDOT
 62
4
 10
134.518979829103050
 20
-229.130665484997730
 11
134.518979829103050
 21
-257.571389094921870
  0
LINE
  8
0
  6
CONTINUOUS
 62
3
 10
147.518979829103050
 20
-236.199598407859410
 11
147.518979829103050
 21
-237.998877144857490
  0
LINE
  8
0
  6
CONTINUOUS
 62
3
 10
-13.481020170896954
 20
-236.157164903922420
 11
-13.481020170896954
 21
-251.352704707715020
  0
LINE
  8
0
  6
DASHDOT
 62
4
 10
-0.481020170896954
 20
-229.130665484997730
 11
-0.481020170896954
 21
-258.054846698376420
  0
LINE
  8
0
  6
CONTINUOUS
 62
3
 10
41.438172104886235
 20
-229.648281273679460
 11
16.518979829103046
 21
-231.329137018245090
  0
LINE
  8
0
  6
CONTINUOUS
 62
3
 10
41.438172104886235
 20
-229.648281273679460
 11
117.518979829103040
 21
-232.305081622962460
  0
LINE
  8
0
  6
DASHDOT
 62
4
 10
275.169080410157220
 20
-229.192425853344960
 11
275.169080410157220
 21
-255.769496547314700
  0
LINE
  8
0
  6
CONTINUOUS
 62
3
 10
117.605121626426800
 20
-126.352704707715020
 11
117.605121626426800
 21
-229.411023436389310
  0
LINE
  8
0
  6
CONTINUOUS
 62
3
 10
430.669080410157220
 20
-249.352704707715020
 11
362.669080410157220
 21
-249.352704707715020
  0
LINE
  8
0
  6
CONTINUOUS
 62
3
 10
460.169080410157220
 20
-233.352704707715020
 11
362.669080410157220
 21
-233.352704707715020
  0
LINE
  8
0
  6
CONTINUOUS
 62
3
 10
294.669080410157220
 20
-249.352704707715020
 11
362.669080410157220
 21
-249.352704707715020
  0
LINE
  8
0
  6
CONTINUOUS
 62
3
 10
456.669080410157220
 20
-136.586102891896190
 11
456.669080410157220
 21
-230.352704707715020
  0
LINE
  8
0
  6
CONTINUOUS
 62
3
 10
462.669080410157220
 20
-235.852704707715020
 11
462.669080410157220
 21
-251.352704707715020
  0
LINE
  8
0
  6
DASHDOT
 62
4
 10
450.169080410157220
 20
-229.192425853344960
 11
450.169080410157220
 21
-255.769496547314700
  0
LINE
  8
0
  6
CONTINUOUS
 62
3
 10
262.669080410157220
 20
-235.852704707715020
 11
262.669080410157220
 21
-251.352704707715020
  0
LINE
  8
0
  6
CONTINUOUS
 62
3
 10
265.169080410157220
 20
-233.352704707715020
 11
362.669080410157220
 21
-233.352704707715020
  0
LINE
  8
0
  6
CONTINUOUS
 62
3
 10
433.040554549246740
 20
-126.352705308644540
 11
433.040554549246740
 21
-230.352704707715020
  0
LINE
  8
0
  6
CONTINUOUS
 62
3
 10
448.459869861462720
 20
-126.352704707715020
 11
448.459869861462720
 21
-230.352704707715020
  0
LINE
  8
0
  6
CONTINUOUS
 62
3
 10
429.416080410157520
 20
-136.352704707715020
 11
429.416080410157520
 21
-230.352704707715020
  0
ARC
  8
0
  6
CONTINUOUS
 62
3
 10
-10.481020170896954
 20
-236.157164903922420
 40
3.000000000000365
 50
93.858884296478166
 51
180.000000000000000
  0
ARC
  8
0
  6
CONTINUOUS
 62
3
 10
120.605121626426800
 20
-229.411023436389310
 40
3.000000000000000
 50
180.000000000000000
 51
268.000000000005000
  0
ARC
  8
0
  6
CONTINUOUS
 62
3
 10
144.733864716768040
 20
-230.253617711972770
 40
3.000000000000000
 50
180.000000000000000
 51
268.000000000005000
  0
ARC
  8
0
  6
CONTINUOUS
 62
3
 10
147.518979829103050
 20
-232.249771032136320
 40
2.000000000000000
 50
180.000000000000000
 51
233.130102354158570
  0
ARC
  8
0
  6
CONTINUOUS
 62
3
 10
144.518979829103050
 20
-236.249771032136320
 40
3.000000000000000
 50
0.000000000000000
 51
87.999999999996348
  0
ARC
  8
0
  6
CONTINUOUS
 62
3
 10
459.669080410157220
 20
-230.352704707715020
 40
3.000000000000000
 50
180.000000000000000
 51
270.000000000000000
  0
ARC
  8
0
  6
CONTINUOUS
 62
3
 10
265.669080410157220
 20
-230.352704707715020
 40
3.000000000000000
 50
270.000000000000000
 51
0.000000000000000
  0
ARC
  8
0
  6
CONTINUOUS
 62
3
 10
460.169080410157220
 20
-235.852704707715020
 40
2.500000000000000
 50
0.000000000000000
 51
90.000000000000000
  0
ARC
  8
0
  6
CONTINUOUS
 62
3
 10
430.669080410157220
 20
-251.352704707715020
 40
2.000000000000000
 50
0.000000000000000
 51
90.000000000000000
  0
ARC
  8
0
  6
CONTINUOUS
 62
3
 10
265.169080410157220
 20
-235.852704707715020
 40
2.500000000000000
 50
90.000000000000000
 51
180.000000000000000
  0
ARC
  8
0
  6
CONTINUOUS
 62
3
 10
294.669080410157220
 20
-251.352704707715020
 40
2.000000000000000
 50
90.000000000000000
 51
180.000000000000000
  0
ARC
  8
0
  6
CONTINUOUS
 62
3
 10
273.878290958851720
 20
-230.352704707715020
 40
3.000000000000000
 50
270.000000000000000
 51
0.000000000000000
  0
ARC
  8
0
  6
CONTINUOUS
 62
3
 10
289.297606271067710
 20
-230.352704707715020
 40
3.000000000000000
 50
270.000000000000000
 51
0.000000000000000
  0
ARC
  8
0
  6
CONTINUOUS
 62
3
 10
436.040554549246740
 20
-230.352704707715020
 40
3.000000000000000
 50
180.000000000000000
 51
270.000000000000000
  0
ARC
  8
0
  6
CONTINUOUS
 62
3
 10
451.459869861462720
 20
-230.352704707715020
 40
3.000000000000000
 50
180.000000000000000
 51
270.000000000000000
  0
ARC
  8
0
  6
CONTINUOUS
 62
3
 10
292.922080410156920
 20
-230.352704707715020
 40
3.000000000000000
 50
270.000000000000000
 51
0.000000000000000
  0
ARC
  8
0
  6
CONTINUOUS
 62
3
 10
432.416080410157520
 20
-230.352704707715020
 40
3.000000000000000
 50
180.000000000000000
 51
270.000000000000000
  0
LINE
  8
0
  6
CONTINUOUS
 62
3
 10
16.518979829103046
 20
-231.329137018245090
 11
-10.682918162652641
 21
-233.163966413857450
  0
LINE
  8
0
  6
CONTINUOUS
 62
3
 10
117.518979829103040
 20
-232.305081622962460
 11
144.623678319210740
 21
-233.251598551079040
  0
LINE
  8
0
  6
CONTINUOUS
 62
3
 10
343.669080410156310
 20
-131.352704707715020
 11
351.669080410156310
 21
-131.352704707715020
  0
LINE
  8
0
  6
CONTINUOUS
 62
3
 10
351.669080410156310
 20
-131.352704707715020
 11
351.669080410156310
 21
-121.352704707715020
  0
ARC
  8
0
  6
CONTINUOUS
 62
3
 10
362.669080410156310
 20
-126.352704707715020
 40
16.000000000000192
 50
198.209956864282790
 51
161.790043135717210
  0
LINE
  8
0
  6
CONTINUOUS
 62
3
 10
343.669080410156310
 20
-131.352704707715020
 11
343.669080410156310
 21
-121.352704707715020
  0
LINE
  8
0
  6
CONTINUOUS
 62
3
 10
343.669080410156310
 20
-121.352704707715020
 11
351.669080410156310
 21
-121.352704707715020
  0
CIRCLE
  8
0
  6
CONTINUOUS
 62
3
 10
362.669080410157220
 20
-126.352704707715020
 40
3.323500000000024
  0
CIRCLE
  8
0
  6
CONTINUOUS
 62
4
 10
362.669080410157220
 20
-126.352704707715020
 40
4.000000000000000
  0
LINE
  8
0
  6
DASHDOT
 62
4
 10
362.669080410157220
 20
-7.817735114986135
 11
362.669080410157220
 21
-267.308900498789630
  0
LINE
  8
0
  6
DASHDOT
 62
4
 10
385.836993409038770
 20
-41.352704707715020
 11
338.814479507504070
 21
-41.352704707715020
  0
ARC
  8
0
  6
CONTINUOUS
 62
3
 10
373.169080410157220
 20
-31.352704707715020
 40
10.000000000000000
 50
0.000000000000000
 51
90.000000000000000
  0
LINE
  8
0
  6
CONTINUOUS
 62
3
 10
383.169080410157220
 20
-31.352704707715020
 11
383.169080410157220
 21
-56.352697746850481
  0
CIRCLE
  8
0
  6
CONTINUOUS
 62
3
 10
362.669080410157220
 20
-41.352704707715020
 40
10.000000000000000
  0
LINE
  8
0
  6
CONTINUOUS
 62
3
 10
342.169080410157220
 20
-31.352704707715020
 11
342.169080410157220
 21
-56.850602642634840
  0
ARC
  8
0
  6
CONTINUOUS
 62
3
 10
352.169080410157220
 20
-31.352704707715020
 40
10.000000000000000
 50
90.000000000000000
 51
180.000000000000000
  0
LINE
  8
0
  6
CONTINUOUS
 62
3
 10
373.169080410157220
 20
-21.352704707715020
 11
352.169080410157220
 21
-21.352704707715020
  0
ARC
  8
0
  6
CONTINUOUS
 62
3
 10
362.669080410157220
 20
-556.352704707715020
 40
472.746750336799780
 50
90.000000000000000
 51
91.910213171709955
  0
ARC
  8
0
  6
CONTINUOUS
 62
3
 10
376.669080410157220
 20
-136.586102891896190
 40
52.746750336800233
 50
0.000000000000000
 51
88.089786828289888
  0
ARC
  8
0
  6
CONTINUOUS
 62
3
 10
362.669080410157220
 20
-556.352704707715020
 40
472.746750336800180
 50
88.089786828290045
 51
90.000000000000000
  0
ARC
  8
0
  6
CONTINUOUS
 62
3
 10
362.669080410157220
 20
-556.352704707715020
 40
500.000000000000000
 50
90.000000000000000
 51
91.910213171709970
  0
ARC
  8
0
  6
CONTINUOUS
 62
3
 10
362.669080410157220
 20
-556.352704707715020
 40
500.000000000000060
 50
88.089786828290030
 51
90.000000000000000
  0
ARC
  8
0
  6
CONTINUOUS
 62
3
 10
376.669080410157220
 20
-136.586102891896190
 40
80.000000000000000
 50
0.000000000000000
 51
88.089786828289846
  0
ARC
  8
0
  6
CONTINUOUS
 62
3
 10
159.518979829125780
 20
-126.352704707715020
 40
5.000000000000000
 50
90.000000000000000
 51
270.000000000000000
  0
LINE
  8
0
  6
CONTINUOUS
 62
3
 10
199.518979829124870
 20
-121.352704707715020
 11
159.518979829125780
 21
-121.352704707715020
  0
LINE
  8
0
  6
CONTINUOUS
 62
3
 10
199.518979829124870
 20
-131.352704707715020
 11
159.518979829125780
 21
-131.352704707715020
  0
LINE
  8
0
  6
CONTINUOUS
 62
3
 10
199.518979829124870
 20
-126.352704707715020
 11
199.518979829124870
 21
-110.752704707714650
  0
LINE
  8
0
  6
DASHDOT
 62
4
 10
96.448601441210485
 20
-126.352704707715020
 11
225.092826703164520
 21
-126.352704707715020
  0
LINE
  8
0
  6
CONTINUOUS
 62
3
 10
147.518979829103050
 20
-109.352704707715020
 11
149.318979829125060
 21
-109.352704707715020
  0
LINE
  8
0
  6
CONTINUOUS
 62
3
 10
147.518979829103050
 20
-143.352704707715020
 11
149.318979829125060
 21
-143.352704707715020
  0
LINE
  8
0
  6
CONTINUOUS
 62
3
 10
199.118979829124780
 20
-110.352704707715020
 11
152.078787450260280
 21
-110.352704707715020
  0
LINE
  8
0
  6
CONTINUOUS
 62
3
 10
151.518979829124870
 20
-110.502704707714650
 11
152.078787450260280
 21
-110.352704707715020
  0
LINE
  8
0
  6
CONTINUOUS
 62
3
 10
151.518979829124870
 20
-110.502704707714650
 11
150.318979829125060
 21
-110.502704707714650
  0
LINE
  8
0
  6
CONTINUOUS
 62
3
 10
149.518979829124870
 20
-109.552704707714830
 11
149.518979829124870
 21
-126.352704707715020
  0
ARC
  8
0
  6
CONTINUOUS
 62
3
 10
150.318979829125060
 20
-109.702704707714920
 40
0.800000000000237
 50
183.703196634280290
 51
270.000000000000000
  0
LINE
  8
0
  6
CONTINUOUS
 62
3
 10
149.518979829124870
 20
-109.552704707714830
 11
149.318979829125060
 21
-109.352704707715020
  0
LINE
  8
0
  6
CONTINUOUS
 62
3
 10
151.518979829124870
 20
-142.202704707714930
 11
152.078787450260280
 21
-142.352704707715020
  0
LINE
  8
0
  6
CONTINUOUS
 62
3
 10
199.118979829124780
 20
-142.352704707715020
 11
152.078787450260280
 21
-142.352704707715020
  0
LINE
  8
0
  6
CONTINUOUS
 62
3
 10
151.518979829124870
 20
-142.202704707714930
 11
150.318979829125060
 21
-142.202704707714930
  0
LINE
  8
0
  6
CONTINUOUS
 62
3
 10
149.518979829124870
 20
-143.152704707714750
 11
149.518979829124870
 21
-126.352704707715020
  0
ARC
  8
0
  6
CONTINUOUS
 62
3
 10
150.318979829125060
 20
-143.002704707714660
 40
0.799999999999727
 50
90.000000000000000
 51
176.296803365752200
  0
LINE
  8
0
  6
CONTINUOUS
 62
3
 10
149.518979829124870
 20
-143.152704707714750
 11
149.318979829125060
 21
-143.352704707715020
  0
POLYLINE
  8
0
  6
CONTINUOUS
 62
3
 66
1
  0
VERTEX
  8
0
  6
CONTINUOUS
 62
3
 10
141.733864716768040
 20
-126.352704707715020
  0
VERTEX
  8
0
  6
CONTINUOUS
 62
3
 10
141.502051200416330
 20
-124.401801487553740
  0
VERTEX
  8
0
  6
CONTINUOUS
 62
3
 10
140.815519114792120
 20
-122.525870384064120
  0
VERTEX
  8
0
  6
CONTINUOUS
 62
3
 10
139.700651502934310
 20
-120.797002377518990
  0
VERTEX
  8
0
  6
CONTINUOUS
 62
3
 10
138.200292101941590
 20
-119.281636895849540
  0
VERTEX
  8
0
  6
CONTINUOUS
 62
3
 10
136.372098882182910
 20
-118.038008584689560
  0
VERTEX
  8
0
  6
CONTINUOUS
 62
3
 10
134.286328283831040
 20
-117.113909382602150
  0
VERTEX
  8
0
  6
CONTINUOUS
 62
3
 10
132.023135301266960
 20
-116.544851903682710
  0
VERTEX
  8
0
  6
CONTINUOUS
 62
3
 10
129.669493171597420
 20
-116.352704707715020
  0
VERTEX
  8
0
  6
CONTINUOUS
 62
3
 10
127.315851041927870
 20
-116.544851903682710
  0
VERTEX
  8
0
  6
CONTINUOUS
 62
3
 10
125.052658059363800
 20
-117.113909382602150
  0
VERTEX
  8
0
  6
CONTINUOUS
 62
3
 10
122.966887461011930
 20
-118.038008584689560
  0
VERTEX
  8
0
  6
CONTINUOUS
 62
3
 10
121.138694241253260
 20
-119.281636895849540
  0
VERTEX
  8
0
  6
CONTINUOUS
 62
3
 10
119.638334840260550
 20
-120.797002377518990
  0
VERTEX
  8
0
  6
CONTINUOUS
 62
3
 10
118.523467228402720
 20
-122.525870384064120
  0
VERTEX
  8
0
  6
CONTINUOUS
 62
3
 10
117.836935142778510
 20
-124.401801487553740
  0
VERTEX
  8
0
  6
CONTINUOUS
 62
3
 10
117.605121626426800
 20
-126.352704707715020
  0
SEQEND
  8
0
  6
CONTINUOUS
 62
3
  0
LINE
  8
0
  6
CONTINUOUS
 62
3
 10
145.518979829103050
 20
-96.602704707715020
 11
145.518979829103050
 21
-84.668893158885112
  0
LINE
  8
0
  6
CONTINUOUS
 62
3
 10
145.518979829103050
 20
-160.602693424018070
 11
145.518979829103050
 21
-91.602704707715020
  0
LINE
  8
0
  6
CONTINUOUS
 62
3
 10
147.518979829103050
 20
-92.602704707715020
 11
147.518979829103050
 21
-159.602693424018070
  0
LINE
  8
0
  6
CONTINUOUS
 62
3
 10
145.518979829103050
 20
-160.602693424018070
 11
145.518979829103050
 21
-232.249771032136320
  0
LINE
  8
0
  6
CONTINUOUS
 62
3
 10
147.518979829103050
 20
-159.602693424018070
 11
146.518979829103050
 21
-159.602693424018070
  0
LINE
  8
0
  6
CONTINUOUS
 62
3
 10
146.518979829103050
 20
-92.602704707715020
 11
147.518979829103050
 21
-92.602704707715020
  0
LINE
  8
0
  6
CONTINUOUS
 62
3
 10
141.733864716768040
 20
-126.352704707715020
 11
141.733864716768040
 21
-230.253617711972770
  0
ARC
  8
0
  6
CONTINUOUS
 62
3
 10
90.797311378492850
 20
-127.258434277393910
 40
70.000000000000341
 50
39.469308363517086
 51
88.999999999999716
  0
ARC
  8
0
  6
CONTINUOUS
 62
3
 10
146.518979829103050
 20
-160.602693424018070
 40
1.000000000000000
 50
90.000000000000000
 51
180.000000000000000
  0
ARC
  8
0
  6
CONTINUOUS
 62
3
 10
142.518979829103050
 20
-84.668893158885112
 40
3.000000000000000
 50
0.000000000000000
 51
39.469308363522465
  0
ARC
  8
0
  6
CONTINUOUS
 62
3
 10
146.518979829103050
 20
-91.602704707715020
 40
1.000000000000000
 50
180.000000000000000
 51
270.000000000000000
  0
ARC
  8
0
  6
CONTINUOUS
 62
3
 10
199.118979829124780
 20
-110.752704707714650
 40
0.400000000000091
 50
0.000000000000000
 51
90.000000000000000
  0
LINE
  8
0
  6
CONTINUOUS
 62
3
 10
199.518979829124870
 20
-126.352704707715020
 11
199.518979829124870
 21
-141.952704707714930
  0
ARC
  8
0
  6
CONTINUOUS
 62
3
 10
199.118979829124780
 20
-141.952704707714930
 40
0.400000000000091
 50
270.000000000000000
 51
0.000000000000000
  0
ENDSEC
  0
EOF
