  0
SECTION
  2
HEADER
  9
$FILLMODE
 70
1
  9
$TEXTSTYLE
  7
STANDARD1
  9
$ACADVER
  1
AC1009
  9
$DIMASZ
 40
1.931851648807023
  9
$DIMEXE
 40
2.000000000000000
  9
$DIMEXO
 40
1.000000000000000
  9
$DIMLFAC
 40
1.000000000000000
  9
$DIMSCALE
 40
1.000000000000000
  9
$DIMTAD
 70
1
  9
$DIMTFAC
 40
0.714285731315613
  9
$DIMTXT
 40
3.200000047683716
  9
$LUPREC
 70
3
  9
$TEXTSIZE
 40
2.799999952316284
  9
$REGENMODE
 70
1
  0
ENDSEC
  0
SECTION
  2
TABLES
  0
TABLE
  2
LTYPE
 70
4
  0
LTYPE
  2
CONTINUOUS
 70
64
  3
Solid line
 72
65
 73
0
 40
0.0
  0
LTYPE
  2
DASHED
 70
64
  3
-- -- -- -- -- -- -- -- -- -- -- -- -- -- --
 72
65
 73
2
 40
0.75
 49
0.5
 49
-0.25
  0
LTYPE
  2
DASHDOT
 70
64
  3
__ . __ . __ . __ . __ . __ . __ . __ . __ . __
 72
65
 73
4
 40
1.0
 49
0.5
 49
-0.25
 49
0.0
 49
-0.25
  0
LTYPE
  2
DIVIDE
 70
64
  3
__ . . __ . . __ . . __ . . __ . . __ . . __
 72
65
 73
6
 40
1.25
 49
0.5
 49
-0.25
 49
0.0
 49
-0.25
 49
0.0
 49
-0.25
  0
ENDTAB
  0
TABLE
  2
LAYER
 70
1
  0
LAYER
  2
0
 70
64
 62
2
  6
CONTINUOUS
  0
ENDTAB
  0
TABLE
  2
STYLE
 70
4
  0
STYLE
  2
STANDARD1
 70
64
 40
0.0
 41
1.0
 50
0.0
 71
0
 42
2.799999952316284
  3
MONOTXT
  4
BIGFONT
  0
STYLE
  2
STANDARD2
 70
68
 40
0.0
 41
1.0
 50
0.0
 71
0
 42
2.799999952316284
  3
MONOTXT
  4
BIGFONT
  0
STYLE
  2
STANDARD3
 70
64
 40
0.0
 41
1.0
 50
0.0
 71
0
 42
2.799999952316284
  3
MONOTXT
  4

  0
STYLE
  2
STANDARD4
 70
68
 40
0.0
 41
1.0
 50
0.0
 71
0
 42
2.799999952316284
  3
MONOTXT
  4

  0
ENDTAB
  0
TABLE
  2
VIEW
 70
0
  0
ENDTAB
  0
ENDSEC
  0
SECTION
  2
BLOCKS
  0
BLOCK
  8
0
  2
SYM1
 70
64
 10
0.000000000000000
 20
0.000000000000000
  0
LINE
  8
0
  6
CONTINUOUS
 62
3
 10
-7.499999046325684
 20
6.500000000000000
 11
-7.499999046325684
 21
-6.500000000000000
  0
LINE
  8
0
  6
CONTINUOUS
 62
3
 10
-7.499997911632022
 20
-6.499999445138201
 11
-7.999998623386432
 21
-5.634070287011241
  0
LINE
  8
0
  6
CONTINUOUS
 62
3
 10
-7.499999203818277
 20
6.499999909101064
 11
-7.999999021366804
 21
5.633876130311293
  0
LINE
  8
0
  6
CONTINUOUS
 62
3
 10
-0.000000000000000
 20
-6.500000000000000
 11
-7.499998092651367
 21
-6.500000000000000
  0
LINE
  8
0
  6
CONTINUOUS
 62
3
 10
0.000000000000000
 20
6.500000000000000
 11
-7.499999046325684
 21
6.500000000000000
  0
LINE
  8
0
  6
CONTINUOUS
 62
3
 10
-7.999999046325684
 20
5.633875846862793
 11
-7.999999046325684
 21
-5.634070396423340
  0
LINE
  8
0
  6
CONTINUOUS
 62
3
 10
0.000000000000000
 20
-6.500000000000000
 11
-0.000000000000000
 21
6.500000000000000
  0
POINT
  8
0
  6
CONTINUOUS
 62
3
 10
0.000000000000000
 20
0.000000000000000
  0
ENDBLK
  8
0
  0
BLOCK
  8
0
  2
SYM2
 70
64
 10
0.000000000000000
 20
0.000000000000000
  0
LINE
  8
0
  6
CONTINUOUS
 62
3
 10
-7.499999046325684
 20
6.500000000000000
 11
-7.499999046325684
 21
-6.500000000000000
  0
LINE
  8
0
  6
CONTINUOUS
 62
3
 10
-7.499997911632022
 20
-6.499999445138201
 11
-7.999998623386432
 21
-5.634070287011241
  0
LINE
  8
0
  6
CONTINUOUS
 62
3
 10
-7.499999203818277
 20
6.499999909101064
 11
-7.999999021366804
 21
5.633876130311293
  0
LINE
  8
0
  6
CONTINUOUS
 62
3
 10
-0.000000000000000
 20
-6.500000000000000
 11
-7.499998092651367
 21
-6.500000000000000
  0
LINE
  8
0
  6
CONTINUOUS
 62
3
 10
0.000000000000000
 20
6.500000000000000
 11
-7.499999046325684
 21
6.500000000000000
  0
LINE
  8
0
  6
CONTINUOUS
 62
3
 10
-7.999999046325684
 20
5.633875846862793
 11
-7.999999046325684
 21
-5.634070396423340
  0
LINE
  8
0
  6
CONTINUOUS
 62
3
 10
0.000000000000000
 20
-6.500000000000000
 11
-0.000000000000000
 21
6.500000000000000
  0
POINT
  8
0
  6
CONTINUOUS
 62
3
 10
0.000000000000000
 20
0.000000000000000
  0
ENDBLK
  8
0
  0
BLOCK
  8
0
  2
SYM3
 70
64
 10
0.000000000000000
 20
0.000000000000000
  0
ARC
  8
0
  6
CONTINUOUS
 62
3
 10
1.981662750244141
 20
-0.000008163610801
 40
5.981661796569824
 50
150.999363302540700
 51
209.000072979481700
  0
ARC
  8
0
  6
CONTINUOUS
 62
3
 10
-2.269982337951660
 20
4.325008392333984
 40
1.729999542236328
 50
179.999745461767870
 51
235.499786279783790
  0
ARC
  8
0
  6
CONTINUOUS
 62
3
 10
-2.270017623901367
 20
-4.324990272521973
 40
1.729999542236328
 50
124.499759285265280
 51
179.999745461767870
  0
LINE
  8
0
  6
CONTINUOUS
 62
3
 10
-3.249984168999890
 20
2.900012016287064
 11
0.000013133145058
 21
2.899999618522375
  0
LINE
  8
0
  6
CONTINUOUS
 62
3
 10
-3.250009052584916
 20
-2.899986267083180
 11
-0.000013285950788
 21
-2.899999618524636
  0
LINE
  8
0
  6
CONTINUOUS
 62
3
 10
0.000023687533422
 20
5.749999046325684
 11
-0.000023687533422
 21
-5.749999046325684
  0
LINE
  8
0
  6
CONTINUOUS
 62
3
 10
-3.249972343459831
 20
5.750005722029982
 11
0.000027906669402
 21
5.749993324257003
  0
LINE
  8
0
  6
CONTINUOUS
 62
3
 10
-3.999972830514309
 20
4.900008662670757
 11
-3.249970339875063
 21
5.750006850331147
  0
LINE
  8
0
  6
CONTINUOUS
 62
3
 10
-4.000014781949545
 20
-4.899978112209579
 11
-3.999973773958658
 21
4.900011588107803
  0
LINE
  8
0
  6
CONTINUOUS
 62
3
 10
-3.250024308998832
 20
-5.749987011620533
 11
-4.000020133420207
 21
-4.899982163000686
  0
LINE
  8
0
  6
CONTINUOUS
 62
3
 10
-0.000027060931608
 20
-5.749995231614290
 11
-3.250020760774497
 21
-5.749981880178368
  0
POINT
  8
0
  6
CONTINUOUS
 62
3
 10
0.000000000000000
 20
0.000000000000000
  0
ENDBLK
  8
0
  0
BLOCK
  8
0
  2
SYM4
 70
64
 10
0.000000000000000
 20
0.000000000000000
  0
LINE
  8
0
  6
CONTINUOUS
 62
3
 10
-7.499999046325684
 20
6.500000000000000
 11
-7.499999046325684
 21
-6.500000000000000
  0
LINE
  8
0
  6
CONTINUOUS
 62
3
 10
-7.499997911632022
 20
-6.499999445138201
 11
-7.999998623386432
 21
-5.634070287011241
  0
LINE
  8
0
  6
CONTINUOUS
 62
3
 10
-7.499999203818277
 20
6.499999909101064
 11
-7.999999021366804
 21
5.633876130311293
  0
LINE
  8
0
  6
CONTINUOUS
 62
3
 10
-0.000000000000000
 20
-6.500000000000000
 11
-7.499998092651367
 21
-6.500000000000000
  0
LINE
  8
0
  6
CONTINUOUS
 62
3
 10
0.000000000000000
 20
6.500000000000000
 11
-7.499999046325684
 21
6.500000000000000
  0
LINE
  8
0
  6
CONTINUOUS
 62
3
 10
-7.999999046325684
 20
5.633875846862793
 11
-7.999999046325684
 21
-5.634070396423340
  0
LINE
  8
0
  6
CONTINUOUS
 62
3
 10
0.000000000000000
 20
-6.500000000000000
 11
-0.000000000000000
 21
6.500000000000000
  0
POINT
  8
0
  6
CONTINUOUS
 62
3
 10
0.000000000000000
 20
0.000000000000000
  0
ENDBLK
  8
0
  0
BLOCK
  8
0
  2
SYM5
 70
64
 10
0.000000000000000
 20
0.000000000000000
  0
LINE
  8
0
  6
CONTINUOUS
 62
3
 10
-7.499999046325684
 20
6.500000000000000
 11
-7.499999046325684
 21
-6.500000000000000
  0
LINE
  8
0
  6
CONTINUOUS
 62
3
 10
-7.499997911632022
 20
-6.499999445138201
 11
-7.999998623386432
 21
-5.634070287011241
  0
LINE
  8
0
  6
CONTINUOUS
 62
3
 10
-7.499999203818277
 20
6.499999909101064
 11
-7.999999021366804
 21
5.633876130311293
  0
LINE
  8
0
  6
CONTINUOUS
 62
3
 10
-0.000000000000000
 20
-6.500000000000000
 11
-7.499998092651367
 21
-6.500000000000000
  0
LINE
  8
0
  6
CONTINUOUS
 62
3
 10
0.000000000000000
 20
6.500000000000000
 11
-7.499999046325684
 21
6.500000000000000
  0
LINE
  8
0
  6
CONTINUOUS
 62
3
 10
-7.999999046325684
 20
5.633875846862793
 11
-7.999999046325684
 21
-5.634070396423340
  0
LINE
  8
0
  6
CONTINUOUS
 62
3
 10
0.000000000000000
 20
-6.500000000000000
 11
-0.000000000000000
 21
6.500000000000000
  0
POINT
  8
0
  6
CONTINUOUS
 62
3
 10
0.000000000000000
 20
0.000000000000000
  0
ENDBLK
  8
0
  0
BLOCK
  8
0
  2
SYM6
 70
64
 10
0.000000000000000
 20
0.000000000000000
  0
LINE
  8
0
  6
CONTINUOUS
 62
3
 10
-7.499999046325684
 20
6.500000000000000
 11
-7.499999046325684
 21
-6.500000000000000
  0
LINE
  8
0
  6
CONTINUOUS
 62
3
 10
-7.499997911632022
 20
-6.499999445138201
 11
-7.999998623386432
 21
-5.634070287011241
  0
LINE
  8
0
  6
CONTINUOUS
 62
3
 10
-7.499999203818277
 20
6.499999909101064
 11
-7.999999021366804
 21
5.633876130311293
  0
LINE
  8
0
  6
CONTINUOUS
 62
3
 10
-0.000000000000000
 20
-6.500000000000000
 11
-7.499998092651367
 21
-6.500000000000000
  0
LINE
  8
0
  6
CONTINUOUS
 62
3
 10
0.000000000000000
 20
6.500000000000000
 11
-7.499999046325684
 21
6.500000000000000
  0
LINE
  8
0
  6
CONTINUOUS
 62
3
 10
-7.999999046325684
 20
5.633875846862793
 11
-7.999999046325684
 21
-5.634070396423340
  0
LINE
  8
0
  6
CONTINUOUS
 62
3
 10
0.000000000000000
 20
-6.500000000000000
 11
-0.000000000000000
 21
6.500000000000000
  0
POINT
  8
0
  6
CONTINUOUS
 62
3
 10
0.000000000000000
 20
0.000000000000000
  0
ENDBLK
  8
0
  0
BLOCK
  8
0
  2
SYM7
 70
64
 10
0.000000000000000
 20
0.000000000000000
  0
LINE
  8
0
  6
CONTINUOUS
 62
3
 10
-7.499999046325684
 20
6.500000000000000
 11
-7.499999046325684
 21
-6.500000000000000
  0
LINE
  8
0
  6
CONTINUOUS
 62
3
 10
-7.499997911632022
 20
-6.499999445138201
 11
-7.999998623386432
 21
-5.634070287011241
  0
LINE
  8
0
  6
CONTINUOUS
 62
3
 10
-7.499999203818277
 20
6.499999909101064
 11
-7.999999021366804
 21
5.633876130311293
  0
LINE
  8
0
  6
CONTINUOUS
 62
3
 10
-0.000000000000000
 20
-6.500000000000000
 11
-7.499998092651367
 21
-6.500000000000000
  0
LINE
  8
0
  6
CONTINUOUS
 62
3
 10
0.000000000000000
 20
6.500000000000000
 11
-7.499999046325684
 21
6.500000000000000
  0
LINE
  8
0
  6
CONTINUOUS
 62
3
 10
-7.999999046325684
 20
5.633875846862793
 11
-7.999999046325684
 21
-5.634070396423340
  0
LINE
  8
0
  6
CONTINUOUS
 62
3
 10
0.000000000000000
 20
-6.500000000000000
 11
-0.000000000000000
 21
6.500000000000000
  0
POINT
  8
0
  6
CONTINUOUS
 62
3
 10
0.000000000000000
 20
0.000000000000000
  0
ENDBLK
  8
0
  0
BLOCK
  8
0
  2
SYM8
 70
64
 10
0.000000000000000
 20
0.000000000000000
  0
LINE
  8
0
  6
CONTINUOUS
 62
3
 10
-7.499999046325684
 20
6.500000000000000
 11
-7.499999046325684
 21
-6.500000000000000
  0
LINE
  8
0
  6
CONTINUOUS
 62
3
 10
-7.499997911632022
 20
-6.499999445138201
 11
-7.999998623386432
 21
-5.634070287011241
  0
LINE
  8
0
  6
CONTINUOUS
 62
3
 10
-7.499999203818277
 20
6.499999909101064
 11
-7.999999021366804
 21
5.633876130311293
  0
LINE
  8
0
  6
CONTINUOUS
 62
3
 10
-0.000000000000000
 20
-6.500000000000000
 11
-7.499998092651367
 21
-6.500000000000000
  0
LINE
  8
0
  6
CONTINUOUS
 62
3
 10
0.000000000000000
 20
6.500000000000000
 11
-7.499999046325684
 21
6.500000000000000
  0
LINE
  8
0
  6
CONTINUOUS
 62
3
 10
-7.999999046325684
 20
5.633875846862793
 11
-7.999999046325684
 21
-5.634070396423340
  0
LINE
  8
0
  6
CONTINUOUS
 62
3
 10
0.000000000000000
 20
-6.500000000000000
 11
-0.000000000000000
 21
6.500000000000000
  0
POINT
  8
0
  6
CONTINUOUS
 62
3
 10
0.000000000000000
 20
0.000000000000000
  0
ENDBLK
  8
0
  0
BLOCK
  8
0
  2
SYM9
 70
64
 10
0.000000000000000
 20
0.000000000000000
  0
LINE
  8
0
  6
CONTINUOUS
 62
3
 10
-7.499999046325684
 20
6.500000000000000
 11
-7.499999046325684
 21
-6.500000000000000
  0
LINE
  8
0
  6
CONTINUOUS
 62
3
 10
-7.499997911632022
 20
-6.499999445138201
 11
-7.999998623386432
 21
-5.634070287011241
  0
LINE
  8
0
  6
CONTINUOUS
 62
3
 10
-7.499999203818277
 20
6.499999909101064
 11
-7.999999021366804
 21
5.633876130311293
  0
LINE
  8
0
  6
CONTINUOUS
 62
3
 10
-0.000000000000000
 20
-6.500000000000000
 11
-7.499998092651367
 21
-6.500000000000000
  0
LINE
  8
0
  6
CONTINUOUS
 62
3
 10
0.000000000000000
 20
6.500000000000000
 11
-7.499999046325684
 21
6.500000000000000
  0
LINE
  8
0
  6
CONTINUOUS
 62
3
 10
-7.999999046325684
 20
5.633875846862793
 11
-7.999999046325684
 21
-5.634070396423340
  0
LINE
  8
0
  6
CONTINUOUS
 62
3
 10
0.000000000000000
 20
-6.500000000000000
 11
-0.000000000000000
 21
6.500000000000000
  0
POINT
  8
0
  6
CONTINUOUS
 62
3
 10
0.000000000000000
 20
0.000000000000000
  0
ENDBLK
  8
0
  0
BLOCK
  8
0
  2
SYM10
 70
64
 10
0.000000000000000
 20
0.000000000000000
  0
ARC
  8
0
  6
CONTINUOUS
 62
3
 10
-0.979025304317474
 20
-2.200000762939453
 40
1.299999237060547
 50
196.601531107481040
 51
270.000000000000000
  0
ARC
  8
0
  6
CONTINUOUS
 62
3
 10
-0.979025304317474
 20
2.200000762939453
 40
1.299999237060547
 50
90.000000000000000
 51
163.398451589674950
  0
LINE
  8
0
  6
CONTINUOUS
 62
3
 10
-0.000000000000000
 20
-3.500000000000000
 11
-0.979025304317474
 21
-3.500000000000000
  0
LINE
  8
0
  6
CONTINUOUS
 62
3
 10
0.000000000000000
 20
3.500000000000000
 11
-0.979025304317474
 21
3.500000000000000
  0
LINE
  8
0
  6
CONTINUOUS
 62
3
 10
0.000000000000000
 20
-3.500000000000000
 11
-0.000000000000000
 21
3.500000000000000
  0
LINE
  8
0
  6
CONTINUOUS
 62
3
 10
0.000000000000000
 20
-3.500000000000000
 11
-0.000000000000000
 21
3.500000000000000
  0
POINT
  8
0
  6
CONTINUOUS
 62
3
 10
0.000000000000000
 20
0.000000000000000
  0
ARC
  8
0
  6
CONTINUOUS
 62
3
 10
6.399999618530273
 20
0.000000000000000
 40
9.000000000000000
 50
163.398451589674950
 51
196.601531107481040
  0
ENDBLK
  8
0
  0
BLOCK
  8
0
  2
SYM11
 70
64
 10
0.000000000000000
 20
0.000000000000000
  0
POINT
  8
0
  6
CONTINUOUS
 62
3
 10
0.000000000000000
 20
5.633955001831055
  0
POINT
  8
0
  6
CONTINUOUS
 62
3
 10
0.500000119209290
 20
6.500000000000000
  0
LINE
  8
0
  6
CONTINUOUS
 62
3
 10
-0.000004704988612
 20
-3.464098175748802
 11
-2.999997577100373
 21
-1.732046218032735
  0
LINE
  8
0
  6
CONTINUOUS
 62
3
 10
0.000006618601731
 20
3.464096896385627
 11
2.999997425948948
 21
1.732046782136365
  0
LINE
  8
0
  6
CONTINUOUS
 62
3
 10
2.999998112093635
 20
-1.732051392778772
 11
-0.000004464412200
 21
-3.464098365415111
  0
LINE
  8
0
  6
CONTINUOUS
 62
3
 10
0.000006701720849
 20
3.464096999935236
 11
-2.999997939551520
 21
1.732051821705568
  0
LINE
  8
0
  6
CONTINUOUS
 62
3
 10
2.999996662140697
 20
1.732046953225571
 11
2.999997615814979
 21
-1.732051023458999
  0
LINE
  8
0
  6
CONTINUOUS
 62
3
 10
-2.999996662140960
 20
-1.732045999551255
 11
-2.999997615815242
 21
1.732051977133316
  0
POINT
  8
0
  6
CONTINUOUS
 62
3
 10
0.000000000000000
 20
0.000000000000000
  0
CIRCLE
  8
0
  6
CONTINUOUS
 62
3
 10
0.000000000000000
 20
0.000000000000000
 40
6.500000000000000
  0
CIRCLE
  8
0
  6
CONTINUOUS
 62
3
 10
0.000000000000000
 20
0.000000000000000
 40
5.633955001831055
  0
ENDBLK
  8
0
  0
BLOCK
  8
0
  2
SYM12
 70
64
 10
0.000000000000000
 20
0.000000000000000
  0
POINT
  8
0
  6
CONTINUOUS
 62
3
 10
0.000000000000000
 20
5.633955001831055
  0
POINT
  8
0
  6
CONTINUOUS
 62
3
 10
0.500000119209290
 20
6.500000000000000
  0
LINE
  8
0
  6
CONTINUOUS
 62
3
 10
-0.000004704988612
 20
-3.464098175748802
 11
-2.999997577100373
 21
-1.732046218032735
  0
LINE
  8
0
  6
CONTINUOUS
 62
3
 10
0.000006618601731
 20
3.464096896385627
 11
2.999997425948948
 21
1.732046782136365
  0
LINE
  8
0
  6
CONTINUOUS
 62
3
 10
2.999998112093635
 20
-1.732051392778772
 11
-0.000004464412200
 21
-3.464098365415111
  0
LINE
  8
0
  6
CONTINUOUS
 62
3
 10
0.000006701720849
 20
3.464096999935236
 11
-2.999997939551520
 21
1.732051821705568
  0
LINE
  8
0
  6
CONTINUOUS
 62
3
 10
2.999996662140697
 20
1.732046953225571
 11
2.999997615814979
 21
-1.732051023458999
  0
LINE
  8
0
  6
CONTINUOUS
 62
3
 10
-2.999996662140960
 20
-1.732045999551255
 11
-2.999997615815242
 21
1.732051977133316
  0
POINT
  8
0
  6
CONTINUOUS
 62
3
 10
0.000000000000000
 20
0.000000000000000
  0
CIRCLE
  8
0
  6
CONTINUOUS
 62
3
 10
0.000000000000000
 20
0.000000000000000
 40
6.500000000000000
  0
CIRCLE
  8
0
  6
CONTINUOUS
 62
3
 10
0.000000000000000
 20
0.000000000000000
 40
5.633955001831055
  0
ENDBLK
  8
0
  0
BLOCK
  8
0
  2
SYM13
 70
64
 10
0.000000000000000
 20
0.000000000000000
  0
POINT
  8
0
  6
CONTINUOUS
 62
3
 10
0.000000000000000
 20
5.633955001831055
  0
POINT
  8
0
  6
CONTINUOUS
 62
3
 10
0.500000119209290
 20
6.500000000000000
  0
LINE
  8
0
  6
CONTINUOUS
 62
3
 10
-0.000004704988612
 20
-3.464098175748802
 11
-2.999997577100373
 21
-1.732046218032735
  0
LINE
  8
0
  6
CONTINUOUS
 62
3
 10
0.000006618601731
 20
3.464096896385627
 11
2.999997425948948
 21
1.732046782136365
  0
LINE
  8
0
  6
CONTINUOUS
 62
3
 10
2.999998112093635
 20
-1.732051392778772
 11
-0.000004464412200
 21
-3.464098365415111
  0
LINE
  8
0
  6
CONTINUOUS
 62
3
 10
0.000006701720849
 20
3.464096999935236
 11
-2.999997939551520
 21
1.732051821705568
  0
LINE
  8
0
  6
CONTINUOUS
 62
3
 10
2.999996662140697
 20
1.732046953225571
 11
2.999997615814979
 21
-1.732051023458999
  0
LINE
  8
0
  6
CONTINUOUS
 62
3
 10
-2.999996662140960
 20
-1.732045999551255
 11
-2.999997615815242
 21
1.732051977133316
  0
POINT
  8
0
  6
CONTINUOUS
 62
3
 10
0.000000000000000
 20
0.000000000000000
  0
CIRCLE
  8
0
  6
CONTINUOUS
 62
3
 10
0.000000000000000
 20
0.000000000000000
 40
6.500000000000000
  0
CIRCLE
  8
0
  6
CONTINUOUS
 62
3
 10
0.000000000000000
 20
0.000000000000000
 40
5.633955001831055
  0
ENDBLK
  8
0
  0
BLOCK
  8
0
  2
SYM14
 70
64
 10
0.000000000000000
 20
0.000000000000000
  0
POINT
  8
0
  6
CONTINUOUS
 62
3
 10
0.000000000000000
 20
5.633955001831055
  0
POINT
  8
0
  6
CONTINUOUS
 62
3
 10
0.500000119209290
 20
6.500000000000000
  0
LINE
  8
0
  6
CONTINUOUS
 62
3
 10
-0.000004704988612
 20
-3.464098175748802
 11
-2.999997577100373
 21
-1.732046218032735
  0
LINE
  8
0
  6
CONTINUOUS
 62
3
 10
0.000006618601731
 20
3.464096896385627
 11
2.999997425948948
 21
1.732046782136365
  0
LINE
  8
0
  6
CONTINUOUS
 62
3
 10
2.999998112093635
 20
-1.732051392778772
 11
-0.000004464412200
 21
-3.464098365415111
  0
LINE
  8
0
  6
CONTINUOUS
 62
3
 10
0.000006701720849
 20
3.464096999935236
 11
-2.999997939551520
 21
1.732051821705568
  0
LINE
  8
0
  6
CONTINUOUS
 62
3
 10
2.999996662140697
 20
1.732046953225571
 11
2.999997615814979
 21
-1.732051023458999
  0
LINE
  8
0
  6
CONTINUOUS
 62
3
 10
-2.999996662140960
 20
-1.732045999551255
 11
-2.999997615815242
 21
1.732051977133316
  0
POINT
  8
0
  6
CONTINUOUS
 62
3
 10
0.000000000000000
 20
0.000000000000000
  0
CIRCLE
  8
0
  6
CONTINUOUS
 62
3
 10
0.000000000000000
 20
0.000000000000000
 40
6.500000000000000
  0
CIRCLE
  8
0
  6
CONTINUOUS
 62
3
 10
0.000000000000000
 20
0.000000000000000
 40
5.633955001831055
  0
ENDBLK
  8
0
  0
BLOCK
  8
0
  2
SYM15
 70
64
 10
0.000000000000000
 20
0.000000000000000
  0
POINT
  8
0
  6
CONTINUOUS
 62
3
 10
0.000000000000000
 20
5.633955001831055
  0
POINT
  8
0
  6
CONTINUOUS
 62
3
 10
0.500000119209290
 20
6.500000000000000
  0
LINE
  8
0
  6
CONTINUOUS
 62
3
 10
-0.000004704988612
 20
-3.464098175748802
 11
-2.999997577100373
 21
-1.732046218032735
  0
LINE
  8
0
  6
CONTINUOUS
 62
3
 10
0.000006618601731
 20
3.464096896385627
 11
2.999997425948948
 21
1.732046782136365
  0
LINE
  8
0
  6
CONTINUOUS
 62
3
 10
2.999998112093635
 20
-1.732051392778772
 11
-0.000004464412200
 21
-3.464098365415111
  0
LINE
  8
0
  6
CONTINUOUS
 62
3
 10
0.000006701720849
 20
3.464096999935236
 11
-2.999997939551520
 21
1.732051821705568
  0
LINE
  8
0
  6
CONTINUOUS
 62
3
 10
2.999996662140697
 20
1.732046953225571
 11
2.999997615814979
 21
-1.732051023458999
  0
LINE
  8
0
  6
CONTINUOUS
 62
3
 10
-2.999996662140960
 20
-1.732045999551255
 11
-2.999997615815242
 21
1.732051977133316
  0
POINT
  8
0
  6
CONTINUOUS
 62
3
 10
0.000000000000000
 20
0.000000000000000
  0
CIRCLE
  8
0
  6
CONTINUOUS
 62
3
 10
0.000000000000000
 20
0.000000000000000
 40
6.500000000000000
  0
CIRCLE
  8
0
  6
CONTINUOUS
 62
3
 10
0.000000000000000
 20
0.000000000000000
 40
5.633955001831055
  0
ENDBLK
  8
0
  0
BLOCK
  8
0
  2
SYM16
 70
64
 10
0.000000000000000
 20
0.000000000000000
  0
POINT
  8
0
  6
CONTINUOUS
 62
3
 10
0.000000000000000
 20
5.633955001831055
  0
POINT
  8
0
  6
CONTINUOUS
 62
3
 10
0.500000119209290
 20
6.500000000000000
  0
LINE
  8
0
  6
CONTINUOUS
 62
3
 10
-0.000004704988612
 20
-3.464098175748802
 11
-2.999997577100373
 21
-1.732046218032735
  0
LINE
  8
0
  6
CONTINUOUS
 62
3
 10
0.000006618601731
 20
3.464096896385627
 11
2.999997425948948
 21
1.732046782136365
  0
LINE
  8
0
  6
CONTINUOUS
 62
3
 10
2.999998112093635
 20
-1.732051392778772
 11
-0.000004464412200
 21
-3.464098365415111
  0
LINE
  8
0
  6
CONTINUOUS
 62
3
 10
0.000006701720849
 20
3.464096999935236
 11
-2.999997939551520
 21
1.732051821705568
  0
LINE
  8
0
  6
CONTINUOUS
 62
3
 10
2.999996662140697
 20
1.732046953225571
 11
2.999997615814979
 21
-1.732051023458999
  0
LINE
  8
0
  6
CONTINUOUS
 62
3
 10
-2.999996662140960
 20
-1.732045999551255
 11
-2.999997615815242
 21
1.732051977133316
  0
POINT
  8
0
  6
CONTINUOUS
 62
3
 10
0.000000000000000
 20
0.000000000000000
  0
CIRCLE
  8
0
  6
CONTINUOUS
 62
3
 10
0.000000000000000
 20
0.000000000000000
 40
6.500000000000000
  0
CIRCLE
  8
0
  6
CONTINUOUS
 62
3
 10
0.000000000000000
 20
0.000000000000000
 40
5.633955001831055
  0
ENDBLK
  8
0
  0
BLOCK
  8
0
  2
SYM17
 70
64
 10
0.000000000000000
 20
0.000000000000000
  0
POINT
  8
0
  6
CONTINUOUS
 62
3
 10
0.000000000000000
 20
5.633955001831055
  0
POINT
  8
0
  6
CONTINUOUS
 62
3
 10
0.500000119209290
 20
6.500000000000000
  0
LINE
  8
0
  6
CONTINUOUS
 62
3
 10
-0.000004704988612
 20
-3.464098175748802
 11
-2.999997577100373
 21
-1.732046218032735
  0
LINE
  8
0
  6
CONTINUOUS
 62
3
 10
0.000006618601731
 20
3.464096896385627
 11
2.999997425948948
 21
1.732046782136365
  0
LINE
  8
0
  6
CONTINUOUS
 62
3
 10
2.999998112093635
 20
-1.732051392778772
 11
-0.000004464412200
 21
-3.464098365415111
  0
LINE
  8
0
  6
CONTINUOUS
 62
3
 10
0.000006701720849
 20
3.464096999935236
 11
-2.999997939551520
 21
1.732051821705568
  0
LINE
  8
0
  6
CONTINUOUS
 62
3
 10
2.999996662140697
 20
1.732046953225571
 11
2.999997615814979
 21
-1.732051023458999
  0
LINE
  8
0
  6
CONTINUOUS
 62
3
 10
-2.999996662140960
 20
-1.732045999551255
 11
-2.999997615815242
 21
1.732051977133316
  0
POINT
  8
0
  6
CONTINUOUS
 62
3
 10
0.000000000000000
 20
0.000000000000000
  0
CIRCLE
  8
0
  6
CONTINUOUS
 62
3
 10
0.000000000000000
 20
0.000000000000000
 40
6.500000000000000
  0
CIRCLE
  8
0
  6
CONTINUOUS
 62
3
 10
0.000000000000000
 20
0.000000000000000
 40
5.633955001831055
  0
ENDBLK
  8
0
  0
BLOCK
  8
0
  2
SYM18
 70
64
 10
0.000000000000000
 20
0.000000000000000
  0
POINT
  8
0
  6
CONTINUOUS
 62
3
 10
0.000000000000000
 20
5.633955001831055
  0
POINT
  8
0
  6
CONTINUOUS
 62
3
 10
0.500000119209290
 20
6.500000000000000
  0
LINE
  8
0
  6
CONTINUOUS
 62
3
 10
-0.000004704988612
 20
-3.464098175748802
 11
-2.999997577100373
 21
-1.732046218032735
  0
LINE
  8
0
  6
CONTINUOUS
 62
3
 10
0.000006618601731
 20
3.464096896385627
 11
2.999997425948948
 21
1.732046782136365
  0
LINE
  8
0
  6
CONTINUOUS
 62
3
 10
2.999998112093635
 20
-1.732051392778772
 11
-0.000004464412200
 21
-3.464098365415111
  0
LINE
  8
0
  6
CONTINUOUS
 62
3
 10
0.000006701720849
 20
3.464096999935236
 11
-2.999997939551520
 21
1.732051821705568
  0
LINE
  8
0
  6
CONTINUOUS
 62
3
 10
2.999996662140697
 20
1.732046953225571
 11
2.999997615814979
 21
-1.732051023458999
  0
LINE
  8
0
  6
CONTINUOUS
 62
3
 10
-2.999996662140960
 20
-1.732045999551255
 11
-2.999997615815242
 21
1.732051977133316
  0
POINT
  8
0
  6
CONTINUOUS
 62
3
 10
0.000000000000000
 20
0.000000000000000
  0
CIRCLE
  8
0
  6
CONTINUOUS
 62
3
 10
0.000000000000000
 20
0.000000000000000
 40
6.500000000000000
  0
CIRCLE
  8
0
  6
CONTINUOUS
 62
3
 10
0.000000000000000
 20
0.000000000000000
 40
5.633955001831055
  0
ENDBLK
  8
0
  0
BLOCK
  8
0
  2
SYM19
 70
64
 10
0.000000000000000
 20
0.000000000000000
  0
POINT
  8
0
  6
CONTINUOUS
 62
3
 10
0.000000000000000
 20
5.633955001831055
  0
POINT
  8
0
  6
CONTINUOUS
 62
3
 10
0.500000119209290
 20
6.500000000000000
  0
LINE
  8
0
  6
CONTINUOUS
 62
3
 10
-0.000004704988612
 20
-3.464098175748802
 11
-2.999997577100373
 21
-1.732046218032735
  0
LINE
  8
0
  6
CONTINUOUS
 62
3
 10
0.000006618601731
 20
3.464096896385627
 11
2.999997425948948
 21
1.732046782136365
  0
LINE
  8
0
  6
CONTINUOUS
 62
3
 10
2.999998112093635
 20
-1.732051392778772
 11
-0.000004464412200
 21
-3.464098365415111
  0
LINE
  8
0
  6
CONTINUOUS
 62
3
 10
0.000006701720849
 20
3.464096999935236
 11
-2.999997939551520
 21
1.732051821705568
  0
LINE
  8
0
  6
CONTINUOUS
 62
3
 10
2.999996662140697
 20
1.732046953225571
 11
2.999997615814979
 21
-1.732051023458999
  0
LINE
  8
0
  6
CONTINUOUS
 62
3
 10
-2.999996662140960
 20
-1.732045999551255
 11
-2.999997615815242
 21
1.732051977133316
  0
POINT
  8
0
  6
CONTINUOUS
 62
3
 10
0.000000000000000
 20
0.000000000000000
  0
CIRCLE
  8
0
  6
CONTINUOUS
 62
3
 10
0.000000000000000
 20
0.000000000000000
 40
6.500000000000000
  0
CIRCLE
  8
0
  6
CONTINUOUS
 62
3
 10
0.000000000000000
 20
0.000000000000000
 40
5.633955001831055
  0
ENDBLK
  8
0
  0
BLOCK
  8
0
  2
SYM20
 70
64
 10
0.000000000000000
 20
0.000000000000000
  0
CIRCLE
  8
0
  6
CONTINUOUS
 62
3
 10
0.000000000000000
 20
0.000000000000000
 40
5.000000000000000
  0
LINE
  8
0
  6
CONTINUOUS
 62
3
 10
4.989816965891634
 20
-2.892629271321994
 11
0.010171343047148
 21
-5.767622431692701
  0
LINE
  8
0
  6
CONTINUOUS
 62
3
 10
4.979648434603448
 20
2.874994693650046
 11
4.989821279270270
 21
-2.892629961559101
  0
LINE
  8
0
  6
CONTINUOUS
 62
3
 10
-0.010171198458579
 20
5.767622839547471
 11
4.979645433681753
 21
2.874994469174567
  0
LINE
  8
0
  6
CONTINUOUS
 62
3
 10
-4.989816965891634
 20
2.892629271321994
 11
-0.010171343047148
 21
5.767622431692701
  0
LINE
  8
0
  6
CONTINUOUS
 62
3
 10
-4.979648434603448
 20
-2.874994693650046
 11
-4.989821279270270
 21
2.892629961559101
  0
LINE
  8
0
  6
CONTINUOUS
 62
3
 10
0.010171198458579
 20
-5.767622839547471
 11
-4.979645433681753
 21
-2.874994469174567
  0
POINT
  8
0
  6
CONTINUOUS
 62
3
 10
0.000000000000000
 20
0.000000000000000
  0
ENDBLK
  8
0
  0
BLOCK
  8
0
  2
SYM21
 70
64
 10
0.000000000000000
 20
0.000000000000000
  0
ARC
  8
0
  6
CONTINUOUS
 62
3
 10
-0.979025304317474
 20
-2.200000762939453
 40
1.299999237060547
 50
196.601531107481040
 51
270.000000000000000
  0
ARC
  8
0
  6
CONTINUOUS
 62
3
 10
-0.979025304317474
 20
2.200000762939453
 40
1.299999237060547
 50
90.000000000000000
 51
163.398451589674950
  0
LINE
  8
0
  6
CONTINUOUS
 62
3
 10
-0.000000000000000
 20
-3.500000000000000
 11
-0.979025304317474
 21
-3.500000000000000
  0
LINE
  8
0
  6
CONTINUOUS
 62
3
 10
0.000000000000000
 20
3.500000000000000
 11
-0.979025304317474
 21
3.500000000000000
  0
LINE
  8
0
  6
CONTINUOUS
 62
3
 10
0.000000000000000
 20
-3.500000000000000
 11
-0.000000000000000
 21
3.500000000000000
  0
LINE
  8
0
  6
CONTINUOUS
 62
3
 10
0.000000000000000
 20
-3.500000000000000
 11
-0.000000000000000
 21
3.500000000000000
  0
POINT
  8
0
  6
CONTINUOUS
 62
3
 10
0.000000000000000
 20
0.000000000000000
  0
ARC
  8
0
  6
CONTINUOUS
 62
3
 10
6.399999618530273
 20
0.000000000000000
 40
9.000000000000000
 50
163.398451589674950
 51
196.601531107481040
  0
ENDBLK
  8
0
  0
ENDSEC
  0
SECTION
  2
ENTITIES
  0
LINE
  8
0
  6
CONTINUOUS
 62
3
 10
400.786809986510550
 20
-134.101372442641150
 11
400.786809986510550
 21
-146.101372442641150
  0
LINE
  8
0
  6
CONTINUOUS
 62
3
 10
392.786809986510550
 20
-146.101372442641150
 11
400.786809986510550
 21
-146.101372442641150
  0
ARC
  8
0
  6
CONTINUOUS
 62
3
 10
415.786809986510550
 20
-140.101372442641150
 40
20.000000000000014
 50
197.457603123722070
 51
162.542396876277930
  0
LINE
  8
0
  6
CONTINUOUS
 62
3
 10
392.786809986510550
 20
-134.101372442641150
 11
400.786809986510550
 21
-134.101372442641150
  0
LINE
  8
0
  6
CONTINUOUS
 62
3
 10
392.786809986510550
 20
-134.101372442641150
 11
392.786809986510550
 21
-146.101372442641150
  0
LINE
  8
0
  6
CONTINUOUS
 62
3
 10
248.609053754544960
 20
-146.101372442641150
 11
199.609053754544960
 21
-146.101372442641150
  0
LINE
  8
0
  6
CONTINUOUS
 62
3
 10
248.609053754544960
 20
-134.101372442641150
 11
199.609053754544960
 21
-134.101372442641150
  0
ARC
  8
0
  6
CONTINUOUS
 62
3
 10
199.609053754544960
 20
-140.101372442641150
 40
6.000000000000000
 50
90.000000000000000
 51
270.000000000000000
  0
LINE
  8
0
  6
CONTINUOUS
 62
3
 10
-363.915674778877930
 20
-189.967476410670510
 11
-363.428871387172310
 21
-190.454279802376130
  0
LINE
  8
0
  6
CONTINUOUS
 62
3
 10
-370.562478252291610
 20
-196.614279884084250
 11
-370.075674860585990
 21
-197.101083275789850
  0
LINE
  8
0
  6
CONTINUOUS
 62
3
 10
-363.602536169909110
 20
-190.220023361520900
 11
-370.279635472382040
 21
-196.897122663993830
  0
LINE
  8
0
  6
CONTINUOUS
 62
3
 10
-363.915674778877930
 20
-189.967476410670510
 11
-370.562478252291610
 21
-196.614279884084250
  0
POINT
  8
0
  6
CONTINUOUS
 62
3
 10
-367.239076515584770
 20
-193.290878147377380
  0
ARC
  8
0
  6
CONTINUOUS
 62
3
 10
-369.501818080511780
 20
-191.028136582450340
 40
6.099999427795406
 50
264.601927898108500
 51
5.398089404735109
  0
LINE
  8
0
  6
CONTINUOUS
 62
3
 10
-473.941489661764760
 20
-189.967476410670510
 11
-474.428293053470380
 21
-190.454279802376130
  0
LINE
  8
0
  6
CONTINUOUS
 62
3
 10
-467.294686188351080
 20
-196.614279884084250
 11
-467.781489580056700
 21
-197.101083275789850
  0
LINE
  8
0
  6
CONTINUOUS
 62
3
 10
-474.254628270733580
 20
-190.220023361520900
 11
-467.577528968260650
 21
-196.897122663993830
  0
LINE
  8
0
  6
CONTINUOUS
 62
3
 10
-473.941489661764760
 20
-189.967476410670510
 11
-467.294686188351080
 21
-196.614279884084250
  0
POINT
  8
0
  6
CONTINUOUS
 62
3
 10
-470.618087925057920
 20
-193.290878147377380
  0
ARC
  8
0
  6
CONTINUOUS
 62
3
 10
-468.355346360130910
 20
-191.028136582450340
 40
6.099999427795398
 50
174.601910595264880
 51
275.398072101891500
  0
LINE
  8
0
  6
CONTINUOUS
 62
3
 10
-473.941489661764760
 20
-93.235268474610862
 11
-474.428293053470380
 21
-92.748465082905241
  0
LINE
  8
0
  6
CONTINUOUS
 62
3
 10
-467.294686188351080
 20
-86.588465001197150
 11
-467.781489580056700
 21
-86.101661609491529
  0
LINE
  8
0
  6
CONTINUOUS
 62
3
 10
-474.254628270733580
 20
-92.982721523760489
 11
-467.577528968260650
 21
-86.305622221287578
  0
LINE
  8
0
  6
CONTINUOUS
 62
3
 10
-473.941489661764760
 20
-93.235268474610862
 11
-467.294686188351080
 21
-86.588465001197150
  0
POINT
  8
0
  6
CONTINUOUS
 62
3
 10
-470.618087925057920
 20
-89.911866737904006
  0
ARC
  8
0
  6
CONTINUOUS
 62
3
 10
-468.355346360130910
 20
-92.174608302831047
 40
6.099999427795419
 50
84.601927898108485
 51
185.398089404735120
  0
LINE
  8
0
  6
CONTINUOUS
 62
3
 10
-363.915674778877930
 20
-93.235268474610862
 11
-363.428871387172310
 21
-92.748465082905241
  0
LINE
  8
0
  6
CONTINUOUS
 62
3
 10
-370.562478252291610
 20
-86.588465001197150
 11
-370.075674860585990
 21
-86.101661609491529
  0
LINE
  8
0
  6
CONTINUOUS
 62
3
 10
-363.602536169909110
 20
-92.982721523760489
 11
-370.279635472382040
 21
-86.305622221287578
  0
LINE
  8
0
  6
CONTINUOUS
 62
3
 10
-363.915674778877930
 20
-93.235268474610862
 11
-370.562478252291610
 21
-86.588465001197150
  0
POINT
  8
0
  6
CONTINUOUS
 62
3
 10
-367.239076515584770
 20
-89.911866737904006
  0
ARC
  8
0
  6
CONTINUOUS
 62
3
 10
-369.501818080511780
 20
-92.174608302831047
 40
6.099999427795398
 50
354.601910595264880
 51
95.398072101891515
  0
LINE
  8
0
  6
CONTINUOUS
 62
3
 10
8.892838245936723
 20
-249.411540602118810
 11
-20.516424490784466
 21
-200.554217023372020
  0
ARC
  8
0
  6
CONTINUOUS
 62
3
 10
-23.086698816343478
 20
-202.101372442640580
 40
2.999999999999986
 50
31.045490826863674
 51
90.000000000000000
  0
LINE
  8
0
  6
CONTINUOUS
 62
3
 10
-19.614803937034317
 20
-199.101372442640520
 11
-3.057825324863821
 21
-199.101372442640520
  0
LINE
  8
0
  6
CONTINUOUS
 62
3
 10
-24.390952296661631
 20
-201.542586372926510
 11
-24.390952296661631
 21
-187.798394866907070
  0
LINE
  8
0
  6
CONTINUOUS
 62
3
 10
-19.775895138536448
 20
-201.784451269848430
 11
-51.890952296665382
 21
-200.101372442640920
  0
LINE
  8
0
  6
CONTINUOUS
 62
3
 10
5.609061529380988
 20
-224.965457896011120
 11
-0.163655787718376
 21
-203.421383570863780
  0
LINE
  8
0
  6
CONTINUOUS
 62
3
 10
9.609047703338369
 20
-239.893609526793510
 11
7.668700517548409
 21
-232.652135245101930
  0
ARC
  8
0
  6
CONTINUOUS
 62
3
 10
4.609047703338256
 20
-251.990132967566350
 40
5.000000000000114
 50
0.000000000000000
 51
31.045490826862444
  0
CIRCLE
  8
0
  6
DASHED
 62
4
 10
-146.390952296655430
 20
80.398627557359646
 40
6.000000000000000
  0
ARC
  8
0
  6
DASHED
 62
4
 10
-196.390952296655430
 20
80.398627557359646
 40
7.000000000000000
 50
180.000000000000000
 51
0.000000000000000
  0
ARC
  8
0
  6
DASHED
 62
4
 10
-146.390952296655430
 20
80.398627557359646
 40
7.000000000000000
 50
180.000000000000000
 51
0.000000000000000
  0
LINE
  8
0
  6
DASHDOT
 62
4
 10
-157.674481712382090
 20
80.398627557359646
 11
-135.907504303853900
 21
80.398627557359646
  0
LINE
  8
0
  6
DASHDOT
 62
4
 10
-205.476641403239110
 20
80.398627557359646
 11
-184.990053169529690
 21
80.398627557359646
  0
LINE
  8
0
  6
DASHED
 62
4
 10
-203.390952296655430
 20
80.398627557359646
 11
-203.390952296655430
 21
94.898627557359646
  0
LINE
  8
0
  6
DASHED
 62
4
 10
-189.390952296655430
 20
80.398627557359646
 11
-189.390952296655430
 21
94.898627557359646
  0
LINE
  8
0
  6
DASHED
 62
4
 10
-153.390952296655430
 20
80.398627557359646
 11
-153.390952296655430
 21
94.898627557359646
  0
LINE
  8
0
  6
DASHED
 62
4
 10
-139.390952296655430
 20
80.398627557359646
 11
-139.390952296655430
 21
94.898627557359646
  0
LINE
  8
0
  6
DASHDOT
 62
4
 10
-146.390952296655430
 20
71.454470299683521
 11
-146.390952296655430
 21
93.433972432218866
  0
LINE
  8
0
  6
DASHDOT
 62
4
 10
-196.390952296655430
 20
71.454470299683521
 11
-196.390952296655430
 21
93.002959280215578
  0
LINE
  8
0
  6
CONTINUOUS
 62
4
 10
-200.890952296661510
 20
-84.601372442640582
 11
-51.890952296661624
 21
-84.601372442640582
  0
LINE
  8
0
  6
CONTINUOUS
 62
4
 10
-200.890952296661510
 20
-84.101372442640582
 11
-51.890952296661624
 21
-84.101372442640582
  0
LINE
  8
0
  6
CONTINUOUS
 62
4
 10
-200.890952296661510
 20
-85.601372442640582
 11
-51.890952296661624
 21
-85.601372442640582
  0
LINE
  8
0
  6
CONTINUOUS
 62
4
 10
-200.890952296661510
 20
-86.601372442640582
 11
-51.890952296661624
 21
-86.601372442640582
  0
LINE
  8
0
  6
CONTINUOUS
 62
4
 10
-200.890952296661510
 20
-91.285838255865087
 11
-51.890952296661624
 21
-91.285838255865087
  0
LINE
  8
0
  6
CONTINUOUS
 62
4
 10
-200.890952296661510
 20
-96.235585724170846
 11
-51.890952296661624
 21
-96.235585724170846
  0
LINE
  8
0
  6
CONTINUOUS
 62
4
 10
-209.793944855041620
 20
-104.282187386904630
 11
-51.890952296661624
 21
-104.282187386904630
  0
LINE
  8
0
  6
CONTINUOUS
 62
3
 10
-51.890952296661624
 20
-83.101372442640582
 11
-200.890952296661510
 21
-83.101372442640582
  0
LINE
  8
0
  6
CONTINUOUS
 62
4
 10
-200.890952296661510
 20
-198.601372442640580
 11
-51.890952296661624
 21
-198.601372442640580
  0
LINE
  8
0
  6
CONTINUOUS
 62
4
 10
-200.890952296661510
 20
-199.101372442640580
 11
-51.890952296661624
 21
-199.101372442640580
  0
LINE
  8
0
  6
CONTINUOUS
 62
4
 10
-200.890952296661510
 20
-197.601372442640580
 11
-51.890952296661624
 21
-197.601372442640580
  0
LINE
  8
0
  6
CONTINUOUS
 62
4
 10
-200.890952296661510
 20
-196.601372442640580
 11
-51.890952296661624
 21
-196.601372442640580
  0
LINE
  8
0
  6
CONTINUOUS
 62
4
 10
-200.890952296661510
 20
-191.916906629416080
 11
-51.890952296661624
 21
-191.916906629416080
  0
LINE
  8
0
  6
CONTINUOUS
 62
4
 10
-200.890952296661510
 20
-186.967159161110320
 11
-51.890952296661624
 21
-186.967159161110320
  0
LINE
  8
0
  6
CONTINUOUS
 62
4
 10
-209.793944855041620
 20
-178.920557498376520
 11
-51.890952296661624
 21
-178.920557498376520
  0
LINE
  8
0
  6
CONTINUOUS
 62
4
 10
-210.804616085658320
 20
-177.315909582814470
 11
-51.890952296661624
 21
-177.315909582814470
  0
LINE
  8
0
  6
CONTINUOUS
 62
3
 10
-51.890952296661624
 20
-200.101372442640580
 11
-200.890952296661510
 21
-200.101372442640580
  0
LINE
  8
0
  6
CONTINUOUS
 62
3
 10
56.109047703339286
 20
-245.187826938108630
 11
56.109047703339286
 21
-172.101372442641150
  0
LINE
  8
0
  6
CONTINUOUS
 62
3
 10
56.109047703339286
 20
-55.101393352306332
 11
56.109047703339286
 21
-172.101372442641150
  0
LINE
  8
0
  6
CONTINUOUS
 62
3
 10
45.109047703339286
 20
-257.129624733596760
 11
45.109047703339286
 21
-172.101372442641150
  0
LINE
  8
0
  6
CONTINUOUS
 62
3
 10
43.109047703339286
 20
-137.833411240319040
 11
40.109047703339286
 21
-137.833411240319040
  0
LINE
  8
0
  6
CONTINUOUS
 62
3
 10
38.109047703339286
 20
-114.369309625180900
 11
38.109047703339286
 21
-135.833411240319040
  0
LINE
  8
0
  6
CONTINUOUS
 62
3
 10
43.109047703339286
 20
-112.369309625180900
 11
40.109047703339286
 21
-112.369309625180900
  0
LINE
  8
0
  6
CONTINUOUS
 62
3
 10
45.109047703339286
 20
-58.101372442641150
 11
45.109047703339286
 21
-110.369309625180900
  0
LINE
  8
0
  6
CONTINUOUS
 62
3
 10
45.109047703339286
 20
-139.833411240319040
 11
45.109047703339286
 21
-172.101372442641150
  0
LINE
  8
0
  6
CONTINUOUS
 62
3
 10
56.109047703339286
 20
-55.101372442641150
 11
36.109047703339286
 21
-55.101372442641150
  0
LINE
  8
0
  6
CONTINUOUS
 62
3
 10
19.609047703332919
 20
-255.531498781201660
 11
40.283545186852109
 21
-256.253468142182100
  0
LINE
  8
0
  6
CONTINUOUS
 62
3
 10
33.109047703339286
 20
-58.101351532975968
 11
33.109047703339286
 21
-75.101339523085699
  0
LINE
  8
0
  6
CONTINUOUS
 62
3
 10
36.109047703339286
 20
-80.297512855457171
 11
36.109047703339286
 21
-85.197922838134218
  0
LINE
  8
0
  6
CONTINUOUS
 62
3
 10
19.609047703332919
 20
-88.671181859169337
 11
40.283545186852109
 21
-87.949212498189809
  0
LINE
  8
0
  6
CONTINUOUS
 62
3
 10
28.609047703339286
 20
-20.101360432750880
 11
33.109047703339286
 21
-20.101360432750880
  0
LINE
  8
0
  6
CONTINUOUS
 62
3
 10
33.109047703339286
 20
-58.101372442641150
 11
33.109047703339286
 21
-75.101360432750880
  0
LINE
  8
0
  6
CONTINUOUS
 62
3
 10
28.609047703335648
 20
-78.101360432750880
 11
33.109047703335648
 21
-78.101360432750880
  0
LINE
  8
0
  6
DASHDOT
 62
4
 10
22.878800302522734
 20
-40.101360432750880
 11
40.978066317814239
 21
-40.101360432750880
  0
LINE
  8
0
  6
CONTINUOUS
 62
3
 10
33.109047703339286
 20
-20.101360432750880
 11
33.109047703339286
 21
-78.101360432750880
  0
LINE
  8
0
  6
CONTINUOUS
 62
3
 10
28.609047703335648
 20
-78.101360432750880
 11
28.609047703339286
 21
-20.101360432750880
  0
LINE
  8
0
  6
CONTINUOUS
 62
3
 10
56.609047703339741
 20
-55.101393352306332
 11
56.609047703339286
 21
-140.101372442641150
  0
LINE
  8
0
  6
CONTINUOUS
 62
3
 10
56.609047703339741
 20
-55.101393352306332
 11
121.638762233552650
 21
-56.236491241694239
  0
LINE
  8
0
  6
CONTINUOUS
 62
3
 10
186.609034761125090
 20
-285.101376054541330
 11
-0.390960733831150
 21
-285.101376054541330
  0
LINE
  8
0
  6
CONTINUOUS
 62
3
 10
58.609047703339286
 20
-220.866745044101660
 11
58.609047703339286
 21
-241.693024450421030
  0
LINE
  8
0
  6
CONTINUOUS
 62
3
 10
58.609047703342014
 20
-258.631527249343890
 11
39.609039266168850
 21
-260.070973493156090
  0
LINE
  8
0
  6
CONTINUOUS
 62
3
 10
58.080078018979123
 20
-243.048040985549050
 11
44.211041026400210
 21
-258.104516929506640
  0
LINE
  8
0
  6
CONTINUOUS
 62
3
 10
-0.390960733831150
 20
-285.101399006741300
 11
-0.390960733831150
 21
-266.346254227459210
  0
LINE
  8
0
  6
DASHDOT
 62
4
 10
18.609025638945980
 20
-257.891302184885720
 11
18.609025638945980
 21
-290.553364338772550
  0
LINE
  8
0
  6
CONTINUOUS
 62
3
 10
58.609047703339286
 20
-258.631527249343890
 11
146.609034761125090
 21
-261.704554512665710
  0
LINE
  8
0
  6
CONTINUOUS
 62
3
 10
56.609047703339286
 20
-140.101372442641150
 11
56.609047703339286
 21
-244.645017947403180
  0
LINE
  8
0
  6
CONTINUOUS
 62
3
 10
39.609039266168850
 20
-260.070973493156090
 11
2.844635935691088
 21
-262.856255534217780
  0
ARC
  8
0
  6
CONTINUOUS
 62
3
 10
48.109047703339286
 20
-58.101372442641150
 40
3.000000000000000
 50
90.000000000000000
 51
180.000000000000000
  0
ARC
  8
0
  6
CONTINUOUS
 62
3
 10
43.109047703339286
 20
-110.369309625180900
 40
2.000000000000000
 50
270.000000000000000
 51
0.000000000000000
  0
ARC
  8
0
  6
CONTINUOUS
 62
3
 10
43.109047703339286
 20
-139.833411240319040
 40
2.000000000000000
 50
0.000000000000000
 51
90.000000000000000
  0
ARC
  8
0
  6
CONTINUOUS
 62
3
 10
40.109047703339286
 20
-135.833411240319040
 40
2.000000000000000
 50
180.000000000000000
 51
270.000000000000000
  0
ARC
  8
0
  6
CONTINUOUS
 62
3
 10
40.109047703339286
 20
-114.369309625180900
 40
2.000000000000000
 50
90.000000000000000
 51
180.000000000000000
  0
ARC
  8
0
  6
CONTINUOUS
 62
3
 10
40.109047703339286
 20
-261.250422277276810
 40
4.999999999999993
 50
37.176115582706863
 51
87.999999999996049
  0
ARC
  8
0
  6
CONTINUOUS
 62
3
 10
33.109047703339286
 20
-85.197922838134218
 40
3.000000000000455
 50
272.000000000003350
 51
0.000000000000000
  0
ARC
  8
0
  6
CONTINUOUS
 62
3
 10
36.109047703339286
 20
-58.101351532975968
 40
3.000000000000000
 50
90.000000000000000
 51
180.000000000000000
  0
ARC
  8
0
  6
CONTINUOUS
 62
3
 10
40.109047703339286
 20
-82.952258363094188
 40
5.000000000000153
 50
272.000000000003580
 51
356.081795638019740
  0
ARC
  8
0
  6
CONTINUOUS
 62
3
 10
3.109039266168850
 20
-266.346254227459210
 40
3.499999999999234
 50
94.332468894025979
 51
180.000000000000000
  0
ARC
  8
0
  6
CONTINUOUS
 62
3
 10
56.609047703339286
 20
-220.866745044101660
 40
2.000000000000000
 50
0.000000000000000
 51
90.000000000000000
  0
ARC
  8
0
  6
CONTINUOUS
 62
3
 10
56.609047703339286
 20
-241.693024450421030
 40
1.999999999999826
 50
317.350764207258010
 51
0.000000000000000
  0
ARC
  8
0
  6
CONTINUOUS
 62
3
 10
39.797950079480700
 20
-254.039467324124420
 40
5.999999999999782
 50
274.332468894032670
 51
317.350764207251640
  0
INSERT
  8
0
  2
SYM1
 10
28.609047703336557
 20
-68.101360432750880
  0
ARC
  8
0
  6
CONTINUOUS
 62
3
 10
36.109047703339286
 20
-75.101339523085699
 40
3.000000000000000
 50
180.000000000000000
 51
239.999999999989710
  0
ARC
  8
0
  6
CONTINUOUS
 62
3
 10
33.109047703339286
 20
-80.297512855457171
 40
3.000000000000000
 50
0.000000000000000
 51
59.999999999998380
  0
INSERT
  8
0
  2
SYM2
 10
45.109047703339286
 20
-75.593919941412423
  0
INSERT
  8
0
  2
SYM3
 10
9.609047703338376
 20
-117.300596900683780
  0
INSERT
  8
0
  2
SYM3
 10
9.609047703338376
 20
-226.902147984598510
  0
INSERT
  8
0
  2
SYM4
 10
45.109047703339286
 20
-217.101360432749970
  0
INSERT
  8
0
  2
SYM5
 10
45.109047703339286
 20
-151.101360432749970
  0
LINE
  8
0
  6
CONTINUOUS
 62
3
 10
-51.890952296655541
 20
217.898627557359190
 11
-51.890952296655541
 21
158.398627557359420
  0
LINE
  8
0
  6
CONTINUOUS
 62
3
 10
-51.890952296655541
 20
98.898627557359418
 11
-51.890952296655541
 21
158.398627557359420
  0
LINE
  8
0
  6
CONTINUOUS
 62
3
 10
-200.890952296655430
 20
217.898627557359190
 11
-51.890952296655541
 21
217.898627557359190
  0
LINE
  8
0
  6
CONTINUOUS
 62
3
 10
-133.890952296655430
 20
98.898627557359418
 11
-51.890952296655541
 21
98.898627557359418
  0
LINE
  8
0
  6
CONTINUOUS
 62
4
 10
-200.890952296655430
 20
101.398627557359410
 11
-51.890952296655541
 21
101.398627557359410
  0
LINE
  8
0
  6
CONTINUOUS
 62
4
 10
-200.890952296655430
 20
102.398627557359410
 11
-51.890952296655541
 21
102.398627557359410
  0
LINE
  8
0
  6
CONTINUOUS
 62
4
 10
-200.890952296655430
 20
103.398627557359410
 11
-51.890952296655541
 21
103.398627557359410
  0
LINE
  8
0
  6
CONTINUOUS
 62
4
 10
-200.890952296655430
 20
108.083093370583690
 11
-51.890952296655541
 21
108.083093370583690
  0
LINE
  8
0
  6
CONTINUOUS
 62
4
 10
-200.890952296655430
 20
113.032840838889450
 11
-51.890952296655541
 21
113.032840838889450
  0
LINE
  8
0
  6
CONTINUOUS
 62
4
 10
-200.890952296655430
 20
121.079442501623470
 11
-51.890952296655541
 21
121.079442501623470
  0
LINE
  8
0
  6
CONTINUOUS
 62
4
 10
-200.890952296655430
 20
122.684090417185530
 11
-51.890952296655541
 21
122.684090417185530
  0
LINE
  8
0
  6
CONTINUOUS
 62
4
 10
-200.890952296655430
 20
126.647835840985060
 11
-51.890952296655541
 21
126.647835840985060
  0
LINE
  8
0
  6
CONTINUOUS
 62
4
 10
-200.890952296655430
 20
128.116193230789690
 11
-51.890952296655541
 21
128.116193230789690
  0
LINE
  8
0
  6
CONTINUOUS
 62
4
 10
-200.890952296655430
 20
132.206693764879560
 11
-51.890952296655541
 21
132.206693764879560
  0
LINE
  8
0
  6
CONTINUOUS
 62
4
 10
-200.890952296655430
 20
133.568574100228830
 11
-51.890952296655541
 21
133.568574100228830
  0
LINE
  8
0
  6
CONTINUOUS
 62
4
 10
-200.890952296655430
 20
137.759127831771020
 11
-51.890952296655541
 21
137.759127831771020
  0
LINE
  8
0
  6
CONTINUOUS
 62
4
 10
-200.890952296655430
 20
139.025365747858250
 11
-51.890952296655541
 21
139.025365747858250
  0
LINE
  8
0
  6
CONTINUOUS
 62
4
 10
-200.890952296655430
 20
143.398627557359420
 11
-51.890952296655541
 21
143.398627557359420
  0
LINE
  8
0
  6
CONTINUOUS
 62
4
 10
-200.890952296655430
 20
195.717812613095360
 11
-51.890952296655541
 21
195.717812613095360
  0
LINE
  8
0
  6
CONTINUOUS
 62
4
 10
-200.890952296655430
 20
194.113164697533310
 11
-51.890952296655541
 21
194.113164697533310
  0
LINE
  8
0
  6
CONTINUOUS
 62
4
 10
-200.890952296655430
 20
190.149419273733770
 11
-51.890952296655541
 21
190.149419273733770
  0
LINE
  8
0
  6
CONTINUOUS
 62
4
 10
-200.890952296655430
 20
188.681061883929150
 11
-51.890952296655541
 21
188.681061883929150
  0
LINE
  8
0
  6
CONTINUOUS
 62
4
 10
-200.890952296655430
 20
184.590561349839280
 11
-51.890952296655541
 21
184.590561349839280
  0
LINE
  8
0
  6
CONTINUOUS
 62
4
 10
-200.890952296655430
 20
183.228681014490010
 11
-51.890952296655541
 21
183.228681014490010
  0
LINE
  8
0
  6
CONTINUOUS
 62
4
 10
-200.890952296655430
 20
179.038127282947810
 11
-51.890952296655541
 21
179.038127282947810
  0
LINE
  8
0
  6
CONTINUOUS
 62
4
 10
-200.890952296655430
 20
177.771889366860590
 11
-51.890952296655541
 21
177.771889366860590
  0
LINE
  8
0
  6
CONTINUOUS
 62
4
 10
-200.890952296655430
 20
173.398627557359420
 11
-51.890952296655541
 21
173.398627557359420
  0
LINE
  8
0
  6
CONTINUOUS
 62
4
 10
-200.890952296655430
 20
203.764414275829380
 11
-51.890952296655541
 21
203.764414275829380
  0
LINE
  8
0
  6
CONTINUOUS
 62
4
 10
-200.890952296655430
 20
208.714161744135140
 11
-51.890952296655541
 21
208.714161744135140
  0
LINE
  8
0
  6
CONTINUOUS
 62
4
 10
-200.890952296655430
 20
213.398627557359420
 11
-51.890952296655541
 21
213.398627557359420
  0
LINE
  8
0
  6
CONTINUOUS
 62
4
 10
-200.890952296655430
 20
214.398627557359420
 11
-51.890952296655541
 21
214.398627557359420
  0
LINE
  8
0
  6
CONTINUOUS
 62
4
 10
-200.890952296655430
 20
215.398627557359420
 11
-51.890952296655541
 21
215.398627557359420
  0
LINE
  8
0
  6
CONTINUOUS
 62
3
 10
-133.890952296655430
 20
217.898627557359420
 11
-51.890952296655541
 21
217.898627557359420
  0
LINE
  8
0
  6
CONTINUOUS
 62
3
 10
-76.390952296655541
 20
217.898627557359190
 11
-200.390952296655540
 21
217.898627557359190
  0
LINE
  8
0
  6
DASHDOT
 62
3
 10
-76.390952296655541
 20
217.898627557359190
 11
-76.390952296655541
 21
222.898627557359190
  0
ARC
  8
0
  6
CONTINUOUS
 62
3
 10
-75.390952296655541
 20
241.401497177940090
 40
2.000000000000000
 50
270.000000000000000
 51
0.000000000000000
  0
ARC
  8
0
  6
CONTINUOUS
 62
3
 10
-75.390952296655541
 20
242.200499049058980
 40
2.000000000000000
 50
270.000000000000000
 51
0.000000000000000
  0
ARC
  8
0
  6
CONTINUOUS
 62
3
 10
-75.390952296655541
 20
242.999500920144210
 40
2.000000000000000
 50
270.000000000000000
 51
0.000000000000000
  0
ARC
  8
0
  6
CONTINUOUS
 62
3
 10
-75.390952296655541
 20
244.093137848421410
 40
2.000000000000000
 50
0.000000000000000
 51
90.000000000000000
  0
LINE
  8
0
  6
CONTINUOUS
 62
3
 10
-76.390952296655541
 20
246.093137848421410
 11
-75.390952296655541
 21
246.093137848421410
  0
LINE
  8
0
  6
CONTINUOUS
 62
3
 10
-75.390952296655541
 20
239.401497177940090
 11
-201.390952296655540
 21
239.401497177940090
  0
LINE
  8
0
  6
CONTINUOUS
 62
3
 10
-75.390952296655541
 20
240.200499049042150
 11
-201.390952296655540
 21
240.200499049042150
  0
LINE
  8
0
  6
CONTINUOUS
 62
3
 10
-73.390952296655541
 20
244.093137848421410
 11
-73.390952296655541
 21
241.401497177940090
  0
LINE
  8
0
  6
CONTINUOUS
 62
3
 10
-76.390952296655541
 20
227.898627557359190
 11
-76.390952296655541
 21
239.200499049058980
  0
LINE
  8
0
  6
CONTINUOUS
 62
3
 10
-195.390952296655540
 20
264.498627557359100
 11
-81.390952296655541
 21
264.498627557359100
  0
ARC
  8
0
  6
CONTINUOUS
 62
3
 10
-81.390952296655541
 20
259.498627557359100
 40
5.000000000000000
 50
0.000000000000000
 51
90.000000000000000
  0
LINE
  8
0
  6
CONTINUOUS
 62
3
 10
-75.390952296655541
 20
240.999500920144210
 11
-201.390952296655540
 21
240.999500920144210
  0
ARC
  8
0
  6
CONTINUOUS
 62
3
 10
-81.390952296655541
 20
227.898627557359190
 40
5.000000000000000
 50
270.000000000000000
 51
0.000000000000000
  0
LINE
  8
0
  6
CONTINUOUS
 62
3
 10
-76.390952296655541
 20
246.559652617046030
 11
-76.390952296655541
 21
259.498627557359100
  0
LINE
  8
0
  6
CONTINUOUS
 62
3
 10
-86.890952296655541
 20
242.236198742788360
 11
-86.890952296655541
 21
241.249189004863980
  0
POLYLINE
  8
0
  6
CONTINUOUS
 62
3
 66
1
  0
VERTEX
  8
0
  6
CONTINUOUS
 62
3
 10
-86.890952296655541
 20
241.249189004863980
  0
VERTEX
  8
0
  6
CONTINUOUS
 62
3
 10
-86.823700778066851
 20
241.215090794667990
  0
VERTEX
  8
0
  6
CONTINUOUS
 62
3
 10
-86.624530660445046
 20
241.182302959567350
  0
VERTEX
  8
0
  6
CONTINUOUS
 62
3
 10
-86.301095939714443
 20
241.152085517677340
  0
VERTEX
  8
0
  6
CONTINUOUS
 62
3
 10
-85.865826030808464
 20
241.125599708343630
  0
VERTEX
  8
0
  6
CONTINUOUS
 62
3
 10
-85.335448112224157
 20
241.103863366365540
  0
VERTEX
  8
0
  6
CONTINUOUS
 62
3
 10
-84.730344309933358
 20
241.087711807175370
  0
VERTEX
  8
0
  6
CONTINUOUS
 62
3
 10
-84.073768423711996
 20
241.077765726134910
  0
VERTEX
  8
0
  6
CONTINUOUS
 62
3
 10
-83.390952296655541
 20
241.074407345560760
  0
VERTEX
  8
0
  6
CONTINUOUS
 62
3
 10
-82.708136169599101
 20
241.077765726134910
  0
VERTEX
  8
0
  6
CONTINUOUS
 62
3
 10
-82.051560283377725
 20
241.087711807175370
  0
VERTEX
  8
0
  6
CONTINUOUS
 62
3
 10
-81.446456481086940
 20
241.103863366365540
  0
VERTEX
  8
0
  6
CONTINUOUS
 62
3
 10
-80.916078562502634
 20
241.125599708343630
  0
VERTEX
  8
0
  6
CONTINUOUS
 62
3
 10
-80.480808653596640
 20
241.152085517677340
  0
VERTEX
  8
0
  6
CONTINUOUS
 62
3
 10
-80.157373932866037
 20
241.182302959567350
  0
VERTEX
  8
0
  6
CONTINUOUS
 62
3
 10
-79.958203815244232
 20
241.215090794667990
  0
VERTEX
  8
0
  6
CONTINUOUS
 62
3
 10
-79.890952296655541
 20
241.249189004863980
  0
SEQEND
  8
0
  6
CONTINUOUS
 62
3
  0
LINE
  8
0
  6
CONTINUOUS
 62
3
 10
-79.890952296655541
 20
242.236198742788360
 11
-79.890952296655541
 21
241.249189004863980
  0
ARC
  8
0
  6
CONTINUOUS
 62
3
 10
-85.590952296655360
 20
242.236198742788360
 40
1.300000000000019
 50
106.601549599022360
 51
180.000000000000000
  0
ARC
  8
0
  6
CONTINUOUS
 62
3
 10
-83.390952296655541
 20
234.857174417038890
 40
9.000000000000123
 50
73.398450400980877
 51
106.601549599019120
  0
ARC
  8
0
  6
CONTINUOUS
 62
3
 10
-81.190952296655723
 20
242.236198742788360
 40
1.300000000000182
 50
0.000000000000000
 51
73.398450400977637
  0
ARC
  8
0
  6
CONTINUOUS
 62
3
 10
-81.390952296655541
 20
246.559652617046030
 40
5.000000000000072
 50
287.457603123721870
 51
0.000000000000000
  0
LINE
  8
0
  6
CONTINUOUS
 62
3
 10
-86.890952296655541
 20
241.559652617046030
 11
-189.890952296655540
 21
241.559652617046030
  0
LINE
  8
0
  6
CONTINUOUS
 62
3
 10
-200.390952296655540
 20
222.898627557359190
 11
-76.390952296655541
 21
222.898627557359190
  0
LINE
  8
0
  6
DASHDOT
 62
3
 10
-76.390952296655541
 20
217.898627557359190
 11
-76.390952296655541
 21
222.898627557359190
  0
LINE
  8
0
  6
CONTINUOUS
 62
3
 10
9.609047703344459
 20
158.398627557359420
 11
9.609047703344459
 21
78.144901576698089
  0
LINE
  8
0
  6
CONTINUOUS
 62
3
 10
12.504349213236765
 20
75.146729095640808
 11
19.609047703344459
 21
74.898627557359418
  0
ARC
  8
0
  6
CONTINUOUS
 62
3
 10
12.609047703344459
 20
78.144901576698089
 40
3.000000000000000
 50
180.000000000000000
 51
267.999999999996360
  0
INSERT
  8
0
  2
SYM3
 10
9.609047703344459
 20
103.597852015402050
  0
LINE
  8
0
  6
CONTINUOUS
 62
3
 10
-51.890952296655541
 20
98.898627557359305
 11
5.609531716147785
 21
98.898627557359305
  0
ARC
  8
0
  6
CONTINUOUS
 62
3
 10
4.609047703344459
 20
93.898627557359305
 40
5.000000000000000
 50
0.000000000000000
 51
52.171363151967725
  0
ARC
  8
0
  6
CONTINUOUS
 62
3
 10
4.609047703344459
 20
222.898627557359530
 40
5.000000000000009
 50
307.828636848032320
 51
0.000000000000000
  0
LINE
  8
0
  6
CONTINUOUS
 62
3
 10
-51.890952296655541
 20
217.898627557359530
 11
5.609033761447108
 21
217.898627557359530
  0
LINE
  8
0
  6
CONTINUOUS
 62
3
 10
12.504349213236765
 20
241.650526019078030
 11
19.609047703344459
 21
241.898627557359420
  0
LINE
  8
0
  6
CONTINUOUS
 62
3
 10
9.609047703344459
 20
158.398627557359420
 11
9.609047703344459
 21
238.652353538020750
  0
ARC
  8
0
  6
CONTINUOUS
 62
3
 10
12.609047703344459
 20
238.652353538020750
 40
3.000000000000001
 50
92.000000000003652
 51
180.000000000000000
  0
INSERT
  8
0
  2
SYM3
 10
9.609047703344459
 20
213.199403099316780
 41
-1.000000000000000
 50
180.000000000000000
  0
INSERT
  8
0
  2
SYM6
 10
28.609047703335591
 20
147.898627557359530
 50
0.000000000000014
  0
INSERT
  8
0
  2
SYM7
 10
45.109047703346050
 20
91.398627557359532
 50
0.000000000000014
  0
LINE
  8
0
  6
CONTINUOUS
 62
3
 10
56.109047703346050
 20
41.398627557359987
 11
56.109047703345595
 21
158.398627557359530
  0
ARC
  8
0
  6
CONTINUOUS
 62
3
 10
40.109047703346050
 20
67.398627557359532
 40
2.000000000000000
 50
90.000000000000000
 51
180.000000000000000
  0
LINE
  8
0
  6
CONTINUOUS
 62
3
 10
43.109047703346050
 20
69.398627557359077
 11
40.109047703346050
 21
69.398627557359532
  0
ARC
  8
0
  6
CONTINUOUS
 62
3
 10
43.109047703346050
 20
71.398627557359077
 40
2.000000000000000
 50
270.000000000000000
 51
0.000000000000000
  0
LINE
  8
0
  6
CONTINUOUS
 62
3
 10
38.109047703346050
 20
67.398627557359532
 11
38.109047703346050
 21
44.398627557359532
  0
LINE
  8
0
  6
CONTINUOUS
 62
3
 10
56.109047703346050
 20
41.398627557359987
 11
41.109047703346050
 21
41.398627557359532
  0
ARC
  8
0
  6
CONTINUOUS
 62
3
 10
41.109047703346050
 20
44.398627557359532
 40
3.000000000000000
 50
180.000000000000000
 51
270.000000000000000
  0
LINE
  8
0
  6
CONTINUOUS
 62
3
 10
37.109048657020367
 20
58.032503404222325
 11
37.109048657020367
 21
46.764557160936192
  0
LINE
  8
0
  6
CONTINUOUS
 62
3
 10
37.609049294878105
 20
58.898627581427945
 11
37.109049268731042
 21
58.032503441293784
  0
LINE
  8
0
  6
CONTINUOUS
 62
3
 10
37.609049921505402
 20
45.898627580060520
 11
37.109048971312177
 21
46.764557151129111
  0
LINE
  8
0
  6
CONTINUOUS
 62
3
 10
37.609048657020367
 20
58.898627557359532
 11
37.609048657020367
 21
45.898627557359532
  0
LINE
  8
0
  6
CONTINUOUS
 62
3
 10
38.109047703348097
 20
45.898627557359532
 11
37.609049610694683
 21
45.898627557359532
  0
LINE
  8
0
  6
CONTINUOUS
 62
3
 10
38.109047703347869
 20
58.898627557359532
 11
37.609048657020367
 21
58.898627557359532
  0
ARC
  8
0
  6
CONTINUOUS
 62
3
 10
48.109047703346050
 20
44.398627557359532
 40
3.000000000000000
 50
180.000000000000000
 51
270.000000000000000
  0
ARC
  8
0
  6
CONTINUOUS
 62
3
 10
42.109047703346050
 20
134.898627557359530
 40
3.000000000000000
 50
0.000000000000000
 51
90.000000000000000
  0
ARC
  8
0
  6
CONTINUOUS
 62
3
 10
36.109047703346050
 20
140.898627557359530
 40
3.000000000000000
 50
180.000000000000000
 51
270.000000000000000
  0
LINE
  8
0
  6
CONTINUOUS
 62
3
 10
33.109047703346050
 20
158.398627557359530
 11
33.109047703346050
 21
137.898627557359530
  0
LINE
  8
0
  6
CONTINUOUS
 62
3
 10
28.609047703335136
 20
137.898627557359530
 11
28.609047703336500
 21
158.398627557359530
  0
LINE
  8
0
  6
CONTINUOUS
 62
3
 10
28.609047703335136
 20
137.898627557359530
 11
33.109047703346050
 21
137.898627557359530
  0
LINE
  8
0
  6
CONTINUOUS
 62
3
 10
36.109047703346050
 20
137.898627557359530
 11
42.109047703346050
 21
137.898627557359530
  0
LINE
  8
0
  6
CONTINUOUS
 62
3
 10
45.109047703346050
 20
44.398627557359532
 11
45.109047703346050
 21
134.898627557359530
  0
LINE
  8
0
  6
CONTINUOUS
 62
3
 10
19.609047703339229
 20
74.968501218798565
 11
40.283545186858419
 21
74.246531857818127
  0
LINE
  8
0
  6
CONTINUOUS
 62
3
 10
19.609047703339229
 20
74.968501218798565
 11
19.609047703344686
 21
158.398627557359420
  0
ARC
  8
0
  6
CONTINUOUS
 62
3
 10
40.109047703345595
 20
69.249577722723416
 40
4.999999999999970
 50
15.348930286009365
 51
87.999999999996049
  0
INSERT
  8
0
  2
SYM8
 10
28.609047703335591
 20
168.898627557359530
 41
-1.000000000000000
 50
180.000000000000000
  0
INSERT
  8
0
  2
SYM9
 10
45.109047703346050
 20
225.398627557359530
 41
-1.000000000000000
 50
180.000000000000000
  0
LINE
  8
0
  6
CONTINUOUS
 62
3
 10
56.109047703345823
 20
275.398627557358960
 11
56.109047703345595
 21
158.398627557359530
  0
ARC
  8
0
  6
CONTINUOUS
 62
3
 10
40.109047703346050
 20
249.398627557359420
 40
2.000000000000000
 50
180.000000000000000
 51
270.000000000000000
  0
LINE
  8
0
  6
CONTINUOUS
 62
3
 10
43.109047703346050
 20
247.398627557359870
 11
40.109047703346050
 21
247.398627557359420
  0
ARC
  8
0
  6
CONTINUOUS
 62
3
 10
43.109047703346050
 20
245.398627557359870
 40
2.000000000000000
 50
0.000000000000000
 51
90.000000000000000
  0
LINE
  8
0
  6
CONTINUOUS
 62
3
 10
38.109047703346050
 20
249.398627557359420
 11
38.109047703345823
 21
272.398627557359420
  0
LINE
  8
0
  6
CONTINUOUS
 62
3
 10
56.109047703345823
 20
275.398627557358960
 11
41.109047703345823
 21
275.398627557359420
  0
ARC
  8
0
  6
CONTINUOUS
 62
3
 10
41.109047703345823
 20
272.398627557359420
 40
3.000000000000000
 50
90.000000000000000
 51
180.000000000000000
  0
LINE
  8
0
  6
CONTINUOUS
 62
3
 10
37.109048657020139
 20
258.764751710496630
 11
37.109048657020139
 21
270.032697953782760
  0
LINE
  8
0
  6
CONTINUOUS
 62
3
 10
37.609049294877877
 20
257.898627533291010
 11
37.109049268730814
 21
258.764751673425170
  0
LINE
  8
0
  6
CONTINUOUS
 62
3
 10
37.609049921505175
 20
270.898627534658430
 11
37.109048971311950
 21
270.032697963589840
  0
LINE
  8
0
  6
CONTINUOUS
 62
3
 10
37.609048657020139
 20
257.898627557359420
 11
37.609048657020139
 21
270.898627557359420
  0
LINE
  8
0
  6
CONTINUOUS
 62
3
 10
38.109047703345823
 20
270.898627557359420
 11
37.609049610694456
 21
270.898627557359420
  0
LINE
  8
0
  6
CONTINUOUS
 62
3
 10
38.109047703346050
 20
257.898627557359420
 11
37.609048657020139
 21
257.898627557359420
  0
ARC
  8
0
  6
CONTINUOUS
 62
3
 10
48.109047703345823
 20
272.398627557359420
 40
3.000000000000000
 50
90.000000000000000
 51
180.000000000000000
  0
ARC
  8
0
  6
CONTINUOUS
 62
3
 10
42.109047703346050
 20
181.898627557359530
 40
3.000000000000000
 50
270.000000000000000
 51
0.000000000000000
  0
ARC
  8
0
  6
CONTINUOUS
 62
3
 10
36.109047703346050
 20
175.898627557359530
 40
3.000000000000000
 50
90.000000000000000
 51
180.000000000000000
  0
LINE
  8
0
  6
CONTINUOUS
 62
3
 10
33.109047703346050
 20
158.398627557359530
 11
33.109047703346050
 21
178.898627557359530
  0
LINE
  8
0
  6
CONTINUOUS
 62
3
 10
28.609047703335136
 20
178.898627557359530
 11
28.609047703336500
 21
158.398627557359530
  0
LINE
  8
0
  6
CONTINUOUS
 62
3
 10
28.609047703335136
 20
178.898627557359530
 11
33.109047703346050
 21
178.898627557359530
  0
LINE
  8
0
  6
CONTINUOUS
 62
3
 10
36.109047703346050
 20
178.898627557359530
 11
42.109047703346050
 21
178.898627557359530
  0
LINE
  8
0
  6
CONTINUOUS
 62
3
 10
45.109047703345823
 20
272.398627557359420
 11
45.109047703346050
 21
181.898627557359530
  0
LINE
  8
0
  6
CONTINUOUS
 62
3
 10
19.609047703339229
 20
241.828753895920390
 11
40.283545186858419
 21
242.550723256900820
  0
LINE
  8
0
  6
CONTINUOUS
 62
3
 10
19.609047703339229
 20
241.828753895920390
 11
19.609047703344459
 21
158.398627557359420
  0
ARC
  8
0
  6
CONTINUOUS
 62
3
 10
40.109047703345595
 20
247.547677391995530
 40
4.999999999999244
 50
272.000000000003920
 51
344.651069713993190
  0
LINE
  8
0
  6
CONTINUOUS
 62
3
 10
-0.390946245454188
 20
245.815472693618740
 11
-0.390946245454188
 21
275.695845521368600
  0
LINE
  8
0
  6
DASHDOT
 62
4
 10
36.109053754545812
 20
265.898630235120090
 11
1.109053754545812
 21
265.898630235120090
  0
LINE
  8
0
  6
DASHDOT
 62
4
 10
18.609053754545812
 20
283.398630235120090
 11
18.609053754545812
 21
251.935397503679840
  0
LINE
  8
0
  6
CONTINUOUS
 62
3
 10
56.609053754545812
 20
275.398627557359420
 11
121.644860943074260
 21
274.263423320224890
  0
LINE
  8
0
  6
CONTINUOUS
 62
3
 10
7.616821301569644
 20
252.127267634853180
 11
36.872174062068780
 21
251.616613552920740
  0
LINE
  8
0
  6
CONTINUOUS
 62
3
 10
56.609047703345823
 20
158.398627557359420
 11
56.609047703345823
 21
275.398627557359420
  0
LINE
  8
0
  6
CONTINUOUS
 62
3
 10
7.616821301569644
 20
64.669987479865654
 11
36.872174062068780
 21
65.180641561798097
  0
CIRCLE
  8
0
  6
CONTINUOUS
 62
3
 10
18.609053754545812
 20
265.898630235120090
 40
7.500000000000000
  0
LINE
  8
0
  6
CONTINUOUS
 62
3
 10
178.748673006043420
 20
283.535834127360090
 11
58.609053754545812
 21
285.632878981843190
  0
ARC
  8
0
  6
CONTINUOUS
 62
3
 10
7.609053754545812
 20
275.695845521368600
 40
7.999999999999988
 50
92.168675586611627
 51
180.000000000000000
  0
LINE
  8
0
  6
CONTINUOUS
 62
3
 10
7.306321816930677
 20
283.690115555208310
 11
58.609053754545812
 21
285.632878981843190
  0
LINE
  8
0
  6
DASHDOT
 62
4
 10
36.109053754545812
 20
50.898624879598742
 11
1.109053754545812
 21
50.898624879598742
  0
LINE
  8
0
  6
DASHDOT
 62
4
 10
18.609053754545812
 20
251.935397503679840
 11
18.609053754545812
 21
248.398630235120090
  0
ARC
  8
0
  6
CONTINUOUS
 62
3
 10
7.609053754545812
 20
70.537047459681730
 40
8.000000000000108
 50
91.000000000001762
 51
180.000000000000000
  0
LINE
  8
0
  6
CONTINUOUS
 62
3
 10
7.469434503047296
 20
78.535829020932965
 11
9.609053754544448
 21
78.573176213889496
  0
LINE
  8
0
  6
CONTINUOUS
 62
3
 10
7.469434503047296
 20
238.261426093785870
 11
9.609053754544448
 21
238.224078900829340
  0
ARC
  8
0
  6
CONTINUOUS
 62
3
 10
7.609053754545812
 20
246.260207655037110
 40
8.000000000000000
 50
180.000000000000000
 51
268.999999999998240
  0
LINE
  8
0
  6
CONTINUOUS
 62
3
 10
56.609053754545812
 20
41.398627557359418
 11
121.644860943074260
 21
42.533831794493949
  0
LINE
  8
0
  6
CONTINUOUS
 62
3
 10
-0.390946245454188
 20
70.537047459681730
 11
-0.390946245454188
 21
40.815467587192529
  0
LINE
  8
0
  6
CONTINUOUS
 62
3
 10
56.609047703345823
 20
158.398627557359420
 11
56.609047703345823
 21
41.398627557359418
  0
LINE
  8
0
  6
CONTINUOUS
 62
3
 10
178.748673006043420
 20
33.261420987358747
 11
58.609053754545812
 21
31.164376132875645
  0
LINE
  8
0
  6
DASHDOT
 62
4
 10
18.609053754545812
 20
33.398624879598742
 11
18.609053754545812
 21
68.398624879598742
  0
CIRCLE
  8
0
  6
CONTINUOUS
 62
3
 10
18.609053754545812
 20
50.898624879598742
 40
7.500000000000000
  0
LINE
  8
0
  6
CONTINUOUS
 62
3
 10
7.306321816930677
 20
33.107139559510529
 11
58.609053754545812
 21
31.164376132875645
  0
ARC
  8
0
  6
CONTINUOUS
 62
3
 10
7.609053754545812
 20
41.101409593350240
 40
8.000000000000000
 50
180.000000000000000
 51
267.831324413388360
  0
LINE
  8
0
  6
DASHDOT
 62
4
 10
-272.747402824762050
 20
158.398627557359420
 11
265.624043996047250
 21
158.398627557359420
  0
LINE
  8
0
  6
DASHDOT
 62
4
 10
-36.277160591514246
 20
-141.601372442640580
 11
-268.203727685831840
 21
-141.601372442640580
  0
LINE
  8
0
  6
CONTINUOUS
 62
4
 10
-210.890952296661400
 20
-173.352164159014930
 11
-51.890952296661624
 21
-173.352164159014930
  0
LINE
  8
0
  6
CONTINUOUS
 62
4
 10
-133.890952296661510
 20
-161.601372442640580
 11
-51.890952296661624
 21
-161.601372442640580
  0
LINE
  8
0
  6
CONTINUOUS
 62
4
 10
-133.890952296661510
 20
-167.793306235120210
 11
-51.890952296661624
 21
-167.793306235120210
  0
LINE
  8
0
  6
CONTINUOUS
 62
4
 10
-133.890952296661510
 20
-166.431425899770940
 11
-51.890952296661624
 21
-166.431425899770940
  0
LINE
  8
0
  6
CONTINUOUS
 62
4
 10
-134.050355511755410
 20
-171.883806769209850
 11
-51.890952296661624
 21
-171.883806769209850
  0
LINE
  8
0
  6
CONTINUOUS
 62
4
 10
-210.890952296661400
 20
-109.850580726266230
 11
-51.890952296661624
 21
-109.850580726266230
  0
LINE
  8
0
  6
CONTINUOUS
 62
4
 10
-210.804616085658320
 20
-105.886835302466690
 11
-51.890952296661624
 21
-105.886835302466690
  0
LINE
  8
0
  6
CONTINUOUS
 62
4
 10
-133.890952296661510
 20
-121.601372442640580
 11
-51.890952296661624
 21
-121.601372442640580
  0
LINE
  8
0
  6
CONTINUOUS
 62
4
 10
-133.890952296661510
 20
-115.409438650160950
 11
-51.890952296661624
 21
-115.409438650160950
  0
LINE
  8
0
  6
CONTINUOUS
 62
4
 10
-133.890952296661510
 20
-116.771318985510220
 11
-51.890952296661624
 21
-116.771318985510220
  0
LINE
  8
0
  6
CONTINUOUS
 62
4
 10
-134.050355511755410
 20
-111.318938116071300
 11
-51.890952296661624
 21
-111.318938116071300
  0
LINE
  8
0
  6
CONTINUOUS
 62
3
 10
-38.152632077876319
 20
-82.381377588894736
 11
-51.890952296661624
 21
-83.101372442640582
  0
LINE
  8
0
  6
CONTINUOUS
 62
3
 10
-51.890952296661624
 20
-200.101372442640870
 11
-51.890952296661624
 21
-83.101372442640240
  0
LINE
  8
0
  6
CONTINUOUS
 62
3
 10
4.609047703338376
 20
-106.101372442641090
 11
-27.890952296662192
 21
-106.101372442641090
  0
LINE
  8
0
  6
CONTINUOUS
 62
3
 10
4.750930880587532
 20
-95.101372442640866
 11
-27.890952296661737
 21
-95.101372442640866
  0
LINE
  8
0
  6
CONTINUOUS
 62
3
 10
-32.890952296663471
 20
-132.101372442640700
 11
-32.890952296661737
 21
-90.101372442640638
  0
ARC
  8
0
  6
CONTINUOUS
 62
3
 10
-27.890952296662192
 20
-101.101372442641090
 40
5.000000000000000
 50
179.999999999997410
 51
270.000000000000000
  0
ARC
  8
0
  6
CONTINUOUS
 62
3
 10
-27.890952296661737
 20
-90.101372442640866
 40
5.000000000000000
 50
179.999999999997410
 51
270.000000000000000
  0
LINE
  8
0
  6
CONTINUOUS
 62
3
 10
-32.890952296661737
 20
-90.101372442640638
 11
-32.890952296661624
 21
-87.374525262667817
  0
ARC
  8
0
  6
CONTINUOUS
 62
3
 10
-37.890952296661624
 20
-87.374525262667646
 40
5.000000000000000
 50
359.999999999998070
 51
92.999999999999716
  0
LINE
  8
0
  6
CONTINUOUS
 62
3
 10
9.609047703338376
 20
-239.893609526793230
 11
9.609047703338376
 21
-252.355098423302190
  0
LINE
  8
0
  6
CONTINUOUS
 62
3
 10
19.609047703338376
 20
-255.601372442640870
 11
19.609047703338376
 21
-243.101372442640640
  0
LINE
  8
0
  6
CONTINUOUS
 62
3
 10
12.504349213230853
 20
-255.353270904359480
 11
19.609047703338376
 21
-255.601372442640870
  0
LINE
  8
0
  6
CONTINUOUS
 62
3
 10
9.609047703338376
 20
-91.601372442640866
 11
9.609047703338376
 21
-239.893609526793110
  0
LINE
  8
0
  6
CONTINUOUS
 62
3
 10
12.609047703338376
 20
-88.601372442640866
 11
19.609047703338376
 21
-88.601372442640866
  0
ARC
  8
0
  6
CONTINUOUS
 62
3
 10
12.609047703338376
 20
-91.601372442640866
 40
3.000000000000000
 50
90.000000000000000
 51
180.000000000000000
  0
ARC
  8
0
  6
CONTINUOUS
 62
3
 10
4.750930880587532
 20
-90.101372442640866
 40
5.000000000000000
 50
270.000000000000000
 51
349.193077125139720
  0
LINE
  8
0
  6
DASHDOT
 62
4
 10
-10.390952296661624
 20
-119.845484434360000
 11
-10.390952296661624
 21
-88.604716242789436
  0
ARC
  8
0
  6
CONTINUOUS
 62
3
 10
12.609047703338376
 20
-252.355098423302190
 40
3.000000000000000
 50
180.000000000000000
 51
267.999999999999600
  0
ARC
  8
0
  6
CONTINUOUS
 62
3
 10
4.609047703338376
 20
-101.101372442641090
 40
5.000000000000000
 50
270.000000000000000
 51
0.000000000000000
  0
POINT
  8
0
  6
CONTINUOUS
 62
3
 10
9.609047703338376
 20
-250.601372442640870
  0
LINE
  8
0
  6
CONTINUOUS
 62
3
 10
-27.890952296663471
 20
-137.101372442640920
 11
6.609047703338376
 21
-137.101372442640920
  0
ARC
  8
0
  6
CONTINUOUS
 62
3
 10
6.609047703338376
 20
-134.101372442640920
 40
3.000000000000000
 50
270.000000000000000
 51
0.000000000000000
  0
ARC
  8
0
  6
CONTINUOUS
 62
3
 10
-27.890952296663471
 20
-132.101372442640920
 40
5.000000000000000
 50
179.999999999997410
 51
270.000000000000000
  0
LINE
  8
0
  6
CONTINUOUS
 62
3
 10
-32.890952296663045
 20
-121.601372442642680
 11
-51.890952296661624
 21
-121.601372442642680
  0
LINE
  8
0
  6
CONTINUOUS
 62
3
 10
-51.890952296661624
 20
-161.601372442642680
 11
6.609047703338376
 21
-161.601372442642680
  0
ARC
  8
0
  6
CONTINUOUS
 62
3
 10
6.609047703338376
 20
-164.601372442642680
 40
3.000000000000000
 50
0.000000000000000
 51
90.000000000000000
  0
LINE
  8
0
  6
CONTINUOUS
 62
3
 10
-51.890952296661624
 20
-182.798394866906680
 11
-29.390952296661624
 21
-182.798394866906730
  0
ARC
  8
0
  6
CONTINUOUS
 62
3
 10
-29.390952296661624
 20
-187.798394866906730
 40
5.000000000000000
 50
0.000000000000000
 51
90.000000000000000
  0
LINE
  8
0
  6
CONTINUOUS
 62
3
 10
19.609047703338376
 20
-88.601372442640866
 11
19.609047703338376
 21
-243.101372442640640
  0
ARC
  8
0
  6
CONTINUOUS
 62
3
 10
-37.890952296668793
 20
103.898627557359300
 40
5.000000000000000
 50
270.000000000000000
 51
0.000000000000000
  0
ARC
  8
0
  6
CONTINUOUS
 62
3
 10
-37.890952296668793
 20
212.898627557359530
 40
5.000000000000000
 50
0.000000000000000
 51
90.000000000000000
  0
ARC
  8
0
  6
CONTINUOUS
 62
3
 10
-29.890952296668793
 20
176.398627557359530
 40
3.000000000000000
 50
180.000000000000000
 51
270.000000000000000
  0
ARC
  8
0
  6
CONTINUOUS
 62
3
 10
-29.890952296668793
 20
140.398627557359300
 40
3.000000000000000
 50
90.000000000000000
 51
180.000000000000000
  0
LINE
  8
0
  6
CONTINUOUS
 62
3
 10
-32.890952296668793
 20
212.898627557359530
 11
-32.890952296668793
 21
158.398627557359420
  0
LINE
  8
0
  6
CONTINUOUS
 62
3
 10
-32.890952296668793
 20
158.398627557359420
 11
-32.890952296668793
 21
103.898627557359300
  0
ARC
  8
0
  6
CONTINUOUS
 62
3
 10
6.609047703338383
 20
176.398627557359530
 40
3.000000000000000
 50
270.000000000000000
 51
0.000000000000000
  0
LINE
  8
0
  6
CONTINUOUS
 62
3
 10
-29.890952296668793
 20
173.398627557359530
 11
6.609047703338383
 21
173.398627557359530
  0
CIRCLE
  8
0
  6
CONTINUOUS
 62
3
 10
-10.390952296661617
 20
158.398627557359420
 40
10.500000000000000
  0
LINE
  8
0
  6
DASHDOT
 62
4
 10
-10.390952296661617
 20
141.646289116461500
 11
-10.390952296661617
 21
173.169096452997560
  0
ARC
  8
0
  6
CONTINUOUS
 62
3
 10
6.609047703338383
 20
140.398627557359300
 40
3.000000000000000
 50
0.000000000000000
 51
90.000000000000000
  0
LINE
  8
0
  6
CONTINUOUS
 62
3
 10
-29.890952296668793
 20
143.398627557359300
 11
6.609047703338383
 21
143.398627557359300
  0
LINE
  8
0
  6
DASHDOT
 62
4
 10
37.535667150797963
 20
-68.101360432750880
 11
10.935561060847249
 21
-68.101360432750880
  0
LINE
  8
0
  6
CONTINUOUS
 62
3
 10
487.186809986510530
 20
-247.401375506497970
 11
487.186809986510530
 21
-144.101372442641150
  0
LINE
  8
0
  6
CONTINUOUS
 62
3
 10
495.204822410896670
 20
-260.101375506497790
 11
495.204822410896670
 21
-140.101372442641150
  0
LINE
  8
0
  6
CONTINUOUS
 62
3
 10
467.600199396179960
 20
-140.101372442641150
 11
483.186809986510530
 21
-140.101372442641150
  0
LINE
  8
0
  6
CONTINUOUS
 62
3
 10
527.210394675369570
 20
-140.101372442641150
 11
527.210394675369570
 21
-260.101375506497790
  0
LINE
  8
0
  6
CONTINUOUS
 62
3
 10
500.810394675369030
 20
-140.101372442641150
 11
500.810394675369030
 21
-260.101375506497790
  0
ARC
  8
0
  6
DASHED
 62
3
 10
500.986809986510540
 20
-155.643872442640710
 40
20.799999999999876
 50
334.359929784105080
 51
5.724810452223412
  0
ARC
  8
0
  6
CONTINUOUS
 62
3
 10
483.186809986510530
 20
-144.101372442641150
 40
4.000000000000000
 50
0.000000000000000
 51
90.000000000000000
  0
ARC
  8
0
  6
CONTINUOUS
 62
3
 10
447.686809986511430
 20
-141.336946712250210
 40
47.518012424385233
 50
0.000000000000000
 51
85.577622414022514
  0
ARC
  8
0
  6
CONTINUOUS
 62
3
 10
447.686809986511430
 20
-141.336946712250210
 40
85.000000000000000
 50
0.000000000000000
 51
85.577622414022414
  0
POLYLINE
  8
0
  6
CONTINUOUS
 62
3
 66
1
  0
VERTEX
  8
0
  6
CONTINUOUS
 62
3
 10
527.210394675369800
 20
-140.101372442641150
  0
VERTEX
  8
0
  6
CONTINUOUS
 62
3
 10
526.956760376692390
 20
-136.199566002318590
  0
VERTEX
  8
0
  6
CONTINUOUS
 62
3
 10
526.205604504518760
 20
-132.447703795339350
  0
VERTEX
  8
0
  6
CONTINUOUS
 62
3
 10
524.985793557763370
 20
-128.989967782249100
  0
VERTEX
  8
0
  6
CONTINUOUS
 62
3
 10
523.344204187032120
 20
-125.959236818910190
  0
VERTEX
  8
0
  6
CONTINUOUS
 62
3
 10
521.343921751228550
 20
-123.471980196590250
  0
VERTEX
  8
0
  6
CONTINUOUS
 62
3
 10
519.061815982588880
 20
-121.623781792415420
  0
VERTEX
  8
0
  6
CONTINUOUS
 62
3
 10
516.585586925982620
 20
-120.485666834576540
  0
VERTEX
  8
0
  6
CONTINUOUS
 62
3
 10
514.010394675369750
 20
-120.101372442641150
  0
VERTEX
  8
0
  6
CONTINUOUS
 62
3
 10
511.435202424756880
 20
-120.485666834576540
  0
VERTEX
  8
0
  6
CONTINUOUS
 62
3
 10
508.958973368150570
 20
-121.623781792415420
  0
VERTEX
  8
0
  6
CONTINUOUS
 62
3
 10
506.676867599511010
 20
-123.471980196590250
  0
VERTEX
  8
0
  6
CONTINUOUS
 62
3
 10
504.676585163707330
 20
-125.959236818910210
  0
VERTEX
  8
0
  6
CONTINUOUS
 62
3
 10
503.034995792976190
 20
-128.989967782249100
  0
VERTEX
  8
0
  6
CONTINUOUS
 62
3
 10
501.815184846220800
 20
-132.447703795339350
  0
VERTEX
  8
0
  6
CONTINUOUS
 62
3
 10
501.064028974047120
 20
-136.199566002318590
  0
VERTEX
  8
0
  6
CONTINUOUS
 62
3
 10
500.810394675369760
 20
-140.101372442641150
  0
SEQEND
  8
0
  6
CONTINUOUS
 62
3
  0
ARC
  8
0
  6
DASHED
 62
3
 10
499.405312451146590
 20
-88.388967778995152
 40
1.299999237060645
 50
19.463936333587132
 51
92.862405909348169
  0
ARC
  8
0
  6
DASHED
 62
3
 10
499.625038041898560
 20
-92.783479594032883
 40
1.299999237060550
 50
272.862387240019760
 51
346.260856815788600
  0
ARC
  8
0
  6
DASHED
 62
3
 10
492.145356846190510
 20
-90.954714606530615
 40
8.999999999999948
 50
346.260856815786500
 51
19.463936333592187
  0
ARC
  8
0
  6
DASHED
 62
3
 10
498.986809986510540
 20
-115.643872442640710
 40
18.799999999999887
 50
35.808626813495849
 51
85.126025186157264
  0
ARC
  8
0
  6
DASHED
 62
3
 10
500.754068450139410
 20
-94.919085410617186
 40
1.999999999999927
 50
182.862405226112710
 51
265.126025186159040
  0
ARC
  8
0
  6
DASHED
 62
3
 10
495.161055352423600
 20
-95.198736065502999
 40
1.999999999999958
 50
280.598785266065990
 51
2.862405226112724
  0
ARC
  8
0
  6
DASHED
 62
3
 10
498.986809986510540
 20
-115.643872442640710
 40
18.799999999999983
 50
100.598785266066050
 51
180.000000000000000
  0
LINE
  8
0
  6
DASHED
 62
3
 10
496.689679607091480
 20
-85.721252369860508
 11
501.783316535368390
 21
-187.593990935401280
  0
LINE
  8
0
  6
DASHED
 62
3
 10
498.287683349296060
 20
-85.641352182750325
 11
503.381320277572970
 21
-187.514090748290300
  0
LINE
  8
0
  6
DASHED
 62
3
 10
498.362589774711350
 20
-87.139480691066979
 11
499.340393587218900
 21
-87.090590500441635
  0
LINE
  8
0
  6
DASHED
 62
3
 10
498.712153093318480
 20
-94.130747063211857
 11
499.689956905826250
 21
-94.081856872586513
  0
LINE
  8
0
  6
DASHED
 62
3
 10
498.362589774711350
 20
-87.139480691066979
 11
498.712153093318480
 21
-94.130747063211857
  0
LINE
  8
0
  6
DASHED
 62
3
 10
498.362589774711350
 20
-87.139480691066979
 11
498.712153093318480
 21
-94.130747063211857
  0
LINE
  8
0
  6
DASHED
 62
3
 10
498.287683349296060
 20
-85.641352182750325
 11
496.689679607091480
 21
-85.721252369860508
  0
LINE
  8
0
  6
DASHED
 62
3
 10
497.488681478193770
 20
-85.681302276305473
 11
502.582318406470680
 21
-187.554040841845560
  0
ARC
  8
0
  6
DASHED
 62
3
 10
504.913275817842760
 20
-178.103232764684210
 40
1.999999999999995
 50
99.916536608232732
 51
182.862405226112400
  0
ARC
  8
0
  6
DASHED
 62
3
 10
499.320262720126950
 20
-178.382883419570020
 40
1.999999999999927
 50
2.862405226112724
 51
85.808273843998350
  0
ARC
  8
0
  6
DASHED
 62
3
 10
500.986809986510540
 20
-155.643872442640710
 40
20.800000000000029
 50
279.916536608230390
 51
334.359929784105080
  0
LINE
  8
0
  6
DASHED
 62
3
 10
501.783316535368390
 20
-187.593990935401280
 11
503.381320277572970
 21
-187.514090748290300
  0
INSERT
  8
0
  2
SYM10
 10
503.131632192853890
 20
-182.520329053901150
 41
-1.000000000000000
 42
1.000000000000000
 43
1.000000000000000
 50
2.862405226113666
  0
LINE
  8
0
  6
DASHED
 62
3
 10
521.683069338131420
 20
-153.569059475059700
 11
517.693044400475400
 21
-113.768560721942430
  0
ARC
  8
0
  6
DASHED
 62
3
 10
500.986809986510540
 20
-155.643872442640710
 40
20.799999999999876
 50
334.359929784105080
 51
5.724810452223412
  0
ARC
  8
0
  6
DASHED
 62
3
 10
498.986809986510540
 20
-115.643872442640710
 40
18.799999999999780
 50
5.724810452223634
 51
35.808626813495849
  0
LINE
  8
0
  6
DASHED
 62
3
 10
480.186809986510580
 20
-155.643872442640710
 11
480.186809986510580
 21
-115.643872442640710
  0
ARC
  8
0
  6
DASHED
 62
3
 10
500.986809986510540
 20
-155.643872442640710
 40
20.799999999999965
 50
180.591488314215780
 51
265.808273843992370
  0
LINE
  8
0
  6
CONTINUOUS
 62
3
 10
344.186809986510530
 20
-247.401375506497970
 11
344.186809986510530
 21
-144.101372442641150
  0
LINE
  8
0
  6
CONTINUOUS
 62
3
 10
363.773420576841090
 20
-140.101372442641150
 11
348.186809986510530
 21
-140.101372442641150
  0
LINE
  8
0
  6
CONTINUOUS
 62
3
 10
336.168797562124840
 20
-260.101375506497790
 11
336.168797562124840
 21
-140.101372442641150
  0
LINE
  8
0
  6
CONTINUOUS
 62
3
 10
330.563225297651570
 20
-140.101372442641150
 11
330.563225297651570
 21
-260.101375506497790
  0
LINE
  8
0
  6
DASHDOT
 62
4
 10
282.012962114247780
 20
-140.101372442641150
 11
543.563079722491240
 21
-140.101372442641150
  0
ARC
  8
0
  6
CONTINUOUS
 62
3
 10
348.186809986510530
 20
-144.101372442641150
 40
4.000000000000000
 50
90.000000000000000
 51
180.000000000000000
  0
ARC
  8
0
  6
CONTINUOUS
 62
3
 10
383.686809986509620
 20
-141.336946712250210
 40
47.518012424384935
 50
94.422377585977486
 51
180.000000000000000
  0
POLYLINE
  8
0
  6
CONTINUOUS
 62
3
 66
1
  0
VERTEX
  8
0
  6
CONTINUOUS
 62
3
 10
330.563225297651740
 20
-140.101372442641150
  0
VERTEX
  8
0
  6
CONTINUOUS
 62
3
 10
330.309590998974390
 20
-136.199566002318590
  0
VERTEX
  8
0
  6
CONTINUOUS
 62
3
 10
329.558435126800700
 20
-132.447703795339350
  0
VERTEX
  8
0
  6
CONTINUOUS
 62
3
 10
328.338624180045310
 20
-128.989967782249100
  0
VERTEX
  8
0
  6
CONTINUOUS
 62
3
 10
326.697034809314180
 20
-125.959236818910190
  0
VERTEX
  8
0
  6
CONTINUOUS
 62
3
 10
324.696752373510490
 20
-123.471980196590250
  0
VERTEX
  8
0
  6
CONTINUOUS
 62
3
 10
322.414646604870940
 20
-121.623781792415420
  0
VERTEX
  8
0
  6
CONTINUOUS
 62
3
 10
319.938417548264620
 20
-120.485666834576540
  0
VERTEX
  8
0
  6
CONTINUOUS
 62
3
 10
317.363225297651750
 20
-120.101372442641150
  0
VERTEX
  8
0
  6
CONTINUOUS
 62
3
 10
314.788033047038880
 20
-120.485666834576540
  0
VERTEX
  8
0
  6
CONTINUOUS
 62
3
 10
312.311803990432570
 20
-121.623781792415420
  0
VERTEX
  8
0
  6
CONTINUOUS
 62
3
 10
310.029698221793010
 20
-123.471980196590250
  0
VERTEX
  8
0
  6
CONTINUOUS
 62
3
 10
308.029415785989330
 20
-125.959236818910210
  0
VERTEX
  8
0
  6
CONTINUOUS
 62
3
 10
306.387826415258190
 20
-128.989967782249100
  0
VERTEX
  8
0
  6
CONTINUOUS
 62
3
 10
305.168015468502800
 20
-132.447703795339350
  0
VERTEX
  8
0
  6
CONTINUOUS
 62
3
 10
304.416859596329120
 20
-136.199566002318590
  0
VERTEX
  8
0
  6
CONTINUOUS
 62
3
 10
304.163225297651760
 20
-140.101372442641150
  0
SEQEND
  8
0
  6
CONTINUOUS
 62
3
  0
ARC
  8
0
  6
DASHED
 62
3
 10
622.686809986510750
 20
-141.601372442640700
 40
300.000000000000000
 50
180.000000000000000
 51
184.861405395798040
  0
ARC
  8
0
  6
DASHED
 62
3
 10
328.748040852529360
 20
-166.601372442640700
 40
5.000000000000119
 50
184.861405395798390
 51
270.000000000000000
  0
ARC
  8
0
  6
DASHED
 62
3
 10
328.748040852529360
 20
-116.601372442640690
 40
5.000000000000000
 50
90.000000000000000
 51
175.138594604201610
  0
ARC
  8
0
  6
DASHED
 62
3
 10
622.686809986510750
 20
-141.601372442640700
 40
300.000000000000170
 50
175.138594604201960
 51
180.000000000000000
  0
LINE
  8
0
  6
DASHED
 62
3
 10
328.748040852529360
 20
-171.601372442640700
 11
352.186809986510750
 21
-171.601372442640700
  0
LINE
  8
0
  6
DASHED
 62
3
 10
328.748040852529360
 20
-111.601372442640690
 11
352.186809986510750
 21
-111.601372442640690
  0
LINE
  8
0
  6
DASHED
 62
3
 10
322.186809986510750
 20
-139.101372442640700
 11
322.697226834028470
 21
-139.101372442640700
  0
LINE
  8
0
  6
DASHED
 62
3
 10
322.186809986510750
 20
-144.101372442640700
 11
322.697226834028470
 21
-144.101372442640700
  0
LINE
  8
0
  6
DASHED
 62
3
 10
322.186809986510750
 20
-144.101372442640700
 11
322.186809986510750
 21
-139.101372442640700
  0
ARC
  8
0
  6
DASHED
 62
3
 10
355.886809986510800
 20
-121.301372442640740
 40
0.200000000000045
 50
90.000000000000000
 51
180.000000000000000
  0
LINE
  8
0
  6
DASHED
 62
3
 10
357.186809986510750
 20
-121.101372442640690
 11
357.186809986510750
 21
-110.101372442640690
  0
LINE
  8
0
  6
DASHED
 62
3
 10
357.186809986510750
 20
-121.101372442640690
 11
355.886809986510800
 21
-121.101372442640690
  0
LINE
  8
0
  6
DASHED
 62
3
 10
355.686809986510750
 20
-141.601372442640700
 11
355.686809986510750
 21
-121.301372442640740
  0
LINE
  8
0
  6
DASHED
 62
3
 10
357.186809986510750
 20
-110.101372442640690
 11
352.186809986510750
 21
-110.101372442640690
  0
LINE
  8
0
  6
DASHED
 62
3
 10
352.186809986510750
 20
-173.101372442640700
 11
352.186809986510750
 21
-110.101372442640690
  0
ARC
  8
0
  6
DASHED
 62
3
 10
355.886809986510800
 20
-161.901372442640650
 40
0.200000000000045
 50
180.000000000000000
 51
270.000000000000000
  0
LINE
  8
0
  6
DASHED
 62
3
 10
357.186809986510750
 20
-162.101372442640700
 11
355.886809986510800
 21
-162.101372442640700
  0
LINE
  8
0
  6
DASHED
 62
3
 10
355.686809986510750
 20
-141.601372442640700
 11
355.686809986510750
 21
-161.901372442640650
  0
LINE
  8
0
  6
DASHED
 62
3
 10
357.186809986510750
 20
-162.101372442640700
 11
357.186809986510750
 21
-173.101372442640700
  0
LINE
  8
0
  6
DASHED
 62
3
 10
357.186809986510750
 20
-173.101372442640700
 11
352.186809986510750
 21
-173.101372442640700
  0
LINE
  8
0
  6
CONTINUOUS
 62
4
 10
-210.890952296661400
 20
-111.318938116071300
 11
-208.731549081567610
 21
-111.318938116071300
  0
LINE
  8
0
  6
CONTINUOUS
 62
4
 10
-210.890952296661400
 20
-116.771318985510220
 11
-208.890952296661400
 21
-116.771318985510220
  0
LINE
  8
0
  6
CONTINUOUS
 62
4
 10
-210.890952296661400
 20
-115.409438650160950
 11
-208.890952296661400
 21
-115.409438650160950
  0
LINE
  8
0
  6
CONTINUOUS
 62
4
 10
-210.890952296661400
 20
-121.601372442640580
 11
-208.890952296661400
 21
-121.601372442640580
  0
LINE
  8
0
  6
CONTINUOUS
 62
3
 10
-210.890952296661400
 20
-106.601372442640580
 11
-210.890952296661400
 21
-141.601372442640580
  0
LINE
  8
0
  6
CONTINUOUS
 62
4
 10
-210.890952296661400
 20
-171.883806769209850
 11
-208.731549081567610
 21
-171.883806769209850
  0
LINE
  8
0
  6
CONTINUOUS
 62
4
 10
-210.890952296661400
 20
-166.431425899770940
 11
-208.890952296661400
 21
-166.431425899770940
  0
LINE
  8
0
  6
CONTINUOUS
 62
4
 10
-210.890952296661400
 20
-167.793306235120210
 11
-208.890952296661400
 21
-167.793306235120210
  0
LINE
  8
0
  6
CONTINUOUS
 62
4
 10
-210.890952296661400
 20
-161.601372442640580
 11
-208.890952296661400
 21
-161.601372442640580
  0
LINE
  8
0
  6
CONTINUOUS
 62
3
 10
-210.890952296661400
 20
-176.601372442640580
 11
-210.890952296661400
 21
-141.601372442640580
  0
ARC
  8
0
  6
CONTINUOUS
 62
3
 10
-207.890952296661400
 20
-106.601372442640580
 40
3.000000000000000
 50
90.000000000000000
 51
180.000000000000000
  0
ARC
  8
0
  6
CONTINUOUS
 62
3
 10
-206.890952296661400
 20
-112.101372442640580
 40
2.000000000000000
 50
90.000000000000000
 51
180.000000000000000
  0
ARC
  8
0
  6
CONTINUOUS
 62
3
 10
-206.890952296661400
 20
-112.601372442640580
 40
1.000000000000000
 50
90.000000000000000
 51
180.000000000000000
  0
LINE
  8
0
  6
CONTINUOUS
 62
3
 10
-135.890952296661510
 20
-111.601372442640580
 11
-206.890952296661400
 21
-111.601372442640580
  0
LINE
  8
0
  6
CONTINUOUS
 62
3
 10
-135.890952296661510
 20
-110.101372442640580
 11
-206.890952296661400
 21
-110.101372442640580
  0
LINE
  8
0
  6
CONTINUOUS
 62
3
 10
-208.890952296661400
 20
-141.601372442640580
 11
-208.890952296661400
 21
-112.101372442640580
  0
LINE
  8
0
  6
CONTINUOUS
 62
3
 10
-207.890952296661400
 20
-112.601372442640580
 11
-207.890952296661620
 21
-141.601372442640580
  0
LINE
  8
0
  6
CONTINUOUS
 62
3
 10
-208.890952296661400
 20
-141.601372442640580
 11
-208.890952296661400
 21
-171.101372442640580
  0
LINE
  8
0
  6
CONTINUOUS
 62
3
 10
-207.890952296661400
 20
-170.601372442640580
 11
-207.890952296661620
 21
-141.601372442640580
  0
ARC
  8
0
  6
CONTINUOUS
 62
3
 10
-206.890952296661400
 20
-171.101372442640580
 40
2.000000000000000
 50
180.000000000000000
 51
270.000000000000000
  0
ARC
  8
0
  6
CONTINUOUS
 62
3
 10
-206.890952296661400
 20
-170.601372442640580
 40
1.000000000000000
 50
180.000000000000000
 51
270.000000000000000
  0
LINE
  8
0
  6
CONTINUOUS
 62
3
 10
-135.890952296661510
 20
-171.601372442640580
 11
-206.890952296661400
 21
-171.601372442640580
  0
LINE
  8
0
  6
CONTINUOUS
 62
3
 10
-135.890952296661510
 20
-173.101372442640580
 11
-206.890952296661400
 21
-173.101372442640580
  0
LINE
  8
0
  6
CONTINUOUS
 62
3
 10
-133.890952296661510
 20
-141.601372442640580
 11
-133.890952296661510
 21
-171.101372442640580
  0
LINE
  8
0
  6
CONTINUOUS
 62
3
 10
-134.890952296661510
 20
-170.601372442640580
 11
-134.890952296661510
 21
-141.601372442640580
  0
ARC
  8
0
  6
CONTINUOUS
 62
3
 10
-135.890952296661510
 20
-112.101372442640580
 40
2.000000000000000
 50
0.000000000000000
 51
90.000000000000000
  0
ARC
  8
0
  6
CONTINUOUS
 62
3
 10
-135.890952296661510
 20
-112.601372442640580
 40
1.000000000000000
 50
0.000000000000000
 51
90.000000000000000
  0
LINE
  8
0
  6
CONTINUOUS
 62
3
 10
-134.890952296661510
 20
-112.601372442640580
 11
-134.890952296661510
 21
-141.601372442640580
  0
LINE
  8
0
  6
CONTINUOUS
 62
3
 10
-133.890952296661510
 20
-141.601372442640580
 11
-133.890952296661510
 21
-112.101372442640580
  0
ARC
  8
0
  6
CONTINUOUS
 62
3
 10
-135.890952296661510
 20
-171.101372442640580
 40
2.000000000000000
 50
270.000000000000000
 51
0.000000000000000
  0
ARC
  8
0
  6
CONTINUOUS
 62
3
 10
-135.890952296661510
 20
-170.601372442640580
 40
1.000000000000000
 50
270.000000000000000
 51
0.000000000000000
  0
ARC
  8
0
  6
CONTINUOUS
 62
3
 10
-429.428582220321350
 20
-68.101360432750880
 40
10.000000000000000
 50
180.000000000000000
 51
270.000000000000000
  0
LINE
  8
0
  6
CONTINUOUS
 62
3
 10
-408.428582220321350
 20
-78.101360432750880
 11
-429.428582220321350
 21
-78.101360432750880
  0
ARC
  8
0
  6
CONTINUOUS
 62
3
 10
-408.428582220321350
 20
-68.101360432750880
 40
10.000000000000000
 50
270.000000000000000
 51
0.000000000000000
  0
LINE
  8
0
  6
CONTINUOUS
 62
3
 10
-500.753616445623720
 20
-85.680144139624332
 11
-505.776238629888550
 21
-80.657521955359584
  0
LINE
  8
0
  6
CONTINUOUS
 62
3
 10
-524.928588838923020
 20
-147.637274749152200
 11
-527.928579646270240
 21
-149.369324863401460
  0
LINE
  8
0
  6
CONTINUOUS
 62
3
 10
-527.928580332414980
 20
-152.833423038316600
 11
-524.998473495877530
 21
-154.525115810673070
  0
LINE
  8
0
  6
CONTINUOUS
 62
3
 10
-524.928588922042200
 20
-147.637274645602590
 11
-524.362917193834960
 21
-147.963863803440260
  0
LINE
  8
0
  6
CONTINUOUS
 62
3
 10
-527.928578882462030
 20
-149.369324692312260
 11
-527.928579836136350
 21
-152.833422668996830
  0
ARC
  8
0
  6
CONTINUOUS
 62
3
 10
-524.928582220321350
 20
-151.101371645537820
 40
6.500000000000009
 50
82.072061250027218
 51
269.932259467661880
  0
ARC
  8
0
  6
CONTINUOUS
 62
3
 10
-524.928582220321350
 20
-151.101371645537820
 40
5.633955001831040
 50
81.733191400067923
 51
269.274191076514280
  0
LINE
  8
0
  6
CONTINUOUS
 62
3
 10
-504.382489609845490
 20
-91.243659130827638
 11
-510.466887687206390
 21
-85.159261053466821
  0
ARC
  8
0
  6
CONTINUOUS
 62
3
 10
-316.928582220321350
 20
-125.101371645537820
 40
13.000000000000075
 50
225.656361136394760
 51
270.000000000000000
  0
TEXT
  8
0
  6
CONTINUOUS
 62
3
 10
-439.664672851562500
 20
193.008605957031250
 40
20.000000000000000
  1
S050
 50
0.000002504478167
 41
0.470000016689301
  7
STANDARD1
  0
TEXT
  8
0
  6
CONTINUOUS
 62
3
 10
-439.664672851562500
 20
170.408615112304690
 40
20.000000000000000
  1
三菱ギヤードモートル
 50
0.000002504478167
 41
0.625000000000000
  7
STANDARD1
  0
TEXT
  8
0
  6
CONTINUOUS
 62
3
 10
-439.664672851562500
 20
147.808609008789060
 40
20.000000000000000
  1
GM-SS
 50
0.000002504478167
 41
0.470000016689301
  7
STANDARD1
  0
TEXT
  8
0
  6
CONTINUOUS
 62
3
 10
-439.664672851562500
 20
125.208610534667960
 40
20.000000000000000
  1
0.4kW
 50
0.000002504478167
 41
0.470000016689301
  7
STANDARD1
  0
TEXT
  8
0
  6
CONTINUOUS
 62
3
 10
-439.664672851562500
 20
102.608612060546870
 40
20.000000000000000
  1
1/270-1/450
 50
0.000002504478167
 41
0.470000016689301
  7
STANDARD1
  0
TEXT
  8
0
  6
CONTINUOUS
 62
3
 10
-439.664672851562500
 20
80.008613586425781
 40
20.000000000000000
  1
SCALE1/1
 50
0.000002504478167
 41
0.470000016689301
  7
STANDARD1
  0
LINE
  8
0
  6
CONTINUOUS
 62
3
 10
185.609053754545810
 20
199.398627557359420
 11
186.609053754545810
 21
199.398627557359420
  0
LINE
  8
0
  6
CONTINUOUS
 62
3
 10
185.609053754545810
 20
117.398627557359410
 11
186.609053754545810
 21
117.398627557359410
  0
LINE
  8
0
  6
CONTINUOUS
 62
3
 10
184.609053754545810
 20
158.398627557359420
 11
184.609053754545810
 21
237.084955437046690
  0
LINE
  8
0
  6
CONTINUOUS
 62
3
 10
186.609053754545810
 20
158.398627557359420
 11
186.609053754545810
 21
275.537052566108850
  0
LINE
  8
0
  6
CONTINUOUS
 62
3
 10
184.609053754545810
 20
158.398627557359420
 11
184.609053754545810
 21
79.712299677672149
  0
ARC
  8
0
  6
CONTINUOUS
 62
3
 10
181.609053754545810
 20
79.712299677672149
 40
3.000000000000318
 50
328.322304183038280
 51
0.000000000000000
  0
ARC
  8
0
  6
CONTINUOUS
 62
3
 10
185.609053754545810
 20
200.398627557359420
 40
1.000000000000000
 50
180.000000000000000
 51
270.000000000000000
  0
ARC
  8
0
  6
CONTINUOUS
 62
3
 10
185.609053754545810
 20
116.398627557359410
 40
1.000000000000000
 50
90.000000000000000
 51
180.000000000000000
  0
ARC
  8
0
  6
CONTINUOUS
 62
3
 10
168.609053754545810
 20
50.898624879598742
 40
21.999999999999375
 50
90.999999999999432
 51
183.430124496071130
  0
ARC
  8
0
  6
CONTINUOUS
 62
3
 10
179.218512101853550
 20
76.087621865001552
 40
3.000000000000504
 50
271.000000000010350
 51
324.866525231741780
  0
LINE
  8
0
  6
CONTINUOUS
 62
3
 10
168.225100812925800
 20
72.895274173038729
 11
179.270869321165950
 21
73.088078779531884
  0
ARC
  8
0
  6
CONTINUOUS
 62
3
 10
120.335930460277950
 20
117.522408931223820
 40
75.000000000000071
 50
324.866525231742120
 51
328.322304183047150
  0
LINE
  8
0
  6
CONTINUOUS
 62
3
 10
186.609053754545810
 20
158.398627557359420
 11
186.609053754545810
 21
41.124134642140802
  0
LINE
  8
0
  6
DASHDOT
 62
4
 10
168.609053754545810
 20
33.398624879598742
 11
168.609053754545810
 21
68.398624879598742
  0
CIRCLE
  8
0
  6
CONTINUOUS
 62
3
 10
168.609053754545810
 20
50.898624879598742
 40
7.500000000000000
  0
LINE
  8
0
  6
CONTINUOUS
 62
3
 10
248.609060880413610
 20
135.398627557359420
 11
193.609060880413610
 21
135.398627557359420
  0
LINE
  8
0
  6
CONTINUOUS
 62
3
 10
193.609053754544900
 20
138.398627557359420
 11
193.609053754544900
 21
135.398627557359420
  0
ARC
  8
0
  6
CONTINUOUS
 62
3
 10
248.209053754544810
 20
177.998627557358870
 40
0.400000000000091
 50
0.000000000000000
 51
90.000000000000000
  0
LINE
  8
0
  6
CONTINUOUS
 62
3
 10
248.209053754544810
 20
178.398627557359420
 11
191.668868501549470
 21
178.398627557358510
  0
LINE
  8
0
  6
CONTINUOUS
 62
3
 10
248.609053754544900
 20
158.398627557359420
 11
248.609053754544900
 21
177.998627557358870
  0
ARC
  8
0
  6
CONTINUOUS
 62
3
 10
190.209053754544810
 20
179.848627557359240
 40
1.599999999999909
 50
180.000000000000000
 51
270.000000000000000
  0
LINE
  8
0
  6
CONTINUOUS
 62
3
 10
191.109060880413610
 20
178.248627557358870
 11
190.209053754544810
 21
178.248627557358870
  0
LINE
  8
0
  6
CONTINUOUS
 62
3
 10
188.209053754544810
 20
180.898627557359420
 11
188.609053754544900
 21
180.498627557358870
  0
LINE
  8
0
  6
CONTINUOUS
 62
3
 10
188.209053754544810
 20
180.898627557359420
 11
186.609053754545810
 21
180.898627557359420
  0
LINE
  8
0
  6
CONTINUOUS
 62
3
 10
188.609053754544900
 20
158.398627557359420
 11
188.609053754544900
 21
180.498627557358870
  0
LINE
  8
0
  6
CONTINUOUS
 62
3
 10
191.668868501549010
 20
178.398627557358510
 11
191.109060880413610
 21
178.248627557358870
  0
LINE
  8
0
  6
CONTINUOUS
 62
3
 10
188.209053754544810
 20
135.898627557359420
 11
186.609053754545810
 21
135.898627557359420
  0
ARC
  8
0
  6
CONTINUOUS
 62
3
 10
190.209053754544810
 20
136.948627557359600
 40
1.599999999999454
 50
90.000000000000000
 51
180.000000000000000
  0
LINE
  8
0
  6
CONTINUOUS
 62
3
 10
191.109060880413610
 20
138.548627557359050
 11
190.209053754544810
 21
138.548627557359050
  0
LINE
  8
0
  6
CONTINUOUS
 62
3
 10
188.209053754544810
 20
135.898627557359420
 11
188.609053754544900
 21
136.298627557359050
  0
LINE
  8
0
  6
CONTINUOUS
 62
3
 10
188.609053754544900
 20
158.398627557359420
 11
188.609053754544900
 21
136.298627557359050
  0
LINE
  8
0
  6
CONTINUOUS
 62
3
 10
248.209053754544810
 20
138.398627557359420
 11
191.668868501549470
 21
138.398627557359420
  0
LINE
  8
0
  6
CONTINUOUS
 62
3
 10
191.668868501549010
 20
138.398627557359420
 11
191.109060880413610
 21
138.548627557359050
  0
LINE
  8
0
  6
CONTINUOUS
 62
3
 10
248.609053754544900
 20
158.398627557359420
 11
248.609053754544900
 21
135.398627557359420
  0
ARC
  8
0
  6
CONTINUOUS
 62
3
 10
248.209053754544810
 20
138.798627557359050
 40
0.399999999999636
 50
270.000000000000000
 51
0.000000000000000
  0
ARC
  8
0
  6
CONTINUOUS
 62
3
 10
178.609053754545810
 20
41.260202548609982
 40
8.000000000000092
 50
270.999999999995280
 51
0.000000000000000
  0
ARC
  8
0
  6
CONTINUOUS
 62
3
 10
143.653841046015940
 20
49.402844590899463
 40
2.999999999999901
 50
288.896514820060250
 51
3.430124496075548
  0
ARC
  8
0
  6
CONTINUOUS
 62
3
 10
120.335930460277950
 20
117.522408931223820
 40
75.000000000000526
 50
271.000000000000060
 51
288.896514820053600
  0
LINE
  8
0
  6
DASHDOT
 62
4
 10
186.109053754545810
 20
50.898624879598742
 11
151.109053754545810
 21
50.898624879598742
  0
ARC
  8
0
  6
CONTINUOUS
 62
3
 10
178.609053754545810
 20
275.537052566108850
 40
8.000000000000000
 50
0.000000000000000
 51
89.000000000004761
  0
ARC
  8
0
  6
CONTINUOUS
 62
3
 10
179.218512101853550
 20
240.709633249717290
 40
3.000000000000104
 50
35.133474768258203
 51
88.999999999989711
  0
LINE
  8
0
  6
CONTINUOUS
 62
3
 10
168.225100812925800
 20
243.901980941680110
 11
179.270869321165950
 21
243.709176335186950
  0
ARC
  8
0
  6
CONTINUOUS
 62
3
 10
143.653841046015940
 20
267.394410523819370
 40
3.000000000000326
 50
356.569875503924440
 51
71.103485179939781
  0
ARC
  8
0
  6
CONTINUOUS
 62
3
 10
168.609053754545810
 20
265.898630235120090
 40
22.000000000000316
 50
176.569875503928870
 51
269.000000000000570
  0
CIRCLE
  8
0
  6
CONTINUOUS
 62
3
 10
168.609053754545810
 20
265.898630235120090
 40
7.500000000000000
  0
ARC
  8
0
  6
CONTINUOUS
 62
3
 10
120.335930460277950
 20
199.274846183495010
 40
75.000000000000767
 50
31.677695816952838
 51
35.133474768257869
  0
ARC
  8
0
  6
CONTINUOUS
 62
3
 10
181.609053754545810
 20
237.084955437046690
 40
3.000000000000000
 50
0.000000000000000
 51
31.677695816961705
  0
ARC
  8
0
  6
CONTINUOUS
 62
3
 10
120.335930460277950
 20
199.274846183495010
 40
75.000000000000327
 50
71.103485179946389
 51
88.999999999999972
  0
LINE
  8
0
  6
DASHDOT
 62
4
 10
168.609053754545810
 20
283.398630235120090
 11
168.609053754545810
 21
248.398630235120090
  0
LINE
  8
0
  6
DASHDOT
 62
4
 10
186.109053754545810
 20
265.898630235120090
 11
151.109053754545810
 21
265.898630235120090
  0
ARC
  8
0
  6
CONTINUOUS
 62
3
 10
-506.928584213073800
 20
-278.402828920316440
 40
8.000000000000000
 50
0.000000000000000
 51
50.380873009517259
  0
ARC
  8
0
  6
CONTINUOUS
 62
3
 10
-330.928580227568890
 20
-278.402828920316550
 40
8.000000000000055
 50
129.619126990482750
 51
180.000000000000000
  0
ARC
  8
0
  6
CONTINUOUS
 62
3
 10
-307.928582220321350
 20
-214.996593621693250
 40
6.000000000000148
 50
338.871302745699890
 51
0.000000000000000
  0
LINE
  8
0
  6
CONTINUOUS
 62
3
 10
-301.928582220321350
 20
-260.101374709394690
 11
-301.928582220321350
 21
-141.336945915147340
  0
LINE
  8
0
  6
CONTINUOUS
 62
3
 10
-535.928582220321350
 20
-260.101374709394690
 11
-535.928582220321350
 21
-141.336945915147340
  0
LINE
  8
0
  6
CONTINUOUS
 62
3
 10
-324.838202404689010
 20
-263.101375506494720
 11
-296.928579106645770
 21
-263.101375506494720
  0
LINE
  8
0
  6
CONTINUOUS
 62
3
 10
-293.928579106645770
 20
-285.101376054501660
 11
-293.928579106645770
 21
-266.101375506494720
  0
LINE
  8
0
  6
CONTINUOUS
 62
3
 10
-338.928580227568890
 20
-285.101376054501660
 11
-293.928579106645770
 21
-285.101376054501660
  0
LINE
  8
0
  6
DASHDOT
 62
4
 10
-311.428579542560670
 20
-292.925833949012830
 11
-311.428579542560670
 21
-257.387796748540380
  0
LINE
  8
0
  6
CONTINUOUS
 62
3
 10
-338.928580227568890
 20
-285.101375257401630
 11
-338.928580227568890
 21
-278.402828920316550
  0
LINE
  8
0
  6
CONTINUOUS
 62
3
 10
-418.928582220321350
 20
-282.101375132854510
 11
-359.070007230608440
 21
-282.101375132854510
  0
LINE
  8
0
  6
CONTINUOUS
 62
3
 10
-357.928577570563330
 20
-283.101375132854510
 11
-340.928580227568890
 21
-283.101375132854510
  0
LINE
  8
0
  6
CONTINUOUS
 62
3
 10
-418.928582220321350
 20
-282.101375132854510
 11
-478.787157210034250
 21
-282.101375132854510
  0
LINE
  8
0
  6
CONTINUOUS
 62
3
 10
-498.928584213073800
 20
-285.101375257401630
 11
-498.928584213073800
 21
-278.402828920316440
  0
LINE
  8
0
  6
CONTINUOUS
 62
3
 10
-479.928586870079360
 20
-283.101375132854510
 11
-496.928584213073800
 21
-283.101375132854510
  0
LINE
  8
0
  6
CONTINUOUS
 62
3
 10
-513.018962035953680
 20
-263.101375506494720
 11
-540.928585333996920
 21
-263.101375506494720
  0
LINE
  8
0
  6
CONTINUOUS
 62
3
 10
-543.928585333996920
 20
-285.101376054501660
 11
-543.928585333996920
 21
-266.101375506494720
  0
LINE
  8
0
  6
CONTINUOUS
 62
3
 10
-498.928584213073800
 20
-285.101376054501660
 11
-543.928585333996920
 21
-285.101376054501660
  0
LINE
  8
0
  6
DASHDOT
 62
4
 10
-526.428584898082020
 20
-292.925833949012830
 11
-526.428584898082020
 21
-257.387796748540380
  0
ARC
  8
0
  6
CONTINUOUS
 62
3
 10
-324.838202404689010
 20
-266.101375506494720
 40
3.000000000000000
 50
90.000000000000000
 51
135.027530656572850
  0
ARC
  8
0
  6
CONTINUOUS
 62
3
 10
-296.928579106645770
 20
-266.101375506494720
 40
3.000000000000000
 50
0.000000000000000
 51
90.000000000000000
  0
ARC
  8
0
  6
CONTINUOUS
 62
3
 10
-298.928582220321350
 20
-260.101374709394690
 40
3.000000000000000
 50
180.000000000000000
 51
270.000000000000000
  0
ARC
  8
0
  6
CONTINUOUS
 62
3
 10
-386.928582220321350
 20
-141.336945915147340
 40
85.000000000000000
 50
0.000000000000000
 51
85.577622414021803
  0
ARC
  8
0
  6
CONTINUOUS
 62
3
 10
-340.928580227568890
 20
-285.101375132854510
 40
2.000000000000000
 50
0.000000000000000
 51
90.000000000000000
  0
ARC
  8
0
  6
CONTINUOUS
 62
3
 10
-485.928582220321350
 20
-275.101371645538050
 40
10.000000000000053
 50
306.869864344412290
 51
315.572968020398260
  0
ARC
  8
0
  6
CONTINUOUS
 62
3
 10
-513.018962035953680
 20
-266.101375506494720
 40
3.000000000000004
 50
44.972469343427150
 51
90.000000000000000
  0
ARC
  8
0
  6
CONTINUOUS
 62
3
 10
-496.928584213073800
 20
-285.101375132854510
 40
2.000000000000000
 50
90.000000000000000
 51
180.000000000000000
  0
ARC
  8
0
  6
CONTINUOUS
 62
3
 10
-540.928585333996920
 20
-266.101375506494720
 40
3.000000000000000
 50
90.000000000000000
 51
180.000000000000000
  0
ARC
  8
0
  6
CONTINUOUS
 62
3
 10
-538.928582220321350
 20
-260.101374709394690
 40
3.000000000000000
 50
270.000000000000000
 51
0.000000000000000
  0
ARC
  8
0
  6
CONTINUOUS
 62
3
 10
-450.928582220321350
 20
-141.336945915147340
 40
84.999999999999972
 50
94.422377585978197
 51
180.000000000000000
  0
ARC
  8
0
  6
CONTINUOUS
 62
3
 10
-351.928582220321350
 20
-275.101371645538050
 40
9.999999999999833
 50
224.427031979601790
 51
233.130135655587680
  0
ARC
  8
0
  6
CONTINUOUS
 62
3
 10
-418.928582220321350
 20
-172.101372442638760
 40
130.000000000000170
 50
309.619126990482750
 51
326.060710791335000
  0
ARC
  8
0
  6
CONTINUOUS
 62
3
 10
-306.928582220321350
 20
-247.473781187483950
 40
5.000000000000000
 50
0.000000000000000
 51
146.060710791332530
  0
ARC
  8
0
  6
CONTINUOUS
 62
3
 10
-418.928582220321350
 20
-172.101372442638760
 40
129.999999999999940
 50
213.939289208665090
 51
230.380873009517220
  0
ARC
  8
0
  6
CONTINUOUS
 62
3
 10
-530.928582220321350
 20
-247.473781187483950
 40
5.000000000000114
 50
33.939289208664569
 51
180.000000000000000
  0
LINE
  8
0
  6
DASHDOT
 62
4
 10
-418.928582220321350
 20
-288.886788257343030
 11
-418.928582220321350
 21
-12.118833672329288
  0
LINE
  8
0
  6
CONTINUOUS
 62
3
 10
-439.428582220321350
 20
-30.101371645538052
 11
-439.428582220321350
 21
-55.521798404197284
  0
CIRCLE
  8
0
  6
CONTINUOUS
 62
3
 10
-418.928582220321350
 20
-40.101371645538052
 40
10.000000000000000
  0
LINE
  8
0
  6
DASHDOT
 62
4
 10
-395.760669221439800
 20
-40.101371645538052
 11
-442.783183122974490
 21
-40.101371645538052
  0
ARC
  8
0
  6
CONTINUOUS
 62
3
 10
-429.428582220321350
 20
-30.101371645538052
 40
10.000000000000000
 50
90.000000000000000
 51
180.000000000000000
  0
LINE
  8
0
  6
CONTINUOUS
 62
3
 10
-408.428582220321350
 20
-20.101371645538052
 11
-429.428582220321350
 21
-20.101371645538052
  0
LINE
  8
0
  6
CONTINUOUS
 62
3
 10
-398.428582220321350
 20
-30.101371645538052
 11
-398.428582220321350
 21
-55.521798404197284
  0
ARC
  8
0
  6
CONTINUOUS
 62
3
 10
-408.428582220321350
 20
-30.101371645538052
 40
10.000000000000000
 50
0.000000000000000
 51
90.000000000000000
  0
ARC
  8
0
  6
CONTINUOUS
 62
3
 10
-418.928582220321350
 20
-555.101371645538050
 40
499.999999999999940
 50
85.577622414021945
 51
87.650214394539574
  0
ARC
  8
0
  6
CONTINUOUS
 62
3
 10
-418.928582220321350
 20
-555.101371645538050
 40
499.999999999999940
 50
92.349785605460426
 51
94.422377585978055
  0
LINE
  8
0
  6
CONTINUOUS
 62
3
 10
-439.428582220321350
 20
-55.521798404197511
 11
-439.428582220321350
 21
-77.101371645538052
  0
LINE
  8
0
  6
CONTINUOUS
 62
3
 10
-398.428582220321350
 20
-55.521798404197511
 11
-398.428582220321350
 21
-77.101371645538052
  0
ARC
  8
0
  6
CONTINUOUS
 62
3
 10
-345.770608047305250
 20
-236.420511850822890
 40
2.999999999999677
 50
148.296383256597580
 51
225.000000000003070
  0
ARC
  8
0
  6
CONTINUOUS
 62
3
 10
-353.913695321485080
 20
-245.955094106306770
 40
3.000000000000185
 50
44.999999999993868
 51
130.705112768216340
  0
ARC
  8
0
  6
CONTINUOUS
 62
3
 10
-327.647385268292400
 20
-254.543734629835510
 40
2.999999999999864
 50
225.000000000000000
 51
317.912625209518070
  0
ARC
  8
0
  6
CONTINUOUS
 62
3
 10
-336.486220033124370
 20
-263.382569394667260
 40
3.000000000000218
 50
312.087374790476080
 51
45.000000000000000
  0
ARC
  8
0
  6
CONTINUOUS
 62
3
 10
-501.370944407518320
 20
-263.382569394667480
 40
3.000000000000024
 50
134.999999999996930
 51
227.912625209521000
  0
ARC
  8
0
  6
CONTINUOUS
 62
3
 10
-510.209779172350300
 20
-254.543734629835510
 40
3.000000000000218
 50
222.087374790476100
 51
314.999999999996870
  0
ARC
  8
0
  6
CONTINUOUS
 62
3
 10
-479.438424505919440
 20
-241.450049493068380
 40
3.000000000000124
 50
49.911473410096967
 51
135.000000000000000
  0
ARC
  8
0
  6
CONTINUOUS
 62
3
 10
-488.277259270750960
 20
-232.611214728236630
 40
3.000000000000024
 50
314.999999999996870
 51
40.088526589902528
  0
ARC
  8
0
  6
CONTINUOUS
 62
3
 10
-304.928582220321350
 20
-141.101371645537820
 40
3.000000000000000
 50
0.000000000000000
 51
90.000000000000000
  0
ARC
  8
0
  6
CONTINUOUS
 62
3
 10
-311.530520232572030
 20
-109.101371645537820
 40
3.000000000000000
 50
270.000000000000000
 51
23.148572820069919
  0
ARC
  8
0
  6
CONTINUOUS
 62
3
 10
-512.588208030765940
 20
-87.280581397026367
 40
2.999999999999864
 50
45.000000000000000
 51
138.759285791780480
  0
ARC
  8
0
  6
CONTINUOUS
 62
3
 10
-479.438424505919440
 20
-102.752695392209140
 40
2.999999999999864
 50
225.000000000000000
 51
231.837572131898980
  0
ARC
  8
0
  6
CONTINUOUS
 62
3
 10
-503.654918286329010
 20
-78.536201611799811
 40
2.999999999999794
 50
130.016194045864520
 51
225.000000000003070
  0
ARC
  8
0
  6
CONTINUOUS
 62
3
 10
-334.202246154313680
 20
-78.536201611799811
 40
3.000000000000024
 50
314.999999999996870
 51
49.983805954135455
  0
ARC
  8
0
  6
CONTINUOUS
 62
3
 10
-358.418739934723250
 20
-102.752695392209140
 40
3.000000000000016
 50
308.162427868101020
 51
315.000000000000000
  0
ARC
  8
0
  6
CONTINUOUS
 62
3
 10
-325.268956409876750
 20
-87.280581397026367
 40
3.000000000000097
 50
41.240714208219508
 51
135.000000000000000
  0
ARC
  8
0
  6
CONTINUOUS
 62
3
 10
-349.579905169891730
 20
-111.591530157040890
 40
2.999999999999864
 50
135.000000000000000
 51
180.187974145744960
  0
ARC
  8
0
  6
CONTINUOUS
 62
3
 10
-425.178582220321350
 20
-83.101371645538052
 40
2.999999999999540
 50
29.515301611167605
 51
90.000000000000000
  0
ARC
  8
0
  6
CONTINUOUS
 62
3
 10
-412.678582220321350
 20
-83.101371645538052
 40
3.000000000000000
 50
90.000000000000000
 51
150.484698388832380
  0
ARC
  8
0
  6
CONTINUOUS
 62
3
 10
-384.708048658601800
 20
-257.682295639540710
 40
5.000000000000205
 50
84.588104602569331
 51
106.037937568522150
  0
ARC
  8
0
  6
CONTINUOUS
 62
3
 10
-337.762524162915160
 20
-217.948004214304210
 40
4.999999999999917
 50
154.450645436618710
 51
175.900478402575570
  0
ARC
  8
0
  6
CONTINUOUS
 62
3
 10
-380.652503497686100
 20
-214.873972226356390
 40
37.999999999999936
 50
264.588104602568250
 51
355.900478402576140
  0
ARC
  8
0
  6
CONTINUOUS
 62
3
 10
-436.428582220321350
 20
-77.101371645538052
 40
3.000000000000000
 50
180.000000000000000
 51
270.000000000000000
  0
ARC
  8
0
  6
CONTINUOUS
 62
3
 10
-401.428582220321350
 20
-77.101371645538052
 40
3.000000000000000
 50
270.000000000000000
 51
0.000000000000000
  0
ARC
  8
0
  6
CONTINUOUS
 62
3
 10
-351.928582220321350
 20
-275.101371645538050
 40
10.000000000000053
 50
306.869864344412290
 51
358.093887109017660
  0
ARC
  8
0
  6
CONTINUOUS
 62
3
 10
-351.928582220321350
 20
-275.101371645538050
 40
10.000000000000158
 50
224.427031979599950
 51
233.130135655587680
  0
ARC
  8
0
  6
CONTINUOUS
 62
3
 10
-485.928582220321350
 20
-275.101371645538050
 40
10.000000000000130
 50
181.906112890982260
 51
233.130135655587680
  0
ARC
  8
0
  6
CONTINUOUS
 62
3
 10
-503.918622332972400
 20
-275.700084218654520
 40
7.999999999999923
 50
1.906112890982627
 51
50.635320748643942
  0
ARC
  8
0
  6
CONTINUOUS
 62
3
 10
-485.928582220321350
 20
-275.101371645538050
 40
10.000000000000053
 50
306.869864344412290
 51
315.572968020398260
  0
ARC
  8
0
  6
CONTINUOUS
 62
3
 10
-333.938542107670290
 20
-275.700084218654520
 40
8.000000000000215
 50
129.364679251358580
 51
178.093887109017460
  0
ARC
  8
0
  6
CONTINUOUS
 62
3
 10
-418.928582220321350
 20
-172.101372442638760
 40
126.000000000000180
 50
202.331645009221490
 51
230.635320748643100
  0
ARC
  8
0
  6
CONTINUOUS
 62
3
 10
-307.928582220321350
 20
-217.697424903350680
 40
6.000000000000214
 50
337.668354990778080
 51
0.000000000000000
  0
ARC
  8
0
  6
CONTINUOUS
 62
3
 10
-418.928582220321350
 20
-172.101372442638760
 40
125.999999999999870
 50
309.364679251356730
 51
337.668354990778480
  0
ARC
  8
0
  6
CONTINUOUS
 62
3
 10
-316.928582220321350
 20
-125.101371645537820
 40
13.000000000000000
 50
90.000000000000000
 51
140.762593759690110
  0
ARC
  8
0
  6
CONTINUOUS
 62
3
 10
-527.826819521625450
 20
-110.101371645537820
 40
2.000000000000116
 50
157.893323870137750
 51
270.000000000000000
  0
ARC
  8
0
  6
CONTINUOUS
 62
3
 10
-520.928582220321350
 20
-125.101371645537820
 40
12.999999999999996
 50
88.958206020233135
 51
90.000000000000000
  0
LINE
  8
0
  6
CONTINUOUS
 62
3
 10
-351.792374977925080
 20
-243.833773762747230
 11
-334.364899689564820
 21
-261.261249051107710
  0
LINE
  8
0
  6
CONTINUOUS
 62
3
 10
-347.891928390864790
 20
-238.541832194382660
 11
-329.768705611851940
 21
-256.665054973395060
  0
LINE
  8
0
  6
CONTINUOUS
 62
3
 10
-481.559744849478990
 20
-239.328729149508830
 11
-503.492264751077870
 21
-261.261249051107710
  0
LINE
  8
0
  6
CONTINUOUS
 62
3
 10
-486.155938927191410
 20
-234.732535071796410
 11
-508.088458828790750
 21
-256.665054973395290
  0
LINE
  8
0
  6
CONTINUOUS
 62
3
 10
-498.385227896706740
 20
-97.240920843966180
 11
-500.406377770897850
 21
-95.219770969775141
  0
LINE
  8
0
  6
CONTINUOUS
 62
3
 10
-481.559744849478990
 20
-104.874015735768690
 11
-499.968645001591880
 21
-86.465115583656072
  0
LINE
  8
0
  6
CONTINUOUS
 62
3
 10
-356.297419591163700
 20
-104.874015735768690
 11
-332.080925810754140
 21
-80.657521955359584
  0
LINE
  8
0
  6
CONTINUOUS
 62
3
 10
-351.701225513451280
 20
-109.470209813481340
 11
-327.390276753436300
 21
-85.159261053466821
  0
LINE
  8
0
  6
CONTINUOUS
 62
3
 10
-418.928582220321350
 20
-80.101371645538052
 11
-436.428582220321350
 21
-80.101371645538052
  0
LINE
  8
0
  6
CONTINUOUS
 62
3
 10
-418.928582220321350
 20
-80.101371645538052
 11
-401.428582220321350
 21
-80.101371645538052
  0
LINE
  8
0
  6
CONTINUOUS
 62
3
 10
-316.928582220321350
 20
-112.101371645537820
 11
-311.530520232572030
 21
-112.101371645537820
  0
LINE
  8
0
  6
CONTINUOUS
 62
3
 10
-316.928582220321350
 20
-138.101371645537820
 11
-304.928582220321350
 21
-138.101371645537820
  0
LINE
  8
0
  6
CONTINUOUS
 62
3
 10
-520.928582220321350
 20
-112.101371645537820
 11
-527.826819521625450
 21
-112.101371645537820
  0
LINE
  8
0
  6
CONTINUOUS
 62
3
 10
-523.374196175498920
 20
-138.101371645537820
 11
-533.928582220321350
 21
-138.101371645537820
  0
ARC
  8
0
  6
CONTINUOUS
 62
3
 10
-529.928582220321350
 20
-217.697424903350680
 40
6.000000000000000
 50
180.000000000000000
 51
202.331645009221920
  0
ARC
  8
0
  6
CONTINUOUS
 62
3
 10
-533.928582220321350
 20
-140.101371645537820
 40
2.000000000000000
 50
90.000000000000000
 51
180.000000000000000
  0
INSERT
  8
0
  2
SYM11
 10
-429.428582220321350
 20
-68.101371645538052
 41
-1.000000000000000
  0
INSERT
  8
0
  2
SYM12
 10
-485.928582220321350
 20
-75.101371645537824
 41
-1.000000000000000
  0
INSERT
  8
0
  2
SYM13
 10
-525.928582220321350
 20
-217.101371645538050
 41
-1.000000000000000
  0
INSERT
  8
0
  2
SYM14
 10
-485.928582220321350
 20
-275.101371645538050
 41
-1.000000000000000
  0
INSERT
  8
0
  2
SYM15
 10
-351.928582220321350
 20
-275.101371645538050
  0
INSERT
  8
0
  2
SYM16
 10
-311.928582220321350
 20
-217.101371645538050
  0
INSERT
  8
0
  2
SYM17
 10
-312.928582220321350
 20
-151.101371645537820
  0
INSERT
  8
0
  2
SYM18
 10
-351.928582220321350
 20
-75.101371645537824
  0
INSERT
  8
0
  2
SYM19
 10
-408.428582220321350
 20
-68.101371645538052
  0
ARC
  8
0
  6
CONTINUOUS
 62
3
 10
-479.436313163560380
 20
-218.088484725327360
 40
2.999999999999999
 50
217.235576313379800
 51
302.923553630029910
  0
ARC
  8
0
  6
CONTINUOUS
 62
3
 10
-464.915694503009830
 20
-232.609103385877570
 40
3.000000000000205
 50
147.076446369973640
 51
232.764423686618530
  0
ARC
  8
0
  6
CONTINUOUS
 62
3
 10
-372.941469937632860
 20
-232.609103385877570
 40
3.000000000000068
 50
307.235576313381440
 51
32.923553630026383
  0
ARC
  8
0
  6
CONTINUOUS
 62
3
 10
-358.420851277082310
 20
-218.088484725327360
 40
2.999999999999918
 50
237.076446369970110
 51
322.764423686620200
  0
ARC
  8
0
  6
CONTINUOUS
 62
3
 10
-473.729357762278940
 20
-226.902147984596130
 40
7.500000000000062
 50
327.076446369969290
 51
122.923553630030650
  0
ARC
  8
0
  6
CONTINUOUS
 62
3
 10
-364.127806678363750
 20
-226.902147984596130
 40
7.500000000000062
 50
57.076446369969339
 51
212.923553630030680
  0
ARC
  8
0
  6
CONTINUOUS
 62
3
 10
-444.428582220321350
 20
-201.605101502867460
 40
3.000000000000000
 50
0.000000000000000
 51
16.586214890014475
  0
ARC
  8
0
  6
CONTINUOUS
 62
3
 10
-433.428582220321350
 20
-207.226150022005750
 40
3.000000000000127
 50
67.568479364624565
 51
180.000000000000000
  0
ARC
  8
0
  6
CONTINUOUS
 62
3
 10
-404.428582220321350
 20
-207.226150022005750
 40
3.000000000000000
 50
0.000000000000000
 51
112.431520635375430
  0
ARC
  8
0
  6
CONTINUOUS
 62
3
 10
-393.428582220321350
 20
-201.605101502867460
 40
3.000000000000254
 50
163.413785109985530
 51
180.000000000000000
  0
ARC
  8
0
  6
CONTINUOUS
 62
3
 10
-444.428582220321350
 20
-247.601372442638760
 40
3.000000000000000
 50
270.000000000000000
 51
0.000000000000000
  0
ARC
  8
0
  6
CONTINUOUS
 62
3
 10
-433.428582220321350
 20
-247.601372442638760
 40
3.000000000000000
 50
180.000000000000000
 51
270.000000000000000
  0
ARC
  8
0
  6
CONTINUOUS
 62
3
 10
-404.428582220321350
 20
-247.601372442638760
 40
3.000000000000000
 50
270.000000000000000
 51
0.000000000000000
  0
ARC
  8
0
  6
CONTINUOUS
 62
3
 10
-393.428582220321350
 20
-247.601372442638760
 40
3.000000000000000
 50
180.000000000000000
 51
270.000000000000000
  0
LINE
  8
0
  6
CONTINUOUS
 62
3
 10
-441.428582220321350
 20
-201.605101502867460
 11
-441.428582220321350
 21
-247.601372442638760
  0
LINE
  8
0
  6
CONTINUOUS
 62
3
 10
-436.428582220321350
 20
-207.226150022005750
 11
-436.428582220321350
 21
-247.601372442638760
  0
LINE
  8
0
  6
CONTINUOUS
 62
3
 10
-401.428582220321350
 20
-207.226150022005750
 11
-401.428582220321350
 21
-247.601372442638760
  0
LINE
  8
0
  6
CONTINUOUS
 62
3
 10
-396.428582220321350
 20
-201.605101502867460
 11
-396.428582220321350
 21
-247.601372442638760
  0
ARC
  8
0
  6
CONTINUOUS
 62
3
 10
-432.428582220321350
 20
-158.601372442638760
 40
70.000000000000028
 50
135.306935940307680
 51
137.401051550010270
  0
ARC
  8
0
  6
CONTINUOUS
 62
3
 10
-405.428582220321350
 20
-158.601372442638760
 40
69.999999999999986
 50
42.177418600897646
 51
44.693064059692304
  0
LINE
  8
0
  6
CONTINUOUS
 62
3
 10
-335.428582220321350
 20
-171.601372442640130
 11
-335.428582220321350
 21
-185.601372442638760
  0
LINE
  8
0
  6
CONTINUOUS
 62
3
 10
-502.428582220321350
 20
-176.365841461051960
 11
-502.428582220321350
 21
-185.601372442638760
  0
POINT
  8
0
  6
DASHED
 62
3
 10
-418.928582220321350
 20
-172.101372442638760
  0
POINT
  8
0
  6
DASHDOT
 62
4
 10
-418.928582220321350
 20
-172.101372442638760
  0
POINT
  8
0
  6
DASHDOT
 62
4
 10
-418.928582220321350
 20
-172.101372442638760
  0
POINT
  8
0
  6
CONTINUOUS
 62
4
 10
-418.928582220321350
 20
-172.101372442638760
  0
POINT
  8
0
  6
CONTINUOUS
 62
3
 10
-418.928582220321350
 20
-172.101372442638760
  0
POINT
  8
0
  6
CONTINUOUS
 62
4
 10
-418.928582220321350
 20
-172.101372442638760
  0
POINT
  8
0
  6
DASHDOT
 62
4
 10
-418.928582220321350
 20
-172.101372442638760
  0
POINT
  8
0
  6
CONTINUOUS
 62
3
 10
-418.928582220321350
 20
-172.101372442638760
  0
POINT
  8
0
  6
CONTINUOUS
 62
4
 10
-418.928582220321350
 20
-172.101372442638760
  0
POINT
  8
0
  6
DASHDOT
 62
4
 10
-418.928582220321350
 20
-172.101372442638760
  0
ARC
  8
0
  6
CONTINUOUS
 62
3
 10
-418.928582220321350
 20
-172.101372442638760
 40
35.000000000000028
 50
235.503770534084960
 51
304.496229465915060
  0
LINE
  8
0
  6
CONTINUOUS
 62
3
 10
-405.428582220321350
 20
-255.601372442638760
 11
-432.428582220321350
 21
-255.601372442638760
  0
ARC
  8
0
  6
CONTINUOUS
 62
3
 10
-405.428582220321350
 20
-185.601372442638760
 40
70.000000000000000
 50
270.000000000000000
 51
0.000000000000000
  0
ARC
  8
0
  6
CONTINUOUS
 62
3
 10
-432.428582220321350
 20
-185.601372442638760
 40
70.000000000000000
 50
180.000000000000000
 51
270.000000000000000
  0
INSERT
  8
0
  2
SYM20
 10
-364.127806678363750
 20
-226.902147984596130
  0
INSERT
  8
0
  2
SYM20
 10
-473.729357762278940
 20
-226.902147984596130
  0
LINE
  8
0
  6
DASHDOT
 62
4
 10
-552.043405638574770
 20
-141.601372442640580
 11
-288.372156199930030
 21
-141.601372442640580
  0
LINE
  8
0
  6
DASHDOT
 62
4
 10
-387.518057417692030
 20
-140.101372442638080
 11
-449.381525016819070
 21
-140.101372442638080
  0
INSERT
  8
0
  2
SYM21
 10
-506.373404426664710
 20
-182.520329053901040
 41
1.000000000000000
 42
1.000000000000000
 43
1.000000000000000
 50
357.137594773886350
  0
LINE
  8
0
  6
CONTINUOUS
 62
3
 10
-499.931451840902240
 20
-85.721252369860395
 11
-505.025088769179210
 21
-187.593990935401170
  0
LINE
  8
0
  6
CONTINUOUS
 62
3
 10
-505.025088769179210
 20
-187.593990935401170
 11
-506.623092511383790
 21
-187.514090748290190
  0
LINE
  8
0
  6
CONTINUOUS
 62
3
 10
-501.529455583106820
 20
-85.641352182750211
 11
-506.623092511383790
 21
-187.514090748290190
  0
ARC
  8
0
  6
CONTINUOUS
 62
3
 10
-502.647084684957350
 20
-88.388967778995038
 40
1.299999237060474
 50
87.137594090651831
 51
160.536063666412870
  0
ARC
  8
0
  6
CONTINUOUS
 62
3
 10
-502.866810275709330
 20
-92.783479594032769
 40
1.299999237060493
 50
193.739143184211430
 51
267.137612759980240
  0
LINE
  8
0
  6
CONTINUOUS
 62
3
 10
-501.604362008522120
 20
-87.139480691066865
 11
-502.582165821029660
 21
-87.090590500441522
  0
LINE
  8
0
  6
CONTINUOUS
 62
3
 10
-501.953925327129240
 20
-94.130747063211743
 11
-502.931729139637010
 21
-94.081856872586400
  0
LINE
  8
0
  6
CONTINUOUS
 62
3
 10
-501.604362008522120
 20
-87.139480691066865
 11
-501.953925327129240
 21
-94.130747063211743
  0
LINE
  8
0
  6
CONTINUOUS
 62
3
 10
-501.604362008522120
 20
-87.139480691066865
 11
-501.953925327129240
 21
-94.130747063211743
  0
POINT
  8
0
  6
CONTINUOUS
 62
3
 10
-501.779143667825680
 20
-90.635113877139247
  0
ARC
  8
0
  6
CONTINUOUS
 62
3
 10
-495.387129080001270
 20
-90.954714606530501
 40
9.000000000000060
 50
160.536063666407810
 51
193.739143184213500
  0
LINE
  8
0
  6
CONTINUOUS
 62
3
 10
-501.529455583106820
 20
-85.641352182750211
 11
-499.931451840902240
 21
-85.721252369860395
  0
ARC
  8
0
  6
CONTINUOUS
 62
3
 10
-502.228582220321300
 20
-115.643872442640600
 40
18.799999999999933
 50
144.191373186504250
 51
174.275189547776390
  0
ARC
  8
0
  6
CONTINUOUS
 62
3
 10
-502.228582220321300
 20
-115.643872442640600
 40
18.800000000000036
 50
94.873974813842736
 51
144.191373186504250
  0
LINE
  8
0
  6
CONTINUOUS
 62
3
 10
-524.924841571942240
 20
-153.569059475059590
 11
-520.934816634286220
 21
-113.768560721942320
  0
ARC
  8
0
  6
CONTINUOUS
 62
3
 10
-508.155048051653580
 20
-178.103232764684090
 40
2.000000000000154
 50
357.137594773887600
 51
80.083463391767268
  0
LINE
  8
0
  6
CONTINUOUS
 62
3
 10
-500.730453712004530
 20
-85.681302276305360
 11
-505.824090640281500
 21
-187.554040841845450
  0
ARC
  8
0
  6
CONTINUOUS
 62
3
 10
-502.562034953937770
 20
-178.382883419569910
 40
1.999999999999962
 50
94.191726156001650
 51
177.137594773887290
  0
ARC
  8
0
  6
CONTINUOUS
 62
3
 10
-503.995840683950180
 20
-94.919085410617072
 40
1.999999999999928
 50
274.873974813840960
 51
357.137594773887320
  0
ARC
  8
0
  6
CONTINUOUS
 62
3
 10
-498.402827586234370
 20
-95.198736065502885
 40
1.999999999999927
 50
177.137594773887290
 51
259.401214733934010
  0
ARC
  8
0
  6
CONTINUOUS
 62
3
 10
-504.228582220321300
 20
-155.643872442640600
 40
20.799999999999986
 50
174.275189547776620
 51
205.640070215894870
  0
ARC
  8
0
  6
CONTINUOUS
 62
3
 10
-504.228582220321300
 20
-155.643872442640600
 40
20.799999999999926
 50
205.640070215894870
 51
260.083463391769440
  0
ARC
  8
0
  6
CONTINUOUS
 62
3
 10
-504.228582220321300
 20
-155.643872442640600
 40
20.799999999999986
 50
174.275189547776620
 51
205.640070215894870
  0
ARC
  8
0
  6
CONTINUOUS
 62
3
 10
-502.228582220321300
 20
-115.643872442640600
 40
18.799999999999955
 50
0.000000000000000
 51
79.401214733933941
  0
POINT
  8
0
  6
DASHDOT
 62
4
 10
-483.428582220321350
 20
-141.615102935766570
  0
POINT
  8
0
  6
DASHDOT
 62
4
 10
-483.428582220321350
 20
-141.615102935766570
  0
LINE
  8
0
  6
CONTINUOUS
 62
3
 10
-483.428582220321350
 20
-124.270763682415170
 11
-483.428582220321350
 21
-115.643872442640600
  0
ARC
  8
0
  6
CONTINUOUS
 62
3
 10
-504.228582220321300
 20
-155.643872442640600
 40
20.800000000000082
 50
274.191726156007460
 51
354.952683218987490
  0
LINE
  8
0
  6
DASHDOT
 62
4
 10
-486.658471263742630
 20
-141.601372442640580
 11
-477.026567874696410
 21
-141.601372442640580
  0
ARC
  8
0
  6
CONTINUOUS
 62
4
 10
-418.928582220321120
 20
98.998627557359328
 40
289.396999999999820
 50
262.102011327572200
 51
270.000000000000000
  0
ARC
  8
0
  6
CONTINUOUS
 62
4
 10
-457.870100175703440
 20
-181.710149983227320
 40
6.000000000000049
 50
225.000000000003070
 51
262.102011327574360
  0
LINE
  8
0
  6
CONTINUOUS
 62
4
 10
-462.112740862822530
 20
-185.952790670346870
 11
-466.688806255461150
 21
-181.376725277708260
  0
ARC
  8
0
  6
CONTINUOUS
 62
4
 10
-455.801483145531730
 20
-170.489402167778850
 40
15.397000000000052
 50
186.051985358668840
 51
225.000000000000000
  0
ARC
  8
0
  6
CONTINUOUS
 62
4
 10
-183.328582220321210
 20
-141.601372442640580
 40
289.397000000000160
 50
180.000000000000000
 51
186.051985358668500
  0
ARC
  8
0
  6
CONTINUOUS
 62
4
 10
-418.928582220321350
 20
98.998627557359328
 40
289.396999999999930
 50
270.000000000000000
 51
277.897988672427800
  0
ARC
  8
0
  6
CONTINUOUS
 62
4
 10
-379.987064264939020
 20
-181.710149983227320
 40
5.999999999999923
 50
277.897988672425640
 51
314.999999999996870
  0
LINE
  8
0
  6
CONTINUOUS
 62
4
 10
-375.744423577819930
 20
-185.952790670346870
 11
-371.168358185181320
 21
-181.376725277708260
  0
ARC
  8
0
  6
CONTINUOUS
 62
4
 10
-382.055681295110730
 20
-170.489402167778850
 40
15.396999999999876
 50
315.000000000000000
 51
353.948014641331160
  0
ARC
  8
0
  6
CONTINUOUS
 62
4
 10
-654.528582220321250
 20
-141.601372442640580
 40
289.397000000000160
 50
353.948014641331500
 51
0.000000000000000
  0
ARC
  8
0
  6
CONTINUOUS
 62
4
 10
-418.928582220321350
 20
-382.201372442640490
 40
289.396999999999820
 50
82.102011327572214
 51
90.000000000000000
  0
ARC
  8
0
  6
CONTINUOUS
 62
4
 10
-379.987064264939020
 20
-101.492594902053830
 40
6.000000000000049
 50
45.000000000003077
 51
82.102011327574374
  0
LINE
  8
0
  6
CONTINUOUS
 62
4
 10
-375.744423577819930
 20
-97.249954214934291
 11
-371.168358185181320
 21
-101.826019607572900
  0
ARC
  8
0
  6
CONTINUOUS
 62
4
 10
-382.055681295110730
 20
-112.713342717502310
 40
15.397000000000052
 50
6.051985358668849
 51
45.000000000000000
  0
ARC
  8
0
  6
CONTINUOUS
 62
4
 10
-654.528582220321250
 20
-141.601372442640580
 40
289.397000000000160
 50
0.000000000000000
 51
6.051985358668508
  0
ARC
  8
0
  6
CONTINUOUS
 62
4
 10
-455.801483145531730
 20
-112.713342717502310
 40
15.396999999999876
 50
135.000000000000000
 51
173.948014641331160
  0
ARC
  8
0
  6
CONTINUOUS
 62
3
 10
-382.055681295110730
 20
-170.489402167778850
 40
26.599999999999955
 50
315.000000000001020
 51
353.948014641331380
  0
ARC
  8
0
  6
CONTINUOUS
 62
3
 10
-455.801483145531730
 20
-170.489402167778850
 40
26.599999999999969
 50
186.051985358668590
 51
224.999999999998980
  0
ARC
  8
0
  6
CONTINUOUS
 62
3
 10
-455.801483145531730
 20
-112.713342717502310
 40
26.600000000000119
 50
135.000000000000000
 51
173.948014641331410
  0
ARC
  8
0
  6
CONTINUOUS
 62
3
 10
-382.055681295110960
 20
-112.713342717502310
 40
26.600000000000193
 50
6.051985358668552
 51
45.000000000000000
  0
LINE
  8
0
  6
CONTINUOUS
 62
3
 10
-467.544074406435020
 20
-86.837853219281101
 11
-474.610523525093980
 21
-93.904302337940067
  0
ARC
  8
0
  6
CONTINUOUS
 62
3
 10
-462.877169650603830
 20
-191.697986910169110
 40
6.599999999999957
 50
225.000000000000000
 51
261.402917762751090
  0
ARC
  8
0
  6
CONTINUOUS
 62
3
 10
-418.928582220321350
 20
98.998627557359555
 40
300.600000000000020
 50
261.402917762750920
 51
270.000000000000000
  0
ARC
  8
0
  6
CONTINUOUS
 62
3
 10
-374.979994790038860
 20
-191.697986910169110
 40
6.599999999999747
 50
278.597082237248910
 51
315.000000000000000
  0
LINE
  8
0
  6
CONTINUOUS
 62
3
 10
-370.313090034207680
 20
-196.364891666000290
 11
-363.246640915548260
 21
-189.298442547340640
  0
ARC
  8
0
  6
CONTINUOUS
 62
3
 10
-654.528582220321250
 20
-141.601372442640580
 40
300.600000000000080
 50
353.948014641331500
 51
6.051985358668499
  0
ARC
  8
0
  6
CONTINUOUS
 62
3
 10
-418.928582220321350
 20
-382.201372442640490
 40
300.599999999999800
 50
81.402917762750931
 51
90.000000000000000
  0
ARC
  8
0
  6
CONTINUOUS
 62
3
 10
-374.979994790038860
 20
-91.504757975112284
 40
6.600000000000118
 50
45.000000000001400
 51
81.402917762751386
  0
ARC
  8
0
  6
CONTINUOUS
 62
3
 10
-418.928582220321350
 20
98.998627557359555
 40
300.600000000000140
 50
270.000000000000000
 51
278.597082237249080
  0
ARC
  8
0
  6
CONTINUOUS
 62
3
 10
-418.928582220321350
 20
-382.201372442640490
 40
300.599999999999910
 50
90.000000000000000
 51
98.597082237249069
  0
ARC
  8
0
  6
CONTINUOUS
 62
3
 10
-183.328582220321320
 20
-141.601372442640580
 40
300.599999999999970
 50
173.948014641331500
 51
186.051985358668500
  0
LINE
  8
0
  6
CONTINUOUS
 62
3
 10
-370.313090034207680
 20
-86.837853219281101
 11
-363.246640915548710
 21
-93.904302337940067
  0
LINE
  8
0
  6
CONTINUOUS
 62
3
 10
-467.544074406435020
 20
-196.364891666000290
 11
-474.610523525094210
 21
-189.298442547340640
  0
ARC
  8
0
  6
CONTINUOUS
 62
3
 10
-414.928582220321350
 20
-100.294593337995020
 40
1.500000000000203
 50
84.468928475159132
 51
180.000000000000000
  0
ARC
  8
0
  6
CONTINUOUS
 62
3
 10
-422.928582220321350
 20
-100.294593337994790
 40
1.500000000000000
 50
0.000000000000000
 51
95.531071524841693
  0
ARC
  8
0
  6
CONTINUOUS
 62
3
 10
-418.928582220321120
 20
-141.601372442640130
 40
17.999999999999922
 50
41.837004155893325
 51
78.162995844107314
  0
ARC
  8
0
  6
CONTINUOUS
 62
3
 10
-418.928582220321570
 20
-141.601372442640130
 40
27.499999999999815
 50
97.928141766201691
 51
142.071858233797880
  0
LINE
  8
0
  6
CONTINUOUS
 62
3
 10
-416.428582220321350
 20
-100.294593337995020
 11
-416.428582220321350
 21
-103.309728445549010
  0
LINE
  8
0
  6
CONTINUOUS
 62
3
 10
-387.017045766170550
 20
-120.290486934633800
 11
-384.405862167186460
 21
-118.782919380856690
  0
LINE
  8
0
  6
CONTINUOUS
 62
3
 10
-416.428582220321350
 20
-109.852356709865600
 11
-416.428582220321350
 21
-112.878559209950140
  0
ARC
  8
0
  6
CONTINUOUS
 62
3
 10
-414.928582220321350
 20
-109.852356709865600
 40
1.499999999999998
 50
82.819244218541712
 51
180.000000000000000
  0
ARC
  8
0
  6
CONTINUOUS
 62
3
 10
-414.928582220321350
 20
-103.309728445549010
 40
1.500000000000000
 50
180.000000000000000
 51
264.036429881682580
  0
ARC
  8
0
  6
CONTINUOUS
 62
3
 10
-385.155862167186460
 20
-117.483881275179890
 40
1.500000000000123
 50
299.999999999997270
 51
35.531071524839192
  0
ARC
  8
0
  6
CONTINUOUS
 62
3
 10
-418.928582220321800
 20
-141.601372442640580
 40
42.999999999999908
 50
35.531071524839248
 51
84.468928475160212
  0
ARC
  8
0
  6
CONTINUOUS
 62
3
 10
-381.155862167186000
 20
-124.412084505455930
 40
1.500000000000034
 50
24.468928475159590
 51
119.999999999997270
  0
LINE
  8
0
  6
CONTINUOUS
 62
3
 10
-384.517045766170330
 20
-124.620613953556240
 11
-381.905862167186000
 21
-123.113046399779130
  0
ARC
  8
0
  6
CONTINUOUS
 62
3
 10
-383.767045766170330
 20
-125.919652059233040
 40
1.500000000000123
 50
119.999999999997270
 51
204.036429881680680
  0
ARC
  8
0
  6
CONTINUOUS
 62
3
 10
-418.928582220321570
 20
-141.601372442641040
 40
36.999999999999972
 50
335.963570118321740
 51
24.036429881678870
  0
ARC
  8
0
  6
CONTINUOUS
 62
3
 10
-418.928582220321570
 20
-141.601372442641040
 40
42.999999999999936
 50
335.531071524839770
 51
24.468928475160769
  0
ARC
  8
0
  6
CONTINUOUS
 62
3
 10
-381.155862167186000
 20
-158.790660379825450
 40
1.500000000000320
 50
240.000000000007050
 51
335.531071524832500
  0
LINE
  8
0
  6
CONTINUOUS
 62
3
 10
-381.905862167186000
 20
-160.089698485502480
 11
-384.517045766170100
 21
-158.582130931725150
  0
ARC
  8
0
  6
CONTINUOUS
 62
3
 10
-383.767045766170100
 20
-157.283092826048570
 40
1.500000000000063
 50
155.963570118322880
 51
239.999999999998410
  0
ARC
  8
0
  6
CONTINUOUS
 62
3
 10
-385.155862167186000
 20
-165.718863610101270
 40
1.499999999999844
 50
324.468928475167900
 51
59.999999999998380
  0
LINE
  8
0
  6
CONTINUOUS
 62
3
 10
-384.405862167186000
 20
-164.419825504424690
 11
-387.017045766170100
 21
-162.912257950647360
  0
LINE
  8
0
  6
CONTINUOUS
 62
3
 10
-421.428582220321350
 20
-100.294593337994790
 11
-421.428582220321350
 21
-103.309728445549010
  0
ARC
  8
0
  6
CONTINUOUS
 62
3
 10
-422.928582220321350
 20
-103.309728445549010
 40
1.499999999999933
 50
275.963570118318330
 51
0.000000000000000
  0
LINE
  8
0
  6
CONTINUOUS
 62
3
 10
-421.428582220321350
 20
-109.852356709865600
 11
-421.428582220321350
 21
-112.878559209950140
  0
ARC
  8
0
  6
CONTINUOUS
 62
3
 10
-422.928582220321350
 20
-109.852356709865600
 40
1.500000000000000
 50
0.000000000000000
 51
97.180755781458288
  0
ARC
  8
0
  6
CONTINUOUS
 62
3
 10
-418.928582220321800
 20
-141.601372442640130
 40
23.999999999999901
 50
100.240348321185670
 51
139.759651678813550
  0
ARC
  8
0
  6
CONTINUOUS
 62
3
 10
-436.103761489366320
 20
-127.066475914760190
 40
1.499999999999802
 50
139.759651678811420
 51
239.999999999998410
  0
LINE
  8
0
  6
CONTINUOUS
 62
3
 10
-434.206966896387140
 20
-129.893641591182930
 11
-436.853761489366320
 21
-128.365514020436760
  0
ARC
  8
0
  6
CONTINUOUS
 62
3
 10
-433.456966896387140
 20
-128.594603485506350
 40
1.499999999999926
 50
239.999999999998410
 51
318.162995844106720
  0
ARC
  8
0
  6
CONTINUOUS
 62
3
 10
-418.928582220321800
 20
-141.601372442640130
 40
17.999999999999829
 50
101.837004155891980
 51
138.162995844106210
  0
ARC
  8
0
  6
CONTINUOUS
 62
3
 10
-422.928582220321350
 20
-122.516037758647940
 40
1.499999999999954
 50
281.837004155896690
 51
0.000000000000000
  0
LINE
  8
0
  6
CONTINUOUS
 62
3
 10
-421.428582220321350
 20
-119.459782617155610
 11
-421.428582220321350
 21
-122.516037758647940
  0
ARC
  8
0
  6
CONTINUOUS
 62
3
 10
-422.928582220321350
 20
-119.459782617155610
 40
1.500000000000000
 50
0.000000000000000
 51
100.240348321194510
  0
ARC
  8
0
  6
CONTINUOUS
 62
3
 10
-418.928582220321800
 20
-141.601372442640130
 40
14.499999999999980
 50
107.920213139390830
 51
132.079786860607560
  0
ARC
  8
0
  6
CONTINUOUS
 62
3
 10
-427.640724863135920
 20
-131.952612389075850
 40
1.499999999999792
 50
132.079786860611680
 51
239.999999999998410
  0
LINE
  8
0
  6
CONTINUOUS
 62
3
 10
-425.615836153515260
 20
-134.853733238223300
 11
-428.390724863135920
 21
-133.251650494752430
  0
ARC
  8
0
  6
CONTINUOUS
 62
3
 10
-424.865836153515260
 20
-133.554695132546730
 40
1.499999999999926
 50
239.999999999998410
 51
306.421821521797600
  0
ARC
  8
0
  6
CONTINUOUS
 62
3
 10
-418.928582220321800
 20
-141.601372442640130
 40
8.499999999999879
 50
113.578178478199500
 51
126.421821521797340
  0
ARC
  8
0
  6
CONTINUOUS
 62
3
 10
-422.928582220321350
 20
-132.436221052728230
 40
1.500000000000139
 50
293.578178478195700
 51
0.000000000000000
  0
LINE
  8
0
  6
CONTINUOUS
 62
3
 10
-421.428582220321350
 20
-129.232055565787160
 11
-421.428582220321350
 21
-132.436221052728230
  0
ARC
  8
0
  6
CONTINUOUS
 62
3
 10
-422.928582220321350
 20
-129.232055565787160
 40
1.500000000000000
 50
0.000000000000000
 51
107.920213139394770
  0
ARC
  8
0
  6
CONTINUOUS
 62
3
 10
-418.928582220321350
 20
-141.601372442640580
 40
23.999999999999716
 50
280.240348321186270
 51
319.759651678814690
  0
ARC
  8
0
  6
CONTINUOUS
 62
3
 10
-414.928582220321350
 20
-163.742962268125100
 40
1.500000000000000
 50
180.000000000000000
 51
280.240348321187530
  0
LINE
  8
0
  6
CONTINUOUS
 62
3
 10
-416.428582220321350
 20
-160.686707126632770
 11
-416.428582220321350
 21
-163.742962268125100
  0
ARC
  8
0
  6
CONTINUOUS
 62
3
 10
-414.928582220321350
 20
-160.686707126632770
 40
1.499999999999731
 50
101.837004155898450
 51
180.000000000000000
  0
ARC
  8
0
  6
CONTINUOUS
 62
3
 10
-418.928582220321350
 20
-141.601372442640580
 40
18.000000000000146
 50
281.837004155893230
 51
318.162995844107680
  0
ARC
  8
0
  6
CONTINUOUS
 62
3
 10
-404.400197544255550
 20
-154.608141399774350
 40
1.499999999999926
 50
59.999999999998380
 51
138.162995844100240
  0
LINE
  8
0
  6
CONTINUOUS
 62
3
 10
-401.003402951276600
 20
-154.837230864843950
 11
-403.650197544255550
 21
-153.309103294097780
  0
ARC
  8
0
  6
CONTINUOUS
 62
3
 10
-401.753402951276600
 20
-156.136268970520520
 40
1.499999999999828
 50
319.759651678823670
 51
59.999999999998380
  0
ARC
  8
0
  6
CONTINUOUS
 62
3
 10
-418.928582220321350
 20
-141.601372442640580
 40
14.500000000000121
 50
287.920213139392560
 51
312.079786860608860
  0
ARC
  8
0
  6
CONTINUOUS
 62
3
 10
-414.928582220321350
 20
-153.970689319493320
 40
1.500000000000000
 50
180.000000000000000
 51
287.920213139392100
  0
LINE
  8
0
  6
CONTINUOUS
 62
3
 10
-416.428582220321350
 20
-150.766523832552020
 11
-416.428582220321350
 21
-153.970689319493320
  0
ARC
  8
0
  6
CONTINUOUS
 62
3
 10
-414.928582220321350
 20
-150.766523832552480
 40
1.500000000000139
 50
113.578178478195690
 51
179.999999999982630
  0
ARC
  8
0
  6
CONTINUOUS
 62
3
 10
-418.928582220321350
 20
-141.601372442640580
 40
8.500000000000060
 50
293.578178478202350
 51
306.421821521799190
  0
ARC
  8
0
  6
CONTINUOUS
 62
3
 10
-412.991328287127430
 20
-149.648049752733980
 40
1.499999999999926
 50
59.999999999998380
 51
126.421821521801260
  0
LINE
  8
0
  6
CONTINUOUS
 62
3
 10
-409.466439577507000
 20
-149.951094390527830
 11
-412.241328287127430
 21
-148.349011647057410
  0
ARC
  8
0
  6
CONTINUOUS
 62
3
 10
-410.216439577507000
 20
-151.250132496204860
 40
1.499999999999944
 50
312.079786860618130
 51
60.000000000007070
  0
ARC
  8
0
  6
CONTINUOUS
 62
3
 10
-418.928582220321350
 20
-141.601372442640580
 40
23.999999999999844
 50
220.240348321185340
 51
259.759651678813730
  0
ARC
  8
0
  6
CONTINUOUS
 62
3
 10
-422.928582220321350
 20
-163.742962268125100
 40
1.499999999999728
 50
259.759651678812470
 51
0.000000000000000
  0
LINE
  8
0
  6
CONTINUOUS
 62
3
 10
-421.428582220321350
 20
-160.686707126632770
 11
-421.428582220321350
 21
-163.742962268125100
  0
ARC
  8
0
  6
CONTINUOUS
 62
3
 10
-422.928582220321350
 20
-160.686707126632770
 40
1.500000000000000
 50
0.000000000000000
 51
78.162995844101530
  0
ARC
  8
0
  6
CONTINUOUS
 62
3
 10
-418.928582220321350
 20
-141.601372442640580
 40
17.999999999999940
 50
221.837004155892320
 51
258.162995844106770
  0
ARC
  8
0
  6
CONTINUOUS
 62
3
 10
-433.456966896387140
 20
-154.608141399774350
 40
1.500000000000118
 50
41.837004155899741
 51
120.000000000001620
  0
LINE
  8
0
  6
CONTINUOUS
 62
3
 10
-436.853761489366090
 20
-154.837230864843950
 11
-434.206966896387140
 21
-153.309103294097780
  0
ARC
  8
0
  6
CONTINUOUS
 62
3
 10
-436.103761489366090
 20
-156.136268970520520
 40
1.499999999999926
 50
120.000000000001620
 51
220.240348321176330
  0
ARC
  8
0
  6
CONTINUOUS
 62
3
 10
-418.928582220321350
 20
-141.601372442640580
 40
14.500000000000011
 50
227.920213139391080
 51
252.079786860607410
  0
ARC
  8
0
  6
CONTINUOUS
 62
3
 10
-422.928582220321350
 20
-153.970689319493320
 40
1.500000000000355
 50
252.079786860607900
 51
0.000000000000000
  0
LINE
  8
0
  6
CONTINUOUS
 62
3
 10
-421.428582220321350
 20
-150.766523832552020
 11
-421.428582220321350
 21
-153.970689319493320
  0
ARC
  8
0
  6
CONTINUOUS
 62
3
 10
-422.928582220321350
 20
-150.766523832552480
 40
1.500000000000000
 50
0.000000000017370
 51
66.421821521804304
  0
ARC
  8
0
  6
CONTINUOUS
 62
3
 10
-418.928582220321350
 20
-141.601372442640580
 40
8.499999999999870
 50
233.578178478199590
 51
246.421821521797680
  0
ARC
  8
0
  6
CONTINUOUS
 62
3
 10
-424.865836153515260
 20
-149.648049752733980
 40
1.500000000000059
 50
53.578178478205707
 51
120.000000000001620
  0
LINE
  8
0
  6
CONTINUOUS
 62
3
 10
-428.390724863135690
 20
-149.951094390527830
 11
-425.615836153515260
 21
-148.349011647057410
  0
ARC
  8
0
  6
CONTINUOUS
 62
3
 10
-427.640724863135690
 20
-151.250132496204860
 40
1.500000000000320
 50
119.999999999992930
 51
227.920213139381870
  0
ARC
  8
0
  6
CONTINUOUS
 62
3
 10
-418.928582220321800
 20
-141.601372442640130
 40
23.999999999999925
 50
160.240348321185910
 51
199.759651678814090
  0
ARC
  8
0
  6
CONTINUOUS
 62
3
 10
-440.103761489366320
 20
-133.994679145035550
 40
1.499999999999926
 50
59.999999999998380
 51
160.240348321185250
  0
LINE
  8
0
  6
CONTINUOUS
 62
3
 10
-436.706966896387140
 20
-134.223768610105140
 11
-439.353761489366320
 21
-132.695641039358970
  0
ARC
  8
0
  6
CONTINUOUS
 62
3
 10
-437.456966896387140
 20
-135.522806715781710
 40
1.500000000000038
 50
341.837004155895390
 51
59.999999999998380
  0
ARC
  8
0
  6
CONTINUOUS
 62
3
 10
-418.928582220321800
 20
-141.601372442640130
 40
17.999999999999726
 50
161.837004155893140
 51
198.162995844106860
  0
ARC
  8
0
  6
CONTINUOUS
 62
3
 10
-437.456966896387140
 20
-147.679938169498540
 40
1.500000000000320
 50
299.999999999992950
 51
18.162995844104589
  0
LINE
  8
0
  6
CONTINUOUS
 62
3
 10
-439.353761489366090
 20
-150.507103845921280
 11
-436.706966896387140
 21
-148.978976275175570
  0
ARC
  8
0
  6
CONTINUOUS
 62
3
 10
-440.103761489366090
 20
-149.208065740244710
 40
1.500000000000246
 50
199.759651678811820
 51
300.000000000001590
  0
ARC
  8
0
  6
CONTINUOUS
 62
3
 10
-418.928582220321800
 20
-141.601372442640130
 40
14.499999999999851
 50
167.920213139392840
 51
192.079786860608920
  0
ARC
  8
0
  6
CONTINUOUS
 62
3
 10
-431.640724863135920
 20
-138.880815619351210
 40
1.499999999999926
 50
59.999999999998380
 51
167.920213139405550
  0
LINE
  8
0
  6
CONTINUOUS
 62
3
 10
-428.115836153515260
 20
-139.183860257145510
 11
-430.890724863135920
 21
-137.581777513674640
  0
ARC
  8
0
  6
CONTINUOUS
 62
3
 10
-428.865836153515260
 20
-140.482898362822080
 40
1.499999999999873
 50
353.578178478198030
 51
59.999999999998380
  0
ARC
  8
0
  6
CONTINUOUS
 62
3
 10
-418.928582220321800
 20
-141.601372442640130
 40
8.499999999999813
 50
173.578178478202550
 51
186.421821521800500
  0
ARC
  8
0
  6
CONTINUOUS
 62
3
 10
-428.865836153515260
 20
-142.719846522458620
 40
1.499999999999926
 50
300.000000000001590
 51
6.421821521801967
  0
LINE
  8
0
  6
CONTINUOUS
 62
3
 10
-430.890724863135690
 20
-145.620967371605620
 11
-428.115836153515260
 21
-144.018884628135200
  0
ARC
  8
0
  6
CONTINUOUS
 62
3
 10
-431.640724863135690
 20
-144.321929265929040
 40
1.500000000000287
 50
192.079786860609600
 51
300.000000000001590
  0
ARC
  8
0
  6
CONTINUOUS
 62
3
 10
-418.928582220321120
 20
-141.601372442640130
 40
24.000000000000139
 50
340.240348321186050
 51
19.759651678813924
  0
ARC
  8
0
  6
CONTINUOUS
 62
3
 10
-397.753402951276600
 20
-133.994679145035550
 40
1.500000000000246
 50
19.759651678811824
 51
120.000000000001620
  0
LINE
  8
0
  6
CONTINUOUS
 62
3
 10
-401.150197544255550
 20
-134.223768610105140
 11
-398.503402951276600
 21
-132.695641039358970
  0
ARC
  8
0
  6
CONTINUOUS
 62
3
 10
-400.400197544255550
 20
-135.522806715781710
 40
1.499999999999926
 50
120.000000000001620
 51
198.162995844104590
  0
ARC
  8
0
  6
CONTINUOUS
 62
3
 10
-418.928582220321120
 20
-141.601372442640130
 40
17.999999999999943
 50
341.837004155893340
 51
18.162995844106646
  0
ARC
  8
0
  6
CONTINUOUS
 62
3
 10
-400.400197544255550
 20
-147.679938169498540
 40
1.500000000000038
 50
161.837004155895410
 51
240.000000000007050
  0
LINE
  8
0
  6
CONTINUOUS
 62
3
 10
-398.503402951276600
 20
-150.507103845921280
 11
-401.150197544255550
 21
-148.978976275175570
  0
ARC
  8
0
  6
CONTINUOUS
 62
3
 10
-397.753402951276600
 20
-149.208065740244710
 40
1.499999999999926
 50
239.999999999998410
 51
340.240348321188210
  0
ARC
  8
0
  6
CONTINUOUS
 62
3
 10
-418.928582220321120
 20
-141.601372442640130
 40
14.500000000000169
 50
347.920213139391310
 51
12.079786860606980
  0
ARC
  8
0
  6
CONTINUOUS
 62
3
 10
-406.216439577507000
 20
-138.880815619351210
 40
1.500000000000192
 50
12.079786860592611
 51
120.000000000001620
  0
LINE
  8
0
  6
CONTINUOUS
 62
3
 10
-409.741328287127430
 20
-139.183860257145510
 11
-406.966439577507000
 21
-137.581777513674640
  0
ARC
  8
0
  6
CONTINUOUS
 62
3
 10
-408.991328287127430
 20
-140.482898362822080
 40
1.499999999999926
 50
120.000000000001620
 51
186.421821521801010
  0
ARC
  8
0
  6
CONTINUOUS
 62
3
 10
-418.928582220321120
 20
-141.601372442640130
 40
8.499999999999865
 50
353.578178478199500
 51
6.421821521797448
  0
ARC
  8
0
  6
CONTINUOUS
 62
3
 10
-408.991328287127430
 20
-142.719846522458620
 40
1.500000000000099
 50
173.578178478198990
 51
239.999999999998410
  0
LINE
  8
0
  6
CONTINUOUS
 62
3
 10
-406.966439577507000
 20
-145.620967371605620
 11
-409.741328287127430
 21
-144.018884628135200
  0
ARC
  8
0
  6
CONTINUOUS
 62
3
 10
-406.216439577507000
 20
-144.321929265929040
 40
1.499999999999926
 50
239.999999999998410
 51
347.920213139390400
  0
ARC
  8
0
  6
CONTINUOUS
 62
3
 10
-418.928582220321120
 20
-141.601372442640130
 40
8.500000000000101
 50
53.578178478202659
 51
66.421821521799089
  0
ARC
  8
0
  6
CONTINUOUS
 62
3
 10
-418.928582220321120
 20
-141.601372442640130
 40
23.999999999999819
 50
40.240348321186090
 51
79.759651678814322
  0
LINE
  8
0
  6
CONTINUOUS
 62
3
 10
-412.241328287127430
 20
-134.853733238223300
 11
-409.466439577507000
 21
-133.251650494752430
  0
LINE
  8
0
  6
CONTINUOUS
 62
3
 10
-416.428582220321350
 20
-119.459782617155610
 11
-416.428582220321350
 21
-122.516037758647940
  0
LINE
  8
0
  6
CONTINUOUS
 62
3
 10
-416.428582220321350
 20
-129.232055565787160
 11
-416.428582220321350
 21
-132.436221052728230
  0
ARC
  8
0
  6
CONTINUOUS
 62
3
 10
-418.928582220321120
 20
-141.601372442640130
 40
14.499999999999860
 50
47.920213139391755
 51
72.079786860608309
  0
LINE
  8
0
  6
CONTINUOUS
 62
3
 10
-403.650197544255550
 20
-129.893641591182930
 11
-401.003402951276600
 21
-128.365514020436760
  0
ARC
  8
0
  6
CONTINUOUS
 62
3
 10
-410.216439577507000
 20
-131.952612389075850
 40
1.499999999999926
 50
300.000000000001590
 51
47.920213139381872
  0
ARC
  8
0
  6
CONTINUOUS
 62
3
 10
-414.928582220321350
 20
-119.459782617155610
 40
1.499999999999952
 50
79.759651678814024
 51
180.000000000000000
  0
ARC
  8
0
  6
CONTINUOUS
 62
3
 10
-404.400197544255550
 20
-128.594603485506350
 40
1.499999999999967
 50
221.837004155893280
 51
300.000000000001590
  0
ARC
  8
0
  6
CONTINUOUS
 62
3
 10
-414.928582220321350
 20
-122.516037758647940
 40
1.500000000000000
 50
180.000000000000000
 51
258.162995844103310
  0
ARC
  8
0
  6
CONTINUOUS
 62
3
 10
-414.928582220321350
 20
-129.232055565787160
 40
1.500000000000138
 50
72.079786860605225
 51
180.000000000000000
  0
ARC
  8
0
  6
CONTINUOUS
 62
3
 10
-401.753402951276600
 20
-127.066475914760190
 40
1.499999999999926
 50
300.000000000001590
 51
40.240348321182964
  0
ARC
  8
0
  6
CONTINUOUS
 62
3
 10
-414.928582220321350
 20
-132.436221052728230
 40
1.500000000000000
 50
180.000000000000000
 51
246.421821521804280
  0
ARC
  8
0
  6
CONTINUOUS
 62
3
 10
-412.991328287127430
 20
-133.554695132546730
 40
1.499999999999693
 50
233.578178478195410
 51
300.000000000001590
  0
CIRCLE
  8
0
  6
CONTINUOUS
 62
3
 10
-418.928582220321350
 20
-141.601372442640130
 40
5.000000000000000
  0
ARC
  8
0
  6
CONTINUOUS
 62
3
 10
-396.053896292655620
 20
-123.775864211157450
 40
1.499999999999843
 50
217.928141766204990
 51
300.000000000001590
  0
LINE
  8
0
  6
CONTINUOUS
 62
3
 10
-395.303896292655620
 20
-125.074902316834020
 11
-392.683128050586790
 21
-123.561801066791870
  0
ARC
  8
0
  6
CONTINUOUS
 62
3
 10
-414.928582220321350
 20
-112.878559209950140
 40
1.500000000000000
 50
180.000000000000000
 51
262.071858233795980
  0
ARC
  8
0
  6
CONTINUOUS
 62
3
 10
-418.928582220321120
 20
-141.601372442640130
 40
27.500000000000060
 50
37.928141766201819
 51
82.071858233798309
  0
ARC
  8
0
  6
CONTINUOUS
 62
3
 10
-393.433128050586790
 20
-122.262762961115300
 40
1.499999999999926
 50
300.000000000001590
 51
37.180755781457485
  0
ARC
  8
0
  6
CONTINUOUS
 62
3
 10
-387.767045766170550
 20
-118.991448828957000
 40
1.500000000000102
 50
215.963570118316280
 51
299.999999999997270
  0
ARC
  8
0
  6
CONTINUOUS
 62
3
 10
-418.928582220321800
 20
-141.601372442640580
 40
36.999999999999943
 50
35.963570118321194
 51
84.036429881678174
  0
ARC
  8
0
  6
CONTINUOUS
 62
3
 10
-418.928582220321800
 20
-141.601372442640580
 40
33.500000000000071
 50
37.180755781458259
 51
82.819244218540931
  0
LINE
  8
0
  6
CONTINUOUS
 62
3
 10
-392.803896292655390
 20
-129.405029335756690
 11
-390.183128050586560
 21
-127.891928085714540
  0
ARC
  8
0
  6
CONTINUOUS
 62
3
 10
-389.433128050586560
 20
-129.190966191391340
 40
1.499999999999948
 50
22.819244218550043
 51
119.999999999997270
  0
ARC
  8
0
  6
CONTINUOUS
 62
3
 10
-392.053896292655390
 20
-130.704067441433270
 40
1.499999999999926
 50
120.000000000001620
 51
202.071858233797370
  0
ARC
  8
0
  6
CONTINUOUS
 62
3
 10
-418.928582220320890
 20
-141.601372442640580
 40
27.499999999999886
 50
337.928141766202200
 51
22.071858233797812
  0
ARC
  8
0
  6
CONTINUOUS
 62
3
 10
-418.928582220321570
 20
-141.601372442641040
 40
33.500000000000128
 50
337.180755781459030
 51
22.819244218541968
  0
ARC
  8
0
  6
CONTINUOUS
 62
3
 10
-392.053896292655620
 20
-152.498677443847900
 40
1.499999999999899
 50
157.928141766199360
 51
240.000000000007050
  0
LINE
  8
0
  6
CONTINUOUS
 62
3
 10
-390.183128050586330
 20
-155.310816799566850
 11
-392.803896292655620
 21
-153.797715549524920
  0
ARC
  8
0
  6
CONTINUOUS
 62
3
 10
-389.433128050586330
 20
-154.011778693890280
 40
1.499999999999926
 50
239.999999999998410
 51
337.180755781453340
  0
ARC
  8
0
  6
CONTINUOUS
 62
3
 10
-414.928582220321120
 20
-182.908151547285680
 40
1.500000000000000
 50
180.000000000000000
 51
275.531071524831360
  0
LINE
  8
0
  6
CONTINUOUS
 62
3
 10
-416.428582220321120
 20
-179.893016439731470
 11
-416.428582220321120
 21
-182.908151547285680
  0
LINE
  8
0
  6
CONTINUOUS
 62
3
 10
-416.428582220321120
 20
-170.324185675331020
 11
-416.428582220321120
 21
-173.350388175415330
  0
ARC
  8
0
  6
CONTINUOUS
 62
3
 10
-414.928582220321120
 20
-179.893016439731920
 40
1.500000000000182
 50
95.963570118326047
 51
179.999999999982630
  0
ARC
  8
0
  6
CONTINUOUS
 62
3
 10
-414.928582220321120
 20
-173.350388175415330
 40
1.500000000000000
 50
180.000000000000000
 51
277.180755781458290
  0
ARC
  8
0
  6
CONTINUOUS
 62
3
 10
-414.928582220321120
 20
-170.324185675331020
 40
1.499999999999967
 50
97.928141766195438
 51
180.000000000000000
  0
ARC
  8
0
  6
CONTINUOUS
 62
3
 10
-418.928582220321120
 20
-141.601372442641040
 40
27.499999999999879
 50
277.928141766202600
 51
322.071858233798930
  0
ARC
  8
0
  6
CONTINUOUS
 62
3
 10
-418.928582220321120
 20
-141.601372442640130
 40
37.000000000000028
 50
275.963570118320770
 51
324.036429881678030
  0
ARC
  8
0
  6
CONTINUOUS
 62
3
 10
-418.928582220321120
 20
-141.601372442640130
 40
43.000000000000199
 50
275.531071524838860
 51
324.468928475160340
  0
ARC
  8
0
  6
CONTINUOUS
 62
3
 10
-418.928582220321120
 20
-141.601372442640130
 40
33.500000000000114
 50
277.180755781458230
 51
322.819244218540860
  0
ARC
  8
0
  6
CONTINUOUS
 62
3
 10
-396.053896292655620
 20
-159.426880674123710
 40
1.500000000000320
 50
60.000000000007070
 51
142.071858233781280
  0
ARC
  8
0
  6
CONTINUOUS
 62
3
 10
-387.767045766170100
 20
-164.211296056323930
 40
1.499999999999926
 50
59.999999999998380
 51
144.036429881690740
  0
LINE
  8
0
  6
CONTINUOUS
 62
3
 10
-392.683128050586330
 20
-159.640943818489060
 11
-395.303896292655620
 21
-158.127842568446680
  0
ARC
  8
0
  6
CONTINUOUS
 62
3
 10
-393.433128050586330
 20
-160.939981924165640
 40
1.500000000000240
 50
322.819244218535570
 51
59.999999999998380
  0
ARC
  8
0
  6
CONTINUOUS
 62
3
 10
-422.928582220321570
 20
-182.908151547285680
 40
1.500000000000430
 50
264.468928475160000
 51
0.000000000000000
  0
LINE
  8
0
  6
CONTINUOUS
 62
3
 10
-421.428582220321570
 20
-179.893016439731470
 11
-421.428582220321570
 21
-182.908151547285680
  0
LINE
  8
0
  6
CONTINUOUS
 62
3
 10
-421.428582220321570
 20
-170.324185675331020
 11
-421.428582220321570
 21
-173.350388175415330
  0
ARC
  8
0
  6
CONTINUOUS
 62
3
 10
-422.928582220321570
 20
-179.893016439731920
 40
1.500000000000000
 50
0.000000000017370
 51
84.036429881682594
  0
ARC
  8
0
  6
CONTINUOUS
 62
3
 10
-422.928582220321570
 20
-173.350388175415330
 40
1.499999999999998
 50
262.819244218541710
 51
0.000000000000000
  0
ARC
  8
0
  6
CONTINUOUS
 62
3
 10
-422.928582220321570
 20
-170.324185675331020
 40
1.500000000000000
 50
0.000000000000000
 51
82.071858233804562
  0
ARC
  8
0
  6
CONTINUOUS
 62
3
 10
-418.928582220321570
 20
-141.601372442641040
 40
27.499999999999780
 50
217.928141766201070
 51
262.071858233797400
  0
ARC
  8
0
  6
CONTINUOUS
 62
3
 10
-418.928582220321570
 20
-141.601372442640130
 40
37.000000000000021
 50
215.963570118321970
 51
264.036429881678940
  0
ARC
  8
0
  6
CONTINUOUS
 62
3
 10
-418.928582220321570
 20
-141.601372442640130
 40
42.999999999999858
 50
215.531071524839690
 51
264.468928475160850
  0
ARC
  8
0
  6
CONTINUOUS
 62
3
 10
-418.928582220321570
 20
-141.601372442640130
 40
33.500000000000163
 50
217.180755781459110
 51
262.819244218541770
  0
ARC
  8
0
  6
CONTINUOUS
 62
3
 10
-441.803268147987070
 20
-159.426880674123710
 40
1.500000000000122
 50
37.928141766218701
 51
119.999999999992930
  0
ARC
  8
0
  6
CONTINUOUS
 62
3
 10
-452.701302273456690
 20
-165.718863610101270
 40
1.499999999999926
 50
120.000000000001620
 51
215.531071524832130
  0
LINE
  8
0
  6
CONTINUOUS
 62
3
 10
-453.451302273456690
 20
-164.419825504424690
 11
-450.840118674472590
 21
-162.912257950647360
  0
ARC
  8
0
  6
CONTINUOUS
 62
3
 10
-450.090118674472590
 20
-164.211296056323930
 40
1.499999999999968
 50
35.963570118309242
 51
120.000000000001620
  0
LINE
  8
0
  6
CONTINUOUS
 62
3
 10
-445.174036390056360
 20
-159.640943818489060
 11
-442.553268147987070
 21
-158.127842568446680
  0
ARC
  8
0
  6
CONTINUOUS
 62
3
 10
-444.424036390056360
 20
-160.939981924165640
 40
1.499999999999926
 50
120.000000000001620
 51
217.180755781464400
  0
ARC
  8
0
  6
CONTINUOUS
 62
3
 10
-456.701302273456690
 20
-124.412084505455930
 40
1.499999999999926
 50
59.999999999998380
 51
155.531071524840400
  0
LINE
  8
0
  6
CONTINUOUS
 62
3
 10
-453.340118674472140
 20
-124.620613953556470
 11
-455.951302273456690
 21
-123.113046399779360
  0
LINE
  8
0
  6
CONTINUOUS
 62
3
 10
-445.053268147987300
 20
-129.405029335756690
 11
-447.674036390056130
 21
-127.891928085714540
  0
ARC
  8
0
  6
CONTINUOUS
 62
3
 10
-454.090118674472360
 20
-125.919652059233040
 40
1.499999999999855
 50
335.963570118319300
 51
59.999999999990862
  0
ARC
  8
0
  6
CONTINUOUS
 62
3
 10
-448.424036390056130
 20
-129.190966191391340
 40
1.500000000000123
 50
60.000000000002721
 51
157.180755781457980
  0
ARC
  8
0
  6
CONTINUOUS
 62
3
 10
-445.803268147987300
 20
-130.704067441433270
 40
1.500000000000110
 50
337.928141766202600
 51
59.999999999998380
  0
ARC
  8
0
  6
CONTINUOUS
 62
3
 10
-418.928582220321800
 20
-141.601372442640580
 40
27.499999999999886
 50
157.928141766202200
 51
202.071858233798680
  0
ARC
  8
0
  6
CONTINUOUS
 62
3
 10
-418.928582220321120
 20
-141.601372442641040
 40
37.000000000000156
 50
155.963570118321120
 51
204.036429881678230
  0
ARC
  8
0
  6
CONTINUOUS
 62
3
 10
-418.928582220321120
 20
-141.601372442641040
 40
43.000000000000121
 50
155.531071524839230
 51
204.468928475160200
  0
ARC
  8
0
  6
CONTINUOUS
 62
3
 10
-418.928582220321120
 20
-141.601372442641040
 40
33.499999999999794
 50
157.180755781458400
 51
202.819244218540940
  0
ARC
  8
0
  6
CONTINUOUS
 62
3
 10
-445.803268147987070
 20
-152.498677443847900
 40
1.500000000000320
 50
299.999999999992950
 51
22.071858233784546
  0
ARC
  8
0
  6
CONTINUOUS
 62
3
 10
-456.701302273456690
 20
-158.790660379825450
 40
1.500000000000128
 50
204.468928475167470
 51
299.999999999992950
  0
LINE
  8
0
  6
CONTINUOUS
 62
3
 10
-455.951302273456690
 20
-160.089698485502480
 11
-453.340118674472590
 21
-158.582130931725150
  0
ARC
  8
0
  6
CONTINUOUS
 62
3
 10
-454.090118674472590
 20
-157.283092826048570
 40
1.499999999999926
 50
300.000000000001590
 51
24.036429881677126
  0
LINE
  8
0
  6
CONTINUOUS
 62
3
 10
-447.674036390056360
 20
-155.310816799566850
 11
-445.053268147987070
 21
-153.797715549524920
  0
ARC
  8
0
  6
CONTINUOUS
 62
3
 10
-448.424036390056360
 20
-154.011778693890280
 40
1.500000000000157
 50
202.819244218546660
 51
300.000000000001590
  0
ARC
  8
0
  6
CONTINUOUS
 62
3
 10
-452.701302273456240
 20
-117.483881275179890
 40
1.499999999999976
 50
144.468928475160790
 51
240.000000000002730
  0
LINE
  8
0
  6
CONTINUOUS
 62
3
 10
-450.840118674472140
 20
-120.290486934633800
 11
-453.451302273456240
 21
-118.782919380856690
  0
LINE
  8
0
  6
CONTINUOUS
 62
3
 10
-442.553268147987070
 20
-125.074902316834020
 11
-445.174036390055900
 21
-123.561801066791870
  0
ARC
  8
0
  6
CONTINUOUS
 62
3
 10
-450.090118674472140
 20
-118.991448828957000
 40
1.500000000000123
 50
240.000000000002730
 51
324.036429881683720
  0
ARC
  8
0
  6
CONTINUOUS
 62
3
 10
-444.424036390055900
 20
-122.262762961115300
 40
1.500000000000103
 50
142.819244218542510
 51
239.999999999998410
  0
ARC
  8
0
  6
CONTINUOUS
 62
3
 10
-441.803268147987070
 20
-123.775864211157450
 40
1.499999999999926
 50
239.999999999998410
 51
322.071858233800300
  0
ARC
  8
0
  6
CONTINUOUS
 62
3
 10
-418.928582220320890
 20
-141.601372442640580
 40
37.000000000000099
 50
95.963570118321798
 51
144.036429881678830
  0
ARC
  8
0
  6
CONTINUOUS
 62
3
 10
-418.928582220320890
 20
-141.601372442640580
 40
43.000000000000043
 50
95.531071524839788
 51
144.468928475160770
  0
ARC
  8
0
  6
CONTINUOUS
 62
3
 10
-418.928582220320890
 20
-141.601372442640580
 40
33.499999999999950
 50
97.180755781459069
 51
142.819244218541740
  0
ARC
  8
0
  6
CONTINUOUS
 62
3
 10
-422.928582220321350
 20
-112.878559209950140
 40
1.499999999999998
 50
277.928141766204020
 51
0.000000000000000
  0
ARC
  8
0
  6
CONTINUOUS
 62
3
 10
-462.877169650603830
 20
-91.504757975112284
 40
6.599999999999971
 50
98.597082237248614
 51
134.999999999998610
  0
ARC
  8
0
  6
CONTINUOUS
 62
3
 10
-625.928582220321350
 20
-141.601372442640130
 40
300.000000000000170
 50
355.138594604201900
 51
0.000000000000000
  0
LINE
  8
0
  6
CONTINUOUS
 62
3
 10
-331.989813086339950
 20
-171.601372442640130
 11
-355.428582220321350
 21
-171.601372442640130
  0
ARC
  8
0
  6
CONTINUOUS
 62
3
 10
-331.989813086339950
 20
-166.601372442640130
 40
5.000000000000000
 50
270.000000000000000
 51
355.138594604199000
  0
ARC
  8
0
  6
CONTINUOUS
 62
3
 10
-331.989813086339950
 20
-116.601372442640350
 40
5.000000000000119
 50
4.861405395798401
 51
90.000000000000000
  0
ARC
  8
0
  6
CONTINUOUS
 62
3
 10
-625.928582220321350
 20
-141.601372442640130
 40
300.000000000000000
 50
0.000000000000000
 51
4.861405395797992
  0
LINE
  8
0
  6
CONTINUOUS
 62
3
 10
-325.428582220321350
 20
-139.101372442640130
 11
-325.938999067839060
 21
-139.101372442640130
  0
LINE
  8
0
  6
CONTINUOUS
 62
3
 10
-325.428582220321350
 20
-144.101372442640130
 11
-325.938999067839060
 21
-144.101372442640130
  0
LINE
  8
0
  6
CONTINUOUS
 62
3
 10
-325.428582220321350
 20
-144.101372442640130
 11
-325.428582220321350
 21
-139.101372442640130
  0
LINE
  8
0
  6
CONTINUOUS
 62
3
 10
-355.583587279780320
 20
-110.101372442640350
 11
-355.428582220321350
 21
-110.101372442640350
  0
LINE
  8
0
  6
CONTINUOUS
 62
3
 10
-331.989813086339950
 20
-111.601372442640350
 11
-355.429334478037500
 21
-111.601372442640350
  0
LINE
  8
0
  6
CONTINUOUS
 62
3
 10
-355.428582220321350
 20
-173.101372442640580
 11
-355.428582220321350
 21
-171.593871504907270
  0
LINE
  8
0
  6
CONTINUOUS
 62
3
 10
-355.428582220321350
 20
-111.608873380373660
 11
-355.428582220321350
 21
-110.101372442640350
  0
LINE
  8
0
  6
CONTINUOUS
 62
3
 10
-355.583587279780320
 20
-173.101372442640580
 11
-355.428582220321350
 21
-173.101372442640580
  0
ARC
  8
0
  6
CONTINUOUS
 62
4
 10
-183.328582220321440
 20
-141.601372442640580
 40
289.396999999999930
 50
173.948014641331470
 51
180.000000000000000
  0
LINE
  8
0
  6
CONTINUOUS
 62
4
 10
-462.112740862822530
 20
-97.249954214934291
 11
-466.688806255461150
 21
-101.826019607572900
  0
ARC
  8
0
  6
CONTINUOUS
 62
4
 10
-457.870100175703440
 20
-101.492594902053830
 40
5.999999999999923
 50
97.897988672425626
 51
134.999999999996930
  0
ARC
  8
0
  6
CONTINUOUS
 62
4
 10
-418.928582220321350
 20
-382.201372442640490
 40
289.396999999999930
 50
90.000000000000000
 51
97.897988672427743
  0
ARC
  8
0
  6
CONTINUOUS
 62
3
 10
-195.390952296655540
 20
246.559652617046030
 40
5.000000000000000
 50
180.000000000000000
 51
252.542396876278160
  0
LINE
  8
0
  6
CONTINUOUS
 62
3
 10
-196.890952296655540
 20
242.236198742788360
 11
-196.890952296655540
 21
241.249189004863980
  0
LINE
  8
0
  6
CONTINUOUS
 62
3
 10
-189.890952296655540
 20
242.236198742788360
 11
-189.890952296655540
 21
241.249189004863980
  0
ARC
  8
0
  6
CONTINUOUS
 62
3
 10
-195.590952296655360
 20
242.236198742788360
 40
1.300000000000019
 50
106.601549599022360
 51
180.000000000000000
  0
ARC
  8
0
  6
CONTINUOUS
 62
3
 10
-193.390952296655540
 20
234.857174417038890
 40
9.000000000000123
 50
73.398450400980877
 51
106.601549599019120
  0
ARC
  8
0
  6
CONTINUOUS
 62
3
 10
-191.190952296655720
 20
242.236198742788360
 40
1.300000000000182
 50
0.000000000000000
 51
73.398450400977637
  0
POLYLINE
  8
0
  6
CONTINUOUS
 62
3
 66
1
  0
VERTEX
  8
0
  6
CONTINUOUS
 62
3
 10
-196.890952296655540
 20
241.249189004863980
  0
VERTEX
  8
0
  6
CONTINUOUS
 62
3
 10
-196.823700778066840
 20
241.215090794667990
  0
VERTEX
  8
0
  6
CONTINUOUS
 62
3
 10
-196.624530660445030
 20
241.182302959567350
  0
VERTEX
  8
0
  6
CONTINUOUS
 62
3
 10
-196.301095939714460
 20
241.152085517677340
  0
VERTEX
  8
0
  6
CONTINUOUS
 62
3
 10
-195.865826030808450
 20
241.125599708343630
  0
VERTEX
  8
0
  6
CONTINUOUS
 62
3
 10
-195.335448112224160
 20
241.103863366365540
  0
VERTEX
  8
0
  6
CONTINUOUS
 62
3
 10
-194.730344309933340
 20
241.087711807175370
  0
VERTEX
  8
0
  6
CONTINUOUS
 62
3
 10
-194.073768423711980
 20
241.077765726134910
  0
VERTEX
  8
0
  6
CONTINUOUS
 62
3
 10
-193.390952296655540
 20
241.074407345560760
  0
VERTEX
  8
0
  6
CONTINUOUS
 62
3
 10
-192.708136169599100
 20
241.077765726134910
  0
VERTEX
  8
0
  6
CONTINUOUS
 62
3
 10
-192.051560283377740
 20
241.087711807175370
  0
VERTEX
  8
0
  6
CONTINUOUS
 62
3
 10
-191.446456481086930
 20
241.103863366365540
  0
VERTEX
  8
0
  6
CONTINUOUS
 62
3
 10
-190.916078562502630
 20
241.125599708343630
  0
VERTEX
  8
0
  6
CONTINUOUS
 62
3
 10
-190.480808653596630
 20
241.152085517677340
  0
VERTEX
  8
0
  6
CONTINUOUS
 62
3
 10
-190.157373932866050
 20
241.182302959567350
  0
VERTEX
  8
0
  6
CONTINUOUS
 62
3
 10
-189.958203815244250
 20
241.215090794667990
  0
VERTEX
  8
0
  6
CONTINUOUS
 62
3
 10
-189.890952296655540
 20
241.249189004863980
  0
SEQEND
  8
0
  6
CONTINUOUS
 62
3
  0
LINE
  8
0
  6
CONTINUOUS
 62
3
 10
-200.390952296655540
 20
246.559652617046030
 11
-200.390952296655540
 21
259.498627557359100
  0
LINE
  8
0
  6
CONTINUOUS
 62
3
 10
-200.390952296655540
 20
246.093137848421410
 11
-201.390952296655540
 21
246.093137848421410
  0
ARC
  8
0
  6
CONTINUOUS
 62
3
 10
-195.390952296655540
 20
227.898627557359190
 40
5.000000000000000
 50
180.000000000000000
 51
270.000000000000000
  0
ARC
  8
0
  6
CONTINUOUS
 62
3
 10
-195.390952296655540
 20
259.498627557359100
 40
5.000000000000000
 50
90.000000000000000
 51
180.000000000000000
  0
ARC
  8
0
  6
CONTINUOUS
 62
3
 10
-201.390952296655540
 20
244.093137848421410
 40
2.000000000000000
 50
90.000000000000000
 51
180.000000000000000
  0
ARC
  8
0
  6
CONTINUOUS
 62
3
 10
-201.390952296655540
 20
242.999500920144210
 40
2.000000000000000
 50
180.000000000000000
 51
270.000000000000000
  0
ARC
  8
0
  6
CONTINUOUS
 62
3
 10
-201.390952296655540
 20
242.200499049058980
 40
2.000000000000000
 50
180.000000000000000
 51
270.000000000000000
  0
LINE
  8
0
  6
CONTINUOUS
 62
3
 10
-203.390952296655540
 20
244.093137848421410
 11
-203.390952296655540
 21
241.401497177940090
  0
ARC
  8
0
  6
CONTINUOUS
 62
3
 10
-201.390952296655540
 20
241.401497177940090
 40
2.000000000000000
 50
180.000000000000000
 51
270.000000000000000
  0
LINE
  8
0
  6
CONTINUOUS
 62
3
 10
-200.390952296655540
 20
227.898627557359190
 11
-200.390952296655540
 21
239.401497177940090
  0
LINE
  8
0
  6
CONTINUOUS
 62
3
 10
-200.390952296655540
 20
217.898627557359190
 11
-200.390952296655540
 21
222.898627557359190
  0
ARC
  8
0
  6
CONTINUOUS
 62
3
 10
-207.890952296655310
 20
93.779406640486627
 40
3.000000000000000
 50
90.000000000000000
 51
180.000000000000000
  0
ARC
  8
0
  6
CONTINUOUS
 62
3
 10
-203.890952296655430
 20
99.779406640486627
 40
3.000000000000000
 50
270.000000000000000
 51
0.000000000000000
  0
LINE
  8
0
  6
CONTINUOUS
 62
3
 10
-210.890952296655310
 20
93.398627557359418
 11
-210.890952296655310
 21
93.779406640486627
  0
LINE
  8
0
  6
CONTINUOUS
 62
3
 10
-207.890952296655310
 20
96.779406640486627
 11
-203.890952296655430
 21
96.779406640486627
  0
LINE
  8
0
  6
CONTINUOUS
 62
3
 10
-133.890952296655430
 20
94.898627557359646
 11
-133.890952296655430
 21
99.898627557359646
  0
LINE
  8
0
  6
CONTINUOUS
 62
3
 10
-141.890952296655430
 20
64.898627557359873
 11
-149.890952296655430
 21
64.898627557359873
  0
LINE
  8
0
  6
CONTINUOUS
 62
3
 10
-149.890952296655430
 20
65.398627557359873
 11
-149.890952296655430
 21
64.898627557359873
  0
LINE
  8
0
  6
CONTINUOUS
 62
3
 10
-144.390952296655430
 20
65.398627557359873
 11
-144.390952296655430
 21
64.898627557359873
  0
LINE
  8
0
  6
CONTINUOUS
 62
3
 10
-141.890952296655430
 20
65.398627557359873
 11
-141.890952296655430
 21
64.898627557359873
  0
LINE
  8
0
  6
CONTINUOUS
 62
3
 10
-135.890952296655430
 20
65.398627557359873
 11
-206.890952296655310
 21
65.398627557359873
  0
ARC
  8
0
  6
CONTINUOUS
 62
3
 10
-206.890952296655310
 20
66.398627557359873
 40
1.000000000000000
 50
180.000000000000000
 51
270.000000000000000
  0
ARC
  8
0
  6
CONTINUOUS
 62
3
 10
-135.890952296655430
 20
66.398627557359873
 40
1.000000000000000
 50
270.000000000000000
 51
0.000000000000000
  0
LINE
  8
0
  6
CONTINUOUS
 62
3
 10
-134.890952296655430
 20
66.398627557359873
 11
-134.890952296655430
 21
94.898627557359646
  0
LINE
  8
0
  6
CONTINUOUS
 62
3
 10
-207.890952296655310
 20
66.398627557359873
 11
-207.890952296655310
 21
94.898627557359646
  0
LINE
  8
0
  6
CONTINUOUS
 62
3
 10
-133.890952296655430
 20
94.898627557359646
 11
-208.890952296655310
 21
94.898627557359646
  0
LINE
  8
0
  6
CONTINUOUS
 62
3
 10
-133.890952296655430
 20
99.898627557359646
 11
-200.890952296655430
 21
99.898627557359646
  0
LINE
  8
0
  6
CONTINUOUS
 62
3
 10
-208.890952296655310
 20
94.898627557359646
 11
-208.890952296655310
 21
96.607833765232840
  0
ARC
  8
0
  6
CONTINUOUS
 62
3
 10
-229.584976519075780
 20
113.398627557359410
 40
20.000000000000007
 50
234.999999999999740
 51
270.000000000000000
  0
LINE
  8
0
  6
CONTINUOUS
 62
3
 10
-210.890952296655310
 20
93.398627557359418
 11
-229.584976519075780
 21
93.398627557359418
  0
ARC
  8
0
  6
CONTINUOUS
 62
3
 10
-249.290952296605160
 20
105.955422500113960
 40
2.600000000000136
 50
180.000000000000000
 51
234.999999999998610
  0
LINE
  8
0
  6
CONTINUOUS
 62
3
 10
-241.056505246096780
 20
97.015586671579626
 11
-250.782251031117770
 21
103.825627184962850
  0
LINE
  8
0
  6
CONTINUOUS
 62
3
 10
-251.890952296605290
 20
158.398627557359420
 11
-251.890952296605290
 21
105.955422500113960
  0
LINE
  8
0
  6
CONTINUOUS
 62
3
 10
-200.890952296655430
 20
158.398627557359420
 11
-200.890952296655430
 21
99.779406640486627
  0
ARC
  8
0
  6
CONTINUOUS
 62
3
 10
-249.290952296605160
 20
210.841832614604870
 40
2.599999999999721
 50
125.000000000001370
 51
180.000000000000000
  0
LINE
  8
0
  6
CONTINUOUS
 62
3
 10
-241.056505246096780
 20
219.781668443139210
 11
-250.782251031117770
 21
212.971627929755980
  0
ARC
  8
0
  6
CONTINUOUS
 62
3
 10
-229.584976519075780
 20
203.398627557359420
 40
20.000000000000000
 50
90.000000000000000
 51
125.000000000000240
  0
LINE
  8
0
  6
CONTINUOUS
 62
3
 10
-251.890952296605290
 20
158.398627557359420
 11
-251.890952296605290
 21
210.841832614604870
  0
LINE
  8
0
  6
CONTINUOUS
 62
3
 10
-200.890952296655430
 20
223.398627557359420
 11
-229.584976519075780
 21
223.398627557359420
  0
LINE
  8
0
  6
CONTINUOUS
 62
3
 10
-200.890952296655430
 20
158.398627557359420
 11
-200.890952296655430
 21
223.398627557359420
  0
LINE
  8
0
  6
CONTINUOUS
 62
3
 10
-211.890952296654860
 20
212.138742657797020
 11
-213.890952296654860
 21
210.486101018673590
  0
LINE
  8
0
  6
CONTINUOUS
 62
3
 10
-209.890952296654860
 20
213.314528143419810
 11
-211.890952296654860
 21
212.138742657797020
  0
LINE
  8
0
  6
CONTINUOUS
 62
3
 10
-211.890952296654860
 20
212.138742657797020
 11
-209.890952296654860
 21
210.486101018673590
  0
LINE
  8
0
  6
CONTINUOUS
 62
3
 10
-213.890952296654860
 20
213.314528143419810
 11
-211.890952296654860
 21
212.138742657797020
  0
POLYLINE
  8
0
  6
CONTINUOUS
 62
3
 66
1
 70
1
  0
VERTEX
  8
0
  6
CONTINUOUS
 62
3
 10
-207.190952296654870
 20
210.322152589419490
  0
VERTEX
  8
0
  6
CONTINUOUS
 62
3
 10
-207.281261478759690
 20
211.025109555619850
  0
VERTEX
  8
0
  6
CONTINUOUS
 62
3
 10
-207.548718493851820
 20
211.701052279831940
  0
VERTEX
  8
0
  6
CONTINUOUS
 62
3
 10
-207.983045118832910
 20
212.324004662237340
  0
VERTEX
  8
0
  6
CONTINUOUS
 62
3
 10
-208.567550425078080
 20
212.870026992135930
  0
VERTEX
  8
0
  6
CONTINUOUS
 62
3
 10
-209.279772201462750
 20
213.318135937602560
  0
VERTEX
  8
0
  6
CONTINUOUS
 62
3
 10
-210.092340164538940
 20
213.651110923165310
  0
VERTEX
  8
0
  6
CONTINUOUS
 62
3
 10
-210.974027783179050
 20
213.856155906863560
  0
VERTEX
  8
0
  6
CONTINUOUS
 62
3
 10
-211.890952296654860
 20
213.925391124964340
  0
VERTEX
  8
0
  6
CONTINUOUS
 62
3
 10
-212.807876810130670
 20
213.856155906863560
  0
VERTEX
  8
0
  6
CONTINUOUS
 62
3
 10
-213.689564428770780
 20
213.651110923165310
  0
VERTEX
  8
0
  6
CONTINUOUS
 62
3
 10
-214.502132391846970
 20
213.318135937602560
  0
VERTEX
  8
0
  6
CONTINUOUS
 62
3
 10
-215.214354168231640
 20
212.870026992135930
  0
VERTEX
  8
0
  6
CONTINUOUS
 62
3
 10
-215.798859474476810
 20
212.324004662237340
  0
VERTEX
  8
0
  6
CONTINUOUS
 62
3
 10
-216.233186099457900
 20
211.701052279831940
  0
VERTEX
  8
0
  6
CONTINUOUS
 62
3
 10
-216.500643114550030
 20
211.025109555619850
  0
VERTEX
  8
0
  6
CONTINUOUS
 62
3
 10
-216.590952296654850
 20
210.322152589419490
  0
VERTEX
  8
0
  6
CONTINUOUS
 62
3
 10
-216.500643114550030
 20
209.619195623219130
  0
VERTEX
  8
0
  6
CONTINUOUS
 62
3
 10
-216.233186099457900
 20
208.943252899007040
  0
VERTEX
  8
0
  6
CONTINUOUS
 62
3
 10
-215.798859474476810
 20
208.320300516601630
  0
VERTEX
  8
0
  6
CONTINUOUS
 62
3
 10
-215.214354168231610
 20
207.774278186703040
  0
VERTEX
  8
0
  6
CONTINUOUS
 62
3
 10
-214.502132391846970
 20
207.326169241236410
  0
VERTEX
  8
0
  6
CONTINUOUS
 62
3
 10
-213.689564428770780
 20
206.993194255673670
  0
VERTEX
  8
0
  6
CONTINUOUS
 62
3
 10
-212.807876810130670
 20
206.788149271975410
  0
VERTEX
  8
0
  6
CONTINUOUS
 62
3
 10
-211.890952296654860
 20
206.718914053874640
  0
VERTEX
  8
0
  6
CONTINUOUS
 62
3
 10
-210.974027783179050
 20
206.788149271975410
  0
VERTEX
  8
0
  6
CONTINUOUS
 62
3
 10
-210.092340164538940
 20
206.993194255673670
  0
VERTEX
  8
0
  6
CONTINUOUS
 62
3
 10
-209.279772201462750
 20
207.326169241236410
  0
VERTEX
  8
0
  6
CONTINUOUS
 62
3
 10
-208.567550425078110
 20
207.774278186703040
  0
VERTEX
  8
0
  6
CONTINUOUS
 62
3
 10
-207.983045118832910
 20
208.320300516601630
  0
VERTEX
  8
0
  6
CONTINUOUS
 62
3
 10
-207.548718493851820
 20
208.943252899007040
  0
VERTEX
  8
0
  6
CONTINUOUS
 62
3
 10
-207.281261478759690
 20
209.619195623219130
  0
SEQEND
  8
0
  6
CONTINUOUS
 62
3
  0
LINE
  8
0
  6
CONTINUOUS
 62
3
 10
-211.890952296654860
 20
104.658512456921580
 11
-213.890952296654860
 21
106.311154096045010
  0
LINE
  8
0
  6
CONTINUOUS
 62
3
 10
-209.890952296654860
 20
103.482726971299250
 11
-211.890952296654860
 21
104.658512456921580
  0
LINE
  8
0
  6
CONTINUOUS
 62
3
 10
-211.890952296654860
 20
104.658512456921580
 11
-209.890952296654860
 21
106.311154096045010
  0
LINE
  8
0
  6
CONTINUOUS
 62
3
 10
-213.890952296654860
 20
103.482726971299250
 11
-211.890952296654860
 21
104.658512456921580
  0
POLYLINE
  8
0
  6
CONTINUOUS
 62
3
 66
1
 70
1
  0
VERTEX
  8
0
  6
CONTINUOUS
 62
3
 10
-207.190952296654870
 20
106.475102525299570
  0
VERTEX
  8
0
  6
CONTINUOUS
 62
3
 10
-207.281261478759690
 20
107.178059491499930
  0
VERTEX
  8
0
  6
CONTINUOUS
 62
3
 10
-207.548718493851820
 20
107.854002215712020
  0
VERTEX
  8
0
  6
CONTINUOUS
 62
3
 10
-207.983045118832910
 20
108.476954598117430
  0
VERTEX
  8
0
  6
CONTINUOUS
 62
3
 10
-208.567550425078080
 20
109.022976928016000
  0
VERTEX
  8
0
  6
CONTINUOUS
 62
3
 10
-209.279772201462750
 20
109.471085873482620
  0
VERTEX
  8
0
  6
CONTINUOUS
 62
3
 10
-210.092340164538940
 20
109.804060859045390
  0
VERTEX
  8
0
  6
CONTINUOUS
 62
3
 10
-210.974027783179050
 20
110.009105842743630
  0
VERTEX
  8
0
  6
CONTINUOUS
 62
3
 10
-211.890952296654860
 20
110.078341060844400
  0
VERTEX
  8
0
  6
CONTINUOUS
 62
3
 10
-212.807876810130670
 20
110.009105842743630
  0
VERTEX
  8
0
  6
CONTINUOUS
 62
3
 10
-213.689564428770780
 20
109.804060859045390
  0
VERTEX
  8
0
  6
CONTINUOUS
 62
3
 10
-214.502132391846970
 20
109.471085873482620
  0
VERTEX
  8
0
  6
CONTINUOUS
 62
3
 10
-215.214354168231640
 20
109.022976928016000
  0
VERTEX
  8
0
  6
CONTINUOUS
 62
3
 10
-215.798859474476810
 20
108.476954598117430
  0
VERTEX
  8
0
  6
CONTINUOUS
 62
3
 10
-216.233186099457900
 20
107.854002215712020
  0
VERTEX
  8
0
  6
CONTINUOUS
 62
3
 10
-216.500643114550030
 20
107.178059491499930
  0
VERTEX
  8
0
  6
CONTINUOUS
 62
3
 10
-216.590952296654850
 20
106.475102525299570
  0
VERTEX
  8
0
  6
CONTINUOUS
 62
3
 10
-216.500643114550030
 20
105.772145559099210
  0
VERTEX
  8
0
  6
CONTINUOUS
 62
3
 10
-216.233186099457900
 20
105.096202834887120
  0
VERTEX
  8
0
  6
CONTINUOUS
 62
3
 10
-215.798859474476810
 20
104.473250452481720
  0
VERTEX
  8
0
  6
CONTINUOUS
 62
3
 10
-215.214354168231610
 20
103.927228122583140
  0
VERTEX
  8
0
  6
CONTINUOUS
 62
3
 10
-214.502132391846970
 20
103.479119177116530
  0
VERTEX
  8
0
  6
CONTINUOUS
 62
3
 10
-213.689564428770780
 20
103.146144191553750
  0
VERTEX
  8
0
  6
CONTINUOUS
 62
3
 10
-212.807876810130670
 20
102.941099207855510
  0
VERTEX
  8
0
  6
CONTINUOUS
 62
3
 10
-211.890952296654860
 20
102.871863989754740
  0
VERTEX
  8
0
  6
CONTINUOUS
 62
3
 10
-210.974027783179050
 20
102.941099207855510
  0
VERTEX
  8
0
  6
CONTINUOUS
 62
3
 10
-210.092340164538940
 20
103.146144191553750
  0
VERTEX
  8
0
  6
CONTINUOUS
 62
3
 10
-209.279772201462750
 20
103.479119177116530
  0
VERTEX
  8
0
  6
CONTINUOUS
 62
3
 10
-208.567550425078110
 20
103.927228122583140
  0
VERTEX
  8
0
  6
CONTINUOUS
 62
3
 10
-207.983045118832910
 20
104.473250452481720
  0
VERTEX
  8
0
  6
CONTINUOUS
 62
3
 10
-207.548718493851820
 20
105.096202834887120
  0
VERTEX
  8
0
  6
CONTINUOUS
 62
3
 10
-207.281261478759690
 20
105.772145559099210
  0
SEQEND
  8
0
  6
CONTINUOUS
 62
3
  0
POLYLINE
  8
0
  6
CONTINUOUS
 62
3
 66
1
  0
VERTEX
  8
0
  6
CONTINUOUS
 62
3
 10
179.964833253037230
 20
-140.101372442641150
  0
VERTEX
  8
0
  6
CONTINUOUS
 62
3
 10
179.629824616867550
 20
-136.199566002318590
  0
VERTEX
  8
0
  6
CONTINUOUS
 62
3
 10
178.637672902371520
 20
-132.447703795339350
  0
VERTEX
  8
0
  6
CONTINUOUS
 62
3
 10
177.026505943532100
 20
-128.989967782249100
  0
VERTEX
  8
0
  6
CONTINUOUS
 62
3
 10
174.858239983024670
 20
-125.959236818910190
  0
VERTEX
  8
0
  6
CONTINUOUS
 62
3
 10
172.216200265733990
 20
-123.471980196590250
  0
VERTEX
  8
0
  6
CONTINUOUS
 62
3
 10
169.201918896322550
 20
-121.623781792415420
  0
VERTEX
  8
0
  6
CONTINUOUS
 62
3
 10
165.931233017388420
 20
-120.485666834576540
  0
VERTEX
  8
0
  6
CONTINUOUS
 62
3
 10
162.529833253037220
 20
-120.101372442641150
  0
VERTEX
  8
0
  6
CONTINUOUS
 62
3
 10
159.128433488686030
 20
-120.485666834576540
  0
VERTEX
  8
0
  6
CONTINUOUS
 62
3
 10
155.857747609751900
 20
-121.623781792415420
  0
VERTEX
  8
0
  6
CONTINUOUS
 62
3
 10
152.843466240340460
 20
-123.471980196590250
  0
VERTEX
  8
0
  6
CONTINUOUS
 62
3
 10
150.201426523049780
 20
-125.959236818910210
  0
VERTEX
  8
0
  6
CONTINUOUS
 62
3
 10
148.033160562542350
 20
-128.989967782249100
  0
VERTEX
  8
0
  6
CONTINUOUS
 62
3
 10
146.421993603702960
 20
-132.447703795339350
  0
VERTEX
  8
0
  6
CONTINUOUS
 62
3
 10
145.429841889206900
 20
-136.199566002318590
  0
VERTEX
  8
0
  6
CONTINUOUS
 62
3
 10
145.094833253037220
 20
-140.101372442641150
  0
SEQEND
  8
0
  6
CONTINUOUS
 62
3
  0
POLYLINE
  8
0
  6
CONTINUOUS
 62
3
 66
1
 70
1
  0
VERTEX
  8
0
  6
CONTINUOUS
 62
3
 10
-207.190952296660950
 20
-193.524897474700420
  0
VERTEX
  8
0
  6
CONTINUOUS
 62
3
 10
-207.281261478765770
 20
-192.821940508500060
  0
VERTEX
  8
0
  6
CONTINUOUS
 62
3
 10
-207.548718493857900
 20
-192.145997784287970
  0
VERTEX
  8
0
  6
CONTINUOUS
 62
3
 10
-207.983045118838990
 20
-191.523045401882570
  0
VERTEX
  8
0
  6
CONTINUOUS
 62
3
 10
-208.567550425084160
 20
-190.977023071983980
  0
VERTEX
  8
0
  6
CONTINUOUS
 62
3
 10
-209.279772201468830
 20
-190.528914126517350
  0
VERTEX
  8
0
  6
CONTINUOUS
 62
3
 10
-210.092340164545020
 20
-190.195939140954610
  0
VERTEX
  8
0
  6
CONTINUOUS
 62
3
 10
-210.974027783185140
 20
-189.990894157256350
  0
VERTEX
  8
0
  6
CONTINUOUS
 62
3
 10
-211.890952296660940
 20
-189.921658939155580
  0
VERTEX
  8
0
  6
CONTINUOUS
 62
3
 10
-212.807876810136750
 20
-189.990894157256350
  0
VERTEX
  8
0
  6
CONTINUOUS
 62
3
 10
-213.689564428776860
 20
-190.195939140954610
  0
VERTEX
  8
0
  6
CONTINUOUS
 62
3
 10
-214.502132391853050
 20
-190.528914126517350
  0
VERTEX
  8
0
  6
CONTINUOUS
 62
3
 10
-215.214354168237720
 20
-190.977023071983980
  0
VERTEX
  8
0
  6
CONTINUOUS
 62
3
 10
-215.798859474482900
 20
-191.523045401882570
  0
VERTEX
  8
0
  6
CONTINUOUS
 62
3
 10
-216.233186099463980
 20
-192.145997784287970
  0
VERTEX
  8
0
  6
CONTINUOUS
 62
3
 10
-216.500643114556110
 20
-192.821940508500060
  0
VERTEX
  8
0
  6
CONTINUOUS
 62
3
 10
-216.590952296660930
 20
-193.524897474700420
  0
VERTEX
  8
0
  6
CONTINUOUS
 62
3
 10
-216.500643114556110
 20
-194.227854440900780
  0
VERTEX
  8
0
  6
CONTINUOUS
 62
3
 10
-216.233186099463980
 20
-194.903797165112880
  0
VERTEX
  8
0
  6
CONTINUOUS
 62
3
 10
-215.798859474482900
 20
-195.526749547518280
  0
VERTEX
  8
0
  6
CONTINUOUS
 62
3
 10
-215.214354168237690
 20
-196.072771877416870
  0
VERTEX
  8
0
  6
CONTINUOUS
 62
3
 10
-214.502132391853050
 20
-196.520880822883500
  0
VERTEX
  8
0
  6
CONTINUOUS
 62
3
 10
-213.689564428776860
 20
-196.853855808446240
  0
VERTEX
  8
0
  6
CONTINUOUS
 62
3
 10
-212.807876810136750
 20
-197.058900792144500
  0
VERTEX
  8
0
  6
CONTINUOUS
 62
3
 10
-211.890952296660940
 20
-197.128136010245270
  0
VERTEX
  8
0
  6
CONTINUOUS
 62
3
 10
-210.974027783185140
 20
-197.058900792144500
  0
VERTEX
  8
0
  6
CONTINUOUS
 62
3
 10
-210.092340164545020
 20
-196.853855808446240
  0
VERTEX
  8
0
  6
CONTINUOUS
 62
3
 10
-209.279772201468830
 20
-196.520880822883500
  0
VERTEX
  8
0
  6
CONTINUOUS
 62
3
 10
-208.567550425084190
 20
-196.072771877416870
  0
VERTEX
  8
0
  6
CONTINUOUS
 62
3
 10
-207.983045118838990
 20
-195.526749547518280
  0
VERTEX
  8
0
  6
CONTINUOUS
 62
3
 10
-207.548718493857900
 20
-194.903797165112880
  0
VERTEX
  8
0
  6
CONTINUOUS
 62
3
 10
-207.281261478765770
 20
-194.227854440900780
  0
SEQEND
  8
0
  6
CONTINUOUS
 62
3
  0
POLYLINE
  8
0
  6
CONTINUOUS
 62
3
 66
1
 70
1
  0
VERTEX
  8
0
  6
CONTINUOUS
 62
3
 10
-207.190952296660950
 20
-89.677847410580512
  0
VERTEX
  8
0
  6
CONTINUOUS
 62
3
 10
-207.281261478765770
 20
-88.974890444380151
  0
VERTEX
  8
0
  6
CONTINUOUS
 62
3
 10
-207.548718493857900
 20
-88.298947720168059
  0
VERTEX
  8
0
  6
CONTINUOUS
 62
3
 10
-207.983045118838990
 20
-87.675995337762657
  0
VERTEX
  8
0
  6
CONTINUOUS
 62
3
 10
-208.567550425084160
 20
-87.129973007864081
  0
VERTEX
  8
0
  6
CONTINUOUS
 62
3
 10
-209.279772201468830
 20
-86.681864062397466
  0
VERTEX
  8
0
  6
CONTINUOUS
 62
3
 10
-210.092340164545020
 20
-86.348889076834695
  0
VERTEX
  8
0
  6
CONTINUOUS
 62
3
 10
-210.974027783185140
 20
-86.143844093136451
  0
VERTEX
  8
0
  6
CONTINUOUS
 62
3
 10
-211.890952296660940
 20
-86.074608875035679
  0
VERTEX
  8
0
  6
CONTINUOUS
 62
3
 10
-212.807876810136750
 20
-86.143844093136451
  0
VERTEX
  8
0
  6
CONTINUOUS
 62
3
 10
-213.689564428776860
 20
-86.348889076834695
  0
VERTEX
  8
0
  6
CONTINUOUS
 62
3
 10
-214.502132391853050
 20
-86.681864062397466
  0
VERTEX
  8
0
  6
CONTINUOUS
 62
3
 10
-215.214354168237720
 20
-87.129973007864081
  0
VERTEX
  8
0
  6
CONTINUOUS
 62
3
 10
-215.798859474482900
 20
-87.675995337762657
  0
VERTEX
  8
0
  6
CONTINUOUS
 62
3
 10
-216.233186099463980
 20
-88.298947720168059
  0
VERTEX
  8
0
  6
CONTINUOUS
 62
3
 10
-216.500643114556110
 20
-88.974890444380151
  0
VERTEX
  8
0
  6
CONTINUOUS
 62
3
 10
-216.590952296660930
 20
-89.677847410580512
  0
VERTEX
  8
0
  6
CONTINUOUS
 62
3
 10
-216.500643114556110
 20
-90.380804376780873
  0
VERTEX
  8
0
  6
CONTINUOUS
 62
3
 10
-216.233186099463980
 20
-91.056747100992965
  0
VERTEX
  8
0
  6
CONTINUOUS
 62
3
 10
-215.798859474482900
 20
-91.679699483398366
  0
VERTEX
  8
0
  6
CONTINUOUS
 62
3
 10
-215.214354168237690
 20
-92.225721813296943
  0
VERTEX
  8
0
  6
CONTINUOUS
 62
3
 10
-214.502132391853050
 20
-92.673830758763557
  0
VERTEX
  8
0
  6
CONTINUOUS
 62
3
 10
-213.689564428776860
 20
-93.006805744326329
  0
VERTEX
  8
0
  6
CONTINUOUS
 62
3
 10
-212.807876810136750
 20
-93.211850728024572
  0
VERTEX
  8
0
  6
CONTINUOUS
 62
3
 10
-211.890952296660940
 20
-93.281085946125344
  0
VERTEX
  8
0
  6
CONTINUOUS
 62
3
 10
-210.974027783185140
 20
-93.211850728024572
  0
VERTEX
  8
0
  6
CONTINUOUS
 62
3
 10
-210.092340164545020
 20
-93.006805744326329
  0
VERTEX
  8
0
  6
CONTINUOUS
 62
3
 10
-209.279772201468830
 20
-92.673830758763557
  0
VERTEX
  8
0
  6
CONTINUOUS
 62
3
 10
-208.567550425084190
 20
-92.225721813296943
  0
VERTEX
  8
0
  6
CONTINUOUS
 62
3
 10
-207.983045118838990
 20
-91.679699483398366
  0
VERTEX
  8
0
  6
CONTINUOUS
 62
3
 10
-207.548718493857900
 20
-91.056747100992965
  0
VERTEX
  8
0
  6
CONTINUOUS
 62
3
 10
-207.281261478765770
 20
-90.380804376780873
  0
SEQEND
  8
0
  6
CONTINUOUS
 62
3
  0
ARC
  8
0
  6
CONTINUOUS
 62
3
 10
187.609034711306610
 20
-261.790880196540460
 40
3.000000000000000
 50
180.000000000000000
 51
226.186939148152190
  0
ARC
  8
0
  6
CONTINUOUS
 62
3
 10
183.109034761125090
 20
-266.481296004159960
 40
3.500000000000175
 50
46.186939148157336
 51
87.999999999996561
  0
ARC
  8
0
  6
CONTINUOUS
 62
3
 10
183.109034761125090
 20
-266.481296004159960
 40
3.500000000000000
 50
0.000000000000000
 51
46.186939148157336
  0
ARC
  8
0
  6
CONTINUOUS
 62
3
 10
182.964833253037630
 20
-259.972298338592740
 40
3.000000000000000
 50
180.000000000000000
 51
267.999999999996650
  0
ARC
  8
0
  6
CONTINUOUS
 62
3
 10
148.094833253037730
 20
-258.754611106415720
 40
3.000000000000000
 50
180.000000000000000
 51
267.999999999996650
  0
ARC
  8
0
  6
CONTINUOUS
 62
3
 10
185.609053729635720
 20
-98.101372417731909
 40
1.000000024909241
 50
180.000000000000000
 51
270.000000000000000
  0
ARC
  8
0
  6
CONTINUOUS
 62
3
 10
120.329831750755880
 20
-131.225068378424110
 40
74.999999999999901
 50
31.668452967610172
 51
88.999999999999616
  0
ARC
  8
0
  6
CONTINUOUS
 62
3
 10
181.609053704725570
 20
-93.424844083901917
 40
3.000000000000000
 50
0.000000000000000
 51
31.668452967603624
  0
ARC
  8
0
  6
CONTINUOUS
 62
3
 10
185.609053729635720
 20
-182.101372467550390
 40
1.000000024909241
 50
90.000000000000000
 51
180.000000000000000
  0
ARC
  8
0
  6
CONTINUOUS
 62
3
 10
248.209053754544870
 20
-159.701372442641510
 40
0.399999999999636
 50
270.000000000000000
 51
0.000000000000000
  0
ARC
  8
0
  6
CONTINUOUS
 62
3
 10
190.209053754544870
 20
-161.551372442640970
 40
1.599999999999454
 50
90.000000000000000
 51
180.000000000000000
  0
ARC
  8
0
  6
CONTINUOUS
 62
3
 10
190.209053754544870
 20
-118.651372442641330
 40
1.599999999999909
 50
180.000000000000000
 51
270.000000000000000
  0
ARC
  8
0
  6
CONTINUOUS
 62
3
 10
248.209053754544870
 20
-120.501372442641690
 40
0.400000000000091
 50
0.000000000000000
 51
90.000000000000000
  0
ARC
  8
0
  6
CONTINUOUS
 62
3
 10
-249.290952296611240
 20
-189.044577499886030
 40
2.600000000000136
 50
180.000000000000000
 51
234.999999999998610
  0
ARC
  8
0
  6
CONTINUOUS
 62
3
 10
-229.584976519081860
 20
-181.601372442640580
 40
20.000000000000007
 50
234.999999999999740
 51
270.000000000000000
  0
ARC
  8
0
  6
CONTINUOUS
 62
3
 10
-203.890952296661510
 20
-182.601372442640580
 40
3.000000000000000
 50
0.000000000000000
 51
90.000000000000000
  0
ARC
  8
0
  6
CONTINUOUS
 62
3
 10
-207.890952296661400
 20
-176.601372442640580
 40
3.000000000000000
 50
180.000000000000000
 51
270.000000000000000
  0
ARC
  8
0
  6
CONTINUOUS
 62
3
 10
-249.290952296611240
 20
-94.158167385395132
 40
2.599999999999721
 50
125.000000000001370
 51
180.000000000000000
  0
ARC
  8
0
  6
CONTINUOUS
 62
3
 10
-229.584976519081860
 20
-101.601372442640580
 40
20.000000000000000
 50
90.000000000000000
 51
125.000000000000240
  0
ARC
  8
0
  6
CONTINUOUS
 62
3
 10
-203.890952296661510
 20
-100.601372442640580
 40
3.000000000000000
 50
270.000000000000000
 51
0.000000000000000
  0
ARC
  8
0
  6
CONTINUOUS
 62
3
 10
426.186809986510530
 20
-30.101372442641150
 40
10.000000000000000
 50
0.000000000000000
 51
90.000000000000000
  0
ARC
  8
0
  6
CONTINUOUS
 62
3
 10
405.186809986510530
 20
-30.101372442641150
 40
10.000000000000000
 50
90.000000000000000
 51
180.000000000000000
  0
CIRCLE
  8
0
  6
CONTINUOUS
 62
3
 10
415.686809986510530
 20
-40.101372442641150
 40
10.000000000000000
  0
ARC
  8
0
  6
CONTINUOUS
 62
3
 10
415.686809986510530
 20
-555.101372442641150
 40
500.000000000000230
 50
85.577622414021945
 51
90.000000000000000
  0
ARC
  8
0
  6
CONTINUOUS
 62
3
 10
415.686809986510530
 20
-555.101372442641150
 40
500.000000000000000
 50
90.000000000000000
 51
94.422377585978055
  0
ARC
  8
0
  6
CONTINUOUS
 62
3
 10
537.686813100186550
 20
-266.101375506497790
 40
3.000000000000000
 50
0.000000000000000
 51
90.000000000000000
  0
ARC
  8
0
  6
CONTINUOUS
 62
3
 10
503.810394675369030
 20
-260.101375506497790
 40
3.000000000000000
 50
180.000000000000000
 51
270.000000000000000
  0
ARC
  8
0
  6
CONTINUOUS
 62
3
 10
535.686809986511430
 20
-260.101375506497790
 40
3.000000000000000
 50
180.000000000000000
 51
270.000000000000000
  0
ARC
  8
0
  6
CONTINUOUS
 62
3
 10
530.210394675369570
 20
-260.101375506497790
 40
3.000000000000000
 50
180.000000000000000
 51
270.000000000000000
  0
ARC
  8
0
  6
CONTINUOUS
 62
3
 10
301.163225297651480
 20
-260.101375506497790
 40
3.000000000000000
 50
270.000000000000000
 51
0.000000000000000
  0
ARC
  8
0
  6
CONTINUOUS
 62
3
 10
327.563225297651570
 20
-260.101375506497790
 40
3.000000000000000
 50
270.000000000000000
 51
0.000000000000000
  0
ARC
  8
0
  6
CONTINUOUS
 62
3
 10
482.686809986510530
 20
-275.101372567188260
 40
9.999999999999833
 50
224.427031979601790
 51
233.130135655587680
  0
ARC
  8
0
  6
CONTINUOUS
 62
3
 10
348.686809986510530
 20
-275.101372567188260
 40
10.000000000000053
 50
306.869864344412290
 51
315.572968020398260
  0
ARC
  8
0
  6
CONTINUOUS
 62
3
 10
493.686811979263440
 20
-285.101376054504730
 40
2.000000000000000
 50
0.000000000000000
 51
90.000000000000000
  0
ARC
  8
0
  6
CONTINUOUS
 62
3
 10
337.686807993758070
 20
-285.101376054504730
 40
2.000000000000000
 50
90.000000000000000
 51
180.000000000000000
  0
ARC
  8
0
  6
CONTINUOUS
 62
3
 10
498.204822410896670
 20
-260.101375506497790
 40
3.000000000000000
 50
180.000000000000000
 51
270.000000000000000
  0
ARC
  8
0
  6
CONTINUOUS
 62
3
 10
333.168797562124840
 20
-260.101375506497790
 40
3.000000000000000
 50
270.000000000000000
 51
0.000000000000000
  0
ARC
  8
0
  6
CONTINUOUS
 62
3
 10
479.186809986510530
 20
-247.401375506497970
 40
8.000000000000000
 50
270.000000000000000
 51
0.000000000000000
  0
ARC
  8
0
  6
CONTINUOUS
 62
3
 10
352.186809986510530
 20
-247.401375506497970
 40
8.000000000000000
 50
180.000000000000000
 51
270.000000000000000
  0
ARC
  8
0
  6
CONTINUOUS
 62
3
 10
293.686806872834950
 20
-266.101375506497790
 40
3.000000000000000
 50
90.000000000000000
 51
180.000000000000000
  0
ARC
  8
0
  6
CONTINUOUS
 62
3
 10
295.686809986510530
 20
-260.101375506497790
 40
3.000000000000000
 50
270.000000000000000
 51
0.000000000000000
  0
CIRCLE
  8
0
  6
CONTINUOUS
 62
3
 10
415.686809986510530
 20
-140.101372442641150
 40
40.999999999999943
  0
ARC
  8
0
  6
CONTINUOUS
 62
3
 10
383.686809986510530
 20
-141.336946712250210
 40
84.999999999999972
 50
94.422377585978197
 51
180.000000000000000
  0
ARC
  8
0
  6
CONTINUOUS
 62
3
 10
363.773420576841090
 20
-143.101372442641150
 40
3.000000000000262
 50
3.307362179674563
 51
90.000000000000000
  0
ARC
  8
0
  6
CONTINUOUS
 62
3
 10
415.686809986510530
 20
-140.101372442641150
 40
48.999999999999531
 50
183.307362179670630
 51
270.000000000000000
  0
CIRCLE
  8
0
  6
CONTINUOUS
 62
3
 10
415.686809986510530
 20
-140.101372442641150
 40
3.324999999999989
  0
CIRCLE
  8
0
  6
CONTINUOUS
 62
4
 10
415.686809986510530
 20
-140.101372442641150
 40
4.000000000000000
  0
CIRCLE
  8
0
  6
CONTINUOUS
 62
3
 10
415.686809986510530
 20
-140.101372442641150
 40
31.000000000000057
  0
ARC
  8
0
  6
CONTINUOUS
 62
3
 10
415.686809986510530
 20
-140.101372442641150
 40
31.000000000000000
 50
180.000000000000000
 51
0.000000000000000
  0
ARC
  8
0
  6
CONTINUOUS
 62
3
 10
415.686809986510530
 20
-140.101372442641150
 40
31.000000000000256
 50
70.008590721901967
 51
180.000000000000000
  0
ARC
  8
0
  6
CONTINUOUS
 62
3
 10
415.686809986510530
 20
-555.101372442641150
 40
462.518012424385230
 50
85.577622414021917
 51
90.000000000000000
  0
ARC
  8
0
  6
CONTINUOUS
 62
3
 10
415.686809986510530
 20
-555.101372442641150
 40
462.518012424385230
 50
90.000000000000000
 51
94.422377585978083
  0
ARC
  8
0
  6
CONTINUOUS
 62
3
 10
415.686809986510530
 20
-140.101372442641150
 40
49.000000000000000
 50
270.000000000000000
 51
356.692637820329420
  0
ARC
  8
0
  6
CONTINUOUS
 62
3
 10
467.600199396179960
 20
-143.101372442641150
 40
3.000000000000000
 50
90.000000000000000
 51
176.692637820325420
  0
LINE
  8
0
  6
CONTINUOUS
 62
3
 10
146.609034761125090
 20
-261.704554512665710
 11
183.231182999584060
 21
-262.983428109592750
  0
LINE
  8
0
  6
DASHDOT
 62
4
 10
168.609048413257200
 20
-257.083410453053150
 11
168.609048413257200
 21
-290.553364338772550
  0
LINE
  8
0
  6
CONTINUOUS
 62
3
 10
186.609034761125090
 20
-266.481296004159960
 11
186.609034761125090
 21
-285.101399006741300
  0
LINE
  8
0
  6
CONTINUOUS
 62
3
 10
186.609053754545870
 20
-99.101372442641150
 11
186.609053754545870
 21
-140.101372442641150
  0
LINE
  8
0
  6
CONTINUOUS
 62
3
 10
184.609034711306610
 20
-140.101372442641150
 11
184.609034711306610
 21
-261.790880196540460
  0
LINE
  8
0
  6
CONTINUOUS
 62
3
 10
184.609053704725570
 20
-93.424844083901917
 11
184.609053704725570
 21
-140.101372442641150
  0
LINE
  8
0
  6
CONTINUOUS
 62
3
 10
186.609053754545870
 20
-181.101372442641150
 11
186.609053754545870
 21
-140.101372442641150
  0
LINE
  8
0
  6
CONTINUOUS
 62
3
 10
179.964833253037630
 20
-140.101372442641150
 11
179.964833253037630
 21
-259.972298338592740
  0
LINE
  8
0
  6
CONTINUOUS
 62
3
 10
145.094833253037730
 20
-140.101372442641150
 11
145.094833253037730
 21
-258.754611106415720
  0
LINE
  8
0
  6
CONTINUOUS
 62
3
 10
185.609053729635720
 20
-99.101372442641150
 11
186.609053754545870
 21
-99.101372442641150
  0
LINE
  8
0
  6
CONTINUOUS
 62
3
 10
185.609053729635720
 20
-181.101372442641150
 11
186.609053754545870
 21
-181.101372442641150
  0
LINE
  8
0
  6
CONTINUOUS
 62
3
 10
248.609053754544960
 20
-140.101372442641150
 11
248.609053754544960
 21
-159.701372442641510
  0
LINE
  8
0
  6
CONTINUOUS
 62
3
 10
191.668868501549070
 20
-160.101372442641150
 11
191.109060880413670
 21
-159.951372442641510
  0
LINE
  8
0
  6
CONTINUOUS
 62
3
 10
248.209053754544870
 20
-160.101372442641150
 11
191.668868501549530
 21
-160.101372442641150
  0
LINE
  8
0
  6
CONTINUOUS
 62
3
 10
188.609053754544960
 20
-140.101372442641150
 11
188.609053754544960
 21
-162.201372442641510
  0
LINE
  8
0
  6
CONTINUOUS
 62
3
 10
188.209053754544870
 20
-162.601372442641150
 11
188.609053754544960
 21
-162.201372442641510
  0
LINE
  8
0
  6
CONTINUOUS
 62
3
 10
191.109060880413670
 20
-159.951372442641510
 11
190.209053754544870
 21
-159.951372442641510
  0
LINE
  8
0
  6
CONTINUOUS
 62
3
 10
191.668868501549070
 20
-120.101372442641150
 11
191.109060880413670
 21
-120.251372442641690
  0
LINE
  8
0
  6
CONTINUOUS
 62
3
 10
188.609053754544960
 20
-140.101372442641150
 11
188.609053754544960
 21
-118.001372442641690
  0
LINE
  8
0
  6
CONTINUOUS
 62
3
 10
188.209053754544870
 20
-117.601372442641150
 11
188.609053754544960
 21
-118.001372442641690
  0
LINE
  8
0
  6
CONTINUOUS
 62
3
 10
191.109060880413670
 20
-120.251372442641690
 11
190.209053754544870
 21
-120.251372442641690
  0
LINE
  8
0
  6
CONTINUOUS
 62
3
 10
248.209053754544870
 20
-120.101372442641150
 11
191.668868501549530
 21
-120.101372442641150
  0
LINE
  8
0
  6
CONTINUOUS
 62
3
 10
188.209053754544870
 20
-117.601372442641150
 11
186.609053754545870
 21
-117.601372442641150
  0
LINE
  8
0
  6
CONTINUOUS
 62
3
 10
188.209053754544870
 20
-162.601372442641150
 11
186.609053754545870
 21
-162.601372442641150
  0
LINE
  8
0
  6
CONTINUOUS
 62
3
 10
248.609053754544960
 20
-140.101372442641150
 11
248.609053754544960
 21
-120.501372442641690
  0
LINE
  8
0
  6
DASHDOT
 62
4
 10
263.634020645058630
 20
-140.101372442641150
 11
116.945995028240580
 21
-140.101372442641150
  0
LINE
  8
0
  6
CONTINUOUS
 62
3
 10
-211.890952296660940
 20
-195.341487543078420
 11
-213.890952296660940
 21
-193.688845903954980
  0
LINE
  8
0
  6
CONTINUOUS
 62
3
 10
-209.890952296660940
 20
-196.517273028700740
 11
-211.890952296660940
 21
-195.341487543078420
  0
LINE
  8
0
  6
CONTINUOUS
 62
3
 10
-211.890952296660940
 20
-195.341487543078420
 11
-209.890952296660940
 21
-193.688845903954980
  0
LINE
  8
0
  6
CONTINUOUS
 62
3
 10
-213.890952296660940
 20
-196.517273028700740
 11
-211.890952296660940
 21
-195.341487543078420
  0
LINE
  8
0
  6
CONTINUOUS
 62
3
 10
-211.890952296660940
 20
-87.861257342202975
 11
-213.890952296660940
 21
-89.513898981326406
  0
LINE
  8
0
  6
CONTINUOUS
 62
3
 10
-209.890952296660940
 20
-86.685471856580193
 11
-211.890952296660940
 21
-87.861257342202975
  0
LINE
  8
0
  6
CONTINUOUS
 62
3
 10
-211.890952296660940
 20
-87.861257342202975
 11
-209.890952296660940
 21
-89.513898981326406
  0
LINE
  8
0
  6
CONTINUOUS
 62
3
 10
-213.890952296660940
 20
-86.685471856580193
 11
-211.890952296660940
 21
-87.861257342202975
  0
LINE
  8
0
  6
CONTINUOUS
 62
3
 10
-241.056505246102860
 20
-197.984413328420370
 11
-250.782251031123850
 21
-191.174372815037150
  0
LINE
  8
0
  6
CONTINUOUS
 62
3
 10
-251.890952296611370
 20
-141.601372442640580
 11
-251.890952296611370
 21
-189.044577499886030
  0
LINE
  8
0
  6
CONTINUOUS
 62
3
 10
-200.890952296661510
 20
-201.601372442640580
 11
-229.584976519081860
 21
-201.601372442640580
  0
LINE
  8
0
  6
CONTINUOUS
 62
3
 10
-203.890952296661510
 20
-179.601372442640580
 11
-207.890952296661400
 21
-179.601372442640580
  0
LINE
  8
0
  6
CONTINUOUS
 62
3
 10
-200.890952296661510
 20
-182.601372442640580
 11
-200.890952296661510
 21
-201.601372442640580
  0
LINE
  8
0
  6
CONTINUOUS
 62
3
 10
-241.056505246102860
 20
-85.218331556860790
 11
-250.782251031123850
 21
-92.028372070244018
  0
LINE
  8
0
  6
CONTINUOUS
 62
3
 10
-251.890952296611370
 20
-141.601372442640580
 11
-251.890952296611370
 21
-94.158167385395132
  0
LINE
  8
0
  6
CONTINUOUS
 62
3
 10
-200.890952296661510
 20
-81.601372442640582
 11
-229.584976519081860
 21
-81.601372442640582
  0
LINE
  8
0
  6
CONTINUOUS
 62
3
 10
-203.890952296661510
 20
-103.601372442640580
 11
-207.890952296661400
 21
-103.601372442640580
  0
LINE
  8
0
  6
CONTINUOUS
 62
3
 10
-200.890952296661510
 20
-100.601372442640580
 11
-200.890952296661510
 21
-81.601372442640582
  0
LINE
  8
0
  6
CONTINUOUS
 62
3
 10
436.186809986510530
 20
-30.101372442641150
 11
436.186809986510530
 21
-55.521799201300382
  0
LINE
  8
0
  6
CONTINUOUS
 62
3
 10
426.186809986510530
 20
-20.101372442641150
 11
405.186809986510530
 21
-20.101372442641150
  0
LINE
  8
0
  6
DASHDOT
 62
4
 10
438.854722985392070
 20
-40.101372442641150
 11
391.832209083857380
 21
-40.101372442641150
  0
LINE
  8
0
  6
CONTINUOUS
 62
3
 10
395.186809986510530
 20
-30.101372442641150
 11
395.186809986510530
 21
-55.521799201300382
  0
LINE
  8
0
  6
CONTINUOUS
 62
3
 10
415.686809986510530
 20
-263.101375506497790
 11
537.686813100186550
 21
-263.101375506497790
  0
LINE
  8
0
  6
CONTINUOUS
 62
3
 10
415.686809986510530
 20
-282.101375929957610
 11
475.545384854142870
 21
-282.101375929957610
  0
LINE
  8
0
  6
CONTINUOUS
 62
3
 10
540.686813100186550
 20
-285.101376054504730
 11
540.686813100186550
 21
-266.101375506497790
  0
LINE
  8
0
  6
CONTINUOUS
 62
3
 10
495.686811979263440
 20
-285.101376054504730
 11
540.686813100186550
 21
-285.101376054504730
  0
LINE
  8
0
  6
DASHDOT
 62
4
 10
523.186812664271200
 20
-292.925834746116380
 11
523.186812664271200
 21
-257.387797545643480
  0
LINE
  8
0
  6
CONTINUOUS
 62
3
 10
415.686809986510530
 20
-263.101375506497790
 11
293.686806872834950
 21
-263.101375506497790
  0
LINE
  8
0
  6
CONTINUOUS
 62
3
 10
335.686807993758070
 20
-285.101376054504730
 11
290.686806872834950
 21
-285.101376054504730
  0
LINE
  8
0
  6
DASHDOT
 62
4
 10
308.186807308749390
 20
-292.925834746116380
 11
308.186807308749390
 21
-257.387797545643480
  0
LINE
  8
0
  6
CONTINUOUS
 62
3
 10
415.686809986510530
 20
-282.101375929957610
 11
355.828235118878180
 21
-282.101375929957610
  0
LINE
  8
0
  6
CONTINUOUS
 62
3
 10
476.686814636268540
 20
-283.101376054504730
 11
493.686811979263440
 21
-283.101376054504730
  0
LINE
  8
0
  6
CONTINUOUS
 62
3
 10
354.686805336752510
 20
-283.101376054504730
 11
337.686807993758070
 21
-283.101376054504730
  0
LINE
  8
0
  6
CONTINUOUS
 62
3
 10
415.686809986510530
 20
-255.401375506497970
 11
479.186809986510530
 21
-255.401375506497970
  0
LINE
  8
0
  6
CONTINUOUS
 62
3
 10
415.686809986510530
 20
-255.401375506497970
 11
352.186809986510530
 21
-255.401375506497970
  0
LINE
  8
0
  6
CONTINUOUS
 62
3
 10
290.686806872834950
 20
-285.101376054504730
 11
290.686806872834950
 21
-266.101375506497790
  0
LINE
  8
0
  6
DASHDOT
 62
4
 10
415.686809986510530
 20
-294.536809021967200
 11
415.686809986510530
 21
-14.155920327058993
  0
LINE
  8
0
  6
CONTINUOUS
 62
3
 10
532.686809986511430
 20
-260.101375506497790
 11
532.686809986511430
 21
-141.336946712250210
  0
LINE
  8
0
  6
CONTINUOUS
 62
3
 10
304.163225297651480
 20
-140.101372442641150
 11
304.163225297651480
 21
-260.101375506497790
  0
LINE
  8
0
  6
CONTINUOUS
 62
3
 10
298.686809986510530
 20
-260.101375506497790
 11
298.686809986510530
 21
-141.336946712250210
  0
LINE
  8
0
  6
DASHDOT
 62
4
 10
451.887557729030960
 20
-141.601372442640700
 11
379.327862359059510
 21
-141.601372442640700
  0
ENDSEC
  0
EOF
