  0
SECTION
  2
HEADER
  9
$FILLMODE
 70
1
  9
$TEXTSTYLE
  7
STANDARD1
  9
$ACADVER
  1
AC1009
  9
$DIMASZ
 40
1.931851648807023
  9
$DIMEXE
 40
2.000000000000000
  9
$DIMEXO
 40
1.000000000000000
  9
$DIMLFAC
 40
1.000000000000000
  9
$DIMSCALE
 40
1.000000000000000
  9
$DIMTAD
 70
1
  9
$DIMTFAC
 40
0.714285731315613
  9
$DIMTXT
 40
3.200000047683716
  9
$LUPREC
 70
3
  9
$TEXTSIZE
 40
2.799999952316284
  9
$REGENMODE
 70
1
  0
ENDSEC
  0
SECTION
  2
TABLES
  0
TABLE
  2
LTYPE
 70
4
  0
LTYPE
  2
CONTINUOUS
 70
64
  3
Solid line
 72
65
 73
0
 40
0.0
  0
LTYPE
  2
DASHED
 70
64
  3
-- -- -- -- -- -- -- -- -- -- -- -- -- -- --
 72
65
 73
2
 40
0.75
 49
0.5
 49
-0.25
  0
LTYPE
  2
DASHDOT
 70
64
  3
__ . __ . __ . __ . __ . __ . __ . __ . __ . __
 72
65
 73
4
 40
1.0
 49
0.5
 49
-0.25
 49
0.0
 49
-0.25
  0
LTYPE
  2
DIVIDE
 70
64
  3
__ . . __ . . __ . . __ . . __ . . __ . . __
 72
65
 73
6
 40
1.25
 49
0.5
 49
-0.25
 49
0.0
 49
-0.25
 49
0.0
 49
-0.25
  0
ENDTAB
  0
TABLE
  2
LAYER
 70
1
  0
LAYER
  2
0
 70
64
 62
2
  6
CONTINUOUS
  0
ENDTAB
  0
TABLE
  2
STYLE
 70
4
  0
STYLE
  2
STANDARD1
 70
64
 40
0.0
 41
1.0
 50
0.0
 71
0
 42
2.799999952316284
  3
MONOTXT
  4
BIGFONT
  0
STYLE
  2
STANDARD2
 70
68
 40
0.0
 41
1.0
 50
0.0
 71
0
 42
2.799999952316284
  3
MONOTXT
  4
BIGFONT
  0
STYLE
  2
STANDARD3
 70
64
 40
0.0
 41
1.0
 50
0.0
 71
0
 42
2.799999952316284
  3
MONOTXT
  4

  0
STYLE
  2
STANDARD4
 70
68
 40
0.0
 41
1.0
 50
0.0
 71
0
 42
2.799999952316284
  3
MONOTXT
  4

  0
ENDTAB
  0
TABLE
  2
VIEW
 70
0
  0
ENDTAB
  0
ENDSEC
  0
SECTION
  2
BLOCKS
  0
BLOCK
  8
0
  2
SYM1
 70
64
 10
0.000000000000000
 20
0.000000000000000
  0
POINT
  8
0
  6
CONTINUOUS
 62
3
 10
0.000000000000000
 20
0.000000000000000
  0
LINE
  8
0
  6
CONTINUOUS
 62
3
 10
0.000000000000000
 20
-6.500000000000000
 11
-0.000000000000000
 21
6.500000000000000
  0
LINE
  8
0
  6
CONTINUOUS
 62
3
 10
-7.999999046325684
 20
5.633875846862793
 11
-7.999999046325684
 21
-5.634070396423340
  0
LINE
  8
0
  6
CONTINUOUS
 62
3
 10
0.000000000000000
 20
6.500000000000000
 11
-7.499999046325684
 21
6.500000000000000
  0
LINE
  8
0
  6
CONTINUOUS
 62
3
 10
-0.000000000000000
 20
-6.500000000000000
 11
-7.499998092651367
 21
-6.500000000000000
  0
LINE
  8
0
  6
CONTINUOUS
 62
3
 10
-7.499999203818277
 20
6.499999909101064
 11
-7.999999021366804
 21
5.633876130311293
  0
LINE
  8
0
  6
CONTINUOUS
 62
3
 10
-7.499997911632022
 20
-6.499999445138201
 11
-7.999998623386432
 21
-5.634070287011241
  0
LINE
  8
0
  6
CONTINUOUS
 62
3
 10
-7.499999046325684
 20
6.500000000000000
 11
-7.499999046325684
 21
-6.500000000000000
  0
ENDBLK
  8
0
  0
BLOCK
  8
0
  2
SYM2
 70
64
 10
0.000000000000000
 20
0.000000000000000
  0
POINT
  8
0
  6
CONTINUOUS
 62
3
 10
0.000000000000000
 20
0.000000000000000
  0
LINE
  8
0
  6
CONTINUOUS
 62
3
 10
0.000000000000000
 20
-6.500000000000000
 11
-0.000000000000000
 21
6.500000000000000
  0
LINE
  8
0
  6
CONTINUOUS
 62
3
 10
-7.999999046325684
 20
5.633875846862793
 11
-7.999999046325684
 21
-5.634070396423340
  0
LINE
  8
0
  6
CONTINUOUS
 62
3
 10
0.000000000000000
 20
6.500000000000000
 11
-7.499999046325684
 21
6.500000000000000
  0
LINE
  8
0
  6
CONTINUOUS
 62
3
 10
-0.000000000000000
 20
-6.500000000000000
 11
-7.499998092651367
 21
-6.500000000000000
  0
LINE
  8
0
  6
CONTINUOUS
 62
3
 10
-7.499999203818277
 20
6.499999909101064
 11
-7.999999021366804
 21
5.633876130311293
  0
LINE
  8
0
  6
CONTINUOUS
 62
3
 10
-7.499997911632022
 20
-6.499999445138201
 11
-7.999998623386432
 21
-5.634070287011241
  0
LINE
  8
0
  6
CONTINUOUS
 62
3
 10
-7.499999046325684
 20
6.500000000000000
 11
-7.499999046325684
 21
-6.500000000000000
  0
ENDBLK
  8
0
  0
BLOCK
  8
0
  2
SYM3
 70
64
 10
0.000000000000000
 20
0.000000000000000
  0
POINT
  8
0
  6
CONTINUOUS
 62
3
 10
0.000000000000000
 20
0.000000000000000
  0
LINE
  8
0
  6
CONTINUOUS
 62
3
 10
0.000000000000000
 20
-6.500000000000000
 11
-0.000000000000000
 21
6.500000000000000
  0
LINE
  8
0
  6
CONTINUOUS
 62
3
 10
-7.999999046325684
 20
5.633875846862793
 11
-7.999999046325684
 21
-5.634070396423340
  0
LINE
  8
0
  6
CONTINUOUS
 62
3
 10
0.000000000000000
 20
6.500000000000000
 11
-7.499999046325684
 21
6.500000000000000
  0
LINE
  8
0
  6
CONTINUOUS
 62
3
 10
-0.000000000000000
 20
-6.500000000000000
 11
-7.499998092651367
 21
-6.500000000000000
  0
LINE
  8
0
  6
CONTINUOUS
 62
3
 10
-7.499999203818277
 20
6.499999909101064
 11
-7.999999021366804
 21
5.633876130311293
  0
LINE
  8
0
  6
CONTINUOUS
 62
3
 10
-7.499997911632022
 20
-6.499999445138201
 11
-7.999998623386432
 21
-5.634070287011241
  0
LINE
  8
0
  6
CONTINUOUS
 62
3
 10
-7.499999046325684
 20
6.500000000000000
 11
-7.499999046325684
 21
-6.500000000000000
  0
ENDBLK
  8
0
  0
BLOCK
  8
0
  2
SYM4
 70
64
 10
0.000000000000000
 20
0.000000000000000
  0
ARC
  8
0
  6
CONTINUOUS
 62
3
 10
1.981662750244141
 20
-0.000008163610801
 40
5.981661796569824
 50
150.999363302540700
 51
209.000072979481700
  0
ARC
  8
0
  6
CONTINUOUS
 62
3
 10
-2.269982337951660
 20
4.325008392333984
 40
1.729999542236328
 50
179.999745461767870
 51
235.499786279783790
  0
ARC
  8
0
  6
CONTINUOUS
 62
3
 10
-2.270017623901367
 20
-4.324990272521973
 40
1.729999542236328
 50
124.499759285265280
 51
179.999745461767870
  0
LINE
  8
0
  6
CONTINUOUS
 62
3
 10
-3.249984168999890
 20
2.900012016287064
 11
0.000013133145058
 21
2.899999618522375
  0
LINE
  8
0
  6
CONTINUOUS
 62
3
 10
-3.250009052584916
 20
-2.899986267083180
 11
-0.000013285950788
 21
-2.899999618524636
  0
LINE
  8
0
  6
CONTINUOUS
 62
3
 10
0.000023687533422
 20
5.749999046325684
 11
-0.000023687533422
 21
-5.749999046325684
  0
LINE
  8
0
  6
CONTINUOUS
 62
3
 10
-3.249972343459831
 20
5.750005722029982
 11
0.000027906669402
 21
5.749993324257003
  0
LINE
  8
0
  6
CONTINUOUS
 62
3
 10
-3.999972830514309
 20
4.900008662670757
 11
-3.249970339875063
 21
5.750006850331147
  0
LINE
  8
0
  6
CONTINUOUS
 62
3
 10
-4.000014781949545
 20
-4.899978112209579
 11
-3.999973773958658
 21
4.900011588107803
  0
LINE
  8
0
  6
CONTINUOUS
 62
3
 10
-3.250024308998832
 20
-5.749987011620533
 11
-4.000020133420207
 21
-4.899982163000686
  0
LINE
  8
0
  6
CONTINUOUS
 62
3
 10
-0.000027060931608
 20
-5.749995231614290
 11
-3.250020760774497
 21
-5.749981880178368
  0
POINT
  8
0
  6
CONTINUOUS
 62
3
 10
0.000000000000000
 20
0.000000000000000
  0
ENDBLK
  8
0
  0
BLOCK
  8
0
  2
SYM5
 70
64
 10
0.000000000000000
 20
0.000000000000000
  0
POINT
  8
0
  6
CONTINUOUS
 62
3
 10
0.000000000000000
 20
0.000000000000000
  0
LINE
  8
0
  6
CONTINUOUS
 62
3
 10
0.000000000000000
 20
-6.500000000000000
 11
-0.000000000000000
 21
6.500000000000000
  0
LINE
  8
0
  6
CONTINUOUS
 62
3
 10
-7.999999046325684
 20
5.633875846862793
 11
-7.999999046325684
 21
-5.634070396423340
  0
LINE
  8
0
  6
CONTINUOUS
 62
3
 10
0.000000000000000
 20
6.500000000000000
 11
-7.499999046325684
 21
6.500000000000000
  0
LINE
  8
0
  6
CONTINUOUS
 62
3
 10
-7.499999203818277
 20
6.499999909101064
 11
-7.999999021366804
 21
5.633876130311293
  0
LINE
  8
0
  6
CONTINUOUS
 62
3
 10
-7.499997911632022
 20
-6.499999445138201
 11
-7.999998623386432
 21
-5.634070287011241
  0
LINE
  8
0
  6
CONTINUOUS
 62
3
 10
-7.499999046325684
 20
6.500000000000000
 11
-7.499999046325684
 21
-6.500000000000000
  0
ENDBLK
  8
0
  0
BLOCK
  8
0
  2
SYM6
 70
64
 10
0.000000000000000
 20
0.000000000000000
  0
LINE
  8
0
  6
CONTINUOUS
 62
3
 10
-7.499999046325684
 20
6.500000000000000
 11
-7.499999046325684
 21
-6.500000000000000
  0
LINE
  8
0
  6
CONTINUOUS
 62
3
 10
-7.499997911632022
 20
-6.499999445138201
 11
-7.999998623386432
 21
-5.634070287011241
  0
LINE
  8
0
  6
CONTINUOUS
 62
3
 10
-7.499999203818277
 20
6.499999909101064
 11
-7.999999021366804
 21
5.633876130311293
  0
LINE
  8
0
  6
CONTINUOUS
 62
3
 10
-0.000000000000000
 20
-6.500000000000000
 11
-7.499998092651367
 21
-6.500000000000000
  0
LINE
  8
0
  6
CONTINUOUS
 62
3
 10
0.000000000000000
 20
6.500000000000000
 11
-7.499999046325684
 21
6.500000000000000
  0
LINE
  8
0
  6
CONTINUOUS
 62
3
 10
-7.999999046325684
 20
5.633875846862793
 11
-7.999999046325684
 21
-5.634070396423340
  0
LINE
  8
0
  6
CONTINUOUS
 62
3
 10
0.000000000000000
 20
-6.500000000000000
 11
-0.000000000000000
 21
6.500000000000000
  0
POINT
  8
0
  6
CONTINUOUS
 62
3
 10
0.000000000000000
 20
0.000000000000000
  0
ENDBLK
  8
0
  0
BLOCK
  8
0
  2
SYM7
 70
64
 10
0.000000000000000
 20
0.000000000000000
  0
LINE
  8
0
  6
CONTINUOUS
 62
3
 10
-7.499999046325684
 20
6.500000000000000
 11
-7.499999046325684
 21
-6.500000000000000
  0
LINE
  8
0
  6
CONTINUOUS
 62
3
 10
-7.499997911632022
 20
-6.499999445138201
 11
-7.999998623386432
 21
-5.634070287011241
  0
LINE
  8
0
  6
CONTINUOUS
 62
3
 10
-7.499999203818277
 20
6.499999909101064
 11
-7.999999021366804
 21
5.633876130311293
  0
LINE
  8
0
  6
CONTINUOUS
 62
3
 10
-0.000000000000000
 20
-6.500000000000000
 11
-7.499998092651367
 21
-6.500000000000000
  0
LINE
  8
0
  6
CONTINUOUS
 62
3
 10
0.000000000000000
 20
6.500000000000000
 11
-7.499999046325684
 21
6.500000000000000
  0
LINE
  8
0
  6
CONTINUOUS
 62
3
 10
-7.999999046325684
 20
5.633875846862793
 11
-7.999999046325684
 21
-5.634070396423340
  0
LINE
  8
0
  6
CONTINUOUS
 62
3
 10
0.000000000000000
 20
-6.500000000000000
 11
-0.000000000000000
 21
6.500000000000000
  0
POINT
  8
0
  6
CONTINUOUS
 62
3
 10
0.000000000000000
 20
0.000000000000000
  0
ENDBLK
  8
0
  0
BLOCK
  8
0
  2
SYM8
 70
64
 10
0.000000000000000
 20
0.000000000000000
  0
LINE
  8
0
  6
CONTINUOUS
 62
3
 10
-7.499999046325684
 20
6.500000000000000
 11
-7.499999046325684
 21
-6.500000000000000
  0
LINE
  8
0
  6
CONTINUOUS
 62
3
 10
-7.499997911632022
 20
-6.499999445138201
 11
-7.999998623386432
 21
-5.634070287011241
  0
LINE
  8
0
  6
CONTINUOUS
 62
3
 10
-7.499999203818277
 20
6.499999909101064
 11
-7.999999021366804
 21
5.633876130311293
  0
LINE
  8
0
  6
CONTINUOUS
 62
3
 10
-0.000000000000000
 20
-6.500000000000000
 11
-7.499998092651367
 21
-6.500000000000000
  0
LINE
  8
0
  6
CONTINUOUS
 62
3
 10
0.000000000000000
 20
6.500000000000000
 11
-7.499999046325684
 21
6.500000000000000
  0
LINE
  8
0
  6
CONTINUOUS
 62
3
 10
-7.999999046325684
 20
5.633875846862793
 11
-7.999999046325684
 21
-5.634070396423340
  0
LINE
  8
0
  6
CONTINUOUS
 62
3
 10
0.000000000000000
 20
-6.500000000000000
 11
-0.000000000000000
 21
6.500000000000000
  0
POINT
  8
0
  6
CONTINUOUS
 62
3
 10
0.000000000000000
 20
0.000000000000000
  0
ENDBLK
  8
0
  0
BLOCK
  8
0
  2
SYM9
 70
64
 10
0.000000000000000
 20
0.000000000000000
  0
LINE
  8
0
  6
CONTINUOUS
 62
3
 10
-7.499999046325684
 20
6.500000000000000
 11
-7.499999046325684
 21
-6.500000000000000
  0
LINE
  8
0
  6
CONTINUOUS
 62
3
 10
-7.499997911632022
 20
-6.499999445138201
 11
-7.999998623386432
 21
-5.634070287011241
  0
LINE
  8
0
  6
CONTINUOUS
 62
3
 10
-7.499999203818277
 20
6.499999909101064
 11
-7.999999021366804
 21
5.633876130311293
  0
LINE
  8
0
  6
CONTINUOUS
 62
3
 10
-0.000000000000000
 20
-6.500000000000000
 11
-7.499998092651367
 21
-6.500000000000000
  0
LINE
  8
0
  6
CONTINUOUS
 62
3
 10
0.000000000000000
 20
6.500000000000000
 11
-7.499999046325684
 21
6.500000000000000
  0
LINE
  8
0
  6
CONTINUOUS
 62
3
 10
-7.999999046325684
 20
5.633875846862793
 11
-7.999999046325684
 21
-5.634070396423340
  0
LINE
  8
0
  6
CONTINUOUS
 62
3
 10
0.000000000000000
 20
-6.500000000000000
 11
-0.000000000000000
 21
6.500000000000000
  0
POINT
  8
0
  6
CONTINUOUS
 62
3
 10
0.000000000000000
 20
0.000000000000000
  0
ENDBLK
  8
0
  0
BLOCK
  8
0
  2
SYM10
 70
64
 10
0.000000000000000
 20
0.000000000000000
  0
LINE
  8
0
  6
CONTINUOUS
 62
3
 10
-7.499999046325684
 20
6.500000000000000
 11
-7.499999046325684
 21
-6.500000000000000
  0
LINE
  8
0
  6
CONTINUOUS
 62
3
 10
-7.499997911632022
 20
-6.499999445138201
 11
-7.999998623386432
 21
-5.634070287011241
  0
LINE
  8
0
  6
CONTINUOUS
 62
3
 10
-7.499999203818277
 20
6.499999909101064
 11
-7.999999021366804
 21
5.633876130311293
  0
LINE
  8
0
  6
CONTINUOUS
 62
3
 10
-0.000000000000000
 20
-6.500000000000000
 11
-7.499998092651367
 21
-6.500000000000000
  0
LINE
  8
0
  6
CONTINUOUS
 62
3
 10
0.000000000000000
 20
6.500000000000000
 11
-7.499999046325684
 21
6.500000000000000
  0
LINE
  8
0
  6
CONTINUOUS
 62
3
 10
-7.999999046325684
 20
5.633875846862793
 11
-7.999999046325684
 21
-5.634070396423340
  0
LINE
  8
0
  6
CONTINUOUS
 62
3
 10
0.000000000000000
 20
-6.500000000000000
 11
-0.000000000000000
 21
6.500000000000000
  0
POINT
  8
0
  6
CONTINUOUS
 62
3
 10
0.000000000000000
 20
0.000000000000000
  0
ENDBLK
  8
0
  0
BLOCK
  8
0
  2
SYM11
 70
64
 10
0.000000000000000
 20
0.000000000000000
  0
LINE
  8
0
  6
CONTINUOUS
 62
3
 10
-7.499999046325684
 20
6.500000000000000
 11
-7.499999046325684
 21
-6.500000000000000
  0
LINE
  8
0
  6
CONTINUOUS
 62
3
 10
-7.499997911632022
 20
-6.499999445138201
 11
-7.999998623386432
 21
-5.634070287011241
  0
LINE
  8
0
  6
CONTINUOUS
 62
3
 10
-7.499999203818277
 20
6.499999909101064
 11
-7.999999021366804
 21
5.633876130311293
  0
LINE
  8
0
  6
CONTINUOUS
 62
3
 10
-0.000000000000000
 20
-6.500000000000000
 11
-7.499998092651367
 21
-6.500000000000000
  0
LINE
  8
0
  6
CONTINUOUS
 62
3
 10
0.000000000000000
 20
6.500000000000000
 11
-7.499999046325684
 21
6.500000000000000
  0
LINE
  8
0
  6
CONTINUOUS
 62
3
 10
-7.999999046325684
 20
5.633875846862793
 11
-7.999999046325684
 21
-5.634070396423340
  0
LINE
  8
0
  6
CONTINUOUS
 62
3
 10
0.000000000000000
 20
-6.500000000000000
 11
-0.000000000000000
 21
6.500000000000000
  0
POINT
  8
0
  6
CONTINUOUS
 62
3
 10
0.000000000000000
 20
0.000000000000000
  0
ENDBLK
  8
0
  0
BLOCK
  8
0
  2
SYM12
 70
64
 10
0.000000000000000
 20
0.000000000000000
  0
ARC
  8
0
  6
CONTINUOUS
 62
3
 10
6.399999618530273
 20
0.000000000000000
 40
9.000000000000000
 50
163.398451589674950
 51
196.601531107481040
  0
POINT
  8
0
  6
CONTINUOUS
 62
3
 10
0.000000000000000
 20
0.000000000000000
  0
LINE
  8
0
  6
CONTINUOUS
 62
3
 10
0.000000000000000
 20
-3.500000000000000
 11
-0.000000000000000
 21
3.500000000000000
  0
LINE
  8
0
  6
CONTINUOUS
 62
3
 10
0.000000000000000
 20
-3.500000000000000
 11
-0.000000000000000
 21
3.500000000000000
  0
LINE
  8
0
  6
CONTINUOUS
 62
3
 10
0.000000000000000
 20
3.500000000000000
 11
-0.979025304317474
 21
3.500000000000000
  0
LINE
  8
0
  6
CONTINUOUS
 62
3
 10
-0.000000000000000
 20
-3.500000000000000
 11
-0.979025304317474
 21
-3.500000000000000
  0
ARC
  8
0
  6
CONTINUOUS
 62
3
 10
-0.979025304317474
 20
2.200000762939453
 40
1.299999237060547
 50
90.000000000000000
 51
163.398451589674950
  0
ARC
  8
0
  6
CONTINUOUS
 62
3
 10
-0.979025304317474
 20
-2.200000762939453
 40
1.299999237060547
 50
196.601531107481040
 51
270.000000000000000
  0
ENDBLK
  8
0
  0
BLOCK
  8
0
  2
SYM13
 70
64
 10
0.000000000000000
 20
0.000000000000000
  0
POINT
  8
0
  6
CONTINUOUS
 62
3
 10
0.000000000000000
 20
5.633955001831055
  0
POINT
  8
0
  6
CONTINUOUS
 62
3
 10
0.500000119209290
 20
6.500000000000000
  0
LINE
  8
0
  6
CONTINUOUS
 62
3
 10
-0.000004704988612
 20
-3.464098175748802
 11
-2.999997577100373
 21
-1.732046218032735
  0
LINE
  8
0
  6
CONTINUOUS
 62
3
 10
0.000006618601731
 20
3.464096896385627
 11
2.999997425948948
 21
1.732046782136365
  0
LINE
  8
0
  6
CONTINUOUS
 62
3
 10
2.999998112093635
 20
-1.732051392778772
 11
-0.000004464412200
 21
-3.464098365415111
  0
LINE
  8
0
  6
CONTINUOUS
 62
3
 10
0.000006701720849
 20
3.464096999935236
 11
-2.999997939551520
 21
1.732051821705568
  0
LINE
  8
0
  6
CONTINUOUS
 62
3
 10
2.999996662140697
 20
1.732046953225571
 11
2.999997615814979
 21
-1.732051023458999
  0
LINE
  8
0
  6
CONTINUOUS
 62
3
 10
-2.999996662140960
 20
-1.732045999551255
 11
-2.999997615815242
 21
1.732051977133316
  0
POINT
  8
0
  6
CONTINUOUS
 62
3
 10
0.000000000000000
 20
0.000000000000000
  0
CIRCLE
  8
0
  6
CONTINUOUS
 62
3
 10
0.000000000000000
 20
0.000000000000000
 40
6.500000000000000
  0
CIRCLE
  8
0
  6
CONTINUOUS
 62
3
 10
0.000000000000000
 20
0.000000000000000
 40
5.633955001831055
  0
ENDBLK
  8
0
  0
BLOCK
  8
0
  2
SYM14
 70
64
 10
0.000000000000000
 20
0.000000000000000
  0
POINT
  8
0
  6
CONTINUOUS
 62
3
 10
0.000000000000000
 20
5.633955001831055
  0
POINT
  8
0
  6
CONTINUOUS
 62
3
 10
0.500000119209290
 20
6.500000000000000
  0
LINE
  8
0
  6
CONTINUOUS
 62
3
 10
-0.000004704988612
 20
-3.464098175748802
 11
-2.999997577100373
 21
-1.732046218032735
  0
LINE
  8
0
  6
CONTINUOUS
 62
3
 10
0.000006618601731
 20
3.464096896385627
 11
2.999997425948948
 21
1.732046782136365
  0
LINE
  8
0
  6
CONTINUOUS
 62
3
 10
2.999998112093635
 20
-1.732051392778772
 11
-0.000004464412200
 21
-3.464098365415111
  0
LINE
  8
0
  6
CONTINUOUS
 62
3
 10
0.000006701720849
 20
3.464096999935236
 11
-2.999997939551520
 21
1.732051821705568
  0
LINE
  8
0
  6
CONTINUOUS
 62
3
 10
2.999996662140697
 20
1.732046953225571
 11
2.999997615814979
 21
-1.732051023458999
  0
LINE
  8
0
  6
CONTINUOUS
 62
3
 10
-2.999996662140960
 20
-1.732045999551255
 11
-2.999997615815242
 21
1.732051977133316
  0
POINT
  8
0
  6
CONTINUOUS
 62
3
 10
0.000000000000000
 20
0.000000000000000
  0
CIRCLE
  8
0
  6
CONTINUOUS
 62
3
 10
0.000000000000000
 20
0.000000000000000
 40
6.500000000000000
  0
CIRCLE
  8
0
  6
CONTINUOUS
 62
3
 10
0.000000000000000
 20
0.000000000000000
 40
5.633955001831055
  0
ENDBLK
  8
0
  0
BLOCK
  8
0
  2
SYM15
 70
64
 10
0.000000000000000
 20
0.000000000000000
  0
POINT
  8
0
  6
CONTINUOUS
 62
3
 10
0.000000000000000
 20
5.633955001831055
  0
POINT
  8
0
  6
CONTINUOUS
 62
3
 10
0.500000119209290
 20
6.500000000000000
  0
LINE
  8
0
  6
CONTINUOUS
 62
3
 10
-0.000004704988612
 20
-3.464098175748802
 11
-2.999997577100373
 21
-1.732046218032735
  0
LINE
  8
0
  6
CONTINUOUS
 62
3
 10
0.000006618601731
 20
3.464096896385627
 11
2.999997425948948
 21
1.732046782136365
  0
LINE
  8
0
  6
CONTINUOUS
 62
3
 10
2.999998112093635
 20
-1.732051392778772
 11
-0.000004464412200
 21
-3.464098365415111
  0
LINE
  8
0
  6
CONTINUOUS
 62
3
 10
0.000006701720849
 20
3.464096999935236
 11
-2.999997939551520
 21
1.732051821705568
  0
LINE
  8
0
  6
CONTINUOUS
 62
3
 10
2.999996662140697
 20
1.732046953225571
 11
2.999997615814979
 21
-1.732051023458999
  0
LINE
  8
0
  6
CONTINUOUS
 62
3
 10
-2.999996662140960
 20
-1.732045999551255
 11
-2.999997615815242
 21
1.732051977133316
  0
POINT
  8
0
  6
CONTINUOUS
 62
3
 10
0.000000000000000
 20
0.000000000000000
  0
CIRCLE
  8
0
  6
CONTINUOUS
 62
3
 10
0.000000000000000
 20
0.000000000000000
 40
6.500000000000000
  0
CIRCLE
  8
0
  6
CONTINUOUS
 62
3
 10
0.000000000000000
 20
0.000000000000000
 40
5.633955001831055
  0
ENDBLK
  8
0
  0
BLOCK
  8
0
  2
SYM16
 70
64
 10
0.000000000000000
 20
0.000000000000000
  0
POINT
  8
0
  6
CONTINUOUS
 62
3
 10
0.000000000000000
 20
5.633955001831055
  0
POINT
  8
0
  6
CONTINUOUS
 62
3
 10
0.500000119209290
 20
6.500000000000000
  0
LINE
  8
0
  6
CONTINUOUS
 62
3
 10
-0.000004704988612
 20
-3.464098175748802
 11
-2.999997577100373
 21
-1.732046218032735
  0
LINE
  8
0
  6
CONTINUOUS
 62
3
 10
0.000006618601731
 20
3.464096896385627
 11
2.999997425948948
 21
1.732046782136365
  0
LINE
  8
0
  6
CONTINUOUS
 62
3
 10
2.999998112093635
 20
-1.732051392778772
 11
-0.000004464412200
 21
-3.464098365415111
  0
LINE
  8
0
  6
CONTINUOUS
 62
3
 10
0.000006701720849
 20
3.464096999935236
 11
-2.999997939551520
 21
1.732051821705568
  0
LINE
  8
0
  6
CONTINUOUS
 62
3
 10
2.999996662140697
 20
1.732046953225571
 11
2.999997615814979
 21
-1.732051023458999
  0
LINE
  8
0
  6
CONTINUOUS
 62
3
 10
-2.999996662140960
 20
-1.732045999551255
 11
-2.999997615815242
 21
1.732051977133316
  0
POINT
  8
0
  6
CONTINUOUS
 62
3
 10
0.000000000000000
 20
0.000000000000000
  0
CIRCLE
  8
0
  6
CONTINUOUS
 62
3
 10
0.000000000000000
 20
0.000000000000000
 40
6.500000000000000
  0
CIRCLE
  8
0
  6
CONTINUOUS
 62
3
 10
0.000000000000000
 20
0.000000000000000
 40
5.633955001831055
  0
ENDBLK
  8
0
  0
BLOCK
  8
0
  2
SYM17
 70
64
 10
0.000000000000000
 20
0.000000000000000
  0
POINT
  8
0
  6
CONTINUOUS
 62
3
 10
0.000000000000000
 20
5.633955001831055
  0
POINT
  8
0
  6
CONTINUOUS
 62
3
 10
0.500000119209290
 20
6.500000000000000
  0
LINE
  8
0
  6
CONTINUOUS
 62
3
 10
-0.000004704988612
 20
-3.464098175748802
 11
-2.999997577100373
 21
-1.732046218032735
  0
LINE
  8
0
  6
CONTINUOUS
 62
3
 10
0.000006618601731
 20
3.464096896385627
 11
2.999997425948948
 21
1.732046782136365
  0
LINE
  8
0
  6
CONTINUOUS
 62
3
 10
2.999998112093635
 20
-1.732051392778772
 11
-0.000004464412200
 21
-3.464098365415111
  0
LINE
  8
0
  6
CONTINUOUS
 62
3
 10
0.000006701720849
 20
3.464096999935236
 11
-2.999997939551520
 21
1.732051821705568
  0
LINE
  8
0
  6
CONTINUOUS
 62
3
 10
2.999996662140697
 20
1.732046953225571
 11
2.999997615814979
 21
-1.732051023458999
  0
LINE
  8
0
  6
CONTINUOUS
 62
3
 10
-2.999996662140960
 20
-1.732045999551255
 11
-2.999997615815242
 21
1.732051977133316
  0
POINT
  8
0
  6
CONTINUOUS
 62
3
 10
0.000000000000000
 20
0.000000000000000
  0
CIRCLE
  8
0
  6
CONTINUOUS
 62
3
 10
0.000000000000000
 20
0.000000000000000
 40
6.500000000000000
  0
CIRCLE
  8
0
  6
CONTINUOUS
 62
3
 10
0.000000000000000
 20
0.000000000000000
 40
5.633955001831055
  0
ENDBLK
  8
0
  0
BLOCK
  8
0
  2
SYM18
 70
64
 10
0.000000000000000
 20
0.000000000000000
  0
POINT
  8
0
  6
CONTINUOUS
 62
3
 10
0.000000000000000
 20
5.633955001831055
  0
POINT
  8
0
  6
CONTINUOUS
 62
3
 10
0.500000119209290
 20
6.500000000000000
  0
LINE
  8
0
  6
CONTINUOUS
 62
3
 10
-0.000004704988612
 20
-3.464098175748802
 11
-2.999997577100373
 21
-1.732046218032735
  0
LINE
  8
0
  6
CONTINUOUS
 62
3
 10
0.000006618601731
 20
3.464096896385627
 11
2.999997425948948
 21
1.732046782136365
  0
LINE
  8
0
  6
CONTINUOUS
 62
3
 10
2.999998112093635
 20
-1.732051392778772
 11
-0.000004464412200
 21
-3.464098365415111
  0
LINE
  8
0
  6
CONTINUOUS
 62
3
 10
0.000006701720849
 20
3.464096999935236
 11
-2.999997939551520
 21
1.732051821705568
  0
LINE
  8
0
  6
CONTINUOUS
 62
3
 10
2.999996662140697
 20
1.732046953225571
 11
2.999997615814979
 21
-1.732051023458999
  0
LINE
  8
0
  6
CONTINUOUS
 62
3
 10
-2.999996662140960
 20
-1.732045999551255
 11
-2.999997615815242
 21
1.732051977133316
  0
POINT
  8
0
  6
CONTINUOUS
 62
3
 10
0.000000000000000
 20
0.000000000000000
  0
CIRCLE
  8
0
  6
CONTINUOUS
 62
3
 10
0.000000000000000
 20
0.000000000000000
 40
6.500000000000000
  0
CIRCLE
  8
0
  6
CONTINUOUS
 62
3
 10
0.000000000000000
 20
0.000000000000000
 40
5.633955001831055
  0
ENDBLK
  8
0
  0
BLOCK
  8
0
  2
SYM19
 70
64
 10
0.000000000000000
 20
0.000000000000000
  0
POINT
  8
0
  6
CONTINUOUS
 62
3
 10
0.000000000000000
 20
5.633955001831055
  0
POINT
  8
0
  6
CONTINUOUS
 62
3
 10
0.500000119209290
 20
6.500000000000000
  0
LINE
  8
0
  6
CONTINUOUS
 62
3
 10
-0.000004704988612
 20
-3.464098175748802
 11
-2.999997577100373
 21
-1.732046218032735
  0
LINE
  8
0
  6
CONTINUOUS
 62
3
 10
0.000006618601731
 20
3.464096896385627
 11
2.999997425948948
 21
1.732046782136365
  0
LINE
  8
0
  6
CONTINUOUS
 62
3
 10
2.999998112093635
 20
-1.732051392778772
 11
-0.000004464412200
 21
-3.464098365415111
  0
LINE
  8
0
  6
CONTINUOUS
 62
3
 10
0.000006701720849
 20
3.464096999935236
 11
-2.999997939551520
 21
1.732051821705568
  0
LINE
  8
0
  6
CONTINUOUS
 62
3
 10
2.999996662140697
 20
1.732046953225571
 11
2.999997615814979
 21
-1.732051023458999
  0
LINE
  8
0
  6
CONTINUOUS
 62
3
 10
-2.999996662140960
 20
-1.732045999551255
 11
-2.999997615815242
 21
1.732051977133316
  0
POINT
  8
0
  6
CONTINUOUS
 62
3
 10
0.000000000000000
 20
0.000000000000000
  0
CIRCLE
  8
0
  6
CONTINUOUS
 62
3
 10
0.000000000000000
 20
0.000000000000000
 40
6.500000000000000
  0
CIRCLE
  8
0
  6
CONTINUOUS
 62
3
 10
0.000000000000000
 20
0.000000000000000
 40
5.633955001831055
  0
ENDBLK
  8
0
  0
BLOCK
  8
0
  2
SYM20
 70
64
 10
0.000000000000000
 20
0.000000000000000
  0
POINT
  8
0
  6
CONTINUOUS
 62
3
 10
0.000000000000000
 20
5.633955001831055
  0
POINT
  8
0
  6
CONTINUOUS
 62
3
 10
0.500000119209290
 20
6.500000000000000
  0
LINE
  8
0
  6
CONTINUOUS
 62
3
 10
-0.000004704988612
 20
-3.464098175748802
 11
-2.999997577100373
 21
-1.732046218032735
  0
LINE
  8
0
  6
CONTINUOUS
 62
3
 10
0.000006618601731
 20
3.464096896385627
 11
2.999997425948948
 21
1.732046782136365
  0
LINE
  8
0
  6
CONTINUOUS
 62
3
 10
2.999998112093635
 20
-1.732051392778772
 11
-0.000004464412200
 21
-3.464098365415111
  0
LINE
  8
0
  6
CONTINUOUS
 62
3
 10
0.000006701720849
 20
3.464096999935236
 11
-2.999997939551520
 21
1.732051821705568
  0
LINE
  8
0
  6
CONTINUOUS
 62
3
 10
2.999996662140697
 20
1.732046953225571
 11
2.999997615814979
 21
-1.732051023458999
  0
LINE
  8
0
  6
CONTINUOUS
 62
3
 10
-2.999996662140960
 20
-1.732045999551255
 11
-2.999997615815242
 21
1.732051977133316
  0
POINT
  8
0
  6
CONTINUOUS
 62
3
 10
0.000000000000000
 20
0.000000000000000
  0
CIRCLE
  8
0
  6
CONTINUOUS
 62
3
 10
0.000000000000000
 20
0.000000000000000
 40
6.500000000000000
  0
CIRCLE
  8
0
  6
CONTINUOUS
 62
3
 10
0.000000000000000
 20
0.000000000000000
 40
5.633955001831055
  0
ENDBLK
  8
0
  0
BLOCK
  8
0
  2
SYM21
 70
64
 10
0.000000000000000
 20
0.000000000000000
  0
POINT
  8
0
  6
CONTINUOUS
 62
3
 10
0.000000000000000
 20
5.633955001831055
  0
POINT
  8
0
  6
CONTINUOUS
 62
3
 10
0.500000119209290
 20
6.500000000000000
  0
LINE
  8
0
  6
CONTINUOUS
 62
3
 10
-0.000004704988612
 20
-3.464098175748802
 11
-2.999997577100373
 21
-1.732046218032735
  0
LINE
  8
0
  6
CONTINUOUS
 62
3
 10
0.000006618601731
 20
3.464096896385627
 11
2.999997425948948
 21
1.732046782136365
  0
LINE
  8
0
  6
CONTINUOUS
 62
3
 10
2.999998112093635
 20
-1.732051392778772
 11
-0.000004464412200
 21
-3.464098365415111
  0
LINE
  8
0
  6
CONTINUOUS
 62
3
 10
0.000006701720849
 20
3.464096999935236
 11
-2.999997939551520
 21
1.732051821705568
  0
LINE
  8
0
  6
CONTINUOUS
 62
3
 10
2.999996662140697
 20
1.732046953225571
 11
2.999997615814979
 21
-1.732051023458999
  0
LINE
  8
0
  6
CONTINUOUS
 62
3
 10
-2.999996662140960
 20
-1.732045999551255
 11
-2.999997615815242
 21
1.732051977133316
  0
POINT
  8
0
  6
CONTINUOUS
 62
3
 10
0.000000000000000
 20
0.000000000000000
  0
CIRCLE
  8
0
  6
CONTINUOUS
 62
3
 10
0.000000000000000
 20
0.000000000000000
 40
6.500000000000000
  0
CIRCLE
  8
0
  6
CONTINUOUS
 62
3
 10
0.000000000000000
 20
0.000000000000000
 40
5.633955001831055
  0
ENDBLK
  8
0
  0
BLOCK
  8
0
  2
SYM22
 70
64
 10
0.000000000000000
 20
0.000000000000000
  0
POINT
  8
0
  6
CONTINUOUS
 62
3
 10
0.000000000000000
 20
5.633955001831055
  0
POINT
  8
0
  6
CONTINUOUS
 62
3
 10
0.500000119209290
 20
6.500000000000000
  0
LINE
  8
0
  6
CONTINUOUS
 62
3
 10
-0.000004704988612
 20
-3.464098175748802
 11
-2.999997577100373
 21
-1.732046218032735
  0
LINE
  8
0
  6
CONTINUOUS
 62
3
 10
0.000006618601731
 20
3.464096896385627
 11
2.999997425948948
 21
1.732046782136365
  0
LINE
  8
0
  6
CONTINUOUS
 62
3
 10
2.999998112093635
 20
-1.732051392778772
 11
-0.000004464412200
 21
-3.464098365415111
  0
LINE
  8
0
  6
CONTINUOUS
 62
3
 10
0.000006701720849
 20
3.464096999935236
 11
-2.999997939551520
 21
1.732051821705568
  0
LINE
  8
0
  6
CONTINUOUS
 62
3
 10
2.999996662140697
 20
1.732046953225571
 11
2.999997615814979
 21
-1.732051023458999
  0
LINE
  8
0
  6
CONTINUOUS
 62
3
 10
-2.999996662140960
 20
-1.732045999551255
 11
-2.999997615815242
 21
1.732051977133316
  0
POINT
  8
0
  6
CONTINUOUS
 62
3
 10
0.000000000000000
 20
0.000000000000000
  0
CIRCLE
  8
0
  6
CONTINUOUS
 62
3
 10
0.000000000000000
 20
0.000000000000000
 40
6.500000000000000
  0
CIRCLE
  8
0
  6
CONTINUOUS
 62
3
 10
0.000000000000000
 20
0.000000000000000
 40
5.633955001831055
  0
ENDBLK
  8
0
  0
BLOCK
  8
0
  2
SYM23
 70
64
 10
0.000000000000000
 20
0.000000000000000
  0
POINT
  8
0
  6
CONTINUOUS
 62
3
 10
0.000000000000000
 20
5.633955001831055
  0
POINT
  8
0
  6
CONTINUOUS
 62
3
 10
0.500000119209290
 20
6.500000000000000
  0
LINE
  8
0
  6
CONTINUOUS
 62
3
 10
-0.000004704988612
 20
-3.464098175748802
 11
-2.999997577100373
 21
-1.732046218032735
  0
LINE
  8
0
  6
CONTINUOUS
 62
3
 10
0.000006618601731
 20
3.464096896385627
 11
2.999997425948948
 21
1.732046782136365
  0
LINE
  8
0
  6
CONTINUOUS
 62
3
 10
2.999998112093635
 20
-1.732051392778772
 11
-0.000004464412200
 21
-3.464098365415111
  0
LINE
  8
0
  6
CONTINUOUS
 62
3
 10
0.000006701720849
 20
3.464096999935236
 11
-2.999997939551520
 21
1.732051821705568
  0
LINE
  8
0
  6
CONTINUOUS
 62
3
 10
2.999996662140697
 20
1.732046953225571
 11
2.999997615814979
 21
-1.732051023458999
  0
LINE
  8
0
  6
CONTINUOUS
 62
3
 10
-2.999996662140960
 20
-1.732045999551255
 11
-2.999997615815242
 21
1.732051977133316
  0
POINT
  8
0
  6
CONTINUOUS
 62
3
 10
0.000000000000000
 20
0.000000000000000
  0
CIRCLE
  8
0
  6
CONTINUOUS
 62
3
 10
0.000000000000000
 20
0.000000000000000
 40
6.500000000000000
  0
CIRCLE
  8
0
  6
CONTINUOUS
 62
3
 10
0.000000000000000
 20
0.000000000000000
 40
5.633955001831055
  0
ENDBLK
  8
0
  0
BLOCK
  8
0
  2
SYM24
 70
64
 10
0.000000000000000
 20
0.000000000000000
  0
POINT
  8
0
  6
CONTINUOUS
 62
3
 10
0.000000000000000
 20
0.000000000000000
  0
LINE
  8
0
  6
CONTINUOUS
 62
3
 10
0.010171198458579
 20
-5.767622839547471
 11
-4.979645433681753
 21
-2.874994469174567
  0
LINE
  8
0
  6
CONTINUOUS
 62
3
 10
-4.979648434603448
 20
-2.874994693650046
 11
-4.989821279270270
 21
2.892629961559101
  0
LINE
  8
0
  6
CONTINUOUS
 62
3
 10
-4.989816965891634
 20
2.892629271321994
 11
-0.010171343047148
 21
5.767622431692701
  0
LINE
  8
0
  6
CONTINUOUS
 62
3
 10
-0.010171198458579
 20
5.767622839547471
 11
4.979645433681753
 21
2.874994469174567
  0
LINE
  8
0
  6
CONTINUOUS
 62
3
 10
4.979648434603448
 20
2.874994693650046
 11
4.989821279270270
 21
-2.892629961559101
  0
LINE
  8
0
  6
CONTINUOUS
 62
3
 10
4.989816965891634
 20
-2.892629271321994
 11
0.010171343047148
 21
-5.767622431692701
  0
CIRCLE
  8
0
  6
CONTINUOUS
 62
3
 10
0.000000000000000
 20
0.000000000000000
 40
5.000000000000000
  0
ENDBLK
  8
0
  0
BLOCK
  8
0
  2
SYM25
 70
64
 10
0.000000000000000
 20
0.000000000000000
  0
ARC
  8
0
  6
CONTINUOUS
 62
3
 10
-0.979025304317474
 20
-2.200000762939453
 40
1.299999237060547
 50
196.601531107481040
 51
270.000000000000000
  0
ARC
  8
0
  6
CONTINUOUS
 62
3
 10
-0.979025304317474
 20
2.200000762939453
 40
1.299999237060547
 50
90.000000000000000
 51
163.398451589674950
  0
LINE
  8
0
  6
CONTINUOUS
 62
3
 10
-0.000000000000000
 20
-3.500000000000000
 11
-0.979025304317474
 21
-3.500000000000000
  0
LINE
  8
0
  6
CONTINUOUS
 62
3
 10
0.000000000000000
 20
3.500000000000000
 11
-0.979025304317474
 21
3.500000000000000
  0
LINE
  8
0
  6
CONTINUOUS
 62
3
 10
0.000000000000000
 20
-3.500000000000000
 11
-0.000000000000000
 21
3.500000000000000
  0
LINE
  8
0
  6
CONTINUOUS
 62
3
 10
0.000000000000000
 20
-3.500000000000000
 11
-0.000000000000000
 21
3.500000000000000
  0
POINT
  8
0
  6
CONTINUOUS
 62
3
 10
0.000000000000000
 20
0.000000000000000
  0
ARC
  8
0
  6
CONTINUOUS
 62
3
 10
6.399999618530273
 20
0.000000000000000
 40
9.000000000000000
 50
163.398451589674950
 51
196.601531107481040
  0
ENDBLK
  8
0
  0
ENDSEC
  0
SECTION
  2
ENTITIES
  0
LINE
  8
0
  6
CONTINUOUS
 62
3
 10
-385.547691982348060
 20
-220.888730400073740
 11
-385.060888590642430
 21
-221.375533791779360
  0
LINE
  8
0
  6
CONTINUOUS
 62
3
 10
-392.194495455761740
 20
-227.535533873487480
 11
-391.707692064056120
 21
-228.022337265193070
  0
LINE
  8
0
  6
CONTINUOUS
 62
3
 10
-385.234553373379240
 20
-221.141277350924130
 11
-391.911652675852170
 21
-227.818376653397050
  0
LINE
  8
0
  6
CONTINUOUS
 62
3
 10
-385.547691982348060
 20
-220.888730400073740
 11
-392.194495455761740
 21
-227.535533873487480
  0
POINT
  8
0
  6
CONTINUOUS
 62
3
 10
-388.871093719054900
 20
-224.212132136780610
  0
ARC
  8
0
  6
CONTINUOUS
 62
3
 10
-391.133835283981910
 20
-221.949390571853570
 40
6.099999427795406
 50
264.601927898108500
 51
5.398089404735109
  0
LINE
  8
0
  6
CONTINUOUS
 62
3
 10
-495.573506865234890
 20
-220.888730400073740
 11
-496.060310256940510
 21
-221.375533791779360
  0
LINE
  8
0
  6
CONTINUOUS
 62
3
 10
-488.926703391821210
 20
-227.535533873487480
 11
-489.413506783526830
 21
-228.022337265193070
  0
LINE
  8
0
  6
CONTINUOUS
 62
3
 10
-495.886645474203700
 20
-221.141277350924130
 11
-489.209546171730780
 21
-227.818376653397050
  0
LINE
  8
0
  6
CONTINUOUS
 62
3
 10
-495.573506865234890
 20
-220.888730400073740
 11
-488.926703391821210
 21
-227.535533873487480
  0
POINT
  8
0
  6
CONTINUOUS
 62
3
 10
-492.250105128528050
 20
-224.212132136780610
  0
ARC
  8
0
  6
CONTINUOUS
 62
3
 10
-489.987363563601040
 20
-221.949390571853570
 40
6.099999427795398
 50
174.601910595264880
 51
275.398072101891500
  0
LINE
  8
0
  6
CONTINUOUS
 62
3
 10
-495.573506865234890
 20
-124.156522464014080
 11
-496.060310256940510
 21
-123.669719072308460
  0
LINE
  8
0
  6
CONTINUOUS
 62
3
 10
-488.926703391821210
 20
-117.509718990600370
 11
-489.413506783526830
 21
-117.022915598894750
  0
LINE
  8
0
  6
CONTINUOUS
 62
3
 10
-495.886645474203700
 20
-123.903975513163710
 11
-489.209546171730780
 21
-117.226876210690800
  0
LINE
  8
0
  6
CONTINUOUS
 62
3
 10
-495.573506865234890
 20
-124.156522464014080
 11
-488.926703391821210
 21
-117.509718990600370
  0
POINT
  8
0
  6
CONTINUOUS
 62
3
 10
-492.250105128528050
 20
-120.833120727307230
  0
ARC
  8
0
  6
CONTINUOUS
 62
3
 10
-489.987363563601040
 20
-123.095862292234270
 40
6.099999427795419
 50
84.601927898108485
 51
185.398089404735120
  0
LINE
  8
0
  6
CONTINUOUS
 62
3
 10
-385.547691982348060
 20
-124.156522464014080
 11
-385.060888590642430
 21
-123.669719072308460
  0
LINE
  8
0
  6
CONTINUOUS
 62
3
 10
-392.194495455761740
 20
-117.509718990600370
 11
-391.707692064056120
 21
-117.022915598894750
  0
LINE
  8
0
  6
CONTINUOUS
 62
3
 10
-385.234553373379240
 20
-123.903975513163710
 11
-391.911652675852170
 21
-117.226876210690800
  0
LINE
  8
0
  6
CONTINUOUS
 62
3
 10
-385.547691982348060
 20
-124.156522464014080
 11
-392.194495455761740
 21
-117.509718990600370
  0
POINT
  8
0
  6
CONTINUOUS
 62
3
 10
-388.871093719054900
 20
-120.833120727307230
  0
ARC
  8
0
  6
CONTINUOUS
 62
3
 10
-391.133835283981910
 20
-123.095862292234270
 40
6.099999427795398
 50
354.601910595264880
 51
95.398072101891515
  0
CIRCLE
  8
0
  6
DASHED
 62
4
 10
-150.031848367696060
 20
99.477373567956420
 40
6.000000000000000
  0
ARC
  8
0
  6
DASHED
 62
4
 10
-200.031848367696060
 20
99.477373567956420
 40
7.000000000000000
 50
180.000000000000000
 51
0.000000000000000
  0
ARC
  8
0
  6
DASHED
 62
4
 10
-150.031848367696060
 20
99.477373567956420
 40
7.000000000000000
 50
180.000000000000000
 51
0.000000000000000
  0
LINE
  8
0
  6
DASHDOT
 62
4
 10
-161.315377783422720
 20
99.477373567956420
 11
-139.548400374894410
 21
99.477373567956420
  0
LINE
  8
0
  6
DASHDOT
 62
4
 10
-209.117537474279630
 20
99.477373567956420
 11
-188.630949240570320
 21
99.477373567956420
  0
LINE
  8
0
  6
DASHED
 62
4
 10
-207.031848367696060
 20
99.477373567956420
 11
-207.031848367696060
 21
113.977373567956420
  0
LINE
  8
0
  6
DASHED
 62
4
 10
-193.031848367696060
 20
99.477373567956420
 11
-193.031848367696060
 21
113.977373567956420
  0
LINE
  8
0
  6
DASHED
 62
4
 10
-157.031848367696060
 20
99.477373567956420
 11
-157.031848367696060
 21
113.977373567956420
  0
LINE
  8
0
  6
DASHED
 62
4
 10
-143.031848367696060
 20
99.477373567956420
 11
-143.031848367696060
 21
113.977373567956420
  0
LINE
  8
0
  6
DASHDOT
 62
4
 10
-150.031848367696060
 20
90.533216310280295
 11
-150.031848367696060
 21
112.512718442815640
  0
LINE
  8
0
  6
DASHDOT
 62
4
 10
-200.031848367696060
 20
90.533216310280295
 11
-200.031848367696060
 21
112.081705290812350
  0
LINE
  8
0
  6
CONTINUOUS
 62
3
 10
154.468151632322500
 20
-317.625795652374110
 11
51.968151632322503
 21
-314.046416779470750
  0
LINE
  8
0
  6
CONTINUOUS
 62
3
 10
28.468151632322503
 20
-315.888006178454820
 11
51.968151632322957
 21
-314.046416779471660
  0
LINE
  8
0
  6
DASHDOT
 62
4
 10
6.468151632322503
 20
-311.284416555030480
 11
6.468151632322503
 21
-347.809658826453410
  0
LINE
  8
0
  6
CONTINUOUS
 62
3
 10
48.968151632322503
 20
-171.022626432044490
 11
48.968151632322503
 21
-66.022626432044490
  0
LINE
  8
0
  6
CONTINUOUS
 62
3
 10
-11.531848367677526
 20
-322.721427912655600
 11
-11.531848367677526
 21
-341.022626432044490
  0
LINE
  8
0
  6
CONTINUOUS
 62
3
 10
48.968151632322503
 20
-171.022626432044490
 11
48.968151632322503
 21
-288.809698181918980
  0
LINE
  8
0
  6
CONTINUOUS
 62
3
 10
120.968151632322500
 20
-67.279391106876574
 11
48.968151632322503
 21
-66.022626432044490
  0
LINE
  8
0
  6
CONTINUOUS
 62
3
 10
51.968151632322503
 20
-231.057666897614580
 11
51.968151632322503
 21
-283.613646668842190
  0
LINE
  8
0
  6
CONTINUOUS
 62
3
 10
-7.844352294592795
 20
-318.733653935151780
 11
28.468151632322503
 21
-315.888006178454820
  0
LINE
  8
0
  6
CONTINUOUS
 62
3
 10
48.968151632322503
 20
-229.057666897614580
 11
49.968151632322503
 21
-229.057666897614580
  0
LINE
  8
0
  6
CONTINUOUS
 62
3
 10
51.643556782793809
 20
-284.705900110939180
 11
33.081137497452715
 21
-313.178754191553710
  0
LINE
  8
0
  6
CONTINUOUS
 62
3
 10
25.468151632322503
 20
-297.762578476811540
 11
25.468151632322503
 21
-302.157854261385180
  0
LINE
  8
0
  6
CONTINUOUS
 62
3
 10
30.206471851108205
 20
-307.151001935158090
 11
32.729831413536800
 21
-307.283245606157830
  0
LINE
  8
0
  6
CONTINUOUS
 62
3
 10
20.968151632318865
 20
-89.022626432045399
 11
20.968151632322503
 21
-31.022626432045399
  0
LINE
  8
0
  6
CONTINUOUS
 62
3
 10
20.968151632322503
 20
-31.022626432045399
 11
25.468151632322503
 21
-31.022626432045399
  0
LINE
  8
0
  6
CONTINUOUS
 62
3
 10
25.468151632322503
 20
-31.022626432045399
 11
25.468151632322503
 21
-89.022626432045399
  0
LINE
  8
0
  6
DASHDOT
 62
4
 10
15.237904231508679
 20
-51.022626432045399
 11
33.337170246800184
 21
-51.022626432045399
  0
LINE
  8
0
  6
CONTINUOUS
 62
3
 10
20.968151632318865
 20
-89.022626432045399
 11
25.468151632318865
 21
-89.022626432045399
  0
LINE
  8
0
  6
CONTINUOUS
 62
3
 10
17.968151632323412
 20
-211.022626432044490
 11
17.968151632323412
 21
-129.420555565473480
  0
LINE
  8
0
  6
CONTINUOUS
 62
3
 10
25.468151632322503
 20
-88.022626432044490
 11
25.468151632322503
 21
-68.022626432044490
  0
LINE
  8
0
  6
CONTINUOUS
 62
3
 10
28.468151632322503
 20
-91.022626432044490
 11
32.468151632322503
 21
-91.022626432044490
  0
LINE
  8
0
  6
CONTINUOUS
 62
3
 10
29.468151632322503
 20
-122.175114136714910
 11
29.468151632322503
 21
-93.679480681536006
  0
LINE
  8
0
  6
CONTINUOUS
 62
3
 10
32.729831413536800
 20
-126.748999576223460
 11
19.863479719837329
 21
-127.423296495964670
  0
LINE
  8
0
  6
CONTINUOUS
 62
3
 10
32.729831413536800
 20
-295.296253287864600
 11
19.863479719840967
 21
-294.621956368123390
  0
LINE
  8
0
  6
CONTINUOUS
 62
3
 10
48.468151632322503
 20
-211.022626432044490
 11
48.468151632322503
 21
-289.576647081275950
  0
LINE
  8
0
  6
CONTINUOUS
 62
3
 10
32.468151632322503
 20
-222.022626432042670
 11
32.468151632322503
 21
-215.022626432042670
  0
LINE
  8
0
  6
CONTINUOUS
 62
3
 10
32.468151632322503
 20
-208.022626432042670
 11
32.468151632322503
 21
-215.022626432042670
  0
LINE
  8
0
  6
CONTINUOUS
 62
3
 10
48.468151632322503
 20
-211.022626432044490
 11
48.468151632322503
 21
-66.022626432044490
  0
LINE
  8
0
  6
CONTINUOUS
 62
3
 10
27.468151632322503
 20
-66.022626432044490
 11
48.968151632322503
 21
-66.022626432044490
  0
ARC
  8
0
  6
CONTINUOUS
 62
3
 10
-7.531848367677526
 20
-322.721427912655600
 40
3.999999999999263
 50
94.480855207350956
 51
180.000000000000000
  0
ARC
  8
0
  6
CONTINUOUS
 62
3
 10
49.968151632322503
 20
-231.057666897614580
 40
2.000000000000000
 50
0.000000000000000
 51
90.000000000000000
  0
ARC
  8
0
  6
CONTINUOUS
 62
3
 10
28.054922046037888
 20
-309.901993865262740
 40
6.000000000000744
 50
274.480855207353900
 51
326.898306520919500
  0
ARC
  8
0
  6
CONTINUOUS
 62
3
 10
49.968151632322503
 20
-283.613646668842190
 40
1.999999999999625
 50
326.898306520914790
 51
0.000000000000000
  0
ARC
  8
0
  6
CONTINUOUS
 62
3
 10
22.468151632322503
 20
-297.762578476811540
 40
3.000000000000000
 50
0.000000000000000
 51
86.999999999994799
  0
ARC
  8
0
  6
CONTINUOUS
 62
3
 10
32.468151632322503
 20
-312.276393279930740
 40
5.000000000000159
 50
45.287618500673872
 51
87.000000000004846
  0
ARC
  8
0
  6
CONTINUOUS
 62
3
 10
30.468151632322503
 20
-302.157854261385180
 40
5.000000000000000
 50
180.000000000000000
 51
267.000000000004890
  0
ARC
  8
0
  6
CONTINUOUS
 62
3
 10
27.468151632322503
 20
-68.022626432044490
 40
2.000000000000000
 50
90.000000000000000
 51
180.000000000000000
  0
ARC
  8
0
  6
CONTINUOUS
 62
3
 10
32.468151632322503
 20
-96.022626432044490
 40
5.000000000000000
 50
0.000000000000000
 51
90.000000000000000
  0
ARC
  8
0
  6
CONTINUOUS
 62
3
 10
26.468151632322503
 20
-93.679480681536006
 40
3.000000000000000
 50
0.000000000000000
 51
70.528779365506566
  0
ARC
  8
0
  6
CONTINUOUS
 62
3
 10
28.468151632322503
 20
-88.022626432044490
 40
3.000000000000000
 50
180.000000000000000
 51
270.000000000000000
  0
ARC
  8
0
  6
CONTINUOUS
 62
3
 10
19.968151632323412
 20
-129.420555565473480
 40
1.999999999999663
 50
93.000000000006111
 51
180.000000000000000
  0
ARC
  8
0
  6
CONTINUOUS
 62
3
 10
24.468151632322503
 20
-122.175114136714910
 40
5.000000000000018
 50
272.999999999995110
 51
0.000000000000000
  0
ARC
  8
0
  6
CONTINUOUS
 62
3
 10
32.468151632322503
 20
-121.755851902450550
 40
5.000000000000018
 50
272.999999999995110
 51
0.000000000000000
  0
ARC
  8
0
  6
CONTINUOUS
 62
3
 10
15.968151632327050
 20
-135.022626432044490
 40
2.000000000000000
 50
270.000000000000000
 51
0.000000000000000
  0
ARC
  8
0
  6
CONTINUOUS
 62
3
 10
19.968151632327050
 20
-292.624697298614590
 40
2.000000000000000
 50
180.000000000000000
 51
266.999999999993860
  0
ARC
  8
0
  6
CONTINUOUS
 62
3
 10
15.968151632327050
 20
-287.022626432043580
 40
2.000000000000000
 50
0.000000000000000
 51
90.000000000000000
  0
ARC
  8
0
  6
CONTINUOUS
 62
3
 10
32.468151632322503
 20
-300.289400961637510
 40
5.000000000000000
 50
0.000000000000000
 51
87.000000000004846
  0
ARC
  8
0
  6
CONTINUOUS
 62
3
 10
34.468151632322503
 20
-227.938706215141790
 40
3.000000000000000
 50
0.000000000000000
 51
80.405931773138747
  0
ARC
  8
0
  6
CONTINUOUS
 62
3
 10
34.468151632322503
 20
-202.106546648942640
 40
3.000000000000653
 50
279.594068226858330
 51
0.000000000000000
  0
ARC
  8
0
  6
CONTINUOUS
 62
3
 10
35.468151632322503
 20
-222.022626432042670
 40
3.000000000000000
 50
180.000000000000000
 51
260.405931773138780
  0
ARC
  8
0
  6
CONTINUOUS
 62
3
 10
35.468151632322503
 20
-208.022626432042670
 40
2.999999999999756
 50
99.594068226861253
 51
180.000000000000000
  0
ARC
  8
0
  6
CONTINUOUS
 62
3
 10
39.468151632322503
 20
-68.022626432044490
 40
2.000000000000000
 50
90.000000000000000
 51
180.000000000000000
  0
LINE
  8
0
  6
CONTINUOUS
 62
4
 10
-204.531848367695490
 20
-115.522626432043800
 11
-55.531848367695602
 21
-115.522626432043800
  0
LINE
  8
0
  6
CONTINUOUS
 62
4
 10
-204.531848367695490
 20
-115.022626432043800
 11
-55.531848367695602
 21
-115.022626432043800
  0
LINE
  8
0
  6
CONTINUOUS
 62
4
 10
-204.531848367695490
 20
-116.522626432043800
 11
-55.531848367695602
 21
-116.522626432043800
  0
LINE
  8
0
  6
CONTINUOUS
 62
4
 10
-204.531848367695490
 20
-117.522626432043800
 11
-55.531848367695602
 21
-117.522626432043800
  0
LINE
  8
0
  6
CONTINUOUS
 62
4
 10
-204.531848367695490
 20
-122.207092245268310
 11
-55.531848367695602
 21
-122.207092245268310
  0
LINE
  8
0
  6
CONTINUOUS
 62
4
 10
-204.531848367695490
 20
-127.156839713574070
 11
-55.531848367695602
 21
-127.156839713574070
  0
LINE
  8
0
  6
CONTINUOUS
 62
4
 10
-213.434840926075590
 20
-135.203441376307860
 11
-55.531848367695602
 21
-135.203441376307860
  0
LINE
  8
0
  6
CONTINUOUS
 62
3
 10
-55.531848367695602
 20
-114.022626432043800
 11
-204.531848367695490
 21
-114.022626432043800
  0
LINE
  8
0
  6
CONTINUOUS
 62
4
 10
-204.531848367695490
 20
-229.522626432043810
 11
-55.531848367695602
 21
-229.522626432043810
  0
LINE
  8
0
  6
CONTINUOUS
 62
4
 10
-204.531848367695490
 20
-230.022626432043810
 11
-55.531848367695602
 21
-230.022626432043810
  0
LINE
  8
0
  6
CONTINUOUS
 62
4
 10
-204.531848367695490
 20
-228.522626432043810
 11
-55.531848367695602
 21
-228.522626432043810
  0
LINE
  8
0
  6
CONTINUOUS
 62
4
 10
-204.531848367695490
 20
-227.522626432043810
 11
-55.531848367695602
 21
-227.522626432043810
  0
LINE
  8
0
  6
CONTINUOUS
 62
4
 10
-204.531848367695490
 20
-222.838160618819300
 11
-55.531848367695602
 21
-222.838160618819300
  0
LINE
  8
0
  6
CONTINUOUS
 62
4
 10
-204.531848367695490
 20
-217.888413150513540
 11
-55.531848367695602
 21
-217.888413150513540
  0
LINE
  8
0
  6
CONTINUOUS
 62
4
 10
-213.434840926075590
 20
-209.841811487779750
 11
-55.531848367695602
 21
-209.841811487779750
  0
LINE
  8
0
  6
CONTINUOUS
 62
4
 10
-214.445512156692300
 20
-208.237163572217700
 11
-55.531848367695602
 21
-208.237163572217700
  0
LINE
  8
0
  6
CONTINUOUS
 62
3
 10
-55.531848367695602
 20
-231.022626432043810
 11
-204.531848367695490
 21
-231.022626432043810
  0
INSERT
  8
0
  2
SYM1
 10
20.968151632318865
 20
-79.022626432045399
  0
INSERT
  8
0
  2
SYM2
 10
37.468151632322503
 20
-80.022627244937212
  0
INSERT
  8
0
  2
SYM3
 10
37.468151632322559
 20
-149.022627244937100
  0
INSERT
  8
0
  2
SYM4
 10
5.968151632304313
 20
-156.221850890087100
  0
INSERT
  8
0
  2
SYM5
 10
37.468151632322503
 20
-239.022626432043580
  0
INSERT
  8
0
  2
SYM4
 10
5.968151632304313
 20
-265.823401974001850
  0
LINE
  8
0
  6
CONTINUOUS
 62
3
 10
-55.531848367696170
 20
236.977373567955960
 11
-55.531848367696170
 21
177.477373567956190
  0
LINE
  8
0
  6
CONTINUOUS
 62
3
 10
-55.531848367696170
 20
117.977373567956190
 11
-55.531848367696170
 21
177.477373567956190
  0
LINE
  8
0
  6
CONTINUOUS
 62
3
 10
-204.531848367696060
 20
236.977373567955960
 11
-55.531848367696170
 21
236.977373567955960
  0
LINE
  8
0
  6
CONTINUOUS
 62
3
 10
-137.531848367696060
 20
117.977373567956190
 11
-55.531848367696170
 21
117.977373567956190
  0
LINE
  8
0
  6
CONTINUOUS
 62
4
 10
-204.531848367696060
 20
120.477373567956190
 11
-55.531848367696170
 21
120.477373567956190
  0
LINE
  8
0
  6
CONTINUOUS
 62
4
 10
-204.531848367696060
 20
121.477373567956190
 11
-55.531848367696170
 21
121.477373567956190
  0
LINE
  8
0
  6
CONTINUOUS
 62
4
 10
-204.531848367696060
 20
122.477373567956190
 11
-55.531848367696170
 21
122.477373567956190
  0
LINE
  8
0
  6
CONTINUOUS
 62
4
 10
-204.531848367696060
 20
127.161839381180470
 11
-55.531848367696170
 21
127.161839381180470
  0
LINE
  8
0
  6
CONTINUOUS
 62
4
 10
-204.531848367696060
 20
132.111586849486230
 11
-55.531848367696170
 21
132.111586849486230
  0
LINE
  8
0
  6
CONTINUOUS
 62
4
 10
-204.531848367696060
 20
140.158188512220250
 11
-55.531848367696170
 21
140.158188512220250
  0
LINE
  8
0
  6
CONTINUOUS
 62
4
 10
-204.531848367696060
 20
141.762836427782300
 11
-55.531848367696170
 21
141.762836427782300
  0
LINE
  8
0
  6
CONTINUOUS
 62
4
 10
-204.531848367696060
 20
145.726581851581840
 11
-55.531848367696170
 21
145.726581851581840
  0
LINE
  8
0
  6
CONTINUOUS
 62
4
 10
-204.531848367696060
 20
147.194939241386460
 11
-55.531848367696170
 21
147.194939241386460
  0
LINE
  8
0
  6
CONTINUOUS
 62
4
 10
-204.531848367696060
 20
151.285439775476330
 11
-55.531848367696170
 21
151.285439775476330
  0
LINE
  8
0
  6
CONTINUOUS
 62
4
 10
-204.531848367696060
 20
152.647320110825600
 11
-55.531848367696170
 21
152.647320110825600
  0
LINE
  8
0
  6
CONTINUOUS
 62
4
 10
-204.531848367696060
 20
156.837873842367800
 11
-55.531848367696170
 21
156.837873842367800
  0
LINE
  8
0
  6
CONTINUOUS
 62
4
 10
-204.531848367696060
 20
158.104111758455020
 11
-55.531848367696170
 21
158.104111758455020
  0
LINE
  8
0
  6
CONTINUOUS
 62
4
 10
-204.531848367696060
 20
162.477373567956190
 11
-55.531848367696170
 21
162.477373567956190
  0
LINE
  8
0
  6
CONTINUOUS
 62
4
 10
-204.531848367696060
 20
214.796558623692140
 11
-55.531848367696170
 21
214.796558623692140
  0
LINE
  8
0
  6
CONTINUOUS
 62
4
 10
-204.531848367696060
 20
213.191910708130080
 11
-55.531848367696170
 21
213.191910708130080
  0
LINE
  8
0
  6
CONTINUOUS
 62
4
 10
-204.531848367696060
 20
209.228165284330540
 11
-55.531848367696170
 21
209.228165284330540
  0
LINE
  8
0
  6
CONTINUOUS
 62
4
 10
-204.531848367696060
 20
207.759807894525920
 11
-55.531848367696170
 21
207.759807894525920
  0
LINE
  8
0
  6
CONTINUOUS
 62
4
 10
-204.531848367696060
 20
203.669307360436050
 11
-55.531848367696170
 21
203.669307360436050
  0
LINE
  8
0
  6
CONTINUOUS
 62
4
 10
-204.531848367696060
 20
202.307427025086780
 11
-55.531848367696170
 21
202.307427025086780
  0
LINE
  8
0
  6
CONTINUOUS
 62
4
 10
-204.531848367696060
 20
198.116873293544590
 11
-55.531848367696170
 21
198.116873293544590
  0
LINE
  8
0
  6
CONTINUOUS
 62
4
 10
-204.531848367696060
 20
196.850635377457370
 11
-55.531848367696170
 21
196.850635377457370
  0
LINE
  8
0
  6
CONTINUOUS
 62
4
 10
-204.531848367696060
 20
192.477373567956190
 11
-55.531848367696170
 21
192.477373567956190
  0
LINE
  8
0
  6
CONTINUOUS
 62
4
 10
-204.531848367696060
 20
222.843160286426150
 11
-55.531848367696170
 21
222.843160286426150
  0
LINE
  8
0
  6
CONTINUOUS
 62
4
 10
-204.531848367696060
 20
227.792907754731910
 11
-55.531848367696170
 21
227.792907754731910
  0
LINE
  8
0
  6
CONTINUOUS
 62
4
 10
-204.531848367696060
 20
232.477373567956190
 11
-55.531848367696170
 21
232.477373567956190
  0
LINE
  8
0
  6
CONTINUOUS
 62
4
 10
-204.531848367696060
 20
233.477373567956190
 11
-55.531848367696170
 21
233.477373567956190
  0
LINE
  8
0
  6
CONTINUOUS
 62
4
 10
-204.531848367696060
 20
234.477373567956190
 11
-55.531848367696170
 21
234.477373567956190
  0
LINE
  8
0
  6
CONTINUOUS
 62
3
 10
-137.531848367696060
 20
236.977373567956190
 11
-55.531848367696170
 21
236.977373567956190
  0
LINE
  8
0
  6
CONTINUOUS
 62
3
 10
-80.031848367696170
 20
236.977373567955960
 11
-204.031848367696170
 21
236.977373567955960
  0
LINE
  8
0
  6
DASHDOT
 62
3
 10
-80.031848367696170
 20
236.977373567955960
 11
-80.031848367696170
 21
241.977373567955960
  0
ARC
  8
0
  6
CONTINUOUS
 62
3
 10
-79.031848367696170
 20
260.480243188536860
 40
2.000000000000000
 50
270.000000000000000
 51
0.000000000000000
  0
ARC
  8
0
  6
CONTINUOUS
 62
3
 10
-79.031848367696170
 20
261.279245059655750
 40
2.000000000000000
 50
270.000000000000000
 51
0.000000000000000
  0
ARC
  8
0
  6
CONTINUOUS
 62
3
 10
-79.031848367696170
 20
262.078246930740990
 40
2.000000000000000
 50
270.000000000000000
 51
0.000000000000000
  0
ARC
  8
0
  6
CONTINUOUS
 62
3
 10
-79.031848367696170
 20
263.171883859018180
 40
2.000000000000000
 50
0.000000000000000
 51
90.000000000000000
  0
LINE
  8
0
  6
CONTINUOUS
 62
3
 10
-80.031848367696170
 20
265.171883859018180
 11
-79.031848367696170
 21
265.171883859018180
  0
LINE
  8
0
  6
CONTINUOUS
 62
3
 10
-79.031848367696170
 20
258.480243188536860
 11
-205.031848367696170
 21
258.480243188536860
  0
LINE
  8
0
  6
CONTINUOUS
 62
3
 10
-79.031848367696170
 20
259.279245059638920
 11
-205.031848367696170
 21
259.279245059638920
  0
LINE
  8
0
  6
CONTINUOUS
 62
3
 10
-77.031848367696170
 20
263.171883859018180
 11
-77.031848367696170
 21
260.480243188536860
  0
LINE
  8
0
  6
CONTINUOUS
 62
3
 10
-80.031848367696170
 20
246.977373567955960
 11
-80.031848367696170
 21
258.279245059655750
  0
LINE
  8
0
  6
CONTINUOUS
 62
3
 10
-199.031848367696170
 20
283.577373567955870
 11
-85.031848367696170
 21
283.577373567955870
  0
ARC
  8
0
  6
CONTINUOUS
 62
3
 10
-85.031848367696170
 20
278.577373567955870
 40
5.000000000000000
 50
0.000000000000000
 51
90.000000000000000
  0
LINE
  8
0
  6
CONTINUOUS
 62
3
 10
-79.031848367696170
 20
260.078246930740990
 11
-205.031848367696170
 21
260.078246930740990
  0
ARC
  8
0
  6
CONTINUOUS
 62
3
 10
-85.031848367696170
 20
246.977373567955960
 40
5.000000000000000
 50
270.000000000000000
 51
0.000000000000000
  0
LINE
  8
0
  6
CONTINUOUS
 62
3
 10
-80.031848367696170
 20
265.638398627642800
 11
-80.031848367696170
 21
278.577373567955870
  0
LINE
  8
0
  6
CONTINUOUS
 62
3
 10
-90.531848367696170
 20
261.314944753385130
 11
-90.531848367696170
 21
260.327935015460750
  0
POLYLINE
  8
0
  6
CONTINUOUS
 62
3
 66
1
  0
VERTEX
  8
0
  6
CONTINUOUS
 62
3
 10
-90.531848367696170
 20
260.327935015460750
  0
VERTEX
  8
0
  6
CONTINUOUS
 62
3
 10
-90.464596849107480
 20
260.293836805264790
  0
VERTEX
  8
0
  6
CONTINUOUS
 62
3
 10
-90.265426731485675
 20
260.261048970164150
  0
VERTEX
  8
0
  6
CONTINUOUS
 62
3
 10
-89.941992010755072
 20
260.230831528274110
  0
VERTEX
  8
0
  6
CONTINUOUS
 62
3
 10
-89.506722101849093
 20
260.204345718940430
  0
VERTEX
  8
0
  6
CONTINUOUS
 62
3
 10
-88.976344183264786
 20
260.182609376962320
  0
VERTEX
  8
0
  6
CONTINUOUS
 62
3
 10
-88.371240380973987
 20
260.166457817772140
  0
VERTEX
  8
0
  6
CONTINUOUS
 62
3
 10
-87.714664494752626
 20
260.156511736731720
  0
VERTEX
  8
0
  6
CONTINUOUS
 62
3
 10
-87.031848367696170
 20
260.153153356157530
  0
VERTEX
  8
0
  6
CONTINUOUS
 62
3
 10
-86.349032240639730
 20
260.156511736731720
  0
VERTEX
  8
0
  6
CONTINUOUS
 62
3
 10
-85.692456354418354
 20
260.166457817772140
  0
VERTEX
  8
0
  6
CONTINUOUS
 62
3
 10
-85.087352552127570
 20
260.182609376962320
  0
VERTEX
  8
0
  6
CONTINUOUS
 62
3
 10
-84.556974633543263
 20
260.204345718940430
  0
VERTEX
  8
0
  6
CONTINUOUS
 62
3
 10
-84.121704724637269
 20
260.230831528274110
  0
VERTEX
  8
0
  6
CONTINUOUS
 62
3
 10
-83.798270003906666
 20
260.261048970164150
  0
VERTEX
  8
0
  6
CONTINUOUS
 62
3
 10
-83.599099886284861
 20
260.293836805264790
  0
VERTEX
  8
0
  6
CONTINUOUS
 62
3
 10
-83.531848367696170
 20
260.327935015460750
  0
SEQEND
  8
0
  6
CONTINUOUS
 62
3
  0
LINE
  8
0
  6
CONTINUOUS
 62
3
 10
-83.531848367696170
 20
261.314944753385130
 11
-83.531848367696170
 21
260.327935015460750
  0
ARC
  8
0
  6
CONTINUOUS
 62
3
 10
-89.231848367695989
 20
261.314944753385130
 40
1.300000000000019
 50
106.601549599022360
 51
180.000000000000000
  0
ARC
  8
0
  6
CONTINUOUS
 62
3
 10
-87.031848367696170
 20
253.935920427635660
 40
9.000000000000123
 50
73.398450400980877
 51
106.601549599019120
  0
ARC
  8
0
  6
CONTINUOUS
 62
3
 10
-84.831848367696352
 20
261.314944753385130
 40
1.300000000000182
 50
0.000000000000000
 51
73.398450400977637
  0
ARC
  8
0
  6
CONTINUOUS
 62
3
 10
-85.031848367696170
 20
265.638398627642800
 40
5.000000000000072
 50
287.457603123721870
 51
0.000000000000000
  0
LINE
  8
0
  6
CONTINUOUS
 62
3
 10
-90.531848367696170
 20
260.638398627642800
 11
-193.531848367696170
 21
260.638398627642800
  0
LINE
  8
0
  6
CONTINUOUS
 62
3
 10
-204.031848367696170
 20
241.977373567955960
 11
-80.031848367696170
 21
241.977373567955960
  0
LINE
  8
0
  6
DASHDOT
 62
3
 10
-80.031848367696170
 20
236.977373567955960
 11
-80.031848367696170
 21
241.977373567955960
  0
INSERT
  8
0
  2
SYM4
 10
5.968151632303830
 20
122.676598025998820
  0
INSERT
  8
0
  2
SYM4
 10
5.968151632303830
 20
232.278149109913560
  0
LINE
  8
0
  6
CONTINUOUS
 62
3
 10
8.863453142196590
 20
94.225475106237582
 11
15.968151632329977
 21
93.977373567955283
  0
LINE
  8
0
  6
CONTINUOUS
 62
3
 10
8.968151632303830
 20
260.977373567956190
 11
15.968151632329750
 21
260.977373567956190
  0
ARC
  8
0
  6
CONTINUOUS
 62
3
 10
0.968151632303830
 20
112.977373567956190
 40
5.000000000000000
 50
0.000000000000000
 51
52.171363151966126
  0
LINE
  8
0
  6
CONTINUOUS
 62
3
 10
-55.531848367696170
 20
117.977373567956190
 11
1.967679063452465
 21
117.977373567956190
  0
LINE
  8
0
  6
CONTINUOUS
 62
3
 10
-55.531848367696170
 20
236.977373567956190
 11
1.968177018152915
 21
236.977373567956190
  0
ARC
  8
0
  6
CONTINUOUS
 62
3
 10
0.968151632303830
 20
241.977373567956190
 40
5.000000000000009
 50
307.828636848032320
 51
0.000000000000000
  0
ARC
  8
0
  6
CONTINUOUS
 62
3
 10
8.968151632303830
 20
97.223647587294863
 40
3.000000000000000
 50
180.000000000000000
 51
268.000000000000680
  0
LINE
  8
0
  6
CONTINUOUS
 62
3
 10
5.968151632303830
 20
257.977373567956190
 11
5.968151632303830
 21
97.223647587294863
  0
ARC
  8
0
  6
CONTINUOUS
 62
3
 10
8.968151632303830
 20
257.977373567956190
 40
3.000000000000000
 50
90.000000000000000
 51
180.000000000000000
  0
INSERT
  8
0
  2
SYM6
 10
37.468151632322474
 20
127.477373567956190
  0
INSERT
  8
0
  2
SYM7
 10
37.468151632322474
 20
56.477373567956192
  0
INSERT
  8
0
  2
SYM8
 10
20.968151632318154
 20
166.977373567955060
  0
ARC
  8
0
  6
CONTINUOUS
 62
3
 10
39.468151632322474
 20
44.477373567956192
 40
2.000000000000000
 50
180.000000000000000
 51
270.000000000000000
  0
LINE
  8
0
  6
CONTINUOUS
 62
3
 10
48.468151632322474
 20
177.477373567956190
 11
48.468151632322474
 21
42.477373567956192
  0
LINE
  8
0
  6
CONTINUOUS
 62
3
 10
37.468151632322474
 20
177.477373567956190
 11
37.468151632322474
 21
44.477373567956192
  0
ARC
  8
0
  6
CONTINUOUS
 62
3
 10
35.468151632322474
 20
65.519333676406177
 40
2.999999999999756
 50
99.594068226861253
 51
180.000000000000000
  0
LINE
  8
0
  6
CONTINUOUS
 62
3
 10
34.468151632322474
 20
42.477373567956192
 11
48.968151632322474
 21
42.477373567956192
  0
ARC
  8
0
  6
CONTINUOUS
 62
3
 10
34.468151632322474
 20
44.477373567956192
 40
2.000000000000000
 50
180.000000000000000
 51
270.000000000000000
  0
ARC
  8
0
  6
CONTINUOUS
 62
3
 10
32.468151632322474
 20
151.625118151544260
 40
5.000000000000000
 50
0.000000000000000
 51
87.999999999998934
  0
LINE
  8
0
  6
CONTINUOUS
 62
3
 10
32.642649115835070
 20
156.622072286639650
 11
28.363453142214780
 21
156.771505102844690
  0
ARC
  8
0
  6
CONTINUOUS
 62
3
 10
28.468151632322474
 20
159.769677583901970
 40
3.000000000000000
 50
180.000000000000000
 51
267.999999999996360
  0
LINE
  8
0
  6
CONTINUOUS
 62
3
 10
25.468151632322474
 20
177.477373567956190
 11
25.468151632322474
 21
156.977373567956190
  0
LINE
  8
0
  6
CONTINUOUS
 62
3
 10
25.468151632322474
 20
156.977373567956190
 11
20.968151632318836
 21
156.977373567956190
  0
LINE
  8
0
  6
CONTINUOUS
 62
3
 10
20.968151632318836
 20
177.477373567956190
 11
20.968151632318836
 21
156.977373567956190
  0
LINE
  8
0
  6
CONTINUOUS
 62
3
 10
32.468151632322474
 20
44.477373567956192
 11
32.468151632322474
 21
49.977373567956192
  0
LINE
  8
0
  6
CONTINUOUS
 62
3
 10
32.468151632322474
 20
62.977373567956192
 11
32.468151632322474
 21
65.519333676406177
  0
ARC
  8
0
  6
CONTINUOUS
 62
3
 10
19.968151632327022
 20
95.875302701386090
 40
2.000000000000000
 50
180.000000000000000
 51
266.999999999993860
  0
ARC
  8
0
  6
CONTINUOUS
 62
3
 10
15.968151632325885
 20
104.477373567955960
 40
2.000000000000000
 50
0.000000000000000
 51
90.000000000000000
  0
LINE
  8
0
  6
CONTINUOUS
 62
3
 10
17.968151632327022
 20
177.477373567956190
 11
17.968151632327022
 21
173.477373567955060
  0
LINE
  8
0
  6
CONTINUOUS
 62
3
 10
17.968151632327022
 20
160.477373567955060
 11
17.968151632327022
 21
95.875302701386090
  0
LINE
  8
0
  6
CONTINUOUS
 62
3
 10
15.968151632304284
 20
177.477373567956190
 11
15.968151632305421
 21
173.477373567955060
  0
LINE
  8
0
  6
CONTINUOUS
 62
3
 10
15.968151632309286
 20
160.477373567955060
 11
15.968151632329977
 21
93.977373567955283
  0
ARC
  8
0
  6
CONTINUOUS
 62
3
 10
34.468151632322474
 20
71.982555096157512
 40
3.000000000000000
 50
0.000000000000000
 51
20.345861640555512
  0
LINE
  8
0
  6
CONTINUOUS
 62
3
 10
21.693827442980705
 20
115.059741963745410
 11
37.280984434881134
 21
73.025613879183766
  0
ARC
  8
0
  6
CONTINUOUS
 62
3
 10
18.880994640421818
 20
114.016683180719150
 40
2.999999999999916
 50
20.345861640554002
 51
90.000000000000000
  0
LINE
  8
0
  6
CONTINUOUS
 62
3
 10
21.693827442980705
 20
117.016683180719380
 11
35.722704575734838
 21
117.016683180719380
  0
ARC
  8
0
  6
CONTINUOUS
 62
3
 10
18.880994640421818
 20
109.365505220574500
 40
2.999999999999916
 50
20.345861640554002
 51
90.000000000000000
  0
ARC
  8
0
  6
CONTINUOUS
 62
3
 10
34.468151632322474
 20
67.331377136012861
 40
3.000000000000000
 50
0.000000000000000
 51
20.345861640555512
  0
LINE
  8
0
  6
CONTINUOUS
 62
3
 10
21.693827442980705
 20
110.408564003600750
 11
37.280984434881134
 21
68.374435919039115
  0
ARC
  8
0
  6
CONTINUOUS
 62
3
 10
34.468151632322474
 20
71.435413459506208
 40
3.000000000000653
 50
279.594068226858330
 51
321.971096688727810
  0
LINE
  8
0
  6
CONTINUOUS
 62
3
 10
27.981463564436240
 20
93.452598126327075
 11
19.863479719840939
 21
93.878043631877290
  0
INSERT
  8
0
  2
SYM9
 10
37.468151632322474
 20
227.477373567956190
 41
-1.000000000000000
 50
180.000000000000030
  0
INSERT
  8
0
  2
SYM10
 10
37.468151632322247
 20
298.477373567956190
 41
-1.000000000000000
 50
180.000000000000030
  0
INSERT
  8
0
  2
SYM11
 10
20.968151632318154
 20
187.977373567957330
 41
-1.000000000000000
 50
180.000000000000030
  0
ARC
  8
0
  6
CONTINUOUS
 62
3
 10
39.468151632322247
 20
310.477373567956190
 40
2.000000000000000
 50
90.000000000000000
 51
180.000000000000000
  0
LINE
  8
0
  6
CONTINUOUS
 62
3
 10
48.468151632322474
 20
177.477373567956190
 11
48.468151632322247
 21
312.477373567956190
  0
LINE
  8
0
  6
CONTINUOUS
 62
3
 10
37.468151632322474
 20
177.477373567956190
 11
37.468151632322247
 21
310.477373567956190
  0
ARC
  8
0
  6
CONTINUOUS
 62
3
 10
35.468151632322247
 20
289.435413459506210
 40
3.000000000000000
 50
180.000000000000000
 51
260.405931773138780
  0
LINE
  8
0
  6
CONTINUOUS
 62
3
 10
34.468151632322247
 20
312.477373567956190
 11
48.968151632322474
 21
312.477373567956190
  0
ARC
  8
0
  6
CONTINUOUS
 62
3
 10
34.468151632322247
 20
310.477373567956190
 40
2.000000000000000
 50
90.000000000000000
 51
180.000000000000000
  0
ARC
  8
0
  6
CONTINUOUS
 62
3
 10
32.468151632322474
 20
203.329628984368130
 40
4.999999999999918
 50
272.000000000001080
 51
0.000000000000000
  0
LINE
  8
0
  6
CONTINUOUS
 62
3
 10
32.642649115835070
 20
198.332674849272730
 11
28.363453142214780
 21
198.183242033067700
  0
ARC
  8
0
  6
CONTINUOUS
 62
3
 10
28.468151632322474
 20
195.185069552010420
 40
3.000000000000001
 50
92.000000000003652
 51
180.000000000000000
  0
LINE
  8
0
  6
CONTINUOUS
 62
3
 10
25.468151632322474
 20
177.477373567956190
 11
25.468151632322474
 21
197.977373567956190
  0
LINE
  8
0
  6
CONTINUOUS
 62
3
 10
25.468151632322474
 20
197.977373567956190
 11
20.968151632318836
 21
197.977373567956190
  0
LINE
  8
0
  6
CONTINUOUS
 62
3
 10
20.968151632318836
 20
177.477373567956190
 11
20.968151632318836
 21
197.977373567956190
  0
LINE
  8
0
  6
CONTINUOUS
 62
3
 10
32.468151632322247
 20
310.477373567956190
 11
32.468151632322247
 21
304.977373567956190
  0
LINE
  8
0
  6
CONTINUOUS
 62
3
 10
32.468151632322247
 20
291.977373567956190
 11
32.468151632322247
 21
289.435413459506210
  0
ARC
  8
0
  6
CONTINUOUS
 62
3
 10
19.968151632327022
 20
259.079444434526290
 40
1.999999999999663
 50
93.000000000006111
 51
180.000000000000000
  0
ARC
  8
0
  6
CONTINUOUS
 62
3
 10
15.968151632325885
 20
250.477373567956420
 40
2.000000000000000
 50
270.000000000000000
 51
0.000000000000000
  0
LINE
  8
0
  6
CONTINUOUS
 62
3
 10
17.968151632327022
 20
177.477373567956190
 11
17.968151632327022
 21
181.477373567957330
  0
LINE
  8
0
  6
CONTINUOUS
 62
3
 10
17.968151632327022
 20
194.477373567957330
 11
17.968151632327022
 21
259.079444434526290
  0
LINE
  8
0
  6
CONTINUOUS
 62
3
 10
15.968151632304284
 20
177.477373567956190
 11
15.968151632305421
 21
181.477373567957330
  0
LINE
  8
0
  6
CONTINUOUS
 62
3
 10
15.968151632309286
 20
194.477373567957330
 11
15.968151632329750
 21
260.977373567956190
  0
ARC
  8
0
  6
CONTINUOUS
 62
3
 10
34.468151632322247
 20
282.972192039754870
 40
2.999999999999916
 50
339.654138359445990
 51
0.000000000000000
  0
LINE
  8
0
  6
CONTINUOUS
 62
3
 10
21.693827442980705
 20
239.895005172166980
 11
37.280984434881134
 21
281.929133256728620
  0
ARC
  8
0
  6
CONTINUOUS
 62
3
 10
18.880994640421818
 20
240.938063955193230
 40
3.000000000000227
 50
270.000000000000000
 51
339.654138359445990
  0
LINE
  8
0
  6
CONTINUOUS
 62
3
 10
21.693827442980705
 20
237.938063955193000
 11
35.722704575734838
 21
237.938063955193000
  0
ARC
  8
0
  6
CONTINUOUS
 62
3
 10
18.880994640421818
 20
245.589241915337880
 40
3.000000000000227
 50
270.000000000000000
 51
339.654138359445990
  0
ARC
  8
0
  6
CONTINUOUS
 62
3
 10
34.468151632322247
 20
287.623369999899520
 40
2.999999999999916
 50
339.654138359445990
 51
0.000000000000000
  0
LINE
  8
0
  6
CONTINUOUS
 62
3
 10
21.693827442980705
 20
244.546183132311630
 11
37.280984434881134
 21
286.580311216873270
  0
ARC
  8
0
  6
CONTINUOUS
 62
3
 10
34.468151632322247
 20
283.519333676406180
 40
3.000000000000123
 50
38.028903311269509
 51
80.405931773141646
  0
LINE
  8
0
  6
CONTINUOUS
 62
3
 10
27.981463564436240
 20
261.502149009585310
 11
19.863479719840939
 21
261.076703504035090
  0
LINE
  8
0
  6
CONTINUOUS
 62
3
 10
120.968151632322470
 20
311.220608893125020
 11
48.968151632322474
 21
312.477373567957100
  0
LINE
  8
0
  6
CONTINUOUS
 62
3
 10
120.968151632322470
 20
43.734138242787367
 11
48.968151632322474
 21
42.477373567955283
  0
LINE
  8
0
  6
CONTINUOUS
 62
3
 10
-11.531848367677526
 20
75.150400936798860
 11
-11.531848367677526
 21
44.593334241186994
  0
LINE
  8
0
  6
DASHDOT
 62
4
 10
285.298520285533300
 20
177.477373567956190
 11
-276.001319690221860
 21
177.477373567956190
  0
LINE
  8
0
  6
CONTINUOUS
 62
3
 10
-5.531848367677526
 20
282.560448137003500
 11
23.851394851863347
 21
282.560448137003500
  0
LINE
  8
0
  6
CONTINUOUS
 62
3
 10
-5.531848367677526
 20
72.394298998908880
 11
23.851394851863347
 21
72.394298998908880
  0
LINE
  8
0
  6
DASHDOT
 62
4
 10
6.468151632322474
 20
316.487858088580420
 11
6.468151632322474
 21
287.951515759605850
  0
LINE
  8
0
  6
DASHDOT
 62
4
 10
6.468151632322474
 20
38.466889047331961
 11
6.468151632322474
 21
67.003231376306530
  0
CIRCLE
  8
0
  6
CONTINUOUS
 62
3
 10
6.468151632322474
 20
302.477373567957100
 40
7.500000000000000
  0
CIRCLE
  8
0
  6
CONTINUOUS
 62
3
 10
6.468151632322474
 20
52.477373567955283
 40
7.500000000000000
  0
LINE
  8
0
  6
DASHDOT
 62
4
 10
21.106730175951157
 20
302.477373567957100
 11
-7.429612153023413
 21
302.477373567957100
  0
LINE
  8
0
  6
DASHDOT
 62
4
 10
21.106730175951157
 20
52.477373567955283
 11
-7.429612153023413
 21
52.477373567955283
  0
LINE
  8
0
  6
CONTINUOUS
 62
3
 10
48.968151632322474
 20
177.477373567956190
 11
48.968151632322474
 21
312.477373567957100
  0
LINE
  8
0
  6
CONTINUOUS
 62
3
 10
48.968151632322474
 20
177.477373567956190
 11
48.968151632322474
 21
42.477373567955283
  0
LINE
  8
0
  6
CONTINUOUS
 62
3
 10
-11.531848367677526
 20
279.804346199113520
 11
-11.531848367677526
 21
310.361412894725390
  0
LINE
  8
0
  6
CONTINUOUS
 62
3
 10
184.642675696695620
 20
320.148877888363810
 11
51.968151632322474
 21
322.464720320227340
  0
LINE
  8
0
  6
CONTINUOUS
 62
3
 10
184.642675696695620
 20
34.805869247548571
 11
51.968151632322474
 21
32.490026815685042
  0
ARC
  8
0
  6
CONTINUOUS
 62
3
 10
-1.531848367677526
 20
310.361412894725390
 40
10.000000000000053
 50
92.243175574221979
 51
180.000000000000000
  0
LINE
  8
0
  6
CONTINUOUS
 62
3
 10
-1.923256353777219
 20
320.353749948108770
 11
51.968151632322474
 21
322.464720320227340
  0
ARC
  8
0
  6
CONTINUOUS
 62
3
 10
-1.531848367677526
 20
44.593334241186994
 40
10.000000000000000
 50
180.000000000000000
 51
267.756824425778010
  0
LINE
  8
0
  6
CONTINUOUS
 62
3
 10
-1.923256353777219
 20
34.600997187803614
 11
51.968151632322474
 21
32.490026815685042
  0
LINE
  8
0
  6
CONTINUOUS
 62
3
 10
-1.706372432050671
 20
269.805869247549480
 11
30.849933657113866
 21
269.237596810939290
  0
ARC
  8
0
  6
CONTINUOUS
 62
3
 10
-1.531848367677526
 20
279.804346199113520
 40
10.000000000000000
 50
180.000000000000000
 51
268.999999999998240
  0
LINE
  8
0
  6
CONTINUOUS
 62
3
 10
-1.706372432050671
 20
85.148877888362904
 11
30.849933657113866
 21
85.717150324973204
  0
ARC
  8
0
  6
CONTINUOUS
 62
3
 10
-1.531848367677526
 20
75.150400936798860
 40
10.000000000000137
 50
91.000000000001762
 51
180.000000000000000
  0
LINE
  8
0
  6
CONTINUOUS
 62
3
 10
37.468151632322503
 20
-245.522626432043580
 11
29.968152585996819
 21
-245.522626432043580
  0
LINE
  8
0
  6
DASHDOT
 62
4
 10
-42.161458758731897
 20
-172.522626432043810
 11
-271.801950910459710
 21
-172.522626432043810
  0
LINE
  8
0
  6
CONTINUOUS
 62
4
 10
-214.531848367695370
 20
-204.273418148418160
 11
-55.531848367695602
 21
-204.273418148418160
  0
LINE
  8
0
  6
CONTINUOUS
 62
4
 10
-137.531848367695490
 20
-192.522626432043810
 11
-55.531848367695602
 21
-192.522626432043810
  0
LINE
  8
0
  6
CONTINUOUS
 62
4
 10
-137.531848367695490
 20
-198.714560224523440
 11
-55.531848367695602
 21
-198.714560224523440
  0
LINE
  8
0
  6
CONTINUOUS
 62
4
 10
-137.531848367695490
 20
-197.352679889174170
 11
-55.531848367695602
 21
-197.352679889174170
  0
LINE
  8
0
  6
CONTINUOUS
 62
4
 10
-137.691251582789390
 20
-202.805060758613080
 11
-55.531848367695602
 21
-202.805060758613080
  0
LINE
  8
0
  6
CONTINUOUS
 62
4
 10
-214.531848367695370
 20
-140.771834715669460
 11
-55.531848367695602
 21
-140.771834715669460
  0
LINE
  8
0
  6
CONTINUOUS
 62
4
 10
-214.445512156692300
 20
-136.808089291869920
 11
-55.531848367695602
 21
-136.808089291869920
  0
LINE
  8
0
  6
CONTINUOUS
 62
4
 10
-137.531848367695490
 20
-152.522626432043810
 11
-55.531848367695602
 21
-152.522626432043810
  0
LINE
  8
0
  6
CONTINUOUS
 62
4
 10
-137.531848367695490
 20
-146.330692639564180
 11
-55.531848367695602
 21
-146.330692639564180
  0
LINE
  8
0
  6
CONTINUOUS
 62
4
 10
-137.531848367695490
 20
-147.692572974913450
 11
-55.531848367695602
 21
-147.692572974913450
  0
LINE
  8
0
  6
CONTINUOUS
 62
4
 10
-137.691251582789390
 20
-142.240192105474530
 11
-55.531848367695602
 21
-142.240192105474530
  0
LINE
  8
0
  6
CONTINUOUS
 62
3
 10
17.968151632327050
 20
-211.022626432044490
 11
17.968151632327050
 21
-292.624697298614590
  0
ARC
  8
0
  6
CONTINUOUS
 62
3
 10
-46.531848367697080
 20
-234.498413483585520
 40
3.000000000000000
 50
0.000000000000000
 51
86.999999999996518
  0
LINE
  8
0
  6
CONTINUOUS
 62
3
 10
-32.857350884184029
 20
-238.395388098105970
 11
-40.636546857804603
 21
-238.123732588680010
  0
LINE
  8
0
  6
CONTINUOUS
 62
3
 10
-43.531848367697080
 20
-235.125560107622730
 11
-43.531848367697080
 21
-234.498413483585520
  0
ARC
  8
0
  6
CONTINUOUS
 62
3
 10
-31.531848367696170
 20
-140.022626432044260
 40
5.000000000000000
 50
179.999999999997410
 51
270.000000000000000
  0
LINE
  8
0
  6
CONTINUOUS
 62
3
 10
-36.531848367697449
 20
-171.022626432043860
 11
-36.531848367695716
 21
-129.022626432043810
  0
ARC
  8
0
  6
CONTINUOUS
 62
3
 10
-31.531848367695716
 20
-129.022626432044040
 40
5.000000000000000
 50
179.999999999998690
 51
270.000000000000000
  0
LINE
  8
0
  6
CONTINUOUS
 62
3
 10
-41.793528148910013
 20
-113.302631578297900
 11
-55.531848367695602
 21
-114.022626432043800
  0
LINE
  8
0
  6
CONTINUOUS
 62
3
 10
-30.874840498966591
 20
-232.314845458210020
 11
-55.531848367699354
 21
-231.022626432043810
  0
LINE
  8
0
  6
CONTINUOUS
 62
3
 10
-55.531848367695602
 20
-231.022626432044040
 11
-55.531848367695602
 21
-114.022626432043460
  0
LINE
  8
0
  6
CONTINUOUS
 62
3
 10
-36.531848367695716
 20
-129.022626432043810
 11
-36.531848367695261
 21
-118.295779252071040
  0
ARC
  8
0
  6
CONTINUOUS
 62
3
 10
-40.531848367697080
 20
-235.125560107622730
 40
3.000000000000000
 50
180.000000000000000
 51
267.999999999999600
  0
ARC
  8
0
  6
CONTINUOUS
 62
3
 10
-41.531848367695261
 20
-118.295779252070810
 40
5.000000000000000
 50
359.999999999997390
 51
93.000000000000355
  0
LINE
  8
0
  6
CONTINUOUS
 62
3
 10
8.863453142196931
 20
-294.274524893762650
 11
15.968151632304398
 21
-294.522626432044040
  0
LINE
  8
0
  6
CONTINUOUS
 62
3
 10
5.968151632304398
 20
-278.814863516196400
 11
5.968151632304398
 21
-291.276352412705250
  0
LINE
  8
0
  6
CONTINUOUS
 62
3
 10
15.968151632304398
 20
-127.522626432044030
 11
15.968151632304398
 21
-140.022626432044260
  0
LINE
  8
0
  6
CONTINUOUS
 62
3
 10
5.968151632304398
 20
-130.522626432044040
 11
5.968151632304398
 21
-278.814863516196400
  0
LINE
  8
0
  6
CONTINUOUS
 62
3
 10
8.968151632304398
 20
-127.522626432044030
 11
15.968151632304398
 21
-127.522626432044030
  0
ARC
  8
0
  6
CONTINUOUS
 62
3
 10
8.968151632304398
 20
-130.522626432044040
 40
3.000000000000000
 50
90.000000000000000
 51
180.000000000000000
  0
ARC
  8
0
  6
CONTINUOUS
 62
3
 10
1.110034809553554
 20
-129.022626432044040
 40
5.000000000000000
 50
270.000000000000000
 51
349.193077125139720
  0
LINE
  8
0
  6
CONTINUOUS
 62
3
 10
0.968151632304398
 20
-145.022626432044260
 11
-31.531848367696170
 21
-145.022626432044260
  0
LINE
  8
0
  6
CONTINUOUS
 62
3
 10
1.110034809553554
 20
-134.022626432044040
 11
-31.531848367695716
 21
-134.022626432044040
  0
LINE
  8
0
  6
DASHDOT
 62
4
 10
-14.031848367695602
 20
-152.848514460365100
 11
-14.031848367695602
 21
-130.126836162947710
  0
LINE
  8
0
  6
CONTINUOUS
 62
3
 10
-28.031848367696625
 20
-249.194182558008610
 11
-28.031848367696512
 21
-243.392342233201590
  0
LINE
  8
0
  6
CONTINUOUS
 62
3
 10
15.968151632304398
 20
-140.022626432044260
 11
15.968151632304398
 21
-294.522626432044040
  0
ARC
  8
0
  6
CONTINUOUS
 62
3
 10
8.968151632304398
 20
-291.276352412705250
 40
3.000000000000000
 50
180.000000000000000
 51
268.000000000000740
  0
ARC
  8
0
  6
CONTINUOUS
 62
3
 10
-33.031848367696512
 20
-243.392342233201480
 40
5.000000000000000
 50
359.999999999998690
 51
88.000000000000270
  0
POINT
  8
0
  6
CONTINUOUS
 62
3
 10
5.968151632304398
 20
-289.522626432044040
  0
ARC
  8
0
  6
CONTINUOUS
 62
3
 10
0.968151632304398
 20
-140.022626432044260
 40
5.000000000000000
 50
270.000000000000000
 51
0.000000000000000
  0
LINE
  8
0
  6
CONTINUOUS
 62
3
 10
-20.397286076342283
 20
-254.289231221991030
 11
-23.206345851209164
 21
-254.191136693104110
  0
ARC
  8
0
  6
CONTINUOUS
 62
3
 10
-23.031848367696625
 20
-249.194182558008720
 40
5.000000000000000
 50
179.999999999998690
 51
267.999999999999550
  0
ARC
  8
0
  6
CONTINUOUS
 62
3
 10
0.968151632304398
 20
-291.416799659325530
 40
5.000000000000000
 50
0.000000000000000
 51
41.496847105758341
  0
LINE
  8
0
  6
CONTINUOUS
 62
3
 10
2.968151632304398
 20
-176.022626432044090
 11
-31.531848367697449
 21
-176.022626432044090
  0
ARC
  8
0
  6
CONTINUOUS
 62
3
 10
-31.531848367697449
 20
-171.022626432044090
 40
5.000000000000000
 50
179.999999999997410
 51
270.000000000000000
  0
ARC
  8
0
  6
CONTINUOUS
 62
3
 10
2.968151632304398
 20
-173.022626432044040
 40
3.000000000000057
 50
270.000000000000000
 51
0.000000000000000
  0
LINE
  8
0
  6
CONTINUOUS
 62
3
 10
-55.531848367695602
 20
-213.719648856311890
 11
-31.031848367695602
 21
-213.719648856311890
  0
LINE
  8
0
  6
CONTINUOUS
 62
3
 10
-36.531848367696682
 20
-152.522626432047790
 11
-55.531848367695602
 21
-152.522626432047790
  0
LINE
  8
0
  6
CONTINUOUS
 62
3
 10
2.968151632304398
 20
-192.522626432047790
 11
-55.531848367695602
 21
-192.522626432047790
  0
ARC
  8
0
  6
CONTINUOUS
 62
3
 10
2.968151632304398
 20
-195.522626432047790
 40
3.000000000000000
 50
0.000000000000000
 51
90.000000000000000
  0
LINE
  8
0
  6
CONTINUOUS
 62
3
 10
-28.031848367695602
 20
-243.392342233201480
 11
-28.031848367695602
 21
-216.719648856311890
  0
ARC
  8
0
  6
CONTINUOUS
 62
3
 10
-31.031848367695602
 20
-216.719648856311890
 40
3.000000000000000
 50
0.000000000000000
 51
90.000000000000000
  0
ARC
  8
0
  6
CONTINUOUS
 62
3
 10
-31.031848367695602
 20
-235.310734062473670
 40
3.000000000000000
 50
0.000000000000000
 51
86.999999999996518
  0
LINE
  8
0
  6
CONTINUOUS
 62
3
 10
-31.659418431793711
 20
-226.389145288588340
 11
-55.531848367695602
 21
-226.389145288588340
  0
LINE
  8
0
  6
CONTINUOUS
 62
3
 10
5.968151632304398
 20
-289.522626432044040
 11
-24.453452875240600
 21
-248.868781561994980
  0
LINE
  8
0
  6
CONTINUOUS
 62
3
 10
-20.372971348321698
 20
-247.666179753194570
 11
1.659176289370407
 21
-247.666179753194570
  0
ARC
  8
0
  6
CONTINUOUS
 62
3
 10
-26.855402030046449
 20
-250.666179753194570
 40
3.000000000000015
 50
36.807809254663589
 51
90.000000000000000
  0
LINE
  8
0
  6
CONTINUOUS
 62
3
 10
37.468151632322503
 20
-202.106546648942640
 11
37.468151632322503
 21
-68.022626432044490
  0
LINE
  8
0
  6
CONTINUOUS
 62
3
 10
37.468151632322503
 20
-227.938706215141790
 11
37.468151632322503
 21
-306.449522867143970
  0
LINE
  8
0
  6
DASHDOT
 62
4
 10
28.527373267676012
 20
-79.022626432045399
 11
3.079855412826873
 21
-79.022626432045399
  0
CIRCLE
  8
0
  6
CONTINUOUS
 62
3
 10
-14.031848367695602
 20
177.477373567956190
 40
9.625113364740628
  0
LINE
  8
0
  6
DASHDOT
 62
4
 10
-14.031848367695602
 20
159.189950403511150
 11
-14.031848367695602
 21
196.545367880173440
  0
ARC
  8
0
  6
CONTINUOUS
 62
3
 10
-33.531848367701059
 20
159.477373567956190
 40
3.000000000000000
 50
90.000000000000000
 51
180.000000000000000
  0
LINE
  8
0
  6
CONTINUOUS
 62
3
 10
-33.531848367701059
 20
162.477373567956190
 11
2.968151632304398
 21
162.477373567956190
  0
ARC
  8
0
  6
CONTINUOUS
 62
3
 10
2.968151632304398
 20
159.477373567956190
 40
3.000000000000000
 50
0.000000000000000
 51
90.000000000000000
  0
ARC
  8
0
  6
CONTINUOUS
 62
3
 10
-33.531848367699240
 20
195.477373567956190
 40
2.999999999999545
 50
180.000000000000000
 51
270.000000000000000
  0
LINE
  8
0
  6
CONTINUOUS
 62
3
 10
-33.531848367699240
 20
192.477373567956190
 11
2.968151632304398
 21
192.477373567956190
  0
ARC
  8
0
  6
CONTINUOUS
 62
3
 10
2.968151632304398
 20
195.477373567956190
 40
3.000000000000000
 50
270.000000000000000
 51
0.000000000000000
  0
ARC
  8
0
  6
CONTINUOUS
 62
3
 10
-41.531848367696512
 20
231.977373567956190
 40
4.999999999999545
 50
359.999999999997390
 51
90.000000000000000
  0
LINE
  8
0
  6
CONTINUOUS
 62
3
 10
-36.531848367701969
 20
122.977373567955960
 11
-36.531848367696966
 21
231.977373567955960
  0
ARC
  8
0
  6
CONTINUOUS
 62
3
 10
-41.531848367701514
 20
122.977373567956190
 40
5.000000000000000
 50
270.000000000000000
 51
359.999999999997390
  0
LINE
  8
0
  6
CONTINUOUS
 62
3
 10
559.387189569152270
 20
-178.854468018837000
 11
559.387189569152270
 21
-314.022626432043580
  0
LINE
  8
0
  6
CONTINUOUS
 62
3
 10
548.859463512959790
 20
-176.022626432044490
 11
548.859463512959790
 21
-314.022626432043580
  0
LINE
  8
0
  6
CONTINUOUS
 62
3
 10
513.453471555633310
 20
-171.022626432044490
 11
534.032473672602010
 21
-171.022626432044490
  0
LINE
  8
0
  6
CONTINUOUS
 62
3
 10
539.032473672602010
 20
-176.022626432044490
 11
539.032473672602010
 21
-299.322626432043760
  0
ARC
  8
0
  6
CONTINUOUS
 62
3
 10
481.532473672602920
 20
-176.660797107360850
 40
67.326989840399619
 50
0.000000000000000
 51
87.075476210271830
  0
ARC
  8
0
  6
CONTINUOUS
 62
3
 10
534.032473672602010
 20
-176.022626432044490
 40
5.000000000000000
 50
0.000000000000000
 51
90.000000000000000
  0
POLYLINE
  8
0
  6
CONTINUOUS
 62
3
 66
1
  0
VERTEX
  8
0
  6
CONTINUOUS
 62
3
 10
582.541748436928860
 20
-178.854465142037950
  0
VERTEX
  8
0
  6
CONTINUOUS
 62
3
 10
582.344623241770140
 20
-173.479274480785620
  0
VERTEX
  8
0
  6
CONTINUOUS
 62
3
 10
581.759960518808730
 20
-168.287129502098880
  0
VERTEX
  8
0
  6
CONTINUOUS
 62
3
 10
580.807670257092240
 20
-163.454842486973580
  0
VERTEX
  8
0
  6
CONTINUOUS
 62
3
 10
579.520181561361820
 20
-159.146971184293420
  0
VERTEX
  8
0
  6
CONTINUOUS
 62
3
 10
577.941338317715010
 20
-155.510214993707280
  0
VERTEX
  8
0
  6
CONTINUOUS
 62
3
 10
576.124906142557050
 20
-152.668419293208790
  0
VERTEX
  8
0
  6
CONTINUOUS
 62
3
 10
574.132741458904210
 20
-150.718358033061610
  0
VERTEX
  8
0
  6
CONTINUOUS
 62
3
 10
572.032685049955490
 20
-149.726438214785050
  0
VERTEX
  8
0
  6
CONTINUOUS
 62
3
 10
569.896251822441970
 20
-149.726438480222580
  0
VERTEX
  8
0
  6
CONTINUOUS
 62
3
 10
567.796195452099480
 20
-150.718358820335060
  0
VERTEX
  8
0
  6
CONTINUOUS
 62
3
 10
565.804030844344420
 20
-152.668420575508490
  0
VERTEX
  8
0
  6
CONTINUOUS
 62
3
 10
563.987598779791260
 20
-155.510216727366070
  0
VERTEX
  8
0
  6
CONTINUOUS
 62
3
 10
562.408755677689560
 20
-159.146973310273610
  0
VERTEX
  8
0
  6
CONTINUOUS
 62
3
 10
561.121267149624490
 20
-163.454844932877480
  0
VERTEX
  8
0
  6
CONTINUOUS
 62
3
 10
560.168977075984000
 20
-168.287132184634150
  0
VERTEX
  8
0
  6
CONTINUOUS
 62
3
 10
559.584314555104580
 20
-173.479277308601700
  0
VERTEX
  8
0
  6
CONTINUOUS
 62
3
 10
559.387189569152040
 20
-178.854468018837000
  0
SEQEND
  8
0
  6
CONTINUOUS
 62
3
  0
ARC
  8
0
  6
DASHED
 62
3
 10
540.254391652087410
 20
-146.565126432043680
 40
18.799999999999933
 50
35.808626813495749
 51
85.126025186157264
  0
ARC
  8
0
  6
DASHED
 62
3
 10
536.428637018000470
 20
-126.119990054905960
 40
1.999999999999958
 50
280.598785266065990
 51
2.862405226112724
  0
ARC
  8
0
  6
DASHED
 62
3
 10
540.892619707475430
 20
-123.704733583435850
 40
1.299999237060550
 50
272.862387240019760
 51
346.260856815788600
  0
LINE
  8
0
  6
DASHED
 62
3
 10
539.979734758895350
 20
-125.052001052614820
 11
540.957538571403120
 21
-125.003110861989480
  0
ARC
  8
0
  6
DASHED
 62
3
 10
533.412938511767380
 20
-121.875968595933580
 40
8.999999999999948
 50
346.260856815786500
 51
19.463936333592187
  0
ARC
  8
0
  6
DASHED
 62
3
 10
542.021650115716280
 20
-125.840339400020150
 40
1.999999999999927
 50
182.862405226112710
 51
265.126025186159040
  0
ARC
  8
0
  6
DASHED
 62
3
 10
540.672894116723460
 20
-119.310221768398120
 40
1.299999237060645
 50
19.463936333587132
 51
92.862405909348169
  0
LINE
  8
0
  6
DASHED
 62
3
 10
539.630171440288220
 20
-118.060734680469940
 11
540.607975252795770
 21
-118.011844489844600
  0
LINE
  8
0
  6
DASHED
 62
3
 10
539.630171440288220
 20
-118.060734680469940
 11
539.979734758895350
 21
-125.052001052614820
  0
LINE
  8
0
  6
DASHED
 62
3
 10
539.630171440288220
 20
-118.060734680469940
 11
539.979734758895350
 21
-125.052001052614820
  0
LINE
  8
0
  6
DASHED
 62
3
 10
539.555265014872930
 20
-116.562606172153290
 11
537.957261272668350
 21
-116.642506359263470
  0
LINE
  8
0
  6
DASHED
 62
3
 10
537.957261272668350
 20
-116.642506359263470
 11
543.050898200945310
 21
-218.515244924804250
  0
LINE
  8
0
  6
DASHED
 62
3
 10
539.555265014872930
 20
-116.562606172153290
 11
544.648901943149890
 21
-218.435344737693270
  0
LINE
  8
0
  6
DASHED
 62
3
 10
538.756263143770640
 20
-116.602556265708440
 11
543.849900072047600
 21
-218.475294831248530
  0
ARC
  8
0
  6
DASHED
 62
3
 10
540.254391652087410
 20
-146.565126432043680
 40
18.799999999999983
 50
100.598785266066050
 51
180.000000000000000
  0
LINE
  8
0
  6
DASHED
 62
3
 10
521.454391652087450
 20
-186.565126432043680
 11
521.454391652087450
 21
-146.565126432043680
  0
ARC
  8
0
  6
DASHED
 62
3
 10
542.254391652087410
 20
-186.565126432043680
 40
20.799999999999955
 50
180.000000000000000
 51
265.808273843992540
  0
LINE
  8
0
  6
DASHED
 62
3
 10
543.050898200945310
 20
-218.515244924804250
 11
544.648901943149890
 21
-218.435344737693270
  0
ARC
  8
0
  6
DASHED
 62
3
 10
546.180857483419690
 20
-209.024486754087180
 40
1.999999999999995
 50
99.916536608232732
 51
182.862405226112400
  0
ARC
  8
0
  6
DASHED
 62
3
 10
540.587844385703870
 20
-209.304137408972990
 40
1.999999999999927
 50
2.862405226112724
 51
85.808273843998350
  0
ARC
  8
0
  6
DASHED
 62
3
 10
542.254391652087410
 20
-186.565126432043680
 40
20.800000000000040
 50
279.916536608230560
 51
334.359929784105190
  0
INSERT
  8
0
  2
SYM12
 10
544.399213858430810
 20
-213.441583043304120
 41
-1.000000000000000
 42
1.000000000000000
 43
1.000000000000000
 50
2.862405226113666
  0
ARC
  8
0
  6
DASHED
 62
3
 10
542.254391652087410
 20
-186.565126432043680
 40
20.799999999999926
 50
334.359929784105190
 51
5.724810452223396
  0
LINE
  8
0
  6
DASHED
 62
3
 10
562.950651003708340
 20
-184.490313464462670
 11
558.960626066052330
 21
-144.689814711345410
  0
ARC
  8
0
  6
DASHED
 62
3
 10
540.254391652087410
 20
-146.565126432043680
 40
18.799999999999837
 50
5.724810452223617
 51
35.808626813495749
  0
LINE
  8
0
  6
DASHDOT
 62
4
 10
600.555103539864380
 20
-171.022626432044490
 11
316.925361581542350
 21
-171.022626432044490
  0
LINE
  8
0
  6
CONTINUOUS
 62
3
 10
374.032473672602010
 20
-176.022626432044490
 11
374.032473672602010
 21
-299.322626432043760
  0
LINE
  8
0
  6
CONTINUOUS
 62
3
 10
399.611475789571610
 20
-171.022626432044490
 11
379.032473672602010
 21
-171.022626432044490
  0
LINE
  8
0
  6
CONTINUOUS
 62
3
 10
364.205483832244230
 20
-176.022626432044490
 11
364.205483832244230
 21
-314.022626432043580
  0
ARC
  8
0
  6
CONTINUOUS
 62
3
 10
379.032473672602010
 20
-176.022626432044490
 40
5.000000000000000
 50
90.000000000000000
 51
180.000000000000000
  0
ARC
  8
0
  6
CONTINUOUS
 62
3
 10
399.611475789571610
 20
-174.022626432044490
 40
3.000000000000143
 50
3.016961309806693
 51
90.000000000000000
  0
ARC
  8
0
  6
CONTINUOUS
 62
3
 10
456.532473672602010
 20
-171.022626432044490
 40
53.999999999999424
 50
183.016961309816540
 51
356.983038690183490
  0
ARC
  8
0
  6
CONTINUOUS
 62
3
 10
431.532473672602010
 20
-176.660797107360850
 40
67.326989840399662
 50
92.924523789728170
 51
180.000000000000000
  0
ARC
  8
0
  6
DASHED
 62
3
 10
396.732473672602280
 20
-152.222626432043680
 40
0.199999999999989
 50
90.000000000000000
 51
180.000000000000000
  0
LINE
  8
0
  6
DASHED
 62
3
 10
369.593704538620840
 20
-142.522626432043690
 11
393.032473672602240
 21
-142.522626432043690
  0
LINE
  8
0
  6
DASHED
 62
3
 10
393.032473672602240
 20
-204.022626432043690
 11
393.032473672602240
 21
-141.022626432043690
  0
LINE
  8
0
  6
DASHED
 62
3
 10
398.032473672602240
 20
-141.022626432043690
 11
393.032473672602240
 21
-141.022626432043690
  0
LINE
  8
0
  6
DASHED
 62
3
 10
396.532473672602240
 20
-172.522626432043690
 11
396.532473672602240
 21
-152.222626432043680
  0
LINE
  8
0
  6
DASHED
 62
3
 10
398.032473672602240
 20
-152.022626432043690
 11
396.732473672602280
 21
-152.022626432043690
  0
LINE
  8
0
  6
DASHED
 62
3
 10
398.032473672602240
 20
-152.022626432043690
 11
398.032473672602240
 21
-141.022626432043690
  0
ARC
  8
0
  6
DASHED
 62
3
 10
396.732473672602280
 20
-192.822626432043710
 40
0.200000000000045
 50
180.000000000000000
 51
270.000000000000000
  0
LINE
  8
0
  6
DASHED
 62
3
 10
369.593704538620840
 20
-202.522626432043690
 11
393.032473672602240
 21
-202.522626432043690
  0
LINE
  8
0
  6
DASHED
 62
3
 10
398.032473672602240
 20
-204.022626432043690
 11
393.032473672602240
 21
-204.022626432043690
  0
LINE
  8
0
  6
DASHED
 62
3
 10
398.032473672602240
 20
-193.022626432043690
 11
398.032473672602240
 21
-204.022626432043690
  0
LINE
  8
0
  6
DASHED
 62
3
 10
396.532473672602240
 20
-172.522626432043690
 11
396.532473672602240
 21
-192.822626432043710
  0
LINE
  8
0
  6
DASHED
 62
3
 10
398.032473672602240
 20
-193.022626432043690
 11
396.732473672602280
 21
-193.022626432043690
  0
ARC
  8
0
  6
DASHED
 62
3
 10
369.593704538620840
 20
-197.522626432043690
 40
5.000000000000119
 50
184.861405395798390
 51
270.000000000000000
  0
ARC
  8
0
  6
DASHED
 62
3
 10
369.593704538620840
 20
-147.522626432043690
 40
5.000000000000000
 50
90.000000000000000
 51
175.138594604202240
  0
ARC
  8
0
  6
DASHED
 62
3
 10
663.532473672602240
 20
-172.522626432043690
 40
300.000000000000110
 50
175.138594604201960
 51
180.000000000000000
  0
ARC
  8
0
  6
DASHED
 62
3
 10
663.532473672602240
 20
-172.522626432043690
 40
300.000000000000000
 50
180.000000000000000
 51
184.861405395798040
  0
LINE
  8
0
  6
DASHED
 62
3
 10
363.032473672602240
 20
-175.022626432043690
 11
363.032473672602240
 21
-170.022626432043690
  0
LINE
  8
0
  6
DASHED
 62
3
 10
363.032473672602240
 20
-175.022626432043690
 11
363.542890520119950
 21
-175.022626432043690
  0
LINE
  8
0
  6
DASHED
 62
3
 10
363.032473672602240
 20
-170.022626432043690
 11
363.542890520119950
 21
-170.022626432043690
  0
LINE
  8
0
  6
CONTINUOUS
 62
4
 10
-214.531848367695370
 20
-142.240192105474530
 11
-212.372445152601590
 21
-142.240192105474530
  0
LINE
  8
0
  6
CONTINUOUS
 62
4
 10
-214.531848367695370
 20
-147.692572974913450
 11
-212.531848367695370
 21
-147.692572974913450
  0
LINE
  8
0
  6
CONTINUOUS
 62
4
 10
-214.531848367695370
 20
-146.330692639564180
 11
-212.531848367695370
 21
-146.330692639564180
  0
LINE
  8
0
  6
CONTINUOUS
 62
4
 10
-214.531848367695370
 20
-152.522626432043810
 11
-212.531848367695370
 21
-152.522626432043810
  0
ARC
  8
0
  6
CONTINUOUS
 62
3
 10
-211.531848367695370
 20
-137.522626432043810
 40
3.000000000000000
 50
90.000000000000000
 51
180.000000000000000
  0
LINE
  8
0
  6
CONTINUOUS
 62
3
 10
-214.531848367695370
 20
-137.522626432043810
 11
-214.531848367695370
 21
-172.522626432043810
  0
LINE
  8
0
  6
CONTINUOUS
 62
4
 10
-214.531848367695370
 20
-202.805060758613080
 11
-212.372445152601590
 21
-202.805060758613080
  0
LINE
  8
0
  6
CONTINUOUS
 62
4
 10
-214.531848367695370
 20
-197.352679889174170
 11
-212.531848367695370
 21
-197.352679889174170
  0
LINE
  8
0
  6
CONTINUOUS
 62
4
 10
-214.531848367695370
 20
-198.714560224523440
 11
-212.531848367695370
 21
-198.714560224523440
  0
LINE
  8
0
  6
CONTINUOUS
 62
4
 10
-214.531848367695370
 20
-192.522626432043810
 11
-212.531848367695370
 21
-192.522626432043810
  0
LINE
  8
0
  6
CONTINUOUS
 62
3
 10
-214.531848367695370
 20
-207.522626432043810
 11
-214.531848367695370
 21
-172.522626432043810
  0
LINE
  8
0
  6
CONTINUOUS
 62
3
 10
-139.531848367695490
 20
-141.022626432043810
 11
-210.531848367695370
 21
-141.022626432043810
  0
ARC
  8
0
  6
CONTINUOUS
 62
3
 10
-210.531848367695370
 20
-143.022626432043810
 40
2.000000000000000
 50
90.000000000000000
 51
180.000000000000000
  0
ARC
  8
0
  6
CONTINUOUS
 62
3
 10
-210.531848367695370
 20
-143.522626432043810
 40
1.000000000000000
 50
90.000000000000000
 51
180.000000000000000
  0
LINE
  8
0
  6
CONTINUOUS
 62
3
 10
-212.531848367695370
 20
-172.522626432043810
 11
-212.531848367695370
 21
-143.022626432043810
  0
LINE
  8
0
  6
CONTINUOUS
 62
3
 10
-211.531848367695370
 20
-143.522626432043810
 11
-211.531848367695600
 21
-172.522626432043810
  0
LINE
  8
0
  6
CONTINUOUS
 62
3
 10
-212.531848367695370
 20
-172.522626432043810
 11
-212.531848367695370
 21
-202.022626432043810
  0
LINE
  8
0
  6
CONTINUOUS
 62
3
 10
-211.531848367695370
 20
-201.522626432043810
 11
-211.531848367695600
 21
-172.522626432043810
  0
ARC
  8
0
  6
CONTINUOUS
 62
3
 10
-210.531848367695370
 20
-202.022626432043810
 40
2.000000000000000
 50
180.000000000000000
 51
270.000000000000000
  0
ARC
  8
0
  6
CONTINUOUS
 62
3
 10
-210.531848367695370
 20
-201.522626432043810
 40
1.000000000000000
 50
180.000000000000000
 51
270.000000000000000
  0
LINE
  8
0
  6
CONTINUOUS
 62
3
 10
-139.531848367695490
 20
-202.522626432043810
 11
-210.531848367695370
 21
-202.522626432043810
  0
LINE
  8
0
  6
CONTINUOUS
 62
3
 10
-139.531848367695490
 20
-204.022626432043810
 11
-210.531848367695370
 21
-204.022626432043810
  0
LINE
  8
0
  6
CONTINUOUS
 62
3
 10
-139.531848367695490
 20
-142.522626432043810
 11
-210.531848367695370
 21
-142.522626432043810
  0
ARC
  8
0
  6
CONTINUOUS
 62
3
 10
-139.531848367695490
 20
-143.022626432043810
 40
2.000000000000000
 50
0.000000000000000
 51
90.000000000000000
  0
ARC
  8
0
  6
CONTINUOUS
 62
3
 10
-139.531848367695490
 20
-143.522626432043810
 40
1.000000000000000
 50
0.000000000000000
 51
90.000000000000000
  0
LINE
  8
0
  6
CONTINUOUS
 62
3
 10
-138.531848367695490
 20
-143.522626432043810
 11
-138.531848367695490
 21
-172.522626432043810
  0
LINE
  8
0
  6
CONTINUOUS
 62
3
 10
-137.531848367695490
 20
-172.522626432043810
 11
-137.531848367695490
 21
-143.022626432043810
  0
LINE
  8
0
  6
CONTINUOUS
 62
3
 10
-137.531848367695490
 20
-172.522626432043810
 11
-137.531848367695490
 21
-202.022626432043810
  0
LINE
  8
0
  6
CONTINUOUS
 62
3
 10
-138.531848367695490
 20
-201.522626432043810
 11
-138.531848367695490
 21
-172.522626432043810
  0
ARC
  8
0
  6
CONTINUOUS
 62
3
 10
-139.531848367695490
 20
-202.022626432043810
 40
2.000000000000000
 50
270.000000000000000
 51
0.000000000000000
  0
ARC
  8
0
  6
CONTINUOUS
 62
3
 10
-139.531848367695490
 20
-201.522626432043810
 40
1.000000000000000
 50
270.000000000000000
 51
0.000000000000000
  0
LINE
  8
0
  6
CONTINUOUS
 62
3
 10
-517.897623260841210
 20
-128.735855126685120
 11
-521.964778710271730
 21
-124.668699677254520
  0
LINE
  8
0
  6
CONTINUOUS
 62
3
 10
-525.940993923383190
 20
-120.692484464143340
 11
-542.000947697013320
 21
-104.632530690513360
  0
TEXT
  8
0
  6
CONTINUOUS
 62
3
 10
-455.000061035156250
 20
222.372528076171880
 40
20.000000000000000
  1
S052
 50
0.000002504478167
 41
0.470000016689301
  7
STANDARD1
  0
TEXT
  8
0
  6
CONTINUOUS
 62
3
 10
-455.000061035156250
 20
199.772521972656250
 40
20.000000000000000
  1
三菱ギヤードモートル
 50
0.000002504478167
 41
0.625000000000000
  7
STANDARD1
  0
TEXT
  8
0
  6
CONTINUOUS
 62
3
 10
-455.000061035156250
 20
177.172531127929690
 40
20.000000000000000
  1
GM-SS
 50
0.000002504478167
 41
0.470000016689301
  7
STANDARD1
  0
TEXT
  8
0
  6
CONTINUOUS
 62
3
 10
-455.000061035156250
 20
154.572525024414060
 40
20.000000000000000
  1
0.4kW
 50
0.000002504478167
 41
0.470000016689301
  7
STANDARD1
  0
TEXT
  8
0
  6
CONTINUOUS
 62
3
 10
-455.000061035156250
 20
131.972534179687500
 40
20.000000000000000
  1
1/1200
 50
0.000002504478167
 41
0.470000016689301
  7
STANDARD1
  0
TEXT
  8
0
  6
CONTINUOUS
 62
3
 10
-455.000061035156250
 20
109.372528076171870
 40
20.000000000000000
  1
SCALE1/1
 50
0.000002504478167
 41
0.470000016689301
  7
STANDARD1
  0
LINE
  8
0
  6
CONTINUOUS
 62
3
 10
201.468151632322470
 20
149.977373567956190
 11
201.468151632322470
 21
153.477373567956190
  0
LINE
  8
0
  6
CONTINUOUS
 62
3
 10
196.468151632322470
 20
177.477373567956190
 11
196.468151632322470
 21
202.127373567956740
  0
LINE
  8
0
  6
CONTINUOUS
 62
3
 10
196.268151632322660
 20
202.477373567956190
 11
194.468151632322470
 21
202.477373567956190
  0
LINE
  8
0
  6
CONTINUOUS
 62
3
 10
198.468151632322470
 20
201.327373567955650
 11
199.027959253457880
 21
201.477373567956190
  0
LINE
  8
0
  6
CONTINUOUS
 62
3
 10
198.468151632322470
 20
201.327373567955650
 11
197.268151632322660
 21
201.327373567955650
  0
LINE
  8
0
  6
CONTINUOUS
 62
3
 10
196.468151632322470
 20
202.127373567956740
 11
196.468151632322470
 21
202.277373567956370
  0
ARC
  8
0
  6
CONTINUOUS
 62
3
 10
197.268151632322660
 20
202.127373567956740
 40
0.800000000000182
 50
180.000000000000000
 51
270.000000000000000
  0
LINE
  8
0
  6
CONTINUOUS
 62
3
 10
196.468151632322470
 20
202.277373567956370
 11
196.268151632322660
 21
202.477373567956190
  0
LINE
  8
0
  6
CONTINUOUS
 62
3
 10
196.468151632322470
 20
177.477373567956190
 11
196.468151632322470
 21
152.827373567955650
  0
LINE
  8
0
  6
CONTINUOUS
 62
3
 10
196.268151632322660
 20
152.477373567956190
 11
194.468151632322470
 21
152.477373567956190
  0
LINE
  8
0
  6
CONTINUOUS
 62
3
 10
198.468151632322470
 20
153.627373567956740
 11
199.027959253457880
 21
153.477373567956190
  0
LINE
  8
0
  6
CONTINUOUS
 62
3
 10
198.468151632322470
 20
153.627373567956740
 11
197.268151632322660
 21
153.627373567956740
  0
LINE
  8
0
  6
CONTINUOUS
 62
3
 10
196.468151632322470
 20
152.827373567955650
 11
196.468151632322470
 21
152.677373567956010
  0
ARC
  8
0
  6
CONTINUOUS
 62
3
 10
197.268151632322660
 20
152.827373567955650
 40
0.800000000001091
 50
90.000000000000000
 51
180.000000000000000
  0
LINE
  8
0
  6
CONTINUOUS
 62
3
 10
196.468151632322470
 20
152.677373567956010
 11
196.268151632322660
 21
152.477373567956190
  0
LINE
  8
0
  6
CONTINUOUS
 62
3
 10
271.068151632322840
 20
201.477373567956190
 11
199.027959253457880
 21
201.477373567956190
  0
LINE
  8
0
  6
CONTINUOUS
 62
3
 10
271.468151632322470
 20
177.477373567956190
 11
271.468151632322470
 21
201.077373567955650
  0
ARC
  8
0
  6
CONTINUOUS
 62
3
 10
271.068151632322840
 20
201.077373567955650
 40
0.399999999999636
 50
0.000000000000000
 51
90.000000000000000
  0
LINE
  8
0
  6
CONTINUOUS
 62
3
 10
271.468151632322470
 20
149.977373567956190
 11
201.468151632322470
 21
149.977373567956190
  0
LINE
  8
0
  6
CONTINUOUS
 62
3
 10
271.468151632322470
 20
177.477373567956190
 11
271.468151632322470
 21
149.977373567956190
  0
LINE
  8
0
  6
CONTINUOUS
 62
3
 10
271.068151632322840
 20
153.477373567956190
 11
199.027959253457880
 21
153.477373567956190
  0
ARC
  8
0
  6
CONTINUOUS
 62
3
 10
271.068151632322840
 20
153.877373567956740
 40
0.400000000000546
 50
270.000000000000000
 51
0.000000000000000
  0
ARC
  8
0
  6
CONTINUOUS
 62
3
 10
184.468151632322470
 20
44.804346199112615
 40
10.000000000000137
 50
271.000000000001760
 51
0.000000000000000
  0
ARC
  8
0
  6
CONTINUOUS
 62
3
 10
184.468151632322470
 20
310.150400936799770
 40
10.000000000000000
 50
0.000000000000000
 51
88.999999999998238
  0
LINE
  8
0
  6
CONTINUOUS
 62
3
 10
192.468151632322470
 20
177.477373567956190
 11
192.468151632322470
 21
85.985772716383281
  0
LINE
  8
0
  6
CONTINUOUS
 62
3
 10
192.468151632322470
 20
177.477373567956190
 11
192.468151632322470
 21
268.968974419529100
  0
ARC
  8
0
  6
CONTINUOUS
 62
3
 10
193.468151632322470
 20
132.477373567956190
 40
1.000000000000000
 50
90.000000000000000
 51
180.000000000000000
  0
ARC
  8
0
  6
CONTINUOUS
 62
3
 10
193.468151632322470
 20
222.477373567956190
 40
1.000000000000000
 50
180.000000000000000
 51
270.000000000000000
  0
CIRCLE
  8
0
  6
CONTINUOUS
 62
3
 10
176.468151632322470
 20
52.477373567955283
 40
7.500000000000000
  0
CIRCLE
  8
0
  6
CONTINUOUS
 62
3
 10
176.468151632322470
 20
302.477373567957100
 40
7.500000000000000
  0
LINE
  8
0
  6
DASHDOT
 62
4
 10
190.041876763488180
 20
52.477373567955283
 11
163.788441820824000
 21
52.477373567955283
  0
LINE
  8
0
  6
DASHDOT
 62
4
 10
190.041876763488180
 20
302.477373567957100
 11
163.788441820824000
 21
302.477373567957100
  0
LINE
  8
0
  6
DASHDOT
 62
4
 10
176.468151632322470
 20
38.466889047346513
 11
176.468151632322470
 21
67.573958222898682
  0
LINE
  8
0
  6
DASHDOT
 62
4
 10
176.468151632322470
 20
316.487858088565870
 11
176.468151632322470
 21
287.380788913013700
  0
LINE
  8
0
  6
CONTINUOUS
 62
3
 10
194.468151632322470
 20
177.477373567956190
 11
194.468151632322470
 21
44.804346199112615
  0
LINE
  8
0
  6
CONTINUOUS
 62
3
 10
194.468151632322470
 20
177.477373567956190
 11
194.468151632322470
 21
310.150400936799770
  0
ARC
  8
0
  6
CONTINUOUS
 62
3
 10
189.468151632322470
 20
85.985772716383281
 40
3.000000000000031
 50
328.589660490578640
 51
0.000000000000000
  0
ARC
  8
0
  6
CONTINUOUS
 62
3
 10
189.468151632322470
 20
268.968974419529100
 40
3.000000000000000
 50
0.000000000000000
 51
31.410339509421355
  0
ARC
  8
0
  6
CONTINUOUS
 62
3
 10
119.484697085153010
 20
128.721192331080370
 40
84.999999999999801
 50
321.431062075717310
 51
328.589660490586820
  0
ARC
  8
0
  6
CONTINUOUS
 62
3
 10
119.484697085153010
 20
226.233554804832010
 40
84.999999999999844
 50
31.410339509413163
 51
38.568937924282686
  0
ARC
  8
0
  6
CONTINUOUS
 62
3
 10
176.915159292156090
 20
52.477373567955283
 40
22.000000000000302
 50
91.000000000001762
 51
177.852183309238170
  0
ARC
  8
0
  6
CONTINUOUS
 62
3
 10
176.915159292156090
 20
302.477373567957100
 40
21.999999999999797
 50
182.147816690761830
 51
268.999999999998240
  0
ARC
  8
0
  6
CONTINUOUS
 62
3
 10
183.597101040949270
 20
77.597815496124667
 40
2.999999999999579
 50
270.999999999993240
 51
321.431062075717930
  0
ARC
  8
0
  6
CONTINUOUS
 62
3
 10
183.597101040949270
 20
277.356931639787720
 40
2.999999999999281
 50
38.568937924282025
 51
89.000000000006764
  0
LINE
  8
0
  6
CONTINUOUS
 62
3
 10
176.531206350535170
 20
74.474022861396179
 11
183.649458260260760
 21
74.598272410655909
  0
LINE
  8
0
  6
CONTINUOUS
 62
3
 10
176.531206350535170
 20
280.480724274516210
 11
183.649458260260760
 21
280.356474725256480
  0
ARC
  8
0
  6
CONTINUOUS
 62
3
 10
151.932722680995430
 20
53.414315919085084
 40
2.999999999999306
 50
293.310114391449990
 51
357.852183309233620
  0
ARC
  8
0
  6
CONTINUOUS
 62
3
 10
151.932722680995430
 20
301.540431216827300
 40
3.000000000000230
 50
2.147816690766376
 51
66.689885608550057
  0
ARC
  8
0
  6
CONTINUOUS
 62
3
 10
119.484697085153010
 20
128.721192331080370
 40
84.999999999999758
 50
271.000000000000230
 51
293.310114391448960
  0
ARC
  8
0
  6
CONTINUOUS
 62
3
 10
119.484697085153010
 20
226.233554804832010
 40
84.999999999999162
 50
66.689885608551080
 51
88.999999999999758
  0
LINE
  8
0
  6
CONTINUOUS
 62
3
 10
193.468151632322470
 20
133.477373567956190
 11
194.468151632322470
 21
133.477373567956190
  0
LINE
  8
0
  6
CONTINUOUS
 62
3
 10
193.468151632322470
 20
221.477373567956190
 11
194.468151632322470
 21
221.477373567956190
  0
ARC
  8
0
  6
CONTINUOUS
 62
3
 10
-332.936600388958370
 20
-322.022626432039600
 40
3.000000000000000
 50
90.000000000000000
 51
135.930628020448210
  0
ARC
  8
0
  6
CONTINUOUS
 62
3
 10
-340.060599423791020
 20
-334.941387051043080
 40
7.999999999999903
 50
126.828805455883280
 51
180.000000000000000
  0
ARC
  8
0
  6
CONTINUOUS
 62
3
 10
-394.008947571463750
 20
-262.902677094954130
 40
82.000000000000171
 50
306.828805455884380
 51
339.539441936655010
  0
ARC
  8
0
  6
CONTINUOUS
 62
3
 10
-311.560599423791020
 20
-293.664177183866400
 40
6.000000000000000
 50
0.000000000000000
 51
159.539441936656910
  0
ARC
  8
0
  6
CONTINUOUS
 62
3
 10
-548.184598458624580
 20
-322.022626432039600
 40
3.000000000000119
 50
44.069371979551811
 51
90.000000000000000
  0
ARC
  8
0
  6
CONTINUOUS
 62
3
 10
-569.560599423791930
 20
-293.664177183866400
 40
6.000000000000107
 50
20.460558063343086
 51
180.000000000000000
  0
ARC
  8
0
  6
CONTINUOUS
 62
3
 10
-541.060599423791930
 20
-334.941387051043080
 40
8.000000000000000
 50
0.000000000000000
 51
53.171194544116702
  0
ARC
  8
0
  6
CONTINUOUS
 62
3
 10
-487.112251276119200
 20
-262.902677094954130
 40
81.999999999999886
 50
200.460558063344960
 51
233.171194544115650
  0
ARC
  8
0
  6
CONTINUOUS
 62
3
 10
-465.560599423791930
 20
-176.660797920250960
 40
110.000000000000040
 50
92.924523789728156
 51
180.000000000000000
  0
ARC
  8
0
  6
CONTINUOUS
 62
3
 10
-415.560599423791020
 20
-176.660797920250960
 40
110.000000000000000
 50
0.000000000000000
 51
87.075476210271844
  0
ARC
  8
0
  6
CONTINUOUS
 62
3
 10
-350.060599423791470
 20
-341.022626432039600
 40
2.000000000000000
 50
0.000000000000000
 51
90.000000000000000
  0
ARC
  8
0
  6
CONTINUOUS
 62
3
 10
-531.060599423791930
 20
-341.022626432039600
 40
2.000000000000000
 50
90.000000000000000
 51
180.000000000000000
  0
ARC
  8
0
  6
CONTINUOUS
 62
3
 10
-578.560599423791930
 20
-316.022626432039600
 40
3.000000000000000
 50
270.000000000000000
 51
0.000000000000000
  0
LINE
  8
0
  6
CONTINUOUS
 62
3
 10
-440.560599423791470
 20
-339.022626432039600
 11
-350.060599423791470
 21
-339.022626432039600
  0
LINE
  8
0
  6
CONTINUOUS
 62
3
 10
-348.060599423791470
 20
-341.022626432039600
 11
-298.060599423791470
 21
-341.022626432039600
  0
LINE
  8
0
  6
CONTINUOUS
 62
3
 10
-348.060599423791470
 20
-334.941387051043080
 11
-348.060599423791470
 21
-341.022626432039600
  0
LINE
  8
0
  6
CONTINUOUS
 62
3
 10
-548.184598458624580
 20
-319.022626432039600
 11
-580.060599423791930
 21
-319.022626432039600
  0
LINE
  8
0
  6
DASHDOT
 62
4
 10
-565.560599423791930
 20
-314.809794057466770
 11
-565.560599423791930
 21
-345.654564641573530
  0
LINE
  8
0
  6
CONTINUOUS
 62
3
 10
-533.060599423791930
 20
-334.941387051043080
 11
-533.060599423791930
 21
-341.022626432039600
  0
LINE
  8
0
  6
CONTINUOUS
 62
3
 10
-533.060599423791930
 20
-341.022626432039600
 11
-583.060599423791930
 21
-341.022626432039600
  0
LINE
  8
0
  6
CONTINUOUS
 62
3
 10
-440.560599423791470
 20
-339.022626432039600
 11
-531.060599423791930
 21
-339.022626432039600
  0
LINE
  8
0
  6
CONTINUOUS
 62
3
 10
-583.060599423791930
 20
-322.022626432039600
 11
-583.060599423791930
 21
-341.022626432039600
  0
ARC
  8
0
  6
CONTINUOUS
 62
3
 10
-580.060599423791930
 20
-322.022626432039600
 40
3.000000000000000
 50
90.000000000000000
 51
180.000000000000000
  0
LINE
  8
0
  6
CONTINUOUS
 62
3
 10
-332.936600388958370
 20
-319.022626432039600
 11
-301.060599423791470
 21
-319.022626432039600
  0
ARC
  8
0
  6
CONTINUOUS
 62
3
 10
-301.060599423791470
 20
-322.022626432039600
 40
3.000000000000000
 50
0.000000000000000
 51
90.000000000000000
  0
LINE
  8
0
  6
DASHDOT
 62
4
 10
-315.560599423791470
 20
-314.809794057466770
 11
-315.560599423791470
 21
-345.654564641573530
  0
LINE
  8
0
  6
CONTINUOUS
 62
3
 10
-298.060599423791470
 20
-322.022626432039600
 11
-298.060599423791470
 21
-341.022626432039600
  0
LINE
  8
0
  6
CONTINUOUS
 62
3
 10
-575.560599423791930
 20
-176.660797920250960
 11
-575.560599423791930
 21
-316.022626432039600
  0
LINE
  8
0
  6
CONTINUOUS
 62
3
 10
-305.560599423791470
 20
-176.660797920250960
 11
-305.560599423791470
 21
-316.022626432039600
  0
ARC
  8
0
  6
CONTINUOUS
 62
3
 10
-302.560599423791470
 20
-316.022626432039600
 40
3.000000000000000
 50
180.000000000000000
 51
270.000000000000000
  0
LINE
  8
0
  6
DASHDOT
 62
4
 10
-471.401825970693610
 20
-171.022626432040060
 11
-409.008400987630010
 21
-171.022626432040060
  0
LINE
  8
0
  6
DASHDOT
 62
4
 10
-440.560599423791470
 20
-24.405239262266036
 11
-440.560599423791470
 21
-348.972416479065600
  0
CIRCLE
  8
0
  6
CONTINUOUS
 62
3
 10
-440.560599423790560
 20
-51.022626432039829
 40
10.000000000000000
  0
LINE
  8
0
  6
DASHDOT
 62
4
 10
-417.392686424909020
 20
-51.022626432039829
 11
-464.415200326443710
 21
-51.022626432039829
  0
LINE
  8
0
  6
CONTINUOUS
 62
3
 10
-430.060599423790560
 20
-31.022626432039829
 11
-451.060599423790560
 21
-31.022626432039829
  0
LINE
  8
0
  6
CONTINUOUS
 62
3
 10
-461.060599423790560
 20
-41.022626432039829
 11
-461.060599423790560
 21
-66.372937029968739
  0
ARC
  8
0
  6
CONTINUOUS
 62
3
 10
-451.060599423790560
 20
-41.022626432039829
 40
10.000000000000000
 50
90.000000000000000
 51
180.000000000000000
  0
LINE
  8
0
  6
CONTINUOUS
 62
3
 10
-420.060599423790560
 20
-41.022626432039829
 11
-420.060599423790560
 21
-66.372937029968739
  0
ARC
  8
0
  6
CONTINUOUS
 62
3
 10
-430.060599423790560
 20
-41.022626432039829
 40
10.000000000000000
 50
0.000000000000000
 51
90.000000000000000
  0
ARC
  8
0
  6
CONTINUOUS
 62
3
 10
-440.560599423791470
 20
-666.022627244933460
 40
600.000000000000000
 50
91.957986872393320
 51
92.924523789728269
  0
ARC
  8
0
  6
CONTINUOUS
 62
3
 10
-440.560599423791470
 20
-666.022627244933460
 40
599.999999999999770
 50
87.075476210271731
 51
88.042013127606680
  0
LINE
  8
0
  6
CONTINUOUS
 62
3
 10
-461.060599423791470
 20
-66.372937842862598
 11
-461.060599423791470
 21
-88.022626432040056
  0
LINE
  8
0
  6
CONTINUOUS
 62
3
 10
-420.060599423791470
 20
-66.372937842862598
 11
-420.060599423791470
 21
-88.022626432040056
  0
LINE
  8
0
  6
CONTINUOUS
 62
3
 10
-318.560599423791020
 20
-228.022626432039600
 11
-309.191420029816750
 21
-228.022626432039600
  0
ARC
  8
0
  6
CONTINUOUS
 62
3
 10
-309.191420029816750
 20
-231.022626432039600
 40
2.999999999999921
 50
345.029598694536160
 51
90.000000000000000
  0
ARC
  8
0
  6
CONTINUOUS
 62
3
 10
-318.560599423791020
 20
-215.022626432039600
 40
13.000000000000000
 50
90.000000000000000
 51
270.000000000000000
  0
LINE
  8
0
  6
CONTINUOUS
 62
3
 10
-318.560599423791020
 20
-202.022626432039600
 11
-308.560599423791020
 21
-202.022626432039600
  0
ARC
  8
0
  6
CONTINUOUS
 62
3
 10
-308.560599423791020
 20
-199.022626432039600
 40
3.000000000000000
 50
270.000000000000000
 51
0.000000000000000
  0
ARC
  8
0
  6
CONTINUOUS
 62
3
 10
-571.929778817766190
 20
-231.022626432039600
 40
3.000000000000000
 50
90.000000000000000
 51
194.970401305463840
  0
ARC
  8
0
  6
CONTINUOUS
 62
3
 10
-572.560599423791930
 20
-199.022626432039600
 40
3.000000000000000
 50
180.000000000000000
 51
270.000000000000000
  0
ARC
  8
0
  6
CONTINUOUS
 62
3
 10
-562.560599423791930
 20
-215.022626432039600
 40
13.000000000000000
 50
270.000000000000000
 51
90.000000000000000
  0
LINE
  8
0
  6
CONTINUOUS
 62
3
 10
-562.560599423791930
 20
-202.022626432039600
 11
-572.560599423791930
 21
-202.022626432039600
  0
LINE
  8
0
  6
CONTINUOUS
 62
3
 10
-562.560599423791930
 20
-228.022626432039600
 11
-571.929778817766190
 21
-228.022626432039600
  0
ARC
  8
0
  6
CONTINUOUS
 62
3
 10
-335.167108266289010
 20
-304.395302309369640
 40
5.000000000000201
 50
225.000000000000000
 51
324.810226266870360
  0
ARC
  8
0
  6
CONTINUOUS
 62
3
 10
-346.553552579099460
 20
-317.050488556902000
 40
4.999999999999826
 50
311.231476075720650
 51
45.000000000003688
  0
ARC
  8
0
  6
CONTINUOUS
 62
3
 10
-545.954090581293940
 20
-304.395302309369870
 40
4.999999999999545
 50
215.189773733130520
 51
315.000000000001820
  0
ARC
  8
0
  6
CONTINUOUS
 62
3
 10
-534.567646268483490
 20
-317.050488556902000
 40
4.999999999999718
 50
134.999999999998150
 51
228.768523924279320
  0
ARC
  8
0
  6
CONTINUOUS
 62
3
 10
-394.008947571464200
 20
-262.902677094954130
 40
77.000000000000085
 50
305.114466930115950
 51
340.000000000000340
  0
ARC
  8
0
  6
CONTINUOUS
 62
3
 10
-345.115943476213260
 20
-332.433060026028100
 40
7.999999999999969
 50
125.114466930115760
 51
175.505843472000290
  0
ARC
  8
0
  6
CONTINUOUS
 62
3
 10
-363.060599423791470
 20
-331.022626432039600
 40
10.000000000000000
 50
306.869897645843990
 51
355.505843472000610
  0
ARC
  8
0
  6
CONTINUOUS
 62
3
 10
-518.060599423791470
 20
-331.022626432039600
 40
9.999999999999778
 50
184.494156527999370
 51
233.130102354155980
  0
ARC
  8
0
  6
CONTINUOUS
 62
3
 10
-536.005255371369690
 20
-332.433060026028100
 40
8.000000000000373
 50
4.494156527999717
 51
54.885533069884232
  0
ARC
  8
0
  6
CONTINUOUS
 62
3
 10
-487.112251276118740
 20
-262.902677094954130
 40
76.999999999999844
 50
199.999999999999770
 51
234.885533069884020
  0
ARC
  8
0
  6
CONTINUOUS
 62
3
 10
-504.301772544796450
 20
-286.784614833215640
 40
4.999999999999702
 50
28.402451678796261
 51
135.000000000001820
  0
ARC
  8
0
  6
CONTINUOUS
 62
3
 10
-394.008947571464200
 20
-262.902677094954130
 40
43.999999999999915
 50
228.360992047548710
 51
319.912288498426220
  0
ARC
  8
0
  6
CONTINUOUS
 62
3
 10
-394.008947571464200
 20
-262.902677094954130
 40
44.000000000000071
 50
319.912288498426220
 51
33.109776708315003
  0
ARC
  8
0
  6
CONTINUOUS
 62
3
 10
-512.762325134315010
 20
-271.203536862391390
 40
5.000000000000041
 50
315.000000000001820
 51
38.492496408252435
  0
ARC
  8
0
  6
CONTINUOUS
 62
3
 10
-500.741509854143490
 20
-138.820900721517210
 40
5.000000000000201
 50
225.000000000000000
 51
228.365633755026040
  0
ARC
  8
0
  6
CONTINUOUS
 62
3
 10
-380.379688993439460
 20
-138.820900721517210
 40
4.999999999999959
 50
312.239175315564640
 51
315.000000000000000
  0
ARC
  8
0
  6
CONTINUOUS
 62
3
 10
-352.965297096001680
 20
-236.136677101528330
 40
5.000000000000142
 50
171.091670649431510
 51
213.109776708314170
  0
ARC
  8
0
  6
CONTINUOUS
 62
3
 10
-426.566271026399360
 20
-299.522626432040060
 40
5.000000000000199
 50
48.360992047546546
 51
90.000000000000000
  0
ARC
  8
0
  6
CONTINUOUS
 62
3
 10
-507.997552037957350
 20
-276.636013797449660
 40
5.000000000000277
 50
11.617396360404429
 51
44.014880135744747
  0
ARC
  8
0
  6
CONTINUOUS
 62
3
 10
-471.755528398706930
 20
-269.185126432039970
 40
31.999999999999829
 50
191.617396360406130
 51
304.921969447764520
  0
ARC
  8
0
  6
CONTINUOUS
 62
3
 10
-450.574496937751290
 20
-299.522626432040060
 40
5.000000000000000
 50
90.000000000000000
 51
124.921969447764190
  0
ARC
  8
0
  6
CONTINUOUS
 62
3
 10
-362.868884763282720
 20
-300.735156372718960
 40
5.000000000000041
 50
44.999999999998167
 51
129.457930749405760
  0
ARC
  8
0
  6
CONTINUOUS
 62
3
 10
-351.789576514271400
 20
-287.772834061387930
 40
4.999999999999973
 50
149.498945295270290
 51
225.000000000003690
  0
ARC
  8
0
  6
CONTINUOUS
 62
3
 10
-555.560599423791930
 20
-226.429872252162230
 40
20.000000000000000
 50
180.000000000000000
 51
194.970401305464950
  0
ARC
  8
0
  6
CONTINUOUS
 62
3
 10
-325.560599423791470
 20
-226.429872252162230
 40
19.999999999999925
 50
345.029598694534740
 51
0.000000000000000
  0
LINE
  8
0
  6
CONTINUOUS
 62
3
 10
-507.837306450729330
 20
-283.249080927282990
 11
-538.103180174415910
 21
-313.514954650969340
  0
LINE
  8
0
  6
CONTINUOUS
 62
3
 10
-509.226791228382130
 20
-274.739070768324040
 11
-542.418556675361060
 21
-307.930836215302520
  0
LINE
  8
0
  6
CONTINUOUS
 62
3
 10
-504.277043760076370
 20
-142.356434627450080
 11
-506.031328118432610
 21
-140.602150269093780
  0
LINE
  8
0
  6
CONTINUOUS
 62
3
 10
-528.248589341071810
 20
-128.284383983066390
 11
-546.188801530408230
 21
-110.344171793730190
  0
LINE
  8
0
  6
CONTINUOUS
 62
3
 10
-367.110851955488560
 20
-142.522626432043580
 11
-334.932397317174720
 21
-110.344171793730190
  0
LINE
  8
0
  6
CONTINUOUS
 62
3
 10
-376.844155087506580
 20
-142.356434627450080
 11
-339.120251150569170
 21
-104.632530690513130
  0
LINE
  8
0
  6
CONTINUOUS
 62
3
 10
-359.333350857349840
 20
-297.199622466786310
 11
-343.018018673167030
 21
-313.514954650969120
  0
LINE
  8
0
  6
CONTINUOUS
 62
3
 10
-355.325110420203830
 20
-291.308367967320810
 11
-338.702642172221890
 21
-307.930836215302520
  0
LINE
  8
0
  6
CONTINUOUS
 62
3
 10
-574.881787462492180
 20
-231.596272621200680
 11
-559.468583076634100
 21
-289.238228131030270
  0
LINE
  8
0
  6
CONTINUOUS
 62
3
 10
-306.239411385091670
 20
-231.596272621200680
 11
-321.652615770949750
 21
-289.238228131030270
  0
LINE
  8
0
  6
CONTINUOUS
 62
3
 10
-437.060599423791470
 20
-96.022626432040056
 11
-437.060599423791470
 21
-112.543003037509490
  0
LINE
  8
0
  6
CONTINUOUS
 62
3
 10
-444.060599423791470
 20
-95.022626432040056
 11
-444.060599423791470
 21
-112.543003037509490
  0
ARC
  8
0
  6
CONTINUOUS
 62
3
 10
-342.655785056502050
 20
-101.096996784580480
 40
5.000000000000041
 50
315.000000000001820
 51
46.026024481648633
  0
ARC
  8
0
  6
CONTINUOUS
 62
3
 10
-458.060599423791470
 20
-88.022626432040056
 40
3.000000000000000
 50
180.000000000000000
 51
270.000000000000000
  0
ARC
  8
0
  6
CONTINUOUS
 62
3
 10
-423.060599423791470
 20
-88.022626432040056
 40
3.000000000000000
 50
270.000000000000000
 51
0.000000000000000
  0
ARC
  8
0
  6
CONTINUOUS
 62
3
 10
-432.060599423791470
 20
-96.022626432040056
 40
5.000000000000000
 50
90.000000000000000
 51
180.000000000000000
  0
ARC
  8
0
  6
CONTINUOUS
 62
3
 10
-449.060599423791470
 20
-96.022626432040056
 40
5.000000000000000
 50
0.000000000000000
 51
90.000000000000000
  0
LINE
  8
0
  6
CONTINUOUS
 62
3
 10
-458.060599423791470
 20
-91.022626432040056
 11
-440.560599423791470
 21
-91.022626432040056
  0
LINE
  8
0
  6
CONTINUOUS
 62
3
 10
-440.560599423791470
 20
-91.022626432040056
 11
-423.060599423791470
 21
-91.022626432040056
  0
ARC
  8
0
  6
CONTINUOUS
 62
3
 10
-331.396863411241840
 20
-113.879705699663070
 40
5.000000000000055
 50
36.720727734715837
 51
135.000000000000000
  0
ARC
  8
0
  6
CONTINUOUS
 62
3
 10
-538.465413791080890
 20
-101.096996784580480
 40
4.999999999999923
 50
133.973975518351350
 51
225.000000000003690
  0
ARC
  8
0
  6
CONTINUOUS
 62
3
 10
-549.724335436341110
 20
-113.879705699663070
 40
5.000000000000201
 50
45.000000000000000
 51
143.279272265286270
  0
INSERT
  8
0
  2
SYM13
 10
-490.560599423791470
 20
-80.022627244933233
 41
-1.000000000000000
  0
INSERT
  8
0
  2
SYM14
 10
-451.060599423791470
 20
-79.022626432040056
 41
-1.000000000000000
  0
INSERT
  8
0
  2
SYM15
 10
-518.060599423791020
 20
-331.022626432039600
 41
-1.000000000000000
  0
INSERT
  8
0
  2
SYM16
 10
-562.560599423791930
 20
-239.022626432039830
 41
-1.000000000000000
  0
INSERT
  8
0
  2
SYM17
 10
-561.560599423791470
 20
-149.022627244933230
 41
-1.000000000000000
  0
INSERT
  8
0
  2
SYM18
 10
-433.060599423791470
 20
-330.022626432039600
  0
INSERT
  8
0
  2
SYM19
 10
-363.060599423791470
 20
-331.022626432039600
  0
INSERT
  8
0
  2
SYM20
 10
-318.560599423791020
 20
-239.022626432039600
  0
INSERT
  8
0
  2
SYM21
 10
-319.560599423791470
 20
-149.022627244933010
  0
INSERT
  8
0
  2
SYM22
 10
-390.560599423791470
 20
-80.022627244933233
  0
INSERT
  8
0
  2
SYM23
 10
-430.060599423791470
 20
-79.022626432040056
  0
ARC
  8
0
  6
CONTINUOUS
 62
3
 10
-501.481973405442890
 20
-257.291797509418980
 40
3.000000000000123
 50
217.216305150620570
 51
305.655769637476740
  0
ARC
  8
0
  6
CONTINUOUS
 62
3
 10
-486.829770501170290
 20
-271.944000413691470
 40
2.999999999999963
 50
144.344230362521470
 51
232.783694849374170
  0
ARC
  8
0
  6
CONTINUOUS
 62
3
 10
-394.291428346412660
 20
-271.944000413691470
 40
3.000000000000090
 50
307.216305150625090
 51
35.655769637478542
  0
ARC
  8
0
  6
CONTINUOUS
 62
3
 10
-379.639225442140060
 20
-257.291797509418980
 40
2.999999999999897
 50
234.344230362523230
 51
322.783694849380250
  0
ARC
  8
0
  6
CONTINUOUS
 62
3
 10
-495.361374965749060
 20
-265.823401973997420
 40
7.500000000000311
 50
324.344230362523150
 51
125.655769637477660
  0
ARC
  8
0
  6
CONTINUOUS
 62
3
 10
-385.759823881833880
 20
-265.823401973997420
 40
7.499999999999967
 50
54.344230362522332
 51
215.655769637476880
  0
ARC
  8
0
  6
CONTINUOUS
 62
3
 10
-466.060599423791470
 20
-249.307741032887180
 40
3.000000000000000
 50
0.000000000000000
 51
56.334193595323846
  0
ARC
  8
0
  6
CONTINUOUS
 62
3
 10
-455.060599423791470
 20
-254.677523064605790
 40
2.999999999999956
 50
71.626061996671027
 51
180.000000000000000
  0
ARC
  8
0
  6
CONTINUOUS
 62
3
 10
-426.060599423791470
 20
-254.677523064605790
 40
3.000000000000000
 50
0.000000000000000
 51
108.373938003328970
  0
ARC
  8
0
  6
CONTINUOUS
 62
3
 10
-415.060599423791470
 20
-249.307741032887180
 40
3.000000000000062
 50
123.665806404676170
 51
180.000000000000000
  0
ARC
  8
0
  6
CONTINUOUS
 62
3
 10
-440.560599423791470
 20
-211.022626432040060
 40
43.000000000000021
 50
206.245931860254220
 51
333.754068139745750
  0
ARC
  8
0
  6
CONTINUOUS
 62
3
 10
-466.060599423791470
 20
-286.522626432040060
 40
3.000000000000000
 50
270.000000000000000
 51
0.000000000000000
  0
ARC
  8
0
  6
CONTINUOUS
 62
3
 10
-455.060599423791470
 20
-286.522626432040060
 40
3.000000000000000
 50
180.000000000000000
 51
270.000000000000000
  0
ARC
  8
0
  6
CONTINUOUS
 62
3
 10
-426.060599423791470
 20
-286.522626432040060
 40
3.000000000000000
 50
270.000000000000000
 51
0.000000000000000
  0
ARC
  8
0
  6
CONTINUOUS
 62
3
 10
-415.060599423791470
 20
-286.522626432040060
 40
3.000000000000000
 50
180.000000000000000
 51
270.000000000000000
  0
ARC
  8
0
  6
CONTINUOUS
 62
3
 10
-440.560599423791470
 20
-211.022626432040060
 40
26.999999999999996
 50
231.132316163394620
 51
270.000000000000000
  0
ARC
  8
0
  6
CONTINUOUS
 62
3
 10
-440.560599423791470
 20
-211.022626432040060
 40
26.999999999999943
 50
270.000000000000000
 51
308.867683836605350
  0
LINE
  8
0
  6
CONTINUOUS
 62
3
 10
-418.060599423791470
 20
-249.307741032887180
 11
-418.060599423791470
 21
-286.522626432040060
  0
LINE
  8
0
  6
CONTINUOUS
 62
3
 10
-423.060599423791470
 20
-254.677523064605790
 11
-423.060599423791470
 21
-286.522626432040060
  0
LINE
  8
0
  6
CONTINUOUS
 62
3
 10
-458.060599423791470
 20
-254.677523064605790
 11
-458.060599423791470
 21
-286.522626432040060
  0
LINE
  8
0
  6
CONTINUOUS
 62
3
 10
-463.060599423791470
 20
-249.307741032887180
 11
-463.060599423791470
 21
-286.522626432040060
  0
ARC
  8
0
  6
CONTINUOUS
 62
3
 10
-454.060599423791470
 20
-197.522626432040060
 40
70.000000000000014
 50
136.278229842815310
 51
136.766765190805440
  0
ARC
  8
0
  6
CONTINUOUS
 62
3
 10
-454.060599423791470
 20
-224.522626432040060
 40
70.000000000000000
 50
180.000000000000000
 51
270.000000000000000
  0
ARC
  8
0
  6
CONTINUOUS
 62
3
 10
-427.060599423791470
 20
-224.522626432040060
 40
70.000000000000000
 50
270.000000000000000
 51
0.000000000000000
  0
LINE
  8
0
  6
CONTINUOUS
 62
3
 10
-524.060599423791470
 20
-207.287095450455180
 11
-524.060599423791470
 21
-224.522626432040060
  0
LINE
  8
0
  6
CONTINUOUS
 62
3
 10
-427.060599423791470
 20
-294.522626432040060
 11
-454.060599423791470
 21
-294.522626432040060
  0
LINE
  8
0
  6
CONTINUOUS
 62
3
 10
-357.060599423791470
 20
-202.522626432043350
 11
-357.060599423791470
 21
-224.522626432040060
  0
LINE
  8
0
  6
DASHDOT
 62
4
 10
-593.561584358598340
 20
-172.522626432043810
 11
-292.046530936666390
 21
-172.522626432043810
  0
INSERT
  8
0
  2
SYM24
 10
-385.759823881833880
 20
-265.823401973997360
  0
INSERT
  8
0
  2
SYM24
 10
-495.361374965749060
 20
-265.823401973997360
  0
INSERT
  8
0
  2
SYM25
 10
-528.005421630134830
 20
-213.441583043304260
 41
1.000000000000000
 42
1.000000000000000
 43
1.000000000000000
 50
357.137594773886350
  0
LINE
  8
0
  6
CONTINUOUS
 62
3
 10
-521.563469044372370
 20
-116.642506359263620
 11
-526.657105972649330
 21
-218.515244924804390
  0
LINE
  8
0
  6
CONTINUOUS
 62
3
 10
-526.657105972649330
 20
-218.515244924804390
 11
-528.255109714853920
 21
-218.435344737693410
  0
LINE
  8
0
  6
CONTINUOUS
 62
3
 10
-523.161472786576950
 20
-116.562606172153430
 11
-528.255109714853920
 21
-218.435344737693410
  0
ARC
  8
0
  6
CONTINUOUS
 62
3
 10
-524.279101888427480
 20
-119.310221768398260
 40
1.299999237060474
 50
87.137594090651831
 51
160.536063666412870
  0
ARC
  8
0
  6
CONTINUOUS
 62
3
 10
-524.498827479179450
 20
-123.704733583435990
 40
1.299999237060493
 50
193.739143184211430
 51
267.137612759980240
  0
LINE
  8
0
  6
CONTINUOUS
 62
3
 10
-523.236379211992240
 20
-118.060734680470090
 11
-524.214183024499790
 21
-118.011844489844740
  0
LINE
  8
0
  6
CONTINUOUS
 62
3
 10
-523.585942530599370
 20
-125.052001052614960
 11
-524.563746343107140
 21
-125.003110861989620
  0
LINE
  8
0
  6
CONTINUOUS
 62
3
 10
-523.236379211992240
 20
-118.060734680470090
 11
-523.585942530599370
 21
-125.052001052614960
  0
LINE
  8
0
  6
CONTINUOUS
 62
3
 10
-523.236379211992240
 20
-118.060734680470090
 11
-523.585942530599370
 21
-125.052001052614960
  0
POINT
  8
0
  6
CONTINUOUS
 62
3
 10
-523.411160871295810
 20
-121.556367866542470
  0
ARC
  8
0
  6
CONTINUOUS
 62
3
 10
-517.019146283471400
 20
-121.875968595933720
 40
9.000000000000060
 50
160.536063666407810
 51
193.739143184213500
  0
LINE
  8
0
  6
CONTINUOUS
 62
3
 10
-523.161472786576950
 20
-116.562606172153430
 11
-521.563469044372370
 21
-116.642506359263620
  0
ARC
  8
0
  6
CONTINUOUS
 62
3
 10
-523.860599423791430
 20
-146.565126432043830
 40
18.799999999999933
 50
144.191373186504250
 51
174.275189547776390
  0
ARC
  8
0
  6
CONTINUOUS
 62
3
 10
-523.860599423791430
 20
-146.565126432043830
 40
18.800000000000036
 50
94.873974813842736
 51
144.191373186504250
  0
LINE
  8
0
  6
CONTINUOUS
 62
3
 10
-546.556858775412370
 20
-184.490313464462820
 11
-542.566833837756350
 21
-144.689814711345550
  0
ARC
  8
0
  6
CONTINUOUS
 62
3
 10
-529.787065255123710
 20
-209.024486754087320
 40
2.000000000000154
 50
357.137594773887600
 51
80.083463391767268
  0
LINE
  8
0
  6
CONTINUOUS
 62
3
 10
-522.362470915474660
 20
-116.602556265708580
 11
-527.456107843751620
 21
-218.475294831248680
  0
ARC
  8
0
  6
CONTINUOUS
 62
3
 10
-524.194052157407900
 20
-209.304137408973130
 40
1.999999999999962
 50
94.191726156001650
 51
177.137594773887290
  0
ARC
  8
0
  6
CONTINUOUS
 62
3
 10
-525.627857887420300
 20
-125.840339400020290
 40
1.999999999999928
 50
274.873974813840960
 51
357.137594773887320
  0
ARC
  8
0
  6
CONTINUOUS
 62
3
 10
-520.034844789704490
 20
-126.119990054906110
 40
1.999999999999927
 50
177.137594773887290
 51
259.401214733934010
  0
ARC
  8
0
  6
CONTINUOUS
 62
3
 10
-525.860599423791430
 20
-186.565126432043830
 40
20.799999999999986
 50
174.275189547776620
 51
205.640070215894870
  0
ARC
  8
0
  6
CONTINUOUS
 62
3
 10
-525.860599423791430
 20
-186.565126432043830
 40
20.799999999999926
 50
205.640070215894870
 51
260.083463391769440
  0
ARC
  8
0
  6
CONTINUOUS
 62
3
 10
-525.860599423791430
 20
-186.565126432043830
 40
20.799999999999986
 50
174.275189547776620
 51
205.640070215894870
  0
ARC
  8
0
  6
CONTINUOUS
 62
3
 10
-523.860599423791430
 20
-146.565126432043830
 40
18.799999999999955
 50
0.000000000000000
 51
79.401214733933941
  0
POINT
  8
0
  6
DASHDOT
 62
4
 10
-505.060599423791470
 20
-172.536356925169800
  0
POINT
  8
0
  6
DASHDOT
 62
4
 10
-505.060599423791470
 20
-172.536356925169800
  0
LINE
  8
0
  6
CONTINUOUS
 62
3
 10
-505.060599423791470
 20
-155.192017671818410
 11
-505.060599423791470
 21
-146.565126432043830
  0
ARC
  8
0
  6
CONTINUOUS
 62
3
 10
-525.860599423791430
 20
-186.565126432043830
 40
20.800000000000082
 50
274.191726156007460
 51
354.952683218987430
  0
ARC
  8
0
  6
CONTINUOUS
 62
4
 10
-440.560599423791250
 20
68.077373567956101
 40
289.396999999999820
 50
262.102011327572200
 51
270.000000000000000
  0
ARC
  8
0
  6
CONTINUOUS
 62
4
 10
-479.502117379173570
 20
-212.631403972630550
 40
6.000000000000049
 50
225.000000000003070
 51
262.102011327574360
  0
LINE
  8
0
  6
CONTINUOUS
 62
4
 10
-483.744758066292660
 20
-216.874044659750100
 11
-488.320823458931270
 21
-212.297979267111490
  0
ARC
  8
0
  6
CONTINUOUS
 62
4
 10
-477.433500349001860
 20
-201.410656157182070
 40
15.397000000000052
 50
186.051985358668840
 51
225.000000000000000
  0
ARC
  8
0
  6
CONTINUOUS
 62
4
 10
-204.960599423791280
 20
-172.522626432043810
 40
289.397000000000220
 50
180.000000000000000
 51
186.051985358668500
  0
ARC
  8
0
  6
CONTINUOUS
 62
4
 10
-440.560599423791470
 20
68.077373567956101
 40
289.396999999999930
 50
270.000000000000000
 51
277.897988672427800
  0
ARC
  8
0
  6
CONTINUOUS
 62
4
 10
-401.619081468409150
 20
-212.631403972630550
 40
5.999999999999923
 50
277.897988672425640
 51
314.999999999996870
  0
LINE
  8
0
  6
CONTINUOUS
 62
4
 10
-397.376440781290060
 20
-216.874044659750100
 11
-392.800375388651450
 21
-212.297979267111490
  0
ARC
  8
0
  6
CONTINUOUS
 62
4
 10
-403.687698498580860
 20
-201.410656157182070
 40
15.396999999999876
 50
315.000000000000000
 51
353.948014641331160
  0
ARC
  8
0
  6
CONTINUOUS
 62
4
 10
-676.160599423791380
 20
-172.522626432043810
 40
289.397000000000160
 50
353.948014641331500
 51
0.000000000000000
  0
ARC
  8
0
  6
CONTINUOUS
 62
4
 10
-440.560599423791470
 20
-413.122626432043720
 40
289.396999999999820
 50
82.102011327572214
 51
90.000000000000000
  0
ARC
  8
0
  6
CONTINUOUS
 62
4
 10
-401.619081468409150
 20
-132.413848891457060
 40
6.000000000000049
 50
45.000000000003077
 51
82.102011327574374
  0
LINE
  8
0
  6
CONTINUOUS
 62
4
 10
-397.376440781290060
 20
-128.171208204337520
 11
-392.800375388651450
 21
-132.747273596976130
  0
ARC
  8
0
  6
CONTINUOUS
 62
4
 10
-403.687698498580860
 20
-143.634596706905540
 40
15.397000000000052
 50
6.051985358668849
 51
45.000000000000000
  0
ARC
  8
0
  6
CONTINUOUS
 62
4
 10
-676.160599423791380
 20
-172.522626432043810
 40
289.397000000000160
 50
0.000000000000000
 51
6.051985358668508
  0
ARC
  8
0
  6
CONTINUOUS
 62
4
 10
-477.433500349001860
 20
-143.634596706905540
 40
15.396999999999876
 50
135.000000000000000
 51
173.948014641331160
  0
ARC
  8
0
  6
CONTINUOUS
 62
3
 10
-403.687698498580860
 20
-201.410656157182070
 40
26.599999999999955
 50
315.000000000001020
 51
353.948014641331380
  0
ARC
  8
0
  6
CONTINUOUS
 62
3
 10
-477.433500349001860
 20
-201.410656157182070
 40
26.599999999999969
 50
186.051985358668590
 51
224.999999999998980
  0
ARC
  8
0
  6
CONTINUOUS
 62
3
 10
-477.433500349001860
 20
-143.634596706905540
 40
26.600000000000119
 50
135.000000000000000
 51
173.948014641331410
  0
ARC
  8
0
  6
CONTINUOUS
 62
3
 10
-403.687698498581090
 20
-143.634596706905540
 40
26.600000000000193
 50
6.051985358668552
 51
45.000000000000000
  0
LINE
  8
0
  6
CONTINUOUS
 62
3
 10
-489.176091609905140
 20
-117.759107208684320
 11
-496.242540728564110
 21
-124.825556327343290
  0
ARC
  8
0
  6
CONTINUOUS
 62
3
 10
-484.509186854073960
 20
-222.619240899572330
 40
6.599999999999957
 50
225.000000000000000
 51
261.402917762751090
  0
ARC
  8
0
  6
CONTINUOUS
 62
3
 10
-440.560599423791470
 20
68.077373567956329
 40
300.600000000000020
 50
261.402917762750920
 51
270.000000000000000
  0
ARC
  8
0
  6
CONTINUOUS
 62
3
 10
-396.612011993508990
 20
-222.619240899572330
 40
6.599999999999747
 50
278.597082237248910
 51
315.000000000000000
  0
LINE
  8
0
  6
CONTINUOUS
 62
3
 10
-391.945107237677800
 20
-227.286145655403520
 11
-384.878658119018380
 21
-220.219696536743870
  0
ARC
  8
0
  6
CONTINUOUS
 62
3
 10
-676.160599423791380
 20
-172.522626432043810
 40
300.600000000000080
 50
353.948014641331500
 51
6.051985358668499
  0
ARC
  8
0
  6
CONTINUOUS
 62
3
 10
-440.560599423791470
 20
-413.122626432043720
 40
300.599999999999800
 50
81.402917762750931
 51
90.000000000000000
  0
ARC
  8
0
  6
CONTINUOUS
 62
3
 10
-396.612011993508990
 20
-122.426011964515510
 40
6.600000000000118
 50
45.000000000001400
 51
81.402917762751386
  0
ARC
  8
0
  6
CONTINUOUS
 62
3
 10
-440.560599423791470
 20
68.077373567956329
 40
300.600000000000140
 50
270.000000000000000
 51
278.597082237249080
  0
ARC
  8
0
  6
CONTINUOUS
 62
3
 10
-440.560599423791470
 20
-413.122626432043720
 40
300.599999999999910
 50
90.000000000000000
 51
98.597082237249069
  0
ARC
  8
0
  6
CONTINUOUS
 62
3
 10
-204.960599423791390
 20
-172.522626432043810
 40
300.600000000000020
 50
173.948014641331500
 51
186.051985358668500
  0
LINE
  8
0
  6
CONTINUOUS
 62
3
 10
-391.945107237677800
 20
-117.759107208684320
 11
-384.878658119018840
 21
-124.825556327343290
  0
LINE
  8
0
  6
CONTINUOUS
 62
3
 10
-489.176091609905140
 20
-227.286145655403520
 11
-496.242540728564340
 21
-220.219696536743870
  0
ARC
  8
0
  6
CONTINUOUS
 62
3
 10
-436.560599423791470
 20
-131.215847327398250
 40
1.500000000000203
 50
84.468928475159132
 51
180.000000000000000
  0
ARC
  8
0
  6
CONTINUOUS
 62
3
 10
-444.560599423791470
 20
-131.215847327398020
 40
1.500000000000000
 50
0.000000000000000
 51
95.531071524841693
  0
ARC
  8
0
  6
CONTINUOUS
 62
3
 10
-440.560599423791250
 20
-172.522626432043350
 40
17.999999999999922
 50
41.837004155893325
 51
78.162995844107314
  0
ARC
  8
0
  6
CONTINUOUS
 62
3
 10
-440.560599423791700
 20
-172.522626432043350
 40
27.499999999999815
 50
97.928141766201691
 51
142.071858233797880
  0
LINE
  8
0
  6
CONTINUOUS
 62
3
 10
-438.060599423791470
 20
-131.215847327398250
 11
-438.060599423791470
 21
-134.230982434952240
  0
LINE
  8
0
  6
CONTINUOUS
 62
3
 10
-408.649062969640680
 20
-151.211740924037030
 11
-406.037879370656580
 21
-149.704173370259920
  0
LINE
  8
0
  6
CONTINUOUS
 62
3
 10
-438.060599423791470
 20
-140.773610699268830
 11
-438.060599423791470
 21
-143.799813199353370
  0
ARC
  8
0
  6
CONTINUOUS
 62
3
 10
-436.560599423791470
 20
-140.773610699268830
 40
1.499999999999998
 50
82.819244218541712
 51
180.000000000000000
  0
ARC
  8
0
  6
CONTINUOUS
 62
3
 10
-436.560599423791470
 20
-134.230982434952240
 40
1.500000000000000
 50
180.000000000000000
 51
264.036429881682580
  0
ARC
  8
0
  6
CONTINUOUS
 62
3
 10
-406.787879370656580
 20
-148.405135264583120
 40
1.500000000000123
 50
299.999999999997270
 51
35.531071524839192
  0
ARC
  8
0
  6
CONTINUOUS
 62
3
 10
-440.560599423791930
 20
-172.522626432043810
 40
42.999999999999908
 50
35.531071524839248
 51
84.468928475160212
  0
ARC
  8
0
  6
CONTINUOUS
 62
3
 10
-402.787879370656130
 20
-155.333338494859160
 40
1.500000000000034
 50
24.468928475159590
 51
119.999999999997270
  0
LINE
  8
0
  6
CONTINUOUS
 62
3
 10
-406.149062969640450
 20
-155.541867942959470
 11
-403.537879370656130
 21
-154.034300389182360
  0
ARC
  8
0
  6
CONTINUOUS
 62
3
 10
-405.399062969640450
 20
-156.840906048636270
 40
1.500000000000123
 50
119.999999999997270
 51
204.036429881680680
  0
ARC
  8
0
  6
CONTINUOUS
 62
3
 10
-440.560599423791700
 20
-172.522626432044260
 40
36.999999999999972
 50
335.963570118321740
 51
24.036429881678870
  0
ARC
  8
0
  6
CONTINUOUS
 62
3
 10
-440.560599423791700
 20
-172.522626432044260
 40
42.999999999999936
 50
335.531071524839770
 51
24.468928475160769
  0
ARC
  8
0
  6
CONTINUOUS
 62
3
 10
-402.787879370656130
 20
-189.711914369228680
 40
1.500000000000320
 50
240.000000000007050
 51
335.531071524832500
  0
LINE
  8
0
  6
CONTINUOUS
 62
3
 10
-403.537879370656130
 20
-191.010952474905710
 11
-406.149062969640230
 21
-189.503384921128370
  0
ARC
  8
0
  6
CONTINUOUS
 62
3
 10
-405.399062969640230
 20
-188.204346815451800
 40
1.500000000000063
 50
155.963570118322880
 51
239.999999999998410
  0
ARC
  8
0
  6
CONTINUOUS
 62
3
 10
-406.787879370656130
 20
-196.640117599504490
 40
1.499999999999844
 50
324.468928475167900
 51
59.999999999998380
  0
LINE
  8
0
  6
CONTINUOUS
 62
3
 10
-406.037879370656130
 20
-195.341079493827920
 11
-408.649062969640230
 21
-193.833511940050580
  0
LINE
  8
0
  6
CONTINUOUS
 62
3
 10
-443.060599423791470
 20
-131.215847327398020
 11
-443.060599423791470
 21
-134.230982434952240
  0
ARC
  8
0
  6
CONTINUOUS
 62
3
 10
-444.560599423791470
 20
-134.230982434952240
 40
1.499999999999933
 50
275.963570118318330
 51
0.000000000000000
  0
LINE
  8
0
  6
CONTINUOUS
 62
3
 10
-443.060599423791470
 20
-140.773610699268830
 11
-443.060599423791470
 21
-143.799813199353370
  0
ARC
  8
0
  6
CONTINUOUS
 62
3
 10
-444.560599423791470
 20
-140.773610699268830
 40
1.500000000000000
 50
0.000000000000000
 51
97.180755781458288
  0
ARC
  8
0
  6
CONTINUOUS
 62
3
 10
-440.560599423791930
 20
-172.522626432043350
 40
23.999999999999901
 50
100.240348321185670
 51
139.759651678813550
  0
ARC
  8
0
  6
CONTINUOUS
 62
3
 10
-457.735778692836450
 20
-157.987729904163420
 40
1.499999999999802
 50
139.759651678811420
 51
239.999999999998410
  0
LINE
  8
0
  6
CONTINUOUS
 62
3
 10
-455.838984099857270
 20
-160.814895580586150
 11
-458.485778692836450
 21
-159.286768009839990
  0
ARC
  8
0
  6
CONTINUOUS
 62
3
 10
-455.088984099857270
 20
-159.515857474909580
 40
1.499999999999926
 50
239.999999999998410
 51
318.162995844106720
  0
ARC
  8
0
  6
CONTINUOUS
 62
3
 10
-440.560599423791930
 20
-172.522626432043350
 40
17.999999999999829
 50
101.837004155891980
 51
138.162995844106210
  0
ARC
  8
0
  6
CONTINUOUS
 62
3
 10
-444.560599423791470
 20
-153.437291748051170
 40
1.499999999999954
 50
281.837004155896690
 51
0.000000000000000
  0
LINE
  8
0
  6
CONTINUOUS
 62
3
 10
-443.060599423791470
 20
-150.381036606558840
 11
-443.060599423791470
 21
-153.437291748051170
  0
ARC
  8
0
  6
CONTINUOUS
 62
3
 10
-444.560599423791470
 20
-150.381036606558840
 40
1.500000000000000
 50
0.000000000000000
 51
100.240348321194510
  0
ARC
  8
0
  6
CONTINUOUS
 62
3
 10
-440.560599423791930
 20
-172.522626432043350
 40
14.499999999999980
 50
107.920213139390830
 51
132.079786860607560
  0
ARC
  8
0
  6
CONTINUOUS
 62
3
 10
-449.272742066606040
 20
-162.873866378479080
 40
1.499999999999792
 50
132.079786860611680
 51
239.999999999998410
  0
LINE
  8
0
  6
CONTINUOUS
 62
3
 10
-447.247853356985390
 20
-165.774987227626530
 11
-450.022742066606040
 21
-164.172904484155650
  0
ARC
  8
0
  6
CONTINUOUS
 62
3
 10
-446.497853356985390
 20
-164.475949121949950
 40
1.499999999999926
 50
239.999999999998410
 51
306.421821521797600
  0
ARC
  8
0
  6
CONTINUOUS
 62
3
 10
-440.560599423791930
 20
-172.522626432043350
 40
8.499999999999879
 50
113.578178478199500
 51
126.421821521797340
  0
ARC
  8
0
  6
CONTINUOUS
 62
3
 10
-444.560599423791470
 20
-163.357475042131450
 40
1.500000000000139
 50
293.578178478195700
 51
0.000000000000000
  0
LINE
  8
0
  6
CONTINUOUS
 62
3
 10
-443.060599423791470
 20
-160.153309555190390
 11
-443.060599423791470
 21
-163.357475042131450
  0
ARC
  8
0
  6
CONTINUOUS
 62
3
 10
-444.560599423791470
 20
-160.153309555190390
 40
1.500000000000000
 50
0.000000000000000
 51
107.920213139394770
  0
ARC
  8
0
  6
CONTINUOUS
 62
3
 10
-440.560599423791470
 20
-172.522626432043810
 40
23.999999999999716
 50
280.240348321186270
 51
319.759651678814690
  0
ARC
  8
0
  6
CONTINUOUS
 62
3
 10
-436.560599423791470
 20
-194.664216257528320
 40
1.500000000000000
 50
180.000000000000000
 51
280.240348321187530
  0
LINE
  8
0
  6
CONTINUOUS
 62
3
 10
-438.060599423791470
 20
-191.607961116035990
 11
-438.060599423791470
 21
-194.664216257528320
  0
ARC
  8
0
  6
CONTINUOUS
 62
3
 10
-436.560599423791470
 20
-191.607961116035990
 40
1.499999999999731
 50
101.837004155898450
 51
180.000000000000000
  0
ARC
  8
0
  6
CONTINUOUS
 62
3
 10
-440.560599423791470
 20
-172.522626432043810
 40
18.000000000000146
 50
281.837004155893230
 51
318.162995844107680
  0
ARC
  8
0
  6
CONTINUOUS
 62
3
 10
-426.032214747725670
 20
-185.529395389177580
 40
1.499999999999926
 50
59.999999999998380
 51
138.162995844100240
  0
LINE
  8
0
  6
CONTINUOUS
 62
3
 10
-422.635420154746730
 20
-185.758484854247170
 11
-425.282214747725670
 21
-184.230357283501010
  0
ARC
  8
0
  6
CONTINUOUS
 62
3
 10
-423.385420154746730
 20
-187.057522959923740
 40
1.499999999999828
 50
319.759651678823670
 51
59.999999999998380
  0
ARC
  8
0
  6
CONTINUOUS
 62
3
 10
-440.560599423791470
 20
-172.522626432043810
 40
14.500000000000121
 50
287.920213139392560
 51
312.079786860608860
  0
ARC
  8
0
  6
CONTINUOUS
 62
3
 10
-436.560599423791470
 20
-184.891943308896540
 40
1.500000000000000
 50
180.000000000000000
 51
287.920213139392100
  0
LINE
  8
0
  6
CONTINUOUS
 62
3
 10
-438.060599423791470
 20
-181.687777821955250
 11
-438.060599423791470
 21
-184.891943308896540
  0
ARC
  8
0
  6
CONTINUOUS
 62
3
 10
-436.560599423791470
 20
-181.687777821955710
 40
1.500000000000139
 50
113.578178478195690
 51
179.999999999982630
  0
ARC
  8
0
  6
CONTINUOUS
 62
3
 10
-440.560599423791470
 20
-172.522626432043810
 40
8.500000000000060
 50
293.578178478202350
 51
306.421821521799190
  0
ARC
  8
0
  6
CONTINUOUS
 62
3
 10
-434.623345490597560
 20
-180.569303742137210
 40
1.499999999999926
 50
59.999999999998380
 51
126.421821521801260
  0
LINE
  8
0
  6
CONTINUOUS
 62
3
 10
-431.098456780977130
 20
-180.872348379931050
 11
-433.873345490597560
 21
-179.270265636460640
  0
ARC
  8
0
  6
CONTINUOUS
 62
3
 10
-431.848456780977130
 20
-182.171386485608080
 40
1.499999999999944
 50
312.079786860618130
 51
60.000000000007070
  0
ARC
  8
0
  6
CONTINUOUS
 62
3
 10
-440.560599423791470
 20
-172.522626432043810
 40
23.999999999999844
 50
220.240348321185340
 51
259.759651678813730
  0
ARC
  8
0
  6
CONTINUOUS
 62
3
 10
-444.560599423791470
 20
-194.664216257528320
 40
1.499999999999728
 50
259.759651678812470
 51
0.000000000000000
  0
LINE
  8
0
  6
CONTINUOUS
 62
3
 10
-443.060599423791470
 20
-191.607961116035990
 11
-443.060599423791470
 21
-194.664216257528320
  0
ARC
  8
0
  6
CONTINUOUS
 62
3
 10
-444.560599423791470
 20
-191.607961116035990
 40
1.500000000000000
 50
0.000000000000000
 51
78.162995844101530
  0
ARC
  8
0
  6
CONTINUOUS
 62
3
 10
-440.560599423791470
 20
-172.522626432043810
 40
17.999999999999940
 50
221.837004155892320
 51
258.162995844106770
  0
ARC
  8
0
  6
CONTINUOUS
 62
3
 10
-455.088984099857270
 20
-185.529395389177580
 40
1.500000000000118
 50
41.837004155899741
 51
120.000000000001620
  0
LINE
  8
0
  6
CONTINUOUS
 62
3
 10
-458.485778692836220
 20
-185.758484854247170
 11
-455.838984099857270
 21
-184.230357283501010
  0
ARC
  8
0
  6
CONTINUOUS
 62
3
 10
-457.735778692836220
 20
-187.057522959923740
 40
1.499999999999926
 50
120.000000000001620
 51
220.240348321176330
  0
ARC
  8
0
  6
CONTINUOUS
 62
3
 10
-440.560599423791470
 20
-172.522626432043810
 40
14.500000000000011
 50
227.920213139391080
 51
252.079786860607410
  0
ARC
  8
0
  6
CONTINUOUS
 62
3
 10
-444.560599423791470
 20
-184.891943308896540
 40
1.500000000000355
 50
252.079786860607900
 51
0.000000000000000
  0
LINE
  8
0
  6
CONTINUOUS
 62
3
 10
-443.060599423791470
 20
-181.687777821955250
 11
-443.060599423791470
 21
-184.891943308896540
  0
ARC
  8
0
  6
CONTINUOUS
 62
3
 10
-444.560599423791470
 20
-181.687777821955710
 40
1.500000000000000
 50
0.000000000017370
 51
66.421821521804304
  0
ARC
  8
0
  6
CONTINUOUS
 62
3
 10
-440.560599423791470
 20
-172.522626432043810
 40
8.499999999999870
 50
233.578178478199590
 51
246.421821521797680
  0
ARC
  8
0
  6
CONTINUOUS
 62
3
 10
-446.497853356985390
 20
-180.569303742137210
 40
1.500000000000059
 50
53.578178478205707
 51
120.000000000001620
  0
LINE
  8
0
  6
CONTINUOUS
 62
3
 10
-450.022742066605820
 20
-180.872348379931050
 11
-447.247853356985390
 21
-179.270265636460640
  0
ARC
  8
0
  6
CONTINUOUS
 62
3
 10
-449.272742066605820
 20
-182.171386485608080
 40
1.500000000000320
 50
119.999999999992930
 51
227.920213139381870
  0
ARC
  8
0
  6
CONTINUOUS
 62
3
 10
-440.560599423791930
 20
-172.522626432043350
 40
23.999999999999925
 50
160.240348321185910
 51
199.759651678814090
  0
ARC
  8
0
  6
CONTINUOUS
 62
3
 10
-461.735778692836450
 20
-164.915933134438770
 40
1.499999999999926
 50
59.999999999998380
 51
160.240348321185250
  0
LINE
  8
0
  6
CONTINUOUS
 62
3
 10
-458.338984099857270
 20
-165.145022599508370
 11
-460.985778692836450
 21
-163.616895028762200
  0
ARC
  8
0
  6
CONTINUOUS
 62
3
 10
-459.088984099857270
 20
-166.444060705184940
 40
1.500000000000038
 50
341.837004155895390
 51
59.999999999998380
  0
ARC
  8
0
  6
CONTINUOUS
 62
3
 10
-440.560599423791930
 20
-172.522626432043350
 40
17.999999999999726
 50
161.837004155893140
 51
198.162995844106860
  0
ARC
  8
0
  6
CONTINUOUS
 62
3
 10
-459.088984099857270
 20
-178.601192158901770
 40
1.500000000000320
 50
299.999999999992950
 51
18.162995844104589
  0
LINE
  8
0
  6
CONTINUOUS
 62
3
 10
-460.985778692836220
 20
-181.428357835324500
 11
-458.338984099857270
 21
-179.900230264578790
  0
ARC
  8
0
  6
CONTINUOUS
 62
3
 10
-461.735778692836220
 20
-180.129319729647930
 40
1.500000000000246
 50
199.759651678811820
 51
300.000000000001590
  0
ARC
  8
0
  6
CONTINUOUS
 62
3
 10
-440.560599423791930
 20
-172.522626432043350
 40
14.499999999999851
 50
167.920213139392840
 51
192.079786860608920
  0
ARC
  8
0
  6
CONTINUOUS
 62
3
 10
-453.272742066606040
 20
-169.802069608754440
 40
1.499999999999926
 50
59.999999999998380
 51
167.920213139405550
  0
LINE
  8
0
  6
CONTINUOUS
 62
3
 10
-449.747853356985390
 20
-170.105114246548740
 11
-452.522742066606040
 21
-168.503031503077860
  0
ARC
  8
0
  6
CONTINUOUS
 62
3
 10
-450.497853356985390
 20
-171.404152352225310
 40
1.499999999999873
 50
353.578178478198030
 51
59.999999999998380
  0
ARC
  8
0
  6
CONTINUOUS
 62
3
 10
-440.560599423791930
 20
-172.522626432043350
 40
8.499999999999813
 50
173.578178478202550
 51
186.421821521800500
  0
ARC
  8
0
  6
CONTINUOUS
 62
3
 10
-450.497853356985390
 20
-173.641100511861850
 40
1.499999999999926
 50
300.000000000001590
 51
6.421821521801967
  0
LINE
  8
0
  6
CONTINUOUS
 62
3
 10
-452.522742066605820
 20
-176.542221361008840
 11
-449.747853356985390
 21
-174.940138617538420
  0
ARC
  8
0
  6
CONTINUOUS
 62
3
 10
-453.272742066605820
 20
-175.243183255332270
 40
1.500000000000287
 50
192.079786860609600
 51
300.000000000001590
  0
ARC
  8
0
  6
CONTINUOUS
 62
3
 10
-440.560599423791250
 20
-172.522626432043350
 40
24.000000000000139
 50
340.240348321186050
 51
19.759651678813924
  0
ARC
  8
0
  6
CONTINUOUS
 62
3
 10
-419.385420154746730
 20
-164.915933134438770
 40
1.500000000000246
 50
19.759651678811824
 51
120.000000000001620
  0
LINE
  8
0
  6
CONTINUOUS
 62
3
 10
-422.782214747725670
 20
-165.145022599508370
 11
-420.135420154746730
 21
-163.616895028762200
  0
ARC
  8
0
  6
CONTINUOUS
 62
3
 10
-422.032214747725670
 20
-166.444060705184940
 40
1.499999999999926
 50
120.000000000001620
 51
198.162995844104590
  0
ARC
  8
0
  6
CONTINUOUS
 62
3
 10
-440.560599423791250
 20
-172.522626432043350
 40
17.999999999999943
 50
341.837004155893340
 51
18.162995844106646
  0
ARC
  8
0
  6
CONTINUOUS
 62
3
 10
-422.032214747725670
 20
-178.601192158901770
 40
1.500000000000038
 50
161.837004155895410
 51
240.000000000007050
  0
LINE
  8
0
  6
CONTINUOUS
 62
3
 10
-420.135420154746730
 20
-181.428357835324500
 11
-422.782214747725670
 21
-179.900230264578790
  0
ARC
  8
0
  6
CONTINUOUS
 62
3
 10
-419.385420154746730
 20
-180.129319729647930
 40
1.499999999999926
 50
239.999999999998410
 51
340.240348321188210
  0
ARC
  8
0
  6
CONTINUOUS
 62
3
 10
-440.560599423791250
 20
-172.522626432043350
 40
14.500000000000169
 50
347.920213139391310
 51
12.079786860606980
  0
ARC
  8
0
  6
CONTINUOUS
 62
3
 10
-427.848456780977130
 20
-169.802069608754440
 40
1.500000000000192
 50
12.079786860592611
 51
120.000000000001620
  0
LINE
  8
0
  6
CONTINUOUS
 62
3
 10
-431.373345490597560
 20
-170.105114246548740
 11
-428.598456780977130
 21
-168.503031503077860
  0
ARC
  8
0
  6
CONTINUOUS
 62
3
 10
-430.623345490597560
 20
-171.404152352225310
 40
1.499999999999926
 50
120.000000000001620
 51
186.421821521801010
  0
ARC
  8
0
  6
CONTINUOUS
 62
3
 10
-440.560599423791250
 20
-172.522626432043350
 40
8.499999999999865
 50
353.578178478199500
 51
6.421821521797448
  0
ARC
  8
0
  6
CONTINUOUS
 62
3
 10
-430.623345490597560
 20
-173.641100511861850
 40
1.500000000000099
 50
173.578178478198990
 51
239.999999999998410
  0
LINE
  8
0
  6
CONTINUOUS
 62
3
 10
-428.598456780977130
 20
-176.542221361008840
 11
-431.373345490597560
 21
-174.940138617538420
  0
ARC
  8
0
  6
CONTINUOUS
 62
3
 10
-427.848456780977130
 20
-175.243183255332270
 40
1.499999999999926
 50
239.999999999998410
 51
347.920213139390400
  0
ARC
  8
0
  6
CONTINUOUS
 62
3
 10
-440.560599423791250
 20
-172.522626432043350
 40
8.500000000000101
 50
53.578178478202659
 51
66.421821521799089
  0
ARC
  8
0
  6
CONTINUOUS
 62
3
 10
-440.560599423791250
 20
-172.522626432043350
 40
23.999999999999819
 50
40.240348321186090
 51
79.759651678814322
  0
LINE
  8
0
  6
CONTINUOUS
 62
3
 10
-433.873345490597560
 20
-165.774987227626530
 11
-431.098456780977130
 21
-164.172904484155650
  0
LINE
  8
0
  6
CONTINUOUS
 62
3
 10
-438.060599423791470
 20
-150.381036606558840
 11
-438.060599423791470
 21
-153.437291748051170
  0
LINE
  8
0
  6
CONTINUOUS
 62
3
 10
-438.060599423791470
 20
-160.153309555190390
 11
-438.060599423791470
 21
-163.357475042131450
  0
ARC
  8
0
  6
CONTINUOUS
 62
3
 10
-440.560599423791250
 20
-172.522626432043350
 40
14.499999999999860
 50
47.920213139391755
 51
72.079786860608309
  0
LINE
  8
0
  6
CONTINUOUS
 62
3
 10
-425.282214747725670
 20
-160.814895580586150
 11
-422.635420154746730
 21
-159.286768009839990
  0
ARC
  8
0
  6
CONTINUOUS
 62
3
 10
-431.848456780977130
 20
-162.873866378479080
 40
1.499999999999926
 50
300.000000000001590
 51
47.920213139381872
  0
ARC
  8
0
  6
CONTINUOUS
 62
3
 10
-436.560599423791470
 20
-150.381036606558840
 40
1.499999999999952
 50
79.759651678814024
 51
180.000000000000000
  0
ARC
  8
0
  6
CONTINUOUS
 62
3
 10
-426.032214747725670
 20
-159.515857474909580
 40
1.499999999999967
 50
221.837004155893280
 51
300.000000000001590
  0
ARC
  8
0
  6
CONTINUOUS
 62
3
 10
-436.560599423791470
 20
-153.437291748051170
 40
1.500000000000000
 50
180.000000000000000
 51
258.162995844103310
  0
ARC
  8
0
  6
CONTINUOUS
 62
3
 10
-436.560599423791470
 20
-160.153309555190390
 40
1.500000000000138
 50
72.079786860605225
 51
180.000000000000000
  0
ARC
  8
0
  6
CONTINUOUS
 62
3
 10
-423.385420154746730
 20
-157.987729904163420
 40
1.499999999999926
 50
300.000000000001590
 51
40.240348321182964
  0
ARC
  8
0
  6
CONTINUOUS
 62
3
 10
-436.560599423791470
 20
-163.357475042131450
 40
1.500000000000000
 50
180.000000000000000
 51
246.421821521804280
  0
ARC
  8
0
  6
CONTINUOUS
 62
3
 10
-434.623345490597560
 20
-164.475949121949950
 40
1.499999999999693
 50
233.578178478195410
 51
300.000000000001590
  0
CIRCLE
  8
0
  6
CONTINUOUS
 62
3
 10
-440.560599423791470
 20
-172.522626432043350
 40
5.000000000000000
  0
ARC
  8
0
  6
CONTINUOUS
 62
3
 10
-417.685913496125750
 20
-154.697118200560680
 40
1.499999999999843
 50
217.928141766204990
 51
300.000000000001590
  0
LINE
  8
0
  6
CONTINUOUS
 62
3
 10
-416.935913496125750
 20
-155.996156306237250
 11
-414.315145254056920
 21
-154.483055056195100
  0
ARC
  8
0
  6
CONTINUOUS
 62
3
 10
-436.560599423791470
 20
-143.799813199353370
 40
1.500000000000000
 50
180.000000000000000
 51
262.071858233795980
  0
ARC
  8
0
  6
CONTINUOUS
 62
3
 10
-440.560599423791250
 20
-172.522626432043350
 40
27.500000000000060
 50
37.928141766201819
 51
82.071858233798309
  0
ARC
  8
0
  6
CONTINUOUS
 62
3
 10
-415.065145254056920
 20
-153.184016950518530
 40
1.499999999999926
 50
300.000000000001590
 51
37.180755781457485
  0
ARC
  8
0
  6
CONTINUOUS
 62
3
 10
-409.399062969640680
 20
-149.912702818360230
 40
1.500000000000102
 50
215.963570118316280
 51
299.999999999997270
  0
ARC
  8
0
  6
CONTINUOUS
 62
3
 10
-440.560599423791930
 20
-172.522626432043810
 40
36.999999999999943
 50
35.963570118321194
 51
84.036429881678174
  0
ARC
  8
0
  6
CONTINUOUS
 62
3
 10
-440.560599423791930
 20
-172.522626432043810
 40
33.500000000000071
 50
37.180755781458259
 51
82.819244218540931
  0
LINE
  8
0
  6
CONTINUOUS
 62
3
 10
-414.435913496125520
 20
-160.326283325159920
 11
-411.815145254056690
 21
-158.813182075117770
  0
ARC
  8
0
  6
CONTINUOUS
 62
3
 10
-411.065145254056690
 20
-160.112220180794570
 40
1.499999999999948
 50
22.819244218550043
 51
119.999999999997270
  0
ARC
  8
0
  6
CONTINUOUS
 62
3
 10
-413.685913496125520
 20
-161.625321430836490
 40
1.499999999999926
 50
120.000000000001620
 51
202.071858233797370
  0
ARC
  8
0
  6
CONTINUOUS
 62
3
 10
-440.560599423791020
 20
-172.522626432043810
 40
27.499999999999886
 50
337.928141766202200
 51
22.071858233797812
  0
ARC
  8
0
  6
CONTINUOUS
 62
3
 10
-440.560599423791700
 20
-172.522626432044260
 40
33.500000000000128
 50
337.180755781459030
 51
22.819244218541968
  0
ARC
  8
0
  6
CONTINUOUS
 62
3
 10
-413.685913496125750
 20
-183.419931433251120
 40
1.499999999999899
 50
157.928141766199360
 51
240.000000000007050
  0
LINE
  8
0
  6
CONTINUOUS
 62
3
 10
-411.815145254056460
 20
-186.232070788970080
 11
-414.435913496125750
 21
-184.718969538928150
  0
ARC
  8
0
  6
CONTINUOUS
 62
3
 10
-411.065145254056460
 20
-184.933032683293500
 40
1.499999999999926
 50
239.999999999998410
 51
337.180755781453340
  0
ARC
  8
0
  6
CONTINUOUS
 62
3
 10
-436.560599423791250
 20
-213.829405536688910
 40
1.500000000000000
 50
180.000000000000000
 51
275.531071524831360
  0
LINE
  8
0
  6
CONTINUOUS
 62
3
 10
-438.060599423791250
 20
-210.814270429134690
 11
-438.060599423791250
 21
-213.829405536688910
  0
LINE
  8
0
  6
CONTINUOUS
 62
3
 10
-438.060599423791250
 20
-201.245439664734250
 11
-438.060599423791250
 21
-204.271642164818560
  0
ARC
  8
0
  6
CONTINUOUS
 62
3
 10
-436.560599423791250
 20
-210.814270429135150
 40
1.500000000000182
 50
95.963570118326047
 51
179.999999999982630
  0
ARC
  8
0
  6
CONTINUOUS
 62
3
 10
-436.560599423791250
 20
-204.271642164818560
 40
1.500000000000000
 50
180.000000000000000
 51
277.180755781458290
  0
ARC
  8
0
  6
CONTINUOUS
 62
3
 10
-436.560599423791250
 20
-201.245439664734250
 40
1.499999999999967
 50
97.928141766195438
 51
180.000000000000000
  0
ARC
  8
0
  6
CONTINUOUS
 62
3
 10
-440.560599423791250
 20
-172.522626432044260
 40
27.499999999999879
 50
277.928141766202600
 51
322.071858233798930
  0
ARC
  8
0
  6
CONTINUOUS
 62
3
 10
-440.560599423791250
 20
-172.522626432043350
 40
37.000000000000028
 50
275.963570118320770
 51
324.036429881678030
  0
ARC
  8
0
  6
CONTINUOUS
 62
3
 10
-440.560599423791250
 20
-172.522626432043350
 40
43.000000000000199
 50
275.531071524838860
 51
324.468928475160340
  0
ARC
  8
0
  6
CONTINUOUS
 62
3
 10
-440.560599423791250
 20
-172.522626432043350
 40
33.500000000000114
 50
277.180755781458230
 51
322.819244218540860
  0
ARC
  8
0
  6
CONTINUOUS
 62
3
 10
-417.685913496125750
 20
-190.348134663526930
 40
1.500000000000320
 50
60.000000000007070
 51
142.071858233781280
  0
ARC
  8
0
  6
CONTINUOUS
 62
3
 10
-409.399062969640230
 20
-195.132550045727160
 40
1.499999999999926
 50
59.999999999998380
 51
144.036429881690740
  0
LINE
  8
0
  6
CONTINUOUS
 62
3
 10
-414.315145254056460
 20
-190.562197807892290
 11
-416.935913496125750
 21
-189.049096557849910
  0
ARC
  8
0
  6
CONTINUOUS
 62
3
 10
-415.065145254056460
 20
-191.861235913568860
 40
1.500000000000240
 50
322.819244218535570
 51
59.999999999998380
  0
ARC
  8
0
  6
CONTINUOUS
 62
3
 10
-444.560599423791700
 20
-213.829405536688910
 40
1.500000000000430
 50
264.468928475160000
 51
0.000000000000000
  0
LINE
  8
0
  6
CONTINUOUS
 62
3
 10
-443.060599423791700
 20
-210.814270429134690
 11
-443.060599423791700
 21
-213.829405536688910
  0
LINE
  8
0
  6
CONTINUOUS
 62
3
 10
-443.060599423791700
 20
-201.245439664734250
 11
-443.060599423791700
 21
-204.271642164818560
  0
ARC
  8
0
  6
CONTINUOUS
 62
3
 10
-444.560599423791700
 20
-210.814270429135150
 40
1.500000000000000
 50
0.000000000017370
 51
84.036429881682594
  0
ARC
  8
0
  6
CONTINUOUS
 62
3
 10
-444.560599423791700
 20
-204.271642164818560
 40
1.499999999999998
 50
262.819244218541710
 51
0.000000000000000
  0
ARC
  8
0
  6
CONTINUOUS
 62
3
 10
-444.560599423791700
 20
-201.245439664734250
 40
1.500000000000000
 50
0.000000000000000
 51
82.071858233804562
  0
ARC
  8
0
  6
CONTINUOUS
 62
3
 10
-440.560599423791700
 20
-172.522626432044260
 40
27.499999999999780
 50
217.928141766201070
 51
262.071858233797400
  0
ARC
  8
0
  6
CONTINUOUS
 62
3
 10
-440.560599423791700
 20
-172.522626432043350
 40
37.000000000000021
 50
215.963570118321970
 51
264.036429881678940
  0
ARC
  8
0
  6
CONTINUOUS
 62
3
 10
-440.560599423791700
 20
-172.522626432043350
 40
42.999999999999858
 50
215.531071524839690
 51
264.468928475160850
  0
ARC
  8
0
  6
CONTINUOUS
 62
3
 10
-440.560599423791700
 20
-172.522626432043350
 40
33.500000000000163
 50
217.180755781459110
 51
262.819244218541770
  0
ARC
  8
0
  6
CONTINUOUS
 62
3
 10
-463.435285351457200
 20
-190.348134663526930
 40
1.500000000000122
 50
37.928141766218701
 51
119.999999999992930
  0
ARC
  8
0
  6
CONTINUOUS
 62
3
 10
-474.333319476926820
 20
-196.640117599504490
 40
1.499999999999926
 50
120.000000000001620
 51
215.531071524832130
  0
LINE
  8
0
  6
CONTINUOUS
 62
3
 10
-475.083319476926820
 20
-195.341079493827920
 11
-472.472135877942720
 21
-193.833511940050580
  0
ARC
  8
0
  6
CONTINUOUS
 62
3
 10
-471.722135877942720
 20
-195.132550045727160
 40
1.499999999999968
 50
35.963570118309242
 51
120.000000000001620
  0
LINE
  8
0
  6
CONTINUOUS
 62
3
 10
-466.806053593526490
 20
-190.562197807892290
 11
-464.185285351457200
 21
-189.049096557849910
  0
ARC
  8
0
  6
CONTINUOUS
 62
3
 10
-466.056053593526490
 20
-191.861235913568860
 40
1.499999999999926
 50
120.000000000001620
 51
217.180755781464400
  0
ARC
  8
0
  6
CONTINUOUS
 62
3
 10
-478.333319476926820
 20
-155.333338494859160
 40
1.499999999999926
 50
59.999999999998380
 51
155.531071524840400
  0
LINE
  8
0
  6
CONTINUOUS
 62
3
 10
-474.972135877942260
 20
-155.541867942959700
 11
-477.583319476926820
 21
-154.034300389182590
  0
LINE
  8
0
  6
CONTINUOUS
 62
3
 10
-466.685285351457420
 20
-160.326283325159920
 11
-469.306053593526260
 21
-158.813182075117770
  0
ARC
  8
0
  6
CONTINUOUS
 62
3
 10
-475.722135877942490
 20
-156.840906048636270
 40
1.499999999999855
 50
335.963570118319300
 51
59.999999999990862
  0
ARC
  8
0
  6
CONTINUOUS
 62
3
 10
-470.056053593526260
 20
-160.112220180794570
 40
1.500000000000123
 50
60.000000000002721
 51
157.180755781457980
  0
ARC
  8
0
  6
CONTINUOUS
 62
3
 10
-467.435285351457420
 20
-161.625321430836490
 40
1.500000000000110
 50
337.928141766202600
 51
59.999999999998380
  0
ARC
  8
0
  6
CONTINUOUS
 62
3
 10
-440.560599423791930
 20
-172.522626432043810
 40
27.499999999999886
 50
157.928141766202200
 51
202.071858233798680
  0
ARC
  8
0
  6
CONTINUOUS
 62
3
 10
-440.560599423791250
 20
-172.522626432044260
 40
37.000000000000156
 50
155.963570118321120
 51
204.036429881678230
  0
ARC
  8
0
  6
CONTINUOUS
 62
3
 10
-440.560599423791250
 20
-172.522626432044260
 40
43.000000000000121
 50
155.531071524839230
 51
204.468928475160200
  0
ARC
  8
0
  6
CONTINUOUS
 62
3
 10
-440.560599423791250
 20
-172.522626432044260
 40
33.499999999999794
 50
157.180755781458400
 51
202.819244218540940
  0
ARC
  8
0
  6
CONTINUOUS
 62
3
 10
-467.435285351457200
 20
-183.419931433251120
 40
1.500000000000320
 50
299.999999999992950
 51
22.071858233784546
  0
ARC
  8
0
  6
CONTINUOUS
 62
3
 10
-478.333319476926820
 20
-189.711914369228680
 40
1.500000000000128
 50
204.468928475167470
 51
299.999999999992950
  0
LINE
  8
0
  6
CONTINUOUS
 62
3
 10
-477.583319476926820
 20
-191.010952474905710
 11
-474.972135877942720
 21
-189.503384921128370
  0
ARC
  8
0
  6
CONTINUOUS
 62
3
 10
-475.722135877942720
 20
-188.204346815451800
 40
1.499999999999926
 50
300.000000000001590
 51
24.036429881677126
  0
LINE
  8
0
  6
CONTINUOUS
 62
3
 10
-469.306053593526490
 20
-186.232070788970080
 11
-466.685285351457200
 21
-184.718969538928150
  0
ARC
  8
0
  6
CONTINUOUS
 62
3
 10
-470.056053593526490
 20
-184.933032683293500
 40
1.500000000000157
 50
202.819244218546660
 51
300.000000000001590
  0
ARC
  8
0
  6
CONTINUOUS
 62
3
 10
-474.333319476926360
 20
-148.405135264583120
 40
1.499999999999976
 50
144.468928475160790
 51
240.000000000002730
  0
LINE
  8
0
  6
CONTINUOUS
 62
3
 10
-472.472135877942260
 20
-151.211740924037030
 11
-475.083319476926360
 21
-149.704173370259920
  0
LINE
  8
0
  6
CONTINUOUS
 62
3
 10
-464.185285351457200
 20
-155.996156306237250
 11
-466.806053593526030
 21
-154.483055056195100
  0
ARC
  8
0
  6
CONTINUOUS
 62
3
 10
-471.722135877942260
 20
-149.912702818360230
 40
1.500000000000123
 50
240.000000000002730
 51
324.036429881683720
  0
ARC
  8
0
  6
CONTINUOUS
 62
3
 10
-466.056053593526030
 20
-153.184016950518530
 40
1.500000000000103
 50
142.819244218542510
 51
239.999999999998410
  0
ARC
  8
0
  6
CONTINUOUS
 62
3
 10
-463.435285351457200
 20
-154.697118200560680
 40
1.499999999999926
 50
239.999999999998410
 51
322.071858233800300
  0
ARC
  8
0
  6
CONTINUOUS
 62
3
 10
-440.560599423791020
 20
-172.522626432043810
 40
37.000000000000099
 50
95.963570118321798
 51
144.036429881678830
  0
ARC
  8
0
  6
CONTINUOUS
 62
3
 10
-440.560599423791020
 20
-172.522626432043810
 40
43.000000000000043
 50
95.531071524839788
 51
144.468928475160770
  0
ARC
  8
0
  6
CONTINUOUS
 62
3
 10
-440.560599423791020
 20
-172.522626432043810
 40
33.499999999999950
 50
97.180755781459069
 51
142.819244218541740
  0
ARC
  8
0
  6
CONTINUOUS
 62
3
 10
-444.560599423791470
 20
-143.799813199353370
 40
1.499999999999998
 50
277.928141766204020
 51
0.000000000000000
  0
ARC
  8
0
  6
CONTINUOUS
 62
3
 10
-484.509186854073960
 20
-122.426011964515510
 40
6.599999999999971
 50
98.597082237248614
 51
134.999999999998610
  0
ARC
  8
0
  6
CONTINUOUS
 62
3
 10
-647.560599423791470
 20
-172.522626432043350
 40
300.000000000000170
 50
355.138594604201900
 51
0.000000000000000
  0
LINE
  8
0
  6
CONTINUOUS
 62
3
 10
-353.621830289810080
 20
-202.522626432043350
 11
-377.060599423791470
 21
-202.522626432043350
  0
ARC
  8
0
  6
CONTINUOUS
 62
3
 10
-353.621830289810080
 20
-197.522626432043350
 40
5.000000000000000
 50
270.000000000000000
 51
355.138594604199000
  0
ARC
  8
0
  6
CONTINUOUS
 62
3
 10
-353.621830289810080
 20
-147.522626432043580
 40
5.000000000000119
 50
4.861405395798401
 51
90.000000000000000
  0
ARC
  8
0
  6
CONTINUOUS
 62
3
 10
-647.560599423791470
 20
-172.522626432043350
 40
300.000000000000000
 50
0.000000000000000
 51
4.861405395797992
  0
LINE
  8
0
  6
CONTINUOUS
 62
3
 10
-347.060599423791470
 20
-170.022626432043350
 11
-347.571016271309190
 21
-170.022626432043350
  0
LINE
  8
0
  6
CONTINUOUS
 62
3
 10
-347.060599423791470
 20
-175.022626432043350
 11
-347.571016271309190
 21
-175.022626432043350
  0
LINE
  8
0
  6
CONTINUOUS
 62
3
 10
-347.060599423791470
 20
-175.022626432043350
 11
-347.060599423791470
 21
-170.022626432043350
  0
LINE
  8
0
  6
CONTINUOUS
 62
3
 10
-377.215604483250440
 20
-141.022626432043580
 11
-377.060599423791470
 21
-141.022626432043580
  0
LINE
  8
0
  6
CONTINUOUS
 62
3
 10
-353.621830289810080
 20
-142.522626432043580
 11
-377.061351681507630
 21
-142.522626432043580
  0
LINE
  8
0
  6
CONTINUOUS
 62
3
 10
-377.060599423791470
 20
-204.022626432043810
 11
-377.060599423791470
 21
-202.515125494310500
  0
LINE
  8
0
  6
CONTINUOUS
 62
3
 10
-377.060599423791470
 20
-142.530127369776890
 11
-377.060599423791470
 21
-141.022626432043580
  0
LINE
  8
0
  6
CONTINUOUS
 62
3
 10
-377.215604483250440
 20
-204.022626432043810
 11
-377.060599423791470
 21
-204.022626432043810
  0
ARC
  8
0
  6
CONTINUOUS
 62
4
 10
-204.960599423791510
 20
-172.522626432043810
 40
289.396999999999990
 50
173.948014641331470
 51
180.000000000000000
  0
LINE
  8
0
  6
CONTINUOUS
 62
4
 10
-483.744758066292660
 20
-128.171208204337520
 11
-488.320823458931270
 21
-132.747273596976130
  0
ARC
  8
0
  6
CONTINUOUS
 62
4
 10
-479.502117379173570
 20
-132.413848891457060
 40
5.999999999999923
 50
97.897988672425626
 51
134.999999999996930
  0
ARC
  8
0
  6
CONTINUOUS
 62
4
 10
-440.560599423791470
 20
-413.122626432043720
 40
289.396999999999930
 50
90.000000000000000
 51
97.897988672427743
  0
ARC
  8
0
  6
CONTINUOUS
 62
3
 10
-199.031848367696170
 20
265.638398627642800
 40
5.000000000000000
 50
180.000000000000000
 51
252.542396876278160
  0
LINE
  8
0
  6
CONTINUOUS
 62
3
 10
-200.531848367696170
 20
261.314944753385130
 11
-200.531848367696170
 21
260.327935015460750
  0
LINE
  8
0
  6
CONTINUOUS
 62
3
 10
-193.531848367696170
 20
261.314944753385130
 11
-193.531848367696170
 21
260.327935015460750
  0
ARC
  8
0
  6
CONTINUOUS
 62
3
 10
-199.231848367695990
 20
261.314944753385130
 40
1.300000000000019
 50
106.601549599022360
 51
180.000000000000000
  0
ARC
  8
0
  6
CONTINUOUS
 62
3
 10
-197.031848367696170
 20
253.935920427635660
 40
9.000000000000123
 50
73.398450400980877
 51
106.601549599019120
  0
ARC
  8
0
  6
CONTINUOUS
 62
3
 10
-194.831848367696350
 20
261.314944753385130
 40
1.300000000000182
 50
0.000000000000000
 51
73.398450400977637
  0
POLYLINE
  8
0
  6
CONTINUOUS
 62
3
 66
1
  0
VERTEX
  8
0
  6
CONTINUOUS
 62
3
 10
-200.531848367696170
 20
260.327935015460750
  0
VERTEX
  8
0
  6
CONTINUOUS
 62
3
 10
-200.464596849107470
 20
260.293836805264790
  0
VERTEX
  8
0
  6
CONTINUOUS
 62
3
 10
-200.265426731485660
 20
260.261048970164150
  0
VERTEX
  8
0
  6
CONTINUOUS
 62
3
 10
-199.941992010755090
 20
260.230831528274110
  0
VERTEX
  8
0
  6
CONTINUOUS
 62
3
 10
-199.506722101849080
 20
260.204345718940430
  0
VERTEX
  8
0
  6
CONTINUOUS
 62
3
 10
-198.976344183264790
 20
260.182609376962320
  0
VERTEX
  8
0
  6
CONTINUOUS
 62
3
 10
-198.371240380973970
 20
260.166457817772140
  0
VERTEX
  8
0
  6
CONTINUOUS
 62
3
 10
-197.714664494752610
 20
260.156511736731720
  0
VERTEX
  8
0
  6
CONTINUOUS
 62
3
 10
-197.031848367696170
 20
260.153153356157530
  0
VERTEX
  8
0
  6
CONTINUOUS
 62
3
 10
-196.349032240639730
 20
260.156511736731720
  0
VERTEX
  8
0
  6
CONTINUOUS
 62
3
 10
-195.692456354418370
 20
260.166457817772140
  0
VERTEX
  8
0
  6
CONTINUOUS
 62
3
 10
-195.087352552127560
 20
260.182609376962320
  0
VERTEX
  8
0
  6
CONTINUOUS
 62
3
 10
-194.556974633543260
 20
260.204345718940430
  0
VERTEX
  8
0
  6
CONTINUOUS
 62
3
 10
-194.121704724637250
 20
260.230831528274110
  0
VERTEX
  8
0
  6
CONTINUOUS
 62
3
 10
-193.798270003906680
 20
260.261048970164150
  0
VERTEX
  8
0
  6
CONTINUOUS
 62
3
 10
-193.599099886284880
 20
260.293836805264790
  0
VERTEX
  8
0
  6
CONTINUOUS
 62
3
 10
-193.531848367696170
 20
260.327935015460750
  0
SEQEND
  8
0
  6
CONTINUOUS
 62
3
  0
LINE
  8
0
  6
CONTINUOUS
 62
3
 10
-204.031848367696170
 20
265.638398627642800
 11
-204.031848367696170
 21
278.577373567955870
  0
LINE
  8
0
  6
CONTINUOUS
 62
3
 10
-204.031848367696170
 20
265.171883859018180
 11
-205.031848367696170
 21
265.171883859018180
  0
ARC
  8
0
  6
CONTINUOUS
 62
3
 10
-199.031848367696170
 20
246.977373567955960
 40
5.000000000000000
 50
180.000000000000000
 51
270.000000000000000
  0
ARC
  8
0
  6
CONTINUOUS
 62
3
 10
-199.031848367696170
 20
278.577373567955870
 40
5.000000000000000
 50
90.000000000000000
 51
180.000000000000000
  0
ARC
  8
0
  6
CONTINUOUS
 62
3
 10
-205.031848367696170
 20
263.171883859018180
 40
2.000000000000000
 50
90.000000000000000
 51
180.000000000000000
  0
ARC
  8
0
  6
CONTINUOUS
 62
3
 10
-205.031848367696170
 20
262.078246930740990
 40
2.000000000000000
 50
180.000000000000000
 51
270.000000000000000
  0
ARC
  8
0
  6
CONTINUOUS
 62
3
 10
-205.031848367696170
 20
261.279245059655750
 40
2.000000000000000
 50
180.000000000000000
 51
270.000000000000000
  0
LINE
  8
0
  6
CONTINUOUS
 62
3
 10
-207.031848367696170
 20
263.171883859018180
 11
-207.031848367696170
 21
260.480243188536860
  0
ARC
  8
0
  6
CONTINUOUS
 62
3
 10
-205.031848367696170
 20
260.480243188536860
 40
2.000000000000000
 50
180.000000000000000
 51
270.000000000000000
  0
LINE
  8
0
  6
CONTINUOUS
 62
3
 10
-204.031848367696170
 20
246.977373567955960
 11
-204.031848367696170
 21
258.480243188536860
  0
LINE
  8
0
  6
CONTINUOUS
 62
3
 10
-204.031848367696170
 20
236.977373567955960
 11
-204.031848367696170
 21
241.977373567955960
  0
ARC
  8
0
  6
CONTINUOUS
 62
3
 10
-211.531848367695940
 20
112.858152651083400
 40
3.000000000000000
 50
90.000000000000000
 51
180.000000000000000
  0
ARC
  8
0
  6
CONTINUOUS
 62
3
 10
-207.531848367696060
 20
118.858152651083400
 40
3.000000000000000
 50
270.000000000000000
 51
0.000000000000000
  0
LINE
  8
0
  6
CONTINUOUS
 62
3
 10
-214.531848367695940
 20
112.477373567956190
 11
-214.531848367695940
 21
112.858152651083400
  0
LINE
  8
0
  6
CONTINUOUS
 62
3
 10
-211.531848367695940
 20
115.858152651083400
 11
-207.531848367696060
 21
115.858152651083400
  0
LINE
  8
0
  6
CONTINUOUS
 62
3
 10
-137.531848367696060
 20
113.977373567956420
 11
-137.531848367696060
 21
118.977373567956420
  0
LINE
  8
0
  6
CONTINUOUS
 62
3
 10
-145.531848367696060
 20
83.977373567956647
 11
-153.531848367696060
 21
83.977373567956647
  0
LINE
  8
0
  6
CONTINUOUS
 62
3
 10
-153.531848367696060
 20
84.477373567956647
 11
-153.531848367696060
 21
83.977373567956647
  0
LINE
  8
0
  6
CONTINUOUS
 62
3
 10
-148.031848367696060
 20
84.477373567956647
 11
-148.031848367696060
 21
83.977373567956647
  0
LINE
  8
0
  6
CONTINUOUS
 62
3
 10
-145.531848367696060
 20
84.477373567956647
 11
-145.531848367696060
 21
83.977373567956647
  0
LINE
  8
0
  6
CONTINUOUS
 62
3
 10
-139.531848367696060
 20
84.477373567956647
 11
-210.531848367695940
 21
84.477373567956647
  0
ARC
  8
0
  6
CONTINUOUS
 62
3
 10
-210.531848367695940
 20
85.477373567956647
 40
1.000000000000000
 50
180.000000000000000
 51
270.000000000000000
  0
ARC
  8
0
  6
CONTINUOUS
 62
3
 10
-139.531848367696060
 20
85.477373567956647
 40
1.000000000000000
 50
270.000000000000000
 51
0.000000000000000
  0
LINE
  8
0
  6
CONTINUOUS
 62
3
 10
-138.531848367696060
 20
85.477373567956647
 11
-138.531848367696060
 21
113.977373567956420
  0
LINE
  8
0
  6
CONTINUOUS
 62
3
 10
-211.531848367695940
 20
85.477373567956647
 11
-211.531848367695940
 21
113.977373567956420
  0
LINE
  8
0
  6
CONTINUOUS
 62
3
 10
-137.531848367696060
 20
113.977373567956420
 11
-212.531848367695940
 21
113.977373567956420
  0
LINE
  8
0
  6
CONTINUOUS
 62
3
 10
-137.531848367696060
 20
118.977373567956420
 11
-204.531848367696060
 21
118.977373567956420
  0
LINE
  8
0
  6
CONTINUOUS
 62
3
 10
-212.531848367695940
 20
113.977373567956420
 11
-212.531848367695940
 21
115.686579775829610
  0
ARC
  8
0
  6
CONTINUOUS
 62
3
 10
-233.225872590116410
 20
132.477373567956190
 40
20.000000000000007
 50
234.999999999999740
 51
270.000000000000000
  0
LINE
  8
0
  6
CONTINUOUS
 62
3
 10
-214.531848367695940
 20
112.477373567956190
 11
-233.225872590116410
 21
112.477373567956190
  0
ARC
  8
0
  6
CONTINUOUS
 62
3
 10
-252.931848367645780
 20
125.034168510710740
 40
2.600000000000136
 50
180.000000000000000
 51
234.999999999998610
  0
LINE
  8
0
  6
CONTINUOUS
 62
3
 10
-244.697401317137410
 20
116.094332682176400
 11
-254.423147102158400
 21
122.904373195559620
  0
LINE
  8
0
  6
CONTINUOUS
 62
3
 10
-255.531848367645920
 20
177.477373567956190
 11
-255.531848367645920
 21
125.034168510710740
  0
LINE
  8
0
  6
CONTINUOUS
 62
3
 10
-204.531848367696060
 20
177.477373567956190
 11
-204.531848367696060
 21
118.858152651083400
  0
ARC
  8
0
  6
CONTINUOUS
 62
3
 10
-252.931848367645780
 20
229.920578625201640
 40
2.599999999999721
 50
125.000000000001370
 51
180.000000000000000
  0
LINE
  8
0
  6
CONTINUOUS
 62
3
 10
-244.697401317137410
 20
238.860414453735980
 11
-254.423147102158400
 21
232.050373940352760
  0
ARC
  8
0
  6
CONTINUOUS
 62
3
 10
-233.225872590116410
 20
222.477373567956190
 40
20.000000000000000
 50
90.000000000000000
 51
125.000000000000240
  0
LINE
  8
0
  6
CONTINUOUS
 62
3
 10
-255.531848367645920
 20
177.477373567956190
 11
-255.531848367645920
 21
229.920578625201640
  0
LINE
  8
0
  6
CONTINUOUS
 62
3
 10
-204.531848367696060
 20
242.477373567956190
 11
-233.225872590116410
 21
242.477373567956190
  0
LINE
  8
0
  6
CONTINUOUS
 62
3
 10
-204.531848367696060
 20
177.477373567956190
 11
-204.531848367696060
 21
242.477373567956190
  0
LINE
  8
0
  6
CONTINUOUS
 62
3
 10
-215.531848367695490
 20
231.217488668393800
 11
-217.531848367695490
 21
229.564847029270370
  0
LINE
  8
0
  6
CONTINUOUS
 62
3
 10
-213.531848367695490
 20
232.393274154016580
 11
-215.531848367695490
 21
231.217488668393800
  0
LINE
  8
0
  6
CONTINUOUS
 62
3
 10
-215.531848367695490
 20
231.217488668393800
 11
-213.531848367695490
 21
229.564847029270370
  0
LINE
  8
0
  6
CONTINUOUS
 62
3
 10
-217.531848367695490
 20
232.393274154016580
 11
-215.531848367695490
 21
231.217488668393800
  0
POLYLINE
  8
0
  6
CONTINUOUS
 62
3
 66
1
 70
1
  0
VERTEX
  8
0
  6
CONTINUOUS
 62
3
 10
-210.831848367695500
 20
229.400898600016260
  0
VERTEX
  8
0
  6
CONTINUOUS
 62
3
 10
-210.922157549800320
 20
230.103855566216620
  0
VERTEX
  8
0
  6
CONTINUOUS
 62
3
 10
-211.189614564892450
 20
230.779798290428720
  0
VERTEX
  8
0
  6
CONTINUOUS
 62
3
 10
-211.623941189873530
 20
231.402750672834120
  0
VERTEX
  8
0
  6
CONTINUOUS
 62
3
 10
-212.208446496118710
 20
231.948773002732710
  0
VERTEX
  8
0
  6
CONTINUOUS
 62
3
 10
-212.920668272503380
 20
232.396881948199340
  0
VERTEX
  8
0
  6
CONTINUOUS
 62
3
 10
-213.733236235579570
 20
232.729856933762080
  0
VERTEX
  8
0
  6
CONTINUOUS
 62
3
 10
-214.614923854219680
 20
232.934901917460340
  0
VERTEX
  8
0
  6
CONTINUOUS
 62
3
 10
-215.531848367695490
 20
233.004137135561110
  0
VERTEX
  8
0
  6
CONTINUOUS
 62
3
 10
-216.448772881171290
 20
232.934901917460340
  0
VERTEX
  8
0
  6
CONTINUOUS
 62
3
 10
-217.330460499811410
 20
232.729856933762080
  0
VERTEX
  8
0
  6
CONTINUOUS
 62
3
 10
-218.143028462887600
 20
232.396881948199340
  0
VERTEX
  8
0
  6
CONTINUOUS
 62
3
 10
-218.855250239272270
 20
231.948773002732710
  0
VERTEX
  8
0
  6
CONTINUOUS
 62
3
 10
-219.439755545517440
 20
231.402750672834120
  0
VERTEX
  8
0
  6
CONTINUOUS
 62
3
 10
-219.874082170498530
 20
230.779798290428720
  0
VERTEX
  8
0
  6
CONTINUOUS
 62
3
 10
-220.141539185590660
 20
230.103855566216620
  0
VERTEX
  8
0
  6
CONTINUOUS
 62
3
 10
-220.231848367695480
 20
229.400898600016260
  0
VERTEX
  8
0
  6
CONTINUOUS
 62
3
 10
-220.141539185590660
 20
228.697941633815900
  0
VERTEX
  8
0
  6
CONTINUOUS
 62
3
 10
-219.874082170498530
 20
228.021998909603810
  0
VERTEX
  8
0
  6
CONTINUOUS
 62
3
 10
-219.439755545517440
 20
227.399046527198410
  0
VERTEX
  8
0
  6
CONTINUOUS
 62
3
 10
-218.855250239272240
 20
226.853024197299820
  0
VERTEX
  8
0
  6
CONTINUOUS
 62
3
 10
-218.143028462887600
 20
226.404915251833190
  0
VERTEX
  8
0
  6
CONTINUOUS
 62
3
 10
-217.330460499811410
 20
226.071940266270450
  0
VERTEX
  8
0
  6
CONTINUOUS
 62
3
 10
-216.448772881171290
 20
225.866895282572190
  0
VERTEX
  8
0
  6
CONTINUOUS
 62
3
 10
-215.531848367695490
 20
225.797660064471420
  0
VERTEX
  8
0
  6
CONTINUOUS
 62
3
 10
-214.614923854219680
 20
225.866895282572190
  0
VERTEX
  8
0
  6
CONTINUOUS
 62
3
 10
-213.733236235579570
 20
226.071940266270450
  0
VERTEX
  8
0
  6
CONTINUOUS
 62
3
 10
-212.920668272503380
 20
226.404915251833190
  0
VERTEX
  8
0
  6
CONTINUOUS
 62
3
 10
-212.208446496118740
 20
226.853024197299820
  0
VERTEX
  8
0
  6
CONTINUOUS
 62
3
 10
-211.623941189873530
 20
227.399046527198410
  0
VERTEX
  8
0
  6
CONTINUOUS
 62
3
 10
-211.189614564892450
 20
228.021998909603810
  0
VERTEX
  8
0
  6
CONTINUOUS
 62
3
 10
-210.922157549800320
 20
228.697941633815900
  0
SEQEND
  8
0
  6
CONTINUOUS
 62
3
  0
LINE
  8
0
  6
CONTINUOUS
 62
3
 10
-215.531848367695490
 20
123.737258467518350
 11
-217.531848367695490
 21
125.389900106641790
  0
LINE
  8
0
  6
CONTINUOUS
 62
3
 10
-213.531848367695490
 20
122.561472981896030
 11
-215.531848367695490
 21
123.737258467518350
  0
LINE
  8
0
  6
CONTINUOUS
 62
3
 10
-215.531848367695490
 20
123.737258467518350
 11
-213.531848367695490
 21
125.389900106641790
  0
LINE
  8
0
  6
CONTINUOUS
 62
3
 10
-217.531848367695490
 20
122.561472981896030
 11
-215.531848367695490
 21
123.737258467518350
  0
POLYLINE
  8
0
  6
CONTINUOUS
 62
3
 66
1
 70
1
  0
VERTEX
  8
0
  6
CONTINUOUS
 62
3
 10
-210.831848367695500
 20
125.553848535896350
  0
VERTEX
  8
0
  6
CONTINUOUS
 62
3
 10
-210.922157549800320
 20
126.256805502096710
  0
VERTEX
  8
0
  6
CONTINUOUS
 62
3
 10
-211.189614564892450
 20
126.932748226308810
  0
VERTEX
  8
0
  6
CONTINUOUS
 62
3
 10
-211.623941189873530
 20
127.555700608714200
  0
VERTEX
  8
0
  6
CONTINUOUS
 62
3
 10
-212.208446496118710
 20
128.101722938612800
  0
VERTEX
  8
0
  6
CONTINUOUS
 62
3
 10
-212.920668272503380
 20
128.549831884079420
  0
VERTEX
  8
0
  6
CONTINUOUS
 62
3
 10
-213.733236235579570
 20
128.882806869642170
  0
VERTEX
  8
0
  6
CONTINUOUS
 62
3
 10
-214.614923854219680
 20
129.087851853340420
  0
VERTEX
  8
0
  6
CONTINUOUS
 62
3
 10
-215.531848367695490
 20
129.157087071441200
  0
VERTEX
  8
0
  6
CONTINUOUS
 62
3
 10
-216.448772881171290
 20
129.087851853340420
  0
VERTEX
  8
0
  6
CONTINUOUS
 62
3
 10
-217.330460499811410
 20
128.882806869642170
  0
VERTEX
  8
0
  6
CONTINUOUS
 62
3
 10
-218.143028462887600
 20
128.549831884079420
  0
VERTEX
  8
0
  6
CONTINUOUS
 62
3
 10
-218.855250239272270
 20
128.101722938612800
  0
VERTEX
  8
0
  6
CONTINUOUS
 62
3
 10
-219.439755545517440
 20
127.555700608714200
  0
VERTEX
  8
0
  6
CONTINUOUS
 62
3
 10
-219.874082170498530
 20
126.932748226308810
  0
VERTEX
  8
0
  6
CONTINUOUS
 62
3
 10
-220.141539185590660
 20
126.256805502096710
  0
VERTEX
  8
0
  6
CONTINUOUS
 62
3
 10
-220.231848367695480
 20
125.553848535896350
  0
VERTEX
  8
0
  6
CONTINUOUS
 62
3
 10
-220.141539185590660
 20
124.850891569695980
  0
VERTEX
  8
0
  6
CONTINUOUS
 62
3
 10
-219.874082170498530
 20
124.174948845483880
  0
VERTEX
  8
0
  6
CONTINUOUS
 62
3
 10
-219.439755545517440
 20
123.551996463078490
  0
VERTEX
  8
0
  6
CONTINUOUS
 62
3
 10
-218.855250239272240
 20
123.005974133179900
  0
VERTEX
  8
0
  6
CONTINUOUS
 62
3
 10
-218.143028462887600
 20
122.557865187713290
  0
VERTEX
  8
0
  6
CONTINUOUS
 62
3
 10
-217.330460499811410
 20
122.224890202150530
  0
VERTEX
  8
0
  6
CONTINUOUS
 62
3
 10
-216.448772881171290
 20
122.019845218452270
  0
VERTEX
  8
0
  6
CONTINUOUS
 62
3
 10
-215.531848367695490
 20
121.950610000351500
  0
VERTEX
  8
0
  6
CONTINUOUS
 62
3
 10
-214.614923854219680
 20
122.019845218452270
  0
VERTEX
  8
0
  6
CONTINUOUS
 62
3
 10
-213.733236235579570
 20
122.224890202150530
  0
VERTEX
  8
0
  6
CONTINUOUS
 62
3
 10
-212.920668272503380
 20
122.557865187713290
  0
VERTEX
  8
0
  6
CONTINUOUS
 62
3
 10
-212.208446496118740
 20
123.005974133179900
  0
VERTEX
  8
0
  6
CONTINUOUS
 62
3
 10
-211.623941189873530
 20
123.551996463078490
  0
VERTEX
  8
0
  6
CONTINUOUS
 62
3
 10
-211.189614564892450
 20
124.174948845483880
  0
VERTEX
  8
0
  6
CONTINUOUS
 62
3
 10
-210.922157549800320
 20
124.850891569695980
  0
SEQEND
  8
0
  6
CONTINUOUS
 62
3
  0
LINE
  8
0
  6
CONTINUOUS
 62
3
 10
-215.531848367694920
 20
-226.262741532481640
 11
-217.531848367694920
 21
-224.610099893358210
  0
LINE
  8
0
  6
CONTINUOUS
 62
3
 10
-213.531848367694920
 20
-227.438527018103970
 11
-215.531848367694920
 21
-226.262741532481640
  0
LINE
  8
0
  6
CONTINUOUS
 62
3
 10
-215.531848367694920
 20
-226.262741532481640
 11
-213.531848367694920
 21
-224.610099893358210
  0
LINE
  8
0
  6
CONTINUOUS
 62
3
 10
-217.531848367694920
 20
-227.438527018103970
 11
-215.531848367694920
 21
-226.262741532481640
  0
POLYLINE
  8
0
  6
CONTINUOUS
 62
3
 66
1
 70
1
  0
VERTEX
  8
0
  6
CONTINUOUS
 62
3
 10
-210.831848367694930
 20
-224.446151464103650
  0
VERTEX
  8
0
  6
CONTINUOUS
 62
3
 10
-210.922157549799750
 20
-223.743194497903290
  0
VERTEX
  8
0
  6
CONTINUOUS
 62
3
 10
-211.189614564891880
 20
-223.067251773691200
  0
VERTEX
  8
0
  6
CONTINUOUS
 62
3
 10
-211.623941189872970
 20
-222.444299391285800
  0
VERTEX
  8
0
  6
CONTINUOUS
 62
3
 10
-212.208446496118140
 20
-221.898277061387200
  0
VERTEX
  8
0
  6
CONTINUOUS
 62
3
 10
-212.920668272502810
 20
-221.450168115920580
  0
VERTEX
  8
0
  6
CONTINUOUS
 62
3
 10
-213.733236235579000
 20
-221.117193130357830
  0
VERTEX
  8
0
  6
CONTINUOUS
 62
3
 10
-214.614923854219110
 20
-220.912148146659580
  0
VERTEX
  8
0
  6
CONTINUOUS
 62
3
 10
-215.531848367694920
 20
-220.842912928558800
  0
VERTEX
  8
0
  6
CONTINUOUS
 62
3
 10
-216.448772881170730
 20
-220.912148146659580
  0
VERTEX
  8
0
  6
CONTINUOUS
 62
3
 10
-217.330460499810840
 20
-221.117193130357830
  0
VERTEX
  8
0
  6
CONTINUOUS
 62
3
 10
-218.143028462887030
 20
-221.450168115920580
  0
VERTEX
  8
0
  6
CONTINUOUS
 62
3
 10
-218.855250239271700
 20
-221.898277061387200
  0
VERTEX
  8
0
  6
CONTINUOUS
 62
3
 10
-219.439755545516870
 20
-222.444299391285800
  0
VERTEX
  8
0
  6
CONTINUOUS
 62
3
 10
-219.874082170497960
 20
-223.067251773691200
  0
VERTEX
  8
0
  6
CONTINUOUS
 62
3
 10
-220.141539185590090
 20
-223.743194497903290
  0
VERTEX
  8
0
  6
CONTINUOUS
 62
3
 10
-220.231848367694910
 20
-224.446151464103650
  0
VERTEX
  8
0
  6
CONTINUOUS
 62
3
 10
-220.141539185590090
 20
-225.149108430304010
  0
VERTEX
  8
0
  6
CONTINUOUS
 62
3
 10
-219.874082170497960
 20
-225.825051154516100
  0
VERTEX
  8
0
  6
CONTINUOUS
 62
3
 10
-219.439755545516870
 20
-226.448003536921500
  0
VERTEX
  8
0
  6
CONTINUOUS
 62
3
 10
-218.855250239271670
 20
-226.994025866820100
  0
VERTEX
  8
0
  6
CONTINUOUS
 62
3
 10
-218.143028462887030
 20
-227.442134812286720
  0
VERTEX
  8
0
  6
CONTINUOUS
 62
3
 10
-217.330460499810840
 20
-227.775109797849470
  0
VERTEX
  8
0
  6
CONTINUOUS
 62
3
 10
-216.448772881170730
 20
-227.980154781547720
  0
VERTEX
  8
0
  6
CONTINUOUS
 62
3
 10
-215.531848367694920
 20
-228.049389999648500
  0
VERTEX
  8
0
  6
CONTINUOUS
 62
3
 10
-214.614923854219110
 20
-227.980154781547720
  0
VERTEX
  8
0
  6
CONTINUOUS
 62
3
 10
-213.733236235579000
 20
-227.775109797849470
  0
VERTEX
  8
0
  6
CONTINUOUS
 62
3
 10
-212.920668272502810
 20
-227.442134812286720
  0
VERTEX
  8
0
  6
CONTINUOUS
 62
3
 10
-212.208446496118170
 20
-226.994025866820100
  0
VERTEX
  8
0
  6
CONTINUOUS
 62
3
 10
-211.623941189872970
 20
-226.448003536921500
  0
VERTEX
  8
0
  6
CONTINUOUS
 62
3
 10
-211.189614564891880
 20
-225.825051154516100
  0
VERTEX
  8
0
  6
CONTINUOUS
 62
3
 10
-210.922157549799750
 20
-225.149108430304010
  0
SEQEND
  8
0
  6
CONTINUOUS
 62
3
  0
LINE
  8
0
  6
CONTINUOUS
 62
3
 10
-215.531848367694920
 20
-118.782511331606200
 11
-217.531848367694920
 21
-120.435152970729630
  0
LINE
  8
0
  6
CONTINUOUS
 62
3
 10
-213.531848367694920
 20
-117.606725845983410
 11
-215.531848367694920
 21
-118.782511331606200
  0
LINE
  8
0
  6
CONTINUOUS
 62
3
 10
-215.531848367694920
 20
-118.782511331606200
 11
-213.531848367694920
 21
-120.435152970729630
  0
LINE
  8
0
  6
CONTINUOUS
 62
3
 10
-217.531848367694920
 20
-117.606725845983410
 11
-215.531848367694920
 21
-118.782511331606200
  0
POLYLINE
  8
0
  6
CONTINUOUS
 62
3
 66
1
 70
1
  0
VERTEX
  8
0
  6
CONTINUOUS
 62
3
 10
-210.831848367694930
 20
-120.599101399983730
  0
VERTEX
  8
0
  6
CONTINUOUS
 62
3
 10
-210.922157549799750
 20
-119.896144433783370
  0
VERTEX
  8
0
  6
CONTINUOUS
 62
3
 10
-211.189614564891880
 20
-119.220201709571280
  0
VERTEX
  8
0
  6
CONTINUOUS
 62
3
 10
-211.623941189872970
 20
-118.597249327165880
  0
VERTEX
  8
0
  6
CONTINUOUS
 62
3
 10
-212.208446496118140
 20
-118.051226997267300
  0
VERTEX
  8
0
  6
CONTINUOUS
 62
3
 10
-212.920668272502810
 20
-117.603118051800690
  0
VERTEX
  8
0
  6
CONTINUOUS
 62
3
 10
-213.733236235579000
 20
-117.270143066237920
  0
VERTEX
  8
0
  6
CONTINUOUS
 62
3
 10
-214.614923854219110
 20
-117.065098082539670
  0
VERTEX
  8
0
  6
CONTINUOUS
 62
3
 10
-215.531848367694920
 20
-116.995862864438900
  0
VERTEX
  8
0
  6
CONTINUOUS
 62
3
 10
-216.448772881170730
 20
-117.065098082539670
  0
VERTEX
  8
0
  6
CONTINUOUS
 62
3
 10
-217.330460499810840
 20
-117.270143066237920
  0
VERTEX
  8
0
  6
CONTINUOUS
 62
3
 10
-218.143028462887030
 20
-117.603118051800690
  0
VERTEX
  8
0
  6
CONTINUOUS
 62
3
 10
-218.855250239271700
 20
-118.051226997267300
  0
VERTEX
  8
0
  6
CONTINUOUS
 62
3
 10
-219.439755545516870
 20
-118.597249327165880
  0
VERTEX
  8
0
  6
CONTINUOUS
 62
3
 10
-219.874082170497960
 20
-119.220201709571280
  0
VERTEX
  8
0
  6
CONTINUOUS
 62
3
 10
-220.141539185590090
 20
-119.896144433783370
  0
VERTEX
  8
0
  6
CONTINUOUS
 62
3
 10
-220.231848367694910
 20
-120.599101399983730
  0
VERTEX
  8
0
  6
CONTINUOUS
 62
3
 10
-220.141539185590090
 20
-121.302058366184090
  0
VERTEX
  8
0
  6
CONTINUOUS
 62
3
 10
-219.874082170497960
 20
-121.978001090396190
  0
VERTEX
  8
0
  6
CONTINUOUS
 62
3
 10
-219.439755545516870
 20
-122.600953472801590
  0
VERTEX
  8
0
  6
CONTINUOUS
 62
3
 10
-218.855250239271670
 20
-123.146975802700160
  0
VERTEX
  8
0
  6
CONTINUOUS
 62
3
 10
-218.143028462887030
 20
-123.595084748166780
  0
VERTEX
  8
0
  6
CONTINUOUS
 62
3
 10
-217.330460499810840
 20
-123.928059733729550
  0
VERTEX
  8
0
  6
CONTINUOUS
 62
3
 10
-216.448772881170730
 20
-124.133104717427790
  0
VERTEX
  8
0
  6
CONTINUOUS
 62
3
 10
-215.531848367694920
 20
-124.202339935528570
  0
VERTEX
  8
0
  6
CONTINUOUS
 62
3
 10
-214.614923854219110
 20
-124.133104717427790
  0
VERTEX
  8
0
  6
CONTINUOUS
 62
3
 10
-213.733236235579000
 20
-123.928059733729550
  0
VERTEX
  8
0
  6
CONTINUOUS
 62
3
 10
-212.920668272502810
 20
-123.595084748166780
  0
VERTEX
  8
0
  6
CONTINUOUS
 62
3
 10
-212.208446496118170
 20
-123.146975802700160
  0
VERTEX
  8
0
  6
CONTINUOUS
 62
3
 10
-211.623941189872970
 20
-122.600953472801590
  0
VERTEX
  8
0
  6
CONTINUOUS
 62
3
 10
-211.189614564891880
 20
-121.978001090396190
  0
VERTEX
  8
0
  6
CONTINUOUS
 62
3
 10
-210.922157549799750
 20
-121.302058366184090
  0
SEQEND
  8
0
  6
CONTINUOUS
 62
3
  0
ARC
  8
0
  6
CONTINUOUS
 62
3
 10
-252.931848367645220
 20
-219.965831489289260
 40
2.600000000000136
 50
180.000000000000000
 51
234.999999999998610
  0
LINE
  8
0
  6
CONTINUOUS
 62
3
 10
-244.697401317136840
 20
-228.905667317823600
 11
-254.423147102157830
 21
-222.095626804440370
  0
ARC
  8
0
  6
CONTINUOUS
 62
3
 10
-233.225872590115840
 20
-212.522626432043810
 40
20.000000000000007
 50
234.999999999999740
 51
270.000000000000000
  0
LINE
  8
0
  6
CONTINUOUS
 62
3
 10
-255.531848367645350
 20
-172.522626432043810
 11
-255.531848367645350
 21
-219.965831489289260
  0
LINE
  8
0
  6
CONTINUOUS
 62
3
 10
-204.531848367695490
 20
-232.522626432043810
 11
-233.225872590115840
 21
-232.522626432043810
  0
ARC
  8
0
  6
CONTINUOUS
 62
3
 10
-207.531848367695490
 20
-213.522626432043810
 40
3.000000000000000
 50
0.000000000000000
 51
90.000000000000000
  0
LINE
  8
0
  6
CONTINUOUS
 62
3
 10
-207.531848367695490
 20
-210.522626432043810
 11
-211.531848367695370
 21
-210.522626432043810
  0
ARC
  8
0
  6
CONTINUOUS
 62
3
 10
-211.531848367695370
 20
-207.522626432043810
 40
3.000000000000000
 50
180.000000000000000
 51
270.000000000000000
  0
LINE
  8
0
  6
CONTINUOUS
 62
3
 10
-204.531848367695490
 20
-213.522626432043810
 11
-204.531848367695490
 21
-232.522626432043810
  0
ARC
  8
0
  6
CONTINUOUS
 62
3
 10
-252.931848367645220
 20
-125.079421374798350
 40
2.599999999999721
 50
125.000000000001370
 51
180.000000000000000
  0
LINE
  8
0
  6
CONTINUOUS
 62
3
 10
-244.697401317136840
 20
-116.139585546264010
 11
-254.423147102157830
 21
-122.949626059647240
  0
ARC
  8
0
  6
CONTINUOUS
 62
3
 10
-233.225872590115840
 20
-132.522626432043810
 40
20.000000000000000
 50
90.000000000000000
 51
125.000000000000240
  0
LINE
  8
0
  6
CONTINUOUS
 62
3
 10
-255.531848367645350
 20
-172.522626432043810
 11
-255.531848367645350
 21
-125.079421374798350
  0
LINE
  8
0
  6
CONTINUOUS
 62
3
 10
-204.531848367695490
 20
-112.522626432043800
 11
-233.225872590115840
 21
-112.522626432043800
  0
ARC
  8
0
  6
CONTINUOUS
 62
3
 10
-207.531848367695490
 20
-131.522626432043810
 40
3.000000000000000
 50
270.000000000000000
 51
0.000000000000000
  0
LINE
  8
0
  6
CONTINUOUS
 62
3
 10
-207.531848367695490
 20
-134.522626432043810
 11
-211.531848367695370
 21
-134.522626432043810
  0
LINE
  8
0
  6
CONTINUOUS
 62
3
 10
-204.531848367695490
 20
-131.522626432043810
 11
-204.531848367695490
 21
-112.522626432043800
  0
POLYLINE
  8
0
  6
CONTINUOUS
 62
3
 66
1
  0
VERTEX
  8
0
  6
CONTINUOUS
 62
3
 10
185.046488912985410
 20
-178.854465142038860
  0
VERTEX
  8
0
  6
CONTINUOUS
 62
3
 10
184.757228923405680
 20
-173.147524209563130
  0
VERTEX
  8
0
  6
CONTINUOUS
 62
3
 10
183.900565053847120
 20
-167.659897816633080
  0
VERTEX
  8
0
  6
CONTINUOUS
 62
3
 10
182.509418416394280
 20
-162.602472368032690
  0
VERTEX
  8
0
  6
CONTINUOUS
 62
3
 10
180.637249996160390
 20
-158.169601887514800
  0
VERTEX
  8
0
  6
CONTINUOUS
 62
3
 10
178.356006175610960
 20
-154.531639101663330
  0
VERTEX
  8
0
  6
CONTINUOUS
 62
3
 10
175.753353875433420
 20
-151.828388880145500
  0
VERTEX
  8
0
  6
CONTINUOUS
 62
3
 10
172.929311563939310
 20
-150.163735612974050
  0
VERTEX
  8
0
  6
CONTINUOUS
 62
3
 10
169.992405603418230
 20
-149.601650991658060
  0
VERTEX
  8
0
  6
CONTINUOUS
 62
3
 10
167.055499642897160
 20
-150.163735612974050
  0
VERTEX
  8
0
  6
CONTINUOUS
 62
3
 10
164.231457331403050
 20
-151.828388880145500
  0
VERTEX
  8
0
  6
CONTINUOUS
 62
3
 10
161.628805031225510
 20
-154.531639101663330
  0
VERTEX
  8
0
  6
CONTINUOUS
 62
3
 10
159.347561210676080
 20
-158.169601887514830
  0
VERTEX
  8
0
  6
CONTINUOUS
 62
3
 10
157.475392790442210
 20
-162.602472368032690
  0
VERTEX
  8
0
  6
CONTINUOUS
 62
3
 10
156.084246152989350
 20
-167.659897816633080
  0
VERTEX
  8
0
  6
CONTINUOUS
 62
3
 10
155.227582283430820
 20
-173.147524209563130
  0
VERTEX
  8
0
  6
CONTINUOUS
 62
3
 10
154.938322293851060
 20
-178.854465142038860
  0
SEQEND
  8
0
  6
CONTINUOUS
 62
3
  0
POLYLINE
  8
0
  6
CONTINUOUS
 62
3
 66
1
  0
VERTEX
  8
0
  6
CONTINUOUS
 62
3
 10
353.677757776051980
 20
-178.854468018837000
  0
VERTEX
  8
0
  6
CONTINUOUS
 62
3
 10
353.480632790099550
 20
-173.479277308601700
  0
VERTEX
  8
0
  6
CONTINUOUS
 62
3
 10
352.895970269220020
 20
-168.287132184634150
  0
VERTEX
  8
0
  6
CONTINUOUS
 62
3
 10
351.943680195579590
 20
-163.454844932877480
  0
VERTEX
  8
0
  6
CONTINUOUS
 62
3
 10
350.656191667514520
 20
-159.146973310273610
  0
VERTEX
  8
0
  6
CONTINUOUS
 62
3
 10
349.077348565412820
 20
-155.510216727366070
  0
VERTEX
  8
0
  6
CONTINUOUS
 62
3
 10
347.260916500859590
 20
-152.668420575508490
  0
VERTEX
  8
0
  6
CONTINUOUS
 62
3
 10
345.268751893104590
 20
-150.718358820335060
  0
VERTEX
  8
0
  6
CONTINUOUS
 62
3
 10
343.168695522762050
 20
-149.726438480222580
  0
VERTEX
  8
0
  6
CONTINUOUS
 62
3
 10
341.032262295248530
 20
-149.726438214785050
  0
VERTEX
  8
0
  6
CONTINUOUS
 62
3
 10
338.932205886299760
 20
-150.718358033061610
  0
VERTEX
  8
0
  6
CONTINUOUS
 62
3
 10
336.940041202646970
 20
-152.668419293208790
  0
VERTEX
  8
0
  6
CONTINUOUS
 62
3
 10
335.123609027489010
 20
-155.510214993707280
  0
VERTEX
  8
0
  6
CONTINUOUS
 62
3
 10
333.544765783842190
 20
-159.146971184293420
  0
VERTEX
  8
0
  6
CONTINUOUS
 62
3
 10
332.257277088111720
 20
-163.454842486973580
  0
VERTEX
  8
0
  6
CONTINUOUS
 62
3
 10
331.304986826395240
 20
-168.287129502098880
  0
VERTEX
  8
0
  6
CONTINUOUS
 62
3
 10
330.720324103433770
 20
-173.479274480785620
  0
VERTEX
  8
0
  6
CONTINUOUS
 62
3
 10
330.523198908275110
 20
-178.854465142037950
  0
SEQEND
  8
0
  6
CONTINUOUS
 62
3
  0
ARC
  8
0
  6
CONTINUOUS
 62
3
 10
553.859463512959790
 20
-314.022626432043580
 40
5.000000000000000
 50
180.000000000000000
 51
270.000000000000000
  0
ARC
  8
0
  6
CONTINUOUS
 62
3
 10
564.387189569152270
 20
-314.022626432043580
 40
5.000000000000000
 50
180.000000000000000
 51
270.000000000000000
  0
ARC
  8
0
  6
CONTINUOUS
 62
3
 10
587.541748436929540
 20
-314.022626432043580
 40
5.000000000000000
 50
180.000000000000000
 51
270.000000000000000
  0
ARC
  8
0
  6
CONTINUOUS
 62
3
 10
359.205483832244230
 20
-314.022626432043580
 40
5.000000000000000
 50
270.000000000000000
 51
0.000000000000000
  0
ARC
  8
0
  6
CONTINUOUS
 62
3
 10
348.677757776052660
 20
-314.022626432043580
 40
5.000000000000000
 50
270.000000000000000
 51
0.000000000000000
  0
ARC
  8
0
  6
CONTINUOUS
 62
3
 10
325.523198908275390
 20
-314.022626432043580
 40
5.000000000000000
 50
270.000000000000000
 51
0.000000000000000
  0
ARC
  8
0
  6
CONTINUOUS
 62
3
 10
529.032473672602010
 20
-299.322626432043760
 40
10.000000000000000
 50
270.000000000000000
 51
0.000000000000000
  0
ARC
  8
0
  6
CONTINUOUS
 62
3
 10
384.032473672602010
 20
-299.322626432043760
 40
10.000000000000000
 50
180.000000000000000
 51
270.000000000000000
  0
ARC
  8
0
  6
CONTINUOUS
 62
3
 10
317.032473672602010
 20
-322.022626432043580
 40
3.000000000000000
 50
90.000000000000000
 51
180.000000000000000
  0
ARC
  8
0
  6
CONTINUOUS
 62
3
 10
596.032473672602010
 20
-322.022626432043580
 40
3.000000000000000
 50
0.000000000000000
 51
90.000000000000000
  0
ARC
  8
0
  6
CONTINUOUS
 62
3
 10
366.032473672602010
 20
-341.022626432043580
 40
2.000000000000000
 50
90.000000000000000
 51
180.000000000000000
  0
ARC
  8
0
  6
CONTINUOUS
 62
3
 10
318.532473672602010
 20
-316.022626432043580
 40
3.000000000000000
 50
270.000000000000000
 51
0.000000000000000
  0
ARC
  8
0
  6
CONTINUOUS
 62
3
 10
547.032473672602010
 20
-341.022626432043580
 40
2.000000000000000
 50
0.000000000000000
 51
90.000000000000000
  0
ARC
  8
0
  6
CONTINUOUS
 62
3
 10
594.532473672602010
 20
-316.022626432043580
 40
3.000000000000000
 50
180.000000000000000
 51
270.000000000000000
  0
ARC
  8
0
  6
CONTINUOUS
 62
3
 10
456.532473672602010
 20
-666.022626432044490
 40
600.000000000000680
 50
87.075476210271646
 51
90.000000000000000
  0
ARC
  8
0
  6
CONTINUOUS
 62
3
 10
481.532473672602920
 20
-176.660797107360850
 40
109.999999999999090
 50
0.000000000000000
 51
87.075476210271603
  0
ARC
  8
0
  6
CONTINUOUS
 62
3
 10
456.532473672602010
 20
-666.022626432044490
 40
600.000000000000000
 50
90.000000000000000
 51
92.924523789728170
  0
ARC
  8
0
  6
CONTINUOUS
 62
3
 10
467.032473672602920
 20
-41.022626432044490
 40
10.000000000000000
 50
0.000000000000000
 51
90.000000000000000
  0
CIRCLE
  8
0
  6
CONTINUOUS
 62
3
 10
456.532473672602920
 20
-51.022626432044490
 40
10.000000000000000
  0
ARC
  8
0
  6
CONTINUOUS
 62
3
 10
446.032473672602920
 20
-41.022626432044490
 40
10.000000000000000
 50
90.000000000000000
 51
180.000000000000000
  0
ARC
  8
0
  6
CONTINUOUS
 62
3
 10
271.068151632322840
 20
-194.622626432043940
 40
0.400000000000546
 50
270.000000000000000
 51
0.000000000000000
  0
ARC
  8
0
  6
CONTINUOUS
 62
3
 10
271.068151632322840
 20
-147.422626432045040
 40
0.399999999999636
 50
0.000000000000000
 51
90.000000000000000
  0
ARC
  8
0
  6
CONTINUOUS
 62
3
 10
208.467744253181000
 20
-171.053858983309510
 40
7.000000000000000
 50
90.000000000000000
 51
270.000000000000000
  0
ARC
  8
0
  6
CONTINUOUS
 62
3
 10
197.268151632322680
 20
-195.672626432045040
 40
0.800000000001091
 50
90.000000000000000
 51
180.000000000000000
  0
ARC
  8
0
  6
CONTINUOUS
 62
3
 10
197.268151632322680
 20
-146.372626432043940
 40
0.800000000000182
 50
180.000000000000000
 51
270.000000000000000
  0
ARC
  8
0
  6
CONTINUOUS
 62
3
 10
157.938322293851260
 20
-314.745148049246380
 40
3.000000000000000
 50
180.000000000000000
 51
267.999999999996080
  0
ARC
  8
0
  6
CONTINUOUS
 62
3
 10
188.046488912985210
 20
-315.796548395572240
 40
3.000000000000000
 50
180.000000000000000
 51
268.000000000005290
  0
ARC
  8
0
  6
CONTINUOUS
 62
3
 10
195.468151632322500
 20
-317.986402045706200
 40
3.000000000000000
 50
180.000000000000000
 51
224.415308597194890
  0
ARC
  8
0
  6
CONTINUOUS
 62
3
 10
190.468151632322500
 20
-322.885381531273200
 40
4.000000000000000
 50
0.000000000000000
 51
87.999999999996504
  0
ARC
  8
0
  6
CONTINUOUS
 62
3
 10
189.468151632322500
 20
-109.531025580471570
 40
3.000000000000000
 50
0.000000000000000
 51
31.410339509406533
  0
ARC
  8
0
  6
CONTINUOUS
 62
3
 10
119.484697085153040
 20
-152.266445195169580
 40
84.999999999999844
 50
31.410339509413163
 51
88.999999999999758
  0
ARC
  8
0
  6
CONTINUOUS
 62
3
 10
193.468151632322500
 20
-216.022626432044490
 40
1.000000000000000
 50
90.000000000000000
 51
180.000000000000000
  0
ARC
  8
0
  6
CONTINUOUS
 62
3
 10
193.468151632322500
 20
-126.022626432044490
 40
1.000000000000000
 50
180.000000000000000
 51
270.000000000000000
  0
ARC
  8
0
  6
CONTINUOUS
 62
3
 10
513.453471555633310
 20
-174.022626432044490
 40
3.000000000000000
 50
90.000000000000000
 51
176.983038690193300
  0
ARC
  8
0
  6
CONTINUOUS
 62
3
 10
456.532473672602010
 20
-666.022626432044490
 40
557.326989840400530
 50
87.075476210271688
 51
90.000000000000000
  0
ARC
  8
0
  6
CONTINUOUS
 62
3
 10
456.532473672602010
 20
-666.022626432044490
 40
557.326989840400530
 50
90.000000000000000
 51
92.924523789728227
  0
ARC
  8
0
  6
CONTINUOUS
 62
3
 10
431.532473672602010
 20
-176.660797107360850
 40
109.999999999999800
 50
92.924523789727928
 51
180.000000000000000
  0
CIRCLE
  8
0
  6
CONTINUOUS
 62
3
 10
456.532473672602010
 20
-171.022626432044490
 40
43.999999999999545
  0
CIRCLE
  8
0
  6
CONTINUOUS
 62
3
 10
456.532473672602010
 20
-171.022626432044490
 40
33.999999999999659
  0
ARC
  8
0
  6
CONTINUOUS
 62
3
 10
456.532473672602010
 20
-171.053858983308600
 40
23.999999999999723
 50
196.957763300004330
 51
163.042236699995670
  0
CIRCLE
  8
0
  6
CONTINUOUS
 62
3
 10
456.532473672602010
 20
-171.022626432044490
 40
3.324999999999989
  0
CIRCLE
  8
0
  6
CONTINUOUS
 62
4
 10
456.532473672602010
 20
-171.022626432044490
 40
4.000000000000000
  0
LINE
  8
0
  6
CONTINUOUS
 62
3
 10
314.032473672602010
 20
-322.022626432043580
 11
314.032473672602010
 21
-341.022626432043580
  0
LINE
  8
0
  6
CONTINUOUS
 62
3
 10
456.532473672602010
 20
-309.322626432043760
 11
529.032473672602010
 21
-309.322626432043760
  0
LINE
  8
0
  6
CONTINUOUS
 62
3
 10
456.532473672602010
 20
-309.322626432043760
 11
384.032473672602010
 21
-309.322626432043760
  0
LINE
  8
0
  6
CONTINUOUS
 62
3
 10
599.032473672602010
 20
-322.022626432043580
 11
599.032473672602010
 21
-341.022626432043580
  0
LINE
  8
0
  6
CONTINUOUS
 62
3
 10
364.032473672602010
 20
-341.022626432043580
 11
314.032473672602010
 21
-341.022626432043580
  0
LINE
  8
0
  6
DASHED
 62
3
 10
350.532473672602010
 20
-319.022626432043580
 11
350.308117923262670
 21
-319.022626432043580
  0
LINE
  8
0
  6
DASHDOT
 62
4
 10
331.532473672602010
 20
-314.809794057470750
 11
331.532473672602010
 21
-345.654564641577960
  0
LINE
  8
0
  6
CONTINUOUS
 62
3
 10
456.532473672602010
 20
-319.022626432043580
 11
317.032473672602010
 21
-319.022626432043580
  0
LINE
  8
0
  6
DASHED
 62
3
 10
562.532473672602010
 20
-319.022626432043580
 11
562.756829421942260
 21
-319.022626432043580
  0
LINE
  8
0
  6
CONTINUOUS
 62
3
 10
456.532473672602010
 20
-319.022626432043580
 11
596.032473672602010
 21
-319.022626432043580
  0
LINE
  8
0
  6
DASHDOT
 62
4
 10
581.532473672602010
 20
-314.809794057470750
 11
581.532473672602010
 21
-345.654564641577050
  0
LINE
  8
0
  6
CONTINUOUS
 62
3
 10
549.032473672602010
 20
-341.022626432043580
 11
599.032473672602010
 21
-341.022626432043580
  0
LINE
  8
0
  6
CONTINUOUS
 62
3
 10
456.532473672602010
 20
-339.022626432043580
 11
366.032473672602010
 21
-339.022626432043580
  0
LINE
  8
0
  6
CONTINUOUS
 62
3
 10
456.532473672602010
 20
-339.022626432043580
 11
547.032473672602010
 21
-339.022626432043580
  0
LINE
  8
0
  6
CONTINUOUS
 62
3
 10
582.541748436929540
 20
-178.854465142037950
 11
582.541748436929540
 21
-314.022626432043580
  0
LINE
  8
0
  6
CONTINUOUS
 62
3
 10
591.532473672602010
 20
-176.660797107360850
 11
591.532473672602010
 21
-316.022626432043580
  0
LINE
  8
0
  6
CONTINUOUS
 62
3
 10
477.032473672602920
 20
-41.022626432044490
 11
477.032473672602920
 21
-66.372937029973400
  0
LINE
  8
0
  6
DASHDOT
 62
4
 10
479.700386671484470
 20
-51.022626432044490
 11
432.677872769949770
 21
-51.022626432044490
  0
LINE
  8
0
  6
CONTINUOUS
 62
3
 10
467.032473672602920
 20
-31.022626432044490
 11
446.032473672602920
 21
-31.022626432044490
  0
LINE
  8
0
  6
CONTINUOUS
 62
3
 10
436.032473672602920
 20
-41.022626432044490
 11
436.032473672602920
 21
-66.372937029973400
  0
LINE
  8
0
  6
CONTINUOUS
 62
3
 10
271.468151632322470
 20
-171.022626432044490
 11
271.468151632322470
 21
-194.622626432043940
  0
LINE
  8
0
  6
CONTINUOUS
 62
3
 10
271.468151632322470
 20
-171.022626432044490
 11
271.468151632322470
 21
-147.422626432045040
  0
LINE
  8
0
  6
CONTINUOUS
 62
3
 10
271.468151632322020
 20
-164.053858983309510
 11
208.467744253181000
 21
-164.053858983309510
  0
LINE
  8
0
  6
CONTINUOUS
 62
3
 10
271.468151632322020
 20
-178.053858983309510
 11
208.467744253181000
 21
-178.053858983309510
  0
LINE
  8
0
  6
DASHDOT
 62
4
 10
287.522333969347410
 20
-171.022626432044490
 11
137.387412219373720
 21
-171.022626432044490
  0
LINE
  8
0
  6
CONTINUOUS
 62
3
 10
196.268151632322680
 20
-146.022626432044490
 11
194.468151632322500
 21
-146.022626432044490
  0
LINE
  8
0
  6
CONTINUOUS
 62
3
 10
196.268151632322680
 20
-196.022626432044490
 11
194.468151632322500
 21
-196.022626432044490
  0
LINE
  8
0
  6
CONTINUOUS
 62
3
 10
271.068151632322840
 20
-147.022626432044490
 11
199.027959253457910
 21
-147.022626432044490
  0
LINE
  8
0
  6
CONTINUOUS
 62
3
 10
271.068151632322840
 20
-195.022626432044490
 11
199.027959253457910
 21
-195.022626432044490
  0
LINE
  8
0
  6
CONTINUOUS
 62
3
 10
196.468151632322500
 20
-195.822626432044670
 11
196.268151632322680
 21
-196.022626432044490
  0
LINE
  8
0
  6
CONTINUOUS
 62
3
 10
196.468151632322500
 20
-195.672626432045040
 11
196.468151632322500
 21
-195.822626432044670
  0
LINE
  8
0
  6
CONTINUOUS
 62
3
 10
198.468151632322500
 20
-194.872626432043940
 11
197.268151632322680
 21
-194.872626432043940
  0
LINE
  8
0
  6
CONTINUOUS
 62
3
 10
198.468151632322500
 20
-194.872626432043940
 11
199.027959253457910
 21
-195.022626432044490
  0
LINE
  8
0
  6
CONTINUOUS
 62
3
 10
196.468151632322500
 20
-171.022626432044490
 11
196.468151632322500
 21
-195.672626432045040
  0
LINE
  8
0
  6
CONTINUOUS
 62
3
 10
196.468151632322500
 20
-146.222626432044310
 11
196.268151632322680
 21
-146.022626432044490
  0
LINE
  8
0
  6
CONTINUOUS
 62
3
 10
196.468151632322500
 20
-146.372626432043940
 11
196.468151632322500
 21
-146.222626432044310
  0
LINE
  8
0
  6
CONTINUOUS
 62
3
 10
198.468151632322500
 20
-147.172626432045040
 11
197.268151632322680
 21
-147.172626432045040
  0
LINE
  8
0
  6
CONTINUOUS
 62
3
 10
198.468151632322500
 20
-147.172626432045040
 11
199.027959253457910
 21
-147.022626432044490
  0
LINE
  8
0
  6
CONTINUOUS
 62
3
 10
196.468151632322500
 20
-171.022626432044490
 11
196.468151632322500
 21
-146.372626432043940
  0
LINE
  8
0
  6
CONTINUOUS
 62
3
 10
193.468151632322500
 20
-215.022626432044490
 11
194.468151632322500
 21
-215.022626432044490
  0
LINE
  8
0
  6
CONTINUOUS
 62
3
 10
193.468151632322500
 20
-127.022626432044490
 11
194.468151632322500
 21
-127.022626432044490
  0
LINE
  8
0
  6
CONTINUOUS
 62
3
 10
154.938322293851260
 20
-178.854465142038860
 11
154.938322293851260
 21
-314.745148049246380
  0
LINE
  8
0
  6
CONTINUOUS
 62
3
 10
185.046488912985210
 20
-178.854465142038860
 11
185.046488912985210
 21
-315.796548395572240
  0
LINE
  8
0
  6
CONTINUOUS
 62
3
 10
192.468151632322500
 20
-171.022626432044490
 11
192.468151632322500
 21
-109.531025580471570
  0
LINE
  8
0
  6
CONTINUOUS
 62
3
 10
194.468151632322500
 20
-171.022626432044490
 11
194.468151632322500
 21
-127.022626432044490
  0
LINE
  8
0
  6
CONTINUOUS
 62
3
 10
194.468151632322500
 20
-171.022626432044490
 11
194.468151632322500
 21
-215.022626432044490
  0
LINE
  8
0
  6
CONTINUOUS
 62
3
 10
192.468151632322500
 20
-171.022626432044490
 11
192.468151632322500
 21
-317.986402045706200
  0
LINE
  8
0
  6
DASHDOT
 62
4
 10
176.468151632322500
 20
-312.095664876564110
 11
176.468151632322500
 21
-349.433888906104580
  0
LINE
  8
0
  6
CONTINUOUS
 62
3
 10
190.607749619132760
 20
-318.887818223196520
 11
154.468151632322500
 21
-317.625795652374110
  0
LINE
  8
0
  6
CONTINUOUS
 62
3
 10
-11.531848367677526
 20
-341.022626432044490
 11
194.468151632322500
 21
-341.022626432044490
  0
LINE
  8
0
  6
CONTINUOUS
 62
3
 10
194.468151632322500
 20
-322.885381531273200
 11
194.468151632322500
 21
-341.022626432044490
  0
LINE
  8
0
  6
DASHDOT
 62
4
 10
410.731825840939560
 20
-172.522626432043670
 11
502.938652716307840
 21
-172.522626432043670
  0
LINE
  8
0
  6
DASHDOT
 62
4
 10
456.532473672602010
 20
-15.930036656147422
 11
456.532473672602010
 21
-348.362785214409090
  0
LINE
  8
0
  6
CONTINUOUS
 62
3
 10
330.523198908275390
 20
-178.854465142037950
 11
330.523198908275390
 21
-314.022626432043580
  0
LINE
  8
0
  6
CONTINUOUS
 62
3
 10
353.677757776052660
 20
-178.854468018837000
 11
353.677757776052660
 21
-314.022626432043580
  0
LINE
  8
0
  6
CONTINUOUS
 62
3
 10
321.532473672602010
 20
-176.660797107360850
 11
321.532473672602010
 21
-316.022626432043580
  0
LINE
  8
0
  6
CONTINUOUS
 62
3
 10
429.032473672602010
 20
-164.053858983308600
 11
429.032473672602010
 21
-178.053858983308600
  0
LINE
  8
0
  6
CONTINUOUS
 62
3
 10
438.032473672602010
 20
-164.053858983308600
 11
438.032473672602010
 21
-178.053858983308600
  0
LINE
  8
0
  6
CONTINUOUS
 62
3
 10
429.032473672602010
 20
-164.053858983308600
 11
438.032473672602010
 21
-164.053858983308600
  0
LINE
  8
0
  6
CONTINUOUS
 62
3
 10
429.032473672602010
 20
-178.053858983308600
 11
438.032473672602010
 21
-178.053858983308600
  0
ENDSEC
  0
EOF
