  0
SECTION
  2
HEADER
  9
$FILLMODE
 70
1
  9
$TEXTSTYLE
  7
STANDARD1
  9
$ACADVER
  1
AC1009
  9
$DIMASZ
 40
1.931851648807023
  9
$DIMEXE
 40
2.000000000000000
  9
$DIMEXO
 40
1.000000000000000
  9
$DIMLFAC
 40
1.000000000000000
  9
$DIMSCALE
 40
1.000000000000000
  9
$DIMTAD
 70
1
  9
$DIMTFAC
 40
0.714285731315613
  9
$DIMTXT
 40
2.799999952316284
  9
$LUPREC
 70
3
  9
$TEXTSIZE
 40
3.299999952316284
  9
$REGENMODE
 70
1
  0
ENDSEC
  0
SECTION
  2
TABLES
  0
TABLE
  2
LTYPE
 70
4
  0
LTYPE
  2
CONTINUOUS
 70
64
  3
Solid line
 72
65
 73
0
 40
0.0
  0
LTYPE
  2
DASHED
 70
64
  3
-- -- -- -- -- -- -- -- -- -- -- -- -- -- --
 72
65
 73
2
 40
0.75
 49
0.5
 49
-0.25
  0
LTYPE
  2
DASHDOT
 70
64
  3
__ . __ . __ . __ . __ . __ . __ . __ . __ . __
 72
65
 73
4
 40
1.0
 49
0.5
 49
-0.25
 49
0.0
 49
-0.25
  0
LTYPE
  2
DIVIDE
 70
64
  3
__ . . __ . . __ . . __ . . __ . . __ . . __
 72
65
 73
6
 40
1.25
 49
0.5
 49
-0.25
 49
0.0
 49
-0.25
 49
0.0
 49
-0.25
  0
ENDTAB
  0
TABLE
  2
LAYER
 70
1
  0
LAYER
  2
0
 70
64
 62
2
  6
CONTINUOUS
  0
ENDTAB
  0
TABLE
  2
STYLE
 70
4
  0
STYLE
  2
STANDARD1
 70
64
 40
0.0
 41
1.0
 50
0.0
 71
0
 42
3.299999952316284
  3
MONOTXT
  4
BIGFONT
  0
STYLE
  2
STANDARD2
 70
68
 40
0.0
 41
1.0
 50
0.0
 71
0
 42
3.299999952316284
  3
MONOTXT
  4
BIGFONT
  0
STYLE
  2
STANDARD3
 70
64
 40
0.0
 41
1.0
 50
0.0
 71
0
 42
3.299999952316284
  3
MONOTXT
  4

  0
STYLE
  2
STANDARD4
 70
68
 40
0.0
 41
1.0
 50
0.0
 71
0
 42
3.299999952316284
  3
MONOTXT
  4

  0
ENDTAB
  0
TABLE
  2
VIEW
 70
0
  0
ENDTAB
  0
ENDSEC
  0
SECTION
  2
BLOCKS
  0
BLOCK
  8
0
  2
SYM1
 70
64
 10
0.000000000000000
 20
0.000000000000000
  0
LINE
  8
0
  6
CONTINUOUS
 62
3
 10
-0.000000000000000
 20
-5.000000000000000
 11
-6.000000000000000
 21
-5.000000000000000
  0
LINE
  8
0
  6
CONTINUOUS
 62
3
 10
0.000000000000000
 20
5.000000000000000
 11
-6.000000000000000
 21
5.000000000000000
  0
LINE
  8
0
  6
CONTINUOUS
 62
3
 10
-6.000000000000000
 20
-5.000000000000000
 11
-6.000000000000000
 21
5.000000000000000
  0
LINE
  8
0
  6
CONTINUOUS
 62
3
 10
0.000000000000000
 20
5.000000000000000
 11
0.000000000000000
 21
-5.000000000000000
  0
POINT
  8
0
  6
CONTINUOUS
 62
3
 10
0.000000000000000
 20
0.000000000000000
  0
ENDBLK
  8
0
  0
ENDSEC
  0
SECTION
  2
ENTITIES
  0
ARC
  8
0
  6
CONTINUOUS
 62
3
 10
-272.930875906638510
 20
-149.914103829580340
 40
6.099999427795406
 50
264.601927898108500
 51
5.398089404735109
  0
POINT
  8
0
  6
CONTINUOUS
 62
3
 10
-270.668134341711490
 20
-152.176845394507380
  0
LINE
  8
0
  6
CONTINUOUS
 62
3
 10
-267.344732605004650
 20
-148.853443657800510
 11
-273.991536078418330
 21
-155.500247131214250
  0
LINE
  8
0
  6
CONTINUOUS
 62
3
 10
-267.031593996035840
 20
-149.105990608650900
 11
-273.708693298508760
 21
-155.783089911123820
  0
LINE
  8
0
  6
CONTINUOUS
 62
3
 10
-273.991536078418330
 20
-155.500247131214250
 11
-273.504732686712710
 21
-155.987050522919840
  0
LINE
  8
0
  6
CONTINUOUS
 62
3
 10
-267.344732605004650
 20
-148.853443657800510
 11
-266.857929213299030
 21
-149.340247049506130
  0
ARC
  8
0
  6
CONTINUOUS
 62
3
 10
-362.592016030832330
 20
-149.914103829580340
 40
6.099999427795398
 50
174.601910595264880
 51
275.398072101891500
  0
POINT
  8
0
  6
CONTINUOUS
 62
3
 10
-364.854757595759340
 20
-152.176845394507380
  0
LINE
  8
0
  6
CONTINUOUS
 62
3
 10
-368.178159332466180
 20
-148.853443657800510
 11
-361.531355859052500
 21
-155.500247131214250
  0
LINE
  8
0
  6
CONTINUOUS
 62
3
 10
-368.491297941434990
 20
-149.105990608650900
 11
-361.814198638962070
 21
-155.783089911123820
  0
LINE
  8
0
  6
CONTINUOUS
 62
3
 10
-361.531355859052500
 20
-155.500247131214250
 11
-362.018159250758120
 21
-155.987050522919840
  0
LINE
  8
0
  6
CONTINUOUS
 62
3
 10
-368.178159332466180
 20
-148.853443657800510
 11
-368.664962724171800
 21
-149.340247049506130
  0
ARC
  8
0
  6
CONTINUOUS
 62
3
 10
-362.592016030832330
 20
-60.252963705386342
 40
6.099999427795406
 50
84.601927898108471
 51
185.398089404735260
  0
POINT
  8
0
  6
CONTINUOUS
 62
3
 10
-364.854757595759340
 20
-57.990222140459309
  0
LINE
  8
0
  6
CONTINUOUS
 62
3
 10
-368.178159332466180
 20
-61.313623877166165
 11
-361.531355859052500
 21
-54.666820403752453
  0
LINE
  8
0
  6
CONTINUOUS
 62
3
 10
-368.491297941434990
 20
-61.061076926315799
 11
-361.814198638962070
 21
-54.383977623842874
  0
LINE
  8
0
  6
CONTINUOUS
 62
3
 10
-361.531355859052500
 20
-54.666820403752453
 11
-362.018159250758120
 21
-54.180017012046832
  0
LINE
  8
0
  6
CONTINUOUS
 62
3
 10
-368.178159332466180
 20
-61.313623877166165
 11
-368.664962724171800
 21
-60.826820485460544
  0
ARC
  8
0
  6
CONTINUOUS
 62
3
 10
-272.930875906638510
 20
-60.252963705386342
 40
6.099999427795398
 50
354.601910595264830
 51
95.398072101891529
  0
POINT
  8
0
  6
CONTINUOUS
 62
3
 10
-270.668134341711490
 20
-57.990222140459309
  0
LINE
  8
0
  6
CONTINUOUS
 62
3
 10
-267.344732605004650
 20
-61.313623877166165
 11
-273.991536078418330
 21
-54.666820403752453
  0
LINE
  8
0
  6
CONTINUOUS
 62
3
 10
-267.031593996035840
 20
-61.061076926315799
 11
-273.708693298508760
 21
-54.383977623842874
  0
LINE
  8
0
  6
CONTINUOUS
 62
3
 10
-273.991536078418330
 20
-54.666820403752453
 11
-273.504732686712710
 21
-54.180017012046832
  0
LINE
  8
0
  6
CONTINUOUS
 62
3
 10
-267.344732605004650
 20
-61.313623877166165
 11
-266.857929213299030
 21
-60.826820485460544
  0
TEXT
  8
0
  6
CONTINUOUS
 62
3
 10
-364.475494384765620
 20
138.163192749023440
 40
10.295999526977539
  1
Ｓ０８７
 50
0.000002504478167
 41
0.984848625190477
  7
STANDARD1
  0
TEXT
  8
0
  6
CONTINUOUS
 62
3
 10
-364.475494384765620
 20
121.627182006835930
 40
10.295999526977539
  1
三菱ギヤードモートル
 50
0.000002504478167
 41
0.984848625190477
  7
STANDARD1
  0
TEXT
  8
0
  6
CONTINUOUS
 62
3
 10
-364.475494384765620
 20
105.091178894042960
 40
10.295999526977539
  1
ＧＭ－ＳＳＢ
 50
0.000002504478167
 41
0.984848625190477
  7
STANDARD1
  0
TEXT
  8
0
  6
CONTINUOUS
 62
3
 10
-364.475494384765620
 20
88.555183410644531
 40
10.295999526977539
  1
０．１ｋＷ
 50
0.000002504478167
 41
0.984848625190477
  7
STANDARD1
  0
TEXT
  8
0
  6
CONTINUOUS
 62
3
 10
-364.475494384765620
 20
72.019180297851562
 40
10.295999526977539
  1
１／１２０～１／２００
 50
0.000002504478167
 41
0.984848625190477
  7
STANDARD1
  0
TEXT
  8
0
  6
CONTINUOUS
 62
3
 10
-364.475494384765620
 20
55.483180999755859
 40
10.295999526977539
  1
ＳＣＡＬＥ１／１
 50
0.000002504478167
 41
0.984848625190477
  7
STANDARD1
  0
LINE
  8
0
  6
CONTINUOUS
 62
3
 10
-286.261443584551100
 20
-50.526905412481369
 11
-286.261444538225420
 21
-47.640156144903244
  0
LINE
  8
0
  6
CONTINUOUS
 62
3
 10
-281.261448352920750
 20
-47.640162122484412
 11
-281.261447399246440
 21
-50.526907575365271
  0
LINE
  8
0
  6
CONTINUOUS
 62
3
 10
-283.761441247528410
 20
-46.196785027127362
 11
-281.261447462737120
 21
-47.640161671674832
  0
LINE
  8
0
  6
CONTINUOUS
 62
3
 10
-283.761451480861070
 20
-51.970280705205539
 11
-286.261443785904700
 21
-50.526905358461420
  0
LINE
  8
0
  6
CONTINUOUS
 62
3
 10
-283.761441186298950
 20
-46.196785507270079
 11
-286.261445914345810
 21
-47.640156542363229
  0
LINE
  8
0
  6
CONTINUOUS
 62
3
 10
-281.261446616791550
 20
-50.526907742159437
 11
-283.761450966298070
 21
-51.970281318855314
  0
LINE
  8
0
  6
CONTINUOUS
 62
3
 10
-349.261448352919730
 20
-50.526905412481369
 11
-349.261447399245410
 21
-47.640156144903244
  0
LINE
  8
0
  6
CONTINUOUS
 62
3
 10
-354.261443584550080
 20
-47.640162122484412
 11
-354.261444538224400
 21
-50.526907575365271
  0
LINE
  8
0
  6
CONTINUOUS
 62
3
 10
-351.761450689942420
 20
-46.196785027127362
 11
-354.261444474733710
 21
-47.640161671674832
  0
LINE
  8
0
  6
CONTINUOUS
 62
3
 10
-351.761440456609650
 20
-51.970280705205539
 11
-349.261448151566130
 21
-50.526905358461420
  0
LINE
  8
0
  6
CONTINUOUS
 62
3
 10
-351.761450751171880
 20
-46.196785507270079
 11
-349.261446023125020
 21
-47.640156542363229
  0
LINE
  8
0
  6
CONTINUOUS
 62
3
 10
-354.261445320679290
 20
-50.526907742159437
 11
-351.761440971172760
 21
-51.970281318855314
  0
CIRCLE
  8
0
  6
CONTINUOUS
 62
3
 10
-381.761445968735420
 20
-107.083533767483400
 40
5.000000000000000
  0
LINE
  8
0
  6
CONTINUOUS
 62
3
 10
-379.261448352919840
 20
-108.526905412481310
 11
-379.261447399245750
 21
-105.640156144903180
  0
LINE
  8
0
  6
CONTINUOUS
 62
3
 10
-384.261443584550310
 20
-105.640162122484350
 11
-384.261444538224620
 21
-108.526907575365210
  0
LINE
  8
0
  6
CONTINUOUS
 62
3
 10
-381.761450689942650
 20
-104.196785027127300
 11
-384.261444474733930
 21
-105.640161671674770
  0
LINE
  8
0
  6
CONTINUOUS
 62
3
 10
-381.761440456609990
 20
-109.970280705205480
 11
-379.261448151566360
 21
-108.526905358461360
  0
LINE
  8
0
  6
CONTINUOUS
 62
3
 10
-381.761450751172110
 20
-104.196785507270020
 11
-379.261446023125250
 21
-105.640156542363170
  0
LINE
  8
0
  6
CONTINUOUS
 62
3
 10
-384.261445320679510
 20
-108.526907742159380
 11
-381.761440971172990
 21
-109.970281318855250
  0
CIRCLE
  8
0
  6
CONTINUOUS
 62
3
 10
-357.761445968735190
 20
-163.583533767483520
 40
5.000000000000000
  0
LINE
  8
0
  6
CONTINUOUS
 62
3
 10
-355.261448352919730
 20
-165.026905412481430
 11
-355.261447399245410
 21
-162.140156144903300
  0
LINE
  8
0
  6
CONTINUOUS
 62
3
 10
-360.261443584550080
 20
-162.140162122484470
 11
-360.261444538224400
 21
-165.026907575365330
  0
LINE
  8
0
  6
CONTINUOUS
 62
3
 10
-357.761450689942420
 20
-160.696785027127420
 11
-360.261444474733710
 21
-162.140161671674890
  0
LINE
  8
0
  6
CONTINUOUS
 62
3
 10
-357.761440456609650
 20
-166.470280705205600
 11
-355.261448151566130
 21
-165.026905358461480
  0
LINE
  8
0
  6
CONTINUOUS
 62
3
 10
-357.761450751171880
 20
-160.696785507270140
 11
-355.261446023125020
 21
-162.140156542363290
  0
LINE
  8
0
  6
CONTINUOUS
 62
3
 10
-360.261445320679290
 20
-165.026907742159490
 11
-357.761440971172760
 21
-166.470281318855370
  0
CIRCLE
  8
0
  6
CONTINUOUS
 62
3
 10
-277.761445968735640
 20
-163.583533767483520
 40
5.000000000000000
  0
LINE
  8
0
  6
CONTINUOUS
 62
3
 10
-280.261443584551100
 20
-165.026905412481430
 11
-280.261444538225420
 21
-162.140156144903300
  0
LINE
  8
0
  6
CONTINUOUS
 62
3
 10
-275.261448352920750
 20
-162.140162122484470
 11
-275.261447399246440
 21
-165.026907575365330
  0
LINE
  8
0
  6
CONTINUOUS
 62
3
 10
-277.761441247528410
 20
-160.696785027127420
 11
-275.261447462737120
 21
-162.140161671674890
  0
LINE
  8
0
  6
CONTINUOUS
 62
3
 10
-277.761451480861070
 20
-166.470280705205600
 11
-280.261443785904700
 21
-165.026905358461480
  0
LINE
  8
0
  6
CONTINUOUS
 62
3
 10
-277.761441186298950
 20
-160.696785507270140
 11
-280.261445914345810
 21
-162.140156542363290
  0
LINE
  8
0
  6
CONTINUOUS
 62
3
 10
-275.261446616791550
 20
-165.026907742159490
 11
-277.761450966298070
 21
-166.470281318855370
  0
LINE
  8
0
  6
CONTINUOUS
 62
3
 10
-317.761445968735190
 20
-168.083533767483460
 11
-351.412233419135190
 21
-168.083533767483460
  0
ARC
  8
0
  6
CONTINUOUS
 62
3
 10
-351.412233419135190
 20
-167.083533767483460
 40
1.000000000000049
 50
151.134272584994620
 51
270.000000000000000
  0
ARC
  8
0
  6
CONTINUOUS
 62
3
 10
-357.761445968735190
 20
-163.583533767483520
 40
6.249999999999792
 50
331.134272584992350
 51
147.533799814502200
  0
ARC
  8
0
  6
CONTINUOUS
 62
3
 10
-363.878330866640450
 20
-159.691719390386280
 40
0.999999999999825
 50
195.896808563644750
 51
327.533799814499730
  0
LINE
  8
0
  6
CONTINUOUS
 62
3
 10
-317.761445968735640
 20
-168.083533767483460
 11
-284.110658518335640
 21
-168.083533767483460
  0
ARC
  8
0
  6
CONTINUOUS
 62
3
 10
-284.110658518335640
 20
-167.083533767483460
 40
1.000000000000000
 50
270.000000000000000
 51
28.865727415011673
  0
ARC
  8
0
  6
CONTINUOUS
 62
3
 10
-277.761445968735640
 20
-163.583533767483520
 40
6.250000000000016
 50
32.466200185499126
 51
208.865727415006660
  0
ARC
  8
0
  6
CONTINUOUS
 62
3
 10
-271.644561070830380
 20
-159.691719390386250
 40
1.000000000000154
 50
212.466200185493310
 51
344.103191436353650
  0
ARC
  8
0
  6
CONTINUOUS
 62
3
 10
-277.761445968735640
 20
-163.583533767483570
 40
7.000000000000063
 50
308.213210701740310
 51
8.736046408088891
  0
ARC
  8
0
  6
CONTINUOUS
 62
3
 10
-378.261445968735190
 20
-122.441632748303330
 40
10.000000000000000
 50
180.000000000000000
 51
212.293666879645000
  0
ARC
  8
0
  6
CONTINUOUS
 62
3
 10
-296.960092486223180
 20
-127.229751786370790
 40
40.999999999999915
 50
313.090533982667180
 51
327.706333120354880
  0
ARC
  8
0
  6
CONTINUOUS
 62
3
 10
-264.912265095674000
 20
-161.609058928102910
 40
6.000000000000012
 50
132.989840483216540
 51
188.736046408088780
  0
LINE
  8
0
  6
CONTINUOUS
 62
3
 10
-283.570920988046740
 20
-169.083533767483460
 11
-273.431318949813200
 21
-169.083533767483460
  0
ARC
  8
0
  6
CONTINUOUS
 62
3
 10
-277.761445968735640
 20
-163.583533767483520
 40
7.999999999999941
 50
214.228866327812370
 51
223.432536557789660
  0
LINE
  8
0
  6
CONTINUOUS
 62
3
 10
-351.951970949424090
 20
-169.083533767483460
 11
-362.091572987657630
 21
-169.083533767483460
  0
ARC
  8
0
  6
CONTINUOUS
 62
3
 10
-357.761445968735190
 20
-163.583533767483520
 40
7.999999999999938
 50
316.567463442210340
 51
325.771133672187600
  0
ARC
  8
0
  6
CONTINUOUS
 62
3
 10
-357.761445968735190
 20
-163.583533767483570
 40
7.000000000000076
 50
171.263953591911330
 51
231.786789298259690
  0
ARC
  8
0
  6
CONTINUOUS
 62
3
 10
-370.610626841796830
 20
-161.609058928102910
 40
5.999999999999940
 50
351.263953591910930
 51
47.010159516783276
  0
ARC
  8
0
  6
CONTINUOUS
 62
3
 10
-338.562799451247430
 20
-127.229751786370790
 40
41.000000000000014
 50
212.293666879645140
 51
227.010159516783600
  0
LINE
  8
0
  6
CONTINUOUS
 62
3
 10
-386.714654889285160
 20
-127.784221909518520
 11
-373.220956025502350
 21
-149.134367347353190
  0
ARC
  8
0
  6
CONTINUOUS
 62
3
 10
-387.261445968735190
 20
-99.833533767483402
 40
1.000000000000000
 50
180.000000000000000
 51
270.000000000000000
  0
ARC
  8
0
  6
CONTINUOUS
 62
3
 10
-387.261445968735190
 20
-114.333533767483400
 40
1.000000000000000
 50
90.000000000000000
 51
180.000000000000000
  0
LINE
  8
0
  6
CONTINUOUS
 62
3
 10
-381.761445968735420
 20
-100.833533767483400
 11
-387.261445968735190
 21
-100.833533767483400
  0
LINE
  8
0
  6
CONTINUOUS
 62
3
 10
-381.761445968735420
 20
-113.333533767483400
 11
-387.261445968735190
 21
-113.333533767483400
  0
LINE
  8
0
  6
CONTINUOUS
 62
3
 10
-345.511445968735190
 20
-49.083533767483459
 11
-345.511445968735190
 21
-41.084638175621023
  0
ARC
  8
0
  6
CONTINUOUS
 62
3
 10
-344.511445968735420
 20
-41.084638175621023
 40
0.999999999999975
 50
97.328097969880389
 51
180.000000000000000
  0
LINE
  8
0
  6
CONTINUOUS
 62
3
 10
-358.011445968735190
 20
-49.083533767483459
 11
-358.011445968735190
 21
-45.294796422715137
  0
ARC
  8
0
  6
CONTINUOUS
 62
3
 10
-359.011445968735190
 20
-45.294796422715137
 40
1.000000000000000
 50
0.000000000000000
 51
115.053819043268190
  0
ARC
  8
0
  6
CONTINUOUS
 62
3
 10
-276.511445968735640
 20
-45.294796422715137
 40
0.999999999999981
 50
64.946180956731823
 51
180.000000000000000
  0
ARC
  8
0
  6
CONTINUOUS
 62
3
 10
-291.011445968735420
 20
-41.084638175621023
 40
0.999999999999773
 50
0.000000000000000
 51
82.671902030119611
  0
LINE
  8
0
  6
CONTINUOUS
 62
3
 10
-290.011445968735640
 20
-49.083533767483459
 11
-290.011445968735640
 21
-41.084638175621023
  0
LINE
  8
0
  6
CONTINUOUS
 62
3
 10
-277.511445968735640
 20
-49.083533767483459
 11
-277.511445968735640
 21
-45.294796422715137
  0
ARC
  8
0
  6
CONTINUOUS
 62
3
 10
-379.761445968735190
 20
-86.083533767483402
 40
8.000000000000000
 50
90.000000000000000
 51
270.000000000000000
  0
ARC
  8
0
  6
CONTINUOUS
 62
3
 10
-338.261445968735190
 20
-89.684406693588244
 40
50.000000000000199
 50
93.357817421570815
 51
180.000000000000000
  0
ARC
  8
0
  6
CONTINUOUS
 62
3
 10
-317.761445968735190
 20
-439.083533767483460
 40
400.000000000000000
 50
90.000000000000000
 51
93.357817421570701
  0
LINE
  8
0
  6
CONTINUOUS
 62
3
 10
-388.261445968735190
 20
-122.441632748303330
 11
-388.261445968735190
 21
-89.684406693588244
  0
ARC
  8
0
  6
CONTINUOUS
 62
3
 10
-317.761445968735640
 20
-439.083533767483460
 40
400.000000000000170
 50
86.642182578429299
 51
90.000000000000000
  0
LINE
  8
0
  6
CONTINUOUS
 62
3
 10
-366.261445968735420
 20
-169.583533767483460
 11
-390.261445968735420
 21
-169.583533767483460
  0
LINE
  8
0
  6
CONTINUOUS
 62
3
 10
-269.261445968735420
 20
-169.583533767483460
 11
-245.261445968735420
 21
-169.583533767483460
  0
LINE
  8
0
  6
CONTINUOUS
 62
3
 10
-388.261445968735420
 20
-153.611397812483920
 11
-388.261445968735420
 21
-89.684406693588244
  0
LINE
  8
0
  6
CONTINUOUS
 62
3
 10
-317.761445968735420
 20
-168.083533767483460
 11
-351.147067691073970
 21
-168.083533767483460
  0
LINE
  8
0
  6
CONTINUOUS
 62
3
 10
-386.714654889285160
 20
-127.784221909518570
 11
-373.220956025502570
 21
-149.134367347353190
  0
LINE
  8
0
  6
CONTINUOUS
 62
3
 10
-351.951970949424320
 20
-169.083533767483460
 11
-365.261445968735420
 21
-169.083533767483460
  0
LINE
  8
0
  6
CONTINUOUS
 62
3
 10
-379.800016429280500
 20
-145.083533767483460
 11
-385.261445968735420
 21
-145.083533767483460
  0
LINE
  8
0
  6
CONTINUOUS
 62
3
 10
-366.261445968735420
 20
-170.083533767483460
 11
-390.261445968735420
 21
-170.083533767483460
  0
LINE
  8
0
  6
CONTINUOUS
 62
3
 10
-377.264053753115380
 20
-146.480757019118870
 11
-374.911597809612430
 21
-150.202885179596250
  0
LINE
  8
0
  6
CONTINUOUS
 62
3
 10
-366.261445968735420
 20
-170.083533767483460
 11
-366.261445968735420
 21
-161.487496925161620
  0
LINE
  8
0
  6
CONTINUOUS
 62
3
 10
-390.261445968735420
 20
-170.083533767483460
 11
-390.261445968735420
 21
-158.083533767483460
  0
LINE
  8
0
  6
DASHDOT
 62
4
 10
-380.283702591049630
 20
-173.664037536404520
 11
-380.283702591049630
 21
-154.141689361355700
  0
LINE
  8
0
  6
CONTINUOUS
 62
3
 10
-372.680890509540400
 20
-155.083533767483460
 11
-387.261445968735420
 21
-155.083533767483460
  0
LINE
  8
0
  6
CONTINUOUS
 62
3
 10
-317.761445968735420
 20
-168.083533767483460
 11
-284.375824246397090
 21
-168.083533767483460
  0
LINE
  8
0
  6
CONTINUOUS
 62
3
 10
-283.570920988046740
 20
-169.083533767483460
 11
-270.261445968735420
 21
-169.083533767483460
  0
LINE
  8
0
  6
CONTINUOUS
 62
3
 10
-255.722875508190330
 20
-145.083533767483460
 11
-250.261445968735420
 21
-145.083533767483460
  0
LINE
  8
0
  6
CONTINUOUS
 62
3
 10
-269.261445968735420
 20
-170.083533767483460
 11
-245.261445968735420
 21
-170.083533767483460
  0
LINE
  8
0
  6
CONTINUOUS
 62
3
 10
-258.258838184355450
 20
-146.480757019118870
 11
-260.611294127858400
 21
-150.202885179596250
  0
LINE
  8
0
  6
CONTINUOUS
 62
3
 10
-269.261445968735420
 20
-170.083533767483460
 11
-269.261445968735420
 21
-161.487496925161620
  0
LINE
  8
0
  6
CONTINUOUS
 62
3
 10
-245.261445968735420
 20
-170.083533767483460
 11
-245.261445968735420
 21
-158.083533767483460
  0
LINE
  8
0
  6
DASHDOT
 62
4
 10
-255.239189346421200
 20
-173.664037536404520
 11
-255.239189346421200
 21
-154.141689361355700
  0
LINE
  8
0
  6
CONTINUOUS
 62
3
 10
-262.842001427930430
 20
-155.083533767483460
 11
-248.261445968735420
 21
-155.083533767483460
  0
ARC
  8
0
  6
CONTINUOUS
 62
3
 10
-317.761445968735420
 20
-439.083533767483460
 40
400.000000000000000
 50
90.000000000000000
 51
93.357817421570687
  0
ARC
  8
0
  6
CONTINUOUS
 62
3
 10
-317.761445968735420
 20
-439.083533767483460
 40
400.000000000000170
 50
86.642182578429313
 51
90.000000000000000
  0
ARC
  8
0
  6
CONTINUOUS
 62
3
 10
-338.261445968735420
 20
-89.684406693588244
 40
50.000000000000185
 50
93.357817421570559
 51
180.000000000000000
  0
ARC
  8
0
  6
CONTINUOUS
 62
3
 10
-338.562799451247660
 20
-127.229751786370790
 40
41.000000000000014
 50
212.293666879645140
 51
227.010159516783520
  0
ARC
  8
0
  6
CONTINUOUS
 62
3
 10
-372.680890509540400
 20
-158.083533767483460
 40
2.999999999999881
 50
42.123770773014201
 51
90.000000000000000
  0
ARC
  8
0
  6
CONTINUOUS
 62
3
 10
-369.261445968735420
 20
-161.487496925161620
 40
3.000000000000000
 50
0.000000000000000
 51
48.136221427766380
  0
ARC
  8
0
  6
CONTINUOUS
 62
3
 10
-338.562799451247660
 20
-127.229751786370790
 40
42.999999999999908
 50
212.293666879645230
 51
228.136221427764950
  0
ARC
  8
0
  6
CONTINUOUS
 62
3
 10
-296.960092486223180
 20
-127.229751786370790
 40
40.999999999999915
 50
313.090533982667180
 51
327.706333120354880
  0
ARC
  8
0
  6
CONTINUOUS
 62
3
 10
-378.261445968735420
 20
-122.441632748303390
 40
10.000000000000000
 50
180.000000000000000
 51
212.293666879645710
  0
ARC
  8
0
  6
CONTINUOUS
 62
3
 10
-385.261445968735420
 20
-148.083533767483460
 40
3.000000000000000
 50
90.000000000000000
 51
180.000000000000000
  0
ARC
  8
0
  6
CONTINUOUS
 62
3
 10
-365.261445968735420
 20
-170.083533767483460
 40
1.000000000000000
 50
90.000000000000000
 51
180.000000000000000
  0
ARC
  8
0
  6
CONTINUOUS
 62
3
 10
-379.800016429280500
 20
-148.083533767483460
 40
3.000000000000127
 50
32.293666879644171
 51
90.000000000000000
  0
ARC
  8
0
  6
CONTINUOUS
 62
3
 10
-387.261445968735420
 20
-158.083533767483460
 40
3.000000000000000
 50
90.000000000000000
 51
180.000000000000000
  0
ARC
  8
0
  6
CONTINUOUS
 62
3
 10
-391.261445968735420
 20
-153.611397812483920
 40
3.000000000000029
 50
311.810314895778110
 51
0.000000000000000
  0
ARC
  8
0
  6
CONTINUOUS
 62
3
 10
-250.261445968735420
 20
-148.083533767483460
 40
3.000000000000000
 50
0.000000000000000
 51
90.000000000000000
  0
ARC
  8
0
  6
CONTINUOUS
 62
3
 10
-270.261445968735420
 20
-170.083533767483460
 40
1.000000000000000
 50
0.000000000000000
 51
90.000000000000000
  0
ARC
  8
0
  6
CONTINUOUS
 62
3
 10
-255.722875508190330
 20
-148.083533767483460
 40
3.000000000000000
 50
90.000000000000000
 51
147.706333120355820
  0
ARC
  8
0
  6
CONTINUOUS
 62
3
 10
-262.842001427930430
 20
-158.083533767483460
 40
3.000000000000000
 50
90.000000000000000
 51
137.876229226985800
  0
ARC
  8
0
  6
CONTINUOUS
 62
3
 10
-266.261445968735420
 20
-161.487496925161620
 40
3.000000000000084
 50
131.863778572233600
 51
180.000000000000000
  0
ARC
  8
0
  6
CONTINUOUS
 62
3
 10
-296.960092486223180
 20
-127.229751786370790
 40
43.000000000000021
 50
311.863778572235050
 51
327.706333120354710
  0
ARC
  8
0
  6
CONTINUOUS
 62
3
 10
-248.261445968735420
 20
-158.083533767483460
 40
3.000000000000000
 50
0.000000000000000
 51
90.000000000000000
  0
ARC
  8
0
  6
CONTINUOUS
 62
3
 10
-244.261445968735420
 20
-153.611397812483920
 40
3.000000000000000
 50
180.000000000000000
 51
228.189685104221890
  0
ARC
  8
0
  6
CONTINUOUS
 62
3
 10
-357.761445968735420
 20
-163.583533767483520
 40
7.000000000000076
 50
171.263953591911330
 51
231.786789298261400
  0
ARC
  8
0
  6
CONTINUOUS
 62
3
 10
-370.610626841797060
 20
-161.609058928102850
 40
5.999999999999940
 50
351.263953591910930
 51
47.010159516783453
  0
ARC
  8
0
  6
CONTINUOUS
 62
3
 10
-277.761445968735640
 20
-163.583533767483520
 40
7.000000000000107
 50
308.213210701740080
 51
8.736046408088662
  0
ARC
  8
0
  6
CONTINUOUS
 62
3
 10
-264.912265095673770
 20
-161.609058928102850
 40
6.000000000000167
 50
132.989840483218130
 51
188.736046408088700
  0
ARC
  8
0
  6
CONTINUOUS
 62
3
 10
-357.761445968735420
 20
-163.583533767483520
 40
7.999999999999938
 50
316.567463442210340
 51
325.771133672187600
  0
ARC
  8
0
  6
CONTINUOUS
 62
3
 10
-277.761445968735640
 20
-163.583533767483520
 40
7.999999999999941
 50
214.228866327812370
 51
223.432536557789660
  0
LINE
  8
0
  6
CONTINUOUS
 62
3
 10
-260.261445968735420
 20
-141.083533767483460
 11
-260.261445968735420
 21
-135.076032829745830
  0
LINE
  8
0
  6
CONTINUOUS
 62
3
 10
-261.761485485537610
 20
-141.083533767483230
 11
-260.261445968735420
 21
-141.083533767483230
  0
LINE
  8
0
  6
CONTINUOUS
 62
3
 10
-261.761485485537610
 20
-69.083533767483686
 11
-260.261445968735420
 21
-69.083533767483686
  0
LINE
  8
0
  6
CONTINUOUS
 62
3
 10
-260.261445968735420
 20
-75.095547913053224
 11
-260.261445968735420
 21
-69.083533767483686
  0
ARC
  8
0
  6
CONTINUOUS
 62
3
 10
-357.192312968822760
 20
-59.661587025185099
 40
6.600000000000009
 50
95.743681810995099
 51
135.000000000002790
  0
ARC
  8
0
  6
CONTINUOUS
 62
3
 10
-317.761445968735420
 20
-451.683533767483600
 40
400.599999999999910
 50
90.000000000000000
 51
95.743681810993436
  0
ARC
  8
0
  6
CONTINUOUS
 62
3
 10
-354.751513206881780
 20
-77.019777136467837
 40
20.600000000000069
 50
135.000000000002670
 51
174.247717268463500
  0
LINE
  8
0
  6
CONTINUOUS
 62
3
 10
-369.317912899325390
 20
-62.453377444025591
 11
-361.859217724654400
 21
-54.994682269353916
  0
ARC
  8
0
  6
CONTINUOUS
 62
3
 10
-76.161445968735052
 20
-105.083533767483450
 40
300.599999999999910
 50
174.247717268463390
 51
180.000000000000000
  0
ARC
  8
0
  6
CONTINUOUS
 62
3
 10
-357.192312968822760
 20
-150.505480509781820
 40
6.600000000000278
 50
224.999999999997190
 51
264.256318189004900
  0
ARC
  8
0
  6
CONTINUOUS
 62
3
 10
-317.761445968735420
 20
241.516466232516680
 40
400.599999999999910
 50
264.256318189006550
 51
270.000000000000000
  0
ARC
  8
0
  6
CONTINUOUS
 62
3
 10
-354.751513206881780
 20
-133.147290398499080
 40
20.599999999999916
 50
185.752282731536500
 51
224.999999999997330
  0
LINE
  8
0
  6
CONTINUOUS
 62
3
 10
-369.317912899325390
 20
-147.713690090941330
 11
-361.859217724654400
 21
-155.172385265613000
  0
ARC
  8
0
  6
CONTINUOUS
 62
3
 10
-76.161445968735052
 20
-105.083533767483450
 40
300.600000000000360
 50
180.000000000000000
 51
185.752282731536610
  0
ARC
  8
0
  6
CONTINUOUS
 62
3
 10
-278.330578968648070
 20
-150.505480509781820
 40
6.600000000000009
 50
275.743681810995100
 51
315.000000000002790
  0
ARC
  8
0
  6
CONTINUOUS
 62
3
 10
-317.761445968735420
 20
241.516466232516680
 40
400.599999999999910
 50
270.000000000000000
 51
275.743681810993450
  0
ARC
  8
0
  6
CONTINUOUS
 62
3
 10
-280.771378730589050
 20
-133.147290398499080
 40
20.600000000000069
 50
315.000000000002670
 51
354.247717268463480
  0
LINE
  8
0
  6
CONTINUOUS
 62
3
 10
-266.204979038145440
 20
-147.713690090941330
 11
-273.663674212816430
 21
-155.172385265613000
  0
ARC
  8
0
  6
CONTINUOUS
 62
3
 10
-559.361445968735780
 20
-105.083533767483450
 40
300.599999999999910
 50
354.247717268463420
 51
0.000000000000000
  0
ARC
  8
0
  6
CONTINUOUS
 62
4
 10
-559.361445968735780
 20
-105.083533767483450
 40
290.797000000000480
 50
0.000000000000000
 51
5.752282731536624
  0
LINE
  8
0
  6
CONTINUOUS
 62
4
 10
-273.136746814117710
 20
-69.385145219996957
 11
-279.024160686157070
 21
-63.497731347956915
  0
ARC
  8
0
  6
CONTINUOUS
 62
4
 10
-280.771378730589050
 20
-77.019777136467837
 40
10.797000000000011
 50
5.752282731536912
 51
44.999999999998295
  0
ARC
  8
0
  6
CONTINUOUS
 62
3
 10
-559.361445968735780
 20
-105.083533767483450
 40
300.600000000000360
 50
0.000000000000000
 51
5.752282731536604
  0
LINE
  8
0
  6
CONTINUOUS
 62
3
 10
-266.204979038145440
 20
-62.453377444025591
 11
-273.663674212816430
 21
-54.994682269353916
  0
ARC
  8
0
  6
CONTINUOUS
 62
3
 10
-280.771378730589050
 20
-77.019777136467837
 40
20.599999999999916
 50
5.752282731536487
 51
44.999999999997321
  0
ARC
  8
0
  6
CONTINUOUS
 62
4
 10
-76.161445968735279
 20
-105.083533767483450
 40
290.796999999999910
 50
174.998349729065040
 51
180.000000000000000
  0
LINE
  8
0
  6
CONTINUOUS
 62
4
 10
-359.839036284591430
 20
-66.838036381234815
 11
-356.498731251313760
 21
-63.497731347956915
  0
ARC
  8
0
  6
CONTINUOUS
 62
4
 10
-345.133336556254790
 20
-81.543736109571455
 40
20.797000000000015
 50
135.000000000000000
 51
174.998349729064670
  0
ARC
  8
0
  6
CONTINUOUS
 62
4
 10
-317.761445968735420
 20
-451.683533767483600
 40
390.797000000000030
 50
90.000000000000000
 51
95.417963762360529
  0
ARC
  8
0
  6
CONTINUOUS
 62
4
 10
-354.377410907753760
 20
-65.619051691516688
 40
3.000000000000067
 50
95.417963762365673
 51
135.000000000003040
  0
ARC
  8
0
  6
CONTINUOUS
 62
4
 10
-76.161445968735279
 20
-105.083533767483450
 40
290.797000000000250
 50
180.000000000000000
 51
185.001650270934930
  0
LINE
  8
0
  6
CONTINUOUS
 62
4
 10
-359.839036284591430
 20
-143.329031153732100
 11
-356.498731251313760
 21
-146.669336187010000
  0
ARC
  8
0
  6
CONTINUOUS
 62
4
 10
-345.133336556254790
 20
-128.623331425395460
 40
20.796999999999880
 50
185.001650270935330
 51
225.000000000000000
  0
ARC
  8
0
  6
CONTINUOUS
 62
4
 10
-317.761445968735420
 20
241.516466232516680
 40
390.797000000000030
 50
264.582036237639500
 51
270.000000000000000
  0
ARC
  8
0
  6
CONTINUOUS
 62
4
 10
-354.377410907753760
 20
-144.548015843450230
 40
3.000000000000346
 50
224.999999999996960
 51
264.582036237634270
  0
ARC
  8
0
  6
CONTINUOUS
 62
4
 10
-559.361445968735780
 20
-105.083533767483450
 40
290.797000000000140
 50
354.998349729065010
 51
0.000000000000000
  0
LINE
  8
0
  6
CONTINUOUS
 62
4
 10
-275.683855652879400
 20
-143.329031153732100
 11
-279.024160686157070
 21
-146.669336187010000
  0
ARC
  8
0
  6
CONTINUOUS
 62
4
 10
-290.389555381216040
 20
-128.623331425395460
 40
20.797000000000015
 50
315.000000000000000
 51
354.998349729064670
  0
ARC
  8
0
  6
CONTINUOUS
 62
4
 10
-317.761445968735420
 20
241.516466232516680
 40
390.797000000000030
 50
270.000000000000000
 51
275.417963762360500
  0
ARC
  8
0
  6
CONTINUOUS
 62
4
 10
-281.145481029717080
 20
-144.548015843450230
 40
3.000000000000067
 50
275.417963762365730
 51
315.000000000003070
  0
ARC
  8
0
  6
CONTINUOUS
 62
4
 10
-281.145481029717080
 20
-65.619051691516688
 40
3.000000000000346
 50
44.999999999996930
 51
84.582036237634313
  0
ARC
  8
0
  6
CONTINUOUS
 62
4
 10
-317.761445968735420
 20
-451.683533767483600
 40
390.797000000000030
 50
84.582036237639471
 51
90.000000000000000
  0
ARC
  8
0
  6
CONTINUOUS
 62
3
 10
-278.330578968648070
 20
-59.661587025185099
 40
6.600000000000278
 50
44.999999999997215
 51
84.256318189004901
  0
ARC
  8
0
  6
CONTINUOUS
 62
3
 10
-317.761445968735420
 20
-451.683533767483600
 40
400.599999999999910
 50
84.256318189006564
 51
90.000000000000000
  0
ARC
  8
0
  6
CONTINUOUS
 62
3
 10
-321.261445968735420
 20
-139.908094066215200
 40
1.000000000000000
 50
0.000000000000000
 51
84.260829522738291
  0
ARC
  8
0
  6
CONTINUOUS
 62
3
 10
-321.261445968735420
 20
-142.922006252508480
 40
1.000000000000042
 50
264.715267045464260
 51
0.000000000000000
  0
ARC
  8
0
  6
CONTINUOUS
 62
3
 10
-321.261445968735420
 20
-134.375170799237140
 40
1.000000000000077
 50
263.186145655820330
 51
0.000000000000000
  0
LINE
  8
0
  6
CONTINUOUS
 62
3
 10
-320.261445968735420
 20
-142.922006252508480
 11
-320.261445968735420
 21
-139.908094066215200
  0
ARC
  8
0
  6
CONTINUOUS
 62
3
 10
-334.802374652108260
 20
-110.880666645742620
 40
0.999999999999885
 50
300.000000000003810
 51
18.787728582346993
  0
LINE
  8
0
  6
CONTINUOUS
 62
3
 10
-336.943609809164850
 20
-113.271609878446490
 11
-334.302374652108260
 21
-111.746692049526920
  0
ARC
  8
0
  6
CONTINUOUS
 62
3
 10
-337.443609809164850
 20
-112.405584474662190
 40
1.000000000000094
 50
200.405931773138690
 51
300.000000000003810
  0
ARC
  8
0
  6
CONTINUOUS
 62
3
 10
-342.260072300889760
 20
-115.186370390801810
 40
1.000000000000082
 50
299.999999999997270
 51
22.410457608146043
  0
ARC
  8
0
  6
CONTINUOUS
 62
3
 10
-349.670399863059860
 20
-119.464725003603680
 40
1.000000000000082
 50
299.999999999997270
 51
24.260829522733715
  0
LINE
  8
0
  6
CONTINUOUS
 62
3
 10
-344.378747756667280
 20
-117.564288773899300
 11
-341.760072300889760
 21
-116.052395794586340
  0
ARC
  8
0
  6
CONTINUOUS
 62
3
 10
-344.878747756667280
 20
-116.698263370114770
 40
0.999999999999730
 50
203.186145655819840
 51
299.999999999997270
  0
LINE
  8
0
  6
CONTINUOUS
 62
3
 10
-351.780524381165610
 20
-121.837706500534750
 11
-349.170399863059860
 21
-120.330750407388220
  0
ARC
  8
0
  6
CONTINUOUS
 62
3
 10
-352.280524381165610
 20
-120.971681096750440
 40
1.000000000000248
 50
204.715267045455480
 51
300.000000000003810
  0
ARC
  8
0
  6
CONTINUOUS
 62
3
 10
-348.780524381165610
 20
-127.033858923241720
 40
1.000000000000082
 50
119.999999999997270
 51
215.284732954534320
  0
ARC
  8
0
  6
CONTINUOUS
 62
3
 10
-346.170399863059860
 20
-125.526902830094740
 40
0.999999999999807
 50
35.739170477263521
 51
120.000000000003780
  0
ARC
  8
0
  6
CONTINUOUS
 62
3
 10
-321.261445968735420
 20
-131.351384840610760
 40
1.000000000000000
 50
0.000000000000000
 51
82.410457608145762
  0
ARC
  8
0
  6
CONTINUOUS
 62
3
 10
-341.378747756667280
 20
-122.760441196605590
 40
0.999999999999885
 50
120.000000000003780
 51
216.813854344197100
  0
ARC
  8
0
  6
CONTINUOUS
 62
3
 10
-338.760072300890220
 20
-121.248548217292630
 40
1.000000000000194
 50
37.589542391851793
 51
119.999999999997270
  0
ARC
  8
0
  6
CONTINUOUS
 62
3
 10
-321.261445968735420
 20
-125.789813008331970
 40
1.000000000000268
 50
260.405931773124510
 51
0.000000000000000
  0
ARC
  8
0
  6
CONTINUOUS
 62
3
 10
-321.261445968735420
 20
-122.739977350493060
 40
1.000000000000000
 50
0.000000000000000
 51
78.787728582355996
  0
ARC
  8
0
  6
CONTINUOUS
 62
3
 10
-333.943609809164400
 20
-118.467762301153240
 40
0.999999999999885
 50
120.000000000003780
 51
219.594068226860460
  0
ARC
  8
0
  6
CONTINUOUS
 62
3
 10
-331.302374652108260
 20
-116.942844472233900
 40
1.000000000000165
 50
41.212271417643841
 51
119.999999999997270
  0
ARC
  8
0
  6
CONTINUOUS
 62
3
 10
-326.403750814148910
 20
-114.114622680728870
 40
0.999999999999885
 50
120.000000000003780
 51
226.260204708328700
  0
ARC
  8
0
  6
CONTINUOUS
 62
3
 10
-321.261445968735420
 20
-117.083533767483450
 40
0.999999999999964
 50
253.739795291702650
 51
0.000000000000000
  0
ARC
  8
0
  6
CONTINUOUS
 62
3
 10
-321.261445968735420
 20
-113.915294633811300
 40
1.000000000000000
 50
0.000000000000000
 51
68.381727577838021
  0
ARC
  8
0
  6
CONTINUOUS
 62
3
 10
-323.659975239124610
 20
-112.530503113892790
 40
0.999999999999961
 50
51.618272422159777
 51
120.000000000003780
  0
ARC
  8
0
  6
CONTINUOUS
 62
3
 10
-317.761445968735420
 20
-105.083533767483450
 40
38.999999999999865
 50
215.284732954534800
 51
264.715267045465400
  0
ARC
  8
0
  6
CONTINUOUS
 62
3
 10
-317.761445968735420
 20
-105.083533767483450
 40
30.499999999999964
 50
216.813854344181070
 51
263.186145655818960
  0
ARC
  8
0
  6
CONTINUOUS
 62
3
 10
-317.761445968735420
 20
-105.083533767483450
 40
33.999999999999964
 50
215.739170477266950
 51
264.260829522733050
  0
ARC
  8
0
  6
CONTINUOUS
 62
3
 10
-317.761445968735420
 20
-105.083533767483450
 40
25.499999999999890
 50
217.589542391857950
 51
262.410457608141830
  0
ARC
  8
0
  6
CONTINUOUS
 62
3
 10
-317.761445968735420
 20
-105.083533767483450
 40
22.000000000000025
 50
219.594068226860800
 51
260.405931773138780
  0
ARC
  8
0
  6
CONTINUOUS
 62
3
 10
-317.761445968735420
 20
-105.083533767483450
 40
16.999999999999773
 50
221.212271417650780
 51
258.787728582349980
  0
ARC
  8
0
  6
CONTINUOUS
 62
3
 10
-317.761445968735420
 20
-105.083533767483450
 40
13.499999999999927
 50
226.260204708312130
 51
253.739795291689150
  0
ARC
  8
0
  6
CONTINUOUS
 62
3
 10
-317.761445968735420
 20
-105.083533767483450
 40
8.499999999999948
 50
231.618272422157330
 51
248.381727577842330
  0
LINE
  8
0
  6
CONTINUOUS
 62
3
 10
-341.878747756667280
 20
-121.894415792821290
 11
-339.260072300890220
 21
-120.382522813508100
  0
LINE
  8
0
  6
CONTINUOUS
 62
3
 10
-349.280524381165610
 20
-126.167833519457190
 11
-346.670399863059860
 21
-124.660877426310430
  0
LINE
  8
0
  6
CONTINUOUS
 62
3
 10
-334.443609809164400
 20
-117.601736897368930
 11
-331.802374652108260
 21
-116.076819068449360
  0
LINE
  8
0
  6
CONTINUOUS
 62
3
 10
-326.903750814148910
 20
-113.248597276944560
 11
-324.159975239124610
 21
-111.664477710108480
  0
LINE
  8
0
  6
CONTINUOUS
 62
3
 10
-320.261445968735420
 20
-117.083533767483450
 11
-320.261445968735420
 21
-113.915294633811300
  0
LINE
  8
0
  6
CONTINUOUS
 62
3
 10
-320.261445968735420
 20
-125.789813008331970
 11
-320.261445968735420
 21
-122.739977350493060
  0
LINE
  8
0
  6
CONTINUOUS
 62
3
 10
-320.261445968735420
 20
-134.375170799237140
 11
-320.261445968735420
 21
-131.351384840610760
  0
ARC
  8
0
  6
CONTINUOUS
 62
3
 10
-327.159975239124610
 20
-106.468325287401960
 40
0.999999999999885
 50
300.000000000003810
 51
8.381727577845549
  0
ARC
  8
0
  6
CONTINUOUS
 62
3
 10
-317.761445968735420
 20
-105.083533767483450
 40
8.499999999999972
 50
171.618272422157790
 51
188.381727577842210
  0
LINE
  8
0
  6
CONTINUOUS
 62
3
 10
-329.403750814148910
 20
-108.918470258022350
 11
-326.659975239124610
 21
-107.334350691186270
  0
ARC
  8
0
  6
CONTINUOUS
 62
3
 10
-329.903750814148910
 20
-108.052444854238040
 40
0.999999999999879
 50
193.739795291686050
 51
300.000000000003810
  0
ARC
  8
0
  6
CONTINUOUS
 62
3
 10
-321.261445968735420
 20
-87.427090184473855
 40
0.999999999999982
 50
281.212271417643990
 51
0.000000000000000
  0
LINE
  8
0
  6
CONTINUOUS
 62
3
 10
-320.261445968735420
 20
-84.377254526634943
 11
-320.261445968735420
 21
-87.427090184473855
  0
ARC
  8
0
  6
CONTINUOUS
 62
3
 10
-321.261445968735420
 20
-84.377254526634943
 40
1.000000000000000
 50
0.000000000000000
 51
99.594068226875478
  0
ARC
  8
0
  6
CONTINUOUS
 62
3
 10
-321.261445968735420
 20
-78.815682694356155
 40
0.999999999999749
 50
277.589542391855960
 51
0.000000000013028
  0
LINE
  8
0
  6
CONTINUOUS
 62
3
 10
-320.261445968735420
 20
-75.791896735729779
 11
-320.261445968735420
 21
-78.815682694355928
  0
ARC
  8
0
  6
CONTINUOUS
 62
3
 10
-321.261445968735420
 20
-75.791896735729779
 40
1.000000000000000
 50
0.000000000000000
 51
96.813854344179688
  0
ARC
  8
0
  6
CONTINUOUS
 62
3
 10
-321.261445968735420
 20
-70.258973468751719
 40
0.999999999999973
 50
275.739170477261670
 51
0.000000000000000
  0
LINE
  8
0
  6
CONTINUOUS
 62
3
 10
-320.261445968735420
 20
-67.245061282458437
 11
-320.261445968735420
 21
-70.258973468751719
  0
ARC
  8
0
  6
CONTINUOUS
 62
3
 10
-321.261445968735420
 20
-67.245061282458437
 40
1.000000000000000
 50
0.000000000000000
 51
95.284732954535698
  0
ARC
  8
0
  6
CONTINUOUS
 62
3
 10
-341.378747756667280
 20
-87.406626338361093
 40
0.999999999999774
 50
143.186145655813330
 51
240.000000000002730
  0
LINE
  8
0
  6
CONTINUOUS
 62
3
 10
-341.878747756667280
 20
-88.272651742145626
 11
-339.260072300889760
 21
-89.784544721458815
  0
ARC
  8
0
  6
CONTINUOUS
 62
3
 10
-338.760072300889760
 20
-88.918519317674281
 40
1.000000000000082
 50
240.000000000002730
 51
322.410457608132330
  0
ARC
  8
0
  6
CONTINUOUS
 62
3
 10
-348.780524381165610
 20
-83.133208611725422
 40
0.999999999999908
 50
144.715267045455050
 51
239.999999999996220
  0
LINE
  8
0
  6
CONTINUOUS
 62
3
 10
-349.280524381165610
 20
-83.999234015509728
 11
-346.670399863059860
 21
-85.506190108656483
  0
ARC
  8
0
  6
CONTINUOUS
 62
3
 10
-346.170399863059860
 20
-84.640164704872177
 40
0.999999999999885
 50
239.999999999996220
 51
324.260829522725940
  0
ARC
  8
0
  6
CONTINUOUS
 62
3
 10
-323.659975239124610
 20
-97.636564421073899
 40
1.000000000000082
 50
240.000000000002730
 51
308.381727577840190
  0
LINE
  8
0
  6
CONTINUOUS
 62
3
 10
-326.903750814148910
 20
-96.918470258022353
 11
-324.159975239124610
 21
-98.502589824858433
  0
ARC
  8
0
  6
CONTINUOUS
 62
3
 10
-331.302374652108260
 20
-93.224223062733245
 40
0.999999999999885
 50
239.999999999996220
 51
318.787728582348790
  0
LINE
  8
0
  6
CONTINUOUS
 62
3
 10
-334.443609809164400
 20
-92.565330637597981
 11
-331.802374652108260
 21
-94.090248466517551
  0
ARC
  8
0
  6
CONTINUOUS
 62
3
 10
-333.943609809164400
 20
-91.699305233813448
 40
1.000000000000173
 50
140.405931773149600
 51
240.000000000002730
  0
ARC
  8
0
  6
CONTINUOUS
 62
3
 10
-321.261445968735420
 20
-96.251772901155618
 40
1.000000000000090
 50
291.618272422161970
 51
0.000000000000000
  0
ARC
  8
0
  6
CONTINUOUS
 62
3
 10
-317.761445968735420
 20
-105.083533767483450
 40
8.499999999999904
 50
111.618272422157710
 51
128.381727577841670
  0
ARC
  8
0
  6
CONTINUOUS
 62
3
 10
-326.403750814148910
 20
-96.052444854238047
 40
0.999999999999858
 50
133.739795291671300
 51
239.999999999996220
  0
LINE
  8
0
  6
CONTINUOUS
 62
3
 10
-320.261445968735420
 20
-93.083533767483459
 11
-320.261445968735420
 21
-96.251772901155618
  0
ARC
  8
0
  6
CONTINUOUS
 62
3
 10
-321.261445968735420
 20
-93.083533767483459
 40
1.000000000000000
 50
0.000000000000000
 51
106.260204708297360
  0
ARC
  8
0
  6
CONTINUOUS
 62
3
 10
-317.761445968735420
 20
-105.083533767483450
 40
13.499999999999963
 50
106.260204708310860
 51
133.739795291687870
  0
ARC
  8
0
  6
CONTINUOUS
 62
3
 10
-317.761445968735420
 20
-105.083533767483450
 40
17.000000000000046
 50
101.212271417650010
 51
138.787728582350240
  0
ARC
  8
0
  6
CONTINUOUS
 62
3
 10
-317.761445968735420
 20
-105.083533767483450
 40
22.000000000000131
 50
99.594068226861211
 51
140.405931773139200
  0
ARC
  8
0
  6
CONTINUOUS
 62
3
 10
-317.761445968735420
 20
-105.083533767483450
 40
30.500000000000135
 50
96.813854344181038
 51
143.186145655818930
  0
ARC
  8
0
  6
CONTINUOUS
 62
3
 10
-317.761445968735420
 20
-105.083533767483450
 40
25.500000000000160
 50
97.589542391858117
 51
142.410457608142050
  0
ARC
  8
0
  6
CONTINUOUS
 62
3
 10
-317.761445968735420
 20
-105.083533767483450
 40
34.000000000000071
 50
95.739170477266924
 51
144.260829522733360
  0
ARC
  8
0
  6
CONTINUOUS
 62
3
 10
-317.761445968735420
 20
-105.083533767483450
 40
38.999999999999986
 50
95.284732954534590
 51
144.715267045465200
  0
ARC
  8
0
  6
CONTINUOUS
 62
3
 10
-344.878747756667280
 20
-93.468804164852145
 40
1.000000000000082
 50
60.000000000002721
 51
156.813854344180160
  0
LINE
  8
0
  6
CONTINUOUS
 62
3
 10
-344.378747756667280
 20
-92.602778761067611
 11
-341.760072300889760
 21
-94.114671740380800
  0
ARC
  8
0
  6
CONTINUOUS
 62
3
 10
-342.260072300889760
 20
-94.980697144165333
 40
0.999999999999701
 50
337.589542391853970
 51
60.000000000002721
  0
ARC
  8
0
  6
CONTINUOUS
 62
3
 10
-352.280524381165610
 20
-89.195386438216474
 40
1.000000000000082
 50
60.000000000002721
 51
155.284732954544520
  0
LINE
  8
0
  6
CONTINUOUS
 62
3
 10
-351.780524381165610
 20
-88.329361034431940
 11
-349.170399863059860
 21
-89.836317127578695
  0
ARC
  8
0
  6
CONTINUOUS
 62
3
 10
-349.670399863059860
 20
-90.702342531363001
 40
0.999999999999863
 50
335.739170477254390
 51
59.999999999996206
  0
ARC
  8
0
  6
CONTINUOUS
 62
3
 10
-327.159975239124610
 20
-103.698742247565170
 40
1.000000000000026
 50
351.618272422167310
 51
60.000000000002721
  0
LINE
  8
0
  6
CONTINUOUS
 62
3
 10
-329.403750814148910
 20
-101.248597276944560
 11
-326.659975239124610
 21
-102.832716843780640
  0
ARC
  8
0
  6
CONTINUOUS
 62
3
 10
-334.802374652108260
 20
-99.286400889224296
 40
1.000000000000076
 50
341.212271417652970
 51
60.000000000002721
  0
LINE
  8
0
  6
CONTINUOUS
 62
3
 10
-336.943609809164850
 20
-96.895457656520421
 11
-334.302374652108260
 21
-98.420375485439763
  0
ARC
  8
0
  6
CONTINUOUS
 62
3
 10
-337.443609809164850
 20
-97.761483060304727
 40
0.999999999999885
 50
59.999999999996206
 51
159.594068226861310
  0
ARC
  8
0
  6
CONTINUOUS
 62
3
 10
-329.903750814148910
 20
-102.114622680728870
 40
0.999999999999885
 50
59.999999999996206
 51
166.260204708307780
  0
ARC
  8
0
  6
CONTINUOUS
 62
3
 10
-317.761445968735420
 20
-105.083533767483450
 40
13.499999999999687
 50
166.260204708311360
 51
193.739795291688180
  0
ARC
  8
0
  6
CONTINUOUS
 62
3
 10
-317.761445968735420
 20
-105.083533767483450
 40
16.999999999999716
 50
161.212271417649560
 51
198.787728582350440
  0
ARC
  8
0
  6
CONTINUOUS
 62
3
 10
-317.761445968735420
 20
-105.083533767483450
 40
22.000000000000206
 50
159.594068226860770
 51
200.405931773139230
  0
ARC
  8
0
  6
CONTINUOUS
 62
3
 10
-317.761445968735420
 20
-105.083533767483450
 40
30.499999999999947
 50
156.813854344181150
 51
203.186145655818850
  0
ARC
  8
0
  6
CONTINUOUS
 62
3
 10
-317.761445968735420
 20
-105.083533767483450
 40
25.500000000000000
 50
157.589542391857980
 51
202.410457608142480
  0
ARC
  8
0
  6
CONTINUOUS
 62
3
 10
-317.761445968735420
 20
-105.083533767483450
 40
34.000000000000007
 50
155.739170477266780
 51
204.260829522733220
  0
ARC
  8
0
  6
CONTINUOUS
 62
3
 10
-317.761445968735420
 20
-105.083533767483450
 40
39.000000000000220
 50
155.284732954534800
 51
204.715267045465200
  0
LINE
  8
0
  6
CONTINUOUS
 62
3
 10
-315.261445968735420
 20
-134.375170799237140
 11
-315.261445968735420
 21
-131.351384840610760
  0
LINE
  8
0
  6
CONTINUOUS
 62
3
 10
-315.261445968735420
 20
-125.789813008331970
 11
-315.261445968735420
 21
-122.739977350493060
  0
LINE
  8
0
  6
CONTINUOUS
 62
3
 10
-315.261445968735420
 20
-117.083533767483450
 11
-315.261445968735420
 21
-113.915294633811300
  0
LINE
  8
0
  6
CONTINUOUS
 62
3
 10
-308.619141123321920
 20
-113.248597276944560
 11
-311.362916698346230
 21
-111.664477710108480
  0
LINE
  8
0
  6
CONTINUOUS
 62
3
 10
-301.079282128306430
 20
-117.601736897368930
 11
-303.720517285362580
 21
-116.076819068449360
  0
LINE
  8
0
  6
CONTINUOUS
 62
3
 10
-286.242367556305230
 20
-126.167833519457190
 11
-288.852492074410970
 21
-124.660877426310430
  0
LINE
  8
0
  6
CONTINUOUS
 62
3
 10
-315.261445968735420
 20
-142.922006252508480
 11
-315.261445968735420
 21
-139.908094066215200
  0
LINE
  8
0
  6
CONTINUOUS
 62
3
 10
-293.644144180803550
 20
-121.894415792821290
 11
-296.262819636580620
 21
-120.382522813508100
  0
ARC
  8
0
  6
CONTINUOUS
 62
3
 10
-317.761445968735420
 20
-105.083533767483450
 40
8.499999999999904
 50
291.618272422157700
 51
308.381727577842640
  0
ARC
  8
0
  6
CONTINUOUS
 62
3
 10
-317.761445968735420
 20
-105.083533767483450
 40
13.499999999999963
 50
286.260204708310820
 51
313.739795291687870
  0
ARC
  8
0
  6
CONTINUOUS
 62
3
 10
-317.761445968735420
 20
-105.083533767483450
 40
17.000000000000046
 50
281.212271417650020
 51
318.787728582350210
  0
ARC
  8
0
  6
CONTINUOUS
 62
3
 10
-317.761445968735420
 20
-105.083533767483450
 40
22.000000000000131
 50
279.594068226861170
 51
320.405931773139170
  0
ARC
  8
0
  6
CONTINUOUS
 62
3
 10
-317.761445968735420
 20
-105.083533767483450
 40
25.499999999999932
 50
277.589542391858170
 51
322.410457608142050
  0
ARC
  8
0
  6
CONTINUOUS
 62
3
 10
-317.761445968735420
 20
-105.083533767483450
 40
34.000000000000071
 50
275.739170477266950
 51
324.260829522733050
  0
ARC
  8
0
  6
CONTINUOUS
 62
3
 10
-317.761445968735420
 20
-105.083533767483450
 40
30.500000000000135
 50
276.813854344181040
 51
323.186145655818900
  0
ARC
  8
0
  6
CONTINUOUS
 62
3
 10
-317.761445968735420
 20
-105.083533767483450
 40
38.999999999999986
 50
275.284732954534600
 51
324.715267045465230
  0
ARC
  8
0
  6
CONTINUOUS
 62
3
 10
-311.862916698346230
 20
-112.530503113892790
 40
0.999999999999885
 50
59.999999999996206
 51
128.381727577840220
  0
ARC
  8
0
  6
CONTINUOUS
 62
3
 10
-314.261445968735420
 20
-113.915294633811300
 40
1.000000000000090
 50
111.618272422161970
 51
180.000000000000000
  0
ARC
  8
0
  6
CONTINUOUS
 62
3
 10
-314.261445968735420
 20
-117.083533767483450
 40
1.000000000000000
 50
180.000000000000000
 51
286.260204708297350
  0
ARC
  8
0
  6
CONTINUOUS
 62
3
 10
-309.119141123321920
 20
-114.114622680728870
 40
0.999999999999858
 50
313.739795291671330
 51
59.999999999996206
  0
ARC
  8
0
  6
CONTINUOUS
 62
3
 10
-304.220517285362580
 20
-116.942844472233900
 40
1.000000000000082
 50
60.000000000002721
 51
138.787728582338990
  0
ARC
  8
0
  6
CONTINUOUS
 62
3
 10
-301.579282128306430
 20
-118.467762301153240
 40
1.000000000000318
 50
320.405931773139570
 51
59.999999999996206
  0
ARC
  8
0
  6
CONTINUOUS
 62
3
 10
-314.261445968735420
 20
-122.739977350493060
 40
0.999999999999982
 50
101.212271417644000
 51
180.000000000000000
  0
ARC
  8
0
  6
CONTINUOUS
 62
3
 10
-314.261445968735420
 20
-125.789813008331970
 40
1.000000000000000
 50
180.000000000000000
 51
279.594068226875490
  0
ARC
  8
0
  6
CONTINUOUS
 62
3
 10
-314.261445968735420
 20
-134.375170799237140
 40
1.000000000000000
 50
180.000000000000000
 51
276.813854344179670
  0
ARC
  8
0
  6
CONTINUOUS
 62
3
 10
-296.762819636580620
 20
-121.248548217292630
 40
1.000000000000082
 50
60.000000000002721
 51
142.410457608148220
  0
ARC
  8
0
  6
CONTINUOUS
 62
3
 10
-294.144144180803550
 20
-122.760441196605590
 40
0.999999999999911
 50
323.186145655802870
 51
59.999999999996206
  0
ARC
  8
0
  6
CONTINUOUS
 62
3
 10
-314.261445968735420
 20
-131.351384840610760
 40
0.999999999999975
 50
97.589542391854238
 51
180.000000000000000
  0
ARC
  8
0
  6
CONTINUOUS
 62
3
 10
-314.261445968735420
 20
-142.922006252508480
 40
1.000000000000000
 50
180.000000000000000
 51
275.284732954535740
  0
ARC
  8
0
  6
CONTINUOUS
 62
3
 10
-314.261445968735420
 20
-139.908094066215200
 40
0.999999999999973
 50
95.739170477261709
 51
180.000000000000000
  0
ARC
  8
0
  6
CONTINUOUS
 62
3
 10
-289.352492074410970
 20
-125.526902830094740
 40
0.999999999999885
 50
59.999999999996206
 51
144.260829522736490
  0
ARC
  8
0
  6
CONTINUOUS
 62
3
 10
-286.742367556305230
 20
-127.033858923241720
 40
0.999999999999776
 50
324.715267045465680
 51
60.000000000002721
  0
CIRCLE
  8
0
  6
CONTINUOUS
 62
3
 10
-317.761445968735420
 20
-105.083533767483450
 40
5.000000000000000
  0
ARC
  8
0
  6
CONTINUOUS
 62
3
 10
-283.242367556305230
 20
-120.971681096750440
 40
0.999999999999885
 50
239.999999999996220
 51
335.284732954544490
  0
LINE
  8
0
  6
CONTINUOUS
 62
3
 10
-283.742367556305230
 20
-121.837706500534750
 11
-286.352492074410970
 21
-120.330750407388220
  0
ARC
  8
0
  6
CONTINUOUS
 62
3
 10
-317.761445968735420
 20
-105.083533767483450
 40
39.000000000000220
 50
335.284732954534830
 51
24.715267045465190
  0
ARC
  8
0
  6
CONTINUOUS
 62
3
 10
-317.761445968735420
 20
-105.083533767483450
 40
34.000000000000007
 50
335.739170477266780
 51
24.260829522733218
  0
ARC
  8
0
  6
CONTINUOUS
 62
3
 10
-317.761445968735420
 20
-105.083533767483450
 40
25.500000000000085
 50
337.589542391857490
 51
22.410457608142021
  0
ARC
  8
0
  6
CONTINUOUS
 62
3
 10
-317.761445968735420
 20
-105.083533767483450
 40
30.499999999999947
 50
336.813854344181150
 51
23.186145655818844
  0
ARC
  8
0
  6
CONTINUOUS
 62
3
 10
-290.644144180803550
 20
-116.698263370114770
 40
1.000000000000082
 50
240.000000000002730
 51
336.813854344180130
  0
LINE
  8
0
  6
CONTINUOUS
 62
3
 10
-291.144144180803550
 20
-117.564288773899300
 11
-293.762819636581070
 21
-116.052395794586340
  0
ARC
  8
0
  6
CONTINUOUS
 62
3
 10
-317.761445968735420
 20
-105.083533767483450
 40
22.000000000000206
 50
339.594068226860770
 51
20.405931773139226
  0
ARC
  8
0
  6
CONTINUOUS
 62
3
 10
-285.852492074410970
 20
-119.464725003603680
 40
0.999999999999769
 50
155.739170477266270
 51
240.000000000002730
  0
ARC
  8
0
  6
CONTINUOUS
 62
3
 10
-293.262819636581070
 20
-115.186370390801810
 40
0.999999999999701
 50
157.589542391853940
 51
240.000000000002730
  0
ARC
  8
0
  6
CONTINUOUS
 62
3
 10
-298.079282128305980
 20
-112.405584474662190
 40
0.999999999999885
 50
239.999999999996220
 51
339.594068226861340
  0
ARC
  8
0
  6
CONTINUOUS
 62
3
 10
-317.761445968735420
 20
-105.083533767483450
 40
17.000000000000146
 50
341.212271417650070
 51
18.787728582350418
  0
LINE
  8
0
  6
CONTINUOUS
 62
3
 10
-298.579282128305980
 20
-113.271609878446490
 11
-301.220517285362580
 21
-111.746692049526920
  0
ARC
  8
0
  6
CONTINUOUS
 62
3
 10
-300.720517285362580
 20
-110.880666645742620
 40
0.999999999999646
 50
161.212271417644620
 51
239.999999999996220
  0
ARC
  8
0
  6
CONTINUOUS
 62
3
 10
-317.761445968735420
 20
-105.083533767483450
 40
13.500000000000130
 50
346.260204708311850
 51
13.739795291688171
  0
ARC
  8
0
  6
CONTINUOUS
 62
3
 10
-305.619141123321920
 20
-108.052444854238040
 40
0.999999999999885
 50
239.999999999996220
 51
346.260204708314010
  0
LINE
  8
0
  6
CONTINUOUS
 62
3
 10
-306.119141123321920
 20
-108.918470258022350
 11
-308.862916698346230
 21
-107.334350691186270
  0
ARC
  8
0
  6
CONTINUOUS
 62
3
 10
-305.619141123321920
 20
-102.114622680728870
 40
0.999999999999879
 50
13.739795291686027
 51
120.000000000003780
  0
ARC
  8
0
  6
CONTINUOUS
 62
3
 10
-317.761445968735420
 20
-105.083533767483450
 40
8.499999999999972
 50
351.618272422157820
 51
8.381727577842204
  0
ARC
  8
0
  6
CONTINUOUS
 62
3
 10
-308.362916698346230
 20
-106.468325287401960
 40
1.000000000000059
 50
171.618272422154460
 51
239.999999999996220
  0
ARC
  8
0
  6
CONTINUOUS
 62
3
 10
-298.079282128305980
 20
-97.761483060304727
 40
1.000000000000094
 50
20.405931773138686
 51
120.000000000003780
  0
LINE
  8
0
  6
CONTINUOUS
 62
3
 10
-298.579282128305980
 20
-96.895457656520421
 11
-301.220517285362580
 21
-98.420375485439763
  0
ARC
  8
0
  6
CONTINUOUS
 62
3
 10
-300.720517285362580
 20
-99.286400889224296
 40
1.000000000000082
 50
119.999999999997270
 51
198.787728582347000
  0
LINE
  8
0
  6
CONTINUOUS
 62
3
 10
-306.119141123321920
 20
-101.248597276944560
 11
-308.862916698346230
 21
-102.832716843780640
  0
ARC
  8
0
  6
CONTINUOUS
 62
3
 10
-308.362916698346230
 20
-103.698742247565170
 40
1.000000000000082
 50
119.999999999997270
 51
188.381727577832660
  0
ARC
  8
0
  6
CONTINUOUS
 62
3
 10
-285.852492074410970
 20
-90.702342531363001
 40
0.999999999999885
 50
120.000000000003780
 51
204.260829522745610
  0
LINE
  8
0
  6
CONTINUOUS
 62
3
 10
-283.742367556305230
 20
-88.329361034431940
 11
-286.352492074410970
 21
-89.836317127578695
  0
ARC
  8
0
  6
CONTINUOUS
 62
3
 10
-283.242367556305230
 20
-89.195386438216474
 40
1.000000000000248
 50
24.715267045455477
 51
119.999999999997270
  0
ARC
  8
0
  6
CONTINUOUS
 62
3
 10
-293.262819636581070
 20
-94.980697144165333
 40
1.000000000000082
 50
119.999999999997270
 51
202.410457608146060
  0
LINE
  8
0
  6
CONTINUOUS
 62
3
 10
-291.144144180803550
 20
-92.602778761067611
 11
-293.762819636581070
 21
-94.114671740380800
  0
ARC
  8
0
  6
CONTINUOUS
 62
3
 10
-290.644144180803550
 20
-93.468804164852145
 40
0.999999999999730
 50
23.186145655819850
 51
119.999999999997270
  0
ARC
  8
0
  6
CONTINUOUS
 62
3
 10
-317.761445968735420
 20
-105.083533767483450
 40
38.999999999999865
 50
35.284732954534789
 51
84.715267045465410
  0
ARC
  8
0
  6
CONTINUOUS
 62
3
 10
-317.761445968735420
 20
-105.083533767483450
 40
33.999999999999829
 50
35.739170477266640
 51
84.260829522733076
  0
ARC
  8
0
  6
CONTINUOUS
 62
3
 10
-317.761445968735420
 20
-105.083533767483450
 40
25.499999999999890
 50
37.589542391857961
 51
82.410457608141883
  0
ARC
  8
0
  6
CONTINUOUS
 62
3
 10
-317.761445968735420
 20
-105.083533767483450
 40
30.499999999999964
 50
36.813854344181067
 51
83.186145655818962
  0
ARC
  8
0
  6
CONTINUOUS
 62
3
 10
-317.761445968735420
 20
-105.083533767483450
 40
22.000000000000025
 50
39.594068226860820
 51
80.405931773138789
  0
ARC
  8
0
  6
CONTINUOUS
 62
3
 10
-317.761445968735420
 20
-105.083533767483450
 40
17.000000000000114
 50
41.212271417649760
 51
78.787728582349985
  0
ARC
  8
0
  6
CONTINUOUS
 62
3
 10
-317.761445968735420
 20
-105.083533767483450
 40
13.499999999999927
 50
46.260204708312145
 51
73.739795291689134
  0
ARC
  8
0
  6
CONTINUOUS
 62
3
 10
-314.261445968735420
 20
-93.083533767483459
 40
0.999999999999964
 50
73.739795291702634
 51
180.000000000000000
  0
LINE
  8
0
  6
CONTINUOUS
 62
3
 10
-315.261445968735420
 20
-93.083533767483459
 11
-315.261445968735420
 21
-96.251772901155618
  0
ARC
  8
0
  6
CONTINUOUS
 62
3
 10
-309.119141123321920
 20
-96.052444854238047
 40
0.999999999999885
 50
300.000000000003810
 51
46.260204708328693
  0
ARC
  8
0
  6
CONTINUOUS
 62
3
 10
-317.761445968735420
 20
-105.083533767483450
 40
8.500000000000128
 50
51.618272422158320
 51
68.381727577842284
  0
ARC
  8
0
  6
CONTINUOUS
 62
3
 10
-314.261445968735420
 20
-96.251772901155618
 40
1.000000000000000
 50
180.000000000000000
 51
248.381727577838030
  0
ARC
  8
0
  6
CONTINUOUS
 62
3
 10
-301.579282128306430
 20
-91.699305233813448
 40
1.000000000000082
 50
299.999999999997270
 51
39.594068226850403
  0
LINE
  8
0
  6
CONTINUOUS
 62
3
 10
-301.079282128306430
 20
-92.565330637597981
 11
-303.720517285362580
 21
-94.090248466517551
  0
ARC
  8
0
  6
CONTINUOUS
 62
3
 10
-304.220517285362580
 20
-93.224223062733245
 40
0.999999999999673
 50
221.212271417651210
 51
300.000000000003810
  0
LINE
  8
0
  6
CONTINUOUS
 62
3
 10
-308.619141123321920
 20
-96.918470258022353
 11
-311.362916698346230
 21
-98.502589824858433
  0
ARC
  8
0
  6
CONTINUOUS
 62
3
 10
-311.862916698346230
 20
-97.636564421073899
 40
0.999999999999961
 50
231.618272422159780
 51
299.999999999997270
  0
ARC
  8
0
  6
CONTINUOUS
 62
3
 10
-289.352492074410970
 20
-84.640164704872177
 40
0.999999999999940
 50
215.739170477274090
 51
300.000000000003810
  0
LINE
  8
0
  6
CONTINUOUS
 62
3
 10
-286.242367556305230
 20
-83.999234015509728
 11
-288.852492074410970
 21
-85.506190108656483
  0
ARC
  8
0
  6
CONTINUOUS
 62
3
 10
-286.742367556305230
 20
-83.133208611725422
 40
0.999999999999885
 50
300.000000000003810
 51
35.284732954544943
  0
ARC
  8
0
  6
CONTINUOUS
 62
3
 10
-296.762819636581070
 20
-88.918519317674281
 40
0.999999999999834
 50
217.589542391867670
 51
299.999999999997270
  0
LINE
  8
0
  6
CONTINUOUS
 62
3
 10
-293.644144180803550
 20
-88.272651742145626
 11
-296.262819636581070
 21
-89.784544721458815
  0
ARC
  8
0
  6
CONTINUOUS
 62
3
 10
-294.144144180803550
 20
-87.406626338361093
 40
1.000000000000082
 50
299.999999999997270
 51
36.813854344186687
  0
ARC
  8
0
  6
CONTINUOUS
 62
3
 10
-314.261445968735420
 20
-67.245061282458437
 40
1.000000000000042
 50
84.715267045464302
 51
180.000000000000000
  0
LINE
  8
0
  6
CONTINUOUS
 62
3
 10
-315.261445968735420
 20
-67.245061282458437
 11
-315.261445968735420
 21
-70.258973468751719
  0
ARC
  8
0
  6
CONTINUOUS
 62
3
 10
-314.261445968735420
 20
-70.258973468751719
 40
1.000000000000000
 50
180.000000000000000
 51
264.260829522738280
  0
ARC
  8
0
  6
CONTINUOUS
 62
3
 10
-314.261445968735420
 20
-75.791896735729779
 40
1.000000000000077
 50
83.186145655820312
 51
180.000000000000000
  0
LINE
  8
0
  6
CONTINUOUS
 62
3
 10
-315.261445968735420
 20
-75.791896735729779
 11
-315.261445968735420
 21
-78.815682694355928
  0
ARC
  8
0
  6
CONTINUOUS
 62
3
 10
-314.261445968735420
 20
-78.815682694356155
 40
1.000000000000000
 50
179.999999999986980
 51
262.410457608144040
  0
ARC
  8
0
  6
CONTINUOUS
 62
3
 10
-314.261445968735420
 20
-84.377254526634943
 40
1.000000000000268
 50
80.405931773124522
 51
180.000000000000000
  0
LINE
  8
0
  6
CONTINUOUS
 62
3
 10
-315.261445968735420
 20
-84.377254526634943
 11
-315.261445968735420
 21
-87.427090184473855
  0
ARC
  8
0
  6
CONTINUOUS
 62
3
 10
-314.261445968735420
 20
-87.427090184473855
 40
1.000000000000000
 50
180.000000000000000
 51
258.787728582356010
  0
ARC
  8
0
  6
CONTINUOUS
 62
3
 10
-526.261445968735420
 20
-105.083533767483450
 40
300.000000000000060
 50
353.967950853630210
 51
6.032049146369772
  0
ARC
  8
0
  6
CONTINUOUS
 62
3
 10
-232.894781195793030
 20
-74.083533767483686
 40
5.000000000000143
 50
6.032049146370342
 51
90.000000000000000
  0
ARC
  8
0
  6
CONTINUOUS
 62
3
 10
-232.894781195793030
 20
-136.083533767483460
 40
5.000000000000000
 50
270.000000000000000
 51
353.967950853629650
  0
LINE
  8
0
  6
CONTINUOUS
 62
3
 10
-225.761445968735420
 20
-107.583533767483450
 11
-226.271862816253130
 21
-107.583533767483450
  0
LINE
  8
0
  6
CONTINUOUS
 62
3
 10
-225.761445968735420
 20
-107.583533767483450
 11
-225.761445968735420
 21
-102.583533767483450
  0
LINE
  8
0
  6
CONTINUOUS
 62
3
 10
-225.761445968735420
 20
-102.583533767483230
 11
-226.271862816253130
 21
-102.583533767483230
  0
LINE
  8
0
  6
CONTINUOUS
 62
3
 10
-260.261445968735420
 20
-141.083533767483460
 11
-232.894781195793030
 21
-141.083533767483460
  0
LINE
  8
0
  6
CONTINUOUS
 62
3
 10
-260.261445968735420
 20
-69.083533767483686
 11
-232.894781195793030
 21
-69.083533767483686
  0
ARC
  8
0
  6
CONTINUOUS
 62
3
 10
-297.261445968735640
 20
-89.684406693588244
 40
49.999999999999993
 50
24.331631548023370
 51
86.642182578429185
  0
LINE
  8
0
  6
CONTINUOUS
 62
3
 10
-247.261445968735420
 20
-153.611397812483920
 11
-247.261445968735420
 21
-141.083533767483460
  0
LINE
  8
0
  6
CONTINUOUS
 62
3
 10
-257.213655635587660
 20
-141.083533767483460
 11
-262.301935911968260
 21
-149.134367347353190
  0
ARC
  8
0
  6
CONTINUOUS
 62
3
 10
-283.761445968735640
 20
-49.083533767483459
 40
5.000000000000307
 50
311.551050375543410
 51
218.794478426544910
  0
ARC
  8
0
  6
CONTINUOUS
 62
3
 10
-283.761445968735640
 20
-49.083533767483459
 40
6.250000000000000
 50
180.000000000000000
 51
208.862789398056090
  0
ARC
  8
0
  6
CONTINUOUS
 62
3
 10
-283.761445968735640
 20
-49.083533767483459
 40
6.250000000000258
 50
321.482739404032770
 51
0.000000000000000
  0
ARC
  8
0
  6
CONTINUOUS
 62
3
 10
-351.761445968735190
 20
-49.083533767483459
 40
5.000000000000345
 50
321.205521573455480
 51
228.448949624457100
  0
ARC
  8
0
  6
CONTINUOUS
 62
3
 10
-351.761445968735190
 20
-49.083533767483459
 40
6.250000000000000
 50
180.000000000000000
 51
218.517260595967570
  0
ARC
  8
0
  6
CONTINUOUS
 62
3
 10
-351.761445968735190
 20
-49.083533767483459
 40
6.250000000000186
 50
331.137210601943650
 51
0.000000000000000
  0
LINE
  8
0
  6
CONTINUOUS
 62
3
 10
-379.761445968735190
 20
-78.083533767483402
 11
-375.546415531336830
 21
-78.083533767483402
  0
LINE
  8
0
  6
CONTINUOUS
 62
3
 10
-379.761445968735190
 20
-94.083533767483402
 11
-376.560114407861190
 21
-94.083533767483402
  0
ARC
  8
0
  6
CONTINUOUS
 62
3
 10
-381.761445968735420
 20
-107.083533767483400
 40
6.250000000000000
 50
270.000000000000000
 51
323.957337690087400
  0
ARC
  8
0
  6
CONTINUOUS
 62
3
 10
-381.761445968735420
 20
-107.083533767483400
 40
6.249999999999783
 50
36.792596361372297
 51
90.000000000000000
  0
LINE
  8
0
  6
DASHDOT
 62
4
 10
-339.777348784729840
 20
-85.083533767483459
 11
-295.819042444170920
 21
-85.083533767483459
  0
LINE
  8
0
  6
DASHDOT
 62
4
 10
-217.523247101522430
 20
-105.083533767483450
 11
-401.061354972214760
 21
-105.083533767483450
  0
LINE
  8
0
  6
DASHDOT
 62
4
 10
-317.761445968735420
 20
-31.691802660527230
 11
-317.761445968735420
 21
-177.620487337044380
  0
LINE
  8
0
  6
CONTINUOUS
 62
3
 10
58.875511180955073
 20
145.877183916168180
 11
58.875511180955073
 21
158.077182771759000
  0
LINE
  8
0
  6
CONTINUOUS
 62
3
 10
52.875511180955073
 20
156.977183343963590
 11
52.875511180955073
 21
146.977183343963590
  0
LINE
  8
0
  6
CONTINUOUS
 62
3
 10
58.875511180955073
 20
146.977183343963590
 11
52.875511180955073
 21
146.977183343963590
  0
LINE
  8
0
  6
CONTINUOUS
 62
3
 10
58.875511180955073
 20
156.977183343963590
 11
52.875511180955073
 21
156.977183343963590
  0
LINE
  8
0
  6
CONTINUOUS
 62
3
 10
58.875511180955073
 20
90.077182771758146
 11
58.875511180955073
 21
77.877183916167326
  0
LINE
  8
0
  6
CONTINUOUS
 62
3
 10
52.875511180955073
 20
78.977183343962736
 11
52.875511180955073
 21
88.977183343962736
  0
LINE
  8
0
  6
CONTINUOUS
 62
3
 10
58.875511180955073
 20
88.977183343962736
 11
52.875511180955073
 21
88.977183343962736
  0
LINE
  8
0
  6
CONTINUOUS
 62
3
 10
58.875511180955073
 20
78.977183343962736
 11
52.875511180955073
 21
78.977183343962736
  0
ARC
  8
0
  6
CONTINUOUS
 62
3
 10
55.875511180955300
 20
48.843208747746814
 40
1.000000000000227
 50
180.000000000000000
 51
265.335584795429040
  0
LINE
  8
0
  6
CONTINUOUS
 62
3
 10
55.875511180955073
 20
48.477183343964555
 11
55.875511180955073
 21
78.977183343961826
  0
LINE
  8
0
  6
CONTINUOUS
 62
3
 10
64.875511180955073
 20
117.977183343962670
 11
64.875511180955073
 21
47.477183343962736
  0
LINE
  8
0
  6
CONTINUOUS
 62
3
 10
56.875511180955073
 20
47.477183343964555
 11
64.875511180955073
 21
47.477183343962736
  0
ARC
  8
0
  6
CONTINUOUS
 62
3
 10
56.875511180955073
 20
48.477183343964555
 40
1.000000000000999
 50
253.216766737311250
 51
270.000000000000000
  0
ARC
  8
0
  6
CONTINUOUS
 62
3
 10
55.712872162061103
 20
46.849832579148881
 40
1.000000000000481
 50
54.456596482759011
 51
85.335584795446323
  0
ARC
  8
0
  6
CONTINUOUS
 62
3
 10
56.875511180955073
 20
48.477183343964555
 40
1.000000000000000
 50
180.000000000000000
 51
253.216766737311250
  0
ARC
  8
0
  6
CONTINUOUS
 62
3
 10
55.712872162061103
 20
189.104534108776530
 40
1.000000000000574
 50
274.664415204553680
 51
305.543403517241020
  0
ARC
  8
0
  6
CONTINUOUS
 62
3
 10
53.875511180955073
 20
175.965297095815910
 40
1.999999999999851
 50
271.499999999989830
 51
0.000000000000000
  0
ARC
  8
0
  6
CONTINUOUS
 62
3
 10
56.875511180955073
 20
187.477183343960860
 40
1.000000000000999
 50
106.783233262688730
 51
180.000000000000000
  0
ARC
  8
0
  6
CONTINUOUS
 62
3
 10
56.875511180955073
 20
187.477183343960860
 40
1.000000000000000
 50
90.000000000000000
 51
106.783233262688730
  0
LINE
  8
0
  6
CONTINUOUS
 62
3
 10
56.875511180955073
 20
188.477183343960860
 11
64.875511180955073
 21
188.477183343962680
  0
LINE
  8
0
  6
CONTINUOUS
 62
3
 10
53.927865077570459
 20
173.965982445864940
 11
38.375511180955982
 21
173.558729726511960
  0
LINE
  8
0
  6
CONTINUOUS
 62
3
 10
64.875511180955073
 20
117.977183343962670
 11
64.875511180955073
 21
188.477183343962680
  0
LINE
  8
0
  6
CONTINUOUS
 62
3
 10
38.375511180955982
 20
117.977183343962670
 11
38.375511180955982
 21
173.558729726511960
  0
ARC
  8
0
  6
CONTINUOUS
 62
3
 10
55.875511180955073
 20
187.111157940178600
 40
0.999999999999668
 50
94.664415204557926
 51
180.000000000000000
  0
LINE
  8
0
  6
CONTINUOUS
 62
3
 10
54.875511180955073
 20
175.939111174247050
 11
54.875511180955073
 21
187.111157940178600
  0
ARC
  8
0
  6
CONTINUOUS
 62
3
 10
52.875511180955073
 20
175.939111174247050
 40
1.999999999999851
 50
271.499999999989830
 51
0.000000000000000
  0
ARC
  8
0
  6
CONTINUOUS
 62
3
 10
58.775511180955618
 20
158.127183343963220
 40
0.099999999999454
 50
0.000000000000000
 51
90.000000000000000
  0
ARC
  8
0
  6
CONTINUOUS
 62
3
 10
56.875511180955073
 20
159.227183343963590
 40
1.000000000000000
 50
180.000000000000000
 51
270.000000000000000
  0
ARC
  8
0
  6
CONTINUOUS
 62
3
 10
58.775511180955618
 20
145.827183343963040
 40
0.099999999999454
 50
270.000000000000000
 51
0.000000000000000
  0
ARC
  8
0
  6
CONTINUOUS
 62
3
 10
56.875511180955073
 20
144.727183343963590
 40
1.000000000000000
 50
90.000000000000000
 51
180.000000000000000
  0
LINE
  8
0
  6
CONTINUOUS
 62
3
 10
58.875511180955073
 20
158.127183343963220
 11
58.875511180955073
 21
145.827183343963040
  0
LINE
  8
0
  6
CONTINUOUS
 62
3
 10
56.875511180955073
 20
158.227183343963590
 11
58.775511180955618
 21
158.227183343963590
  0
LINE
  8
0
  6
CONTINUOUS
 62
3
 10
56.875511180955073
 20
145.727183343963590
 11
58.775511180955618
 21
145.727183343963590
  0
LINE
  8
0
  6
CONTINUOUS
 62
3
 10
55.875511180955073
 20
187.477183343960860
 11
55.875511180955073
 21
156.977183343963590
  0
LINE
  8
0
  6
CONTINUOUS
 62
3
 10
55.875511180955073
 20
146.977183343963590
 11
55.875511180955073
 21
117.977183343962670
  0
LINE
  8
0
  6
CONTINUOUS
 62
3
 10
52.875511180955073
 20
186.977183343963590
 11
52.875511180955073
 21
176.977183343963590
  0
LINE
  8
0
  6
CONTINUOUS
 62
3
 10
54.875511180955073
 20
186.977183343963590
 11
52.875511180955073
 21
186.977183343963590
  0
LINE
  8
0
  6
CONTINUOUS
 62
3
 10
54.875511180955073
 20
176.977183343963590
 11
52.875511180955073
 21
176.977183343963590
  0
ARC
  8
0
  6
CONTINUOUS
 62
3
 10
53.875511180955073
 20
59.989069592109502
 40
2.000000000000000
 50
0.000000000000000
 51
88.500000000010189
  0
LINE
  8
0
  6
CONTINUOUS
 62
3
 10
53.927865077570459
 20
61.988384242060476
 11
38.375511180955982
 21
62.395636961413459
  0
LINE
  8
0
  6
CONTINUOUS
 62
3
 10
38.375511180955982
 20
117.977183343962670
 11
38.375511180955982
 21
62.395636961413459
  0
LINE
  8
0
  6
CONTINUOUS
 62
3
 10
54.875511180955073
 20
60.015255513678369
 11
54.875511180955073
 21
48.843208747747724
  0
ARC
  8
0
  6
CONTINUOUS
 62
3
 10
52.875511180955073
 20
60.015255513678369
 40
2.000000000000000
 50
0.000000000000000
 51
88.500000000010189
  0
ARC
  8
0
  6
CONTINUOUS
 62
3
 10
58.775511180955618
 20
77.827183343963100
 40
0.100000000000364
 50
270.000000000000000
 51
0.000000000000000
  0
ARC
  8
0
  6
CONTINUOUS
 62
3
 10
56.875511180955073
 20
76.727183343962736
 40
1.000000000000000
 50
90.000000000000000
 51
180.000000000000000
  0
ARC
  8
0
  6
CONTINUOUS
 62
3
 10
58.775511180955618
 20
90.127183343962372
 40
0.099999999999454
 50
0.000000000000000
 51
90.000000000000000
  0
ARC
  8
0
  6
CONTINUOUS
 62
3
 10
56.875511180955073
 20
91.227183343962736
 40
1.000000000000000
 50
180.000000000000000
 51
270.000000000000000
  0
LINE
  8
0
  6
CONTINUOUS
 62
3
 10
58.875511180955073
 20
77.827183343963100
 11
58.875511180955073
 21
90.127183343962372
  0
LINE
  8
0
  6
CONTINUOUS
 62
3
 10
56.875511180955073
 20
77.727183343962736
 11
58.775511180955618
 21
77.727183343962736
  0
LINE
  8
0
  6
CONTINUOUS
 62
3
 10
56.875511180955073
 20
90.227183343962736
 11
58.775511180955618
 21
90.227183343962736
  0
LINE
  8
0
  6
CONTINUOUS
 62
3
 10
55.875511180955073
 20
88.977183343961826
 11
55.875511180955073
 21
117.977183343962670
  0
LINE
  8
0
  6
CONTINUOUS
 62
3
 10
52.875511180955073
 20
48.977183343962736
 11
52.875511180955073
 21
58.977183343962736
  0
LINE
  8
0
  6
CONTINUOUS
 62
3
 10
54.875511180955073
 20
48.977183343962167
 11
52.875511180955073
 21
48.977183343962736
  0
LINE
  8
0
  6
CONTINUOUS
 62
3
 10
54.875511180955073
 20
58.977183343962167
 11
52.875511180955073
 21
58.977183343962736
  0
LINE
  8
0
  6
CONTINUOUS
 62
3
 10
147.375511180955070
 20
105.977183343961760
 11
148.975511180954980
 21
105.977183343962670
  0
LINE
  8
0
  6
CONTINUOUS
 62
3
 10
184.975511180954980
 20
128.977183343962680
 11
151.935318802090480
 21
128.977183343962680
  0
LINE
  8
0
  6
CONTINUOUS
 62
3
 10
149.375511180955070
 20
106.377183343962310
 11
148.975511180954980
 21
105.977183343962670
  0
LINE
  8
0
  6
CONTINUOUS
 62
3
 10
151.935318802090480
 20
106.977183343962670
 11
151.375511180955070
 21
107.127183343962310
  0
LINE
  8
0
  6
CONTINUOUS
 62
3
 10
151.375511180955070
 20
107.127183343962310
 11
150.175511180954800
 21
107.127183343962310
  0
ARC
  8
0
  6
CONTINUOUS
 62
3
 10
150.175511180954800
 20
106.327183343962130
 40
0.800000000000182
 50
90.000000000000000
 51
176.296803365717580
  0
LINE
  8
0
  6
CONTINUOUS
 62
3
 10
184.975511180954980
 20
128.977183343962680
 11
151.935318802090480
 21
128.977183343962680
  0
LINE
  8
0
  6
CONTINUOUS
 62
3
 10
149.375511180955070
 20
106.377183343962310
 11
148.975511180954980
 21
105.977183343962670
  0
LINE
  8
0
  6
CONTINUOUS
 62
3
 10
151.935318802090480
 20
106.977183343962670
 11
151.375511180955070
 21
107.127183343962310
  0
LINE
  8
0
  6
CONTINUOUS
 62
3
 10
151.375511180955070
 20
107.127183343962310
 11
150.175511180954800
 21
107.127183343962310
  0
LINE
  8
0
  6
CONTINUOUS
 62
3
 10
149.375511180955070
 20
117.977183343962670
 11
149.375511180955070
 21
106.377183343962310
  0
LINE
  8
0
  6
CONTINUOUS
 62
3
 10
147.375511180955070
 20
105.977183343961760
 11
148.975511180954980
 21
105.977183343962670
  0
LINE
  8
0
  6
CONTINUOUS
 62
3
 10
153.375511180955070
 20
106.977183343962670
 11
153.375511180955070
 21
104.477183343962670
  0
LINE
  8
0
  6
CONTINUOUS
 62
3
 10
147.375511180955070
 20
129.977183343962680
 11
148.975511180954980
 21
129.977183343962680
  0
LINE
  8
0
  6
CONTINUOUS
 62
3
 10
149.375511180955070
 20
129.577183343962130
 11
148.975511180954980
 21
129.977183343962680
  0
LINE
  8
0
  6
CONTINUOUS
 62
3
 10
151.935318802090480
 20
128.977183343962680
 11
151.375511180955070
 21
128.827183343962130
  0
LINE
  8
0
  6
CONTINUOUS
 62
3
 10
151.375511180955070
 20
128.827183343962130
 11
150.175511180954800
 21
128.827183343962130
  0
ARC
  8
0
  6
CONTINUOUS
 62
3
 10
150.175511180954800
 20
129.627183343962320
 40
0.799999999999783
 50
183.703196634282420
 51
270.000000000000000
  0
LINE
  8
0
  6
CONTINUOUS
 62
3
 10
149.375511180955070
 20
129.577183343962130
 11
148.975511180954980
 21
129.977183343962680
  0
LINE
  8
0
  6
CONTINUOUS
 62
3
 10
151.935318802090480
 20
128.977183343962680
 11
151.375511180955070
 21
128.827183343962130
  0
LINE
  8
0
  6
CONTINUOUS
 62
3
 10
151.375511180955070
 20
128.827183343962130
 11
150.175511180954800
 21
128.827183343962130
  0
LINE
  8
0
  6
CONTINUOUS
 62
3
 10
149.375511180955070
 20
117.977183343962670
 11
149.375511180955070
 21
129.577183343962130
  0
LINE
  8
0
  6
CONTINUOUS
 62
3
 10
185.375513088257780
 20
104.477183343962670
 11
153.375513088257780
 21
104.477183343962670
  0
LINE
  8
0
  6
CONTINUOUS
 62
3
 10
184.975511180954980
 20
106.977183343962670
 11
151.935318802090480
 21
106.977183343962670
  0
LINE
  8
0
  6
CONTINUOUS
 62
3
 10
184.975511180954980
 20
106.977183343962670
 11
151.935318802090480
 21
106.977183343962670
  0
LINE
  8
0
  6
CONTINUOUS
 62
4
 10
65.375511180955073
 20
47.529125514607642
 11
72.446363645155543
 21
47.529125514607642
  0
LINE
  8
0
  6
CONTINUOUS
 62
3
 10
147.375511180955070
 20
188.511788817731030
 11
147.375511180955070
 21
117.977183343962670
  0
LINE
  8
0
  6
CONTINUOUS
 62
3
 10
145.410415993829700
 20
190.511484208043840
 11
67.375511180955073
 21
191.873588538219340
  0
LINE
  8
0
  6
CONTINUOUS
 62
3
 10
145.410415993829700
 20
45.442882479880666
 11
67.375511180955073
 21
44.080778149705168
  0
LINE
  8
0
  6
CONTINUOUS
 62
3
 10
147.375511180955070
 20
47.442577870193475
 11
147.375511180955070
 21
117.977183343962670
  0
LINE
  8
0
  6
CONTINUOUS
 62
3
 10
67.375511180955073
 20
44.080778149705168
 11
32.300083518023712
 21
45.404548673470401
  0
LINE
  8
0
  6
CONTINUOUS
 62
3
 10
67.375511180955073
 20
191.873588538219340
 11
32.300083518023712
 21
190.549818014454100
  0
LINE
  8
0
  6
CONTINUOUS
 62
3
 10
65.375511180955073
 20
47.468455811497790
 11
65.375511180955073
 21
117.977183343962670
  0
LINE
  8
0
  6
CONTINUOUS
 62
3
 10
145.375511180955070
 20
71.527221282392986
 11
145.375511180955070
 21
117.977183343962670
  0
LINE
  8
0
  6
CONTINUOUS
 62
3
 10
142.645522150089160
 20
68.604081857457516
 11
135.375511180955070
 21
68.477183343961826
  0
LINE
  8
0
  6
CONTINUOUS
 62
3
 10
99.375511180955073
 20
48.070655551521725
 11
65.375511180955073
 21
47.477183343962736
  0
LINE
  8
0
  6
DASHDOT
 62
4
 10
145.647157003419120
 20
55.477183343961826
 11
125.883905478369340
 21
55.477183343961826
  0
LINE
  8
0
  6
CONTINUOUS
 62
3
 10
65.375511180955073
 20
188.477183343962680
 11
65.375511180955073
 21
117.977183343962670
  0
LINE
  8
0
  6
CONTINUOUS
 62
4
 10
135.375511180955070
 20
167.477183343962680
 11
142.057693979342730
 21
167.477183343962680
  0
LINE
  8
0
  6
CONTINUOUS
 62
3
 10
145.375511180955070
 20
164.427145405531520
 11
145.375511180955070
 21
117.977183343962670
  0
LINE
  8
0
  6
CONTINUOUS
 62
3
 10
142.645522150089160
 20
167.350284830466990
 11
135.375511180955070
 21
167.477183343962680
  0
LINE
  8
0
  6
CONTINUOUS
 62
3
 10
99.375511180955073
 20
187.883711136402780
 11
65.375511180955073
 21
188.477183343962680
  0
ARC
  8
0
  6
CONTINUOUS
 62
3
 10
145.375511180955070
 20
47.442577870193475
 40
2.000000000000027
 50
271.000000000001760
 51
0.000000000000000
  0
ARC
  8
0
  6
CONTINUOUS
 62
3
 10
32.375511180955073
 20
47.403125834268451
 40
2.000000000000000
 50
180.000000000000000
 51
267.838644059775390
  0
ARC
  8
0
  6
CONTINUOUS
 62
3
 10
145.375511180955070
 20
188.511788817731030
 40
2.000000000000000
 50
0.000000000000000
 51
88.999999999998238
  0
ARC
  8
0
  6
CONTINUOUS
 62
3
 10
32.375511180955073
 20
188.551240853656050
 40
1.999999999999720
 50
92.161355940224595
 51
180.000000000000000
  0
ARC
  8
0
  6
CONTINUOUS
 62
3
 10
98.328366794718477
 20
127.892849427019420
 40
59.999999999999616
 50
67.619615415393312
 51
89.000000000000398
  0
ARC
  8
0
  6
CONTINUOUS
 62
3
 10
143.375511180955070
 20
71.527221282392986
 40
2.000000000000242
 50
320.957132821453510
 51
0.000000000000000
  0
ARC
  8
0
  6
CONTINUOUS
 62
3
 10
142.610617337214530
 20
70.603777247770324
 40
2.000000000000027
 50
271.000000000001760
 51
319.772582959554710
  0
ARC
  8
0
  6
CONTINUOUS
 62
3
 10
120.412089072617160
 20
54.430283727145309
 40
2.000000000000135
 50
292.380384584596470
 51
4.002115591437622
  0
ARC
  8
0
  6
CONTINUOUS
 62
3
 10
135.375511180955070
 20
55.477183343961826
 40
13.000000000000000
 50
90.000000000000000
 51
184.002115591443470
  0
ARC
  8
0
  6
CONTINUOUS
 62
3
 10
98.328366794718477
 20
108.061517260905020
 40
60.000000000000007
 50
319.772582959567390
 51
320.957132821443450
  0
ARC
  8
0
  6
CONTINUOUS
 62
3
 10
98.328366794718477
 20
108.061517260905020
 40
59.999999999999815
 50
270.999999999999660
 51
292.380384584606360
  0
ARC
  8
0
  6
CONTINUOUS
 62
3
 10
146.375511180955070
 20
94.977183343962736
 40
1.000000000000000
 50
90.000000000000000
 51
180.000000000000000
  0
ARC
  8
0
  6
CONTINUOUS
 62
3
 10
146.375511180955070
 20
96.977183343962736
 40
1.000000000000000
 50
270.000000000000000
 51
0.000000000000000
  0
CIRCLE
  8
0
  6
CONTINUOUS
 62
3
 10
42.375511180955073
 20
55.477183343961826
 40
5.000000000000000
  0
CIRCLE
  8
0
  6
CONTINUOUS
 62
3
 10
135.375511180955070
 20
55.477183343961826
 40
5.000000000000000
  0
ARC
  8
0
  6
CONTINUOUS
 62
3
 10
143.375511180955070
 20
164.427145405531520
 40
2.000000000000000
 50
0.000000000000000
 51
39.042867178546516
  0
ARC
  8
0
  6
CONTINUOUS
 62
3
 10
142.610617337214530
 20
165.350589440154180
 40
1.999999999999549
 50
40.227417040425401
 51
88.999999999998238
  0
ARC
  8
0
  6
CONTINUOUS
 62
3
 10
120.412089072617160
 20
181.524082960779200
 40
1.999999999999929
 50
355.997884408536380
 51
67.619615415393611
  0
ARC
  8
0
  6
CONTINUOUS
 62
3
 10
135.375511180955070
 20
180.477183343962680
 40
12.999999999999615
 50
175.997884408560510
 51
270.000000000000000
  0
ARC
  8
0
  6
CONTINUOUS
 62
3
 10
98.328366794718477
 20
127.892849427019420
 40
60.000000000000000
 50
39.042867178556605
 51
40.227417040431980
  0
ARC
  8
0
  6
CONTINUOUS
 62
3
 10
146.375511180955070
 20
140.977183343962680
 40
1.000000000000000
 50
180.000000000000000
 51
270.000000000000000
  0
ARC
  8
0
  6
CONTINUOUS
 62
3
 10
146.375511180955070
 20
138.977183343962680
 40
1.000000000000000
 50
0.000000000000000
 51
90.000000000000000
  0
CIRCLE
  8
0
  6
CONTINUOUS
 62
3
 10
42.375511180955073
 20
180.477183343962680
 40
5.000000000000000
  0
CIRCLE
  8
0
  6
CONTINUOUS
 62
3
 10
135.375511180955070
 20
180.477183343962680
 40
5.000000000000000
  0
LINE
  8
0
  6
CONTINUOUS
 62
3
 10
38.375511180955982
 20
171.477183343962680
 11
-82.124488819065164
 21
171.477183343962680
  0
LINE
  8
0
  6
CONTINUOUS
 62
4
 10
-82.124488819065164
 20
131.977183343962680
 11
55.875511180955066
 21
131.977183343962680
  0
LINE
  8
0
  6
CONTINUOUS
 62
4
 10
-82.124488819065164
 20
137.605218000600530
 11
55.875511180955066
 21
137.605218000600530
  0
LINE
  8
0
  6
CONTINUOUS
 62
4
 10
-82.124488819065164
 20
136.363298135712630
 11
55.875511180955066
 21
136.363298135712630
  0
LINE
  8
0
  6
CONTINUOUS
 62
4
 10
-82.124488819065164
 20
140.815423023958830
 11
55.875511180955066
 21
140.815423023958830
  0
LINE
  8
0
  6
CONTINUOUS
 62
4
 10
-82.124488819065164
 20
142.161824749457420
 11
55.875511180955066
 21
142.161824749457420
  0
LINE
  8
0
  6
CONTINUOUS
 62
4
 10
-82.124488819065164
 20
145.254555741122660
 11
55.875511180955066
 21
145.254555741122630
  0
LINE
  8
0
  6
CONTINUOUS
 62
4
 10
-82.124488819065164
 20
146.733578894599760
 11
55.875511180955066
 21
146.733578894599760
  0
LINE
  8
0
  6
CONTINUOUS
 62
4
 10
-82.124488819065164
 20
149.691574502732690
 11
52.875511180955073
 21
149.691574502732690
  0
LINE
  8
0
  6
CONTINUOUS
 62
4
 10
-82.124488819065164
 20
151.280784295471450
 11
52.875511180955073
 21
151.280784295471450
  0
LINE
  8
0
  6
CONTINUOUS
 62
4
 10
-82.124488819065164
 20
159.019097114302440
 11
55.875511180955066
 21
159.019097114302440
  0
LINE
  8
0
  6
CONTINUOUS
 62
4
 10
-82.124488819065164
 20
164.110265938845370
 11
55.875511180955066
 21
164.110265938845370
  0
LINE
  8
0
  6
CONTINUOUS
 62
4
 10
-82.124488819065164
 20
168.477183343962680
 11
55.875511180955066
 21
168.477183343962680
  0
LINE
  8
0
  6
CONTINUOUS
 62
4
 10
-82.124488819065164
 20
168.977183343962680
 11
55.875511180955066
 21
168.977183343962680
  0
LINE
  8
0
  6
CONTINUOUS
 62
3
 10
38.375511180955982
 20
171.477183343962680
 11
38.375511180955982
 21
117.977183343962670
  0
LINE
  8
0
  6
CONTINUOUS
 62
4
 10
-82.124488819065164
 20
84.673582392453909
 11
52.875511180955073
 21
84.673582392453909
  0
LINE
  8
0
  6
CONTINUOUS
 62
4
 10
-82.124488819065164
 20
86.262792185192666
 11
52.875511180955073
 21
86.262792185192666
  0
LINE
  8
0
  6
CONTINUOUS
 62
4
 10
-82.124488819065164
 20
89.220787793325599
 11
55.875511180955066
 21
89.220787793325599
  0
LINE
  8
0
  6
CONTINUOUS
 62
4
 10
-82.124488819065164
 20
90.699810946802700
 11
55.875511180955066
 21
90.699810946802700
  0
LINE
  8
0
  6
CONTINUOUS
 62
4
 10
-82.124488819065164
 20
93.792541938467934
 11
55.875511180955066
 21
93.792541938467934
  0
LINE
  8
0
  6
CONTINUOUS
 62
4
 10
-82.124488819064936
 20
95.138943663966529
 11
55.875511180955066
 21
95.138943663966529
  0
LINE
  8
0
  6
CONTINUOUS
 62
4
 10
-82.124488819064936
 20
98.349148687324828
 11
55.875511180955066
 21
98.349148687324828
  0
LINE
  8
0
  6
CONTINUOUS
 62
4
 10
-82.124488819064936
 20
99.591068552212732
 11
55.875511180955066
 21
99.591068552212732
  0
LINE
  8
0
  6
CONTINUOUS
 62
4
 10
-82.124488819065164
 20
103.977183343962670
 11
55.875511180955066
 21
103.977183343962670
  0
LINE
  8
0
  6
CONTINUOUS
 62
3
 10
38.375511180955982
 20
64.477183343962679
 11
38.375511180955982
 21
117.977183343962670
  0
LINE
  8
0
  6
CONTINUOUS
 62
3
 10
-82.124488819065164
 20
176.977183343962680
 11
-159.629333768157950
 21
176.977183343962680
  0
LINE
  8
0
  6
CONTINUOUS
 62
3
 10
-171.445008356989320
 20
173.251715456315880
 11
-179.015787553578090
 21
167.950598792743340
  0
LINE
  8
0
  6
CONTINUOUS
 62
3
 10
-180.124488819065160
 20
165.820803477591990
 11
-180.124488819065160
 21
117.977183343962670
  0
ARC
  8
0
  6
CONTINUOUS
 62
3
 10
-177.524488819065250
 20
165.820803477591990
 40
2.600000000000131
 50
125.000000000001180
 51
180.000000000000000
  0
ARC
  8
0
  6
CONTINUOUS
 62
3
 10
-159.629333768157950
 20
156.377183343962660
 40
20.600000000000023
 50
90.000000000000000
 51
124.999999999999600
  0
LINE
  8
0
  6
CONTINUOUS
 62
3
 10
-82.124488819065164
 20
176.977183343962680
 11
-82.124488819064936
 21
117.977183343962670
  0
LINE
  8
0
  6
CONTINUOUS
 62
3
 10
-93.124488819065164
 20
167.121104366687860
 11
-95.124488819065164
 21
165.468462727564430
  0
LINE
  8
0
  6
CONTINUOUS
 62
3
 10
-91.124488819065164
 20
168.296889852310640
 11
-93.124488819065164
 21
167.121104366687860
  0
LINE
  8
0
  6
CONTINUOUS
 62
3
 10
-93.124488819065164
 20
167.121104366687860
 11
-91.124488819065164
 21
165.468462727564430
  0
LINE
  8
0
  6
CONTINUOUS
 62
3
 10
-95.124488819065164
 20
168.296889852310640
 11
-93.124488819065164
 21
167.121104366687860
  0
POLYLINE
  8
0
  6
CONTINUOUS
 62
3
 66
1
 70
1
  0
VERTEX
  8
0
  6
CONTINUOUS
 62
3
 10
-88.424488819064948
 20
165.304514298310210
  0
VERTEX
  8
0
  6
CONTINUOUS
 62
3
 10
-88.514798001169765
 20
166.007471264510570
  0
VERTEX
  8
0
  6
CONTINUOUS
 62
3
 10
-88.782255016261900
 20
166.683413988722660
  0
VERTEX
  8
0
  6
CONTINUOUS
 62
3
 10
-89.216581641242982
 20
167.306366371128060
  0
VERTEX
  8
0
  6
CONTINUOUS
 62
3
 10
-89.801086947488173
 20
167.852388701026650
  0
VERTEX
  8
0
  6
CONTINUOUS
 62
3
 10
-90.513308723872811
 20
168.300497646493280
  0
VERTEX
  8
0
  6
CONTINUOUS
 62
3
 10
-91.325876686949016
 20
168.633472632056030
  0
VERTEX
  8
0
  6
CONTINUOUS
 62
3
 10
-92.207564305589131
 20
168.838517615754280
  0
VERTEX
  8
0
  6
CONTINUOUS
 62
3
 10
-93.124488819064936
 20
168.907752833855060
  0
VERTEX
  8
0
  6
CONTINUOUS
 62
3
 10
-94.041413332540742
 20
168.838517615754280
  0
VERTEX
  8
0
  6
CONTINUOUS
 62
3
 10
-94.923100951180857
 20
168.633472632056030
  0
VERTEX
  8
0
  6
CONTINUOUS
 62
3
 10
-95.735668914257062
 20
168.300497646493280
  0
VERTEX
  8
0
  6
CONTINUOUS
 62
3
 10
-96.447890690641700
 20
167.852388701026650
  0
VERTEX
  8
0
  6
CONTINUOUS
 62
3
 10
-97.032395996886891
 20
167.306366371128060
  0
VERTEX
  8
0
  6
CONTINUOUS
 62
3
 10
-97.466722621867973
 20
166.683413988722660
  0
VERTEX
  8
0
  6
CONTINUOUS
 62
3
 10
-97.734179636960107
 20
166.007471264510570
  0
VERTEX
  8
0
  6
CONTINUOUS
 62
3
 10
-97.824488819064925
 20
165.304514298310210
  0
VERTEX
  8
0
  6
CONTINUOUS
 62
3
 10
-97.734179636960107
 20
164.601557332109850
  0
VERTEX
  8
0
  6
CONTINUOUS
 62
3
 10
-97.466722621867973
 20
163.925614607897760
  0
VERTEX
  8
0
  6
CONTINUOUS
 62
3
 10
-97.032395996886891
 20
163.302662225492360
  0
VERTEX
  8
0
  6
CONTINUOUS
 62
3
 10
-96.447890690641700
 20
162.756639895593760
  0
VERTEX
  8
0
  6
CONTINUOUS
 62
3
 10
-95.735668914257062
 20
162.308530950127140
  0
VERTEX
  8
0
  6
CONTINUOUS
 62
3
 10
-94.923100951180857
 20
161.975555964564390
  0
VERTEX
  8
0
  6
CONTINUOUS
 62
3
 10
-94.041413332540742
 20
161.770510980866130
  0
VERTEX
  8
0
  6
CONTINUOUS
 62
3
 10
-93.124488819064936
 20
161.701275762765360
  0
VERTEX
  8
0
  6
CONTINUOUS
 62
3
 10
-92.207564305589131
 20
161.770510980866130
  0
VERTEX
  8
0
  6
CONTINUOUS
 62
3
 10
-91.325876686949016
 20
161.975555964564390
  0
VERTEX
  8
0
  6
CONTINUOUS
 62
3
 10
-90.513308723872811
 20
162.308530950127140
  0
VERTEX
  8
0
  6
CONTINUOUS
 62
3
 10
-89.801086947488173
 20
162.756639895593760
  0
VERTEX
  8
0
  6
CONTINUOUS
 62
3
 10
-89.216581641242982
 20
163.302662225492360
  0
VERTEX
  8
0
  6
CONTINUOUS
 62
3
 10
-88.782255016261900
 20
163.925614607897760
  0
VERTEX
  8
0
  6
CONTINUOUS
 62
3
 10
-88.514798001169765
 20
164.601557332109850
  0
SEQEND
  8
0
  6
CONTINUOUS
 62
3
  0
LINE
  8
0
  6
CONTINUOUS
 62
3
 10
-89.924488819043972
 20
60.477183343962679
 11
0.075511180956028
 21
60.477183343962679
  0
LINE
  8
0
  6
CONTINUOUS
 62
3
 10
-89.924488819043972
 20
63.528853442119726
 11
-89.924488819043972
 21
27.477183343962679
  0
LINE
  8
0
  6
CONTINUOUS
 62
3
 10
-92.124488819065164
 20
58.977183343962679
 11
-92.124488819065164
 21
60.637486983153735
  0
LINE
  8
0
  6
CONTINUOUS
 62
3
 10
-92.124488819065164
 20
58.977183343962679
 11
-159.629333768157950
 21
58.977183343962679
  0
ARC
  8
0
  6
CONTINUOUS
 62
3
 10
-89.124488819065164
 20
60.637486983153735
 40
3.000000000000000
 50
90.000000000000000
 51
180.000000000000000
  0
LINE
  8
0
  6
CONTINUOUS
 62
3
 10
-89.124488819065164
 20
63.637486983153735
 11
-85.124488819065164
 21
63.637486983153735
  0
ARC
  8
0
  6
CONTINUOUS
 62
3
 10
-85.124488819065164
 20
66.637486983153735
 40
3.000000000000000
 50
270.000000000000000
 51
359.999999999997780
  0
LINE
  8
0
  6
CONTINUOUS
 62
3
 10
-82.124488819065164
 20
66.637486983153622
 11
-82.124488819064936
 21
117.977183343962670
  0
LINE
  8
0
  6
CONTINUOUS
 62
3
 10
-93.124488819065164
 20
68.833262321237612
 11
-95.124488819065164
 21
70.485903960360929
  0
LINE
  8
0
  6
CONTINUOUS
 62
3
 10
-91.124488819065164
 20
67.657476835614716
 11
-93.124488819065164
 21
68.833262321237612
  0
LINE
  8
0
  6
CONTINUOUS
 62
3
 10
-93.124488819065164
 20
68.833262321237612
 11
-91.124488819065164
 21
70.485903960360929
  0
LINE
  8
0
  6
CONTINUOUS
 62
3
 10
-95.124488819065164
 20
67.657476835614716
 11
-93.124488819065164
 21
68.833262321237612
  0
POLYLINE
  8
0
  6
CONTINUOUS
 62
3
 66
1
 70
1
  0
VERTEX
  8
0
  6
CONTINUOUS
 62
3
 10
-88.424488819064948
 20
70.649852389615148
  0
VERTEX
  8
0
  6
CONTINUOUS
 62
3
 10
-88.514798001169765
 20
71.352809355815509
  0
VERTEX
  8
0
  6
CONTINUOUS
 62
3
 10
-88.782255016261900
 20
72.028752080027601
  0
VERTEX
  8
0
  6
CONTINUOUS
 62
3
 10
-89.216581641242982
 20
72.651704462433003
  0
VERTEX
  8
0
  6
CONTINUOUS
 62
3
 10
-89.801086947488173
 20
73.197726792331579
  0
VERTEX
  8
0
  6
CONTINUOUS
 62
3
 10
-90.513308723872811
 20
73.645835737798194
  0
VERTEX
  8
0
  6
CONTINUOUS
 62
3
 10
-91.325876686949016
 20
73.978810723360965
  0
VERTEX
  8
0
  6
CONTINUOUS
 62
3
 10
-92.207564305589131
 20
74.183855707059209
  0
VERTEX
  8
0
  6
CONTINUOUS
 62
3
 10
-93.124488819064936
 20
74.253090925159981
  0
VERTEX
  8
0
  6
CONTINUOUS
 62
3
 10
-94.041413332540742
 20
74.183855707059209
  0
VERTEX
  8
0
  6
CONTINUOUS
 62
3
 10
-94.923100951180857
 20
73.978810723360965
  0
VERTEX
  8
0
  6
CONTINUOUS
 62
3
 10
-95.735668914257062
 20
73.645835737798194
  0
VERTEX
  8
0
  6
CONTINUOUS
 62
3
 10
-96.447890690641700
 20
73.197726792331579
  0
VERTEX
  8
0
  6
CONTINUOUS
 62
3
 10
-97.032395996886891
 20
72.651704462433003
  0
VERTEX
  8
0
  6
CONTINUOUS
 62
3
 10
-97.466722621867973
 20
72.028752080027601
  0
VERTEX
  8
0
  6
CONTINUOUS
 62
3
 10
-97.734179636960107
 20
71.352809355815509
  0
VERTEX
  8
0
  6
CONTINUOUS
 62
3
 10
-97.824488819064925
 20
70.649852389615148
  0
VERTEX
  8
0
  6
CONTINUOUS
 62
3
 10
-97.734179636960107
 20
69.946895423414787
  0
VERTEX
  8
0
  6
CONTINUOUS
 62
3
 10
-97.466722621867973
 20
69.270952699202695
  0
VERTEX
  8
0
  6
CONTINUOUS
 62
3
 10
-97.032395996886891
 20
68.648000316797294
  0
VERTEX
  8
0
  6
CONTINUOUS
 62
3
 10
-96.447890690641700
 20
68.101977986898717
  0
VERTEX
  8
0
  6
CONTINUOUS
 62
3
 10
-95.735668914257062
 20
67.653869041432102
  0
VERTEX
  8
0
  6
CONTINUOUS
 62
3
 10
-94.923100951180857
 20
67.320894055869331
  0
VERTEX
  8
0
  6
CONTINUOUS
 62
3
 10
-94.041413332540742
 20
67.115849072171088
  0
VERTEX
  8
0
  6
CONTINUOUS
 62
3
 10
-93.124488819064936
 20
67.046613854070316
  0
VERTEX
  8
0
  6
CONTINUOUS
 62
3
 10
-92.207564305589131
 20
67.115849072171088
  0
VERTEX
  8
0
  6
CONTINUOUS
 62
3
 10
-91.325876686949016
 20
67.320894055869331
  0
VERTEX
  8
0
  6
CONTINUOUS
 62
3
 10
-90.513308723872811
 20
67.653869041432102
  0
VERTEX
  8
0
  6
CONTINUOUS
 62
3
 10
-89.801086947488173
 20
68.101977986898717
  0
VERTEX
  8
0
  6
CONTINUOUS
 62
3
 10
-89.216581641242982
 20
68.648000316797294
  0
VERTEX
  8
0
  6
CONTINUOUS
 62
3
 10
-88.782255016261900
 20
69.270952699202695
  0
VERTEX
  8
0
  6
CONTINUOUS
 62
3
 10
-88.514798001169765
 20
69.946895423414787
  0
SEQEND
  8
0
  6
CONTINUOUS
 62
3
  0
LINE
  8
0
  6
CONTINUOUS
 62
3
 10
0.075511180956028
 20
65.477183343962679
 11
-82.124488819065164
 21
65.477183343962679
  0
LINE
  8
0
  6
CONTINUOUS
 62
3
 10
-82.924488819043972
 20
26.477183343962679
 11
-82.924488819043972
 21
25.977183343962679
  0
LINE
  8
0
  6
CONTINUOUS
 62
3
 10
-74.924488819043972
 20
26.477183343962679
 11
-74.924488819043972
 21
25.977183343962679
  0
LINE
  8
0
  6
CONTINUOUS
 62
3
 10
-6.924488819043972
 20
26.477183343962679
 11
-6.924488819043972
 21
25.977183343962679
  0
LINE
  8
0
  6
CONTINUOUS
 62
3
 10
-14.924488819043972
 20
26.477183343962679
 11
-14.924488819043972
 21
25.977183343962679
  0
LINE
  8
0
  6
CONTINUOUS
 62
3
 10
-14.924488819043972
 20
25.977183343962679
 11
-6.924488819043972
 21
25.977183343962679
  0
LINE
  8
0
  6
CONTINUOUS
 62
3
 10
-82.924488819043972
 20
25.977183343962679
 11
-74.924488819043972
 21
25.977183343962679
  0
ARC
  8
0
  6
CONTINUOUS
 62
3
 10
-88.924488819043972
 20
27.477183343962679
 40
1.000000000000000
 50
180.000000000000000
 51
270.000000000000000
  0
LINE
  8
0
  6
CONTINUOUS
 62
3
 10
-88.924488819043972
 20
26.477183343962679
 11
-0.924488819043972
 21
26.477183343962679
  0
ARC
  8
0
  6
CONTINUOUS
 62
3
 10
-0.924488819043972
 20
27.477183343962679
 40
1.000000000000000
 50
270.000000000000000
 51
0.000000000000000
  0
LINE
  8
0
  6
CONTINUOUS
 62
3
 10
0.075511180956028
 20
65.477183343962679
 11
0.075511180956028
 21
27.477183343962679
  0
LINE
  8
0
  6
CONTINUOUS
 62
3
 10
38.375511180955982
 20
64.477183343962679
 11
0.075511180956028
 21
64.477183343962679
  0
LINE
  8
0
  6
CONTINUOUS
 62
4
 10
-82.124488819065164
 20
66.977183343962679
 11
55.875511180955066
 21
66.977183343962679
  0
LINE
  8
0
  6
CONTINUOUS
 62
4
 10
-82.124488819065164
 20
67.477183343962679
 11
55.875511180955066
 21
67.477183343962679
  0
LINE
  8
0
  6
CONTINUOUS
 62
4
 10
-82.124488819065164
 20
71.844100749079985
 11
55.875511180955066
 21
71.844100749079985
  0
LINE
  8
0
  6
CONTINUOUS
 62
4
 10
-82.124488819065164
 20
76.935269573622918
 11
55.875511180955066
 21
76.935269573622918
  0
LINE
  8
0
  6
CONTINUOUS
 62
3
 10
-180.124488819065160
 20
70.133563210333364
 11
-180.124488819065160
 21
117.977183343962670
  0
LINE
  8
0
  6
CONTINUOUS
 62
3
 10
-171.445008356989320
 20
62.702651231609480
 11
-179.015787553578090
 21
68.003767895182023
  0
ARC
  8
0
  6
CONTINUOUS
 62
3
 10
-177.524488819065250
 20
70.133563210333364
 40
2.599999999999909
 50
180.000000000000000
 51
234.999999999998810
  0
ARC
  8
0
  6
CONTINUOUS
 62
3
 10
-159.629333768157950
 20
79.577183343962702
 40
20.599999999999891
 50
235.000000000000400
 51
270.000000000000000
  0
LINE
  8
0
  6
DASHDOT
 62
4
 10
-68.924488819043972
 20
40.477183343962679
 11
-86.924488819043972
 21
40.477183343962679
  0
LINE
  8
0
  6
DASHDOT
 62
4
 10
-77.924488819043972
 20
31.477183343962679
 11
-77.924488819043972
 21
58.478782666512416
  0
LINE
  8
0
  6
DASHED
 62
4
 10
-84.924488819043972
 20
60.477183343962679
 11
-84.924488819043972
 21
40.477183343962679
  0
LINE
  8
0
  6
DASHED
 62
4
 10
-70.924488819043972
 20
60.477183343962679
 11
-70.924488819043972
 21
40.477183343962679
  0
ARC
  8
0
  6
DASHED
 62
4
 10
-77.924488819043972
 20
40.477183343962679
 40
7.000000000000000
 50
180.000000000000000
 51
0.000000000000000
  0
CIRCLE
  8
0
  6
DASHED
 62
4
 10
-77.924488819043972
 20
40.477183343962679
 40
6.000000000000000
  0
LINE
  8
0
  6
DASHDOT
 62
4
 10
208.643392189762380
 20
117.977183343962670
 11
-207.011422415540440
 21
117.977183343962670
  0
LINE
  8
0
  6
CONTINUOUS
 62
3
 10
30.375511180955073
 20
47.403125834268451
 11
30.375511180955073
 21
64.477183343962679
  0
LINE
  8
0
  6
CONTINUOUS
 62
3
 10
30.375511180955073
 20
188.551240853656050
 11
30.375511180955073
 21
171.477183343962680
  0
LINE
  8
0
  6
DASHDOT
 62
4
 10
51.297846270044829
 20
180.477183343962680
 11
32.883905478369343
 21
180.477183343962680
  0
LINE
  8
0
  6
DASHDOT
 62
4
 10
42.375511180955073
 20
189.766403628489120
 11
42.375511180955073
 21
170.557359405478110
  0
LINE
  8
0
  6
DASHDOT
 62
4
 10
51.233177391499339
 20
55.477183343961826
 11
32.883905478369343
 21
55.477183343961826
  0
LINE
  8
0
  6
DASHDOT
 62
4
 10
42.375511180955073
 20
46.326481720110166
 11
42.375511180955073
 21
65.463332569959164
  0
LINE
  8
0
  6
DASHDOT
 62
4
 10
135.375511180955070
 20
46.691934173960760
 11
135.375511180955070
 21
64.437759103524002
  0
LINE
  8
0
  6
DASHDOT
 62
4
 10
144.696947915123020
 20
180.477183343962680
 11
125.883905478369340
 21
180.477183343962680
  0
LINE
  8
0
  6
DASHDOT
 62
4
 10
135.375511180955070
 20
189.211939107213310
 11
135.375511180955070
 21
170.551381460235920
  0
LINE
  8
0
  6
CONTINUOUS
 62
3
 10
185.375511180955070
 20
117.977183343962670
 11
185.375511180955070
 21
107.377183343962310
  0
ARC
  8
0
  6
CONTINUOUS
 62
3
 10
184.975511180954980
 20
107.377183343962310
 40
0.399999999999636
 50
270.000000000000000
 51
0.000000000000000
  0
LINE
  8
0
  6
CONTINUOUS
 62
3
 10
185.375511180955070
 20
107.377183343962310
 11
185.375511180955070
 21
104.477183343962670
  0
LINE
  8
0
  6
CONTINUOUS
 62
3
 10
185.375511180955070
 20
117.977183343962670
 11
185.375511180955070
 21
128.577183343962130
  0
ARC
  8
0
  6
CONTINUOUS
 62
3
 10
184.975511180954980
 20
128.577183343962130
 40
0.400000000000091
 50
0.000000000000000
 51
90.000000000000000
  0
INSERT
  8
0
  2
SYM1
 10
58.875511180955527
 20
-107.083533767483570
  0
LINE
  8
0
  6
CONTINUOUS
 62
3
 10
55.875511180955471
 20
-54.083533767483573
 11
52.875511180955527
 21
-54.083533767483573
  0
LINE
  8
0
  6
CONTINUOUS
 62
3
 10
56.130289617802418
 20
-44.083533767483573
 11
52.875511180955527
 21
-44.083533767483573
  0
LINE
  8
0
  6
CONTINUOUS
 62
3
 10
52.875511180955527
 20
-54.083533767483573
 11
52.875511180955527
 21
-44.083533767483573
  0
LINE
  8
0
  6
CONTINUOUS
 62
4
 10
38.375511180956437
 20
-77.806161370323480
 11
55.566748728846051
 21
-77.806161370323480
  0
LINE
  8
0
  6
CONTINUOUS
 62
4
 10
38.375511180956437
 20
-76.327138216846379
 11
55.875511180955527
 21
-76.327138216846379
  0
LINE
  8
0
  6
CONTINUOUS
 62
4
 10
38.375511180956437
 20
-73.369142608713446
 11
55.875511180955527
 21
-73.369142608713446
  0
LINE
  8
0
  6
CONTINUOUS
 62
4
 10
38.375511180956437
 20
-71.779932815974803
 11
55.875511180955527
 21
-71.779932815974803
  0
LINE
  8
0
  6
CONTINUOUS
 62
4
 10
38.375511180956437
 20
-65.043098360958993
 11
55.875511180955385
 21
-65.043098360958993
  0
LINE
  8
0
  6
CONTINUOUS
 62
4
 10
38.375511180956437
 20
-64.041619997143698
 11
55.875511180955385
 21
-64.041619997143698
  0
LINE
  8
0
  6
CONTINUOUS
 62
4
 10
38.375511180956437
 20
-60.578878240378572
 11
55.875511180955414
 21
-60.578878240378572
  0
LINE
  8
0
  6
CONTINUOUS
 62
4
 10
38.375511180956437
 20
-58.950451172600651
 11
55.875511180955414
 21
-58.950451172600651
  0
LINE
  8
0
  6
CONTINUOUS
 62
4
 10
38.375511180956437
 20
-54.583533767483459
 11
55.875511180955471
 21
-54.583533767483459
  0
LINE
  8
0
  6
CONTINUOUS
 62
4
 10
38.375511180956437
 20
-54.083533767483232
 11
55.875511180955471
 21
-54.083533767483232
  0
LINE
  8
0
  6
DASHDOT
 62
4
 10
78.175582778918852
 20
-105.083533767483450
 11
-200.286840744314300
 21
-105.083533767483450
  0
ARC
  8
0
  6
CONTINUOUS
 62
3
 10
-159.629333768157490
 20
-138.483533767483780
 40
20.599999999999795
 50
235.000000000000260
 51
270.000000000000000
  0
ARC
  8
0
  6
CONTINUOUS
 62
3
 10
-177.524488819064800
 20
-147.927153901113120
 40
2.599999999999909
 50
180.000000000000000
 51
234.999999999994540
  0
LINE
  8
0
  6
CONTINUOUS
 62
3
 10
-180.124488819064710
 20
-147.927153901113120
 11
-180.124488819064710
 21
-105.083533767483450
  0
LINE
  8
0
  6
CONTINUOUS
 62
3
 10
-171.445008356988860
 20
-155.358065879836890
 11
-179.015787553577640
 21
-150.056949216264230
  0
ARC
  8
0
  6
CONTINUOUS
 62
3
 10
-89.124488819064709
 20
-140.083533767483460
 40
3.000000000000000
 50
180.000000000000000
 51
270.000000000000000
  0
LINE
  8
0
  6
CONTINUOUS
 62
3
 10
-85.124488819064709
 20
-143.083533767483460
 11
-89.124488819064709
 21
-143.083533767483460
  0
ARC
  8
0
  6
CONTINUOUS
 62
3
 10
-85.124488819064709
 20
-146.083533767483460
 40
3.000000000000000
 50
0.000000000000000
 51
90.000000000000000
  0
LINE
  8
0
  6
CONTINUOUS
 62
3
 10
-89.924488819042836
 20
-140.083533767483460
 11
-89.924488819043518
 21
-105.083533767483230
  0
ARC
  8
0
  6
CONTINUOUS
 62
3
 10
-88.924488819043063
 20
-140.083533767483460
 40
0.999999999999773
 50
180.000000000000000
 51
270.000000000000000
  0
LINE
  8
0
  6
CONTINUOUS
 62
3
 10
0.075511180957164
 20
-140.083533767483460
 11
0.075511180956482
 21
-105.083533767481860
  0
LINE
  8
0
  6
CONTINUOUS
 62
3
 10
-0.924488819043063
 20
-141.083533767483460
 11
-88.924488819043063
 21
-141.083533767483460
  0
ARC
  8
0
  6
CONTINUOUS
 62
3
 10
-0.924488819043063
 20
-140.083533767483460
 40
1.000000000000000
 50
270.000000000000000
 51
0.000000000000000
  0
LINE
  8
0
  6
CONTINUOUS
 62
4
 10
0.075511180956937
 20
-138.387134718992230
 11
38.375511180956437
 21
-138.387134718992230
  0
LINE
  8
0
  6
CONTINUOUS
 62
4
 10
0.075511180956937
 20
-136.797924926253470
 11
38.375511180956437
 21
-136.797924926253470
  0
LINE
  8
0
  6
CONTINUOUS
 62
4
 10
0.075511180956937
 20
-125.083533767483450
 11
38.375511180956437
 21
-125.083533767483450
  0
LINE
  8
0
  6
CONTINUOUS
 62
4
 10
0.075511180956937
 20
-127.921773447479600
 11
38.375511180956437
 21
-127.921773447479600
  0
LINE
  8
0
  6
CONTINUOUS
 62
4
 10
0.075511180956937
 20
-129.268175172978090
 11
38.375511180956437
 21
-129.268175172978090
  0
LINE
  8
0
  6
CONTINUOUS
 62
4
 10
0.075511180956937
 20
-132.360906164643440
 11
38.375511180956437
 21
-132.360906164643440
  0
LINE
  8
0
  6
CONTINUOUS
 62
4
 10
0.075511180956937
 20
-133.839929318120540
 11
38.375511180956437
 21
-133.839929318120540
  0
LINE
  8
0
  6
CONTINUOUS
 62
4
 10
-92.124488819064709
 20
-125.083533767483450
 11
-89.924488819043063
 21
-125.083533767483450
  0
LINE
  8
0
  6
CONTINUOUS
 62
4
 10
-92.124488819064709
 20
-127.921773447479600
 11
-89.924488819043063
 21
-127.921773447479600
  0
LINE
  8
0
  6
CONTINUOUS
 62
4
 10
-92.124488819064709
 20
-129.268175172978090
 11
-89.924488819043063
 21
-129.268175172978090
  0
LINE
  8
0
  6
CONTINUOUS
 62
4
 10
-92.124488819064709
 20
-132.360906164643440
 11
-89.924488819043063
 21
-132.360906164643440
  0
LINE
  8
0
  6
CONTINUOUS
 62
4
 10
-92.124488819064709
 20
-133.839929318120540
 11
-89.924488819043063
 21
-133.839929318120540
  0
LINE
  8
0
  6
CONTINUOUS
 62
4
 10
-92.124488819064709
 20
-136.797924926253470
 11
-89.924488819043063
 21
-136.797924926253470
  0
LINE
  8
0
  6
CONTINUOUS
 62
4
 10
-92.124488819064709
 20
-138.387134718992230
 11
-89.924488819043063
 21
-138.387134718992230
  0
LINE
  8
0
  6
CONTINUOUS
 62
4
 10
-82.282089165435991
 20
-145.123969174007700
 11
55.875511180955527
 21
-145.123969174007700
  0
LINE
  8
0
  6
CONTINUOUS
 62
4
 10
-82.124488819064709
 20
-146.125447537822990
 11
55.875511180955527
 21
-146.125447537822990
  0
LINE
  8
0
  6
CONTINUOUS
 62
3
 10
-92.124488819064709
 20
-105.083533767483450
 11
-92.124488819064709
 21
-140.083533767483460
  0
ARC
  8
0
  6
CONTINUOUS
 62
3
 10
-159.629333768157490
 20
-71.683533767483141
 40
20.599999999999909
 50
90.000000000000000
 51
124.999999999999780
  0
ARC
  8
0
  6
CONTINUOUS
 62
3
 10
-177.524488819064800
 20
-62.239913633853803
 40
2.600000000000037
 50
125.000000000002600
 51
180.000000000000000
  0
LINE
  8
0
  6
CONTINUOUS
 62
3
 10
-180.124488819064710
 20
-62.239913633853803
 11
-180.124488819064710
 21
-105.083533767483450
  0
LINE
  8
0
  6
CONTINUOUS
 62
3
 10
-171.445008356988860
 20
-54.809001655129805
 11
-179.015787553577640
 21
-60.110118318702689
  0
ARC
  8
0
  6
CONTINUOUS
 62
3
 10
-89.124488819064709
 20
-70.083533767483459
 40
3.000000000000000
 50
90.000000000000000
 51
180.000000000000000
  0
LINE
  8
0
  6
CONTINUOUS
 62
3
 10
-85.124488819064709
 20
-67.083533767483459
 11
-89.124488819064709
 21
-67.083533767483459
  0
ARC
  8
0
  6
CONTINUOUS
 62
3
 10
-85.124488819064709
 20
-64.083533767483459
 40
3.000000000000000
 50
270.000000000000000
 51
0.000000000000000
  0
LINE
  8
0
  6
CONTINUOUS
 62
3
 10
-89.924488819042836
 20
-70.083533767483459
 11
-89.924488819043518
 21
-105.083533767483680
  0
ARC
  8
0
  6
CONTINUOUS
 62
3
 10
-88.924488819043063
 20
-70.083533767483459
 40
1.000000000000000
 50
90.000000000000000
 51
180.000000000000000
  0
LINE
  8
0
  6
CONTINUOUS
 62
3
 10
0.075511180957164
 20
-70.083533767483459
 11
0.075511180956482
 21
-105.083533767485050
  0
LINE
  8
0
  6
CONTINUOUS
 62
3
 10
-0.924488819043063
 20
-69.083533767483459
 11
-88.924488819043063
 21
-69.083533767483459
  0
ARC
  8
0
  6
CONTINUOUS
 62
3
 10
-0.924488819043063
 20
-70.083533767483459
 40
1.000000000000227
 50
0.000000000000000
 51
90.000000000000000
  0
LINE
  8
0
  6
CONTINUOUS
 62
4
 10
0.075511180956937
 20
-71.779932815974689
 11
38.375511180956437
 21
-71.779932815974689
  0
LINE
  8
0
  6
CONTINUOUS
 62
4
 10
0.075511180956937
 20
-73.369142608713446
 11
38.375511180956437
 21
-73.369142608713446
  0
LINE
  8
0
  6
CONTINUOUS
 62
4
 10
0.075511180956937
 20
-85.083533767483459
 11
38.375511180956437
 21
-85.083533767483459
  0
LINE
  8
0
  6
CONTINUOUS
 62
4
 10
0.075511180956937
 20
-82.245294087487309
 11
38.375511180956437
 21
-82.245294087487309
  0
LINE
  8
0
  6
CONTINUOUS
 62
4
 10
0.075511180956937
 20
-80.898892361988828
 11
38.375511180956437
 21
-80.898892361988828
  0
LINE
  8
0
  6
CONTINUOUS
 62
4
 10
0.075511180956937
 20
-77.806161370323480
 11
38.375511180956437
 21
-77.806161370323480
  0
LINE
  8
0
  6
CONTINUOUS
 62
4
 10
0.075511180956937
 20
-76.327138216846379
 11
38.375511180956437
 21
-76.327138216846379
  0
LINE
  8
0
  6
CONTINUOUS
 62
4
 10
-92.124488819064709
 20
-85.083533767483459
 11
-89.924488819043063
 21
-85.083533767483459
  0
LINE
  8
0
  6
CONTINUOUS
 62
4
 10
-92.124488819064709
 20
-82.245294087487309
 11
-89.924488819043063
 21
-82.245294087487309
  0
LINE
  8
0
  6
CONTINUOUS
 62
4
 10
-92.124488819064709
 20
-80.898892361988828
 11
-89.924488819043063
 21
-80.898892361988828
  0
LINE
  8
0
  6
CONTINUOUS
 62
4
 10
-92.124488819064709
 20
-77.806161370323480
 11
-89.924488819043063
 21
-77.806161370323480
  0
LINE
  8
0
  6
CONTINUOUS
 62
4
 10
-92.124488819064709
 20
-76.327138216846379
 11
-89.924488819043063
 21
-76.327138216846379
  0
LINE
  8
0
  6
CONTINUOUS
 62
4
 10
-92.124488819064709
 20
-73.369142608713446
 11
-89.924488819043063
 21
-73.369142608713446
  0
LINE
  8
0
  6
CONTINUOUS
 62
4
 10
-92.124488819064709
 20
-71.779932815974689
 11
-89.924488819043063
 21
-71.779932815974689
  0
LINE
  8
0
  6
CONTINUOUS
 62
4
 10
-82.282089165435991
 20
-65.043098360958993
 11
38.375511180956437
 21
-65.043098360958993
  0
LINE
  8
0
  6
CONTINUOUS
 62
4
 10
-82.124488819064709
 20
-64.041619997143698
 11
38.375511180956437
 21
-64.041619997143698
  0
LINE
  8
0
  6
CONTINUOUS
 62
4
 10
-82.124488819064709
 20
-60.578878240378572
 11
38.375511180956437
 21
-60.578878240378572
  0
LINE
  8
0
  6
CONTINUOUS
 62
4
 10
-82.124488819064709
 20
-58.950451172600651
 11
38.375511180956437
 21
-58.950451172600651
  0
LINE
  8
0
  6
CONTINUOUS
 62
4
 10
-82.124488819064709
 20
-54.083533767483232
 11
38.375511180956437
 21
-54.083533767483232
  0
LINE
  8
0
  6
CONTINUOUS
 62
4
 10
-82.124488819064709
 20
-54.583533767483459
 11
38.375511180956437
 21
-54.583533767483459
  0
LINE
  8
0
  6
CONTINUOUS
 62
3
 10
38.375511180956437
 20
-52.583533767483459
 11
-82.124488819064709
 21
-52.583533767483459
  0
LINE
  8
0
  6
CONTINUOUS
 62
3
 10
-92.124488819064709
 20
-105.083533767483450
 11
-92.124488819064709
 21
-70.083533767483459
  0
POLYLINE
  8
0
  6
CONTINUOUS
 62
3
 66
1
 70
1
  0
VERTEX
  8
0
  6
CONTINUOUS
 62
3
 10
-88.424488819064493
 20
-57.756202813135815
  0
VERTEX
  8
0
  6
CONTINUOUS
 62
3
 10
-88.514798001169311
 20
-57.053245846935454
  0
VERTEX
  8
0
  6
CONTINUOUS
 62
3
 10
-88.782255016261445
 20
-56.377303122723362
  0
VERTEX
  8
0
  6
CONTINUOUS
 62
3
 10
-89.216581641242527
 20
-55.754350740317960
  0
VERTEX
  8
0
  6
CONTINUOUS
 62
3
 10
-89.801086947487718
 20
-55.208328410419377
  0
VERTEX
  8
0
  6
CONTINUOUS
 62
3
 10
-90.513308723872356
 20
-54.760219464952762
  0
VERTEX
  8
0
  6
CONTINUOUS
 62
3
 10
-91.325876686948561
 20
-54.427244479390005
  0
VERTEX
  8
0
  6
CONTINUOUS
 62
3
 10
-92.207564305588676
 20
-54.222199495691754
  0
VERTEX
  8
0
  6
CONTINUOUS
 62
3
 10
-93.124488819064482
 20
-54.152964277590982
  0
VERTEX
  8
0
  6
CONTINUOUS
 62
3
 10
-94.041413332540287
 20
-54.222199495691754
  0
VERTEX
  8
0
  6
CONTINUOUS
 62
3
 10
-94.923100951180402
 20
-54.427244479390005
  0
VERTEX
  8
0
  6
CONTINUOUS
 62
3
 10
-95.735668914256607
 20
-54.760219464952762
  0
VERTEX
  8
0
  6
CONTINUOUS
 62
3
 10
-96.447890690641245
 20
-55.208328410419377
  0
VERTEX
  8
0
  6
CONTINUOUS
 62
3
 10
-97.032395996886436
 20
-55.754350740317960
  0
VERTEX
  8
0
  6
CONTINUOUS
 62
3
 10
-97.466722621867518
 20
-56.377303122723362
  0
VERTEX
  8
0
  6
CONTINUOUS
 62
3
 10
-97.734179636959652
 20
-57.053245846935454
  0
VERTEX
  8
0
  6
CONTINUOUS
 62
3
 10
-97.824488819064470
 20
-57.756202813135815
  0
VERTEX
  8
0
  6
CONTINUOUS
 62
3
 10
-97.734179636959652
 20
-58.459159779336176
  0
VERTEX
  8
0
  6
CONTINUOUS
 62
3
 10
-97.466722621867518
 20
-59.135102503548268
  0
VERTEX
  8
0
  6
CONTINUOUS
 62
3
 10
-97.032395996886436
 20
-59.758054885953669
  0
VERTEX
  8
0
  6
CONTINUOUS
 62
3
 10
-96.447890690641245
 20
-60.304077215852246
  0
VERTEX
  8
0
  6
CONTINUOUS
 62
3
 10
-95.735668914256607
 20
-60.752186161318868
  0
VERTEX
  8
0
  6
CONTINUOUS
 62
3
 10
-94.923100951180402
 20
-61.085161146881624
  0
VERTEX
  8
0
  6
CONTINUOUS
 62
3
 10
-94.041413332540287
 20
-61.290206130579875
  0
VERTEX
  8
0
  6
CONTINUOUS
 62
3
 10
-93.124488819064482
 20
-61.359441348680647
  0
VERTEX
  8
0
  6
CONTINUOUS
 62
3
 10
-92.207564305588676
 20
-61.290206130579875
  0
VERTEX
  8
0
  6
CONTINUOUS
 62
3
 10
-91.325876686948561
 20
-61.085161146881624
  0
VERTEX
  8
0
  6
CONTINUOUS
 62
3
 10
-90.513308723872356
 20
-60.752186161318868
  0
VERTEX
  8
0
  6
CONTINUOUS
 62
3
 10
-89.801086947487718
 20
-60.304077215852246
  0
VERTEX
  8
0
  6
CONTINUOUS
 62
3
 10
-89.216581641242527
 20
-59.758054885953669
  0
VERTEX
  8
0
  6
CONTINUOUS
 62
3
 10
-88.782255016261445
 20
-59.135102503548268
  0
VERTEX
  8
0
  6
CONTINUOUS
 62
3
 10
-88.514798001169311
 20
-58.459159779336176
  0
SEQEND
  8
0
  6
CONTINUOUS
 62
3
  0
LINE
  8
0
  6
CONTINUOUS
 62
3
 10
-95.124488819064709
 20
-54.763827259135496
 11
-93.124488819064709
 21
-55.939612744758278
  0
LINE
  8
0
  6
CONTINUOUS
 62
3
 10
-93.124488819064709
 20
-55.939612744758278
 11
-91.124488819064709
 21
-57.592254383881709
  0
LINE
  8
0
  6
CONTINUOUS
 62
3
 10
-91.124488819064709
 20
-54.763827259135496
 11
-93.124488819064709
 21
-55.939612744758278
  0
LINE
  8
0
  6
CONTINUOUS
 62
3
 10
-93.124488819064709
 20
-55.939612744758278
 11
-95.124488819064709
 21
-57.592254383881709
  0
POLYLINE
  8
0
  6
CONTINUOUS
 62
3
 66
1
 70
1
  0
VERTEX
  8
0
  6
CONTINUOUS
 62
3
 10
-88.424488819064493
 20
-152.410864721831100
  0
VERTEX
  8
0
  6
CONTINUOUS
 62
3
 10
-88.514798001169311
 20
-151.707907755630740
  0
VERTEX
  8
0
  6
CONTINUOUS
 62
3
 10
-88.782255016261445
 20
-151.031965031418650
  0
VERTEX
  8
0
  6
CONTINUOUS
 62
3
 10
-89.216581641242527
 20
-150.409012649013250
  0
VERTEX
  8
0
  6
CONTINUOUS
 62
3
 10
-89.801086947487718
 20
-149.862990319114660
  0
VERTEX
  8
0
  6
CONTINUOUS
 62
3
 10
-90.513308723872356
 20
-149.414881373648030
  0
VERTEX
  8
0
  6
CONTINUOUS
 62
3
 10
-91.325876686948561
 20
-149.081906388085290
  0
VERTEX
  8
0
  6
CONTINUOUS
 62
3
 10
-92.207564305588676
 20
-148.876861404387030
  0
VERTEX
  8
0
  6
CONTINUOUS
 62
3
 10
-93.124488819064482
 20
-148.807626186286260
  0
VERTEX
  8
0
  6
CONTINUOUS
 62
3
 10
-94.041413332540287
 20
-148.876861404387030
  0
VERTEX
  8
0
  6
CONTINUOUS
 62
3
 10
-94.923100951180402
 20
-149.081906388085290
  0
VERTEX
  8
0
  6
CONTINUOUS
 62
3
 10
-95.735668914256607
 20
-149.414881373648030
  0
VERTEX
  8
0
  6
CONTINUOUS
 62
3
 10
-96.447890690641245
 20
-149.862990319114660
  0
VERTEX
  8
0
  6
CONTINUOUS
 62
3
 10
-97.032395996886436
 20
-150.409012649013250
  0
VERTEX
  8
0
  6
CONTINUOUS
 62
3
 10
-97.466722621867518
 20
-151.031965031418650
  0
VERTEX
  8
0
  6
CONTINUOUS
 62
3
 10
-97.734179636959652
 20
-151.707907755630740
  0
VERTEX
  8
0
  6
CONTINUOUS
 62
3
 10
-97.824488819064470
 20
-152.410864721831100
  0
VERTEX
  8
0
  6
CONTINUOUS
 62
3
 10
-97.734179636959652
 20
-153.113821688031460
  0
VERTEX
  8
0
  6
CONTINUOUS
 62
3
 10
-97.466722621867518
 20
-153.789764412243560
  0
VERTEX
  8
0
  6
CONTINUOUS
 62
3
 10
-97.032395996886436
 20
-154.412716794648960
  0
VERTEX
  8
0
  6
CONTINUOUS
 62
3
 10
-96.447890690641245
 20
-154.958739124547550
  0
VERTEX
  8
0
  6
CONTINUOUS
 62
3
 10
-95.735668914256607
 20
-155.406848070014180
  0
VERTEX
  8
0
  6
CONTINUOUS
 62
3
 10
-94.923100951180402
 20
-155.739823055576920
  0
VERTEX
  8
0
  6
CONTINUOUS
 62
3
 10
-94.041413332540287
 20
-155.944868039275180
  0
VERTEX
  8
0
  6
CONTINUOUS
 62
3
 10
-93.124488819064482
 20
-156.014103257375950
  0
VERTEX
  8
0
  6
CONTINUOUS
 62
3
 10
-92.207564305588676
 20
-155.944868039275180
  0
VERTEX
  8
0
  6
CONTINUOUS
 62
3
 10
-91.325876686948561
 20
-155.739823055576920
  0
VERTEX
  8
0
  6
CONTINUOUS
 62
3
 10
-90.513308723872356
 20
-155.406848070014180
  0
VERTEX
  8
0
  6
CONTINUOUS
 62
3
 10
-89.801086947487718
 20
-154.958739124547550
  0
VERTEX
  8
0
  6
CONTINUOUS
 62
3
 10
-89.216581641242527
 20
-154.412716794648960
  0
VERTEX
  8
0
  6
CONTINUOUS
 62
3
 10
-88.782255016261445
 20
-153.789764412243560
  0
VERTEX
  8
0
  6
CONTINUOUS
 62
3
 10
-88.514798001169311
 20
-153.113821688031460
  0
SEQEND
  8
0
  6
CONTINUOUS
 62
3
  0
LINE
  8
0
  6
CONTINUOUS
 62
3
 10
-95.124488819064709
 20
-155.403240275831420
 11
-93.124488819064709
 21
-154.227454790208640
  0
LINE
  8
0
  6
CONTINUOUS
 62
3
 10
-93.124488819064709
 20
-154.227454790208640
 11
-91.124488819064709
 21
-152.574813151085210
  0
LINE
  8
0
  6
CONTINUOUS
 62
3
 10
-91.124488819064709
 20
-155.403240275831420
 11
-93.124488819064709
 21
-154.227454790208640
  0
LINE
  8
0
  6
CONTINUOUS
 62
3
 10
-93.124488819064709
 20
-154.227454790208640
 11
-95.124488819064709
 21
-152.574813151085210
  0
LINE
  8
0
  6
CONTINUOUS
 62
3
 10
-82.124488819064709
 20
-51.083533767483232
 11
-159.629333768157490
 21
-51.083533767483232
  0
LINE
  8
0
  6
CONTINUOUS
 62
3
 10
-82.124488819064709
 20
-51.083533767483232
 11
-82.124488819064709
 21
-64.083533767483459
  0
LINE
  8
0
  6
CONTINUOUS
 62
3
 10
-82.124488819064709
 20
-159.083533767483690
 11
-82.124488819064709
 21
-146.083533767483460
  0
LINE
  8
0
  6
CONTINUOUS
 62
3
 10
-82.124488819064709
 20
-159.083533767483690
 11
-159.629333768157490
 21
-159.083533767483690
  0
LINE
  8
0
  6
CONTINUOUS
 62
4
 10
-82.124488819064709
 20
-149.588189294588350
 11
55.875511180955527
 21
-149.588189294588350
  0
LINE
  8
0
  6
CONTINUOUS
 62
4
 10
-82.124488819064709
 20
-151.216616362366270
 11
55.875511180955527
 21
-151.216616362366270
  0
LINE
  8
0
  6
CONTINUOUS
 62
4
 10
-82.124488819064709
 20
-155.583533767483460
 11
31.563624878475878
 21
-155.583533767483460
  0
LINE
  8
0
  6
CONTINUOUS
 62
4
 10
-82.124488819064709
 20
-156.083533767483690
 11
31.046569128564784
 21
-156.083533767483690
  0
LINE
  8
0
  6
CONTINUOUS
 62
3
 10
30.375511180955073
 20
-157.583533767483460
 11
-82.124488819064709
 21
-157.583533767483460
  0
CIRCLE
  8
0
  6
CONTINUOUS
 62
4
 10
320.680244558964660
 20
-85.083533767483459
 40
4.000000000000000
  0
LINE
  8
0
  6
CONTINUOUS
 62
3
 10
307.180244558964660
 20
-88.083533767483459
 11
313.180244558964660
 21
-88.083533767483459
  0
LINE
  8
0
  6
CONTINUOUS
 62
3
 10
307.180244558964660
 20
-82.083533767483459
 11
313.180244558964660
 21
-82.083533767483459
  0
LINE
  8
0
  6
CONTINUOUS
 62
3
 10
313.180244558964660
 20
-88.083533767483459
 11
313.180244558964660
 21
-82.083533767483459
  0
ARC
  8
0
  6
CONTINUOUS
 62
3
 10
320.680244558964660
 20
-85.083533767483459
 40
11.000000000000037
 50
195.826620131872290
 51
164.173379868127710
  0
LINE
  8
0
  6
CONTINUOUS
 62
3
 10
307.180244558964660
 20
-82.083533767483459
 11
307.180244558964660
 21
-88.083533767483459
  0
ARC
  8
0
  6
CONTINUOUS
 62
3
 10
56.875511180955527
 20
-40.083533767483459
 40
1.000000000000000
 50
90.000000000000000
 51
180.000000000000000
  0
LINE
  8
0
  6
CONTINUOUS
 62
3
 10
56.875511180955527
 20
-39.083533767483459
 11
64.875511180955527
 21
-39.083533767483459
  0
LINE
  8
0
  6
CONTINUOUS
 62
3
 10
64.875511180955527
 20
-39.083533767483459
 11
64.875511180955527
 21
-105.083533767483450
  0
LINE
  8
0
  6
CONTINUOUS
 62
3
 10
64.875511180956437
 20
-147.137596681382090
 11
64.875511180956437
 21
-105.083533767483450
  0
LINE
  8
0
  6
CONTINUOUS
 62
3
 10
38.375511180956437
 20
-154.787495866300560
 11
38.375511180956437
 21
-105.083533767483450
  0
LINE
  8
0
  6
CONTINUOUS
 62
3
 10
38.375511180956437
 20
-52.583533767483459
 11
38.375511180956437
 21
-105.083533767483450
  0
ARC
  8
0
  6
CONTINUOUS
 62
3
 10
54.875511180955527
 20
-77.083533767483459
 40
1.000000000000476
 50
299.999999999984250
 51
0.000000000000000
  0
ARC
  8
0
  6
CONTINUOUS
 62
3
 10
55.875511180955527
 20
-78.815584575052526
 40
0.999999999999688
 50
120.000000000010300
 51
180.000000000000000
  0
ARC
  8
0
  6
CONTINUOUS
 62
3
 10
54.875511180955527
 20
-95.083533767483459
 40
1.000000000000000
 50
0.000000000000000
 51
59.999999999989690
  0
LINE
  8
0
  6
CONTINUOUS
 62
3
 10
54.875511180955527
 20
-78.815584575052526
 11
54.875511180955527
 21
-93.351482959914392
  0
ARC
  8
0
  6
CONTINUOUS
 62
3
 10
55.875511180955527
 20
-93.351482959914392
 40
1.000000000000000
 50
180.000000000000000
 51
240.000000000015750
  0
ARC
  8
0
  6
CONTINUOUS
 62
3
 10
56.875511180955527
 20
-114.333533767483450
 40
1.000000000000000
 50
90.000000000000000
 51
180.000000000000000
  0
ARC
  8
0
  6
CONTINUOUS
 62
3
 10
56.875511180955527
 20
-99.833533767483459
 40
1.000000000000000
 50
180.000000000000000
 51
270.000000000000000
  0
ARC
  8
0
  6
CONTINUOUS
 62
3
 10
56.875511180955527
 20
-44.750350700241142
 40
1.000000000000000
 50
90.000000000000000
 51
180.000000000000000
  0
ARC
  8
0
  6
CONTINUOUS
 62
3
 10
56.875511180955527
 20
-41.212823941466922
 40
1.000000000000000
 50
90.000000000000000
 51
180.000000000000000
  0
ARC
  8
0
  6
CONTINUOUS
 62
3
 10
184.975511180954980
 20
-95.683533767483823
 40
0.399999999999636
 50
270.000000000000000
 51
0.000000000000000
  0
LINE
  8
0
  6
CONTINUOUS
 62
3
 10
185.375511180955070
 20
-85.083533767483459
 11
185.375511180955070
 21
-95.683533767483823
  0
LINE
  8
0
  6
CONTINUOUS
 62
3
 10
147.375511180955070
 20
-97.083533767483459
 11
148.975511180954980
 21
-97.083533767483459
  0
LINE
  8
0
  6
CONTINUOUS
 62
3
 10
184.975511180954980
 20
-96.083533767483459
 11
151.935318802090480
 21
-96.083533767483459
  0
LINE
  8
0
  6
CONTINUOUS
 62
3
 10
55.875511180955527
 20
-40.083533767483459
 11
55.875511180955527
 21
-44.083533767483459
  0
LINE
  8
0
  6
CONTINUOUS
 62
3
 10
52.875511180955527
 20
-52.190744943945788
 11
38.375511180956437
 21
-52.570440806699480
  0
LINE
  8
0
  6
CONTINUOUS
 62
3
 10
55.875511180955527
 20
-44.750350700241142
 11
55.875511180955073
 21
-102.083533767483450
  0
LINE
  8
0
  6
CONTINUOUS
 62
3
 10
56.875511180955527
 20
-100.833533767483450
 11
58.775511180955618
 21
-100.833533767483450
  0
ARC
  8
0
  6
CONTINUOUS
 62
3
 10
58.775511180955618
 20
-100.933533767483820
 40
0.099999999999909
 50
0.000000000000000
 51
90.000000000000000
  0
LINE
  8
0
  6
CONTINUOUS
 62
3
 10
56.875511180955527
 20
-113.333533767483450
 11
58.775511180955618
 21
-113.333533767483450
  0
LINE
  8
0
  6
CONTINUOUS
 62
3
 10
58.875511180955527
 20
-113.233533767484000
 11
58.875511180955527
 21
-100.933533767483820
  0
ARC
  8
0
  6
CONTINUOUS
 62
3
 10
58.775511180955618
 20
-113.233533767484000
 40
0.099999999999454
 50
270.000000000000000
 51
0.000000000000000
  0
LINE
  8
0
  6
CONTINUOUS
 62
3
 10
56.875511180955527
 20
-40.212823941466922
 11
58.775511180956073
 21
-40.212823941466922
  0
ARC
  8
0
  6
CONTINUOUS
 62
3
 10
58.775511180956073
 20
-40.312823941467286
 40
0.099999999999454
 50
0.000000000000000
 51
90.000000000000000
  0
LINE
  8
0
  6
CONTINUOUS
 62
3
 10
56.875511180955527
 20
-43.750350700241142
 11
58.775511180956073
 21
-43.750350700241142
  0
LINE
  8
0
  6
CONTINUOUS
 62
3
 10
58.875511180955527
 20
-43.650350700240779
 11
58.875511180955527
 21
-40.312823941467286
  0
ARC
  8
0
  6
CONTINUOUS
 62
3
 10
58.775511180956073
 20
-43.650350700240779
 40
0.100000000000364
 50
270.000000000000000
 51
0.000000000000000
  0
LINE
  8
0
  6
CONTINUOUS
 62
3
 10
149.375511180955070
 20
-96.683533767483823
 11
148.975511180954980
 21
-97.083533767483459
  0
LINE
  8
0
  6
CONTINUOUS
 62
3
 10
151.935318802090480
 20
-96.083533767483459
 11
151.375511180955070
 21
-95.933533767483823
  0
LINE
  8
0
  6
CONTINUOUS
 62
3
 10
151.375511180955070
 20
-95.933533767483823
 11
150.175511180954800
 21
-95.933533767483823
  0
ARC
  8
0
  6
CONTINUOUS
 62
3
 10
150.175511180954800
 20
-96.733533767483095
 40
0.799999999999272
 50
90.000000000000000
 51
176.296803365782610
  0
LINE
  8
0
  6
CONTINUOUS
 62
3
 10
184.975511180954980
 20
-96.083533767483459
 11
151.935318802090480
 21
-96.083533767483459
  0
LINE
  8
0
  6
CONTINUOUS
 62
3
 10
149.375511180955070
 20
-96.683533767483823
 11
148.975511180954980
 21
-97.083533767483459
  0
LINE
  8
0
  6
CONTINUOUS
 62
3
 10
151.935318802090480
 20
-96.083533767483459
 11
151.375511180955070
 21
-95.933533767483823
  0
LINE
  8
0
  6
CONTINUOUS
 62
3
 10
151.375511180955070
 20
-95.933533767483823
 11
150.175511180954800
 21
-95.933533767483823
  0
LINE
  8
0
  6
CONTINUOUS
 62
3
 10
55.875511180955527
 20
-112.083533767483450
 11
55.875511180955527
 21
-154.095612926677860
  0
LINE
  8
0
  6
CONTINUOUS
 62
3
 10
149.375511180955070
 20
-85.083533767483459
 11
149.375511180955070
 21
-96.683533767483823
  0
LINE
  8
0
  6
CONTINUOUS
 62
3
 10
147.375511180955070
 20
-97.083533767483459
 11
148.975511180954980
 21
-97.083533767483459
  0
LINE
  8
0
  6
CONTINUOUS
 62
3
 10
147.375511180955070
 20
-73.083533767483459
 11
148.975511180954980
 21
-73.083533767483459
  0
LINE
  8
0
  6
CONTINUOUS
 62
3
 10
149.375511180955070
 20
-73.483533767484005
 11
148.975511180954980
 21
-73.083533767483459
  0
LINE
  8
0
  6
CONTINUOUS
 62
3
 10
151.935318802090480
 20
-74.083533767483459
 11
151.375511180955070
 21
-74.233533767484005
  0
LINE
  8
0
  6
CONTINUOUS
 62
3
 10
151.375511180955070
 20
-74.233533767484005
 11
150.175511180954800
 21
-74.233533767484005
  0
ARC
  8
0
  6
CONTINUOUS
 62
3
 10
150.175511180954800
 20
-73.433533767483823
 40
0.799999999999783
 50
183.703196634282420
 51
270.000000000000000
  0
LINE
  8
0
  6
CONTINUOUS
 62
3
 10
149.375511180955070
 20
-73.483533767484005
 11
148.975511180954980
 21
-73.083533767483459
  0
LINE
  8
0
  6
CONTINUOUS
 62
3
 10
151.935318802090480
 20
-74.083533767483459
 11
151.375511180955070
 21
-74.233533767484005
  0
LINE
  8
0
  6
CONTINUOUS
 62
3
 10
151.375511180955070
 20
-74.233533767484005
 11
150.175511180954800
 21
-74.233533767484005
  0
LINE
  8
0
  6
CONTINUOUS
 62
3
 10
149.375511180955070
 20
-85.083533767483459
 11
149.375511180955070
 21
-73.483533767484005
  0
LINE
  8
0
  6
CONTINUOUS
 62
3
 10
147.375511180955070
 20
-73.083533767483459
 11
148.975511180954980
 21
-73.083533767483459
  0
ARC
  8
0
  6
CONTINUOUS
 62
3
 10
184.975511180954980
 20
-74.483533767484005
 40
0.400000000000091
 50
0.000000000000000
 51
90.000000000000000
  0
LINE
  8
0
  6
CONTINUOUS
 62
3
 10
184.975511180954980
 20
-74.083533767483459
 11
151.935318802090480
 21
-74.083533767483459
  0
LINE
  8
0
  6
CONTINUOUS
 62
3
 10
184.975511180954980
 20
-74.083533767483459
 11
151.935318802090480
 21
-74.083533767483459
  0
LINE
  8
0
  6
CONTINUOUS
 62
3
 10
185.375511180955070
 20
-85.083533767483459
 11
185.375511180955070
 21
-74.483533767484005
  0
POLYLINE
  8
0
  6
CONTINUOUS
 62
3
 66
1
  0
VERTEX
  8
0
  6
CONTINUOUS
 62
3
 10
143.542817339519960
 20
-90.184406693588244
  0
VERTEX
  8
0
  6
CONTINUOUS
 62
3
 10
143.341418981073760
 20
-87.258051898546668
  0
VERTEX
  8
0
  6
CONTINUOUS
 62
3
 10
142.744963531516700
 20
-84.444155274427914
  0
VERTEX
  8
0
  6
CONTINUOUS
 62
3
 10
141.776372438722350
 20
-81.850853287818467
  0
VERTEX
  8
0
  6
CONTINUOUS
 62
3
 10
140.472868114290430
 20
-79.577805077302187
  0
VERTEX
  8
0
  6
CONTINUOUS
 62
3
 10
138.884543497178300
 20
-77.712362608747057
  0
VERTEX
  8
0
  6
CONTINUOUS
 62
3
 10
137.072437010196010
 20
-76.326213788325916
  0
VERTEX
  8
0
  6
CONTINUOUS
 62
3
 10
135.106186887705600
 20
-75.472627536552281
  0
VERTEX
  8
0
  6
CONTINUOUS
 62
3
 10
133.061355017392910
 20
-75.184406693588244
  0
VERTEX
  8
0
  6
CONTINUOUS
 62
3
 10
131.016523139370180
 20
-75.472627424523722
  0
VERTEX
  8
0
  6
CONTINUOUS
 62
3
 10
129.050272994045860
 20
-76.326213568573976
  0
VERTEX
  8
0
  6
CONTINUOUS
 62
3
 10
127.238166469983380
 20
-77.712362289716680
  0
VERTEX
  8
0
  6
CONTINUOUS
 62
3
 10
125.649841802969660
 20
-79.577804671253546
  0
VERTEX
  8
0
  6
CONTINUOUS
 62
3
 10
124.346337417732490
 20
-81.850852810355775
  0
VERTEX
  8
0
  6
CONTINUOUS
 62
3
 10
123.377746255565950
 20
-84.444154743899801
  0
VERTEX
  8
0
  6
CONTINUOUS
 62
3
 10
122.781290730735660
 20
-87.258051335341023
  0
VERTEX
  8
0
  6
CONTINUOUS
 62
3
 10
122.579892294007890
 20
-90.184406119348751
  0
SEQEND
  8
0
  6
CONTINUOUS
 62
3
  0
LINE
  8
0
  6
CONTINUOUS
 62
3
 10
143.542817339520300
 20
-90.184406693588244
 11
143.542817339520300
 21
-152.436736459176250
  0
LINE
  8
0
  6
CONTINUOUS
 62
3
 10
122.579892294008450
 20
-90.184406136650068
 11
122.579892294008450
 21
-151.702632840529080
  0
POLYLINE
  8
0
  6
CONTINUOUS
 62
3
 66
1
  0
VERTEX
  8
0
  6
CONTINUOUS
 62
3
 10
385.476358079678110
 20
-89.684406693588244
  0
VERTEX
  8
0
  6
CONTINUOUS
 62
3
 10
385.327725842676950
 20
-86.758051863346324
  0
VERTEX
  8
0
  6
CONTINUOUS
 62
3
 10
384.887540985187630
 20
-83.944155208111894
  0
VERTEX
  8
0
  6
CONTINUOUS
 62
3
 10
384.172719564424880
 20
-81.350853198294203
  0
VERTEX
  8
0
  6
CONTINUOUS
 62
3
 10
383.210731766712170
 20
-79.077804975790031
  0
VERTEX
  8
0
  6
CONTINUOUS
 62
3
 10
382.038546243626630
 20
-77.212362509050067
  0
VERTEX
  8
0
  6
CONTINUOUS
 62
3
 10
380.701209427451200
 20
-75.826213705918946
  0
VERTEX
  8
0
  6
CONTINUOUS
 62
3
 10
379.250114422044360
 20
-74.972627487539796
  0
VERTEX
  8
0
  6
CONTINUOUS
 62
3
 10
377.741025994680510
 20
-74.684406693588244
  0
VERTEX
  8
0
  6
CONTINUOUS
 62
3
 10
376.231937567316660
 20
-74.972627487539796
  0
VERTEX
  8
0
  6
CONTINUOUS
 62
3
 10
374.780842561909820
 20
-75.826213705918946
  0
VERTEX
  8
0
  6
CONTINUOUS
 62
3
 10
373.443505745734400
 20
-77.212362509050067
  0
VERTEX
  8
0
  6
CONTINUOUS
 62
3
 10
372.271320222648850
 20
-79.077804975790031
  0
VERTEX
  8
0
  6
CONTINUOUS
 62
3
 10
371.309332424936140
 20
-81.350853198294217
  0
VERTEX
  8
0
  6
CONTINUOUS
 62
3
 10
370.594511004173400
 20
-83.944155208111894
  0
VERTEX
  8
0
  6
CONTINUOUS
 62
3
 10
370.154326146684070
 20
-86.758051863346324
  0
VERTEX
  8
0
  6
CONTINUOUS
 62
3
 10
370.005693909682920
 20
-89.684406693588244
  0
SEQEND
  8
0
  6
CONTINUOUS
 62
3
  0
POLYLINE
  8
0
  6
CONTINUOUS
 62
3
 66
1
  0
VERTEX
  8
0
  6
CONTINUOUS
 62
3
 10
271.354795208246860
 20
-89.684406693588244
  0
VERTEX
  8
0
  6
CONTINUOUS
 62
3
 10
271.206162971245700
 20
-86.758051863346324
  0
VERTEX
  8
0
  6
CONTINUOUS
 62
3
 10
270.765978113756380
 20
-83.944155208111894
  0
VERTEX
  8
0
  6
CONTINUOUS
 62
3
 10
270.051156692993630
 20
-81.350853198294203
  0
VERTEX
  8
0
  6
CONTINUOUS
 62
3
 10
269.089168895280920
 20
-79.077804975790031
  0
VERTEX
  8
0
  6
CONTINUOUS
 62
3
 10
267.916983372195380
 20
-77.212362509050067
  0
VERTEX
  8
0
  6
CONTINUOUS
 62
3
 10
266.579646556019950
 20
-75.826213705918946
  0
VERTEX
  8
0
  6
CONTINUOUS
 62
3
 10
265.128551550613110
 20
-74.972627487539796
  0
VERTEX
  8
0
  6
CONTINUOUS
 62
3
 10
263.619463123249260
 20
-74.684406693588244
  0
VERTEX
  8
0
  6
CONTINUOUS
 62
3
 10
262.110374695885410
 20
-74.972627487539796
  0
VERTEX
  8
0
  6
CONTINUOUS
 62
3
 10
260.659279690478570
 20
-75.826213705918946
  0
VERTEX
  8
0
  6
CONTINUOUS
 62
3
 10
259.321942874303150
 20
-77.212362509050067
  0
VERTEX
  8
0
  6
CONTINUOUS
 62
3
 10
258.149757351217600
 20
-79.077804975790031
  0
VERTEX
  8
0
  6
CONTINUOUS
 62
3
 10
257.187769553504890
 20
-81.350853198294217
  0
VERTEX
  8
0
  6
CONTINUOUS
 62
3
 10
256.472948132742150
 20
-83.944155208111894
  0
VERTEX
  8
0
  6
CONTINUOUS
 62
3
 10
256.032763275252820
 20
-86.758051863346324
  0
VERTEX
  8
0
  6
CONTINUOUS
 62
3
 10
255.884131038251670
 20
-89.684406693588244
  0
SEQEND
  8
0
  6
CONTINUOUS
 62
3
  0
LINE
  8
0
  6
CONTINUOUS
 62
3
 10
320.680244558964660
 20
-150.083533767483460
 11
283.680244558964660
 21
-150.083533767483460
  0
LINE
  8
0
  6
CONTINUOUS
 62
3
 10
278.680244558964660
 20
-87.583533767483459
 11
278.680244558964660
 21
-145.083533767483460
  0
LINE
  8
0
  6
CONTINUOUS
 62
3
 10
291.749292275986140
 20
-85.083533767483459
 11
281.180244558964660
 21
-85.083533767483459
  0
LINE
  8
0
  6
CONTINUOUS
 62
3
 10
349.611196841943640
 20
-85.083533767483459
 11
360.180244558964660
 21
-85.083533767483459
  0
LINE
  8
0
  6
CONTINUOUS
 62
3
 10
320.680244558964660
 20
-150.083533767483460
 11
283.680244558964660
 21
-150.083533767483460
  0
LINE
  8
0
  6
CONTINUOUS
 62
3
 10
278.680244558964660
 20
-87.379149762818997
 11
278.680244558964660
 21
-145.083533767483460
  0
LINE
  8
0
  6
CONTINUOUS
 62
3
 10
362.680244558964660
 20
-87.583533767483459
 11
362.680244558964660
 21
-145.083533767483460
  0
LINE
  8
0
  6
CONTINUOUS
 62
3
 10
320.680244558964660
 20
-150.083533767483460
 11
357.680244558964660
 21
-150.083533767483460
  0
LINE
  8
0
  6
CONTINUOUS
 62
3
 10
30.375511180955073
 20
-169.583533767483460
 11
32.375511180955073
 21
-169.583533767483460
  0
LINE
  8
0
  6
CONTINUOUS
 62
3
 10
32.375511180955073
 20
-169.583533767483460
 11
32.375511180955073
 21
-170.083533767483460
  0
LINE
  8
0
  6
CONTINUOUS
 62
3
 10
145.375511180955070
 20
-169.583533767483460
 11
147.375511180955070
 21
-169.583533767483460
  0
LINE
  8
0
  6
CONTINUOUS
 62
3
 10
145.375511180955070
 20
-170.083533767483460
 11
145.375511180955070
 21
-169.583533767483460
  0
LINE
  8
0
  6
CONTINUOUS
 62
3
 10
272.180244558964660
 20
-170.083533767483460
 11
272.180244558964660
 21
-170.083533767483460
  0
LINE
  8
0
  6
CONTINUOUS
 62
3
 10
369.180244558964660
 20
-170.083533767483460
 11
369.180244558964660
 21
-170.083533767483460
  0
LINE
  8
0
  6
CONTINUOUS
 62
3
 10
67.375511180955073
 20
-144.138295804110380
 11
67.375511180955073
 21
-127.336841480951080
  0
LINE
  8
0
  6
CONTINUOUS
 62
3
 10
57.157574580909568
 20
-153.478847618172950
 11
66.645171418257178
 21
-145.683599295924980
  0
LINE
  8
0
  6
CONTINUOUS
 62
3
 10
144.427868400267470
 20
-155.032082471361720
 11
67.875511180955073
 21
-153.695856105688110
  0
LINE
  8
0
  6
CONTINUOUS
 62
3
 10
33.264572898728602
 20
-154.976624796569010
 11
67.875511180956892
 21
-153.695856105688110
  0
LINE
  8
0
  6
CONTINUOUS
 62
3
 10
30.375511180955073
 20
-169.583533767483460
 11
30.375511180955073
 21
-157.974572877763420
  0
LINE
  8
0
  6
CONTINUOUS
 62
3
 10
145.375511180955070
 20
-62.431243171716233
 11
145.375511180955070
 21
-154.567523941692340
  0
LINE
  8
0
  6
CONTINUOUS
 62
3
 10
147.375511180955070
 20
-85.083533767483459
 11
147.375511180955070
 21
-64.083533767483459
  0
LINE
  8
0
  6
CONTINUOUS
 62
3
 10
147.375511180955070
 20
-85.083533767483459
 11
147.375511180955070
 21
-106.083533767483450
  0
LINE
  8
0
  6
DASHDOT
 62
4
 10
42.375511180955073
 20
-172.917151778958210
 11
42.375511180955073
 21
-152.717084500119200
  0
LINE
  8
0
  6
DASHDOT
 62
4
 10
135.375511180955070
 20
-152.980965038083010
 11
135.375511180955070
 21
-172.731589797756900
  0
LINE
  8
0
  6
CONTINUOUS
 62
3
 10
147.375511180955070
 20
-158.031625556830480
 11
147.375511180955070
 21
-169.583533767483460
  0
LINE
  8
0
  6
CONTINUOUS
 62
3
 10
145.375511180955070
 20
-170.083533767483460
 11
32.375511180955073
 21
-170.083533767483460
  0
LINE
  8
0
  6
CONTINUOUS
 62
3
 10
99.375511180955073
 20
-39.677005975042448
 11
65.375511180955073
 21
-39.083533767483459
  0
LINE
  8
0
  6
DASHDOT
 62
4
 10
383.180244558964660
 20
-151.998727159164450
 11
383.180244558964660
 21
-172.495701278469820
  0
LINE
  8
0
  6
DASHDOT
 62
4
 10
258.180244558964660
 20
-152.498727159164450
 11
258.180244558964660
 21
-172.495701278469820
  0
LINE
  8
0
  6
DASHDOT
 62
4
 10
401.165964642549170
 20
-85.083533767483459
 11
215.262598815751060
 21
-85.083533767483459
  0
LINE
  8
0
  6
DASHDOT
 62
4
 10
320.680244558964660
 20
-26.778532433083456
 11
320.680244558964660
 21
-180.011823728054880
  0
LINE
  8
0
  6
CONTINUOUS
 62
3
 10
320.680244558964660
 20
-168.083533767483460
 11
289.680244558964660
 21
-168.083533767483460
  0
LINE
  8
0
  6
CONTINUOUS
 62
3
 10
250.180244558964660
 20
-153.611397812484030
 11
250.180244558964660
 21
-89.684406693588244
  0
LINE
  8
0
  6
CONTINUOUS
 62
3
 10
272.180244558964660
 20
-170.083533767483460
 11
248.180244558964660
 21
-170.083533767483460
  0
LINE
  8
0
  6
CONTINUOUS
 62
3
 10
248.180244558964660
 20
-170.083533767483460
 11
248.180244558964660
 21
-158.083533767483460
  0
LINE
  8
0
  6
CONTINUOUS
 62
3
 10
320.680244558964660
 20
-155.083533767483460
 11
251.180244558964660
 21
-155.083533767483460
  0
LINE
  8
0
  6
CONTINUOUS
 62
3
 10
273.527244558964870
 20
-89.684406693588244
 11
273.527244558964870
 21
-152.083533767483460
  0
LINE
  8
0
  6
CONTINUOUS
 62
3
 10
320.680244558964660
 20
-155.083533767483460
 11
390.180244558964660
 21
-155.083533767483460
  0
LINE
  8
0
  6
CONTINUOUS
 62
3
 10
367.833244558964910
 20
-89.684406693588244
 11
367.833244558964910
 21
-152.083533767483460
  0
LINE
  8
0
  6
DASHDOT
 62
4
 10
297.306525164029150
 20
-105.083533767483450
 11
343.133599567419880
 21
-105.083533767483450
  0
LINE
  8
0
  6
CONTINUOUS
 62
3
 10
391.180244558964660
 20
-153.611397812484030
 11
391.180244558964660
 21
-89.684406693588244
  0
LINE
  8
0
  6
CONTINUOUS
 62
3
 10
393.180244558965110
 20
-170.083533767483460
 11
393.180244558964660
 21
-158.083533767483460
  0
LINE
  8
0
  6
CONTINUOUS
 62
3
 10
255.884131038251330
 20
-89.684406008876977
 11
255.884131038251330
 21
-152.083533767483460
  0
LINE
  8
0
  6
CONTINUOUS
 62
3
 10
271.354795208246740
 20
-89.684406693588244
 11
271.354795208246740
 21
-152.083533767483460
  0
LINE
  8
0
  6
CONTINUOUS
 62
3
 10
370.005693909683030
 20
-89.684406693588244
 11
370.005693909683030
 21
-152.083533767483460
  0
LINE
  8
0
  6
CONTINUOUS
 62
3
 10
385.476358079677990
 20
-89.684406008876977
 11
385.476358079677990
 21
-152.083533767483460
  0
LINE
  8
0
  6
DASHDOT
 62
4
 10
199.536943652480200
 20
-85.083533767483459
 11
108.405673175982880
 21
-85.083533767483459
  0
ARC
  8
0
  6
CONTINUOUS
 62
3
 10
291.749292275986140
 20
-87.083533767483459
 40
1.999999999999775
 50
3.954572122092177
 51
90.000000000000000
  0
ARC
  8
0
  6
CONTINUOUS
 62
3
 10
349.611196841943640
 20
-87.083533767483459
 40
2.000000000000000
 50
90.000000000000000
 51
176.045427877907830
  0
ARC
  8
0
  6
CONTINUOUS
 62
3
 10
283.680244558964660
 20
-145.083533767483460
 40
5.000000000000000
 50
180.000000000000000
 51
270.000000000000000
  0
ARC
  8
0
  6
CONTINUOUS
 62
3
 10
281.180244558964660
 20
-87.583533767483459
 40
2.500000000000000
 50
90.000000000000000
 51
180.000000000000000
  0
ARC
  8
0
  6
CONTINUOUS
 62
3
 10
360.180244558964660
 20
-87.583533767483459
 40
2.500000000000000
 50
0.000000000000000
 51
90.000000000000000
  0
ARC
  8
0
  6
CONTINUOUS
 62
3
 10
283.680244558964660
 20
-145.083533767483460
 40
5.000000000000000
 50
180.000000000000000
 51
270.000000000000000
  0
ARC
  8
0
  6
CONTINUOUS
 62
3
 10
357.680244558964660
 20
-145.083533767483460
 40
5.000000000000000
 50
270.000000000000000
 51
0.000000000000000
  0
ARC
  8
0
  6
CONTINUOUS
 62
3
 10
320.680244558965110
 20
-85.083533767483459
 40
27.000000000000338
 50
183.954572122090720
 51
356.045427877909220
  0
ARC
  8
0
  6
CONTINUOUS
 62
3
 10
65.375511180955073
 20
-144.138295804110380
 40
2.000000000000103
 50
309.407385823781850
 51
0.000000000000000
  0
ARC
  8
0
  6
CONTINUOUS
 62
3
 10
55.253084224956638
 20
-151.160892380450600
 40
3.000000000000099
 50
272.119248310867080
 51
309.407385823772980
  0
ARC
  8
0
  6
CONTINUOUS
 62
3
 10
65.375511180955073
 20
-127.336841480951080
 40
2.000000000000000
 50
0.000000000000000
 51
90.000000000000000
  0
ARC
  8
0
  6
CONTINUOUS
 62
3
 10
33.375511180955073
 20
-157.974572877763420
 40
3.000000000000099
 50
92.119248310867050
 51
180.000000000000000
  0
ARC
  8
0
  6
CONTINUOUS
 62
3
 10
144.375511180955070
 20
-158.031625556830480
 40
3.000000000000000
 50
0.000000000000000
 51
88.999999999989399
  0
ARC
  8
0
  6
CONTINUOUS
 62
3
 10
146.375511180955070
 20
-154.567523941692340
 40
1.000000000000000
 50
180.000000000000000
 51
240.000000000015750
  0
ARC
  8
0
  6
CONTINUOUS
 62
3
 10
146.375511180955070
 20
-106.083533767483450
 40
1.000000000000000
 50
270.000000000000000
 51
0.000000000000000
  0
ARC
  8
0
  6
CONTINUOUS
 62
3
 10
146.375511180955070
 20
-108.083533767483450
 40
1.000000000000000
 50
90.000000000000000
 51
180.000000000000000
  0
ARC
  8
0
  6
CONTINUOUS
 62
3
 10
98.328366794718022
 20
-99.667867684426710
 40
60.000000000000639
 50
38.432783305177523
 51
88.999999999999972
  0
ARC
  8
0
  6
CONTINUOUS
 62
3
 10
146.895318009912900
 20
-61.128910126380106
 40
1.999999999999653
 50
218.432783305167020
 51
260.022062996055920
  0
ARC
  8
0
  6
CONTINUOUS
 62
3
 10
146.375511180955070
 20
-64.083533767483459
 40
1.000000000000000
 50
0.000000000000000
 51
80.022062996017439
  0
ARC
  8
0
  6
CONTINUOUS
 62
3
 10
300.180244558964660
 20
-89.684406693588244
 40
49.999999999999744
 50
93.357817421570857
 51
180.000000000000000
  0
ARC
  8
0
  6
CONTINUOUS
 62
3
 10
320.680244558964660
 20
-439.083533767483460
 40
400.000000000000000
 50
90.000000000000000
 51
93.357817421570701
  0
ARC
  8
0
  6
CONTINUOUS
 62
3
 10
273.180244558964660
 20
-170.083533767483460
 40
1.000000000000000
 50
90.000000000000000
 51
180.000000000000000
  0
ARC
  8
0
  6
CONTINUOUS
 62
3
 10
251.180244558964660
 20
-158.083533767483460
 40
3.000000000000000
 50
90.000000000000000
 51
180.000000000000000
  0
ARC
  8
0
  6
CONTINUOUS
 62
3
 10
247.180244558964660
 20
-153.611397812484030
 40
3.000000000000284
 50
311.810314895773730
 51
0.000000000000000
  0
ARC
  8
0
  6
CONTINUOUS
 62
3
 10
320.680244558964660
 20
-439.083533767483460
 40
376.652999999999340
 50
90.000000000000000
 51
93.357817421570715
  0
ARC
  8
0
  6
CONTINUOUS
 62
3
 10
300.180244558964660
 20
-89.684406693588244
 40
26.652999999999526
 50
93.357817421571141
 51
180.000000000000000
  0
ARC
  8
0
  6
CONTINUOUS
 62
3
 10
270.527244558964870
 20
-152.083533767483460
 40
3.000000000000000
 50
270.000000000000000
 51
0.000000000000000
  0
ARC
  8
0
  6
CONTINUOUS
 62
3
 10
370.833244558964910
 20
-152.083533767483460
 40
3.000000000000000
 50
180.000000000000000
 51
270.000000000000000
  0
ARC
  8
0
  6
CONTINUOUS
 62
3
 10
341.180244558964660
 20
-89.684406693588244
 40
26.653000000000247
 50
0.000000000000000
 51
86.642182578428859
  0
ARC
  8
0
  6
CONTINUOUS
 62
3
 10
320.680244558964660
 20
-439.083533767483460
 40
376.652999999999510
 50
86.642182578429285
 51
90.000000000000000
  0
ARC
  8
0
  6
CONTINUOUS
 62
3
 10
341.180244558964660
 20
-89.684406693588244
 40
50.000000000000000
 50
0.000000000000000
 51
86.642182578429143
  0
ARC
  8
0
  6
CONTINUOUS
 62
3
 10
320.680244558964660
 20
-439.083533767483460
 40
399.999999999999720
 50
86.642182578429299
 51
90.000000000000000
  0
ARC
  8
0
  6
CONTINUOUS
 62
3
 10
390.180244558964660
 20
-158.083533767483460
 40
3.000000000000000
 50
0.000000000000000
 51
90.000000000000000
  0
ARC
  8
0
  6
CONTINUOUS
 62
3
 10
394.180244558964660
 20
-153.611397812484030
 40
3.000000000000000
 50
180.000000000000000
 51
228.189685104226240
  0
ARC
  8
0
  6
CONTINUOUS
 62
3
 10
320.680244558964660
 20
-85.083533767483459
 40
22.000000000000171
 50
74.570234885459982
 51
40.667845852653031
  0
ARC
  8
0
  6
CONTINUOUS
 62
3
 10
252.884131038251330
 20
-152.083533767483460
 40
3.000000000000000
 50
270.000000000000000
 51
0.000000000000000
  0
ARC
  8
0
  6
CONTINUOUS
 62
3
 10
268.354795208246740
 20
-152.083533767483460
 40
3.000000000000000
 50
270.000000000000000
 51
0.000000000000000
  0
ARC
  8
0
  6
CONTINUOUS
 62
3
 10
373.005693909683030
 20
-152.083533767483460
 40
3.000000000000000
 50
180.000000000000000
 51
270.000000000000000
  0
ARC
  8
0
  6
CONTINUOUS
 62
3
 10
388.476358079677990
 20
-152.083533767483460
 40
3.000000000000000
 50
180.000000000000000
 51
270.000000000000000
  0
LINE
  8
0
  6
CONTINUOUS
 62
3
 10
320.680244558964660
 20
-168.083533767483460
 11
351.680244558964660
 21
-168.083533767483460
  0
ARC
  8
0
  6
CONTINUOUS
 62
3
 10
368.180244558964660
 20
-170.083533767483460
 40
1.000000000000000
 50
0.000000000000000
 51
90.000000000000000
  0
LINE
  8
0
  6
CONTINUOUS
 62
3
 10
369.180244558964660
 20
-170.083533767483460
 11
393.180244558965110
 21
-170.083533767483460
  0
ARC
  8
0
  6
CONTINUOUS
 62
3
 10
320.680244558964660
 20
-85.083533767483459
 40
22.000000000000011
 50
38.816131624158764
 51
78.293519882306597
  0
LINE
  8
0
  6
CONTINUOUS
 62
3
 10
65.375511180955073
 20
-39.083533767483459
 11
65.375511180955073
 21
-85.083533767483459
  0
LINE
  8
0
  6
CONTINUOUS
 62
3
 10
65.375511180955527
 20
-146.726784098602370
 11
65.375511180955073
 21
-85.083533767483459
  0
ARC
  8
0
  6
CONTINUOUS
 62
3
 10
156.375511180955530
 20
-85.083533767483459
 40
3.000000000000000
 50
90.000000000000000
 51
270.000000000000000
  0
LINE
  8
0
  6
CONTINUOUS
 62
3
 10
185.375511180955070
 20
-88.083533767483459
 11
156.375511180955530
 21
-88.083533767483459
  0
LINE
  8
0
  6
CONTINUOUS
 62
3
 10
185.375511180955070
 20
-82.083533767483459
 11
156.375511180955530
 21
-82.083533767483459
  0
CIRCLE
  8
0
  6
CONTINUOUS
 62
3
 10
320.680244558964660
 20
-85.083533767483459
 40
3.323500000000024
  0
CIRCLE
  8
0
  6
CONTINUOUS
 62
3
 10
320.680244558964660
 20
-85.083533767483459
 40
19.000000000000000
  0
LINE
  8
0
  6
CONTINUOUS
 62
3
 10
272.180244558964660
 20
-170.083533767483460
 11
248.180244558964660
 21
-170.083533767483460
  0
LINE
  8
0
  6
CONTINUOUS
 62
3
 10
286.489719578275980
 20
-169.083533767483460
 11
273.180244558964660
 21
-169.083533767483460
  0
ARC
  8
0
  6
CONTINUOUS
 62
3
 10
273.180244558964660
 20
-170.083533767483460
 40
1.000000000000000
 50
90.000000000000000
 51
180.000000000000000
  0
ARC
  8
0
  6
CONTINUOUS
 62
3
 10
280.680244558965110
 20
-163.583533767483460
 40
7.999999999999812
 50
316.567463442208920
 51
325.771133672186410
  0
LINE
  8
0
  6
CONTINUOUS
 62
3
 10
320.680244558964660
 20
-168.083533767483460
 11
287.294622836626330
 21
-168.083533767483460
  0
LINE
  8
0
  6
CONTINUOUS
 62
3
 10
354.870769539653790
 20
-169.083533767483460
 11
368.180244558964660
 21
-169.083533767483460
  0
ARC
  8
0
  6
CONTINUOUS
 62
3
 10
360.680244558964660
 20
-163.583533767483460
 40
7.999999999999785
 50
214.228866327813620
 51
223.432536557791050
  0
LINE
  8
0
  6
CONTINUOUS
 62
3
 10
320.680244558964660
 20
-168.083533767483460
 11
354.065866281303440
 21
-168.083533767483460
  0
ARC
  8
0
  6
CONTINUOUS
 62
3
 10
125.579892294008450
 20
-151.702632840529080
 40
3.000000000000000
 50
180.000000000000000
 51
268.999999999989370
  0
ARC
  8
0
  6
CONTINUOUS
 62
3
 10
146.542817339520300
 20
-152.436736459176250
 40
3.000000000000000
 50
180.000000000000000
 51
248.825002431728220
  0
LINE
  8
0
  6
CONTINUOUS
 62
3
 10
38.375511180956437
 20
-105.083533767483450
 11
38.375511180956437
 21
-52.583533767483459
  0
LINE
  8
0
  6
CONTINUOUS
 62
3
 10
254.621447003690150
 20
-69.083533767483573
 11
235.813579786022270
 21
-69.083533767483573
  0
LINE
  8
0
  6
CONTINUOUS
 62
3
 10
250.180244558964660
 20
-141.083533767483460
 11
235.813579786022270
 21
-141.083533767483460
  0
LINE
  8
0
  6
CONTINUOUS
 62
3
 10
228.680244558964660
 20
-102.583533767483340
 11
229.190661406482380
 21
-102.583533767483340
  0
LINE
  8
0
  6
CONTINUOUS
 62
3
 10
228.680244558964660
 20
-107.583533767483450
 11
228.680244558964660
 21
-102.583533767483450
  0
LINE
  8
0
  6
CONTINUOUS
 62
3
 10
228.680244558964660
 20
-107.583533767483450
 11
229.190661406482380
 21
-107.583533767483450
  0
ARC
  8
0
  6
CONTINUOUS
 62
3
 10
235.813579786022270
 20
-136.083533767483460
 40
5.000000000000143
 50
186.032049146370330
 51
270.000000000000000
  0
ARC
  8
0
  6
CONTINUOUS
 62
3
 10
235.813579786022270
 20
-74.083533767483573
 40
5.000000000000000
 50
90.000000000000000
 51
173.967950853629670
  0
ARC
  8
0
  6
CONTINUOUS
 62
3
 10
529.180244558964660
 20
-105.083533767483450
 40
300.000000000000060
 50
173.967950853630190
 51
186.032049146369810
  0
LINE
  8
0
  6
CONTINUOUS
 62
4
 10
36.575511180956937
 20
-76.327138216846379
 11
38.375511180956437
 21
-76.327138216846379
  0
LINE
  8
0
  6
CONTINUOUS
 62
4
 10
36.575511180956937
 20
-77.806161370323480
 11
38.375511180956437
 21
-77.806161370323480
  0
LINE
  8
0
  6
CONTINUOUS
 62
4
 10
36.575511180956937
 20
-80.898892361988715
 11
54.875511180955527
 21
-80.898892361988715
  0
LINE
  8
0
  6
CONTINUOUS
 62
4
 10
36.575511180956937
 20
-82.245294087487309
 11
54.875511180955527
 21
-82.245294087487309
  0
LINE
  8
0
  6
CONTINUOUS
 62
4
 10
36.575511180956937
 20
-85.083533767483459
 11
54.875511180955527
 21
-85.083533767483459
  0
LINE
  8
0
  6
CONTINUOUS
 62
4
 10
36.575511180956937
 20
-73.369142608713446
 11
38.375511180956437
 21
-73.369142608713446
  0
LINE
  8
0
  6
CONTINUOUS
 62
4
 10
36.575511180956937
 20
-71.779932815974803
 11
38.375511180956437
 21
-71.779932815974803
  0
LINE
  8
0
  6
CONTINUOUS
 62
4
 10
36.575511180956937
 20
-133.839929318120540
 11
55.875511180955527
 21
-133.839929318120540
  0
LINE
  8
0
  6
CONTINUOUS
 62
4
 10
36.575511180956937
 20
-132.360906164643440
 11
55.875511180955527
 21
-132.360906164643440
  0
LINE
  8
0
  6
CONTINUOUS
 62
4
 10
36.575511180956937
 20
-129.268175172978200
 11
55.875511180955527
 21
-129.268175172978200
  0
LINE
  8
0
  6
CONTINUOUS
 62
4
 10
36.575511180956937
 20
-127.921773447479600
 11
55.875511180955527
 21
-127.921773447479600
  0
LINE
  8
0
  6
CONTINUOUS
 62
4
 10
36.575511180956937
 20
-125.083533767483450
 11
55.875511180955527
 21
-125.083533767483450
  0
LINE
  8
0
  6
CONTINUOUS
 62
4
 10
36.575511180956937
 20
-136.797924926253470
 11
55.875511180955527
 21
-136.797924926253470
  0
LINE
  8
0
  6
CONTINUOUS
 62
4
 10
36.575511180956937
 20
-138.387134718992120
 11
55.875511180955527
 21
-138.387134718992120
  0
ENDSEC
  0
EOF
