  0
SECTION
  2
HEADER
  9
$FILLMODE
 70
1
  9
$TEXTSTYLE
  7
STANDARD1
  9
$ACADVER
  1
AC1009
  9
$DIMASZ
 40
1.931851648807023
  9
$DIMEXE
 40
2.000000000000000
  9
$DIMEXO
 40
1.000000000000000
  9
$DIMLFAC
 40
1.000000000000000
  9
$DIMSCALE
 40
1.000000000000000
  9
$DIMTAD
 70
1
  9
$DIMTFAC
 40
0.714285731315613
  9
$DIMTXT
 40
3.200000047683716
  9
$LUPREC
 70
3
  9
$TEXTSIZE
 40
2.799999952316284
  9
$REGENMODE
 70
1
  0
ENDSEC
  0
SECTION
  2
TABLES
  0
TABLE
  2
LTYPE
 70
4
  0
LTYPE
  2
CONTINUOUS
 70
64
  3
Solid line
 72
65
 73
0
 40
0.0
  0
LTYPE
  2
DASHED
 70
64
  3
-- -- -- -- -- -- -- -- -- -- -- -- -- -- --
 72
65
 73
2
 40
0.75
 49
0.5
 49
-0.25
  0
LTYPE
  2
DASHDOT
 70
64
  3
__ . __ . __ . __ . __ . __ . __ . __ . __ . __
 72
65
 73
4
 40
1.0
 49
0.5
 49
-0.25
 49
0.0
 49
-0.25
  0
LTYPE
  2
DIVIDE
 70
64
  3
__ . . __ . . __ . . __ . . __ . . __ . . __
 72
65
 73
6
 40
1.25
 49
0.5
 49
-0.25
 49
0.0
 49
-0.25
 49
0.0
 49
-0.25
  0
ENDTAB
  0
TABLE
  2
LAYER
 70
1
  0
LAYER
  2
0
 70
64
 62
2
  6
CONTINUOUS
  0
ENDTAB
  0
TABLE
  2
STYLE
 70
4
  0
STYLE
  2
STANDARD1
 70
64
 40
0.0
 41
1.0
 50
0.0
 71
0
 42
2.799999952316284
  3
MONOTXT
  4
BIGFONT
  0
STYLE
  2
STANDARD2
 70
68
 40
0.0
 41
1.0
 50
0.0
 71
0
 42
2.799999952316284
  3
MONOTXT
  4
BIGFONT
  0
STYLE
  2
STANDARD3
 70
64
 40
0.0
 41
1.0
 50
0.0
 71
0
 42
2.799999952316284
  3
MONOTXT
  4

  0
STYLE
  2
STANDARD4
 70
68
 40
0.0
 41
1.0
 50
0.0
 71
0
 42
2.799999952316284
  3
MONOTXT
  4

  0
ENDTAB
  0
TABLE
  2
VIEW
 70
0
  0
ENDTAB
  0
ENDSEC
  0
SECTION
  2
BLOCKS
  0
BLOCK
  8
0
  2
SYM1
 70
64
 10
0.000000000000000
 20
0.000000000000000
  0
POINT
  8
0
  6
CONTINUOUS
 62
3
 10
0.000000000000000
 20
0.000000000000000
  0
LINE
  8
0
  6
CONTINUOUS
 62
3
 10
0.000000000000000
 20
-6.500000000000000
 11
-0.000000000000000
 21
6.500000000000000
  0
LINE
  8
0
  6
CONTINUOUS
 62
3
 10
-7.999999046325684
 20
5.633875846862793
 11
-7.999999046325684
 21
-5.634070396423340
  0
LINE
  8
0
  6
CONTINUOUS
 62
3
 10
0.000000000000000
 20
6.500000000000000
 11
-7.499999046325684
 21
6.500000000000000
  0
LINE
  8
0
  6
CONTINUOUS
 62
3
 10
-0.000000000000000
 20
-6.500000000000000
 11
-7.499998092651367
 21
-6.500000000000000
  0
LINE
  8
0
  6
CONTINUOUS
 62
3
 10
-7.499999203818277
 20
6.499999909101064
 11
-7.999999021366804
 21
5.633876130311293
  0
LINE
  8
0
  6
CONTINUOUS
 62
3
 10
-7.499997911632022
 20
-6.499999445138201
 11
-7.999998623386432
 21
-5.634070287011241
  0
LINE
  8
0
  6
CONTINUOUS
 62
3
 10
-7.499999046325684
 20
6.500000000000000
 11
-7.499999046325684
 21
-6.500000000000000
  0
ENDBLK
  8
0
  0
BLOCK
  8
0
  2
SYM2
 70
64
 10
0.000000000000000
 20
0.000000000000000
  0
ARC
  8
0
  6
CONTINUOUS
 62
3
 10
2.040000915527344
 20
-0.000008403939319
 40
5.539999008178711
 50
155.470186567177590
 51
204.529249714844780
  0
ARC
  8
0
  6
CONTINUOUS
 62
3
 10
-1.929986000061035
 20
3.450007438659668
 40
1.569999694824219
 50
179.999745461767870
 51
227.099746430935310
  0
ARC
  8
0
  6
CONTINUOUS
 62
3
 10
-1.930013656616211
 20
-3.449991226196289
 40
1.569999694824219
 50
132.899744492600430
 51
179.999745461767870
  0
LINE
  8
0
  6
CONTINUOUS
 62
3
 10
-2.999989096318101
 20
2.300010681148706
 11
0.000009475023974
 21
2.300000190729854
  0
LINE
  8
0
  6
CONTINUOUS
 62
3
 10
-3.000007597599688
 20
-2.299985885626180
 11
-0.000008155921205
 21
-2.299998283391806
  0
LINE
  8
0
  6
CONTINUOUS
 62
3
 10
0.000018950048186
 20
4.600000381469727
 11
-0.000018950048186
 21
-4.600000381469727
  0
LINE
  8
0
  6
CONTINUOUS
 62
3
 10
-2.999979146307184
 20
4.600011825551216
 11
0.000019104623546
 21
4.600001335133485
  0
LINE
  8
0
  6
CONTINUOUS
 62
3
 10
-3.499965125831864
 20
3.900000017678906
 11
-2.999963510759926
 21
4.599997551336457
  0
LINE
  8
0
  6
CONTINUOUS
 62
3
 10
-3.500011920918244
 20
-3.899979774771439
 11
-3.499980449679529
 21
3.900009925545944
  0
LINE
  8
0
  6
CONTINUOUS
 62
3
 10
-2.999996095884057
 20
-4.599969847145871
 11
-3.499991138206155
 21
-3.899966512616629
  0
LINE
  8
0
  6
CONTINUOUS
 62
3
 10
-0.000017659877873
 20
-4.599998474126673
 11
-3.000017102555891
 21
-4.599986076361044
  0
POINT
  8
0
  6
CONTINUOUS
 62
3
 10
0.000000000000000
 20
0.000000000000000
  0
ENDBLK
  8
0
  0
BLOCK
  8
0
  2
SYM3
 70
64
 10
0.000000000000000
 20
0.000000000000000
  0
ARC
  8
0
  6
CONTINUOUS
 62
3
 10
2.040000915527344
 20
-0.000008403939319
 40
5.539999008178711
 50
155.470186567177590
 51
204.529249714844780
  0
ARC
  8
0
  6
CONTINUOUS
 62
3
 10
-1.929986000061035
 20
3.450007438659668
 40
1.569999694824219
 50
179.999745461767870
 51
227.099746430935310
  0
ARC
  8
0
  6
CONTINUOUS
 62
3
 10
-1.930013656616211
 20
-3.449991226196289
 40
1.569999694824219
 50
132.899744492600430
 51
179.999745461767870
  0
LINE
  8
0
  6
CONTINUOUS
 62
3
 10
-2.999989096318101
 20
2.300010681148706
 11
0.000009475023974
 21
2.300000190729854
  0
LINE
  8
0
  6
CONTINUOUS
 62
3
 10
-3.000007597599688
 20
-2.299985885626180
 11
-0.000008155921205
 21
-2.299998283391806
  0
LINE
  8
0
  6
CONTINUOUS
 62
3
 10
0.000018950048186
 20
4.600000381469727
 11
-0.000018950048186
 21
-4.600000381469727
  0
LINE
  8
0
  6
CONTINUOUS
 62
3
 10
-2.999979146307184
 20
4.600011825551216
 11
0.000019104623546
 21
4.600001335133485
  0
LINE
  8
0
  6
CONTINUOUS
 62
3
 10
-3.499965125831864
 20
3.900000017678906
 11
-2.999963510759926
 21
4.599997551336457
  0
LINE
  8
0
  6
CONTINUOUS
 62
3
 10
-3.500011920918244
 20
-3.899979774771439
 11
-3.499980449679529
 21
3.900009925545944
  0
LINE
  8
0
  6
CONTINUOUS
 62
3
 10
-2.999996095884057
 20
-4.599969847145871
 11
-3.499991138206155
 21
-3.899966512616629
  0
LINE
  8
0
  6
CONTINUOUS
 62
3
 10
-0.000017659877873
 20
-4.599998474126673
 11
-3.000017102555891
 21
-4.599986076361044
  0
POINT
  8
0
  6
CONTINUOUS
 62
3
 10
0.000000000000000
 20
0.000000000000000
  0
ENDBLK
  8
0
  0
BLOCK
  8
0
  2
SYM4
 70
64
 10
0.000000000000000
 20
0.000000000000000
  0
POINT
  8
0
  6
CONTINUOUS
 62
3
 10
0.000000000000000
 20
0.000000000000000
  0
LINE
  8
0
  6
CONTINUOUS
 62
3
 10
0.000000000000000
 20
-6.500000000000000
 11
-0.000000000000000
 21
6.500000000000000
  0
LINE
  8
0
  6
CONTINUOUS
 62
3
 10
-7.999999046325684
 20
5.633875846862793
 11
-7.999999046325684
 21
-5.634070396423340
  0
LINE
  8
0
  6
CONTINUOUS
 62
3
 10
0.000000000000000
 20
6.500000000000000
 11
-7.499999046325684
 21
6.500000000000000
  0
LINE
  8
0
  6
CONTINUOUS
 62
3
 10
-0.000000000000000
 20
-6.500000000000000
 11
-7.499998092651367
 21
-6.500000000000000
  0
LINE
  8
0
  6
CONTINUOUS
 62
3
 10
-7.499999203818277
 20
6.499999909101064
 11
-7.999999021366804
 21
5.633876130311293
  0
LINE
  8
0
  6
CONTINUOUS
 62
3
 10
-7.499997911632022
 20
-6.499999445138201
 11
-7.999998623386432
 21
-5.634070287011241
  0
LINE
  8
0
  6
CONTINUOUS
 62
3
 10
-7.499999046325684
 20
6.500000000000000
 11
-7.499999046325684
 21
-6.500000000000000
  0
ENDBLK
  8
0
  0
BLOCK
  8
0
  2
SYM5
 70
64
 10
0.000000000000000
 20
0.000000000000000
  0
POINT
  8
0
  6
CONTINUOUS
 62
3
 10
0.000000000000000
 20
0.000000000000000
  0
LINE
  8
0
  6
CONTINUOUS
 62
3
 10
0.000000000000000
 20
-6.500000000000000
 11
-0.000000000000000
 21
6.500000000000000
  0
LINE
  8
0
  6
CONTINUOUS
 62
3
 10
-7.999999046325684
 20
5.633875846862793
 11
-7.999999046325684
 21
-5.634070396423340
  0
LINE
  8
0
  6
CONTINUOUS
 62
3
 10
0.000000000000000
 20
6.500000000000000
 11
-7.499999046325684
 21
6.500000000000000
  0
LINE
  8
0
  6
CONTINUOUS
 62
3
 10
-0.000000000000000
 20
-6.500000000000000
 11
-7.499998092651367
 21
-6.500000000000000
  0
LINE
  8
0
  6
CONTINUOUS
 62
3
 10
-7.499999203818277
 20
6.499999909101064
 11
-7.999999021366804
 21
5.633876130311293
  0
LINE
  8
0
  6
CONTINUOUS
 62
3
 10
-7.499997911632022
 20
-6.499999445138201
 11
-7.999998623386432
 21
-5.634070287011241
  0
LINE
  8
0
  6
CONTINUOUS
 62
3
 10
-7.499999046325684
 20
6.500000000000000
 11
-7.499999046325684
 21
-6.500000000000000
  0
ENDBLK
  8
0
  0
BLOCK
  8
0
  2
SYM6
 70
64
 10
0.000000000000000
 20
0.000000000000000
  0
POINT
  8
0
  6
CONTINUOUS
 62
3
 10
0.000000000000000
 20
0.000000000000000
  0
LINE
  8
0
  6
CONTINUOUS
 62
3
 10
0.000000000000000
 20
-6.500000000000000
 11
-0.000000000000000
 21
6.500000000000000
  0
LINE
  8
0
  6
CONTINUOUS
 62
3
 10
-7.999999046325684
 20
5.633875846862793
 11
-7.999999046325684
 21
-5.634070396423340
  0
LINE
  8
0
  6
CONTINUOUS
 62
3
 10
0.000000000000000
 20
6.500000000000000
 11
-7.499999046325684
 21
6.500000000000000
  0
LINE
  8
0
  6
CONTINUOUS
 62
3
 10
-0.000000000000000
 20
-6.500000000000000
 11
-7.499998092651367
 21
-6.500000000000000
  0
LINE
  8
0
  6
CONTINUOUS
 62
3
 10
-7.499999203818277
 20
6.499999909101064
 11
-7.999999021366804
 21
5.633876130311293
  0
LINE
  8
0
  6
CONTINUOUS
 62
3
 10
-7.499997911632022
 20
-6.499999445138201
 11
-7.999998623386432
 21
-5.634070287011241
  0
LINE
  8
0
  6
CONTINUOUS
 62
3
 10
-7.499999046325684
 20
6.500000000000000
 11
-7.499999046325684
 21
-6.500000000000000
  0
ENDBLK
  8
0
  0
BLOCK
  8
0
  2
SYM7
 70
64
 10
0.000000000000000
 20
0.000000000000000
  0
POINT
  8
0
  6
CONTINUOUS
 62
3
 10
0.000000000000000
 20
0.000000000000000
  0
LINE
  8
0
  6
CONTINUOUS
 62
3
 10
0.000000000000000
 20
-6.500000000000000
 11
-0.000000000000000
 21
6.500000000000000
  0
LINE
  8
0
  6
CONTINUOUS
 62
3
 10
-7.999999046325684
 20
5.633875846862793
 11
-7.999999046325684
 21
-5.634070396423340
  0
LINE
  8
0
  6
CONTINUOUS
 62
3
 10
0.000000000000000
 20
6.500000000000000
 11
-7.499999046325684
 21
6.500000000000000
  0
LINE
  8
0
  6
CONTINUOUS
 62
3
 10
-0.000000000000000
 20
-6.500000000000000
 11
-7.499998092651367
 21
-6.500000000000000
  0
LINE
  8
0
  6
CONTINUOUS
 62
3
 10
-7.499999203818277
 20
6.499999909101064
 11
-7.999999021366804
 21
5.633876130311293
  0
LINE
  8
0
  6
CONTINUOUS
 62
3
 10
-7.499997911632022
 20
-6.499999445138201
 11
-7.999998623386432
 21
-5.634070287011241
  0
LINE
  8
0
  6
CONTINUOUS
 62
3
 10
-7.499999046325684
 20
6.500000000000000
 11
-7.499999046325684
 21
-6.500000000000000
  0
ENDBLK
  8
0
  0
BLOCK
  8
0
  2
SYM8
 70
64
 10
0.000000000000000
 20
0.000000000000000
  0
POINT
  8
0
  6
CONTINUOUS
 62
3
 10
0.000000000000000
 20
0.000000000000000
  0
LINE
  8
0
  6
CONTINUOUS
 62
3
 10
0.000000000000000
 20
-6.500000000000000
 11
-0.000000000000000
 21
6.500000000000000
  0
LINE
  8
0
  6
CONTINUOUS
 62
3
 10
-7.999999046325684
 20
5.633875846862793
 11
-7.999999046325684
 21
-5.634070396423340
  0
LINE
  8
0
  6
CONTINUOUS
 62
3
 10
0.000000000000000
 20
6.500000000000000
 11
-7.499999046325684
 21
6.500000000000000
  0
LINE
  8
0
  6
CONTINUOUS
 62
3
 10
-0.000000000000000
 20
-6.500000000000000
 11
-7.499998092651367
 21
-6.500000000000000
  0
LINE
  8
0
  6
CONTINUOUS
 62
3
 10
-7.499999203818277
 20
6.499999909101064
 11
-7.999999021366804
 21
5.633876130311293
  0
LINE
  8
0
  6
CONTINUOUS
 62
3
 10
-7.499997911632022
 20
-6.499999445138201
 11
-7.999998623386432
 21
-5.634070287011241
  0
LINE
  8
0
  6
CONTINUOUS
 62
3
 10
-7.499999046325684
 20
6.500000000000000
 11
-7.499999046325684
 21
-6.500000000000000
  0
ENDBLK
  8
0
  0
BLOCK
  8
0
  2
SYM9
 70
64
 10
0.000000000000000
 20
0.000000000000000
  0
POINT
  8
0
  6
CONTINUOUS
 62
3
 10
0.000000000000000
 20
0.000000000000000
  0
LINE
  8
0
  6
CONTINUOUS
 62
3
 10
0.000000000000000
 20
-6.500000000000000
 11
-0.000000000000000
 21
6.500000000000000
  0
LINE
  8
0
  6
CONTINUOUS
 62
3
 10
-7.999999046325684
 20
5.633875846862793
 11
-7.999999046325684
 21
-5.634070396423340
  0
LINE
  8
0
  6
CONTINUOUS
 62
3
 10
0.000000000000000
 20
6.500000000000000
 11
-7.499999046325684
 21
6.500000000000000
  0
LINE
  8
0
  6
CONTINUOUS
 62
3
 10
-0.000000000000000
 20
-6.500000000000000
 11
-7.499998092651367
 21
-6.500000000000000
  0
LINE
  8
0
  6
CONTINUOUS
 62
3
 10
-7.499999203818277
 20
6.499999909101064
 11
-7.999999021366804
 21
5.633876130311293
  0
LINE
  8
0
  6
CONTINUOUS
 62
3
 10
-7.499997911632022
 20
-6.499999445138201
 11
-7.999998623386432
 21
-5.634070287011241
  0
LINE
  8
0
  6
CONTINUOUS
 62
3
 10
-7.499999046325684
 20
6.500000000000000
 11
-7.499999046325684
 21
-6.500000000000000
  0
ENDBLK
  8
0
  0
BLOCK
  8
0
  2
SYM10
 70
64
 10
0.000000000000000
 20
0.000000000000000
  0
ARC
  8
0
  6
CONTINUOUS
 62
3
 10
2.040000915527344
 20
-0.000008403939319
 40
5.539999008178711
 50
155.470186567177590
 51
204.529249714844780
  0
ARC
  8
0
  6
CONTINUOUS
 62
3
 10
-1.929986000061035
 20
3.450007438659668
 40
1.569999694824219
 50
179.999745461767870
 51
227.099746430935310
  0
ARC
  8
0
  6
CONTINUOUS
 62
3
 10
-1.930013656616211
 20
-3.449991226196289
 40
1.569999694824219
 50
132.899744492600430
 51
179.999745461767870
  0
LINE
  8
0
  6
CONTINUOUS
 62
3
 10
-2.999989096318101
 20
2.300010681148706
 11
0.000009475023974
 21
2.300000190729854
  0
LINE
  8
0
  6
CONTINUOUS
 62
3
 10
-3.000007597599688
 20
-2.299985885626180
 11
-0.000008155921205
 21
-2.299998283391806
  0
LINE
  8
0
  6
CONTINUOUS
 62
3
 10
0.000018950048186
 20
4.600000381469727
 11
-0.000018950048186
 21
-4.600000381469727
  0
LINE
  8
0
  6
CONTINUOUS
 62
3
 10
-2.999979146307184
 20
4.600011825551216
 11
0.000019104623546
 21
4.600001335133485
  0
LINE
  8
0
  6
CONTINUOUS
 62
3
 10
-3.499965125831864
 20
3.900000017678906
 11
-2.999963510759926
 21
4.599997551336457
  0
LINE
  8
0
  6
CONTINUOUS
 62
3
 10
-3.500011920918244
 20
-3.899979774771439
 11
-3.499980449679529
 21
3.900009925545944
  0
LINE
  8
0
  6
CONTINUOUS
 62
3
 10
-2.999996095884057
 20
-4.599969847145871
 11
-3.499991138206155
 21
-3.899966512616629
  0
LINE
  8
0
  6
CONTINUOUS
 62
3
 10
-0.000017659877873
 20
-4.599998474126673
 11
-3.000017102555891
 21
-4.599986076361044
  0
POINT
  8
0
  6
CONTINUOUS
 62
3
 10
0.000000000000000
 20
0.000000000000000
  0
ENDBLK
  8
0
  0
BLOCK
  8
0
  2
SYM11
 70
64
 10
0.000000000000000
 20
0.000000000000000
  0
ARC
  8
0
  6
CONTINUOUS
 62
3
 10
2.040000915527344
 20
-0.000008403939319
 40
5.539999008178711
 50
155.470186567177590
 51
204.529249714844780
  0
ARC
  8
0
  6
CONTINUOUS
 62
3
 10
-1.929986000061035
 20
3.450007438659668
 40
1.569999694824219
 50
179.999745461767870
 51
227.099746430935310
  0
ARC
  8
0
  6
CONTINUOUS
 62
3
 10
-1.930013656616211
 20
-3.449991226196289
 40
1.569999694824219
 50
132.899744492600430
 51
179.999745461767870
  0
LINE
  8
0
  6
CONTINUOUS
 62
3
 10
-2.999989096318101
 20
2.300010681148706
 11
0.000009475023974
 21
2.300000190729854
  0
LINE
  8
0
  6
CONTINUOUS
 62
3
 10
-3.000007597599688
 20
-2.299985885626180
 11
-0.000008155921205
 21
-2.299998283391806
  0
LINE
  8
0
  6
CONTINUOUS
 62
3
 10
0.000018950048186
 20
4.600000381469727
 11
-0.000018950048186
 21
-4.600000381469727
  0
LINE
  8
0
  6
CONTINUOUS
 62
3
 10
-2.999979146307184
 20
4.600011825551216
 11
0.000019104623546
 21
4.600001335133485
  0
LINE
  8
0
  6
CONTINUOUS
 62
3
 10
-3.499965125831864
 20
3.900000017678906
 11
-2.999963510759926
 21
4.599997551336457
  0
LINE
  8
0
  6
CONTINUOUS
 62
3
 10
-3.500011920918244
 20
-3.899979774771439
 11
-3.499980449679529
 21
3.900009925545944
  0
LINE
  8
0
  6
CONTINUOUS
 62
3
 10
-2.999996095884057
 20
-4.599969847145871
 11
-3.499991138206155
 21
-3.899966512616629
  0
LINE
  8
0
  6
CONTINUOUS
 62
3
 10
-0.000017659877873
 20
-4.599998474126673
 11
-3.000017102555891
 21
-4.599986076361044
  0
POINT
  8
0
  6
CONTINUOUS
 62
3
 10
0.000000000000000
 20
0.000000000000000
  0
ENDBLK
  8
0
  0
BLOCK
  8
0
  2
SYM12
 70
64
 10
0.000000000000000
 20
0.000000000000000
  0
CIRCLE
  8
0
  6
CONTINUOUS
 62
3
 10
0.000000000000000
 20
0.000000000000000
 40
5.633955001831055
  0
CIRCLE
  8
0
  6
CONTINUOUS
 62
3
 10
0.000000000000000
 20
0.000000000000000
 40
6.500000000000000
  0
POINT
  8
0
  6
CONTINUOUS
 62
3
 10
0.000000000000000
 20
0.000000000000000
  0
LINE
  8
0
  6
CONTINUOUS
 62
3
 10
-2.999996662140960
 20
-1.732045999551255
 11
-2.999997615815242
 21
1.732051977133316
  0
LINE
  8
0
  6
CONTINUOUS
 62
3
 10
2.999996662140697
 20
1.732046953225571
 11
2.999997615814979
 21
-1.732051023458999
  0
LINE
  8
0
  6
CONTINUOUS
 62
3
 10
0.000006701720849
 20
3.464096999935236
 11
-2.999997939551520
 21
1.732051821705568
  0
LINE
  8
0
  6
CONTINUOUS
 62
3
 10
2.999998112093635
 20
-1.732051392778772
 11
-0.000004464412200
 21
-3.464098365415111
  0
LINE
  8
0
  6
CONTINUOUS
 62
3
 10
0.000006618601731
 20
3.464096896385627
 11
2.999997425948948
 21
1.732046782136365
  0
LINE
  8
0
  6
CONTINUOUS
 62
3
 10
-0.000004704988612
 20
-3.464098175748802
 11
-2.999997577100373
 21
-1.732046218032735
  0
POINT
  8
0
  6
CONTINUOUS
 62
3
 10
0.500000119209290
 20
6.500000000000000
  0
POINT
  8
0
  6
CONTINUOUS
 62
3
 10
0.000000000000000
 20
5.633955001831055
  0
ENDBLK
  8
0
  0
BLOCK
  8
0
  2
SYM13
 70
64
 10
0.000000000000000
 20
0.000000000000000
  0
CIRCLE
  8
0
  6
CONTINUOUS
 62
3
 10
0.000000000000000
 20
0.000000000000000
 40
5.633955001831055
  0
CIRCLE
  8
0
  6
CONTINUOUS
 62
3
 10
0.000000000000000
 20
0.000000000000000
 40
6.500000000000000
  0
POINT
  8
0
  6
CONTINUOUS
 62
3
 10
0.000000000000000
 20
0.000000000000000
  0
LINE
  8
0
  6
CONTINUOUS
 62
3
 10
-2.999996662140960
 20
-1.732045999551255
 11
-2.999997615815242
 21
1.732051977133316
  0
LINE
  8
0
  6
CONTINUOUS
 62
3
 10
2.999996662140697
 20
1.732046953225571
 11
2.999997615814979
 21
-1.732051023458999
  0
LINE
  8
0
  6
CONTINUOUS
 62
3
 10
0.000006701720849
 20
3.464096999935236
 11
-2.999997939551520
 21
1.732051821705568
  0
LINE
  8
0
  6
CONTINUOUS
 62
3
 10
2.999998112093635
 20
-1.732051392778772
 11
-0.000004464412200
 21
-3.464098365415111
  0
LINE
  8
0
  6
CONTINUOUS
 62
3
 10
0.000006618601731
 20
3.464096896385627
 11
2.999997425948948
 21
1.732046782136365
  0
LINE
  8
0
  6
CONTINUOUS
 62
3
 10
-0.000004704988612
 20
-3.464098175748802
 11
-2.999997577100373
 21
-1.732046218032735
  0
POINT
  8
0
  6
CONTINUOUS
 62
3
 10
0.500000119209290
 20
6.500000000000000
  0
POINT
  8
0
  6
CONTINUOUS
 62
3
 10
0.000000000000000
 20
5.633955001831055
  0
ENDBLK
  8
0
  0
BLOCK
  8
0
  2
SYM14
 70
64
 10
0.000000000000000
 20
0.000000000000000
  0
CIRCLE
  8
0
  6
CONTINUOUS
 62
3
 10
0.000000000000000
 20
0.000000000000000
 40
5.633955001831055
  0
CIRCLE
  8
0
  6
CONTINUOUS
 62
3
 10
0.000000000000000
 20
0.000000000000000
 40
6.500000000000000
  0
POINT
  8
0
  6
CONTINUOUS
 62
3
 10
0.000000000000000
 20
0.000000000000000
  0
LINE
  8
0
  6
CONTINUOUS
 62
3
 10
-2.999996662140960
 20
-1.732045999551255
 11
-2.999997615815242
 21
1.732051977133316
  0
LINE
  8
0
  6
CONTINUOUS
 62
3
 10
2.999996662140697
 20
1.732046953225571
 11
2.999997615814979
 21
-1.732051023458999
  0
LINE
  8
0
  6
CONTINUOUS
 62
3
 10
0.000006701720849
 20
3.464096999935236
 11
-2.999997939551520
 21
1.732051821705568
  0
LINE
  8
0
  6
CONTINUOUS
 62
3
 10
2.999998112093635
 20
-1.732051392778772
 11
-0.000004464412200
 21
-3.464098365415111
  0
LINE
  8
0
  6
CONTINUOUS
 62
3
 10
0.000006618601731
 20
3.464096896385627
 11
2.999997425948948
 21
1.732046782136365
  0
LINE
  8
0
  6
CONTINUOUS
 62
3
 10
-0.000004704988612
 20
-3.464098175748802
 11
-2.999997577100373
 21
-1.732046218032735
  0
POINT
  8
0
  6
CONTINUOUS
 62
3
 10
0.500000119209290
 20
6.500000000000000
  0
POINT
  8
0
  6
CONTINUOUS
 62
3
 10
0.000000000000000
 20
5.633955001831055
  0
ENDBLK
  8
0
  0
BLOCK
  8
0
  2
SYM15
 70
64
 10
0.000000000000000
 20
0.000000000000000
  0
CIRCLE
  8
0
  6
CONTINUOUS
 62
3
 10
0.000000000000000
 20
0.000000000000000
 40
5.633955001831055
  0
CIRCLE
  8
0
  6
CONTINUOUS
 62
3
 10
0.000000000000000
 20
0.000000000000000
 40
6.500000000000000
  0
POINT
  8
0
  6
CONTINUOUS
 62
3
 10
0.000000000000000
 20
0.000000000000000
  0
LINE
  8
0
  6
CONTINUOUS
 62
3
 10
-2.999996662140960
 20
-1.732045999551255
 11
-2.999997615815242
 21
1.732051977133316
  0
LINE
  8
0
  6
CONTINUOUS
 62
3
 10
2.999996662140697
 20
1.732046953225571
 11
2.999997615814979
 21
-1.732051023458999
  0
LINE
  8
0
  6
CONTINUOUS
 62
3
 10
0.000006701720849
 20
3.464096999935236
 11
-2.999997939551520
 21
1.732051821705568
  0
LINE
  8
0
  6
CONTINUOUS
 62
3
 10
2.999998112093635
 20
-1.732051392778772
 11
-0.000004464412200
 21
-3.464098365415111
  0
LINE
  8
0
  6
CONTINUOUS
 62
3
 10
0.000006618601731
 20
3.464096896385627
 11
2.999997425948948
 21
1.732046782136365
  0
LINE
  8
0
  6
CONTINUOUS
 62
3
 10
-0.000004704988612
 20
-3.464098175748802
 11
-2.999997577100373
 21
-1.732046218032735
  0
POINT
  8
0
  6
CONTINUOUS
 62
3
 10
0.500000119209290
 20
6.500000000000000
  0
POINT
  8
0
  6
CONTINUOUS
 62
3
 10
0.000000000000000
 20
5.633955001831055
  0
ENDBLK
  8
0
  0
BLOCK
  8
0
  2
SYM16
 70
64
 10
0.000000000000000
 20
0.000000000000000
  0
CIRCLE
  8
0
  6
CONTINUOUS
 62
3
 10
0.000000000000000
 20
0.000000000000000
 40
5.633955001831055
  0
CIRCLE
  8
0
  6
CONTINUOUS
 62
3
 10
0.000000000000000
 20
0.000000000000000
 40
6.500000000000000
  0
POINT
  8
0
  6
CONTINUOUS
 62
3
 10
0.000000000000000
 20
0.000000000000000
  0
LINE
  8
0
  6
CONTINUOUS
 62
3
 10
-2.999996662140960
 20
-1.732045999551255
 11
-2.999997615815242
 21
1.732051977133316
  0
LINE
  8
0
  6
CONTINUOUS
 62
3
 10
2.999996662140697
 20
1.732046953225571
 11
2.999997615814979
 21
-1.732051023458999
  0
LINE
  8
0
  6
CONTINUOUS
 62
3
 10
0.000006701720849
 20
3.464096999935236
 11
-2.999997939551520
 21
1.732051821705568
  0
LINE
  8
0
  6
CONTINUOUS
 62
3
 10
2.999998112093635
 20
-1.732051392778772
 11
-0.000004464412200
 21
-3.464098365415111
  0
LINE
  8
0
  6
CONTINUOUS
 62
3
 10
0.000006618601731
 20
3.464096896385627
 11
2.999997425948948
 21
1.732046782136365
  0
LINE
  8
0
  6
CONTINUOUS
 62
3
 10
-0.000004704988612
 20
-3.464098175748802
 11
-2.999997577100373
 21
-1.732046218032735
  0
POINT
  8
0
  6
CONTINUOUS
 62
3
 10
0.500000119209290
 20
6.500000000000000
  0
POINT
  8
0
  6
CONTINUOUS
 62
3
 10
0.000000000000000
 20
5.633955001831055
  0
ENDBLK
  8
0
  0
BLOCK
  8
0
  2
SYM17
 70
64
 10
0.000000000000000
 20
0.000000000000000
  0
CIRCLE
  8
0
  6
CONTINUOUS
 62
3
 10
0.000000000000000
 20
0.000000000000000
 40
5.633955001831055
  0
CIRCLE
  8
0
  6
CONTINUOUS
 62
3
 10
0.000000000000000
 20
0.000000000000000
 40
6.500000000000000
  0
POINT
  8
0
  6
CONTINUOUS
 62
3
 10
0.000000000000000
 20
0.000000000000000
  0
LINE
  8
0
  6
CONTINUOUS
 62
3
 10
-2.999996662140960
 20
-1.732045999551255
 11
-2.999997615815242
 21
1.732051977133316
  0
LINE
  8
0
  6
CONTINUOUS
 62
3
 10
2.999996662140697
 20
1.732046953225571
 11
2.999997615814979
 21
-1.732051023458999
  0
LINE
  8
0
  6
CONTINUOUS
 62
3
 10
0.000006701720849
 20
3.464096999935236
 11
-2.999997939551520
 21
1.732051821705568
  0
LINE
  8
0
  6
CONTINUOUS
 62
3
 10
2.999998112093635
 20
-1.732051392778772
 11
-0.000004464412200
 21
-3.464098365415111
  0
LINE
  8
0
  6
CONTINUOUS
 62
3
 10
0.000006618601731
 20
3.464096896385627
 11
2.999997425948948
 21
1.732046782136365
  0
LINE
  8
0
  6
CONTINUOUS
 62
3
 10
-0.000004704988612
 20
-3.464098175748802
 11
-2.999997577100373
 21
-1.732046218032735
  0
POINT
  8
0
  6
CONTINUOUS
 62
3
 10
0.500000119209290
 20
6.500000000000000
  0
POINT
  8
0
  6
CONTINUOUS
 62
3
 10
0.000000000000000
 20
5.633955001831055
  0
ENDBLK
  8
0
  0
BLOCK
  8
0
  2
SYM18
 70
64
 10
0.000000000000000
 20
0.000000000000000
  0
CIRCLE
  8
0
  6
CONTINUOUS
 62
3
 10
0.000000000000000
 20
0.000000000000000
 40
5.633955001831055
  0
CIRCLE
  8
0
  6
CONTINUOUS
 62
3
 10
0.000000000000000
 20
0.000000000000000
 40
6.500000000000000
  0
POINT
  8
0
  6
CONTINUOUS
 62
3
 10
0.000000000000000
 20
0.000000000000000
  0
LINE
  8
0
  6
CONTINUOUS
 62
3
 10
-2.999996662140960
 20
-1.732045999551255
 11
-2.999997615815242
 21
1.732051977133316
  0
LINE
  8
0
  6
CONTINUOUS
 62
3
 10
2.999996662140697
 20
1.732046953225571
 11
2.999997615814979
 21
-1.732051023458999
  0
LINE
  8
0
  6
CONTINUOUS
 62
3
 10
0.000006701720849
 20
3.464096999935236
 11
-2.999997939551520
 21
1.732051821705568
  0
LINE
  8
0
  6
CONTINUOUS
 62
3
 10
2.999998112093635
 20
-1.732051392778772
 11
-0.000004464412200
 21
-3.464098365415111
  0
LINE
  8
0
  6
CONTINUOUS
 62
3
 10
0.000006618601731
 20
3.464096896385627
 11
2.999997425948948
 21
1.732046782136365
  0
LINE
  8
0
  6
CONTINUOUS
 62
3
 10
-0.000004704988612
 20
-3.464098175748802
 11
-2.999997577100373
 21
-1.732046218032735
  0
POINT
  8
0
  6
CONTINUOUS
 62
3
 10
0.500000119209290
 20
6.500000000000000
  0
POINT
  8
0
  6
CONTINUOUS
 62
3
 10
0.000000000000000
 20
5.633955001831055
  0
ENDBLK
  8
0
  0
BLOCK
  8
0
  2
SYM19
 70
64
 10
0.000000000000000
 20
0.000000000000000
  0
POINT
  8
0
  6
CONTINUOUS
 62
3
 10
0.000000000000000
 20
0.000000000000000
  0
LINE
  8
0
  6
CONTINUOUS
 62
3
 10
3.999993333512748
 20
-2.300001902428903
 11
-0.000004858421221
 21
-4.599995671750889
  0
LINE
  8
0
  6
CONTINUOUS
 62
3
 10
-0.000007291900715
 20
-4.600000131531601
 11
-4.000000535118602
 21
-2.299995435993480
  0
LINE
  8
0
  6
CONTINUOUS
 62
3
 10
-4.000000476834402
 20
-2.299992229627764
 11
-3.999995708466355
 21
2.300002429796065
  0
LINE
  8
0
  6
CONTINUOUS
 62
3
 10
-3.999993333512748
 20
2.300001902428903
 11
0.000004858421221
 21
4.599995671750889
  0
LINE
  8
0
  6
CONTINUOUS
 62
3
 10
0.000007291900715
 20
4.600000131531601
 11
4.000000535118602
 21
2.299995435993480
  0
LINE
  8
0
  6
CONTINUOUS
 62
3
 10
4.000000476834402
 20
2.299992229627764
 11
3.999995708466355
 21
-2.300002429796065
  0
CIRCLE
  8
0
  6
CONTINUOUS
 62
3
 10
0.000000000000000
 20
0.000000000000000
 40
4.000000000000000
  0
ENDBLK
  8
0
  0
BLOCK
  8
0
  2
SYM20
 70
64
 10
0.000000000000000
 20
0.000000000000000
  0
POINT
  8
0
  6
CONTINUOUS
 62
3
 10
0.000000000000000
 20
0.000000000000000
  0
LINE
  8
0
  6
CONTINUOUS
 62
3
 10
3.999993333512748
 20
-2.300001902428903
 11
-0.000004858421221
 21
-4.599995671750889
  0
LINE
  8
0
  6
CONTINUOUS
 62
3
 10
-0.000007291900715
 20
-4.600000131531601
 11
-4.000000535118602
 21
-2.299995435993480
  0
LINE
  8
0
  6
CONTINUOUS
 62
3
 10
-4.000000476834402
 20
-2.299992229627764
 11
-3.999995708466355
 21
2.300002429796065
  0
LINE
  8
0
  6
CONTINUOUS
 62
3
 10
-3.999993333512748
 20
2.300001902428903
 11
0.000004858421221
 21
4.599995671750889
  0
LINE
  8
0
  6
CONTINUOUS
 62
3
 10
0.000007291900715
 20
4.600000131531601
 11
4.000000535118602
 21
2.299995435993480
  0
LINE
  8
0
  6
CONTINUOUS
 62
3
 10
4.000000476834402
 20
2.299992229627764
 11
3.999995708466355
 21
-2.300002429796065
  0
CIRCLE
  8
0
  6
CONTINUOUS
 62
3
 10
0.000000000000000
 20
0.000000000000000
 40
4.000000000000000
  0
ENDBLK
  8
0
  0
ENDSEC
  0
SECTION
  2
ENTITIES
  0
LINE
  8
0
  6
CONTINUOUS
 62
3
 10
-313.961748030424080
 20
-150.667787770236520
 11
-313.474944638718450
 21
-151.154591161942140
  0
LINE
  8
0
  6
CONTINUOUS
 62
3
 10
-320.608551503837760
 20
-157.314591243650260
 11
-320.121748112132140
 21
-157.801394635355850
  0
LINE
  8
0
  6
CONTINUOUS
 62
3
 10
-313.648609421455260
 20
-150.920334721086900
 11
-320.325708723928190
 21
-157.597434023559830
  0
LINE
  8
0
  6
CONTINUOUS
 62
3
 10
-313.961748030424080
 20
-150.667787770236520
 11
-320.608551503837760
 21
-157.314591243650260
  0
POINT
  8
0
  6
CONTINUOUS
 62
3
 10
-317.285149767130920
 20
-153.991189506943390
  0
ARC
  8
0
  6
CONTINUOUS
 62
3
 10
-319.547891332057930
 20
-151.728447942016340
 40
6.099999427795406
 50
264.601927898108500
 51
5.398089404735109
  0
LINE
  8
0
  6
CONTINUOUS
 62
3
 10
-414.795174757885660
 20
-150.667787770236520
 11
-415.281978149591280
 21
-151.154591161942140
  0
LINE
  8
0
  6
CONTINUOUS
 62
3
 10
-408.148371284471980
 20
-157.314591243650260
 11
-408.635174676177600
 21
-157.801394635355850
  0
LINE
  8
0
  6
CONTINUOUS
 62
3
 10
-415.108313366854470
 20
-150.920334721086900
 11
-408.431214064381550
 21
-157.597434023559830
  0
LINE
  8
0
  6
CONTINUOUS
 62
3
 10
-414.795174757885660
 20
-150.667787770236520
 11
-408.148371284471980
 21
-157.314591243650260
  0
POINT
  8
0
  6
CONTINUOUS
 62
3
 10
-411.471773021178820
 20
-153.991189506943390
  0
ARC
  8
0
  6
CONTINUOUS
 62
3
 10
-409.209031456251810
 20
-151.728447942016340
 40
6.099999427795398
 50
174.601910595264880
 51
275.398072101891500
  0
LINE
  8
0
  6
CONTINUOUS
 62
3
 10
-414.795174757885660
 20
-63.127967989602183
 11
-415.281978149591280
 21
-62.641164597896562
  0
LINE
  8
0
  6
CONTINUOUS
 62
3
 10
-408.148371284471980
 20
-56.481164516188471
 11
-408.635174676177600
 21
-55.994361124482850
  0
LINE
  8
0
  6
CONTINUOUS
 62
3
 10
-415.108313366854470
 20
-62.875421038751817
 11
-408.431214064381550
 21
-56.198321736278892
  0
LINE
  8
0
  6
CONTINUOUS
 62
3
 10
-414.795174757885660
 20
-63.127967989602183
 11
-408.148371284471980
 21
-56.481164516188471
  0
POINT
  8
0
  6
CONTINUOUS
 62
3
 10
-411.471773021178820
 20
-59.804566252895327
  0
ARC
  8
0
  6
CONTINUOUS
 62
3
 10
-409.209031456251810
 20
-62.067307817822361
 40
6.099999427795406
 50
84.601927898108471
 51
185.398089404735260
  0
LINE
  8
0
  6
CONTINUOUS
 62
3
 10
-313.961748030424080
 20
-63.127967989602183
 11
-313.474944638718450
 21
-62.641164597896562
  0
LINE
  8
0
  6
CONTINUOUS
 62
3
 10
-320.608551503837760
 20
-56.481164516188471
 11
-320.121748112132140
 21
-55.994361124482850
  0
LINE
  8
0
  6
CONTINUOUS
 62
3
 10
-313.648609421455260
 20
-62.875421038751817
 11
-320.325708723928190
 21
-56.198321736278892
  0
LINE
  8
0
  6
CONTINUOUS
 62
3
 10
-313.961748030424080
 20
-63.127967989602183
 11
-320.608551503837760
 21
-56.481164516188471
  0
POINT
  8
0
  6
CONTINUOUS
 62
3
 10
-317.285149767130920
 20
-59.804566252895327
  0
ARC
  8
0
  6
CONTINUOUS
 62
3
 10
-319.547891332057930
 20
-62.067307817822361
 40
6.099999427795398
 50
354.601910595264830
 51
95.398072101891529
  0
ARC
  8
0
  6
CONTINUOUS
 62
3
 10
-350.378461394154900
 20
-111.631276064100870
 40
80.000000000000000
 50
30.608391721918355
 51
85.339580615885211
  0
LINE
  8
0
  6
CONTINUOUS
 62
3
 10
-272.378461394154900
 20
-109.397877879919460
 11
-272.888878241672610
 21
-109.397877879919460
  0
LINE
  8
0
  6
CONTINUOUS
 62
3
 10
-272.378461394154900
 20
-104.397877879919230
 11
-272.888878241672610
 21
-104.397877879919230
  0
LINE
  8
0
  6
CONTINUOUS
 62
3
 10
-272.378461394154900
 20
-109.397877879919460
 11
-272.378461394154900
 21
-104.397877879919460
  0
LINE
  8
0
  6
CONTINUOUS
 62
3
 10
-308.378500910957090
 20
-142.897877879919240
 11
-306.878461394154900
 21
-142.897877879919240
  0
LINE
  8
0
  6
CONTINUOUS
 62
3
 10
-306.878461394154900
 20
-142.897877879919460
 11
-306.878461394154900
 21
-136.890376942181830
  0
LINE
  8
0
  6
CONTINUOUS
 62
3
 10
-306.878461394154900
 20
-142.897877879919460
 11
-279.511796621212510
 21
-142.897877879919460
  0
ARC
  8
0
  6
CONTINUOUS
 62
3
 10
-279.511796621212510
 20
-137.897877879919460
 40
5.000000000000000
 50
270.000000000000000
 51
353.967950853629650
  0
ARC
  8
0
  6
CONTINUOUS
 62
3
 10
-572.878461394154900
 20
-106.897877879919460
 40
300.000000000000060
 50
353.967950853630210
 51
6.032049146369772
  0
ARC
  8
0
  6
CONTINUOUS
 62
3
 10
-279.511796621212510
 20
-75.897877879919690
 40
5.000000000000143
 50
6.032049146370342
 51
90.000000000000000
  0
LINE
  8
0
  6
CONTINUOUS
 62
3
 10
-306.878461394154900
 20
-70.897877879919690
 11
-279.511796621212510
 21
-70.897877879919690
  0
LINE
  8
0
  6
CONTINUOUS
 62
3
 10
-306.878461394154900
 20
-76.909892025489228
 11
-306.878461394154900
 21
-70.897877879919690
  0
LINE
  8
0
  6
CONTINUOUS
 62
3
 10
-308.378500910957090
 20
-70.897877879919690
 11
-306.878461394154900
 21
-70.897877879919690
  0
LINE
  8
0
  6
DASHDOT
 62
4
 10
-109.156771137116550
 20
65.602122120080537
 11
-127.156771137116550
 21
65.602122120080537
  0
LINE
  8
0
  6
DASHDOT
 62
4
 10
-118.156771137116550
 20
56.602122120080537
 11
-118.156771137116550
 21
83.603721442630274
  0
LINE
  8
0
  6
DASHED
 62
4
 10
-125.156771137116550
 20
85.602122120080537
 11
-125.156771137116550
 21
65.602122120080537
  0
LINE
  8
0
  6
DASHED
 62
4
 10
-111.156771137116550
 20
85.602122120080537
 11
-111.156771137116550
 21
65.602122120080537
  0
ARC
  8
0
  6
DASHED
 62
4
 10
-118.156771137116550
 20
65.602122120080537
 40
7.000000000000000
 50
180.000000000000000
 51
0.000000000000000
  0
CIRCLE
  8
0
  6
DASHED
 62
4
 10
-118.156771137116550
 20
65.602122120080537
 40
6.000000000000000
  0
LINE
  8
0
  6
CONTINUOUS
 62
3
 10
74.643228862882893
 20
-131.397877879922820
 11
74.643228862887440
 21
-31.397877879922817
  0
LINE
  8
0
  6
CONTINUOUS
 62
3
 10
74.643228862881074
 20
-131.397877879922820
 11
74.643228862881074
 21
-190.602774258543830
  0
LINE
  8
0
  6
CONTINUOUS
 62
3
 10
62.643228862881074
 20
-34.397877879921907
 11
62.643228862881074
 21
-96.933776264785138
  0
ARC
  8
0
  6
CONTINUOUS
 62
3
 10
65.643228862887440
 20
-34.397877879921907
 40
3.000000000000000
 50
90.000000000000000
 51
180.000000000000000
  0
ARC
  8
0
  6
CONTINUOUS
 62
3
 10
59.643228862881074
 20
-196.916840861019860
 40
3.000000000000000
 50
0.000000000000000
 51
86.999999999994344
  0
ARC
  8
0
  6
CONTINUOUS
 62
3
 10
59.643228862885621
 20
-68.871809145908628
 40
2.999999999999901
 50
272.999999999988290
 51
0.000000000000000
  0
ARC
  8
0
  6
CONTINUOUS
 62
3
 10
195.143228862906540
 20
-101.397877879922810
 40
5.000000000000000
 50
90.000000000000000
 51
270.000000000000000
  0
LINE
  8
0
  6
CONTINUOUS
 62
3
 10
235.143228862905630
 20
-106.397877879922810
 11
195.143228862906540
 21
-106.397877879922810
  0
LINE
  8
0
  6
CONTINUOUS
 62
3
 10
235.143228862905630
 20
-96.397877879922817
 11
195.143228862906540
 21
-96.397877879922817
  0
LINE
  8
0
  6
CONTINUOUS
 62
3
 10
62.643228862881074
 20
-115.861979495060490
 11
62.643228862881074
 21
-201.186276875914700
  0
ARC
  8
0
  6
CONTINUOUS
 62
3
 10
234.743228862905540
 20
-116.997877879922720
 40
0.400000000000091
 50
270.000000000000000
 51
0.000000000000000
  0
LINE
  8
0
  6
CONTINUOUS
 62
3
 10
235.143228862905630
 20
-101.397877879922810
 11
235.143228862905630
 21
-116.997877879922720
  0
LINE
  8
0
  6
CONTINUOUS
 62
3
 10
185.143228862905630
 20
-118.197877879922540
 11
184.943228862905810
 21
-118.397877879922810
  0
ARC
  8
0
  6
CONTINUOUS
 62
3
 10
185.943228862905810
 20
-118.047877879922450
 40
0.799999999999727
 50
90.000000000000000
 51
176.296803365752200
  0
LINE
  8
0
  6
CONTINUOUS
 62
3
 10
185.143228862905630
 20
-118.197877879922540
 11
185.143228862905630
 21
-101.397877879922810
  0
LINE
  8
0
  6
CONTINUOUS
 62
3
 10
187.143228862905630
 20
-117.247877879922720
 11
185.943228862905810
 21
-117.247877879922720
  0
LINE
  8
0
  6
CONTINUOUS
 62
3
 10
234.743228862905540
 20
-117.397877879922810
 11
187.703036484041040
 21
-117.397877879922810
  0
LINE
  8
0
  6
CONTINUOUS
 62
3
 10
183.143228862883800
 20
-118.397877879922810
 11
184.943228862905810
 21
-118.397877879922810
  0
LINE
  8
0
  6
CONTINUOUS
 62
3
 10
187.143228862905630
 20
-117.247877879922720
 11
187.703036484041040
 21
-117.397877879922810
  0
LINE
  8
0
  6
CONTINUOUS
 62
3
 10
185.143228862905630
 20
-84.597877879922635
 11
184.943228862905810
 21
-84.397877879922817
  0
ARC
  8
0
  6
CONTINUOUS
 62
3
 10
185.943228862905810
 20
-84.747877879922726
 40
0.800000000000237
 50
183.703196634280290
 51
270.000000000000000
  0
LINE
  8
0
  6
CONTINUOUS
 62
3
 10
185.143228862905630
 20
-84.597877879922635
 11
185.143228862905630
 21
-101.397877879922810
  0
LINE
  8
0
  6
CONTINUOUS
 62
3
 10
183.143228862883800
 20
-84.397877879922817
 11
184.943228862905810
 21
-84.397877879922817
  0
LINE
  8
0
  6
CONTINUOUS
 62
3
 10
187.143228862905630
 20
-85.547877879922453
 11
185.943228862905810
 21
-85.547877879922453
  0
LINE
  8
0
  6
CONTINUOUS
 62
3
 10
187.143228862905630
 20
-85.547877879922453
 11
187.703036484041040
 21
-85.397877879922817
  0
LINE
  8
0
  6
CONTINUOUS
 62
3
 10
234.743228862905540
 20
-85.397877879922817
 11
187.703036484041040
 21
-85.397877879922817
  0
ARC
  8
0
  6
CONTINUOUS
 62
3
 10
234.743228862905540
 20
-85.797877879922453
 40
0.400000000000091
 50
0.000000000000000
 51
90.000000000000000
  0
LINE
  8
0
  6
CONTINUOUS
 62
3
 10
235.143228862905630
 20
-101.397877879922810
 11
235.143228862905630
 21
-85.797877879922453
  0
ARC
  8
0
  6
CONTINUOUS
 62
3
 10
75.143228862883802
 20
-170.343784283745210
 40
2.000000000000000
 50
0.000000000000000
 51
90.000000000000000
  0
LINE
  8
0
  6
CONTINUOUS
 62
3
 10
77.143228862883802
 20
-170.343784283745210
 11
77.143228862883802
 21
-187.495073485194550
  0
LINE
  8
0
  6
CONTINUOUS
 62
3
 10
153.143228862883800
 20
-207.350254795170260
 11
180.247927352991500
 21
-208.296771723286840
  0
ARC
  8
0
  6
CONTINUOUS
 62
3
 10
182.143228862883800
 20
-66.647877879922817
 40
1.000000000000000
 50
180.000000000000000
 51
270.000000000000000
  0
ARC
  8
0
  6
CONTINUOUS
 62
3
 10
178.143228862883800
 20
-59.714066331092909
 40
3.000000000000000
 50
0.000000000000000
 51
39.469308363522465
  0
ARC
  8
0
  6
CONTINUOUS
 62
3
 10
180.143228862883800
 20
-211.294944204344120
 40
3.000000000000000
 50
0.000000000000000
 51
87.999999999996348
  0
ARC
  8
0
  6
CONTINUOUS
 62
3
 10
183.143228862883800
 20
-207.294944204344120
 40
2.000000000000000
 50
180.000000000000000
 51
233.130102354158570
  0
ARC
  8
0
  6
CONTINUOUS
 62
3
 10
180.358113750548800
 20
-205.298790884180560
 40
3.000000000000000
 50
180.000000000000000
 51
268.000000000005000
  0
ARC
  8
0
  6
CONTINUOUS
 62
3
 10
156.229370660207560
 20
-204.456196608597110
 40
3.000000000000000
 50
180.000000000000000
 51
268.000000000005000
  0
ARC
  8
0
  6
CONTINUOUS
 62
3
 10
182.143228862883800
 20
-135.647866596225870
 40
1.000000000000000
 50
90.000000000000000
 51
180.000000000000000
  0
ARC
  8
0
  6
CONTINUOUS
 62
3
 10
126.421560412273600
 20
-102.303607449601710
 40
70.000000000000341
 50
39.469308363517086
 51
88.999999999999716
  0
LINE
  8
0
  6
CONTINUOUS
 62
3
 10
75.143228862883802
 20
-31.397877879922817
 11
75.143228862883802
 21
-190.161794982817810
  0
LINE
  8
0
  6
CONTINUOUS
 62
3
 10
153.229370660207560
 20
-101.397877879922810
 11
153.229370660207560
 21
-204.456196608597110
  0
LINE
  8
0
  6
CONTINUOUS
 62
3
 10
177.358113750548800
 20
-101.397877879922810
 11
177.358113750548800
 21
-205.298790884180560
  0
LINE
  8
0
  6
CONTINUOUS
 62
3
 10
77.062421138666991
 20
-204.693454445887260
 11
153.143228862883800
 21
-207.350254795170260
  0
LINE
  8
0
  6
CONTINUOUS
 62
4
 10
75.143228862883802
 20
-31.397877879922817
 11
95.500290019761337
 21
-31.397877879922817
  0
LINE
  8
0
  6
CONTINUOUS
 62
3
 10
182.143228862883800
 20
-67.647877879922817
 11
183.143228862883800
 21
-67.647877879922817
  0
LINE
  8
0
  6
CONTINUOUS
 62
3
 10
183.143228862883800
 20
-134.647866596225870
 11
182.143228862883800
 21
-134.647866596225870
  0
LINE
  8
0
  6
CONTINUOUS
 62
3
 10
183.143228862883800
 20
-211.244771580067210
 11
183.143228862883800
 21
-213.044050317065280
  0
LINE
  8
0
  6
CONTINUOUS
 62
3
 10
181.143228862883800
 20
-135.647866596225870
 11
181.143228862883800
 21
-207.294944204344120
  0
LINE
  8
0
  6
DASHDOT
 62
4
 10
170.143228862883800
 20
-204.175838657205530
 11
170.143228862883800
 21
-232.616562267129670
  0
LINE
  8
0
  6
CONTINUOUS
 62
3
 10
183.143228862883800
 20
-67.647877879922817
 11
183.143228862883800
 21
-134.647866596225870
  0
LINE
  8
0
  6
CONTINUOUS
 62
3
 10
181.143228862883800
 20
-135.647866596225870
 11
181.143228862883800
 21
-66.647877879922817
  0
LINE
  8
0
  6
CONTINUOUS
 62
3
 10
75.143228862883802
 20
-31.397877879922817
 11
127.643228862883800
 21
-32.314268788654317
  0
LINE
  8
0
  6
CONTINUOUS
 62
3
 10
183.143228862883800
 20
-211.294944204344120
 11
183.143228862883800
 21
-226.397877879922820
  0
LINE
  8
0
  6
CONTINUOUS
 62
3
 10
181.143228862883800
 20
-71.647877879922817
 11
181.143228862883800
 21
-59.714066331092909
  0
LINE
  8
0
  6
CONTINUOUS
 62
3
 10
76.466139488884323
 20
-188.995042643415670
 11
58.418056881616280
 21
-204.912703436128140
  0
ARC
  8
0
  6
CONTINUOUS
 62
3
 10
75.143228862883802
 20
-187.495073485194550
 40
1.999999999999916
 50
311.410957896496880
 51
0.000000000000000
  0
POLYLINE
  8
0
  6
CONTINUOUS
 62
3
 66
1
  0
VERTEX
  8
0
  6
CONTINUOUS
 62
3
 10
177.358113750548800
 20
-101.397877879922810
  0
VERTEX
  8
0
  6
CONTINUOUS
 62
3
 10
177.126300234197090
 20
-99.446974659761537
  0
VERTEX
  8
0
  6
CONTINUOUS
 62
3
 10
176.439768148572880
 20
-97.571043556271917
  0
VERTEX
  8
0
  6
CONTINUOUS
 62
3
 10
175.324900536715060
 20
-95.842175549726790
  0
VERTEX
  8
0
  6
CONTINUOUS
 62
3
 10
173.824541135722340
 20
-94.326810068057341
  0
VERTEX
  8
0
  6
CONTINUOUS
 62
3
 10
171.996347915963670
 20
-93.083181756897361
  0
VERTEX
  8
0
  6
CONTINUOUS
 62
3
 10
169.910577317611800
 20
-92.159082554809956
  0
VERTEX
  8
0
  6
CONTINUOUS
 62
3
 10
167.647384335047720
 20
-91.590025075890509
  0
VERTEX
  8
0
  6
CONTINUOUS
 62
3
 10
165.293742205378180
 20
-91.397877879922817
  0
VERTEX
  8
0
  6
CONTINUOUS
 62
3
 10
162.940100075708640
 20
-91.590025075890509
  0
VERTEX
  8
0
  6
CONTINUOUS
 62
3
 10
160.676907093144560
 20
-92.159082554809956
  0
VERTEX
  8
0
  6
CONTINUOUS
 62
3
 10
158.591136494792690
 20
-93.083181756897361
  0
VERTEX
  8
0
  6
CONTINUOUS
 62
3
 10
156.762943275034020
 20
-94.326810068057341
  0
VERTEX
  8
0
  6
CONTINUOUS
 62
3
 10
155.262583874041330
 20
-95.842175549726790
  0
VERTEX
  8
0
  6
CONTINUOUS
 62
3
 10
154.147716262183480
 20
-97.571043556271917
  0
VERTEX
  8
0
  6
CONTINUOUS
 62
3
 10
153.461184176559270
 20
-99.446974659761537
  0
VERTEX
  8
0
  6
CONTINUOUS
 62
3
 10
153.229370660207560
 20
-101.397877879922810
  0
SEQEND
  8
0
  6
CONTINUOUS
 62
3
  0
LINE
  8
0
  6
CONTINUOUS
 62
3
 10
183.143228862883800
 20
-226.397877879922820
 11
66.143228862883802
 21
-226.397877879922820
  0
ARC
  8
0
  6
CONTINUOUS
 62
3
 10
60.643228862881074
 20
-115.861979495060490
 40
2.000000000000000
 50
0.000000000000000
 51
59.999999999996206
  0
ARC
  8
0
  6
CONTINUOUS
 62
3
 10
62.643228862881074
 20
-112.397877879922810
 40
2.000000000000000
 50
180.000000000000000
 51
240.000000000002730
  0
ARC
  8
0
  6
CONTINUOUS
 62
3
 10
62.643228862881074
 20
-100.397877879922810
 40
2.000000000000164
 50
119.999999999997270
 51
180.000000000000000
  0
LINE
  8
0
  6
DASHDOT
 62
4
 10
41.412981462070888
 20
-16.397877879922817
 11
59.512247477362394
 21
-16.397877879922817
  0
LINE
  8
0
  6
CONTINUOUS
 62
3
 10
47.143228862887440
 20
3.602122120077183
 11
51.643228862887440
 21
3.602122120077183
  0
ARC
  8
0
  6
CONTINUOUS
 62
3
 10
60.643228862881074
 20
-96.933776264785138
 40
1.999999999999770
 50
300.000000000003810
 51
0.000000000000000
  0
LINE
  8
0
  6
CONTINUOUS
 62
3
 10
60.643228862881074
 20
-100.397877879922810
 11
60.643228862881074
 21
-112.397877879922810
  0
LINE
  8
0
  6
DASHDOT
 62
4
 10
132.072850474991240
 20
-101.397877879922810
 11
251.268888465984330
 21
-101.397877879922810
  0
LINE
  8
0
  6
DASHDOT
 62
4
 10
56.775580943817317
 20
-40.397877879922817
 11
27.962548168627677
 21
-40.397877879922817
  0
LINE
  8
0
  6
CONTINUOUS
 62
3
 10
40.143244217012011
 20
-187.697877879919080
 11
40.143244217012011
 21
-189.897877879921340
  0
LINE
  8
0
  6
CONTINUOUS
 62
3
 10
35.247942707119478
 20
-55.693603039131517
 11
-1.856771137122166
 21
-54.397877879919463
  0
LINE
  8
0
  6
CONTINUOUS
 62
3
 10
27.195616790455858
 20
-159.913716193964380
 11
-1.856740428855971
 21
-159.406605412383670
  0
LINE
  8
0
  6
CONTINUOUS
 62
3
 10
30.143244217012352
 20
-188.026906386946340
 11
30.143244217012352
 21
-74.897877879921396
  0
LINE
  8
0
  6
CONTINUOUS
 62
3
 10
13.643215919260683
 20
-69.897877879919918
 11
13.643214462410242
 21
-69.897877879919918
  0
LINE
  8
0
  6
CONTINUOUS
 62
3
 10
-1.856755782990433
 20
-54.397877879919463
 11
-1.856755782995720
 21
-159.406605144376160
  0
LINE
  8
0
  6
DASHDOT
 62
4
 10
24.143244217012011
 20
-76.465228608926111
 11
24.143244217012011
 21
-52.002087610823139
  0
LINE
  8
0
  6
CONTINUOUS
 62
3
 10
40.143244217012011
 20
-191.397877879921340
 11
40.143244217012011
 21
-71.397877879921339
  0
LINE
  8
0
  6
CONTINUOUS
 62
3
 10
38.143244217012011
 20
-69.397877879921339
 11
38.143244217012011
 21
-58.691775520188799
  0
LINE
  8
0
  6
CONTINUOUS
 62
3
 10
13.143244216975859
 20
-159.668431118298880
 11
13.143244216976882
 21
-92.935754863331226
  0
LINE
  8
0
  6
CONTINUOUS
 62
3
 10
40.143244217012011
 20
-71.397877879921339
 11
17.881564435762584
 21
-70.231192679475839
  0
LINE
  8
0
  6
CONTINUOUS
 62
3
 10
40.143244217012011
 20
-191.397877879921340
 11
32.986236348283512
 21
-191.022794991210050
  0
ARC
  8
0
  6
CONTINUOUS
 62
3
 10
40.143244217012011
 20
-69.397877879921339
 40
2.000000000000000
 50
180.000000000000000
 51
270.000000000000000
  0
ARC
  8
0
  6
CONTINUOUS
 62
3
 10
18.143244216977280
 20
-65.238045005702986
 40
5.000000000000000
 50
179.999999999999350
 51
267.000000000000280
  0
ARC
  8
0
  6
CONTINUOUS
 62
3
 10
8.143259571109070
 20
-59.802514450568651
 40
5.000000000000000
 50
359.999999999998690
 51
88.000000000000256
  0
ARC
  8
0
  6
CONTINUOUS
 62
3
 10
35.143244217012011
 20
-58.691775520188799
 40
3.000000000000000
 50
0.000000000000000
 51
88.000000000000682
  0
ARC
  8
0
  6
CONTINUOUS
 62
3
 10
27.143244217012352
 20
-162.913259279433530
 40
3.000000000000000
 50
0.000000000000000
 51
89.000000000000398
  0
ARC
  8
0
  6
CONTINUOUS
 62
3
 10
33.143244217012352
 20
-188.026906386946340
 40
3.000000000000000
 50
180.000000000000000
 51
266.999999999999830
  0
LINE
  8
0
  6
CONTINUOUS
 62
3
 10
28.685739015479953
 20
-184.945555058869390
 11
4.570566917408428
 21
-160.916128107389800
  0
ARC
  8
0
  6
CONTINUOUS
 62
3
 10
1.041335366377439
 20
-164.457953153775860
 40
5.000000000000026
 50
45.102043218056203
 51
89.000000000000171
  0
ARC
  8
0
  6
CONTINUOUS
 62
3
 10
25.156507464448964
 20
-188.487380105255450
 40
5.000000000000021
 50
3.299723825004901
 51
45.102043218056203
  0
POINT
  8
0
  6
CONTINUOUS
 62
3
 10
3.143244217009340
 20
-159.493880469017310
  0
LINE
  8
0
  6
CONTINUOUS
 62
3
 10
40.143244217012011
 20
-111.412812947439870
 11
30.143244217012352
 21
-111.412812947439870
  0
LINE
  8
0
  6
CONTINUOUS
 62
3
 10
40.143244217012011
 20
-151.382942812402800
 11
30.143244217012352
 21
-151.382942812402800
  0
LINE
  8
0
  6
CONTINUOUS
 62
3
 10
12.143244216976996
 20
-86.897877879921282
 11
-1.856755782992082
 21
-86.897877879921282
  0
LINE
  8
0
  6
CONTINUOUS
 62
3
 10
13.143244216976314
 20
-126.897877879921280
 11
-1.856755782994128
 21
-126.897877879921280
  0
LINE
  8
0
  6
CONTINUOUS
 62
3
 10
12.143244216976882
 20
-91.203704055762330
 11
12.143244216977166
 21
-74.716065200668140
  0
ARC
  8
0
  6
CONTINUOUS
 62
3
 10
13.143244216977166
 20
-74.716065200668140
 40
0.999999999999984
 50
120.000000000000520
 51
180.000000000000000
  0
ARC
  8
0
  6
CONTINUOUS
 62
3
 10
12.143244216977223
 20
-72.984014393099244
 40
1.000000000000004
 50
299.999999999996080
 51
0.000000000000000
  0
ARC
  8
0
  6
CONTINUOUS
 62
3
 10
13.143244216976882
 20
-91.203704055762330
 40
1.000000000000000
 50
180.000000000000000
 51
240.000000000001110
  0
ARC
  8
0
  6
CONTINUOUS
 62
3
 10
12.143244216976882
 20
-92.935754863331226
 40
1.000000000000000
 50
0.000000000000000
 51
59.999999999999460
  0
LINE
  8
0
  6
CONTINUOUS
 62
3
 10
13.143244216977223
 20
-72.984014393099244
 11
13.143244216977394
 21
-59.802514450568765
  0
LINE
  8
0
  6
CONTINUOUS
 62
3
 10
16.952670958874592
 20
-82.611993650976615
 11
27.629255719289290
 21
-82.611993650976615
  0
LINE
  8
0
  6
CONTINUOUS
 62
3
 10
16.740311205433613
 20
-96.397877879921339
 11
27.461266778594222
 21
-96.397877879921339
  0
LINE
  8
0
  6
CONTINUOUS
 62
3
 10
16.177925553994214
 20
-139.397877879921280
 11
27.577686238345564
 21
-139.397877879921280
  0
LINE
  8
0
  6
CONTINUOUS
 62
3
 10
16.269123639470422
 20
-142.443935827181180
 11
27.760082409294341
 21
-142.443935827181180
  0
LINE
  8
0
  6
CONTINUOUS
 62
3
 10
34.143244217012011
 20
-189.185502070793290
 11
34.143244217012011
 21
-168.397877879921340
  0
ARC
  8
0
  6
CONTINUOUS
 62
3
 10
32.143244217012011
 20
-168.397877879921340
 40
2.000000000000000
 50
0.000000000000000
 51
90.000000000000000
  0
ARC
  8
0
  6
CONTINUOUS
 62
3
 10
32.143244217012352
 20
-164.397877879921340
 40
2.000000000000000
 50
180.000000000000000
 51
270.000000000000000
  0
LINE
  8
0
  6
CONTINUOUS
 62
3
 10
34.143244217012011
 20
-94.397877879921339
 11
34.143244217012011
 21
-73.190991454785035
  0
ARC
  8
0
  6
CONTINUOUS
 62
3
 10
32.143244217012011
 20
-94.397877879921339
 40
2.000000000000000
 50
270.000000000000000
 51
0.000000000000000
  0
ARC
  8
0
  6
CONTINUOUS
 62
3
 10
32.143244217012352
 20
-98.397877879921339
 40
2.000000000000000
 50
90.000000000000000
 51
180.000000000000000
  0
ARC
  8
0
  6
CONTINUOUS
 62
3
 10
36.143244217012011
 20
-73.190991454785035
 40
2.000000000000052
 50
86.999999999999375
 51
180.000000000000000
  0
ARC
  8
0
  6
CONTINUOUS
 62
3
 10
36.143244217012011
 20
-189.185502070793290
 40
2.000000000000000
 50
180.000000000000000
 51
267.000000000001020
  0
INSERT
  8
0
  2
SYM1
 10
62.643228862881529
 20
-126.397877879922810
  0
INSERT
  8
0
  2
SYM2
 10
34.143228862882893
 20
-87.203704055762501
  0
INSERT
  8
0
  2
SYM3
 10
34.143228862882893
 20
-175.592051704080400
  0
INSERT
  8
0
  2
SYM4
 10
62.643228862881074
 20
-50.397877879922817
  0
INSERT
  8
0
  2
SYM5
 10
47.143228862884712
 20
-40.397877879922817
  0
LINE
  8
0
  6
CONTINUOUS
 62
3
 10
51.643228862887440
 20
3.602122120077183
 11
51.643228862887440
 21
-50.397877879922817
  0
LINE
  8
0
  6
CONTINUOUS
 62
3
 10
40.143228862882893
 20
-111.397877879922810
 11
60.643228862881074
 21
-111.397877879922810
  0
LINE
  8
0
  6
CONTINUOUS
 62
3
 10
47.143228862883802
 20
-50.397877879922817
 11
47.143228862887440
 21
3.602122120077183
  0
LINE
  8
0
  6
CONTINUOUS
 62
3
 10
40.143228862882893
 20
-151.397877879922820
 11
62.643228862881074
 21
-151.397877879922820
  0
LINE
  8
0
  6
CONTINUOUS
 62
3
 10
47.143228862883802
 20
-50.397877879922817
 11
51.643228862883802
 21
-50.397877879922817
  0
LINE
  8
0
  6
CONTINUOUS
 62
3
 10
66.143228862883802
 20
-226.397877879922820
 11
22.143228862883802
 21
-226.397877879922820
  0
ARC
  8
0
  6
CONTINUOUS
 62
3
 10
55.110780316614523
 20
-201.162780540575570
 40
4.999999999999822
 50
273.858884296473550
 51
311.410957896502510
  0
LINE
  8
0
  6
CONTINUOUS
 62
3
 10
22.143228862883802
 20
-211.202338076130220
 11
22.143228862883802
 21
-226.397877879922820
  0
LINE
  8
0
  6
DASHDOT
 62
4
 10
35.143228862883802
 20
-204.175838657205530
 11
35.143228862883802
 21
-233.100019870584220
  0
LINE
  8
0
  6
CONTINUOUS
 62
3
 10
77.062421138666991
 20
-204.693454445887260
 11
52.143228862883802
 21
-206.374310190452890
  0
ARC
  8
0
  6
CONTINUOUS
 62
3
 10
25.143228862883802
 20
-211.202338076130220
 40
3.000000000000365
 50
93.858884296478166
 51
180.000000000000000
  0
LINE
  8
0
  6
CONTINUOUS
 62
3
 10
52.143228862883802
 20
-206.374310190452890
 11
24.941330871128116
 21
-208.209139586065250
  0
ARC
  8
0
  6
CONTINUOUS
 62
3
 10
51.643228862885621
 20
-69.291071380172980
 40
2.999999999999901
 50
272.999999999988290
 51
0.000000000000000
  0
ARC
  8
0
  6
CONTINUOUS
 62
3
 10
54.643228862887440
 20
-34.397877879921452
 40
3.000000000000000
 50
90.000000000000000
 51
179.999999999991330
  0
ARC
  8
0
  6
CONTINUOUS
 62
3
 10
54.643228862886531
 20
-49.397877879922817
 40
3.000000000000000
 50
180.000000000000000
 51
270.000000000000000
  0
LINE
  8
0
  6
CONTINUOUS
 62
3
 10
59.800236731614746
 20
-71.867697750172283
 11
40.143228862882893
 21
-72.897877879921907
  0
LINE
  8
0
  6
CONTINUOUS
 62
3
 10
54.643228862885621
 20
-69.291071380172980
 11
54.643228862887554
 21
-56.031945782849050
  0
LINE
  8
0
  6
CONTINUOUS
 62
3
 10
40.143228862882893
 20
-192.890772127007040
 11
59.800236731610198
 21
-193.920952256756210
  0
LINE
  8
0
  6
CONTINUOUS
 62
3
 10
40.143228862882893
 20
-131.397877879921450
 11
40.143228862882893
 21
-192.890772127007040
  0
LINE
  8
0
  6
CONTINUOUS
 62
3
 10
40.143228862882893
 20
-131.397877879921450
 11
40.143228862882893
 21
-72.897877879921452
  0
LINE
  8
0
  6
CONTINUOUS
 62
3
 10
74.643228862887440
 20
-31.397877879922817
 11
54.643228862887440
 21
-31.397877879921452
  0
LINE
  8
0
  6
CONTINUOUS
 62
3
 10
51.643228862886531
 20
-49.397877879922817
 11
51.643228862887440
 21
-34.397877879920998
  0
LINE
  8
0
  6
CONTINUOUS
 62
3
 10
40.143228862882438
 20
-187.697877879919250
 11
40.143228862882438
 21
-189.897877879921450
  0
LINE
  8
0
  6
CONTINUOUS
 62
3
 10
40.143228862882438
 20
-187.697877879919250
 11
40.143228862882438
 21
-72.897877879921339
  0
LINE
  8
0
  6
CONTINUOUS
 62
3
 10
-1.856771137116652
 20
89.602122120080480
 11
-1.856771137116652
 21
143.102122120080540
  0
LINE
  8
0
  6
CONTINUOUS
 62
3
 10
-1.856771137116652
 20
196.602122120080540
 11
-1.856771137116652
 21
143.102122120080540
  0
ARC
  8
0
  6
CONTINUOUS
 62
3
 10
178.143228862881980
 20
238.188635804501870
 40
5.000000000000000
 50
0.000000000000000
 51
88.999999999998238
  0
ARC
  8
0
  6
CONTINUOUS
 62
3
 10
27.143228862882893
 20
238.254709478317350
 40
5.000000000000244
 50
91.775473893781850
 51
180.000000000000000
  0
LINE
  8
0
  6
CONTINUOUS
 62
3
 10
26.988314332234836
 20
243.252309050931840
 11
80.143228862882893
 21
244.899993807686490
  0
LINE
  8
0
  6
CONTINUOUS
 62
3
 10
182.143228862883800
 20
176.602122120080540
 11
183.143228862883800
 21
176.602122120080540
  0
LINE
  8
0
  6
CONTINUOUS
 62
3
 10
182.143228862882890
 20
109.602122120080530
 11
183.143228862882890
 21
109.602122120080530
  0
ARC
  8
0
  6
CONTINUOUS
 62
3
 10
178.143228862881980
 20
48.015608435658748
 40
5.000000000000068
 50
271.000000000001760
 51
359.999999999994830
  0
LINE
  8
0
  6
CONTINUOUS
 62
3
 10
26.988314332234836
 20
42.951935189229232
 11
80.143228862882893
 21
41.304250432473680
  0
ARC
  8
0
  6
CONTINUOUS
 62
3
 10
27.143228862882893
 20
47.949534761842813
 40
5.000000000000000
 50
180.000000000000000
 51
268.224526106217870
  0
LINE
  8
0
  6
CONTINUOUS
 62
4
 10
27.151301019594371
 20
216.876258887701790
 11
55.907415429169191
 21
216.374319043599540
  0
LINE
  8
0
  6
CONTINUOUS
 62
4
 10
27.151301019594371
 20
69.327985352458825
 11
55.907415429169191
 21
69.829925196561533
  0
LINE
  8
0
  6
CONTINUOUS
 62
3
 10
27.055966830696775
 20
213.016369959876730
 11
41.865812912631441
 21
212.757863134939440
  0
ARC
  8
0
  6
CONTINUOUS
 62
3
 10
27.143228862882893
 20
218.015608435658750
 40
5.000000000000000
 50
180.000000000000000
 51
269.000000000003410
  0
ARC
  8
0
  6
CONTINUOUS
 62
3
 10
41.778550880444868
 20
207.758624659157870
 40
5.000000000000079
 50
86.175596971354679
 51
88.999999999998138
  0
LINE
  8
0
  6
CONTINUOUS
 62
3
 10
42.112045236393328
 20
212.747490413470300
 11
62.643228862886986
 21
211.375027373256730
  0
LINE
  8
0
  6
CONTINUOUS
 62
3
 10
27.055966830696775
 20
73.187874280283438
 11
41.865812912631441
 21
73.446381105220723
  0
ARC
  8
0
  6
CONTINUOUS
 62
3
 10
27.143228862882893
 20
68.188635804501871
 40
4.999999999999606
 50
90.999999999996646
 51
180.000000000000000
  0
LINE
  8
0
  6
CONTINUOUS
 62
3
 10
42.112045236393328
 20
73.456753826690772
 11
62.643228862882893
 21
74.829216866903437
  0
ARC
  8
0
  6
CONTINUOUS
 62
3
 10
41.778550880444868
 20
78.445619581002745
 40
5.000000000000068
 50
271.000000000001760
 51
273.824403028645630
  0
LINE
  8
0
  6
CONTINUOUS
 62
3
 10
22.143228862882893
 20
68.402589209768564
 11
22.143228862882893
 21
47.949534761842813
  0
LINE
  8
0
  6
CONTINUOUS
 62
3
 10
80.143228862882893
 20
244.899993807686490
 11
178.230490895068560
 21
243.187874280283890
  0
LINE
  8
0
  6
CONTINUOUS
 62
3
 10
22.143228862882893
 20
217.801655030391600
 11
22.143228862882893
 21
238.254709478317350
  0
LINE
  8
0
  6
DASHDOT
 62
4
 10
170.143228862882890
 20
240.913223620943140
 11
170.143228862882890
 21
220.369309899166810
  0
LINE
  8
0
  6
DASHDOT
 62
4
 10
180.688483796862220
 20
230.602122120080540
 11
159.541247307622480
 21
230.602122120080540
  0
LINE
  8
0
  6
CONTINUOUS
 62
3
 10
75.143228862882893
 20
143.102122120080540
 11
75.143228862882893
 21
49.049756925295981
  0
LINE
  8
0
  6
CONTINUOUS
 62
3
 10
75.143228862882893
 20
49.049756925295981
 11
127.643228862882890
 21
49.966147834027367
  0
LINE
  8
0
  6
CONTINUOUS
 62
3
 10
169.846537953449000
 20
72.599532937738957
 11
176.795428054744550
 21
72.720826265636049
  0
LINE
  8
0
  6
CONTINUOUS
 62
3
 10
181.143228862882890
 20
143.102122120080540
 11
181.143228862882890
 21
77.365945376465504
  0
LINE
  8
0
  6
CONTINUOUS
 62
3
 10
183.143228862883800
 20
143.102122120080540
 11
183.143228862881980
 21
48.015608435658748
  0
LINE
  8
0
  6
CONTINUOUS
 62
3
 10
183.143228862882890
 20
68.102122120080082
 11
183.143228862881980
 21
48.102125091676214
  0
LINE
  8
0
  6
CONTINUOUS
 62
3
 10
183.143228862884260
 20
143.102122120080540
 11
183.143228862881980
 21
238.188635804501870
  0
LINE
  8
0
  6
CONTINUOUS
 62
3
 10
181.143228862882890
 20
143.102122120080540
 11
181.143228862882890
 21
208.838298863694660
  0
LINE
  8
0
  6
CONTINUOUS
 62
3
 10
169.846537953449000
 20
213.604711302421660
 11
176.795428054744550
 21
213.483417974524570
  0
LINE
  8
0
  6
CONTINUOUS
 62
3
 10
75.143228862882893
 20
237.154487314865090
 11
127.643228862882890
 21
236.238096406133250
  0
LINE
  8
0
  6
CONTINUOUS
 62
3
 10
75.143228862882893
 20
143.102122120080540
 11
75.143228862882893
 21
237.102122120079510
  0
LINE
  8
0
  6
DASHDOT
 62
4
 10
44.554115760890795
 20
230.602122120080540
 11
26.732889399814098
 21
230.602122120080540
  0
LINE
  8
0
  6
DASHDOT
 62
4
 10
35.143228862882893
 20
239.923155489773020
 11
35.143228862882893
 21
220.616826931962980
  0
CIRCLE
  8
0
  6
CONTINUOUS
 62
3
 10
170.143228862882890
 20
230.602122120080540
 40
6.000000000000000
  0
ARC
  8
0
  6
CONTINUOUS
 62
3
 10
178.143228862882890
 20
77.365945376465504
 40
3.000000000000058
 50
320.530691636484220
 51
0.000000000000000
  0
ARC
  8
0
  6
CONTINUOUS
 62
3
 10
176.743070835432150
 20
75.720369351105262
 40
3.000000000000049
 50
271.000000000010400
 51
318.682917187906810
  0
ARC
  8
0
  6
CONTINUOUS
 62
3
 10
150.217452140871390
 20
57.323581391897903
 40
3.000000000000189
 50
290.803407824383500
 51
355.062272705049050
  0
ARC
  8
0
  6
CONTINUOUS
 62
3
 10
126.421560412272690
 20
119.955486494974760
 40
70.000000000000327
 50
318.682917187902550
 51
320.530691636482910
  0
ARC
  8
0
  6
CONTINUOUS
 62
3
 10
126.421560412272690
 20
119.955486494974760
 40
70.000000000000014
 50
271.000000000000280
 51
290.803407824389690
  0
CIRCLE
  8
0
  6
CONTINUOUS
 62
3
 10
35.143228862882893
 20
55.602122120080537
 40
6.000000000000000
  0
CIRCLE
  8
0
  6
CONTINUOUS
 62
3
 10
170.143228862882890
 20
55.602122120080537
 40
6.000000000000000
  0
ARC
  8
0
  6
CONTINUOUS
 62
3
 10
182.143228862882890
 20
108.602122120080530
 40
1.000000000000000
 50
90.000000000000000
 51
180.000000000000000
  0
ARC
  8
0
  6
CONTINUOUS
 62
3
 10
170.143228862882890
 20
55.602122120080537
 40
16.999999999999773
 50
91.000000000000256
 51
175.062272705051070
  0
ARC
  8
0
  6
CONTINUOUS
 62
3
 10
170.143228862882890
 20
230.602122120080540
 40
16.999999999999638
 50
184.937727294950460
 51
268.999999999999770
  0
ARC
  8
0
  6
CONTINUOUS
 62
3
 10
182.143228862883800
 20
177.602122120080540
 40
1.000000000000000
 50
180.000000000000000
 51
270.000000000000000
  0
CIRCLE
  8
0
  6
CONTINUOUS
 62
3
 10
35.143228862882893
 20
230.602122120080540
 40
6.000000000000000
  0
ARC
  8
0
  6
CONTINUOUS
 62
3
 10
126.421560412272690
 20
166.248757745185860
 40
70.000000000000156
 50
69.196592175610675
 51
88.999999999999716
  0
ARC
  8
0
  6
CONTINUOUS
 62
3
 10
126.421560412272690
 20
166.248757745185860
 40
70.000000000000043
 50
39.469308363516802
 51
41.317082812097503
  0
ARC
  8
0
  6
CONTINUOUS
 62
3
 10
150.217452140871390
 20
228.880662848263170
 40
2.999999999999899
 50
4.937727294942317
 51
69.196592175621532
  0
ARC
  8
0
  6
CONTINUOUS
 62
3
 10
176.743070835432150
 20
210.483874889055360
 40
3.000000000000300
 50
41.317082812093204
 51
88.999999999989555
  0
ARC
  8
0
  6
CONTINUOUS
 62
3
 10
178.143228862882890
 20
208.838298863694660
 40
3.000000000000000
 50
0.000000000000000
 51
39.469308363515758
  0
LINE
  8
0
  6
CONTINUOUS
 62
3
 10
80.143228862882893
 20
41.304250432473680
 11
178.230490895068560
 21
43.016369959876727
  0
LINE
  8
0
  6
CONTINUOUS
 62
3
 10
235.143228862905630
 20
143.102122120080540
 11
235.143228862905630
 21
124.102122120080530
  0
ARC
  8
0
  6
CONTINUOUS
 62
3
 10
234.743228862905540
 20
158.702122120079990
 40
0.400000000000091
 50
0.000000000000000
 51
90.000000000000000
  0
LINE
  8
0
  6
CONTINUOUS
 62
3
 10
235.143228862905630
 20
124.102122120080530
 11
190.143228862905630
 21
124.102122120080530
  0
LINE
  8
0
  6
CONTINUOUS
 62
3
 10
234.743228862905540
 20
159.102122120080080
 11
187.703036484041040
 21
159.102122120080080
  0
LINE
  8
0
  6
CONTINUOUS
 62
3
 10
190.143228862905630
 20
127.102122120080530
 11
190.143228862905630
 21
124.102122120080530
  0
LINE
  8
0
  6
CONTINUOUS
 62
3
 10
187.143228862905630
 20
158.952122120079990
 11
187.703036484041040
 21
159.102122120080080
  0
LINE
  8
0
  6
CONTINUOUS
 62
3
 10
187.143228862905630
 20
158.952122120079990
 11
185.943228862905810
 21
158.952122120079990
  0
LINE
  8
0
  6
CONTINUOUS
 62
3
 10
183.143228862883350
 20
160.102122120080540
 11
184.943228862905810
 21
160.102122120080080
  0
LINE
  8
0
  6
CONTINUOUS
 62
3
 10
185.143228862905630
 20
159.902122120080260
 11
185.143228862905630
 21
143.102122120080080
  0
ARC
  8
0
  6
CONTINUOUS
 62
3
 10
185.943228862905810
 20
159.752122120080170
 40
0.800000000000237
 50
183.703196634280290
 51
270.000000000000000
  0
LINE
  8
0
  6
CONTINUOUS
 62
3
 10
185.143228862905630
 20
159.902122120080260
 11
184.943228862905810
 21
160.102122120080080
  0
LINE
  8
0
  6
CONTINUOUS
 62
3
 10
187.143228862905630
 20
127.252122120080170
 11
187.703036484041040
 21
127.102122120080080
  0
LINE
  8
0
  6
CONTINUOUS
 62
3
 10
183.143228862883350
 20
126.102122120079620
 11
184.943228862905810
 21
126.102122120080080
  0
LINE
  8
0
  6
CONTINUOUS
 62
3
 10
234.743228862905540
 20
127.102122120080080
 11
187.703036484041040
 21
127.102122120080080
  0
LINE
  8
0
  6
CONTINUOUS
 62
3
 10
187.143228862905630
 20
127.252122120080170
 11
185.943228862905810
 21
127.252122120080170
  0
LINE
  8
0
  6
CONTINUOUS
 62
3
 10
185.143228862905630
 20
126.302122120080350
 11
185.143228862905630
 21
143.102122120080080
  0
ARC
  8
0
  6
CONTINUOUS
 62
3
 10
185.943228862905810
 20
126.452122120079990
 40
0.800000000000182
 50
90.000000000000000
 51
176.296803365719710
  0
LINE
  8
0
  6
CONTINUOUS
 62
3
 10
185.143228862905630
 20
126.302122120080350
 11
184.943228862905810
 21
126.102122120080080
  0
LINE
  8
0
  6
CONTINUOUS
 62
3
 10
235.143228862905630
 20
143.102122120080540
 11
235.143228862905630
 21
158.702122120080450
  0
ARC
  8
0
  6
CONTINUOUS
 62
3
 10
234.743228862905540
 20
127.502122120080170
 40
0.400000000000091
 50
270.000000000000000
 51
0.000000000000000
  0
LINE
  8
0
  6
CONTINUOUS
 62
3
 10
40.143228862888350
 20
202.602122120081900
 11
59.800236731615655
 21
203.632302249830160
  0
ARC
  8
0
  6
CONTINUOUS
 62
3
 10
59.643228862886986
 20
206.628190854093820
 40
2.999999999999925
 50
272.999999999996990
 51
359.999999999991300
  0
LINE
  8
0
  6
CONTINUOUS
 62
3
 10
62.643228862884257
 20
166.602122120080990
 11
62.643228862888805
 21
235.102122120080540
  0
LINE
  8
0
  6
CONTINUOUS
 62
3
 10
60.643228862887668
 20
221.834172927649830
 11
60.643228862888805
 21
235.102122120080540
  0
LINE
  8
0
  6
CONTINUOUS
 62
3
 10
55.143229816562211
 20
220.602122120080990
 11
55.143229816562666
 21
233.602122120080990
  0
LINE
  8
0
  6
CONTINUOUS
 62
3
 10
55.143231081047702
 20
233.602122097380000
 11
54.643230130854477
 21
232.736192526311870
  0
LINE
  8
0
  6
CONTINUOUS
 62
3
 10
55.143230454419950
 20
220.602122096013030
 11
54.643230428272886
 21
221.468246236147190
  0
LINE
  8
0
  6
CONTINUOUS
 62
3
 10
60.643228862888577
 20
233.602122120080650
 11
55.143230770236983
 21
233.602122120080990
  0
LINE
  8
0
  6
CONTINUOUS
 62
3
 10
61.067776290587176
 20
220.602122120080650
 11
55.143229816562211
 21
220.602122120080990
  0
LINE
  8
0
  6
CONTINUOUS
 62
3
 10
54.643229816562211
 20
221.468246273218650
 11
54.643229816562666
 21
232.736192516504790
  0
ARC
  8
0
  6
CONTINUOUS
 62
3
 10
62.643228862888805
 20
235.102122120080540
 40
2.000000000000000
 50
90.000000000000000
 51
180.000000000000000
  0
LINE
  8
0
  6
CONTINUOUS
 62
3
 10
75.143228862882893
 20
237.102122120079510
 11
62.643228862888805
 21
237.102122120080540
  0
ARC
  8
0
  6
CONTINUOUS
 62
3
 10
62.643228862887895
 20
221.834172927649600
 40
2.000000000000000
 50
180.000000000000000
 51
239.999999999991450
  0
ARC
  8
0
  6
CONTINUOUS
 62
3
 10
60.643228862887440
 20
218.370071312511470
 40
2.000000000000000
 50
0.000000000000000
 51
60.000000000002721
  0
INSERT
  8
0
  2
SYM6
 10
47.143228862888805
 20
153.602122120081450
 41
-1.000000000000000
 50
179.999999999996310
  0
LINE
  8
0
  6
CONTINUOUS
 62
3
 10
51.643228862889714
 20
163.602122120081450
 11
47.143228862888805
 21
163.602122120081450
  0
LINE
  8
0
  6
CONTINUOUS
 62
3
 10
51.643228862888805
 20
143.102122120081900
 11
51.643228862889714
 21
163.602122120081450
  0
LINE
  8
0
  6
CONTINUOUS
 62
3
 10
47.143228862887895
 20
143.102122120081450
 11
47.143228862888805
 21
163.602122120081450
  0
INSERT
  8
0
  2
SYM7
 10
62.643228862886076
 20
193.102122120080540
 41
-1.000000000000000
 50
179.999999999996310
  0
ARC
  8
0
  6
CONTINUOUS
 62
3
 10
59.643228862884257
 20
166.602122120080990
 40
3.000000000000000
 50
270.000000000000000
 51
359.999999999991300
  0
LINE
  8
0
  6
CONTINUOUS
 62
3
 10
59.643228862883802
 20
163.602122120080990
 11
54.643228862889714
 21
163.602122120080990
  0
ARC
  8
0
  6
CONTINUOUS
 62
3
 10
54.643228862889714
 20
160.602122120080990
 40
3.000000000000000
 50
90.000000000000000
 51
179.999999999991330
  0
ARC
  8
0
  6
CONTINUOUS
 62
3
 10
64.643228862888805
 20
235.102122120080540
 40
2.000000000000000
 50
90.000000000000000
 51
180.000000000000000
  0
LINE
  8
0
  6
CONTINUOUS
 62
3
 10
74.643228862882893
 20
143.102122120080990
 11
74.643228862888805
 21
237.102122120079630
  0
LINE
  8
0
  6
CONTINUOUS
 62
3
 10
40.143228862884712
 20
83.602122120081901
 11
59.800236731612017
 21
82.571941990332732
  0
ARC
  8
0
  6
CONTINUOUS
 62
3
 10
59.643228862882893
 20
79.576053386069077
 40
3.000000000000000
 50
0.000000000000000
 51
86.999999999994344
  0
LINE
  8
0
  6
CONTINUOUS
 62
3
 10
62.643228862882893
 20
119.602122120081900
 11
62.643228862882893
 21
51.102122120081901
  0
LINE
  8
0
  6
CONTINUOUS
 62
3
 10
60.643228862882893
 20
64.370071312512835
 11
60.643228862882893
 21
51.102122120081901
  0
LINE
  8
0
  6
CONTINUOUS
 62
3
 10
55.143229816557209
 20
65.602122120081901
 11
55.143229816557209
 21
52.602122120081901
  0
LINE
  8
0
  6
CONTINUOUS
 62
3
 10
55.143231081042245
 20
52.602122142782889
 11
54.643230130849020
 21
53.468051713851480
  0
LINE
  8
0
  6
CONTINUOUS
 62
3
 10
55.143230454414947
 20
65.602122144149860
 11
54.643230428267884
 21
64.735998004016153
  0
LINE
  8
0
  6
CONTINUOUS
 62
3
 10
60.643228862882893
 20
52.602122120081901
 11
55.143230770231526
 21
52.602122120081901
  0
LINE
  8
0
  6
CONTINUOUS
 62
3
 10
61.067776290582401
 20
65.602122120081901
 11
55.143229816557209
 21
65.602122120081901
  0
LINE
  8
0
  6
CONTINUOUS
 62
3
 10
54.643229816557209
 20
64.735997966944694
 11
54.643229816557209
 21
53.468051723658562
  0
ARC
  8
0
  6
CONTINUOUS
 62
3
 10
62.643228862882893
 20
51.102122120081901
 40
2.000000000000000
 50
180.000000000000000
 51
270.000000000000000
  0
LINE
  8
0
  6
CONTINUOUS
 62
3
 10
75.143228862882893
 20
49.102122120081901
 11
62.643228862882893
 21
49.102122120081901
  0
ARC
  8
0
  6
CONTINUOUS
 62
3
 10
62.643228862882893
 20
64.370071312512835
 40
2.000000000000164
 50
119.999999999997270
 51
180.000000000000000
  0
ARC
  8
0
  6
CONTINUOUS
 62
3
 10
60.643228862882893
 20
67.834172927650968
 40
2.000000000000164
 50
299.999999999997270
 51
0.000000000000000
  0
LINE
  8
0
  6
CONTINUOUS
 62
3
 10
40.143228862884712
 20
147.102122120081900
 11
40.143228862884712
 21
139.102122120081900
  0
INSERT
  8
0
  2
SYM8
 10
47.143228862888350
 20
132.602122120081900
  0
LINE
  8
0
  6
CONTINUOUS
 62
3
 10
51.643228862888805
 20
122.602122120081900
 11
47.143228862887895
 21
122.602122120081900
  0
LINE
  8
0
  6
CONTINUOUS
 62
3
 10
51.643228862888805
 20
143.102122120081450
 11
51.643228862888805
 21
122.602122120081900
  0
LINE
  8
0
  6
CONTINUOUS
 62
3
 10
47.143228862887895
 20
143.102122120081900
 11
47.143228862887895
 21
122.602122120081900
  0
INSERT
  8
0
  2
SYM9
 10
62.643228862882893
 20
93.102122120081901
  0
ARC
  8
0
  6
CONTINUOUS
 62
3
 10
59.643228862882893
 20
119.602122120081900
 40
3.000000000000000
 50
0.000000000000000
 51
90.000000000000000
  0
LINE
  8
0
  6
CONTINUOUS
 62
3
 10
59.643228862882893
 20
122.602122120081900
 11
54.643228862888805
 21
122.602122120081900
  0
ARC
  8
0
  6
CONTINUOUS
 62
3
 10
54.643228862888805
 20
125.602122120081900
 40
3.000000000000000
 50
180.000000000000000
 51
270.000000000000000
  0
ARC
  8
0
  6
CONTINUOUS
 62
3
 10
64.643228862882893
 20
51.102122120081901
 40
2.000000000000000
 50
180.000000000000000
 51
270.000000000000000
  0
LINE
  8
0
  6
CONTINUOUS
 62
3
 10
74.643228862882893
 20
143.102122120080540
 11
74.643228862882893
 21
49.102122120081901
  0
LINE
  8
0
  6
DASHDOT
 62
4
 10
170.143228862882890
 20
45.291020619217932
 11
170.143228862882890
 21
65.834934340994266
  0
LINE
  8
0
  6
DASHDOT
 62
4
 10
180.688483796862220
 20
55.602122120080537
 11
159.541247307622480
 21
55.602122120080537
  0
LINE
  8
0
  6
DASHDOT
 62
4
 10
35.143228862882893
 20
46.281088750388051
 11
35.143228862882893
 21
65.587417308198098
  0
LINE
  8
0
  6
DASHDOT
 62
4
 10
44.554115760890795
 20
55.602122120080537
 11
26.732889399814098
 21
55.602122120080537
  0
INSERT
  8
0
  2
SYM10
 10
34.143221001567667
 20
98.907948295921130
  0
LINE
  8
0
  6
CONTINUOUS
 62
3
 10
13.143228862849696
 20
94.602122120080537
 11
13.143228862849696
 21
127.102122120080530
  0
ARC
  8
0
  6
CONTINUOUS
 62
3
 10
36.143228862884257
 20
85.814497929208471
 40
2.000000000000000
 50
180.000000000000000
 51
267.000000000007280
  0
LINE
  8
0
  6
CONTINUOUS
 62
3
 10
34.143228862884257
 20
85.814497929208471
 11
34.143228862884257
 21
110.671545196797920
  0
LINE
  8
0
  6
CONTINUOUS
 62
3
 10
40.143228862884257
 20
85.802122120082856
 11
40.143228862884257
 21
83.602122120080537
  0
LINE
  8
0
  6
DASHDOT
 62
4
 10
24.143228862884257
 20
133.401342761152760
 11
24.143228862884257
 21
154.261612063858760
  0
LINE
  8
0
  6
CONTINUOUS
 62
3
 10
40.143228862884257
 20
83.602122120080537
 11
32.986220994156042
 21
83.977205008791714
  0
ARC
  8
0
  6
CONTINUOUS
 62
3
 10
33.143228862884712
 20
86.973093613055596
 40
3.000000000000000
 50
180.000000000000000
 51
267.000000000003010
  0
ARC
  8
0
  6
CONTINUOUS
 62
3
 10
32.143228862884257
 20
110.671545196797920
 40
2.000000000000000
 50
0.000000000000000
 51
90.000000000000000
  0
ARC
  8
0
  6
CONTINUOUS
 62
3
 10
32.143228862884712
 20
114.671545196797920
 40
2.000000000000000
 50
180.000000000000000
 51
270.000000000000000
  0
LINE
  8
0
  6
CONTINUOUS
 62
3
 10
-1.856771137119381
 20
89.602122120080537
 11
27.143228862884712
 21
89.602122120080537
  0
ARC
  8
0
  6
CONTINUOUS
 62
3
 10
8.143228862849696
 20
94.602122120080537
 40
5.000000000000000
 50
270.000000000000000
 51
0.000000000000000
  0
LINE
  8
0
  6
CONTINUOUS
 62
3
 10
-1.856771137118926
 20
92.102122120080537
 11
8.143228862849696
 21
92.102122120080537
  0
ARC
  8
0
  6
CONTINUOUS
 62
3
 10
8.143228862849696
 20
97.102122120080537
 40
5.000000000000000
 50
270.000000000000000
 51
0.000000000000000
  0
ARC
  8
0
  6
CONTINUOUS
 62
3
 10
27.143228862884712
 20
86.602122120080537
 40
3.000000000000000
 50
0.000000000000000
 51
90.000000000000000
  0
LINE
  8
0
  6
CONTINUOUS
 62
3
 10
-1.856771137117107
 20
130.102122120080540
 11
35.143228862884257
 21
130.102122120080540
  0
ARC
  8
0
  6
CONTINUOUS
 62
3
 10
16.143228862849696
 20
127.102122120080530
 40
3.000000000000000
 50
90.000000000000000
 51
180.000000000000000
  0
CIRCLE
  8
0
  6
CONTINUOUS
 62
3
 10
24.143228862884257
 20
143.102122120080540
 40
8.349999999999909
  0
ARC
  8
0
  6
CONTINUOUS
 62
3
 10
16.143228862849696
 20
109.671545196797920
 40
3.000000000000000
 50
90.000000000000000
 51
180.000000000000000
  0
LINE
  8
0
  6
CONTINUOUS
 62
3
 10
30.143228862884712
 20
112.671545196797920
 11
16.143228862849696
 21
112.671545196797920
  0
LINE
  8
0
  6
CONTINUOUS
 62
3
 10
30.143228862884712
 20
86.973093613055596
 11
30.143228862884712
 21
130.102122120080540
  0
INSERT
  8
0
  2
SYM11
 10
34.143221001567667
 20
187.296295944239940
 41
-1.000000000000000
 50
180.000000000000000
  0
LINE
  8
0
  6
CONTINUOUS
 62
3
 10
13.143228862849696
 20
191.602122120080540
 11
13.143228862849696
 21
159.102122120080540
  0
ARC
  8
0
  6
CONTINUOUS
 62
3
 10
36.143228862884257
 20
200.389746310952600
 40
2.000000000000093
 50
92.999999999992411
 51
180.000000000000000
  0
LINE
  8
0
  6
CONTINUOUS
 62
3
 10
34.143228862884257
 20
200.389746310952600
 11
34.143228862884257
 21
175.532699043363380
  0
LINE
  8
0
  6
CONTINUOUS
 62
3
 10
40.143228862884257
 20
200.402122120078450
 11
40.143228862884257
 21
202.602122120080540
  0
LINE
  8
0
  6
CONTINUOUS
 62
3
 10
40.143228862884257
 20
202.602122120080540
 11
32.986220994156042
 21
202.227039231369360
  0
ARC
  8
0
  6
CONTINUOUS
 62
3
 10
33.143228862884712
 20
199.231150627105710
 40
2.999999999999925
 50
92.999999999996973
 51
180.000000000000000
  0
ARC
  8
0
  6
CONTINUOUS
 62
3
 10
32.143228862884257
 20
175.532699043363380
 40
2.000000000000000
 50
270.000000000000000
 51
0.000000000000000
  0
ARC
  8
0
  6
CONTINUOUS
 62
3
 10
32.143228862884712
 20
171.532699043363380
 40
2.000000000000000
 50
90.000000000000000
 51
180.000000000000000
  0
LINE
  8
0
  6
CONTINUOUS
 62
3
 10
-1.856771137119381
 20
196.602122120080540
 11
27.143228862884712
 21
196.602122120080540
  0
ARC
  8
0
  6
CONTINUOUS
 62
3
 10
8.143228862849696
 20
191.602122120080540
 40
5.000000000000000
 50
0.000000000000000
 51
90.000000000000000
  0
LINE
  8
0
  6
CONTINUOUS
 62
3
 10
-1.856771137118926
 20
194.102122120080540
 11
8.143228862849696
 21
194.102122120080540
  0
ARC
  8
0
  6
CONTINUOUS
 62
3
 10
8.143228862849696
 20
189.102122120080540
 40
5.000000000000000
 50
0.000000000000000
 51
90.000000000000000
  0
ARC
  8
0
  6
CONTINUOUS
 62
3
 10
27.143228862884712
 20
199.602122120080540
 40
3.000000000000000
 50
270.000000000000000
 51
0.000000000000000
  0
LINE
  8
0
  6
CONTINUOUS
 62
3
 10
-1.856771137117107
 20
156.102122120080540
 11
35.143228862884257
 21
156.102122120080540
  0
ARC
  8
0
  6
CONTINUOUS
 62
3
 10
16.143228862849696
 20
159.102122120080540
 40
3.000000000000000
 50
180.000000000000000
 51
270.000000000000000
  0
ARC
  8
0
  6
CONTINUOUS
 62
3
 10
16.143228862849696
 20
176.532699043363380
 40
3.000000000000000
 50
180.000000000000000
 51
270.000000000000000
  0
LINE
  8
0
  6
CONTINUOUS
 62
3
 10
30.143228862884712
 20
173.532699043363380
 11
16.143228862849696
 21
173.532699043363380
  0
LINE
  8
0
  6
CONTINUOUS
 62
3
 10
30.143228862884712
 20
199.231150627105710
 11
30.143228862884712
 21
156.102122120080540
  0
LINE
  8
0
  6
CONTINUOUS
 62
3
 10
40.143228862885621
 20
126.102122120079170
 11
40.143228862888350
 21
83.602122120079173
  0
LINE
  8
0
  6
CONTINUOUS
 62
3
 10
40.143228862885621
 20
160.102122120081900
 11
40.143228862888350
 21
202.602122120081900
  0
LINE
  8
0
  6
DASHDOT
 62
4
 10
-239.059965489002930
 20
143.102122120080540
 11
253.223927075247840
 21
143.102122120080540
  0
ARC
  8
0
  6
CONTINUOUS
 62
3
 10
35.143228862884257
 20
153.102122120080540
 40
3.000000000000000
 50
0.000000000000000
 51
90.000000000000000
  0
ARC
  8
0
  6
CONTINUOUS
 62
3
 10
35.143228862884257
 20
133.102122120080540
 40
3.000000000000000
 50
270.000000000000000
 51
0.000000000000000
  0
LINE
  8
0
  6
CONTINUOUS
 62
3
 10
38.143228862884257
 20
153.102122120080540
 11
38.143228862884257
 21
133.102122120080540
  0
ARC
  8
0
  6
CONTINUOUS
 62
3
 10
-353.878461394154900
 20
-6.397877879919477
 40
10.000000000000000
 50
0.000000000000000
 51
90.000000000000000
  0
LINE
  8
0
  6
CONTINUOUS
 62
3
 10
-353.878461394154900
 20
3.602122120080523
 11
-374.878461394154900
 21
3.602122120080523
  0
ARC
  8
0
  6
CONTINUOUS
 62
3
 10
-374.878461394154900
 20
-6.397877879919477
 40
10.000000000000000
 50
90.000000000000000
 51
180.000000000000000
  0
ARC
  8
0
  6
CONTINUOUS
 62
3
 10
-403.809328394242240
 20
-61.475931137621117
 40
6.600000000000009
 50
95.743681810995099
 51
135.000000000002790
  0
ARC
  8
0
  6
CONTINUOUS
 62
3
 10
-364.378461394154900
 20
-453.497877879919600
 40
400.599999999999910
 50
90.000000000000000
 51
95.743681810993436
  0
ARC
  8
0
  6
CONTINUOUS
 62
3
 10
-401.368528632301260
 20
-78.834121248903855
 40
20.600000000000069
 50
135.000000000002670
 51
174.247717268463500
  0
LINE
  8
0
  6
CONTINUOUS
 62
3
 10
-415.934928324744870
 20
-64.267721556461609
 11
-408.476233150073880
 21
-56.809026381789934
  0
ARC
  8
0
  6
CONTINUOUS
 62
3
 10
-122.778461394154470
 20
-106.897877879919470
 40
300.599999999999970
 50
174.247717268463390
 51
180.000000000000000
  0
ARC
  8
0
  6
CONTINUOUS
 62
3
 10
-403.809328394242240
 20
-152.319824622217820
 40
6.600000000000278
 50
224.999999999997190
 51
264.256318189004900
  0
ARC
  8
0
  6
CONTINUOUS
 62
3
 10
-364.378461394154900
 20
239.702122120080670
 40
400.599999999999910
 50
264.256318189006550
 51
270.000000000000000
  0
ARC
  8
0
  6
CONTINUOUS
 62
3
 10
-401.368528632301260
 20
-134.961634510935080
 40
20.599999999999916
 50
185.752282731536500
 51
224.999999999997330
  0
LINE
  8
0
  6
CONTINUOUS
 62
3
 10
-415.934928324744870
 20
-149.528034203377330
 11
-408.476233150073880
 21
-156.986729378049010
  0
ARC
  8
0
  6
CONTINUOUS
 62
3
 10
-122.778461394154470
 20
-106.897877879919470
 40
300.600000000000420
 50
180.000000000000000
 51
185.752282731536610
  0
ARC
  8
0
  6
CONTINUOUS
 62
3
 10
-324.947594394067550
 20
-152.319824622217820
 40
6.600000000000021
 50
275.743681810996070
 51
315.000000000003520
  0
ARC
  8
0
  6
CONTINUOUS
 62
3
 10
-364.378461394154900
 20
239.702122120080670
 40
400.599999999999910
 50
270.000000000000000
 51
275.743681810993450
  0
ARC
  8
0
  6
CONTINUOUS
 62
3
 10
-327.388394156008530
 20
-134.961634510935080
 40
20.600000000000112
 50
315.000000000002790
 51
354.247717268463530
  0
LINE
  8
0
  6
CONTINUOUS
 62
3
 10
-312.821994463564860
 20
-149.528034203377330
 11
-320.280689638235800
 21
-156.986729378049010
  0
ARC
  8
0
  6
CONTINUOUS
 62
3
 10
-605.978461394155260
 20
-106.897877879919470
 40
300.599999999999970
 50
354.247717268463420
 51
0.000000000000000
  0
ARC
  8
0
  6
CONTINUOUS
 62
4
 10
-605.978461394155260
 20
-106.897877879919470
 40
290.797000000000540
 50
0.000000000000000
 51
5.752282731536623
  0
LINE
  8
0
  6
CONTINUOUS
 62
4
 10
-319.753762239537080
 20
-71.199489332432975
 11
-325.641176111576560
 21
-65.312075460392933
  0
ARC
  8
0
  6
CONTINUOUS
 62
4
 10
-327.388394156008530
 20
-78.834121248903855
 40
10.797000000000066
 50
5.752282731536882
 51
44.999999999997875
  0
ARC
  8
0
  6
CONTINUOUS
 62
3
 10
-605.978461394155260
 20
-106.897877879919470
 40
300.600000000000420
 50
0.000000000000000
 51
5.752282731536603
  0
LINE
  8
0
  6
CONTINUOUS
 62
3
 10
-312.821994463564860
 20
-64.267721556461609
 11
-320.280689638235800
 21
-56.809026381789934
  0
ARC
  8
0
  6
CONTINUOUS
 62
3
 10
-327.388394156008530
 20
-78.834121248903855
 40
20.599999999999973
 50
5.752282731536472
 51
44.999999999997215
  0
ARC
  8
0
  6
CONTINUOUS
 62
4
 10
-122.778461394154700
 20
-106.897877879919470
 40
290.796999999999970
 50
174.998349729065040
 51
180.000000000000000
  0
LINE
  8
0
  6
CONTINUOUS
 62
4
 10
-406.456051710010910
 20
-68.652380493670833
 11
-403.115746676733240
 21
-65.312075460392933
  0
ARC
  8
0
  6
CONTINUOUS
 62
4
 10
-391.750351981674270
 20
-83.358080222007473
 40
20.797000000000015
 50
135.000000000000000
 51
174.998349729064670
  0
ARC
  8
0
  6
CONTINUOUS
 62
4
 10
-364.378461394154900
 20
-453.497877879919600
 40
390.797000000000030
 50
90.000000000000000
 51
95.417963762360529
  0
ARC
  8
0
  6
CONTINUOUS
 62
4
 10
-400.994426333173240
 20
-67.433395803952706
 40
3.000000000000067
 50
95.417963762365673
 51
135.000000000003040
  0
ARC
  8
0
  6
CONTINUOUS
 62
4
 10
-122.778461394154700
 20
-106.897877879919470
 40
290.797000000000310
 50
180.000000000000000
 51
185.001650270934930
  0
LINE
  8
0
  6
CONTINUOUS
 62
4
 10
-406.456051710010910
 20
-145.143375266168110
 11
-403.115746676733240
 21
-148.483680299446010
  0
ARC
  8
0
  6
CONTINUOUS
 62
4
 10
-391.750351981674270
 20
-130.437675537831470
 40
20.796999999999880
 50
185.001650270935330
 51
225.000000000000000
  0
ARC
  8
0
  6
CONTINUOUS
 62
4
 10
-364.378461394154900
 20
239.702122120080670
 40
390.797000000000030
 50
264.582036237639500
 51
270.000000000000000
  0
ARC
  8
0
  6
CONTINUOUS
 62
4
 10
-400.994426333173240
 20
-146.362359955886230
 40
3.000000000000346
 50
224.999999999996960
 51
264.582036237634270
  0
ARC
  8
0
  6
CONTINUOUS
 62
4
 10
-605.978461394155260
 20
-106.897877879919470
 40
290.797000000000140
 50
354.998349729065010
 51
0.000000000000000
  0
LINE
  8
0
  6
CONTINUOUS
 62
4
 10
-322.300871078298770
 20
-145.143375266168110
 11
-325.641176111576560
 21
-148.483680299446010
  0
ARC
  8
0
  6
CONTINUOUS
 62
4
 10
-337.006570806635520
 20
-130.437675537831470
 40
20.797000000000097
 50
315.000000000000230
 51
354.998349729064670
  0
ARC
  8
0
  6
CONTINUOUS
 62
4
 10
-364.378461394154900
 20
239.702122120080670
 40
390.797000000000030
 50
270.000000000000000
 51
275.417963762360500
  0
ARC
  8
0
  6
CONTINUOUS
 62
4
 10
-327.762496455136560
 20
-146.362359955886230
 40
3.000000000000067
 50
275.417963762365730
 51
315.000000000003070
  0
ARC
  8
0
  6
CONTINUOUS
 62
4
 10
-327.762496455136560
 20
-67.433395803952706
 40
3.000000000000346
 50
44.999999999996930
 51
84.582036237634313
  0
ARC
  8
0
  6
CONTINUOUS
 62
4
 10
-364.378461394154900
 20
-453.497877879919600
 40
390.797000000000030
 50
84.582036237639471
 51
90.000000000000000
  0
ARC
  8
0
  6
CONTINUOUS
 62
3
 10
-324.947594394067550
 20
-61.475931137621117
 40
6.600000000000358
 50
44.999999999996511
 51
84.256318189003920
  0
ARC
  8
0
  6
CONTINUOUS
 62
3
 10
-364.378461394154900
 20
-453.497877879919600
 40
400.599999999999910
 50
84.256318189006564
 51
90.000000000000000
  0
ARC
  8
0
  6
CONTINUOUS
 62
3
 10
-367.878461394154900
 20
-141.722438178651200
 40
1.000000000000000
 50
0.000000000000000
 51
84.260829522738291
  0
ARC
  8
0
  6
CONTINUOUS
 62
3
 10
-367.878461394154900
 20
-144.736350364944490
 40
1.000000000000042
 50
264.715267045464260
 51
0.000000000000000
  0
ARC
  8
0
  6
CONTINUOUS
 62
3
 10
-367.878461394154900
 20
-136.189514911673140
 40
1.000000000000077
 50
263.186145655820330
 51
0.000000000000000
  0
LINE
  8
0
  6
CONTINUOUS
 62
3
 10
-366.878461394154900
 20
-144.736350364944490
 11
-366.878461394154900
 21
-141.722438178651200
  0
ARC
  8
0
  6
CONTINUOUS
 62
3
 10
-381.419390077527740
 20
-112.695010758178640
 40
0.999999999999885
 50
300.000000000003810
 51
18.787728582346993
  0
LINE
  8
0
  6
CONTINUOUS
 62
3
 10
-383.560625234584340
 20
-115.085953990882510
 11
-380.919390077527740
 21
-113.561036161962940
  0
ARC
  8
0
  6
CONTINUOUS
 62
3
 10
-384.060625234584340
 20
-114.219928587098210
 40
1.000000000000094
 50
200.405931773138690
 51
300.000000000003810
  0
ARC
  8
0
  6
CONTINUOUS
 62
3
 10
-388.877087726309240
 20
-117.000714503237830
 40
1.000000000000082
 50
299.999999999997270
 51
22.410457608146043
  0
ARC
  8
0
  6
CONTINUOUS
 62
3
 10
-396.287415288479340
 20
-121.279069116039700
 40
1.000000000000082
 50
299.999999999997270
 51
24.260829522733715
  0
LINE
  8
0
  6
CONTINUOUS
 62
3
 10
-390.995763182086760
 20
-119.378632886335320
 11
-388.377087726309240
 21
-117.866739907022360
  0
ARC
  8
0
  6
CONTINUOUS
 62
3
 10
-391.495763182086760
 20
-118.512607482550790
 40
0.999999999999730
 50
203.186145655819840
 51
299.999999999997270
  0
LINE
  8
0
  6
CONTINUOUS
 62
3
 10
-398.397539806585090
 20
-123.652050612970760
 11
-395.787415288479340
 21
-122.145094519824240
  0
ARC
  8
0
  6
CONTINUOUS
 62
3
 10
-398.897539806585090
 20
-122.786025209186460
 40
1.000000000000248
 50
204.715267045455480
 51
300.000000000003810
  0
ARC
  8
0
  6
CONTINUOUS
 62
3
 10
-395.397539806585090
 20
-128.848203035677730
 40
1.000000000000070
 50
119.999999999997660
 51
215.284732954534320
  0
ARC
  8
0
  6
CONTINUOUS
 62
3
 10
-392.787415288479340
 20
-127.341246942530750
 40
0.999999999999807
 50
35.739170477263521
 51
120.000000000003780
  0
ARC
  8
0
  6
CONTINUOUS
 62
3
 10
-367.878461394154900
 20
-133.165728953046770
 40
1.000000000000000
 50
0.000000000000000
 51
82.410457608145762
  0
ARC
  8
0
  6
CONTINUOUS
 62
3
 10
-387.995763182086760
 20
-124.574785309041610
 40
0.999999999999885
 50
120.000000000003780
 51
216.813854344197100
  0
ARC
  8
0
  6
CONTINUOUS
 62
3
 10
-385.377087726309700
 20
-123.062892329728650
 40
1.000000000000194
 50
37.589542391851793
 51
119.999999999997270
  0
ARC
  8
0
  6
CONTINUOUS
 62
3
 10
-367.878461394154900
 20
-127.604157120767990
 40
1.000000000000254
 50
260.405931773124390
 51
0.000000000000000
  0
ARC
  8
0
  6
CONTINUOUS
 62
3
 10
-367.878461394154900
 20
-124.554321462929080
 40
1.000000000000000
 50
0.000000000000000
 51
78.787728582355996
  0
ARC
  8
0
  6
CONTINUOUS
 62
3
 10
-380.560625234583880
 20
-120.282106413589260
 40
0.999999999999885
 50
120.000000000003780
 51
219.594068226860460
  0
ARC
  8
0
  6
CONTINUOUS
 62
3
 10
-377.919390077527740
 20
-118.757188584669910
 40
1.000000000000165
 50
41.212271417643841
 51
119.999999999997270
  0
ARC
  8
0
  6
CONTINUOUS
 62
3
 10
-373.020766239568390
 20
-115.928966793164880
 40
0.999999999999885
 50
120.000000000003780
 51
226.260204708328700
  0
ARC
  8
0
  6
CONTINUOUS
 62
3
 10
-367.878461394154900
 20
-118.897877879919470
 40
0.999999999999964
 50
253.739795291702650
 51
0.000000000000000
  0
ARC
  8
0
  6
CONTINUOUS
 62
3
 10
-367.878461394154900
 20
-115.729638746247310
 40
1.000000000000000
 50
0.000000000000000
 51
68.381727577838021
  0
ARC
  8
0
  6
CONTINUOUS
 62
3
 10
-370.276990664544090
 20
-114.344847226328810
 40
0.999999999999961
 50
51.618272422159777
 51
120.000000000003780
  0
ARC
  8
0
  6
CONTINUOUS
 62
3
 10
-364.378461394154900
 20
-106.897877879919470
 40
38.999999999999858
 50
215.284732954534770
 51
264.715267045465400
  0
ARC
  8
0
  6
CONTINUOUS
 62
3
 10
-364.378461394154900
 20
-106.897877879919470
 40
30.499999999999964
 50
216.813854344181070
 51
263.186145655818960
  0
ARC
  8
0
  6
CONTINUOUS
 62
3
 10
-364.378461394154900
 20
-106.897877879919470
 40
33.999999999999964
 50
215.739170477266950
 51
264.260829522733050
  0
ARC
  8
0
  6
CONTINUOUS
 62
3
 10
-364.378461394154900
 20
-106.897877879919470
 40
25.499999999999890
 50
217.589542391857950
 51
262.410457608141830
  0
ARC
  8
0
  6
CONTINUOUS
 62
3
 10
-364.378461394154900
 20
-106.897877879919470
 40
22.000000000000025
 50
219.594068226860800
 51
260.405931773138780
  0
ARC
  8
0
  6
CONTINUOUS
 62
3
 10
-364.378461394154900
 20
-106.897877879919470
 40
16.999999999999773
 50
221.212271417650780
 51
258.787728582349980
  0
ARC
  8
0
  6
CONTINUOUS
 62
3
 10
-364.378461394154900
 20
-106.897877879919470
 40
13.499999999999927
 50
226.260204708312130
 51
253.739795291689150
  0
ARC
  8
0
  6
CONTINUOUS
 62
3
 10
-364.378461394154900
 20
-106.897877879919470
 40
8.499999999999948
 50
231.618272422157330
 51
248.381727577842330
  0
LINE
  8
0
  6
CONTINUOUS
 62
3
 10
-388.495763182086760
 20
-123.708759905257310
 11
-385.877087726309700
 21
-122.196866925944120
  0
LINE
  8
0
  6
CONTINUOUS
 62
3
 10
-395.897539806585090
 20
-127.982177631893200
 11
-393.287415288479340
 21
-126.475221538746450
  0
LINE
  8
0
  6
CONTINUOUS
 62
3
 10
-381.060625234583880
 20
-119.416081009804950
 11
-378.419390077527740
 21
-117.891163180885380
  0
LINE
  8
0
  6
CONTINUOUS
 62
3
 10
-373.520766239568390
 20
-115.062941389380580
 11
-370.776990664544090
 21
-113.478821822544500
  0
LINE
  8
0
  6
CONTINUOUS
 62
3
 10
-366.878461394154900
 20
-118.897877879919470
 11
-366.878461394154900
 21
-115.729638746247310
  0
LINE
  8
0
  6
CONTINUOUS
 62
3
 10
-366.878461394154900
 20
-127.604157120767990
 11
-366.878461394154900
 21
-124.554321462929080
  0
LINE
  8
0
  6
CONTINUOUS
 62
3
 10
-366.878461394154900
 20
-136.189514911673140
 11
-366.878461394154900
 21
-133.165728953046770
  0
ARC
  8
0
  6
CONTINUOUS
 62
3
 10
-373.776990664544090
 20
-108.282669399837980
 40
0.999999999999885
 50
300.000000000003810
 51
8.381727577845549
  0
ARC
  8
0
  6
CONTINUOUS
 62
3
 10
-364.378461394154900
 20
-106.897877879919470
 40
8.499999999999972
 50
171.618272422157790
 51
188.381727577842210
  0
LINE
  8
0
  6
CONTINUOUS
 62
3
 10
-376.020766239568390
 20
-110.732814370458370
 11
-373.276990664544090
 21
-109.148694803622290
  0
ARC
  8
0
  6
CONTINUOUS
 62
3
 10
-376.520766239568390
 20
-109.866788966674060
 40
0.999999999999879
 50
193.739795291686050
 51
300.000000000003810
  0
ARC
  8
0
  6
CONTINUOUS
 62
3
 10
-367.878461394154900
 20
-89.241434296909873
 40
0.999999999999982
 50
281.212271417643990
 51
0.000000000000000
  0
LINE
  8
0
  6
CONTINUOUS
 62
3
 10
-366.878461394154900
 20
-86.191598639070961
 11
-366.878461394154900
 21
-89.241434296909873
  0
ARC
  8
0
  6
CONTINUOUS
 62
3
 10
-367.878461394154900
 20
-86.191598639070961
 40
1.000000000000000
 50
0.000000000000000
 51
99.594068226875478
  0
ARC
  8
0
  6
CONTINUOUS
 62
3
 10
-367.878461394154900
 20
-80.630026806792173
 40
0.999999999999749
 50
277.589542391855960
 51
0.000000000013028
  0
LINE
  8
0
  6
CONTINUOUS
 62
3
 10
-366.878461394154900
 20
-77.606240848165797
 11
-366.878461394154900
 21
-80.630026806791946
  0
ARC
  8
0
  6
CONTINUOUS
 62
3
 10
-367.878461394154900
 20
-77.606240848165797
 40
1.000000000000000
 50
0.000000000000000
 51
96.813854344179688
  0
ARC
  8
0
  6
CONTINUOUS
 62
3
 10
-367.878461394154900
 20
-72.073317581187737
 40
0.999999999999973
 50
275.739170477261670
 51
0.000000000000000
  0
LINE
  8
0
  6
CONTINUOUS
 62
3
 10
-366.878461394154900
 20
-69.059405394894455
 11
-366.878461394154900
 21
-72.073317581187737
  0
ARC
  8
0
  6
CONTINUOUS
 62
3
 10
-367.878461394154900
 20
-69.059405394894455
 40
1.000000000000000
 50
0.000000000000000
 51
95.284732954535698
  0
ARC
  8
0
  6
CONTINUOUS
 62
3
 10
-387.995763182086760
 20
-89.220970450797111
 40
0.999999999999774
 50
143.186145655813330
 51
240.000000000002730
  0
LINE
  8
0
  6
CONTINUOUS
 62
3
 10
-388.495763182086760
 20
-90.086995854581644
 11
-385.877087726309240
 21
-91.598888833894833
  0
ARC
  8
0
  6
CONTINUOUS
 62
3
 10
-385.377087726309240
 20
-90.732863430110299
 40
1.000000000000082
 50
240.000000000002730
 51
322.410457608132330
  0
ARC
  8
0
  6
CONTINUOUS
 62
3
 10
-395.397539806585090
 20
-84.947552724161440
 40
0.999999999999908
 50
144.715267045455050
 51
239.999999999996220
  0
LINE
  8
0
  6
CONTINUOUS
 62
3
 10
-395.897539806585090
 20
-85.813578127945746
 11
-393.287415288479340
 21
-87.320534221092501
  0
ARC
  8
0
  6
CONTINUOUS
 62
3
 10
-392.787415288479340
 20
-86.454508817308195
 40
0.999999999999885
 50
239.999999999996220
 51
324.260829522725940
  0
ARC
  8
0
  6
CONTINUOUS
 62
3
 10
-370.276990664544090
 20
-99.450908533509917
 40
1.000000000000082
 50
240.000000000002730
 51
308.381727577840190
  0
LINE
  8
0
  6
CONTINUOUS
 62
3
 10
-373.520766239568390
 20
-98.732814370458371
 11
-370.776990664544090
 21
-100.316933937294450
  0
ARC
  8
0
  6
CONTINUOUS
 62
3
 10
-377.919390077527740
 20
-95.038567175169263
 40
0.999999999999885
 50
239.999999999996220
 51
318.787728582348790
  0
LINE
  8
0
  6
CONTINUOUS
 62
3
 10
-381.060625234583880
 20
-94.379674750033999
 11
-378.419390077527740
 21
-95.904592578953569
  0
ARC
  8
0
  6
CONTINUOUS
 62
3
 10
-380.560625234583880
 20
-93.513649346249466
 40
1.000000000000173
 50
140.405931773149600
 51
240.000000000002730
  0
ARC
  8
0
  6
CONTINUOUS
 62
3
 10
-367.878461394154900
 20
-98.066117013591636
 40
1.000000000000090
 50
291.618272422161970
 51
0.000000000000000
  0
ARC
  8
0
  6
CONTINUOUS
 62
3
 10
-364.378461394154900
 20
-106.897877879919470
 40
8.499999999999904
 50
111.618272422157710
 51
128.381727577841670
  0
ARC
  8
0
  6
CONTINUOUS
 62
3
 10
-373.020766239568390
 20
-97.866788966674065
 40
0.999999999999858
 50
133.739795291671300
 51
239.999999999996220
  0
LINE
  8
0
  6
CONTINUOUS
 62
3
 10
-366.878461394154900
 20
-94.897877879919477
 11
-366.878461394154900
 21
-98.066117013591636
  0
ARC
  8
0
  6
CONTINUOUS
 62
3
 10
-367.878461394154900
 20
-94.897877879919477
 40
1.000000000000000
 50
0.000000000000000
 51
106.260204708297360
  0
ARC
  8
0
  6
CONTINUOUS
 62
3
 10
-364.378461394154900
 20
-106.897877879919470
 40
13.499999999999963
 50
106.260204708310860
 51
133.739795291687870
  0
ARC
  8
0
  6
CONTINUOUS
 62
3
 10
-364.378461394154900
 20
-106.897877879919470
 40
17.000000000000046
 50
101.212271417650010
 51
138.787728582350240
  0
ARC
  8
0
  6
CONTINUOUS
 62
3
 10
-364.378461394154900
 20
-106.897877879919470
 40
22.000000000000131
 50
99.594068226861211
 51
140.405931773139200
  0
ARC
  8
0
  6
CONTINUOUS
 62
3
 10
-364.378461394154900
 20
-106.897877879919470
 40
30.500000000000135
 50
96.813854344181038
 51
143.186145655818930
  0
ARC
  8
0
  6
CONTINUOUS
 62
3
 10
-364.378461394154900
 20
-106.897877879919470
 40
25.500000000000160
 50
97.589542391858117
 51
142.410457608142050
  0
ARC
  8
0
  6
CONTINUOUS
 62
3
 10
-364.378461394154900
 20
-106.897877879919470
 40
34.000000000000071
 50
95.739170477266924
 51
144.260829522733360
  0
ARC
  8
0
  6
CONTINUOUS
 62
3
 10
-364.378461394154900
 20
-106.897877879919470
 40
38.999999999999986
 50
95.284732954534590
 51
144.715267045465200
  0
ARC
  8
0
  6
CONTINUOUS
 62
3
 10
-391.495763182086760
 20
-95.283148277288163
 40
1.000000000000082
 50
60.000000000002721
 51
156.813854344180160
  0
LINE
  8
0
  6
CONTINUOUS
 62
3
 10
-390.995763182086760
 20
-94.417122873503629
 11
-388.377087726309240
 21
-95.929015852816818
  0
ARC
  8
0
  6
CONTINUOUS
 62
3
 10
-388.877087726309240
 20
-96.795041256601351
 40
0.999999999999701
 50
337.589542391853970
 51
60.000000000002721
  0
ARC
  8
0
  6
CONTINUOUS
 62
3
 10
-398.897539806585090
 20
-91.009730550652492
 40
1.000000000000082
 50
60.000000000002721
 51
155.284732954544520
  0
LINE
  8
0
  6
CONTINUOUS
 62
3
 10
-398.397539806585090
 20
-90.143705146867958
 11
-395.787415288479340
 21
-91.650661240014713
  0
ARC
  8
0
  6
CONTINUOUS
 62
3
 10
-396.287415288479340
 20
-92.516686643799019
 40
0.999999999999863
 50
335.739170477254390
 51
59.999999999996206
  0
ARC
  8
0
  6
CONTINUOUS
 62
3
 10
-373.776990664544090
 20
-105.513086360001190
 40
1.000000000000026
 50
351.618272422167310
 51
60.000000000002721
  0
LINE
  8
0
  6
CONTINUOUS
 62
3
 10
-376.020766239568390
 20
-103.062941389380580
 11
-373.276990664544090
 21
-104.647060956216660
  0
ARC
  8
0
  6
CONTINUOUS
 62
3
 10
-381.419390077527740
 20
-101.100745001660310
 40
1.000000000000076
 50
341.212271417652970
 51
60.000000000002721
  0
LINE
  8
0
  6
CONTINUOUS
 62
3
 10
-383.560625234584340
 20
-98.709801768956439
 11
-380.919390077527740
 21
-100.234719597875780
  0
ARC
  8
0
  6
CONTINUOUS
 62
3
 10
-384.060625234584340
 20
-99.575827172740745
 40
0.999999999999885
 50
59.999999999996206
 51
159.594068226861310
  0
ARC
  8
0
  6
CONTINUOUS
 62
3
 10
-376.520766239568390
 20
-103.928966793164880
 40
0.999999999999885
 50
59.999999999996206
 51
166.260204708307780
  0
ARC
  8
0
  6
CONTINUOUS
 62
3
 10
-364.378461394154900
 20
-106.897877879919470
 40
13.499999999999687
 50
166.260204708311360
 51
193.739795291688180
  0
ARC
  8
0
  6
CONTINUOUS
 62
3
 10
-364.378461394154900
 20
-106.897877879919470
 40
16.999999999999716
 50
161.212271417649560
 51
198.787728582350440
  0
ARC
  8
0
  6
CONTINUOUS
 62
3
 10
-364.378461394154900
 20
-106.897877879919470
 40
22.000000000000206
 50
159.594068226860770
 51
200.405931773139230
  0
ARC
  8
0
  6
CONTINUOUS
 62
3
 10
-364.378461394154900
 20
-106.897877879919470
 40
30.499999999999947
 50
156.813854344181150
 51
203.186145655818850
  0
ARC
  8
0
  6
CONTINUOUS
 62
3
 10
-364.378461394154900
 20
-106.897877879919470
 40
25.500000000000000
 50
157.589542391857980
 51
202.410457608142480
  0
ARC
  8
0
  6
CONTINUOUS
 62
3
 10
-364.378461394154900
 20
-106.897877879919470
 40
34.000000000000007
 50
155.739170477266780
 51
204.260829522733220
  0
ARC
  8
0
  6
CONTINUOUS
 62
3
 10
-364.378461394154900
 20
-106.897877879919470
 40
39.000000000000220
 50
155.284732954534800
 51
204.715267045465200
  0
LINE
  8
0
  6
CONTINUOUS
 62
3
 10
-361.878461394154900
 20
-136.189514911673140
 11
-361.878461394154900
 21
-133.165728953046770
  0
LINE
  8
0
  6
CONTINUOUS
 62
3
 10
-361.878461394154900
 20
-127.604157120767990
 11
-361.878461394154900
 21
-124.554321462929080
  0
LINE
  8
0
  6
CONTINUOUS
 62
3
 10
-361.878461394154900
 20
-118.897877879919470
 11
-361.878461394154900
 21
-115.729638746247310
  0
LINE
  8
0
  6
CONTINUOUS
 62
3
 10
-355.236156548741410
 20
-115.062941389380580
 11
-357.979932123765710
 21
-113.478821822544500
  0
LINE
  8
0
  6
CONTINUOUS
 62
3
 10
-347.696297553725910
 20
-119.416081009804950
 11
-350.337532710782060
 21
-117.891163180885380
  0
LINE
  8
0
  6
CONTINUOUS
 62
3
 10
-332.859382981724710
 20
-127.982177631893200
 11
-335.469507499830460
 21
-126.475221538746450
  0
LINE
  8
0
  6
CONTINUOUS
 62
3
 10
-361.878461394154900
 20
-144.736350364944490
 11
-361.878461394154900
 21
-141.722438178651200
  0
LINE
  8
0
  6
CONTINUOUS
 62
3
 10
-340.261159606223030
 20
-123.708759905257310
 11
-342.879835062000100
 21
-122.196866925944120
  0
ARC
  8
0
  6
CONTINUOUS
 62
3
 10
-364.378461394154900
 20
-106.897877879919470
 40
8.499999999999904
 50
291.618272422157700
 51
308.381727577842640
  0
ARC
  8
0
  6
CONTINUOUS
 62
3
 10
-364.378461394154900
 20
-106.897877879919470
 40
13.499999999999963
 50
286.260204708310820
 51
313.739795291687870
  0
ARC
  8
0
  6
CONTINUOUS
 62
3
 10
-364.378461394154900
 20
-106.897877879919470
 40
17.000000000000046
 50
281.212271417650020
 51
318.787728582350210
  0
ARC
  8
0
  6
CONTINUOUS
 62
3
 10
-364.378461394154900
 20
-106.897877879919470
 40
22.000000000000117
 50
279.594068226861170
 51
320.405931773139170
  0
ARC
  8
0
  6
CONTINUOUS
 62
3
 10
-364.378461394154900
 20
-106.897877879919470
 40
25.499999999999918
 50
277.589542391858170
 51
322.410457608142050
  0
ARC
  8
0
  6
CONTINUOUS
 62
3
 10
-364.378461394154900
 20
-106.897877879919470
 40
34.000000000000057
 50
275.739170477266950
 51
324.260829522733050
  0
ARC
  8
0
  6
CONTINUOUS
 62
3
 10
-364.378461394154900
 20
-106.897877879919470
 40
30.500000000000124
 50
276.813854344181040
 51
323.186145655818900
  0
ARC
  8
0
  6
CONTINUOUS
 62
3
 10
-364.378461394154900
 20
-106.897877879919470
 40
38.999999999999972
 50
275.284732954534600
 51
324.715267045465230
  0
ARC
  8
0
  6
CONTINUOUS
 62
3
 10
-358.479932123765710
 20
-114.344847226328810
 40
0.999999999999885
 50
59.999999999996206
 51
128.381727577840220
  0
ARC
  8
0
  6
CONTINUOUS
 62
3
 10
-360.878461394154900
 20
-115.729638746247310
 40
1.000000000000090
 50
111.618272422161970
 51
180.000000000000000
  0
ARC
  8
0
  6
CONTINUOUS
 62
3
 10
-360.878461394154900
 20
-118.897877879919470
 40
1.000000000000000
 50
180.000000000000000
 51
286.260204708297350
  0
ARC
  8
0
  6
CONTINUOUS
 62
3
 10
-355.736156548741410
 20
-115.928966793164880
 40
0.999999999999858
 50
313.739795291671330
 51
59.999999999996206
  0
ARC
  8
0
  6
CONTINUOUS
 62
3
 10
-350.837532710782060
 20
-118.757188584669910
 40
1.000000000000082
 50
60.000000000002721
 51
138.787728582338990
  0
ARC
  8
0
  6
CONTINUOUS
 62
3
 10
-348.196297553725910
 20
-120.282106413589260
 40
1.000000000000318
 50
320.405931773139570
 51
59.999999999996206
  0
ARC
  8
0
  6
CONTINUOUS
 62
3
 10
-360.878461394154900
 20
-124.554321462929080
 40
0.999999999999982
 50
101.212271417644000
 51
180.000000000000000
  0
ARC
  8
0
  6
CONTINUOUS
 62
3
 10
-360.878461394154900
 20
-127.604157120767990
 40
1.000000000000000
 50
180.000000000000000
 51
279.594068226875610
  0
ARC
  8
0
  6
CONTINUOUS
 62
3
 10
-360.878461394154900
 20
-136.189514911673140
 40
1.000000000000000
 50
180.000000000000000
 51
276.813854344179670
  0
ARC
  8
0
  6
CONTINUOUS
 62
3
 10
-343.379835062000100
 20
-123.062892329728650
 40
1.000000000000082
 50
60.000000000002721
 51
142.410457608148220
  0
ARC
  8
0
  6
CONTINUOUS
 62
3
 10
-340.761159606223030
 20
-124.574785309041610
 40
0.999999999999911
 50
323.186145655802870
 51
59.999999999996206
  0
ARC
  8
0
  6
CONTINUOUS
 62
3
 10
-360.878461394154900
 20
-133.165728953046770
 40
0.999999999999975
 50
97.589542391854238
 51
180.000000000000000
  0
ARC
  8
0
  6
CONTINUOUS
 62
3
 10
-360.878461394154900
 20
-144.736350364944490
 40
1.000000000000000
 50
180.000000000000000
 51
275.284732954535740
  0
ARC
  8
0
  6
CONTINUOUS
 62
3
 10
-360.878461394154900
 20
-141.722438178651200
 40
0.999999999999973
 50
95.739170477261709
 51
180.000000000000000
  0
ARC
  8
0
  6
CONTINUOUS
 62
3
 10
-335.969507499830460
 20
-127.341246942530750
 40
0.999999999999885
 50
59.999999999996206
 51
144.260829522736490
  0
ARC
  8
0
  6
CONTINUOUS
 62
3
 10
-333.359382981724710
 20
-128.848203035677730
 40
0.999999999999776
 50
324.715267045465680
 51
60.000000000002309
  0
CIRCLE
  8
0
  6
CONTINUOUS
 62
3
 10
-364.378461394154900
 20
-106.897877879919470
 40
5.000000000000000
  0
ARC
  8
0
  6
CONTINUOUS
 62
3
 10
-329.859382981724710
 20
-122.786025209186460
 40
0.999999999999885
 50
239.999999999996220
 51
335.284732954544490
  0
LINE
  8
0
  6
CONTINUOUS
 62
3
 10
-330.359382981724710
 20
-123.652050612970760
 11
-332.969507499830460
 21
-122.145094519824240
  0
ARC
  8
0
  6
CONTINUOUS
 62
3
 10
-364.378461394154900
 20
-106.897877879919470
 40
39.000000000000220
 50
335.284732954534830
 51
24.715267045465190
  0
ARC
  8
0
  6
CONTINUOUS
 62
3
 10
-364.378461394154900
 20
-106.897877879919470
 40
34.000000000000007
 50
335.739170477266780
 51
24.260829522733218
  0
ARC
  8
0
  6
CONTINUOUS
 62
3
 10
-364.378461394154900
 20
-106.897877879919470
 40
25.500000000000085
 50
337.589542391857490
 51
22.410457608142021
  0
ARC
  8
0
  6
CONTINUOUS
 62
3
 10
-364.378461394154900
 20
-106.897877879919470
 40
30.499999999999947
 50
336.813854344181150
 51
23.186145655818844
  0
ARC
  8
0
  6
CONTINUOUS
 62
3
 10
-337.261159606223030
 20
-118.512607482550790
 40
1.000000000000082
 50
240.000000000002730
 51
336.813854344180130
  0
LINE
  8
0
  6
CONTINUOUS
 62
3
 10
-337.761159606223030
 20
-119.378632886335320
 11
-340.379835062000550
 21
-117.866739907022360
  0
ARC
  8
0
  6
CONTINUOUS
 62
3
 10
-364.378461394154900
 20
-106.897877879919470
 40
22.000000000000206
 50
339.594068226860770
 51
20.405931773139226
  0
ARC
  8
0
  6
CONTINUOUS
 62
3
 10
-332.469507499830460
 20
-121.279069116039700
 40
0.999999999999769
 50
155.739170477266270
 51
240.000000000002730
  0
ARC
  8
0
  6
CONTINUOUS
 62
3
 10
-339.879835062000550
 20
-117.000714503237830
 40
0.999999999999701
 50
157.589542391853940
 51
240.000000000002730
  0
ARC
  8
0
  6
CONTINUOUS
 62
3
 10
-344.696297553725460
 20
-114.219928587098210
 40
0.999999999999885
 50
239.999999999996220
 51
339.594068226861340
  0
ARC
  8
0
  6
CONTINUOUS
 62
3
 10
-364.378461394154900
 20
-106.897877879919470
 40
17.000000000000146
 50
341.212271417650070
 51
18.787728582350418
  0
LINE
  8
0
  6
CONTINUOUS
 62
3
 10
-345.196297553725460
 20
-115.085953990882510
 11
-347.837532710782060
 21
-113.561036161962940
  0
ARC
  8
0
  6
CONTINUOUS
 62
3
 10
-347.337532710782060
 20
-112.695010758178640
 40
0.999999999999646
 50
161.212271417644620
 51
239.999999999996220
  0
ARC
  8
0
  6
CONTINUOUS
 62
3
 10
-364.378461394154900
 20
-106.897877879919470
 40
13.500000000000130
 50
346.260204708311850
 51
13.739795291688171
  0
ARC
  8
0
  6
CONTINUOUS
 62
3
 10
-352.236156548741410
 20
-109.866788966674060
 40
0.999999999999885
 50
239.999999999996220
 51
346.260204708314010
  0
LINE
  8
0
  6
CONTINUOUS
 62
3
 10
-352.736156548741410
 20
-110.732814370458370
 11
-355.479932123765710
 21
-109.148694803622290
  0
ARC
  8
0
  6
CONTINUOUS
 62
3
 10
-352.236156548741410
 20
-103.928966793164880
 40
0.999999999999879
 50
13.739795291686027
 51
120.000000000003780
  0
ARC
  8
0
  6
CONTINUOUS
 62
3
 10
-364.378461394154900
 20
-106.897877879919470
 40
8.499999999999972
 50
351.618272422157820
 51
8.381727577842204
  0
ARC
  8
0
  6
CONTINUOUS
 62
3
 10
-354.979932123765710
 20
-108.282669399837980
 40
1.000000000000059
 50
171.618272422154460
 51
239.999999999996220
  0
ARC
  8
0
  6
CONTINUOUS
 62
3
 10
-344.696297553725460
 20
-99.575827172740745
 40
1.000000000000094
 50
20.405931773138686
 51
120.000000000003780
  0
LINE
  8
0
  6
CONTINUOUS
 62
3
 10
-345.196297553725460
 20
-98.709801768956439
 11
-347.837532710782060
 21
-100.234719597875780
  0
ARC
  8
0
  6
CONTINUOUS
 62
3
 10
-347.337532710782060
 20
-101.100745001660310
 40
1.000000000000082
 50
119.999999999997270
 51
198.787728582347000
  0
LINE
  8
0
  6
CONTINUOUS
 62
3
 10
-352.736156548741410
 20
-103.062941389380580
 11
-355.479932123765710
 21
-104.647060956216660
  0
ARC
  8
0
  6
CONTINUOUS
 62
3
 10
-354.979932123765710
 20
-105.513086360001190
 40
1.000000000000082
 50
119.999999999997270
 51
188.381727577832660
  0
ARC
  8
0
  6
CONTINUOUS
 62
3
 10
-332.469507499830460
 20
-92.516686643799019
 40
0.999999999999885
 50
120.000000000003780
 51
204.260829522745610
  0
LINE
  8
0
  6
CONTINUOUS
 62
3
 10
-330.359382981724710
 20
-90.143705146867958
 11
-332.969507499830460
 21
-91.650661240014713
  0
ARC
  8
0
  6
CONTINUOUS
 62
3
 10
-329.859382981724710
 20
-91.009730550652492
 40
1.000000000000248
 50
24.715267045455477
 51
119.999999999997270
  0
ARC
  8
0
  6
CONTINUOUS
 62
3
 10
-339.879835062000550
 20
-96.795041256601351
 40
1.000000000000082
 50
119.999999999997270
 51
202.410457608146060
  0
LINE
  8
0
  6
CONTINUOUS
 62
3
 10
-337.761159606223030
 20
-94.417122873503629
 11
-340.379835062000550
 21
-95.929015852816818
  0
ARC
  8
0
  6
CONTINUOUS
 62
3
 10
-337.261159606223030
 20
-95.283148277288163
 40
0.999999999999730
 50
23.186145655819850
 51
119.999999999997270
  0
ARC
  8
0
  6
CONTINUOUS
 62
3
 10
-364.378461394154900
 20
-106.897877879919470
 40
38.999999999999865
 50
35.284732954534789
 51
84.715267045465410
  0
ARC
  8
0
  6
CONTINUOUS
 62
3
 10
-364.378461394154900
 20
-106.897877879919470
 40
33.999999999999829
 50
35.739170477266640
 51
84.260829522733076
  0
ARC
  8
0
  6
CONTINUOUS
 62
3
 10
-364.378461394154900
 20
-106.897877879919470
 40
25.499999999999890
 50
37.589542391857961
 51
82.410457608141883
  0
ARC
  8
0
  6
CONTINUOUS
 62
3
 10
-364.378461394154900
 20
-106.897877879919470
 40
30.499999999999964
 50
36.813854344181067
 51
83.186145655818962
  0
ARC
  8
0
  6
CONTINUOUS
 62
3
 10
-364.378461394154900
 20
-106.897877879919470
 40
22.000000000000025
 50
39.594068226860820
 51
80.405931773138789
  0
ARC
  8
0
  6
CONTINUOUS
 62
3
 10
-364.378461394154900
 20
-106.897877879919470
 40
17.000000000000114
 50
41.212271417649760
 51
78.787728582349985
  0
ARC
  8
0
  6
CONTINUOUS
 62
3
 10
-364.378461394154900
 20
-106.897877879919470
 40
13.499999999999927
 50
46.260204708312145
 51
73.739795291689134
  0
ARC
  8
0
  6
CONTINUOUS
 62
3
 10
-360.878461394154900
 20
-94.897877879919477
 40
0.999999999999964
 50
73.739795291702634
 51
180.000000000000000
  0
LINE
  8
0
  6
CONTINUOUS
 62
3
 10
-361.878461394154900
 20
-94.897877879919477
 11
-361.878461394154900
 21
-98.066117013591636
  0
ARC
  8
0
  6
CONTINUOUS
 62
3
 10
-355.736156548741410
 20
-97.866788966674065
 40
0.999999999999885
 50
300.000000000003810
 51
46.260204708328693
  0
ARC
  8
0
  6
CONTINUOUS
 62
3
 10
-364.378461394154900
 20
-106.897877879919470
 40
8.500000000000128
 50
51.618272422158320
 51
68.381727577842284
  0
ARC
  8
0
  6
CONTINUOUS
 62
3
 10
-360.878461394154900
 20
-98.066117013591636
 40
1.000000000000000
 50
180.000000000000000
 51
248.381727577838030
  0
ARC
  8
0
  6
CONTINUOUS
 62
3
 10
-348.196297553725910
 20
-93.513649346249466
 40
1.000000000000082
 50
299.999999999997270
 51
39.594068226850403
  0
LINE
  8
0
  6
CONTINUOUS
 62
3
 10
-347.696297553725910
 20
-94.379674750033999
 11
-350.337532710782060
 21
-95.904592578953569
  0
ARC
  8
0
  6
CONTINUOUS
 62
3
 10
-350.837532710782060
 20
-95.038567175169263
 40
0.999999999999673
 50
221.212271417651210
 51
300.000000000003810
  0
LINE
  8
0
  6
CONTINUOUS
 62
3
 10
-355.236156548741410
 20
-98.732814370458371
 11
-357.979932123765710
 21
-100.316933937294450
  0
ARC
  8
0
  6
CONTINUOUS
 62
3
 10
-358.479932123765710
 20
-99.450908533509917
 40
0.999999999999961
 50
231.618272422159780
 51
299.999999999997270
  0
ARC
  8
0
  6
CONTINUOUS
 62
3
 10
-335.969507499830460
 20
-86.454508817308195
 40
0.999999999999940
 50
215.739170477274090
 51
300.000000000003810
  0
LINE
  8
0
  6
CONTINUOUS
 62
3
 10
-332.859382981724710
 20
-85.813578127945746
 11
-335.469507499830460
 21
-87.320534221092501
  0
ARC
  8
0
  6
CONTINUOUS
 62
3
 10
-333.359382981724710
 20
-84.947552724161440
 40
0.999999999999885
 50
300.000000000003810
 51
35.284732954544943
  0
ARC
  8
0
  6
CONTINUOUS
 62
3
 10
-343.379835062000550
 20
-90.732863430110299
 40
0.999999999999834
 50
217.589542391867670
 51
299.999999999997270
  0
LINE
  8
0
  6
CONTINUOUS
 62
3
 10
-340.261159606223030
 20
-90.086995854581644
 11
-342.879835062000550
 21
-91.598888833894833
  0
ARC
  8
0
  6
CONTINUOUS
 62
3
 10
-340.761159606223030
 20
-89.220970450797111
 40
1.000000000000082
 50
299.999999999997270
 51
36.813854344186687
  0
ARC
  8
0
  6
CONTINUOUS
 62
3
 10
-360.878461394154900
 20
-69.059405394894455
 40
1.000000000000042
 50
84.715267045464302
 51
180.000000000000000
  0
LINE
  8
0
  6
CONTINUOUS
 62
3
 10
-361.878461394154900
 20
-69.059405394894455
 11
-361.878461394154900
 21
-72.073317581187737
  0
ARC
  8
0
  6
CONTINUOUS
 62
3
 10
-360.878461394154900
 20
-72.073317581187737
 40
1.000000000000000
 50
180.000000000000000
 51
264.260829522738280
  0
ARC
  8
0
  6
CONTINUOUS
 62
3
 10
-360.878461394154900
 20
-77.606240848165797
 40
1.000000000000077
 50
83.186145655820312
 51
180.000000000000000
  0
LINE
  8
0
  6
CONTINUOUS
 62
3
 10
-361.878461394154900
 20
-77.606240848165797
 11
-361.878461394154900
 21
-80.630026806791946
  0
ARC
  8
0
  6
CONTINUOUS
 62
3
 10
-360.878461394154900
 20
-80.630026806792173
 40
1.000000000000000
 50
179.999999999986980
 51
262.410457608144040
  0
ARC
  8
0
  6
CONTINUOUS
 62
3
 10
-360.878461394154900
 20
-86.191598639070961
 40
1.000000000000268
 50
80.405931773124522
 51
180.000000000000000
  0
LINE
  8
0
  6
CONTINUOUS
 62
3
 10
-361.878461394154900
 20
-86.191598639070961
 11
-361.878461394154900
 21
-89.241434296909873
  0
ARC
  8
0
  6
CONTINUOUS
 62
3
 10
-360.878461394154900
 20
-89.241434296909873
 40
1.000000000000000
 50
180.000000000000000
 51
258.787728582356010
  0
INSERT
  8
0
  2
SYM12
 10
-353.878461394154900
 20
-40.397877879920841
  0
INSERT
  8
0
  2
SYM13
 10
-374.878461394154440
 20
-40.397877879920841
 41
-1.000000000000000
  0
ARC
  8
0
  6
CONTINUOUS
 62
3
 10
-379.878461394154900
 20
-49.397877879919477
 40
5.000000000000000
 50
180.000000000000000
 51
231.841677908129240
  0
ARC
  8
0
  6
CONTINUOUS
 62
3
 10
-348.878461394154900
 20
-49.397877879919477
 40
4.999999999999660
 50
308.158322091870730
 51
0.000000000000000
  0
LINE
  8
0
  6
CONTINUOUS
 62
3
 10
-456.378461394154900
 20
-114.397877879919470
 11
-449.378461394154900
 21
-114.397877879919470
  0
LINE
  8
0
  6
CONTINUOUS
 62
3
 10
-454.876458621286130
 20
-98.397877879919477
 11
-449.378461394154900
 21
-98.397877879919477
  0
LINE
  8
0
  6
CONTINUOUS
 62
3
 10
-272.378461394154610
 20
-114.397877879919470
 11
-272.972226047171830
 21
-114.397877879919470
  0
ARC
  8
0
  6
CONTINUOUS
 62
3
 10
-456.378461394154900
 20
-116.397877879919470
 40
2.000000000000000
 50
90.000000000000000
 51
180.000000000000000
  0
ARC
  8
0
  6
CONTINUOUS
 62
3
 10
-449.378461394154900
 20
-106.397877879919470
 40
8.000000000000000
 50
270.000000000000000
 51
90.000000000000000
  0
ARC
  8
0
  6
CONTINUOUS
 62
3
 10
-454.876458621286130
 20
-96.397877879919477
 40
2.000000000000145
 50
168.737752074361230
 51
270.000000000000000
  0
ARC
  8
0
  6
CONTINUOUS
 62
3
 10
-272.378461394154610
 20
-116.397877879919470
 40
2.000000000000000
 50
0.000000000000000
 51
90.000000000000000
  0
ARC
  8
0
  6
CONTINUOUS
 62
3
 10
-273.880464167023380
 20
-96.397877879919477
 40
1.999999999999431
 50
295.969013693535830
 51
11.262247925640054
  0
ARC
  8
0
  6
CONTINUOUS
 62
3
 10
-294.387164323943860
 20
-214.957547185329590
 40
7.999999999999901
 50
129.950233661982820
 51
178.218230102087230
  0
ARC
  8
0
  6
CONTINUOUS
 62
3
 10
-312.378461394154840
 20
-214.397877879919460
 40
10.000000000000000
 50
270.000000000000000
 51
358.218230102088230
  0
ARC
  8
0
  6
CONTINUOUS
 62
3
 10
-416.378461394154900
 20
-214.397877879919460
 40
9.999999999999675
 50
181.781769897911860
 51
270.000000000000000
  0
ARC
  8
0
  6
CONTINUOUS
 62
3
 10
-434.369758464365650
 20
-214.957547185329590
 40
8.000000000000107
 50
1.781769897912753
 51
50.049766338017157
  0
ARC
  8
0
  6
CONTINUOUS
 62
3
 10
-275.378461394154610
 20
-167.383986310812650
 40
4.999999999999877
 50
337.984630459601990
 51
0.000000000000000
  0
ARC
  8
0
  6
CONTINUOUS
 62
3
 10
-453.378461394154900
 20
-167.383986310812650
 40
5.000000000000000
 50
180.000000000000000
 51
202.015369540396080
  0
ARC
  8
0
  6
CONTINUOUS
 62
3
 10
-364.378461394154900
 20
-131.397877879919460
 40
101.000000000000310
 50
202.015369540396850
 51
230.049766338017580
  0
ARC
  8
0
  6
CONTINUOUS
 62
3
 10
-364.378461394154900
 20
-131.397877879919460
 40
101.000000000000220
 50
309.950233661982510
 51
337.984630459603180
  0
ARC
  8
0
  6
CONTINUOUS
 62
3
 10
-327.228681710427400
 20
-189.282607311617140
 40
2.999999999999886
 50
99.749988138587184
 51
139.848912341650620
  0
ARC
  8
0
  6
CONTINUOUS
 62
3
 10
-403.172733594513940
 20
-159.664544546585890
 40
26.999999999999797
 50
142.203357465588340
 51
275.631713938414800
  0
ARC
  8
0
  6
CONTINUOUS
 62
3
 10
-400.228720922550220
 20
-189.519741571347200
 40
2.999999999999921
 50
79.695153531234737
 51
95.631713938407302
  0
ARC
  8
0
  6
CONTINUOUS
 62
3
 10
-426.878461394154900
 20
-141.278722033319640
 40
3.000000000000168
 50
322.203357465589990
 51
0.000000000000000
  0
ARC
  8
0
  6
CONTINUOUS
 62
3
 10
-350.378461394154900
 20
-111.631276064100870
 40
80.000000000000284
 50
0.000000000000000
 51
15.675342857761740
  0
ARC
  8
0
  6
CONTINUOUS
 62
3
 10
-378.378461394154900
 20
-111.631276064100870
 40
79.999999999999957
 50
94.660419384114789
 51
180.000000000000000
  0
LINE
  8
0
  6
DASHDOT
 62
4
 10
-364.378461394154900
 20
9.750723184839146
 11
-364.378461394154900
 21
-232.581466439882260
  0
LINE
  8
0
  6
DASHDOT
 62
4
 10
-383.600123252662000
 20
-101.397877879919470
 11
-344.836600080787890
 21
-101.397877879919470
  0
LINE
  8
0
  6
CONTINUOUS
 62
3
 10
-384.878461394154900
 20
-6.397877879919477
 11
-384.878461394154900
 21
-49.397877879919477
  0
CIRCLE
  8
0
  6
CONTINUOUS
 62
3
 10
-364.378461394154900
 20
-16.397877879919477
 40
10.000000000000000
  0
LINE
  8
0
  6
DASHDOT
 62
4
 10
-341.210548395273350
 20
-16.397877879919477
 11
-388.233062296808040
 21
-16.397877879919477
  0
LINE
  8
0
  6
CONTINUOUS
 62
3
 10
-343.878461394154900
 20
-6.397877879919477
 11
-343.878461394154900
 21
-49.397877879919477
  0
INSERT
  8
0
  2
SYM14
 10
-314.378461394154840
 20
-50.397877879919477
  0
INSERT
  8
0
  2
SYM15
 10
-312.378461394154840
 20
-214.397877879919460
  0
INSERT
  8
0
  2
SYM16
 10
-416.378461394154900
 20
-214.397877879919460
 41
-1.000000000000000
  0
INSERT
  8
0
  2
SYM17
 10
-448.378461394154440
 20
-126.397877879919470
 41
-1.000000000000000
  0
INSERT
  8
0
  2
SYM18
 10
-414.378461394154900
 20
-50.397877879919477
 41
-1.000000000000000
  0
ARC
  8
0
  6
CONTINUOUS
 62
3
 10
-348.731010550397170
 20
-174.897877879919460
 40
15.000000000000000
 50
270.000000000000000
 51
280.304846468768520
  0
LINE
  8
0
  6
CONTINUOUS
 62
3
 10
-327.593687534160720
 20
-186.300646269011220
 11
-346.047728977396790
 21
-189.655926531417950
  0
ARC
  8
0
  6
CONTINUOUS
 62
3
 10
-330.276969107160430
 20
-171.542597617512740
 40
14.999999999999867
 50
280.304846468765960
 51
315.000000000000280
  0
LINE
  8
0
  6
CONTINUOUS
 62
3
 10
-313.460317033978130
 20
-175.939148979927100
 11
-319.670367389362130
 21
-182.149199335310930
  0
ARC
  8
0
  6
CONTINUOUS
 62
3
 10
-324.066918751776260
 20
-165.332547262128910
 40
14.999999999999920
 50
314.999999999999830
 51
350.000000000000000
  0
LINE
  8
0
  6
CONTINUOUS
 62
3
 10
-304.878461394154610
 20
-142.897877879919460
 11
-304.878461394154610
 21
-150.397877879919460
  0
LINE
  8
0
  6
CONTINUOUS
 62
3
 10
-306.518902605264940
 20
-152.194359567215370
 11
-309.294802456593350
 21
-167.937269927132830
  0
ARC
  8
0
  6
CONTINUOUS
 62
3
 10
-305.878461394154610
 20
-150.397877879919460
 40
1.000000000000028
 50
279.914783369142580
 51
0.000000000000000
  0
ARC
  8
0
  6
CONTINUOUS
 62
3
 10
-305.534094852252850
 20
-152.368007744882390
 40
1.000000000000028
 50
99.914783369142555
 51
169.999999999993860
  0
ARC
  8
0
  6
CONTINUOUS
 62
3
 10
-380.025912237912620
 20
-174.897877879919460
 40
14.999999999999826
 50
259.695153531234890
 51
270.000000000000000
  0
LINE
  8
0
  6
CONTINUOUS
 62
3
 10
-401.163235254148840
 20
-186.300646269011220
 11
-382.709193810912100
 21
-189.655926531417950
  0
ARC
  8
0
  6
CONTINUOUS
 62
3
 10
-398.479953681148910
 20
-171.542597617512740
 40
14.999999999999961
 50
225.000000000000000
 51
259.695153531233190
  0
LINE
  8
0
  6
CONTINUOUS
 62
3
 10
-415.296605754331380
 20
-175.939148979927100
 11
-409.086555398947100
 21
-182.149199335310930
  0
ARC
  8
0
  6
CONTINUOUS
 62
3
 10
-404.690004036533200
 20
-165.332547262128910
 40
14.999999999999844
 50
189.999999999999970
 51
225.000000000000000
  0
LINE
  8
0
  6
CONTINUOUS
 62
3
 10
-423.878461394154900
 20
-131.397877879919460
 11
-423.878461394154900
 21
-150.397877879919460
  0
LINE
  8
0
  6
CONTINUOUS
 62
3
 10
-422.238020183044340
 20
-152.194359567215370
 11
-419.462120331716160
 21
-167.937269927132830
  0
ARC
  8
0
  6
CONTINUOUS
 62
3
 10
-422.878461394154900
 20
-150.397877879919460
 40
1.000000000000000
 50
180.000000000000000
 51
260.085216630857420
  0
ARC
  8
0
  6
CONTINUOUS
 62
3
 10
-423.222827936056660
 20
-152.368007744882390
 40
1.000000000000125
 50
10.000000000003892
 51
80.085216630857445
  0
LINE
  8
0
  6
CONTINUOUS
 62
3
 10
-423.878461394154900
 20
-131.397877879919460
 11
-423.878461394154900
 21
-112.397877879919470
  0
ARC
  8
0
  6
CONTINUOUS
 62
3
 10
-422.878461394154900
 20
-112.397877879919470
 40
0.999999999999173
 50
117.683035930750540
 51
180.000000000000000
  0
LINE
  8
0
  6
CONTINUOUS
 62
3
 10
-345.878461394154900
 20
-161.224937152000900
 11
-345.878461394154900
 21
-185.897877879919460
  0
LINE
  8
0
  6
CONTINUOUS
 62
3
 10
-382.878461394154900
 20
-161.224937152001130
 11
-382.878461394154900
 21
-185.897877879919460
  0
LINE
  8
0
  6
CONTINUOUS
 62
3
 10
-341.878461394154900
 20
-160.897877879919460
 11
-341.878461394154900
 21
-188.897877879919460
  0
LINE
  8
0
  6
CONTINUOUS
 62
3
 10
-386.878461394154900
 20
-160.897877879919460
 11
-386.878461394154900
 21
-188.897877879919460
  0
ARC
  8
0
  6
CONTINUOUS
 62
3
 10
-313.218864260668000
 20
-161.397877879919460
 40
5.000000000000000
 50
270.000000000000000
 51
350.000000000000340
  0
LINE
  8
0
  6
CONTINUOUS
 62
3
 10
-313.218864260668000
 20
-166.397877879919460
 11
-317.993523105956060
 21
-166.397877879919460
  0
ARC
  8
0
  6
CONTINUOUS
 62
3
 10
-317.993523105956060
 20
-171.397877879919460
 40
5.000000000000000
 50
90.000000000000000
 51
139.227195305955950
  0
ARC
  8
0
  6
CONTINUOUS
 62
3
 10
-364.378461394154900
 20
-131.397877879919460
 40
56.250000000000128
 50
296.678234450809610
 51
319.227195305957310
  0
ARC
  8
0
  6
CONTINUOUS
 62
3
 10
-336.878461394154900
 20
-186.127326077393550
 40
4.999999999999867
 50
116.678234450809640
 51
180.000000000000000
  0
ARC
  8
0
  6
CONTINUOUS
 62
3
 10
-415.538058527641280
 20
-161.397877879919460
 40
5.000000000000097
 50
189.999999999999660
 51
270.000000000000000
  0
LINE
  8
0
  6
CONTINUOUS
 62
3
 10
-415.538058527641280
 20
-166.397877879919460
 11
-410.763399682353000
 21
-166.397877879919460
  0
ARC
  8
0
  6
CONTINUOUS
 62
3
 10
-410.763399682353000
 20
-171.397877879919460
 40
4.999999999999657
 50
40.772804694045341
 51
90.000000000000000
  0
ARC
  8
0
  6
CONTINUOUS
 62
3
 10
-364.378461394154900
 20
-131.397877879919460
 40
56.249999999999901
 50
220.772804694043030
 51
243.321765549190420
  0
ARC
  8
0
  6
CONTINUOUS
 62
3
 10
-391.878461394154900
 20
-186.127326077393550
 40
5.000000000000000
 50
0.000000000000000
 51
63.321765549190360
  0
ARC
  8
0
  6
CONTINUOUS
 62
3
 10
-348.878461394154900
 20
-161.224937152000900
 40
3.000000000000000
 50
0.000000000000000
 51
14.478806236572687
  0
ARC
  8
0
  6
CONTINUOUS
 62
3
 10
-338.878461394154900
 20
-160.897877879919460
 40
3.000000000000712
 50
167.756347132293260
 51
180.000000000000000
  0
ARC
  8
0
  6
CONTINUOUS
 62
3
 10
-379.878461394154900
 20
-161.224937152001130
 40
3.000000000000101
 50
165.521193763419260
 51
180.000000000000000
  0
ARC
  8
0
  6
CONTINUOUS
 62
3
 10
-389.878461394154900
 20
-160.897877879919460
 40
3.000000000000000
 50
0.000000000000000
 51
12.243652867706290
  0
ARC
  8
0
  6
CONTINUOUS
 62
3
 10
-348.878461394154900
 20
-185.897877879919460
 40
3.000000000000000
 50
270.000000000000000
 51
0.000000000000000
  0
ARC
  8
0
  6
CONTINUOUS
 62
3
 10
-379.878461394154900
 20
-185.897877879919460
 40
3.000000000000000
 50
180.000000000000000
 51
270.000000000000000
  0
ARC
  8
0
  6
CONTINUOUS
 62
3
 10
-364.378461394154900
 20
-131.397877879919460
 40
59.999999999999929
 50
257.161431859016260
 51
282.838568140984190
  0
LINE
  8
0
  6
CONTINUOUS
 62
3
 10
-351.046169768181360
 20
-189.897877879919460
 11
-348.731010550397170
 21
-189.897877879919460
  0
LINE
  8
0
  6
CONTINUOUS
 62
3
 10
-377.710753020127980
 20
-189.897877879919460
 11
-380.025912237912620
 21
-189.897877879919460
  0
ARC
  8
0
  6
CONTINUOUS
 62
3
 10
-350.159084674766400
 20
-169.938444887437810
 40
27.000000000000025
 50
232.492357161294510
 51
319.848912341650250
  0
INSERT
  8
0
  2
SYM19
 10
-408.572635218314300
 20
-175.592051704078410
  0
INSERT
  8
0
  2
SYM20
 10
-320.184287569995380
 20
-175.592051704078410
 41
-1.000000000000000
  0
LINE
  8
0
  6
DASHDOT
 62
4
 10
-260.476497019399520
 20
-106.897877879919470
 11
-470.340033272083360
 21
-106.897877879919470
  0
ARC
  8
0
  6
CONTINUOUS
 62
3
 10
-364.378461394154900
 20
-131.397877879919460
 40
106.000000000000070
 50
311.146783655316090
 51
311.328658646343400
  0
ARC
  8
0
  6
CONTINUOUS
 62
3
 10
-273.378461394154840
 20
-191.397877879919460
 40
3.000000000000000
 50
0.000000000000000
 51
146.601511532010900
  0
LINE
  8
0
  6
CONTINUOUS
 62
3
 10
-297.367563453598050
 20
-217.242884666286330
 11
-297.367563453598050
 21
-222.527724736466610
  0
ARC
  8
0
  6
CONTINUOUS
 62
3
 10
-295.367563453598050
 20
-222.527724736466610
 40
2.000000000000000
 50
180.000000000000000
 51
255.361208056743180
  0
ARC
  8
0
  6
CONTINUOUS
 62
3
 10
-290.540801626255930
 20
-210.897877879919460
 40
2.500000000000000
 50
90.000000000000000
 51
132.885184548955720
  0
ARC
  8
0
  6
CONTINUOUS
 62
3
 10
-291.878461394154840
 20
-212.119622162361740
 40
2.499999999999884
 50
131.928504432615880
 51
180.000000000000000
  0
ARC
  8
0
  6
CONTINUOUS
 62
3
 10
-364.378461394154900
 20
-131.397877879919460
 40
106.000000000000050
 50
311.328658646343400
 51
326.601511532012810
  0
ARC
  8
0
  6
CONTINUOUS
 62
3
 10
-364.378461394155350
 20
-131.397877879919460
 40
106.000000000000070
 50
213.398488467987250
 51
228.671341353656600
  0
ARC
  8
0
  6
CONTINUOUS
 62
3
 10
-438.216121162054260
 20
-210.897877879919460
 40
2.499999999999925
 50
47.114815451044294
 51
90.000000000000000
  0
ARC
  8
0
  6
CONTINUOUS
 62
3
 10
-364.378461394155350
 20
-131.397877879919460
 40
106.000000000000010
 50
228.671341353656600
 51
228.853216344683940
  0
ARC
  8
0
  6
CONTINUOUS
 62
3
 10
-436.878461394155350
 20
-212.119622162361740
 40
2.500000000000000
 50
0.000000000000000
 51
48.071495567384105
  0
LINE
  8
0
  6
CONTINUOUS
 62
3
 10
-431.389359334712140
 20
-217.242884666286330
 11
-431.389359334712140
 21
-222.527724736466610
  0
ARC
  8
0
  6
CONTINUOUS
 62
3
 10
-433.389359334712140
 20
-222.527724736466610
 40
1.999999999999997
 50
284.638791943256820
 51
0.000000000000000
  0
ARC
  8
0
  6
CONTINUOUS
 62
3
 10
-455.378461394155350
 20
-191.397877879919460
 40
2.999999999999921
 50
33.398488467987271
 51
180.000000000000000
  0
ARC
  8
0
  6
CONTINUOUS
 62
3
 10
-439.389359334712140
 20
-217.242884666286330
 40
8.000000000000000
 50
0.000000000000000
 51
48.853216344683936
  0
ARC
  8
0
  6
CONTINUOUS
 62
3
 10
-289.367563453598050
 20
-217.242884666286330
 40
7.999999999999961
 50
131.146783655315550
 51
180.000000000000000
  0
LINE
  8
0
  6
CONTINUOUS
 62
3
 10
-458.378461394155350
 20
-111.631276064101100
 11
-458.378461394155350
 21
-205.397877879919460
  0
LINE
  8
0
  6
CONTINUOUS
 62
3
 10
-270.378461394154840
 20
-111.631276064101100
 11
-270.378461394154840
 21
-205.397877879919460
  0
LINE
  8
0
  6
CONTINUOUS
 62
3
 10
-432.378461394154900
 20
-224.397877879919460
 11
-364.378461394154900
 21
-224.397877879919460
  0
LINE
  8
0
  6
CONTINUOUS
 62
3
 10
-296.378461394154840
 20
-224.397877879919460
 11
-364.378461394154900
 21
-224.397877879919460
  0
LINE
  8
0
  6
CONTINUOUS
 62
3
 10
-464.378461394154900
 20
-226.397877879919460
 11
-434.378461394154900
 21
-226.397877879919460
  0
LINE
  8
0
  6
DASHDOT
 62
4
 10
-451.878461394154900
 20
-204.237599025549400
 11
-451.878461394154900
 21
-230.814669719519150
  0
LINE
  8
0
  6
CONTINUOUS
 62
3
 10
-464.378461394154900
 20
-210.897877879919460
 11
-464.378461394154900
 21
-226.397877879919460
  0
LINE
  8
0
  6
CONTINUOUS
 62
3
 10
-266.878461394154840
 20
-208.397877879919460
 11
-290.540801626255930
 21
-208.397877879919460
  0
LINE
  8
0
  6
CONTINUOUS
 62
3
 10
-264.378461394154840
 20
-226.397877879919460
 11
-294.378461394154840
 21
-226.397877879919460
  0
LINE
  8
0
  6
DASHDOT
 62
4
 10
-276.878461394154840
 20
-204.237599025549400
 11
-276.878461394154840
 21
-230.814669719519150
  0
LINE
  8
0
  6
CONTINUOUS
 62
3
 10
-264.378461394154840
 20
-210.897877879919460
 11
-264.378461394154840
 21
-226.397877879919460
  0
LINE
  8
0
  6
CONTINUOUS
 62
3
 10
-294.378461394154840
 20
-212.119622162361740
 11
-294.378461394154840
 21
-226.397877879919460
  0
ARC
  8
0
  6
CONTINUOUS
 62
3
 10
-461.378461394155350
 20
-205.397877879919460
 40
3.000000000000000
 50
270.000000000000000
 51
0.000000000000000
  0
ARC
  8
0
  6
CONTINUOUS
 62
3
 10
-267.378461394154840
 20
-205.397877879919460
 40
3.000000000000000
 50
180.000000000000000
 51
270.000000000000000
  0
ARC
  8
0
  6
CONTINUOUS
 62
3
 10
-461.878461394154900
 20
-210.897877879919460
 40
2.500000000000000
 50
90.000000000000000
 51
180.000000000000000
  0
ARC
  8
0
  6
CONTINUOUS
 62
3
 10
-432.378461394154900
 20
-226.397877879919460
 40
2.000000000000000
 50
90.000000000000000
 51
180.000000000000000
  0
ARC
  8
0
  6
CONTINUOUS
 62
3
 10
-266.878461394154840
 20
-210.897877879919460
 40
2.500000000000000
 50
0.000000000000000
 51
90.000000000000000
  0
ARC
  8
0
  6
CONTINUOUS
 62
3
 10
-296.378461394154840
 20
-226.397877879919460
 40
2.000000000000000
 50
0.000000000000000
 51
90.000000000000000
  0
LINE
  8
0
  6
CONTINUOUS
 62
3
 10
-461.878461394155350
 20
-208.397877879919460
 11
-438.216121162054260
 21
-208.397877879919460
  0
LINE
  8
0
  6
CONTINUOUS
 62
3
 10
-434.378461394155350
 20
-212.119622162361740
 11
-434.378461394155350
 21
-226.397877879919460
  0
ARC
  8
0
  6
CONTINUOUS
 62
3
 10
-353.878461394154900
 20
-40.397877879922831
 40
10.000000000000000
 50
270.000000000000000
 51
0.000000000000000
  0
LINE
  8
0
  6
CONTINUOUS
 62
3
 10
-353.878461394154900
 20
-50.397877879922831
 11
-374.878461394154900
 21
-50.397877879922831
  0
ARC
  8
0
  6
CONTINUOUS
 62
3
 10
-374.878461394154900
 20
-40.397877879922831
 40
10.000000000000000
 50
180.000000000000000
 51
270.000000000000000
  0
TEXT
  8
0
  6
CONTINUOUS
 62
3
 10
-371.116088867187500
 20
156.954193115234380
 40
12.500000000000000
  1
S089
 50
0.000002504478167
 41
0.470000016689301
  7
STANDARD1
  0
TEXT
  8
0
  6
CONTINUOUS
 62
3
 10
-371.116088867187500
 20
142.829193115234380
 40
12.500000000000000
  1
三菱ギヤードモートル
 50
0.000002504478167
 41
0.625000000000000
  7
STANDARD1
  0
TEXT
  8
0
  6
CONTINUOUS
 62
3
 10
-371.116088867187500
 20
128.704193115234380
 40
12.500000000000000
  1
GM-SSB
 50
0.000002504478167
 41
0.470000016689301
  7
STANDARD1
  0
TEXT
  8
0
  6
CONTINUOUS
 62
3
 10
-371.116088867187500
 20
114.579200744628900
 40
12.500000000000000
  1
0.1kW
 50
0.000002504478167
 41
0.470000016689301
  7
STANDARD1
  0
TEXT
  8
0
  6
CONTINUOUS
 62
3
 10
-371.116088867187500
 20
100.454200744628900
 40
12.500000000000000
  1
1/540-1/900
 50
0.000002504478167
 41
0.470000016689301
  7
STANDARD1
  0
TEXT
  8
0
  6
CONTINUOUS
 62
3
 10
-371.116088867187500
 20
86.329200744628906
 40
12.500000000000000
  1
SCALE1/1
 50
0.000002504478167
 41
0.470000016689301
  7
STANDARD1
  0
ARC
  8
0
  6
CONTINUOUS
 62
3
 10
-199.861616086230530
 20
104.702122120080560
 40
20.599999999999891
 50
235.000000000000400
 51
270.000000000000000
  0
ARC
  8
0
  6
CONTINUOUS
 62
3
 10
-217.756771137137830
 20
95.258501986451222
 40
2.599999999999909
 50
180.000000000000000
 51
234.999999999998810
  0
LINE
  8
0
  6
CONTINUOUS
 62
3
 10
-211.677290675061900
 20
87.827590007727338
 11
-219.248069871650670
 21
93.128706671299881
  0
LINE
  8
0
  6
CONTINUOUS
 62
3
 10
-220.356771137137740
 20
95.258501986451222
 11
-220.356771137137740
 21
143.102122120080540
  0
LINE
  8
0
  6
CONTINUOUS
 62
4
 10
-122.356771137137740
 20
102.060208349740770
 11
-1.856771137116596
 21
102.060208349740770
  0
LINE
  8
0
  6
CONTINUOUS
 62
4
 10
-122.356771137137740
 20
96.969039525197843
 11
-1.856771137116596
 21
96.969039525197843
  0
LINE
  8
0
  6
CONTINUOUS
 62
4
 10
-122.356771137137740
 20
92.602122120080537
 11
-1.856771137116596
 21
92.602122120080537
  0
LINE
  8
0
  6
CONTINUOUS
 62
4
 10
-122.356771137137740
 20
92.102122120080537
 11
-1.856771137116596
 21
92.102122120080537
  0
LINE
  8
0
  6
CONTINUOUS
 62
3
 10
-1.856771137116596
 20
89.602122120080537
 11
-40.156771137116550
 21
89.602122120080537
  0
LINE
  8
0
  6
CONTINUOUS
 62
3
 10
-40.156771137116550
 20
90.602122120080537
 11
-40.156771137116550
 21
52.602122120080537
  0
ARC
  8
0
  6
CONTINUOUS
 62
3
 10
-41.156771137116550
 20
52.602122120080537
 40
1.000000000000000
 50
270.000000000000000
 51
0.000000000000000
  0
LINE
  8
0
  6
CONTINUOUS
 62
3
 10
-129.156771137116550
 20
51.602122120080537
 11
-41.156771137116550
 21
51.602122120080537
  0
ARC
  8
0
  6
CONTINUOUS
 62
3
 10
-129.156771137116550
 20
52.602122120080537
 40
1.000000000000000
 50
180.000000000000000
 51
270.000000000000000
  0
LINE
  8
0
  6
CONTINUOUS
 62
3
 10
-123.156771137116550
 20
51.102122120080537
 11
-115.156771137116550
 21
51.102122120080537
  0
LINE
  8
0
  6
CONTINUOUS
 62
3
 10
-55.156771137116550
 20
51.102122120080537
 11
-47.156771137116550
 21
51.102122120080537
  0
LINE
  8
0
  6
CONTINUOUS
 62
3
 10
-55.156771137116550
 20
51.602122120080537
 11
-55.156771137116550
 21
51.102122120080537
  0
LINE
  8
0
  6
CONTINUOUS
 62
3
 10
-47.156771137116550
 20
51.602122120080537
 11
-47.156771137116550
 21
51.102122120080537
  0
LINE
  8
0
  6
CONTINUOUS
 62
3
 10
-115.156771137116550
 20
51.602122120080537
 11
-115.156771137116550
 21
51.102122120080537
  0
LINE
  8
0
  6
CONTINUOUS
 62
3
 10
-123.156771137116550
 20
51.602122120080537
 11
-123.156771137116550
 21
51.102122120080537
  0
LINE
  8
0
  6
CONTINUOUS
 62
3
 10
-40.156771137116550
 20
90.602122120080537
 11
-122.356771137137740
 21
90.602122120080537
  0
POLYLINE
  8
0
  6
CONTINUOUS
 62
3
 66
1
 70
1
  0
VERTEX
  8
0
  6
CONTINUOUS
 62
3
 10
-128.656771137137530
 20
95.774791165733006
  0
VERTEX
  8
0
  6
CONTINUOUS
 62
3
 10
-128.747080319242340
 20
96.477748131933367
  0
VERTEX
  8
0
  6
CONTINUOUS
 62
3
 10
-129.014537334334480
 20
97.153690856145460
  0
VERTEX
  8
0
  6
CONTINUOUS
 62
3
 10
-129.448863959315560
 20
97.776643238550861
  0
VERTEX
  8
0
  6
CONTINUOUS
 62
3
 10
-130.033369265560740
 20
98.322665568449438
  0
VERTEX
  8
0
  6
CONTINUOUS
 62
3
 10
-130.745591041945400
 20
98.770774513916052
  0
VERTEX
  8
0
  6
CONTINUOUS
 62
3
 10
-131.558159005021590
 20
99.103749499478823
  0
VERTEX
  8
0
  6
CONTINUOUS
 62
3
 10
-132.439846623661710
 20
99.308794483177067
  0
VERTEX
  8
0
  6
CONTINUOUS
 62
3
 10
-133.356771137137510
 20
99.378029701277839
  0
VERTEX
  8
0
  6
CONTINUOUS
 62
3
 10
-134.273695650613320
 20
99.308794483177067
  0
VERTEX
  8
0
  6
CONTINUOUS
 62
3
 10
-135.155383269253430
 20
99.103749499478823
  0
VERTEX
  8
0
  6
CONTINUOUS
 62
3
 10
-135.967951232329630
 20
98.770774513916052
  0
VERTEX
  8
0
  6
CONTINUOUS
 62
3
 10
-136.680173008714290
 20
98.322665568449438
  0
VERTEX
  8
0
  6
CONTINUOUS
 62
3
 10
-137.264678314959470
 20
97.776643238550861
  0
VERTEX
  8
0
  6
CONTINUOUS
 62
3
 10
-137.699004939940550
 20
97.153690856145460
  0
VERTEX
  8
0
  6
CONTINUOUS
 62
3
 10
-137.966461955032680
 20
96.477748131933367
  0
VERTEX
  8
0
  6
CONTINUOUS
 62
3
 10
-138.056771137137500
 20
95.774791165733006
  0
VERTEX
  8
0
  6
CONTINUOUS
 62
3
 10
-137.966461955032680
 20
95.071834199532645
  0
VERTEX
  8
0
  6
CONTINUOUS
 62
3
 10
-137.699004939940550
 20
94.395891475320553
  0
VERTEX
  8
0
  6
CONTINUOUS
 62
3
 10
-137.264678314959470
 20
93.772939092915152
  0
VERTEX
  8
0
  6
CONTINUOUS
 62
3
 10
-136.680173008714260
 20
93.226916763016575
  0
VERTEX
  8
0
  6
CONTINUOUS
 62
3
 10
-135.967951232329630
 20
92.778807817549961
  0
VERTEX
  8
0
  6
CONTINUOUS
 62
3
 10
-135.155383269253430
 20
92.445832831987190
  0
VERTEX
  8
0
  6
CONTINUOUS
 62
3
 10
-134.273695650613320
 20
92.240787848288946
  0
VERTEX
  8
0
  6
CONTINUOUS
 62
3
 10
-133.356771137137510
 20
92.171552630188174
  0
VERTEX
  8
0
  6
CONTINUOUS
 62
3
 10
-132.439846623661710
 20
92.240787848288946
  0
VERTEX
  8
0
  6
CONTINUOUS
 62
3
 10
-131.558159005021590
 20
92.445832831987190
  0
VERTEX
  8
0
  6
CONTINUOUS
 62
3
 10
-130.745591041945400
 20
92.778807817549961
  0
VERTEX
  8
0
  6
CONTINUOUS
 62
3
 10
-130.033369265560760
 20
93.226916763016575
  0
VERTEX
  8
0
  6
CONTINUOUS
 62
3
 10
-129.448863959315560
 20
93.772939092915152
  0
VERTEX
  8
0
  6
CONTINUOUS
 62
3
 10
-129.014537334334480
 20
94.395891475320553
  0
VERTEX
  8
0
  6
CONTINUOUS
 62
3
 10
-128.747080319242340
 20
95.071834199532645
  0
SEQEND
  8
0
  6
CONTINUOUS
 62
3
  0
LINE
  8
0
  6
CONTINUOUS
 62
3
 10
-135.356771137137740
 20
92.782415611732574
 11
-133.356771137137740
 21
93.958201097355470
  0
LINE
  8
0
  6
CONTINUOUS
 62
3
 10
-133.356771137137740
 20
93.958201097355470
 11
-131.356771137137740
 21
95.610842736478787
  0
LINE
  8
0
  6
CONTINUOUS
 62
3
 10
-131.356771137137740
 20
92.782415611732574
 11
-133.356771137137740
 21
93.958201097355470
  0
LINE
  8
0
  6
CONTINUOUS
 62
3
 10
-133.356771137137740
 20
93.958201097355470
 11
-135.356771137137740
 21
95.610842736478787
  0
LINE
  8
0
  6
CONTINUOUS
 62
3
 10
-122.356771137137740
 20
91.762425759271480
 11
-122.356771137137510
 21
143.102122120080540
  0
ARC
  8
0
  6
CONTINUOUS
 62
3
 10
-125.356771137137740
 20
91.762425759271594
 40
3.000000000000000
 50
270.000000000000000
 51
359.999999999997780
  0
LINE
  8
0
  6
CONTINUOUS
 62
3
 10
-129.356771137137740
 20
88.762425759271594
 11
-125.356771137137740
 21
88.762425759271594
  0
ARC
  8
0
  6
CONTINUOUS
 62
3
 10
-129.356771137137740
 20
85.762425759271594
 40
3.000000000000000
 50
90.000000000000000
 51
180.000000000000000
  0
LINE
  8
0
  6
CONTINUOUS
 62
3
 10
-132.356771137137740
 20
84.102122120080537
 11
-199.861616086230530
 21
84.102122120080537
  0
LINE
  8
0
  6
CONTINUOUS
 62
3
 10
-132.356771137137740
 20
84.102122120080537
 11
-132.356771137137740
 21
85.762425759271594
  0
LINE
  8
0
  6
CONTINUOUS
 62
3
 10
-130.156771137116550
 20
88.653792218237584
 11
-130.156771137116550
 21
52.602122120080537
  0
LINE
  8
0
  6
CONTINUOUS
 62
3
 10
-130.156771137116550
 20
85.602122120080537
 11
-40.156771137116550
 21
85.602122120080537
  0
POLYLINE
  8
0
  6
CONTINUOUS
 62
3
 66
1
 70
1
  0
VERTEX
  8
0
  6
CONTINUOUS
 62
3
 10
-128.656771137137530
 20
190.429453074428070
  0
VERTEX
  8
0
  6
CONTINUOUS
 62
3
 10
-128.747080319242340
 20
191.132410040628430
  0
VERTEX
  8
0
  6
CONTINUOUS
 62
3
 10
-129.014537334334480
 20
191.808352764840520
  0
VERTEX
  8
0
  6
CONTINUOUS
 62
3
 10
-129.448863959315560
 20
192.431305147245920
  0
VERTEX
  8
0
  6
CONTINUOUS
 62
3
 10
-130.033369265560740
 20
192.977327477144510
  0
VERTEX
  8
0
  6
CONTINUOUS
 62
3
 10
-130.745591041945400
 20
193.425436422611140
  0
VERTEX
  8
0
  6
CONTINUOUS
 62
3
 10
-131.558159005021590
 20
193.758411408173880
  0
VERTEX
  8
0
  6
CONTINUOUS
 62
3
 10
-132.439846623661710
 20
193.963456391872140
  0
VERTEX
  8
0
  6
CONTINUOUS
 62
3
 10
-133.356771137137510
 20
194.032691609972910
  0
VERTEX
  8
0
  6
CONTINUOUS
 62
3
 10
-134.273695650613320
 20
193.963456391872140
  0
VERTEX
  8
0
  6
CONTINUOUS
 62
3
 10
-135.155383269253430
 20
193.758411408173880
  0
VERTEX
  8
0
  6
CONTINUOUS
 62
3
 10
-135.967951232329630
 20
193.425436422611140
  0
VERTEX
  8
0
  6
CONTINUOUS
 62
3
 10
-136.680173008714290
 20
192.977327477144510
  0
VERTEX
  8
0
  6
CONTINUOUS
 62
3
 10
-137.264678314959470
 20
192.431305147245920
  0
VERTEX
  8
0
  6
CONTINUOUS
 62
3
 10
-137.699004939940550
 20
191.808352764840520
  0
VERTEX
  8
0
  6
CONTINUOUS
 62
3
 10
-137.966461955032680
 20
191.132410040628430
  0
VERTEX
  8
0
  6
CONTINUOUS
 62
3
 10
-138.056771137137500
 20
190.429453074428070
  0
VERTEX
  8
0
  6
CONTINUOUS
 62
3
 10
-137.966461955032680
 20
189.726496108227710
  0
VERTEX
  8
0
  6
CONTINUOUS
 62
3
 10
-137.699004939940550
 20
189.050553384015610
  0
VERTEX
  8
0
  6
CONTINUOUS
 62
3
 10
-137.264678314959470
 20
188.427601001610210
  0
VERTEX
  8
0
  6
CONTINUOUS
 62
3
 10
-136.680173008714260
 20
187.881578671711620
  0
VERTEX
  8
0
  6
CONTINUOUS
 62
3
 10
-135.967951232329630
 20
187.433469726244990
  0
VERTEX
  8
0
  6
CONTINUOUS
 62
3
 10
-135.155383269253430
 20
187.100494740682250
  0
VERTEX
  8
0
  6
CONTINUOUS
 62
3
 10
-134.273695650613320
 20
186.895449756983990
  0
VERTEX
  8
0
  6
CONTINUOUS
 62
3
 10
-133.356771137137510
 20
186.826214538883220
  0
VERTEX
  8
0
  6
CONTINUOUS
 62
3
 10
-132.439846623661710
 20
186.895449756983990
  0
VERTEX
  8
0
  6
CONTINUOUS
 62
3
 10
-131.558159005021590
 20
187.100494740682250
  0
VERTEX
  8
0
  6
CONTINUOUS
 62
3
 10
-130.745591041945400
 20
187.433469726244990
  0
VERTEX
  8
0
  6
CONTINUOUS
 62
3
 10
-130.033369265560760
 20
187.881578671711620
  0
VERTEX
  8
0
  6
CONTINUOUS
 62
3
 10
-129.448863959315560
 20
188.427601001610210
  0
VERTEX
  8
0
  6
CONTINUOUS
 62
3
 10
-129.014537334334480
 20
189.050553384015610
  0
VERTEX
  8
0
  6
CONTINUOUS
 62
3
 10
-128.747080319242340
 20
189.726496108227710
  0
SEQEND
  8
0
  6
CONTINUOUS
 62
3
  0
LINE
  8
0
  6
CONTINUOUS
 62
3
 10
-135.356771137137740
 20
193.421828628428500
 11
-133.356771137137740
 21
192.246043142805720
  0
LINE
  8
0
  6
CONTINUOUS
 62
3
 10
-133.356771137137740
 20
192.246043142805720
 11
-131.356771137137740
 21
190.593401503682290
  0
LINE
  8
0
  6
CONTINUOUS
 62
3
 10
-131.356771137137740
 20
193.421828628428500
 11
-133.356771137137740
 21
192.246043142805720
  0
LINE
  8
0
  6
CONTINUOUS
 62
3
 10
-133.356771137137740
 20
192.246043142805720
 11
-135.356771137137740
 21
190.593401503682290
  0
LINE
  8
0
  6
CONTINUOUS
 62
3
 10
-122.356771137137740
 20
202.102122120080540
 11
-122.356771137137510
 21
143.102122120080540
  0
ARC
  8
0
  6
CONTINUOUS
 62
3
 10
-199.861616086230530
 20
181.502122120080510
 40
20.600000000000023
 50
90.000000000000000
 51
124.999999999999600
  0
ARC
  8
0
  6
CONTINUOUS
 62
3
 10
-217.756771137137830
 20
190.945742253709850
 40
2.600000000000131
 50
125.000000000001180
 51
180.000000000000000
  0
LINE
  8
0
  6
CONTINUOUS
 62
3
 10
-220.356771137137740
 20
190.945742253709850
 11
-220.356771137137740
 21
143.102122120080540
  0
LINE
  8
0
  6
CONTINUOUS
 62
3
 10
-211.677290675061900
 20
198.376654232433740
 11
-219.248069871650670
 21
193.075537568861190
  0
LINE
  8
0
  6
CONTINUOUS
 62
3
 10
-122.356771137137740
 20
202.102122120080540
 11
-199.861616086230530
 21
202.102122120080540
  0
LINE
  8
0
  6
CONTINUOUS
 62
4
 10
-122.356771137137740
 20
129.102122120080540
 11
-1.856771137116596
 21
129.102122120080540
  0
LINE
  8
0
  6
CONTINUOUS
 62
4
 10
-122.356771137137510
 20
124.716007328330590
 11
-1.856771137116596
 21
124.716007328330590
  0
LINE
  8
0
  6
CONTINUOUS
 62
4
 10
-122.356771137137510
 20
123.474087463442680
 11
-1.856771137116596
 21
123.474087463442680
  0
LINE
  8
0
  6
CONTINUOUS
 62
4
 10
-122.356771137137510
 20
120.263882440084380
 11
-1.856771137116596
 21
120.263882440084380
  0
LINE
  8
0
  6
CONTINUOUS
 62
4
 10
-122.356771137137740
 20
118.917480714585790
 11
-1.856771137116596
 21
118.917480714585790
  0
LINE
  8
0
  6
CONTINUOUS
 62
4
 10
-122.356771137137740
 20
115.824749722920550
 11
-1.856771137116596
 21
115.824749722920550
  0
LINE
  8
0
  6
CONTINUOUS
 62
4
 10
-122.356771137137740
 20
114.345726569443450
 11
-1.856771137116596
 21
114.345726569443450
  0
LINE
  8
0
  6
CONTINUOUS
 62
4
 10
-122.356771137137740
 20
111.387730961310520
 11
-1.856771137116596
 21
111.387730961310520
  0
LINE
  8
0
  6
CONTINUOUS
 62
4
 10
-122.356771137137740
 20
109.798521168571760
 11
-1.856771137116596
 21
109.798521168571760
  0
LINE
  8
0
  6
CONTINUOUS
 62
4
 10
-122.356771137137740
 20
194.102122120080540
 11
-1.856771137116596
 21
194.102122120080540
  0
LINE
  8
0
  6
CONTINUOUS
 62
4
 10
-122.356771137137740
 20
193.602122120080540
 11
-1.856771137116596
 21
193.602122120080540
  0
LINE
  8
0
  6
CONTINUOUS
 62
4
 10
-122.356771137137740
 20
189.235204714963230
 11
-1.856771137116596
 21
189.235204714963230
  0
LINE
  8
0
  6
CONTINUOUS
 62
4
 10
-122.356771137137740
 20
184.144035890420300
 11
-1.856771137116596
 21
184.144035890420300
  0
LINE
  8
0
  6
CONTINUOUS
 62
4
 10
-122.356771137137740
 20
176.405723071589310
 11
-1.856771137116596
 21
176.405723071589310
  0
LINE
  8
0
  6
CONTINUOUS
 62
4
 10
-122.356771137137740
 20
174.816513278850550
 11
-1.856771137116596
 21
174.816513278850550
  0
LINE
  8
0
  6
CONTINUOUS
 62
4
 10
-122.356771137137740
 20
171.858517670717620
 11
-1.856771137116596
 21
171.858517670717620
  0
LINE
  8
0
  6
CONTINUOUS
 62
4
 10
-122.356771137137740
 20
170.379494517240520
 11
-1.856771137116596
 21
170.379494517240520
  0
LINE
  8
0
  6
CONTINUOUS
 62
4
 10
-122.356771137137740
 20
167.286763525575280
 11
-1.856771137116596
 21
167.286763525575280
  0
LINE
  8
0
  6
CONTINUOUS
 62
4
 10
-122.356771137137740
 20
165.940361800076690
 11
-1.856771137116596
 21
165.940361800076690
  0
LINE
  8
0
  6
CONTINUOUS
 62
4
 10
-122.356771137137740
 20
161.488236911830480
 11
-1.856771137116596
 21
161.488236911830480
  0
LINE
  8
0
  6
CONTINUOUS
 62
4
 10
-122.356771137137740
 20
162.730156776718390
 11
-1.856771137116596
 21
162.730156776718390
  0
LINE
  8
0
  6
CONTINUOUS
 62
4
 10
-122.356771137137740
 20
157.102122120080540
 11
-1.856771137116596
 21
157.102122120080540
  0
LINE
  8
0
  6
CONTINUOUS
 62
3
 10
-1.856771137116596
 20
196.602122120080540
 11
-122.356771137137740
 21
196.602122120080540
  0
POLYLINE
  8
0
  6
CONTINUOUS
 62
3
 66
1
  0
VERTEX
  8
0
  6
CONTINUOUS
 62
3
 10
308.814058631329490
 20
-101.397878480852280
  0
VERTEX
  8
0
  6
CONTINUOUS
 62
3
 10
308.682787139070460
 20
-99.560383257707699
  0
VERTEX
  8
0
  6
CONTINUOUS
 62
3
 10
308.293442785429080
 20
-97.785461712477783
  0
VERTEX
  8
0
  6
CONTINUOUS
 62
3
 10
307.659284225907360
 20
-96.133556671907328
  0
VERTEX
  8
0
  6
CONTINUOUS
 62
3
 10
306.801906970484250
 20
-94.660921783057177
  0
VERTEX
  8
0
  6
CONTINUOUS
 62
3
 10
305.750507974396330
 20
-93.417705862749273
  0
VERTEX
  8
0
  6
CONTINUOUS
 62
3
 10
304.540891370807000
 20
-92.446245139691598
  0
VERTEX
  8
0
  6
CONTINUOUS
 62
3
 10
303.214249203947760
 20
-91.779621544931146
  0
VERTEX
  8
0
  6
CONTINUOUS
 62
3
 10
301.815758683402410
 20
-91.440536146326593
  0
VERTEX
  8
0
  6
CONTINUOUS
 62
3
 10
300.393043728360450
 20
-91.440536090879817
  0
VERTEX
  8
0
  6
CONTINUOUS
 62
3
 10
298.994553192105400
 20
-91.779621380478972
  0
VERTEX
  8
0
  6
CONTINUOUS
 62
3
 10
297.667910994361760
 20
-92.446244871834253
  0
VERTEX
  8
0
  6
CONTINUOUS
 62
3
 10
296.458294345765070
 20
-93.417705500608321
  0
VERTEX
  8
0
  6
CONTINUOUS
 62
3
 10
295.406895292079410
 20
-94.660921338964883
  0
VERTEX
  8
0
  6
CONTINUOUS
 62
3
 10
294.549517968429650
 20
-96.133556160986743
  0
VERTEX
  8
0
  6
CONTINUOUS
 62
3
 10
293.915359332375830
 20
-97.785461152127695
  0
VERTEX
  8
0
  6
CONTINUOUS
 62
3
 10
293.526014896503060
 20
-99.560382667010145
  0
VERTEX
  8
0
  6
CONTINUOUS
 62
3
 10
293.394743319113620
 20
-101.397877879922760
  0
SEQEND
  8
0
  6
CONTINUOUS
 62
3
  0
LINE
  8
0
  6
CONTINUOUS
 62
3
 10
336.290311591364340
 20
-101.397877879922760
 11
322.685532770419060
 21
-101.397877879922760
  0
ARC
  8
0
  6
CONTINUOUS
 62
3
 10
322.685532770419060
 20
-104.897877879922760
 40
3.500000000000000
 50
90.000000000000000
 51
180.000000000000000
  0
LINE
  8
0
  6
CONTINUOUS
 62
3
 10
319.185532770419060
 20
-104.897877879922760
 11
319.185532770419060
 21
-194.797877879922850
  0
ARC
  8
0
  6
CONTINUOUS
 62
3
 10
336.290311591364340
 20
-104.397877879922760
 40
3.000000000000032
 50
4.000629961575198
 51
90.000000000000000
  0
LINE
  8
0
  6
CONTINUOUS
 62
3
 10
285.185532770419060
 20
-111.631276064103920
 11
285.185532770419060
 21
-205.397877879922760
  0
LINE
  8
0
  6
DASHDOT
 62
4
 10
272.184239352322040
 20
-101.397877879922760
 11
485.955210776362950
 21
-101.397877879922760
  0
LINE
  8
0
  6
CONTINUOUS
 62
3
 10
293.394743319113560
 20
-101.397877879922760
 11
293.394743319113560
 21
-205.397877879922760
  0
LINE
  8
0
  6
CONTINUOUS
 62
3
 10
308.814058631329540
 20
-101.397878480852280
 11
308.814058631329540
 21
-205.397877879922760
  0
LINE
  8
0
  6
CONTINUOUS
 62
3
 10
312.438532770418760
 20
-111.397877879922760
 11
312.438532770418760
 21
-205.397877879922760
  0
ARC
  8
0
  6
CONTINUOUS
 62
3
 10
365.185532770419060
 20
-111.631276064103920
 40
52.746750336799941
 50
91.910213171710112
 51
180.000000000000000
  0
ARC
  8
0
  6
CONTINUOUS
 62
3
 10
365.185532770419060
 20
-111.631276064103920
 40
79.999999999999844
 50
91.910213171710154
 51
180.000000000000000
  0
ARC
  8
0
  6
CONTINUOUS
 62
3
 10
587.685532770419060
 20
-106.897877879919880
 40
299.999999999999940
 50
173.967950853630160
 51
176.774168547560860
  0
ARC
  8
0
  6
CONTINUOUS
 62
3
 10
294.318867997476620
 20
-75.897877879919889
 40
5.000000000000000
 50
90.000000000000000
 51
173.967950853629450
  0
LINE
  8
0
  6
CONTINUOUS
 62
3
 10
296.332135814504740
 20
-70.897877879919889
 11
294.318867997476620
 21
-70.897877879919889
  0
LINE
  8
0
  6
CONTINUOUS
 62
3
 10
-122.356755783014250
 20
-160.897877879919690
 11
-122.356755783014250
 21
-147.897877879919460
  0
LINE
  8
0
  6
CONTINUOUS
 62
3
 10
-122.356755783014250
 20
-52.897877879919250
 11
-122.356755783014250
 21
-65.897877879919477
  0
LINE
  8
0
  6
CONTINUOUS
 62
3
 10
-133.356755783014250
 20
-57.753956857194297
 11
-135.356755783014250
 21
-59.406598496317727
  0
LINE
  8
0
  6
CONTINUOUS
 62
3
 10
-131.356755783014250
 20
-56.578171371571514
 11
-133.356755783014250
 21
-57.753956857194297
  0
LINE
  8
0
  6
CONTINUOUS
 62
3
 10
-133.356755783014250
 20
-57.753956857194297
 11
-131.356755783014250
 21
-59.406598496317727
  0
LINE
  8
0
  6
CONTINUOUS
 62
3
 10
-135.356755783014250
 20
-56.578171371571514
 11
-133.356755783014250
 21
-57.753956857194297
  0
POLYLINE
  8
0
  6
CONTINUOUS
 62
3
 66
1
 70
1
  0
VERTEX
  8
0
  6
CONTINUOUS
 62
3
 10
-128.656755783014030
 20
-59.570546925571833
  0
VERTEX
  8
0
  6
CONTINUOUS
 62
3
 10
-128.747064965118850
 20
-58.867589959371472
  0
VERTEX
  8
0
  6
CONTINUOUS
 62
3
 10
-129.014521980210990
 20
-58.191647235159380
  0
VERTEX
  8
0
  6
CONTINUOUS
 62
3
 10
-129.448848605192070
 20
-57.568694852753978
  0
VERTEX
  8
0
  6
CONTINUOUS
 62
3
 10
-130.033353911437250
 20
-57.022672522855395
  0
VERTEX
  8
0
  6
CONTINUOUS
 62
3
 10
-130.745575687821910
 20
-56.574563577388780
  0
VERTEX
  8
0
  6
CONTINUOUS
 62
3
 10
-131.558143650898100
 20
-56.241588591826023
  0
VERTEX
  8
0
  6
CONTINUOUS
 62
3
 10
-132.439831269538220
 20
-56.036543608127772
  0
VERTEX
  8
0
  6
CONTINUOUS
 62
3
 10
-133.356755783014020
 20
-55.967308390027000
  0
VERTEX
  8
0
  6
CONTINUOUS
 62
3
 10
-134.273680296489830
 20
-56.036543608127772
  0
VERTEX
  8
0
  6
CONTINUOUS
 62
3
 10
-135.155367915129940
 20
-56.241588591826023
  0
VERTEX
  8
0
  6
CONTINUOUS
 62
3
 10
-135.967935878206130
 20
-56.574563577388780
  0
VERTEX
  8
0
  6
CONTINUOUS
 62
3
 10
-136.680157654590800
 20
-57.022672522855395
  0
VERTEX
  8
0
  6
CONTINUOUS
 62
3
 10
-137.264662960835980
 20
-57.568694852753978
  0
VERTEX
  8
0
  6
CONTINUOUS
 62
3
 10
-137.698989585817060
 20
-58.191647235159380
  0
VERTEX
  8
0
  6
CONTINUOUS
 62
3
 10
-137.966446600909190
 20
-58.867589959371472
  0
VERTEX
  8
0
  6
CONTINUOUS
 62
3
 10
-138.056755783014010
 20
-59.570546925571833
  0
VERTEX
  8
0
  6
CONTINUOUS
 62
3
 10
-137.966446600909190
 20
-60.273503891772194
  0
VERTEX
  8
0
  6
CONTINUOUS
 62
3
 10
-137.698989585817060
 20
-60.949446615984286
  0
VERTEX
  8
0
  6
CONTINUOUS
 62
3
 10
-137.264662960835980
 20
-61.572398998389687
  0
VERTEX
  8
0
  6
CONTINUOUS
 62
3
 10
-136.680157654590770
 20
-62.118421328288264
  0
VERTEX
  8
0
  6
CONTINUOUS
 62
3
 10
-135.967935878206130
 20
-62.566530273754886
  0
VERTEX
  8
0
  6
CONTINUOUS
 62
3
 10
-135.155367915129940
 20
-62.899505259317642
  0
VERTEX
  8
0
  6
CONTINUOUS
 62
3
 10
-134.273680296489830
 20
-63.104550243015893
  0
VERTEX
  8
0
  6
CONTINUOUS
 62
3
 10
-133.356755783014020
 20
-63.173785461116665
  0
VERTEX
  8
0
  6
CONTINUOUS
 62
3
 10
-132.439831269538220
 20
-63.104550243015893
  0
VERTEX
  8
0
  6
CONTINUOUS
 62
3
 10
-131.558143650898100
 20
-62.899505259317642
  0
VERTEX
  8
0
  6
CONTINUOUS
 62
3
 10
-130.745575687821910
 20
-62.566530273754886
  0
VERTEX
  8
0
  6
CONTINUOUS
 62
3
 10
-130.033353911437270
 20
-62.118421328288264
  0
VERTEX
  8
0
  6
CONTINUOUS
 62
3
 10
-129.448848605192070
 20
-61.572398998389687
  0
VERTEX
  8
0
  6
CONTINUOUS
 62
3
 10
-129.014521980210990
 20
-60.949446615984286
  0
VERTEX
  8
0
  6
CONTINUOUS
 62
3
 10
-128.747064965118850
 20
-60.273503891772194
  0
SEQEND
  8
0
  6
CONTINUOUS
 62
3
  0
LINE
  8
0
  6
DASHDOT
 62
4
 10
22.882361205764028
 20
-106.897877879919470
 11
-235.769405966464550
 21
-106.897877879919470
  0
LINE
  8
0
  6
CONTINUOUS
 62
3
 10
-132.356755783014250
 20
-106.897877879919470
 11
-132.356755783014250
 21
-71.897877879919477
  0
LINE
  8
0
  6
CONTINUOUS
 62
3
 10
-1.856755782993105
 20
-54.397877879919477
 11
-122.356755783014250
 21
-54.397877879919477
  0
LINE
  8
0
  6
CONTINUOUS
 62
4
 10
-122.356755783014250
 20
-56.397877879919477
 11
-1.856755782993105
 21
-56.397877879919477
  0
LINE
  8
0
  6
CONTINUOUS
 62
4
 10
-122.356755783014250
 20
-55.897877879919250
 11
-1.856755782993105
 21
-55.897877879919250
  0
LINE
  8
0
  6
CONTINUOUS
 62
4
 10
-122.356755783014250
 20
-60.764795285036669
 11
-1.856755782993105
 21
-60.764795285036669
  0
LINE
  8
0
  6
CONTINUOUS
 62
4
 10
-122.356755783014250
 20
-62.393222352814590
 11
-1.856755782993105
 21
-62.393222352814590
  0
LINE
  8
0
  6
CONTINUOUS
 62
4
 10
-122.356755783014250
 20
-65.855964109579716
 11
-1.856755782993105
 21
-65.855964109579716
  0
LINE
  8
0
  6
CONTINUOUS
 62
4
 10
-122.514356129385530
 20
-66.857442473395011
 11
-1.856755782993105
 21
-66.857442473395011
  0
LINE
  8
0
  6
CONTINUOUS
 62
4
 10
-132.356755783014250
 20
-73.594276928410707
 11
-130.156755782992600
 21
-73.594276928410707
  0
LINE
  8
0
  6
CONTINUOUS
 62
4
 10
-132.356755783014250
 20
-75.183486721149464
 11
-130.156755782992600
 21
-75.183486721149464
  0
LINE
  8
0
  6
CONTINUOUS
 62
4
 10
-132.356755783014250
 20
-78.141482329282397
 11
-130.156755782992600
 21
-78.141482329282397
  0
LINE
  8
0
  6
CONTINUOUS
 62
4
 10
-132.356755783014250
 20
-79.620505482759498
 11
-130.156755782992600
 21
-79.620505482759498
  0
LINE
  8
0
  6
CONTINUOUS
 62
4
 10
-132.356755783014250
 20
-82.713236474424846
 11
-130.156755782992600
 21
-82.713236474424846
  0
LINE
  8
0
  6
CONTINUOUS
 62
4
 10
-132.356755783014250
 20
-84.059638199923327
 11
-130.156755782992600
 21
-84.059638199923327
  0
LINE
  8
0
  6
CONTINUOUS
 62
4
 10
-132.356755783014250
 20
-86.897877879919477
 11
-130.156755782992600
 21
-86.897877879919477
  0
LINE
  8
0
  6
CONTINUOUS
 62
4
 10
-40.156755782992605
 20
-78.141482329282397
 11
-1.856755782993105
 21
-78.141482329282397
  0
LINE
  8
0
  6
CONTINUOUS
 62
4
 10
-40.156755782992605
 20
-79.620505482759498
 11
-1.856755782993105
 21
-79.620505482759498
  0
LINE
  8
0
  6
CONTINUOUS
 62
4
 10
-40.156755782992605
 20
-82.713236474424846
 11
-1.856755782993105
 21
-82.713236474424846
  0
LINE
  8
0
  6
CONTINUOUS
 62
4
 10
-40.156755782992605
 20
-84.059638199923327
 11
-1.856755782993105
 21
-84.059638199923327
  0
LINE
  8
0
  6
CONTINUOUS
 62
4
 10
-40.156755782992605
 20
-86.897877879919477
 11
-1.856755782993105
 21
-86.897877879919477
  0
LINE
  8
0
  6
CONTINUOUS
 62
4
 10
-40.156755782992605
 20
-75.183486721149464
 11
-1.856755782993105
 21
-75.183486721149464
  0
LINE
  8
0
  6
CONTINUOUS
 62
4
 10
-40.156755782992605
 20
-73.594276928410707
 11
-1.856755782993105
 21
-73.594276928410707
  0
ARC
  8
0
  6
CONTINUOUS
 62
3
 10
-125.356755783014250
 20
-65.897877879919477
 40
3.000000000000000
 50
270.000000000000000
 51
0.000000000000000
  0
LINE
  8
0
  6
CONTINUOUS
 62
3
 10
-125.356755783014250
 20
-68.897877879919477
 11
-129.356755783014250
 21
-68.897877879919477
  0
ARC
  8
0
  6
CONTINUOUS
 62
3
 10
-129.356755783014250
 20
-71.897877879919477
 40
3.000000000000000
 50
90.000000000000000
 51
180.000000000000000
  0
LINE
  8
0
  6
CONTINUOUS
 62
3
 10
-132.356755783014250
 20
-106.897877879919470
 11
-132.356755783014250
 21
-141.897877879919460
  0
LINE
  8
0
  6
CONTINUOUS
 62
4
 10
-122.356755783014250
 20
-147.939791650259000
 11
-1.856755782993105
 21
-147.939791650259000
  0
LINE
  8
0
  6
CONTINUOUS
 62
4
 10
-122.514356129385530
 20
-146.938313286443700
 11
-1.856755782993105
 21
-146.938313286443700
  0
LINE
  8
0
  6
CONTINUOUS
 62
4
 10
-132.356755783014250
 20
-140.201478831428230
 11
-130.156755782992600
 21
-140.201478831428230
  0
LINE
  8
0
  6
CONTINUOUS
 62
4
 10
-132.356755783014250
 20
-138.612269038689480
 11
-130.156755782992600
 21
-138.612269038689480
  0
LINE
  8
0
  6
CONTINUOUS
 62
4
 10
-132.356755783014250
 20
-135.654273430556540
 11
-130.156755782992600
 21
-135.654273430556540
  0
LINE
  8
0
  6
CONTINUOUS
 62
4
 10
-132.356755783014250
 20
-134.175250277079440
 11
-130.156755782992600
 21
-134.175250277079440
  0
LINE
  8
0
  6
CONTINUOUS
 62
4
 10
-132.356755783014250
 20
-131.082519285414090
 11
-130.156755782992600
 21
-131.082519285414090
  0
LINE
  8
0
  6
CONTINUOUS
 62
4
 10
-132.356755783014250
 20
-129.736117559915610
 11
-130.156755782992600
 21
-129.736117559915610
  0
LINE
  8
0
  6
CONTINUOUS
 62
4
 10
-132.356755783014250
 20
-126.897877879919470
 11
-130.156755782992600
 21
-126.897877879919470
  0
LINE
  8
0
  6
CONTINUOUS
 62
4
 10
-40.156755782992605
 20
-135.654273430556540
 11
-1.856755782993105
 21
-135.654273430556540
  0
LINE
  8
0
  6
CONTINUOUS
 62
4
 10
-40.156755782992605
 20
-134.175250277079440
 11
-1.856755782993105
 21
-134.175250277079440
  0
LINE
  8
0
  6
CONTINUOUS
 62
4
 10
-40.156755782992605
 20
-131.082519285414090
 11
-1.856755782993105
 21
-131.082519285414090
  0
LINE
  8
0
  6
CONTINUOUS
 62
4
 10
-40.156755782992605
 20
-129.736117559915610
 11
-1.856755782993105
 21
-129.736117559915610
  0
LINE
  8
0
  6
CONTINUOUS
 62
4
 10
-40.156755782992605
 20
-126.897877879919470
 11
-1.856755782993105
 21
-126.897877879919470
  0
LINE
  8
0
  6
CONTINUOUS
 62
4
 10
-40.156755782992605
 20
-138.612269038689480
 11
-1.856755782993105
 21
-138.612269038689480
  0
LINE
  8
0
  6
CONTINUOUS
 62
4
 10
-40.156755782992605
 20
-140.201478831428230
 11
-1.856755782993105
 21
-140.201478831428230
  0
ARC
  8
0
  6
CONTINUOUS
 62
3
 10
-125.356755783014250
 20
-147.897877879919460
 40
3.000000000000000
 50
0.000000000000000
 51
90.000000000000000
  0
LINE
  8
0
  6
CONTINUOUS
 62
3
 10
-125.356755783014250
 20
-144.897877879919460
 11
-129.356755783014250
 21
-144.897877879919460
  0
ARC
  8
0
  6
CONTINUOUS
 62
3
 10
-129.356755783014250
 20
-141.897877879919460
 40
3.000000000000000
 50
180.000000000000000
 51
270.000000000000000
  0
LINE
  8
0
  6
CONTINUOUS
 62
3
 10
-40.156755782992377
 20
-71.897877879919477
 11
-40.156755782993059
 21
-106.897877879921060
  0
LINE
  8
0
  6
CONTINUOUS
 62
3
 10
-41.156755782992605
 20
-70.897877879919477
 11
-129.156755782992600
 21
-70.897877879919477
  0
ARC
  8
0
  6
CONTINUOUS
 62
3
 10
-41.156755782992605
 20
-71.897877879919477
 40
1.000000000000227
 50
0.000000000000000
 51
90.000000000000000
  0
LINE
  8
0
  6
CONTINUOUS
 62
3
 10
-41.156755782992605
 20
-142.897877879919460
 11
-129.156755782992600
 21
-142.897877879919460
  0
ARC
  8
0
  6
CONTINUOUS
 62
3
 10
-41.156755782992605
 20
-141.897877879919460
 40
1.000000000000000
 50
270.000000000000000
 51
0.000000000000000
  0
LINE
  8
0
  6
CONTINUOUS
 62
3
 10
-40.156755782992377
 20
-141.897877879919460
 11
-40.156755782993059
 21
-106.897877879917880
  0
ARC
  8
0
  6
CONTINUOUS
 62
3
 10
-129.156755782992600
 20
-71.897877879919477
 40
1.000000000000000
 50
90.000000000000000
 51
180.000000000000000
  0
LINE
  8
0
  6
CONTINUOUS
 62
3
 10
-130.156755782992380
 20
-71.897877879919477
 11
-130.156755782993060
 21
-106.897877879919700
  0
LINE
  8
0
  6
CONTINUOUS
 62
3
 10
-130.156755782992380
 20
-141.897877879919460
 11
-130.156755782993060
 21
-106.897877879919250
  0
ARC
  8
0
  6
CONTINUOUS
 62
3
 10
-129.156755782992600
 20
-141.897877879919460
 40
0.999999999999773
 50
180.000000000000000
 51
270.000000000000000
  0
LINE
  8
0
  6
CONTINUOUS
 62
3
 10
-122.356755783014250
 20
-52.897877879919250
 11
-199.861600732107040
 21
-52.897877879919250
  0
ARC
  8
0
  6
CONTINUOUS
 62
3
 10
-199.861600732107040
 20
-140.297877879919780
 40
20.599999999999795
 50
235.000000000000260
 51
270.000000000000000
  0
ARC
  8
0
  6
CONTINUOUS
 62
3
 10
-217.756755783014340
 20
-149.741498013549120
 40
2.599999999999909
 50
180.000000000000000
 51
234.999999999994540
  0
LINE
  8
0
  6
CONTINUOUS
 62
3
 10
-220.356755783014250
 20
-149.741498013549120
 11
-220.356755783014250
 21
-106.897877879919470
  0
LINE
  8
0
  6
CONTINUOUS
 62
3
 10
-211.677275320938410
 20
-157.172409992272890
 11
-219.248054517527180
 21
-151.871293328700230
  0
LINE
  8
0
  6
CONTINUOUS
 62
4
 10
-122.356755783014250
 20
-151.402533407024350
 11
-1.856755782993105
 21
-151.402533407024350
  0
LINE
  8
0
  6
CONTINUOUS
 62
4
 10
-122.356755783014250
 20
-153.030960474802270
 11
-1.856755782993105
 21
-153.030960474802270
  0
LINE
  8
0
  6
CONTINUOUS
 62
4
 10
-122.356755783014250
 20
-157.897877879919690
 11
-1.856755782993105
 21
-157.897877879919690
  0
LINE
  8
0
  6
CONTINUOUS
 62
4
 10
-122.356755783014250
 20
-157.397877879919460
 11
-1.856755782993105
 21
-157.397877879919460
  0
LINE
  8
0
  6
CONTINUOUS
 62
3
 10
-1.856755782993105
 20
-159.397877879919460
 11
-122.356755783014250
 21
-159.397877879919460
  0
ARC
  8
0
  6
CONTINUOUS
 62
3
 10
-199.861600732107040
 20
-73.497877879919159
 40
20.599999999999909
 50
90.000000000000000
 51
124.999999999999780
  0
ARC
  8
0
  6
CONTINUOUS
 62
3
 10
-217.756755783014340
 20
-64.054257746289821
 40
2.600000000000037
 50
125.000000000002600
 51
180.000000000000000
  0
LINE
  8
0
  6
CONTINUOUS
 62
3
 10
-220.356755783014250
 20
-64.054257746289821
 11
-220.356755783014250
 21
-106.897877879919470
  0
LINE
  8
0
  6
CONTINUOUS
 62
3
 10
-211.677275320938410
 20
-56.623345767565823
 11
-219.248054517527180
 21
-61.924462431138707
  0
POLYLINE
  8
0
  6
CONTINUOUS
 62
3
 66
1
 70
1
  0
VERTEX
  8
0
  6
CONTINUOUS
 62
3
 10
-128.656755783014030
 20
-154.225208834267110
  0
VERTEX
  8
0
  6
CONTINUOUS
 62
3
 10
-128.747064965118850
 20
-153.522251868066750
  0
VERTEX
  8
0
  6
CONTINUOUS
 62
3
 10
-129.014521980210990
 20
-152.846309143854650
  0
VERTEX
  8
0
  6
CONTINUOUS
 62
3
 10
-129.448848605192070
 20
-152.223356761449250
  0
VERTEX
  8
0
  6
CONTINUOUS
 62
3
 10
-130.033353911437250
 20
-151.677334431550660
  0
VERTEX
  8
0
  6
CONTINUOUS
 62
3
 10
-130.745575687821910
 20
-151.229225486084030
  0
VERTEX
  8
0
  6
CONTINUOUS
 62
3
 10
-131.558143650898100
 20
-150.896250500521290
  0
VERTEX
  8
0
  6
CONTINUOUS
 62
3
 10
-132.439831269538220
 20
-150.691205516823030
  0
VERTEX
  8
0
  6
CONTINUOUS
 62
3
 10
-133.356755783014020
 20
-150.621970298722260
  0
VERTEX
  8
0
  6
CONTINUOUS
 62
3
 10
-134.273680296489830
 20
-150.691205516823030
  0
VERTEX
  8
0
  6
CONTINUOUS
 62
3
 10
-135.155367915129940
 20
-150.896250500521290
  0
VERTEX
  8
0
  6
CONTINUOUS
 62
3
 10
-135.967935878206130
 20
-151.229225486084030
  0
VERTEX
  8
0
  6
CONTINUOUS
 62
3
 10
-136.680157654590800
 20
-151.677334431550660
  0
VERTEX
  8
0
  6
CONTINUOUS
 62
3
 10
-137.264662960835980
 20
-152.223356761449250
  0
VERTEX
  8
0
  6
CONTINUOUS
 62
3
 10
-137.698989585817060
 20
-152.846309143854650
  0
VERTEX
  8
0
  6
CONTINUOUS
 62
3
 10
-137.966446600909190
 20
-153.522251868066750
  0
VERTEX
  8
0
  6
CONTINUOUS
 62
3
 10
-138.056755783014010
 20
-154.225208834267110
  0
VERTEX
  8
0
  6
CONTINUOUS
 62
3
 10
-137.966446600909190
 20
-154.928165800467470
  0
VERTEX
  8
0
  6
CONTINUOUS
 62
3
 10
-137.698989585817060
 20
-155.604108524679560
  0
VERTEX
  8
0
  6
CONTINUOUS
 62
3
 10
-137.264662960835980
 20
-156.227060907084960
  0
VERTEX
  8
0
  6
CONTINUOUS
 62
3
 10
-136.680157654590770
 20
-156.773083236983550
  0
VERTEX
  8
0
  6
CONTINUOUS
 62
3
 10
-135.967935878206130
 20
-157.221192182450180
  0
VERTEX
  8
0
  6
CONTINUOUS
 62
3
 10
-135.155367915129940
 20
-157.554167168012920
  0
VERTEX
  8
0
  6
CONTINUOUS
 62
3
 10
-134.273680296489830
 20
-157.759212151711180
  0
VERTEX
  8
0
  6
CONTINUOUS
 62
3
 10
-133.356755783014020
 20
-157.828447369811950
  0
VERTEX
  8
0
  6
CONTINUOUS
 62
3
 10
-132.439831269538220
 20
-157.759212151711180
  0
VERTEX
  8
0
  6
CONTINUOUS
 62
3
 10
-131.558143650898100
 20
-157.554167168012920
  0
VERTEX
  8
0
  6
CONTINUOUS
 62
3
 10
-130.745575687821910
 20
-157.221192182450180
  0
VERTEX
  8
0
  6
CONTINUOUS
 62
3
 10
-130.033353911437270
 20
-156.773083236983550
  0
VERTEX
  8
0
  6
CONTINUOUS
 62
3
 10
-129.448848605192070
 20
-156.227060907084960
  0
VERTEX
  8
0
  6
CONTINUOUS
 62
3
 10
-129.014521980210990
 20
-155.604108524679560
  0
VERTEX
  8
0
  6
CONTINUOUS
 62
3
 10
-128.747064965118850
 20
-154.928165800467470
  0
SEQEND
  8
0
  6
CONTINUOUS
 62
3
  0
LINE
  8
0
  6
CONTINUOUS
 62
3
 10
-135.356755783014250
 20
-157.217584388267430
 11
-133.356755783014250
 21
-156.041798902644640
  0
LINE
  8
0
  6
CONTINUOUS
 62
3
 10
-133.356755783014250
 20
-156.041798902644640
 11
-131.356755783014250
 21
-154.389157263521210
  0
LINE
  8
0
  6
CONTINUOUS
 62
3
 10
-131.356755783014250
 20
-157.217584388267430
 11
-133.356755783014250
 21
-156.041798902644640
  0
LINE
  8
0
  6
CONTINUOUS
 62
3
 10
-133.356755783014250
 20
-156.041798902644640
 11
-135.356755783014250
 21
-154.389157263521210
  0
LINE
  8
0
  6
CONTINUOUS
 62
3
 10
-122.356755783014250
 20
-160.897877879919690
 11
-199.861600732107040
 21
-160.897877879919690
  0
LINE
  8
0
  6
CONTINUOUS
 62
3
 10
-1.856755782993105
 20
-106.897877879919470
 11
-1.856755782993105
 21
-159.397877879919460
  0
LINE
  8
0
  6
CONTINUOUS
 62
3
 10
-1.856755782993105
 20
-106.897877879919470
 11
-1.856755782993105
 21
-54.397877879919477
  0
LINE
  8
0
  6
CONTINUOUS
 62
3
 10
-1.856755782993105
 20
-106.897877879919490
 11
-1.856755782993105
 21
-159.397877879919490
  0
LINE
  8
0
  6
CONTINUOUS
 62
3
 10
-1.856755782993105
 20
-106.897877879919490
 11
-1.856755782993105
 21
-54.397877879919484
  0
ARC
  8
0
  6
CONTINUOUS
 62
3
 10
379.185532770419060
 20
-101.397877879922760
 40
40.000000000000249
 50
184.000629961571520
 51
270.000000000000000
  0
CIRCLE
  8
0
  6
CONTINUOUS
 62
3
 10
379.185532770419060
 20
-101.397877879922760
 40
33.500000000000000
  0
LINE
  8
0
  6
DASHDOT
 62
4
 10
410.692707330541450
 20
-106.897877879919910
 11
347.979185643169330
 21
-106.897877879919910
  0
CIRCLE
  8
0
  6
CONTINUOUS
 62
4
 10
379.185532770419060
 20
-101.397877879922760
 40
4.000000000000000
  0
CIRCLE
  8
0
  6
CONTINUOUS
 62
3
 10
379.185532770419060
 20
-101.397877879922760
 40
3.323500000000024
  0
LINE
  8
0
  6
CONTINUOUS
 62
3
 10
360.185532770418150
 20
-96.397877879922760
 11
368.185532770418150
 21
-96.397877879922760
  0
LINE
  8
0
  6
CONTINUOUS
 62
3
 10
360.185532770418150
 20
-106.397877879922760
 11
360.185532770418150
 21
-96.397877879922760
  0
ARC
  8
0
  6
CONTINUOUS
 62
3
 10
379.185532770418150
 20
-101.397877879922760
 40
16.000000000000192
 50
198.209956864282790
 51
161.790043135717210
  0
LINE
  8
0
  6
CONTINUOUS
 62
3
 10
368.185532770418150
 20
-106.397877879922760
 11
368.185532770418150
 21
-96.397877879922760
  0
LINE
  8
0
  6
CONTINUOUS
 62
3
 10
360.185532770418150
 20
-106.397877879922760
 11
368.185532770418150
 21
-106.397877879922760
  0
LINE
  8
0
  6
CONTINUOUS
 62
3
 10
389.685532770419060
 20
3.602122120077240
 11
368.685532770419060
 21
3.602122120077240
  0
ARC
  8
0
  6
CONTINUOUS
 62
3
 10
368.685532770419060
 20
-6.397877879922760
 40
10.000000000000000
 50
90.000000000000000
 51
180.000000000000000
  0
LINE
  8
0
  6
CONTINUOUS
 62
3
 10
358.685532770419060
 20
-6.397877879922760
 11
358.685532770419060
 21
-31.895775814842580
  0
CIRCLE
  8
0
  6
CONTINUOUS
 62
3
 10
379.185532770419060
 20
-16.397877879922760
 40
10.000000000000000
  0
LINE
  8
0
  6
CONTINUOUS
 62
3
 10
399.685532770419060
 20
-6.397877879922760
 11
399.685532770419060
 21
-31.397870919058221
  0
ARC
  8
0
  6
CONTINUOUS
 62
3
 10
389.685532770419060
 20
-6.397877879922760
 40
10.000000000000000
 50
0.000000000000000
 51
90.000000000000000
  0
LINE
  8
0
  6
DASHDOT
 62
4
 10
402.353445769300610
 20
-16.397877879922760
 11
355.330931867765910
 21
-16.397877879922760
  0
ARC
  8
0
  6
CONTINUOUS
 62
3
 10
448.932532770419360
 20
-205.397877879922760
 40
3.000000000000000
 50
180.000000000000000
 51
270.000000000000000
  0
ARC
  8
0
  6
CONTINUOUS
 62
3
 10
309.438532770418760
 20
-205.397877879922760
 40
3.000000000000000
 50
270.000000000000000
 51
0.000000000000000
  0
ARC
  8
0
  6
CONTINUOUS
 62
3
 10
467.976322221724560
 20
-205.397877879922760
 40
3.000000000000000
 50
180.000000000000000
 51
270.000000000000000
  0
ARC
  8
0
  6
CONTINUOUS
 62
3
 10
452.557006909508570
 20
-205.397877879922760
 40
3.000000000000000
 50
180.000000000000000
 51
270.000000000000000
  0
ARC
  8
0
  6
CONTINUOUS
 62
3
 10
305.814058631329540
 20
-205.397877879922760
 40
3.000000000000000
 50
270.000000000000000
 51
0.000000000000000
  0
ARC
  8
0
  6
CONTINUOUS
 62
3
 10
290.394743319113560
 20
-205.397877879922760
 40
3.000000000000000
 50
270.000000000000000
 51
0.000000000000000
  0
ARC
  8
0
  6
CONTINUOUS
 62
3
 10
311.185532770419060
 20
-226.397877879922760
 40
2.000000000000000
 50
90.000000000000000
 51
180.000000000000000
  0
ARC
  8
0
  6
CONTINUOUS
 62
3
 10
281.685532770419060
 20
-210.897877879922760
 40
2.500000000000000
 50
90.000000000000000
 51
180.000000000000000
  0
ARC
  8
0
  6
CONTINUOUS
 62
3
 10
447.185532770419060
 20
-226.397877879922760
 40
2.000000000000000
 50
0.000000000000000
 51
90.000000000000000
  0
ARC
  8
0
  6
CONTINUOUS
 62
3
 10
476.685532770419060
 20
-210.897877879922760
 40
2.500000000000000
 50
0.000000000000000
 51
90.000000000000000
  0
ARC
  8
0
  6
CONTINUOUS
 62
3
 10
282.185532770419060
 20
-205.397877879922760
 40
3.000000000000000
 50
270.000000000000000
 51
0.000000000000000
  0
ARC
  8
0
  6
CONTINUOUS
 62
3
 10
476.185532770419060
 20
-205.397877879922760
 40
3.000000000000000
 50
180.000000000000000
 51
270.000000000000000
  0
ARC
  8
0
  6
CONTINUOUS
 62
3
 10
393.185532770419060
 20
-111.631276064103920
 40
80.000000000000000
 50
0.000000000000000
 51
88.089786828289846
  0
ARC
  8
0
  6
CONTINUOUS
 62
3
 10
379.185532770419060
 20
-531.397877879922820
 40
500.000000000000110
 50
88.089786828290030
 51
90.000000000000000
  0
ARC
  8
0
  6
CONTINUOUS
 62
3
 10
379.185532770419060
 20
-531.397877879922820
 40
500.000000000000060
 50
90.000000000000000
 51
91.910213171709970
  0
ARC
  8
0
  6
CONTINUOUS
 62
3
 10
379.185532770419060
 20
-531.397877879922820
 40
472.746750336800230
 50
88.089786828290045
 51
90.000000000000000
  0
ARC
  8
0
  6
CONTINUOUS
 62
3
 10
393.185532770419060
 20
-111.631276064103920
 40
52.746750336800233
 50
0.000000000000000
 51
88.089786828289888
  0
ARC
  8
0
  6
CONTINUOUS
 62
3
 10
379.185532770419060
 20
-531.397877879922820
 40
472.746750336799830
 50
90.000000000000000
 51
91.910213171709955
  0
LINE
  8
0
  6
CONTINUOUS
 62
3
 10
445.932532770419360
 20
-111.397877879922760
 11
445.932532770419360
 21
-205.397877879922760
  0
LINE
  8
0
  6
CONTINUOUS
 62
3
 10
464.976322221724560
 20
-101.397877879922760
 11
464.976322221724560
 21
-205.397877879922760
  0
LINE
  8
0
  6
CONTINUOUS
 62
3
 10
449.557006909508570
 20
-101.397878480852280
 11
449.557006909508570
 21
-205.397877879922760
  0
LINE
  8
0
  6
DASHDOT
 62
4
 10
379.185532770419060
 20
17.137091712806125
 11
379.185532770419060
 21
-237.099955826723030
  0
LINE
  8
0
  6
CONTINUOUS
 62
3
 10
281.685532770419060
 20
-208.397877879922760
 11
379.185532770419060
 21
-208.397877879922760
  0
LINE
  8
0
  6
CONTINUOUS
 62
3
 10
279.185532770419060
 20
-210.897877879922760
 11
279.185532770419060
 21
-226.397877879922760
  0
LINE
  8
0
  6
DASHDOT
 62
4
 10
466.685532770419060
 20
-204.237599025552700
 11
466.685532770419060
 21
-230.814669719522440
  0
LINE
  8
0
  6
CONTINUOUS
 62
3
 10
479.185532770419060
 20
-210.897877879922760
 11
479.185532770419060
 21
-226.397877879922760
  0
LINE
  8
0
  6
CONTINUOUS
 62
3
 10
473.185532770419060
 20
-111.631276064103920
 11
473.185532770419060
 21
-205.397877879922760
  0
LINE
  8
0
  6
CONTINUOUS
 62
3
 10
311.185532770419060
 20
-224.397877879922760
 11
379.185532770419060
 21
-224.397877879922760
  0
LINE
  8
0
  6
CONTINUOUS
 62
3
 10
476.685532770419060
 20
-208.397877879922760
 11
379.185532770419060
 21
-208.397877879922760
  0
LINE
  8
0
  6
CONTINUOUS
 62
3
 10
447.185532770419060
 20
-224.397877879922760
 11
379.185532770419060
 21
-224.397877879922760
  0
LINE
  8
0
  6
DASHDOT
 62
4
 10
291.685532770419060
 20
-204.237599025552700
 11
291.685532770419060
 21
-230.814669719522440
  0
LINE
  8
0
  6
CONTINUOUS
 62
3
 10
326.185532770419060
 20
-201.797877879922850
 11
379.185532770419060
 21
-201.797877879922850
  0
ARC
  8
0
  6
CONTINUOUS
 62
3
 10
326.185532770419060
 20
-194.797877879922850
 40
7.000000000000000
 50
180.000000000000000
 51
270.000000000000000
  0
ARC
  8
0
  6
CONTINUOUS
 62
3
 10
422.080753949473770
 20
-104.397877879922760
 40
3.000000000000000
 50
90.000000000000000
 51
175.999370038424810
  0
ARC
  8
0
  6
CONTINUOUS
 62
3
 10
435.685532770419060
 20
-104.897877879922760
 40
3.500000000000000
 50
0.000000000000000
 51
90.000000000000000
  0
ARC
  8
0
  6
CONTINUOUS
 62
3
 10
432.185532770419060
 20
-194.797877879922850
 40
7.000000000000000
 50
270.000000000000000
 51
0.000000000000000
  0
ARC
  8
0
  6
CONTINUOUS
 62
3
 10
379.185532770419060
 20
-101.397877879922760
 40
40.000000000000000
 50
270.000000000000000
 51
355.999370038428480
  0
LINE
  8
0
  6
CONTINUOUS
 62
3
 10
422.080753949473770
 20
-101.397877879922760
 11
435.685532770419060
 21
-101.397877879922760
  0
LINE
  8
0
  6
CONTINUOUS
 62
3
 10
439.185532770419060
 20
-104.897877879922760
 11
439.185532770419060
 21
-194.797877879922850
  0
LINE
  8
0
  6
CONTINUOUS
 62
3
 10
432.185532770419060
 20
-201.797877879922850
 11
379.185532770419060
 21
-201.797877879922850
  0
POLYLINE
  8
0
  6
CONTINUOUS
 62
3
 66
1
  0
VERTEX
  8
0
  6
CONTINUOUS
 62
3
 10
464.976322221724500
 20
-101.397877879922760
  0
VERTEX
  8
0
  6
CONTINUOUS
 62
3
 10
464.845050644335060
 20
-99.560382667010145
  0
VERTEX
  8
0
  6
CONTINUOUS
 62
3
 10
464.455706208462290
 20
-97.785461152127695
  0
VERTEX
  8
0
  6
CONTINUOUS
 62
3
 10
463.821547572408410
 20
-96.133556160986743
  0
VERTEX
  8
0
  6
CONTINUOUS
 62
3
 10
462.964170248758710
 20
-94.660921338964883
  0
VERTEX
  8
0
  6
CONTINUOUS
 62
3
 10
461.912771195073050
 20
-93.417705500608321
  0
VERTEX
  8
0
  6
CONTINUOUS
 62
3
 10
460.703154546476360
 20
-92.446244871834253
  0
VERTEX
  8
0
  6
CONTINUOUS
 62
3
 10
459.376512348732720
 20
-91.779621380478972
  0
VERTEX
  8
0
  6
CONTINUOUS
 62
3
 10
457.978021812477660
 20
-91.440536090879817
  0
VERTEX
  8
0
  6
CONTINUOUS
 62
3
 10
456.555306857435710
 20
-91.440536146326593
  0
VERTEX
  8
0
  6
CONTINUOUS
 62
3
 10
455.156816336890360
 20
-91.779621544931146
  0
VERTEX
  8
0
  6
CONTINUOUS
 62
3
 10
453.830174170031110
 20
-92.446245139691598
  0
VERTEX
  8
0
  6
CONTINUOUS
 62
3
 10
452.620557566441790
 20
-93.417705862749273
  0
VERTEX
  8
0
  6
CONTINUOUS
 62
3
 10
451.569158570353860
 20
-94.660921783057177
  0
VERTEX
  8
0
  6
CONTINUOUS
 62
3
 10
450.711781314930760
 20
-96.133556671907343
  0
VERTEX
  8
0
  6
CONTINUOUS
 62
3
 10
450.077622755409040
 20
-97.785461712477797
  0
VERTEX
  8
0
  6
CONTINUOUS
 62
3
 10
449.688278401767660
 20
-99.560383257707713
  0
VERTEX
  8
0
  6
CONTINUOUS
 62
3
 10
449.557006909508630
 20
-101.397878480852280
  0
SEQEND
  8
0
  6
CONTINUOUS
 62
3
  0
LINE
  8
0
  6
CONTINUOUS
 62
3
 10
279.185532770419060
 20
-226.397877879922760
 11
309.185532770419060
 21
-226.397877879922760
  0
LINE
  8
0
  6
CONTINUOUS
 62
3
 10
479.185532770419060
 20
-226.397877879922760
 11
449.185532770419060
 21
-226.397877879922760
  0
LINE
  8
0
  6
CONTINUOUS
 62
3
 10
279.185532770419060
 20
-226.397877879922760
 11
309.185532770419060
 21
-226.397877879922760
  0
CIRCLE
  8
0
  6
CONTINUOUS
 62
3
 10
379.185532770419060
 20
-101.397877879922760
 40
23.500000000000000
  0
ENDSEC
  0
EOF
