  0
SECTION
  2
HEADER
  9
$FILLMODE
 70
1
  9
$TEXTSTYLE
  7
STANDARD1
  9
$ACADVER
  1
AC1009
  9
$DIMASZ
 40
1.931851648807023
  9
$DIMEXE
 40
2.000000000000000
  9
$DIMEXO
 40
1.000000000000000
  9
$DIMLFAC
 40
1.000000000000000
  9
$DIMSCALE
 40
1.000000000000000
  9
$DIMTAD
 70
1
  9
$DIMTFAC
 40
0.714285731315613
  9
$DIMTXT
 40
3.200000047683716
  9
$LUPREC
 70
3
  9
$TEXTSIZE
 40
2.799999952316284
  9
$REGENMODE
 70
1
  0
ENDSEC
  0
SECTION
  2
TABLES
  0
TABLE
  2
LTYPE
 70
4
  0
LTYPE
  2
CONTINUOUS
 70
64
  3
Solid line
 72
65
 73
0
 40
0.0
  0
LTYPE
  2
DASHED
 70
64
  3
-- -- -- -- -- -- -- -- -- -- -- -- -- -- --
 72
65
 73
2
 40
0.75
 49
0.5
 49
-0.25
  0
LTYPE
  2
DASHDOT
 70
64
  3
__ . __ . __ . __ . __ . __ . __ . __ . __ . __
 72
65
 73
4
 40
1.0
 49
0.5
 49
-0.25
 49
0.0
 49
-0.25
  0
LTYPE
  2
DIVIDE
 70
64
  3
__ . . __ . . __ . . __ . . __ . . __ . . __
 72
65
 73
6
 40
1.25
 49
0.5
 49
-0.25
 49
0.0
 49
-0.25
 49
0.0
 49
-0.25
  0
ENDTAB
  0
TABLE
  2
LAYER
 70
1
  0
LAYER
  2
0
 70
64
 62
2
  6
CONTINUOUS
  0
ENDTAB
  0
TABLE
  2
STYLE
 70
4
  0
STYLE
  2
STANDARD1
 70
64
 40
0.0
 41
1.0
 50
0.0
 71
0
 42
2.799999952316284
  3
MONOTXT
  4
BIGFONT
  0
STYLE
  2
STANDARD2
 70
68
 40
0.0
 41
1.0
 50
0.0
 71
0
 42
2.799999952316284
  3
MONOTXT
  4
BIGFONT
  0
STYLE
  2
STANDARD3
 70
64
 40
0.0
 41
1.0
 50
0.0
 71
0
 42
2.799999952316284
  3
MONOTXT
  4

  0
STYLE
  2
STANDARD4
 70
68
 40
0.0
 41
1.0
 50
0.0
 71
0
 42
2.799999952316284
  3
MONOTXT
  4

  0
ENDTAB
  0
TABLE
  2
VIEW
 70
0
  0
ENDTAB
  0
ENDSEC
  0
SECTION
  2
BLOCKS
  0
BLOCK
  8
0
  2
SYM1
 70
64
 10
0.000000000000000
 20
0.000000000000000
  0
POINT
  8
0
  6
CONTINUOUS
 62
3
 10
0.000000000000000
 20
0.000000000000000
  0
LINE
  8
0
  6
CONTINUOUS
 62
3
 10
3.999993333512748
 20
-2.300001902428903
 11
-0.000004858421221
 21
-4.599995671750889
  0
LINE
  8
0
  6
CONTINUOUS
 62
3
 10
-0.000007291900715
 20
-4.600000131531601
 11
-4.000000535118602
 21
-2.299995435993480
  0
LINE
  8
0
  6
CONTINUOUS
 62
3
 10
-4.000000476834402
 20
-2.299992229627764
 11
-3.999995708466355
 21
2.300002429796065
  0
LINE
  8
0
  6
CONTINUOUS
 62
3
 10
-3.999993333512748
 20
2.300001902428903
 11
0.000004858421221
 21
4.599995671750889
  0
LINE
  8
0
  6
CONTINUOUS
 62
3
 10
0.000007291900715
 20
4.600000131531601
 11
4.000000535118602
 21
2.299995435993480
  0
LINE
  8
0
  6
CONTINUOUS
 62
3
 10
4.000000476834402
 20
2.299992229627764
 11
3.999995708466355
 21
-2.300002429796065
  0
CIRCLE
  8
0
  6
CONTINUOUS
 62
3
 10
0.000000000000000
 20
0.000000000000000
 40
4.000000000000000
  0
ENDBLK
  8
0
  0
BLOCK
  8
0
  2
SYM2
 70
64
 10
0.000000000000000
 20
0.000000000000000
  0
POINT
  8
0
  6
CONTINUOUS
 62
3
 10
0.000000000000000
 20
0.000000000000000
  0
LINE
  8
0
  6
CONTINUOUS
 62
3
 10
3.999993333512748
 20
-2.300001902428903
 11
-0.000004858421221
 21
-4.599995671750889
  0
LINE
  8
0
  6
CONTINUOUS
 62
3
 10
-0.000007291900715
 20
-4.600000131531601
 11
-4.000000535118602
 21
-2.299995435993480
  0
LINE
  8
0
  6
CONTINUOUS
 62
3
 10
-4.000000476834402
 20
-2.299992229627764
 11
-3.999995708466355
 21
2.300002429796065
  0
LINE
  8
0
  6
CONTINUOUS
 62
3
 10
-3.999993333512748
 20
2.300001902428903
 11
0.000004858421221
 21
4.599995671750889
  0
LINE
  8
0
  6
CONTINUOUS
 62
3
 10
0.000007291900715
 20
4.600000131531601
 11
4.000000535118602
 21
2.299995435993480
  0
LINE
  8
0
  6
CONTINUOUS
 62
3
 10
4.000000476834402
 20
2.299992229627764
 11
3.999995708466355
 21
-2.300002429796065
  0
CIRCLE
  8
0
  6
CONTINUOUS
 62
3
 10
0.000000000000000
 20
0.000000000000000
 40
4.000000000000000
  0
ENDBLK
  8
0
  0
BLOCK
  8
0
  2
SYM3
 70
64
 10
0.000000000000000
 20
0.000000000000000
  0
CIRCLE
  8
0
  6
CONTINUOUS
 62
3
 10
0.000000000000000
 20
0.000000000000000
 40
5.633955001831055
  0
CIRCLE
  8
0
  6
CONTINUOUS
 62
3
 10
0.000000000000000
 20
0.000000000000000
 40
6.500000000000000
  0
POINT
  8
0
  6
CONTINUOUS
 62
3
 10
0.000000000000000
 20
0.000000000000000
  0
LINE
  8
0
  6
CONTINUOUS
 62
3
 10
-2.999996662140960
 20
-1.732045999551255
 11
-2.999997615815242
 21
1.732051977133316
  0
LINE
  8
0
  6
CONTINUOUS
 62
3
 10
2.999996662140697
 20
1.732046953225571
 11
2.999997615814979
 21
-1.732051023458999
  0
LINE
  8
0
  6
CONTINUOUS
 62
3
 10
0.000006701720849
 20
3.464096999935236
 11
-2.999997939551520
 21
1.732051821705568
  0
LINE
  8
0
  6
CONTINUOUS
 62
3
 10
2.999998112093635
 20
-1.732051392778772
 11
-0.000004464412200
 21
-3.464098365415111
  0
LINE
  8
0
  6
CONTINUOUS
 62
3
 10
0.000006618601731
 20
3.464096896385627
 11
2.999997425948948
 21
1.732046782136365
  0
LINE
  8
0
  6
CONTINUOUS
 62
3
 10
-0.000004704988612
 20
-3.464098175748802
 11
-2.999997577100373
 21
-1.732046218032735
  0
POINT
  8
0
  6
CONTINUOUS
 62
3
 10
0.500000119209290
 20
6.500000000000000
  0
POINT
  8
0
  6
CONTINUOUS
 62
3
 10
0.000000000000000
 20
5.633955001831055
  0
ENDBLK
  8
0
  0
BLOCK
  8
0
  2
SYM4
 70
64
 10
0.000000000000000
 20
0.000000000000000
  0
CIRCLE
  8
0
  6
CONTINUOUS
 62
3
 10
0.000000000000000
 20
0.000000000000000
 40
5.633955001831055
  0
CIRCLE
  8
0
  6
CONTINUOUS
 62
3
 10
0.000000000000000
 20
0.000000000000000
 40
6.500000000000000
  0
POINT
  8
0
  6
CONTINUOUS
 62
3
 10
0.000000000000000
 20
0.000000000000000
  0
LINE
  8
0
  6
CONTINUOUS
 62
3
 10
-2.999996662140960
 20
-1.732045999551255
 11
-2.999997615815242
 21
1.732051977133316
  0
LINE
  8
0
  6
CONTINUOUS
 62
3
 10
2.999996662140697
 20
1.732046953225571
 11
2.999997615814979
 21
-1.732051023458999
  0
LINE
  8
0
  6
CONTINUOUS
 62
3
 10
0.000006701720849
 20
3.464096999935236
 11
-2.999997939551520
 21
1.732051821705568
  0
LINE
  8
0
  6
CONTINUOUS
 62
3
 10
2.999998112093635
 20
-1.732051392778772
 11
-0.000004464412200
 21
-3.464098365415111
  0
LINE
  8
0
  6
CONTINUOUS
 62
3
 10
0.000006618601731
 20
3.464096896385627
 11
2.999997425948948
 21
1.732046782136365
  0
LINE
  8
0
  6
CONTINUOUS
 62
3
 10
-0.000004704988612
 20
-3.464098175748802
 11
-2.999997577100373
 21
-1.732046218032735
  0
POINT
  8
0
  6
CONTINUOUS
 62
3
 10
0.500000119209290
 20
6.500000000000000
  0
POINT
  8
0
  6
CONTINUOUS
 62
3
 10
0.000000000000000
 20
5.633955001831055
  0
ENDBLK
  8
0
  0
BLOCK
  8
0
  2
SYM5
 70
64
 10
0.000000000000000
 20
0.000000000000000
  0
CIRCLE
  8
0
  6
CONTINUOUS
 62
3
 10
0.000000000000000
 20
0.000000000000000
 40
5.633955001831055
  0
CIRCLE
  8
0
  6
CONTINUOUS
 62
3
 10
0.000000000000000
 20
0.000000000000000
 40
6.500000000000000
  0
POINT
  8
0
  6
CONTINUOUS
 62
3
 10
0.000000000000000
 20
0.000000000000000
  0
LINE
  8
0
  6
CONTINUOUS
 62
3
 10
-2.999996662140960
 20
-1.732045999551255
 11
-2.999997615815242
 21
1.732051977133316
  0
LINE
  8
0
  6
CONTINUOUS
 62
3
 10
2.999996662140697
 20
1.732046953225571
 11
2.999997615814979
 21
-1.732051023458999
  0
LINE
  8
0
  6
CONTINUOUS
 62
3
 10
0.000006701720849
 20
3.464096999935236
 11
-2.999997939551520
 21
1.732051821705568
  0
LINE
  8
0
  6
CONTINUOUS
 62
3
 10
2.999998112093635
 20
-1.732051392778772
 11
-0.000004464412200
 21
-3.464098365415111
  0
LINE
  8
0
  6
CONTINUOUS
 62
3
 10
0.000006618601731
 20
3.464096896385627
 11
2.999997425948948
 21
1.732046782136365
  0
LINE
  8
0
  6
CONTINUOUS
 62
3
 10
-0.000004704988612
 20
-3.464098175748802
 11
-2.999997577100373
 21
-1.732046218032735
  0
POINT
  8
0
  6
CONTINUOUS
 62
3
 10
0.500000119209290
 20
6.500000000000000
  0
POINT
  8
0
  6
CONTINUOUS
 62
3
 10
0.000000000000000
 20
5.633955001831055
  0
ENDBLK
  8
0
  0
BLOCK
  8
0
  2
SYM6
 70
64
 10
0.000000000000000
 20
0.000000000000000
  0
ARC
  8
0
  6
CONTINUOUS
 62
3
 10
2.040000915527344
 20
-0.000008403939319
 40
5.539999008178711
 50
155.470186567177590
 51
204.529249714844780
  0
ARC
  8
0
  6
CONTINUOUS
 62
3
 10
-1.929986000061035
 20
3.450007438659668
 40
1.569999694824219
 50
179.999745461767870
 51
227.099746430935310
  0
ARC
  8
0
  6
CONTINUOUS
 62
3
 10
-1.930013656616211
 20
-3.449991226196289
 40
1.569999694824219
 50
132.899744492600430
 51
179.999745461767870
  0
LINE
  8
0
  6
CONTINUOUS
 62
3
 10
-2.999989096318101
 20
2.300010681148706
 11
0.000009475023974
 21
2.300000190729854
  0
LINE
  8
0
  6
CONTINUOUS
 62
3
 10
-3.000007597599688
 20
-2.299985885626180
 11
-0.000008155921205
 21
-2.299998283391806
  0
LINE
  8
0
  6
CONTINUOUS
 62
3
 10
0.000018950048186
 20
4.600000381469727
 11
-0.000018950048186
 21
-4.600000381469727
  0
LINE
  8
0
  6
CONTINUOUS
 62
3
 10
-2.999979146307184
 20
4.600011825551216
 11
0.000019104623546
 21
4.600001335133485
  0
LINE
  8
0
  6
CONTINUOUS
 62
3
 10
-3.499965125831864
 20
3.900000017678906
 11
-2.999963510759926
 21
4.599997551336457
  0
LINE
  8
0
  6
CONTINUOUS
 62
3
 10
-3.500011920918244
 20
-3.899979774771439
 11
-3.499980449679529
 21
3.900009925545944
  0
LINE
  8
0
  6
CONTINUOUS
 62
3
 10
-2.999996095884057
 20
-4.599969847145871
 11
-3.499991138206155
 21
-3.899966512616629
  0
LINE
  8
0
  6
CONTINUOUS
 62
3
 10
-0.000017659877873
 20
-4.599998474126673
 11
-3.000017102555891
 21
-4.599986076361044
  0
POINT
  8
0
  6
CONTINUOUS
 62
3
 10
0.000000000000000
 20
0.000000000000000
  0
ENDBLK
  8
0
  0
BLOCK
  8
0
  2
SYM7
 70
64
 10
0.000000000000000
 20
0.000000000000000
  0
POINT
  8
0
  6
CONTINUOUS
 62
3
 10
0.000000000000000
 20
0.000000000000000
  0
LINE
  8
0
  6
CONTINUOUS
 62
3
 10
0.000000000000000
 20
-6.500000000000000
 11
-0.000000000000000
 21
6.500000000000000
  0
LINE
  8
0
  6
CONTINUOUS
 62
3
 10
-7.999999046325684
 20
5.633875846862793
 11
-7.999999046325684
 21
-5.634070396423340
  0
LINE
  8
0
  6
CONTINUOUS
 62
3
 10
0.000000000000000
 20
6.500000000000000
 11
-7.499999046325684
 21
6.500000000000000
  0
LINE
  8
0
  6
CONTINUOUS
 62
3
 10
-0.000000000000000
 20
-6.500000000000000
 11
-7.499998092651367
 21
-6.500000000000000
  0
LINE
  8
0
  6
CONTINUOUS
 62
3
 10
-7.499999203818277
 20
6.499999909101064
 11
-7.999999021366804
 21
5.633876130311293
  0
LINE
  8
0
  6
CONTINUOUS
 62
3
 10
-7.499997911632022
 20
-6.499999445138201
 11
-7.999998623386432
 21
-5.634070287011241
  0
LINE
  8
0
  6
CONTINUOUS
 62
3
 10
-7.499999046325684
 20
6.500000000000000
 11
-7.499999046325684
 21
-6.500000000000000
  0
ENDBLK
  8
0
  0
BLOCK
  8
0
  2
SYM8
 70
64
 10
0.000000000000000
 20
0.000000000000000
  0
ARC
  8
0
  6
CONTINUOUS
 62
3
 10
2.040000915527344
 20
-0.000008403939319
 40
5.539999008178711
 50
155.470186567177590
 51
204.529249714844780
  0
ARC
  8
0
  6
CONTINUOUS
 62
3
 10
-1.929986000061035
 20
3.450007438659668
 40
1.569999694824219
 50
179.999745461767870
 51
227.099746430935310
  0
ARC
  8
0
  6
CONTINUOUS
 62
3
 10
-1.930013656616211
 20
-3.449991226196289
 40
1.569999694824219
 50
132.899744492600430
 51
179.999745461767870
  0
LINE
  8
0
  6
CONTINUOUS
 62
3
 10
-2.999989096318101
 20
2.300010681148706
 11
0.000009475023974
 21
2.300000190729854
  0
LINE
  8
0
  6
CONTINUOUS
 62
3
 10
-3.000007597599688
 20
-2.299985885626180
 11
-0.000008155921205
 21
-2.299998283391806
  0
LINE
  8
0
  6
CONTINUOUS
 62
3
 10
0.000018950048186
 20
4.600000381469727
 11
-0.000018950048186
 21
-4.600000381469727
  0
LINE
  8
0
  6
CONTINUOUS
 62
3
 10
-2.999979146307184
 20
4.600011825551216
 11
0.000019104623546
 21
4.600001335133485
  0
LINE
  8
0
  6
CONTINUOUS
 62
3
 10
-3.499965125831864
 20
3.900000017678906
 11
-2.999963510759926
 21
4.599997551336457
  0
LINE
  8
0
  6
CONTINUOUS
 62
3
 10
-3.500011920918244
 20
-3.899979774771439
 11
-3.499980449679529
 21
3.900009925545944
  0
LINE
  8
0
  6
CONTINUOUS
 62
3
 10
-2.999996095884057
 20
-4.599969847145871
 11
-3.499991138206155
 21
-3.899966512616629
  0
LINE
  8
0
  6
CONTINUOUS
 62
3
 10
-0.000017659877873
 20
-4.599998474126673
 11
-3.000017102555891
 21
-4.599986076361044
  0
POINT
  8
0
  6
CONTINUOUS
 62
3
 10
0.000000000000000
 20
0.000000000000000
  0
ENDBLK
  8
0
  0
BLOCK
  8
0
  2
SYM9
 70
64
 10
0.000000000000000
 20
0.000000000000000
  0
POINT
  8
0
  6
CONTINUOUS
 62
3
 10
0.000000000000000
 20
0.000000000000000
  0
LINE
  8
0
  6
CONTINUOUS
 62
3
 10
0.000000000000000
 20
-6.500000000000000
 11
-0.000000000000000
 21
6.500000000000000
  0
LINE
  8
0
  6
CONTINUOUS
 62
3
 10
-7.999999046325684
 20
5.633875846862793
 11
-7.999999046325684
 21
-5.634070396423340
  0
LINE
  8
0
  6
CONTINUOUS
 62
3
 10
0.000000000000000
 20
6.500000000000000
 11
-7.499999046325684
 21
6.500000000000000
  0
LINE
  8
0
  6
CONTINUOUS
 62
3
 10
-0.000000000000000
 20
-6.500000000000000
 11
-7.499998092651367
 21
-6.500000000000000
  0
LINE
  8
0
  6
CONTINUOUS
 62
3
 10
-7.499999203818277
 20
6.499999909101064
 11
-7.999999021366804
 21
5.633876130311293
  0
LINE
  8
0
  6
CONTINUOUS
 62
3
 10
-7.499997911632022
 20
-6.499999445138201
 11
-7.999998623386432
 21
-5.634070287011241
  0
LINE
  8
0
  6
CONTINUOUS
 62
3
 10
-7.499999046325684
 20
6.500000000000000
 11
-7.499999046325684
 21
-6.500000000000000
  0
ENDBLK
  8
0
  0
BLOCK
  8
0
  2
SYM10
 70
64
 10
0.000000000000000
 20
0.000000000000000
  0
POINT
  8
0
  6
CONTINUOUS
 62
3
 10
0.000000000000000
 20
0.000000000000000
  0
LINE
  8
0
  6
CONTINUOUS
 62
3
 10
0.000000000000000
 20
-6.500000000000000
 11
-0.000000000000000
 21
6.500000000000000
  0
LINE
  8
0
  6
CONTINUOUS
 62
3
 10
-7.999999046325684
 20
5.633875846862793
 11
-7.999999046325684
 21
-5.634070396423340
  0
LINE
  8
0
  6
CONTINUOUS
 62
3
 10
0.000000000000000
 20
6.500000000000000
 11
-7.499999046325684
 21
6.500000000000000
  0
LINE
  8
0
  6
CONTINUOUS
 62
3
 10
-0.000000000000000
 20
-6.500000000000000
 11
-7.499998092651367
 21
-6.500000000000000
  0
LINE
  8
0
  6
CONTINUOUS
 62
3
 10
-7.499999203818277
 20
6.499999909101064
 11
-7.999999021366804
 21
5.633876130311293
  0
LINE
  8
0
  6
CONTINUOUS
 62
3
 10
-7.499997911632022
 20
-6.499999445138201
 11
-7.999998623386432
 21
-5.634070287011241
  0
LINE
  8
0
  6
CONTINUOUS
 62
3
 10
-7.499999046325684
 20
6.500000000000000
 11
-7.499999046325684
 21
-6.500000000000000
  0
ENDBLK
  8
0
  0
BLOCK
  8
0
  2
SYM11
 70
64
 10
0.000000000000000
 20
0.000000000000000
  0
POINT
  8
0
  6
CONTINUOUS
 62
3
 10
0.000000000000000
 20
0.000000000000000
  0
LINE
  8
0
  6
CONTINUOUS
 62
3
 10
0.000000000000000
 20
-6.500000000000000
 11
-0.000000000000000
 21
6.500000000000000
  0
LINE
  8
0
  6
CONTINUOUS
 62
3
 10
-7.999999046325684
 20
5.633875846862793
 11
-7.999999046325684
 21
-5.634070396423340
  0
LINE
  8
0
  6
CONTINUOUS
 62
3
 10
0.000000000000000
 20
6.500000000000000
 11
-7.499999046325684
 21
6.500000000000000
  0
LINE
  8
0
  6
CONTINUOUS
 62
3
 10
-0.000000000000000
 20
-6.500000000000000
 11
-7.499998092651367
 21
-6.500000000000000
  0
LINE
  8
0
  6
CONTINUOUS
 62
3
 10
-7.499999203818277
 20
6.499999909101064
 11
-7.999999021366804
 21
5.633876130311293
  0
LINE
  8
0
  6
CONTINUOUS
 62
3
 10
-7.499997911632022
 20
-6.499999445138201
 11
-7.999998623386432
 21
-5.634070287011241
  0
LINE
  8
0
  6
CONTINUOUS
 62
3
 10
-7.499999046325684
 20
6.500000000000000
 11
-7.499999046325684
 21
-6.500000000000000
  0
ENDBLK
  8
0
  0
BLOCK
  8
0
  2
SYM12
 70
64
 10
0.000000000000000
 20
0.000000000000000
  0
POINT
  8
0
  6
CONTINUOUS
 62
3
 10
0.000000000000000
 20
0.000000000000000
  0
LINE
  8
0
  6
CONTINUOUS
 62
3
 10
0.000000000000000
 20
-6.500000000000000
 11
-0.000000000000000
 21
6.500000000000000
  0
LINE
  8
0
  6
CONTINUOUS
 62
3
 10
-7.999999046325684
 20
5.633875846862793
 11
-7.999999046325684
 21
-5.634070396423340
  0
LINE
  8
0
  6
CONTINUOUS
 62
3
 10
0.000000000000000
 20
6.500000000000000
 11
-7.499999046325684
 21
6.500000000000000
  0
LINE
  8
0
  6
CONTINUOUS
 62
3
 10
-0.000000000000000
 20
-6.500000000000000
 11
-7.499998092651367
 21
-6.500000000000000
  0
LINE
  8
0
  6
CONTINUOUS
 62
3
 10
-7.499999203818277
 20
6.499999909101064
 11
-7.999999021366804
 21
5.633876130311293
  0
LINE
  8
0
  6
CONTINUOUS
 62
3
 10
-7.499997911632022
 20
-6.499999445138201
 11
-7.999998623386432
 21
-5.634070287011241
  0
LINE
  8
0
  6
CONTINUOUS
 62
3
 10
-7.499999046325684
 20
6.500000000000000
 11
-7.499999046325684
 21
-6.500000000000000
  0
ENDBLK
  8
0
  0
BLOCK
  8
0
  2
SYM13
 70
64
 10
0.000000000000000
 20
0.000000000000000
  0
POINT
  8
0
  6
CONTINUOUS
 62
3
 10
0.000000000000000
 20
0.000000000000000
  0
LINE
  8
0
  6
CONTINUOUS
 62
3
 10
0.000000000000000
 20
-6.500000000000000
 11
-0.000000000000000
 21
6.500000000000000
  0
LINE
  8
0
  6
CONTINUOUS
 62
3
 10
-7.999999046325684
 20
5.633875846862793
 11
-7.999999046325684
 21
-5.634070396423340
  0
LINE
  8
0
  6
CONTINUOUS
 62
3
 10
0.000000000000000
 20
6.500000000000000
 11
-7.499999046325684
 21
6.500000000000000
  0
LINE
  8
0
  6
CONTINUOUS
 62
3
 10
-0.000000000000000
 20
-6.500000000000000
 11
-7.499998092651367
 21
-6.500000000000000
  0
LINE
  8
0
  6
CONTINUOUS
 62
3
 10
-7.499999203818277
 20
6.499999909101064
 11
-7.999999021366804
 21
5.633876130311293
  0
LINE
  8
0
  6
CONTINUOUS
 62
3
 10
-7.499997911632022
 20
-6.499999445138201
 11
-7.999998623386432
 21
-5.634070287011241
  0
LINE
  8
0
  6
CONTINUOUS
 62
3
 10
-7.499999046325684
 20
6.500000000000000
 11
-7.499999046325684
 21
-6.500000000000000
  0
ENDBLK
  8
0
  0
BLOCK
  8
0
  2
SYM14
 70
64
 10
0.000000000000000
 20
0.000000000000000
  0
POINT
  8
0
  6
CONTINUOUS
 62
3
 10
0.000000000000000
 20
0.000000000000000
  0
LINE
  8
0
  6
CONTINUOUS
 62
3
 10
0.000000000000000
 20
-6.500000000000000
 11
-0.000000000000000
 21
6.500000000000000
  0
LINE
  8
0
  6
CONTINUOUS
 62
3
 10
-7.999999046325684
 20
5.633875846862793
 11
-7.999999046325684
 21
-5.634070396423340
  0
LINE
  8
0
  6
CONTINUOUS
 62
3
 10
0.000000000000000
 20
6.500000000000000
 11
-7.499999046325684
 21
6.500000000000000
  0
LINE
  8
0
  6
CONTINUOUS
 62
3
 10
-0.000000000000000
 20
-6.500000000000000
 11
-7.499998092651367
 21
-6.500000000000000
  0
LINE
  8
0
  6
CONTINUOUS
 62
3
 10
-7.499999203818277
 20
6.499999909101064
 11
-7.999999021366804
 21
5.633876130311293
  0
LINE
  8
0
  6
CONTINUOUS
 62
3
 10
-7.499997911632022
 20
-6.499999445138201
 11
-7.999998623386432
 21
-5.634070287011241
  0
LINE
  8
0
  6
CONTINUOUS
 62
3
 10
-7.499999046325684
 20
6.500000000000000
 11
-7.499999046325684
 21
-6.500000000000000
  0
ENDBLK
  8
0
  0
BLOCK
  8
0
  2
SYM15
 70
64
 10
0.000000000000000
 20
0.000000000000000
  0
ARC
  8
0
  6
CONTINUOUS
 62
3
 10
2.040000915527344
 20
-0.000008403939319
 40
5.539999008178711
 50
155.470186567177590
 51
204.529249714844780
  0
ARC
  8
0
  6
CONTINUOUS
 62
3
 10
-1.929986000061035
 20
3.450007438659668
 40
1.569999694824219
 50
179.999745461767870
 51
227.099746430935310
  0
ARC
  8
0
  6
CONTINUOUS
 62
3
 10
-1.930013656616211
 20
-3.449991226196289
 40
1.569999694824219
 50
132.899744492600430
 51
179.999745461767870
  0
LINE
  8
0
  6
CONTINUOUS
 62
3
 10
-2.999989096318101
 20
2.300010681148706
 11
0.000009475023974
 21
2.300000190729854
  0
LINE
  8
0
  6
CONTINUOUS
 62
3
 10
-3.000007597599688
 20
-2.299985885626180
 11
-0.000008155921205
 21
-2.299998283391806
  0
LINE
  8
0
  6
CONTINUOUS
 62
3
 10
0.000018950048186
 20
4.600000381469727
 11
-0.000018950048186
 21
-4.600000381469727
  0
LINE
  8
0
  6
CONTINUOUS
 62
3
 10
-2.999979146307184
 20
4.600011825551216
 11
0.000019104623546
 21
4.600001335133485
  0
LINE
  8
0
  6
CONTINUOUS
 62
3
 10
-3.499965125831864
 20
3.900000017678906
 11
-2.999963510759926
 21
4.599997551336457
  0
LINE
  8
0
  6
CONTINUOUS
 62
3
 10
-3.500011920918244
 20
-3.899979774771439
 11
-3.499980449679529
 21
3.900009925545944
  0
LINE
  8
0
  6
CONTINUOUS
 62
3
 10
-2.999996095884057
 20
-4.599969847145871
 11
-3.499991138206155
 21
-3.899966512616629
  0
LINE
  8
0
  6
CONTINUOUS
 62
3
 10
-0.000017659877873
 20
-4.599998474126673
 11
-3.000017102555891
 21
-4.599986076361044
  0
POINT
  8
0
  6
CONTINUOUS
 62
3
 10
0.000000000000000
 20
0.000000000000000
  0
ENDBLK
  8
0
  0
BLOCK
  8
0
  2
SYM16
 70
64
 10
0.000000000000000
 20
0.000000000000000
  0
ARC
  8
0
  6
CONTINUOUS
 62
3
 10
2.040000915527344
 20
-0.000008403939319
 40
5.539999008178711
 50
155.470186567177590
 51
204.529249714844780
  0
ARC
  8
0
  6
CONTINUOUS
 62
3
 10
-1.929986000061035
 20
3.450007438659668
 40
1.569999694824219
 50
179.999745461767870
 51
227.099746430935310
  0
ARC
  8
0
  6
CONTINUOUS
 62
3
 10
-1.930013656616211
 20
-3.449991226196289
 40
1.569999694824219
 50
132.899744492600430
 51
179.999745461767870
  0
LINE
  8
0
  6
CONTINUOUS
 62
3
 10
-2.999989096318101
 20
2.300010681148706
 11
0.000009475023974
 21
2.300000190729854
  0
LINE
  8
0
  6
CONTINUOUS
 62
3
 10
-3.000007597599688
 20
-2.299985885626180
 11
-0.000008155921205
 21
-2.299998283391806
  0
LINE
  8
0
  6
CONTINUOUS
 62
3
 10
0.000018950048186
 20
4.600000381469727
 11
-0.000018950048186
 21
-4.600000381469727
  0
LINE
  8
0
  6
CONTINUOUS
 62
3
 10
-2.999979146307184
 20
4.600011825551216
 11
0.000019104623546
 21
4.600001335133485
  0
LINE
  8
0
  6
CONTINUOUS
 62
3
 10
-3.499965125831864
 20
3.900000017678906
 11
-2.999963510759926
 21
4.599997551336457
  0
LINE
  8
0
  6
CONTINUOUS
 62
3
 10
-3.500011920918244
 20
-3.899979774771439
 11
-3.499980449679529
 21
3.900009925545944
  0
LINE
  8
0
  6
CONTINUOUS
 62
3
 10
-2.999996095884057
 20
-4.599969847145871
 11
-3.499991138206155
 21
-3.899966512616629
  0
LINE
  8
0
  6
CONTINUOUS
 62
3
 10
-0.000017659877873
 20
-4.599998474126673
 11
-3.000017102555891
 21
-4.599986076361044
  0
POINT
  8
0
  6
CONTINUOUS
 62
3
 10
0.000000000000000
 20
0.000000000000000
  0
ENDBLK
  8
0
  0
ENDSEC
  0
SECTION
  2
ENTITIES
  0
LINE
  8
0
  6
CONTINUOUS
 62
3
 10
-330.572215394246770
 20
-168.960467329435800
 11
-330.085412002541150
 21
-169.447270721141420
  0
LINE
  8
0
  6
CONTINUOUS
 62
3
 10
-337.219018867660450
 20
-175.607270802849540
 11
-336.732215475954830
 21
-176.094074194555130
  0
LINE
  8
0
  6
CONTINUOUS
 62
3
 10
-330.259076785277950
 20
-169.213014280286190
 11
-336.936176087750880
 21
-175.890113582759110
  0
LINE
  8
0
  6
CONTINUOUS
 62
3
 10
-330.572215394246770
 20
-168.960467329435800
 11
-337.219018867660450
 21
-175.607270802849540
  0
POINT
  8
0
  6
CONTINUOUS
 62
3
 10
-333.895617130953610
 20
-172.283869066142670
  0
ARC
  8
0
  6
CONTINUOUS
 62
3
 10
-336.158358695880620
 20
-170.021127501215630
 40
6.099999427795406
 50
264.601927898108500
 51
5.398089404735109
  0
LINE
  8
0
  6
CONTINUOUS
 62
3
 10
-431.405642121708300
 20
-168.960467329435800
 11
-431.892445513413920
 21
-169.447270721141420
  0
LINE
  8
0
  6
CONTINUOUS
 62
3
 10
-424.758838648294610
 20
-175.607270802849540
 11
-425.245642040000230
 21
-176.094074194555130
  0
LINE
  8
0
  6
CONTINUOUS
 62
3
 10
-431.718780730677110
 20
-169.213014280286190
 11
-425.041681428204190
 21
-175.890113582759110
  0
LINE
  8
0
  6
CONTINUOUS
 62
3
 10
-431.405642121708300
 20
-168.960467329435800
 11
-424.758838648294610
 21
-175.607270802849540
  0
POINT
  8
0
  6
CONTINUOUS
 62
3
 10
-428.082240385001460
 20
-172.283869066142670
  0
ARC
  8
0
  6
CONTINUOUS
 62
3
 10
-425.819498820074440
 20
-170.021127501215630
 40
6.099999427795398
 50
174.601910595264880
 51
275.398072101891500
  0
LINE
  8
0
  6
CONTINUOUS
 62
3
 10
-431.405642121708300
 20
-81.420647548801455
 11
-431.892445513413920
 21
-80.933844157095834
  0
LINE
  8
0
  6
CONTINUOUS
 62
3
 10
-424.758838648294610
 20
-74.773844075387743
 11
-425.245642040000230
 21
-74.287040683682122
  0
LINE
  8
0
  6
CONTINUOUS
 62
3
 10
-431.718780730677110
 20
-81.168100597951081
 11
-425.041681428204190
 21
-74.491001295478171
  0
LINE
  8
0
  6
CONTINUOUS
 62
3
 10
-431.405642121708300
 20
-81.420647548801455
 11
-424.758838648294610
 21
-74.773844075387743
  0
POINT
  8
0
  6
CONTINUOUS
 62
3
 10
-428.082240385001460
 20
-78.097245812094599
  0
ARC
  8
0
  6
CONTINUOUS
 62
3
 10
-425.819498820074440
 20
-80.359987377021639
 40
6.099999427795419
 50
84.601927898108485
 51
185.398089404735120
  0
LINE
  8
0
  6
CONTINUOUS
 62
3
 10
-330.572215394246770
 20
-81.420647548801455
 11
-330.085412002541150
 21
-80.933844157095834
  0
LINE
  8
0
  6
CONTINUOUS
 62
3
 10
-337.219018867660450
 20
-74.773844075387743
 11
-336.732215475954830
 21
-74.287040683682122
  0
LINE
  8
0
  6
CONTINUOUS
 62
3
 10
-330.259076785277950
 20
-81.168100597951081
 11
-336.936176087750880
 21
-74.491001295478171
  0
LINE
  8
0
  6
CONTINUOUS
 62
3
 10
-330.572215394246770
 20
-81.420647548801455
 11
-337.219018867660450
 21
-74.773844075387743
  0
POINT
  8
0
  6
CONTINUOUS
 62
3
 10
-333.895617130953610
 20
-78.097245812094599
  0
ARC
  8
0
  6
CONTINUOUS
 62
3
 10
-336.158358695880620
 20
-80.359987377021639
 40
6.099999427795398
 50
354.601910595264880
 51
95.398072101891515
  0
LINE
  8
0
  6
CONTINUOUS
 62
3
 10
-288.988928757977530
 20
-127.690557439118740
 11
-289.499345605495250
 21
-127.690557439118740
  0
LINE
  8
0
  6
CONTINUOUS
 62
3
 10
-288.988928757977530
 20
-122.690557439118520
 11
-289.499345605495250
 21
-122.690557439118520
  0
LINE
  8
0
  6
CONTINUOUS
 62
3
 10
-288.988928757977530
 20
-127.690557439118740
 11
-288.988928757977530
 21
-122.690557439118740
  0
LINE
  8
0
  6
CONTINUOUS
 62
3
 10
-324.988968274779720
 20
-161.190557439118520
 11
-323.488928757977530
 21
-161.190557439118520
  0
LINE
  8
0
  6
CONTINUOUS
 62
3
 10
-323.488928757977530
 20
-161.190557439118750
 11
-323.488928757977530
 21
-155.183056501381120
  0
LINE
  8
0
  6
CONTINUOUS
 62
3
 10
-323.488928757977530
 20
-161.190557439118750
 11
-296.122263985035150
 21
-161.190557439118750
  0
ARC
  8
0
  6
CONTINUOUS
 62
3
 10
-296.122263985035150
 20
-156.190557439118750
 40
5.000000000000000
 50
270.000000000000000
 51
353.967950853629650
  0
ARC
  8
0
  6
CONTINUOUS
 62
3
 10
-589.488928757977530
 20
-125.190557439118740
 40
300.000000000000060
 50
353.967950853630210
 51
6.032049146369772
  0
ARC
  8
0
  6
CONTINUOUS
 62
3
 10
-296.122263985035150
 20
-94.190557439118976
 40
5.000000000000143
 50
6.032049146370342
 51
90.000000000000000
  0
LINE
  8
0
  6
CONTINUOUS
 62
3
 10
-323.488928757977530
 20
-89.190557439118976
 11
-296.122263985035150
 21
-89.190557439118976
  0
LINE
  8
0
  6
CONTINUOUS
 62
3
 10
-323.488928757977530
 20
-95.202571584688513
 11
-323.488928757977530
 21
-89.190557439118976
  0
LINE
  8
0
  6
CONTINUOUS
 62
3
 10
-324.988968274779720
 20
-89.190557439118976
 11
-323.488928757977530
 21
-89.190557439118976
  0
LINE
  8
0
  6
DASHDOT
 62
4
 10
-125.779950114088760
 20
47.309442560881308
 11
-143.779950114088760
 21
47.309442560881308
  0
LINE
  8
0
  6
DASHDOT
 62
4
 10
-134.779950114088760
 20
38.309442560881308
 11
-134.779950114088760
 21
65.311041883431045
  0
LINE
  8
0
  6
DASHED
 62
4
 10
-141.779950114088760
 20
67.309442560881308
 11
-141.779950114088760
 21
47.309442560881308
  0
LINE
  8
0
  6
DASHED
 62
4
 10
-127.779950114088760
 20
67.309442560881308
 11
-127.779950114088760
 21
47.309442560881308
  0
ARC
  8
0
  6
DASHED
 62
4
 10
-134.779950114088760
 20
47.309442560881308
 40
7.000000000000000
 50
180.000000000000000
 51
0.000000000000000
  0
CIRCLE
  8
0
  6
DASHED
 62
4
 10
-134.779950114088760
 20
47.309442560881308
 40
6.000000000000000
  0
ARC
  8
0
  6
CONTINUOUS
 62
3
 10
-420.419795758064880
 20
-79.768610696820389
 40
6.600000000000009
 50
95.743681810995099
 51
135.000000000002790
  0
ARC
  8
0
  6
CONTINUOUS
 62
3
 10
-380.988928757977530
 20
-471.790557439118910
 40
400.599999999999910
 50
90.000000000000000
 51
95.743681810993436
  0
ARC
  8
0
  6
CONTINUOUS
 62
3
 10
-417.978995996123900
 20
-97.126800808103127
 40
20.600000000000069
 50
135.000000000002670
 51
174.247717268463500
  0
LINE
  8
0
  6
CONTINUOUS
 62
3
 10
-432.545395688567510
 20
-82.560401115660881
 11
-425.086700513896520
 21
-75.101705940989206
  0
ARC
  8
0
  6
CONTINUOUS
 62
3
 10
-139.388928757977170
 20
-125.190557439118740
 40
300.599999999999910
 50
174.247717268463390
 51
180.000000000000000
  0
ARC
  8
0
  6
CONTINUOUS
 62
3
 10
-420.419795758064880
 20
-170.612504181417110
 40
6.600000000000278
 50
224.999999999997190
 51
264.256318189004900
  0
ARC
  8
0
  6
CONTINUOUS
 62
3
 10
-380.988928757977530
 20
221.409442560881360
 40
400.599999999999910
 50
264.256318189006550
 51
270.000000000000000
  0
ARC
  8
0
  6
CONTINUOUS
 62
3
 10
-417.978995996123900
 20
-153.254314070134370
 40
20.599999999999916
 50
185.752282731536500
 51
224.999999999997330
  0
LINE
  8
0
  6
CONTINUOUS
 62
3
 10
-432.545395688567510
 20
-167.820713762576620
 11
-425.086700513896520
 21
-175.279408937248290
  0
ARC
  8
0
  6
CONTINUOUS
 62
3
 10
-139.388928757977170
 20
-125.190557439118740
 40
300.600000000000360
 50
180.000000000000000
 51
185.752282731536610
  0
ARC
  8
0
  6
CONTINUOUS
 62
3
 10
-341.558061757890190
 20
-170.612504181417110
 40
6.600000000000009
 50
275.743681810995100
 51
315.000000000002790
  0
ARC
  8
0
  6
CONTINUOUS
 62
3
 10
-380.988928757977530
 20
221.409442560881360
 40
400.599999999999910
 50
270.000000000000000
 51
275.743681810993450
  0
ARC
  8
0
  6
CONTINUOUS
 62
3
 10
-343.998861519831170
 20
-153.254314070134370
 40
20.600000000000069
 50
315.000000000002670
 51
354.247717268463480
  0
LINE
  8
0
  6
CONTINUOUS
 62
3
 10
-329.432461827387560
 20
-167.820713762576620
 11
-336.891157002058550
 21
-175.279408937248290
  0
ARC
  8
0
  6
CONTINUOUS
 62
3
 10
-622.588928757977900
 20
-125.190557439118740
 40
300.599999999999910
 50
354.247717268463420
 51
0.000000000000000
  0
ARC
  8
0
  6
CONTINUOUS
 62
4
 10
-622.588928757977900
 20
-125.190557439118740
 40
290.797000000000480
 50
0.000000000000000
 51
5.752282731536624
  0
LINE
  8
0
  6
CONTINUOUS
 62
4
 10
-336.364229603359830
 20
-89.492168891632247
 11
-342.251643475399190
 21
-83.604755019592204
  0
ARC
  8
0
  6
CONTINUOUS
 62
4
 10
-343.998861519831170
 20
-97.126800808103127
 40
10.797000000000011
 50
5.752282731536912
 51
44.999999999998295
  0
ARC
  8
0
  6
CONTINUOUS
 62
3
 10
-622.588928757977900
 20
-125.190557439118740
 40
300.600000000000360
 50
0.000000000000000
 51
5.752282731536604
  0
LINE
  8
0
  6
CONTINUOUS
 62
3
 10
-329.432461827387560
 20
-82.560401115660881
 11
-336.891157002058550
 21
-75.101705940989206
  0
ARC
  8
0
  6
CONTINUOUS
 62
3
 10
-343.998861519831170
 20
-97.126800808103127
 40
20.599999999999916
 50
5.752282731536487
 51
44.999999999997321
  0
ARC
  8
0
  6
CONTINUOUS
 62
4
 10
-139.388928757977400
 20
-125.190557439118740
 40
290.796999999999910
 50
174.998349729065040
 51
180.000000000000000
  0
LINE
  8
0
  6
CONTINUOUS
 62
4
 10
-423.066519073833550
 20
-86.945060052870105
 11
-419.726214040555870
 21
-83.604755019592204
  0
ARC
  8
0
  6
CONTINUOUS
 62
4
 10
-408.360819345496910
 20
-101.650759781206740
 40
20.797000000000015
 50
135.000000000000000
 51
174.998349729064670
  0
ARC
  8
0
  6
CONTINUOUS
 62
4
 10
-380.988928757977530
 20
-471.790557439118910
 40
390.797000000000030
 50
90.000000000000000
 51
95.417963762360529
  0
ARC
  8
0
  6
CONTINUOUS
 62
4
 10
-417.604893696995870
 20
-85.726075363151978
 40
3.000000000000067
 50
95.417963762365673
 51
135.000000000003040
  0
ARC
  8
0
  6
CONTINUOUS
 62
4
 10
-139.388928757977400
 20
-125.190557439118740
 40
290.797000000000250
 50
180.000000000000000
 51
185.001650270934930
  0
LINE
  8
0
  6
CONTINUOUS
 62
4
 10
-423.066519073833550
 20
-163.436054825367390
 11
-419.726214040555870
 21
-166.776359858645290
  0
ARC
  8
0
  6
CONTINUOUS
 62
4
 10
-408.360819345496910
 20
-148.730355097030750
 40
20.796999999999880
 50
185.001650270935330
 51
225.000000000000000
  0
ARC
  8
0
  6
CONTINUOUS
 62
4
 10
-380.988928757977530
 20
221.409442560881360
 40
390.797000000000030
 50
264.582036237639500
 51
270.000000000000000
  0
ARC
  8
0
  6
CONTINUOUS
 62
4
 10
-417.604893696995870
 20
-164.655039515085520
 40
3.000000000000346
 50
224.999999999996960
 51
264.582036237634270
  0
ARC
  8
0
  6
CONTINUOUS
 62
4
 10
-622.588928757977900
 20
-125.190557439118740
 40
290.797000000000140
 50
354.998349729065010
 51
0.000000000000000
  0
LINE
  8
0
  6
CONTINUOUS
 62
4
 10
-338.911338442121520
 20
-163.436054825367390
 11
-342.251643475399190
 21
-166.776359858645290
  0
ARC
  8
0
  6
CONTINUOUS
 62
4
 10
-353.617038170458160
 20
-148.730355097030750
 40
20.797000000000015
 50
315.000000000000000
 51
354.998349729064670
  0
ARC
  8
0
  6
CONTINUOUS
 62
4
 10
-380.988928757977530
 20
221.409442560881360
 40
390.797000000000030
 50
270.000000000000000
 51
275.417963762360500
  0
ARC
  8
0
  6
CONTINUOUS
 62
4
 10
-344.372963818959190
 20
-164.655039515085520
 40
3.000000000000067
 50
275.417963762365730
 51
315.000000000003070
  0
ARC
  8
0
  6
CONTINUOUS
 62
4
 10
-344.372963818959190
 20
-85.726075363151978
 40
3.000000000000346
 50
44.999999999996930
 51
84.582036237634313
  0
ARC
  8
0
  6
CONTINUOUS
 62
4
 10
-380.988928757977530
 20
-471.790557439118910
 40
390.797000000000030
 50
84.582036237639471
 51
90.000000000000000
  0
ARC
  8
0
  6
CONTINUOUS
 62
3
 10
-341.558061757890190
 20
-79.768610696820389
 40
6.600000000000278
 50
44.999999999997215
 51
84.256318189004901
  0
ARC
  8
0
  6
CONTINUOUS
 62
3
 10
-380.988928757977530
 20
-471.790557439118910
 40
400.599999999999910
 50
84.256318189006564
 51
90.000000000000000
  0
ARC
  8
0
  6
CONTINUOUS
 62
3
 10
-384.488928757977530
 20
-160.015117737850490
 40
1.000000000000000
 50
0.000000000000000
 51
84.260829522738291
  0
ARC
  8
0
  6
CONTINUOUS
 62
3
 10
-384.488928757977530
 20
-163.029029924143770
 40
1.000000000000042
 50
264.715267045464260
 51
0.000000000000000
  0
ARC
  8
0
  6
CONTINUOUS
 62
3
 10
-384.488928757977530
 20
-154.482194470872430
 40
1.000000000000077
 50
263.186145655820330
 51
0.000000000000000
  0
LINE
  8
0
  6
CONTINUOUS
 62
3
 10
-383.488928757977530
 20
-163.029029924143770
 11
-383.488928757977530
 21
-160.015117737850490
  0
ARC
  8
0
  6
CONTINUOUS
 62
3
 10
-398.029857441350370
 20
-130.987690317377910
 40
0.999999999999885
 50
300.000000000003810
 51
18.787728582346993
  0
LINE
  8
0
  6
CONTINUOUS
 62
3
 10
-400.171092598406970
 20
-133.378633550081790
 11
-397.529857441350370
 21
-131.853715721162220
  0
ARC
  8
0
  6
CONTINUOUS
 62
3
 10
-400.671092598406970
 20
-132.512608146297480
 40
1.000000000000094
 50
200.405931773138690
 51
300.000000000003810
  0
ARC
  8
0
  6
CONTINUOUS
 62
3
 10
-405.487555090131880
 20
-135.293394062437100
 40
1.000000000000082
 50
299.999999999997270
 51
22.410457608146043
  0
ARC
  8
0
  6
CONTINUOUS
 62
3
 10
-412.897882652301970
 20
-139.571748675238980
 40
1.000000000000082
 50
299.999999999997270
 51
24.260829522733715
  0
LINE
  8
0
  6
CONTINUOUS
 62
3
 10
-407.606230545909400
 20
-137.671312445534600
 11
-404.987555090131880
 21
-136.159419466221640
  0
ARC
  8
0
  6
CONTINUOUS
 62
3
 10
-408.106230545909400
 20
-136.805287041750060
 40
0.999999999999730
 50
203.186145655819840
 51
299.999999999997270
  0
LINE
  8
0
  6
CONTINUOUS
 62
3
 10
-415.008007170407720
 20
-141.944730172170040
 11
-412.397882652301970
 21
-140.437774079023510
  0
ARC
  8
0
  6
CONTINUOUS
 62
3
 10
-415.508007170407720
 20
-141.078704768385730
 40
1.000000000000248
 50
204.715267045455480
 51
300.000000000003810
  0
ARC
  8
0
  6
CONTINUOUS
 62
3
 10
-412.008007170407720
 20
-147.140882594877010
 40
1.000000000000082
 50
119.999999999997270
 51
215.284732954534320
  0
ARC
  8
0
  6
CONTINUOUS
 62
3
 10
-409.397882652301970
 20
-145.633926501730030
 40
0.999999999999807
 50
35.739170477263521
 51
120.000000000003780
  0
ARC
  8
0
  6
CONTINUOUS
 62
3
 10
-384.488928757977530
 20
-151.458408512246050
 40
1.000000000000000
 50
0.000000000000000
 51
82.410457608145762
  0
ARC
  8
0
  6
CONTINUOUS
 62
3
 10
-404.606230545909400
 20
-142.867464868240890
 40
0.999999999999885
 50
120.000000000003780
 51
216.813854344197100
  0
ARC
  8
0
  6
CONTINUOUS
 62
3
 10
-401.987555090132330
 20
-141.355571888927930
 40
1.000000000000194
 50
37.589542391851793
 51
119.999999999997270
  0
ARC
  8
0
  6
CONTINUOUS
 62
3
 10
-384.488928757977530
 20
-145.896836679967270
 40
1.000000000000268
 50
260.405931773124510
 51
0.000000000000000
  0
ARC
  8
0
  6
CONTINUOUS
 62
3
 10
-384.488928757977530
 20
-142.847001022128350
 40
1.000000000000000
 50
0.000000000000000
 51
78.787728582355996
  0
ARC
  8
0
  6
CONTINUOUS
 62
3
 10
-397.171092598406520
 20
-138.574785972788530
 40
0.999999999999885
 50
120.000000000003780
 51
219.594068226860460
  0
ARC
  8
0
  6
CONTINUOUS
 62
3
 10
-394.529857441350370
 20
-137.049868143869190
 40
1.000000000000165
 50
41.212271417643841
 51
119.999999999997270
  0
ARC
  8
0
  6
CONTINUOUS
 62
3
 10
-389.631233603391020
 20
-134.221646352364160
 40
0.999999999999885
 50
120.000000000003780
 51
226.260204708328700
  0
ARC
  8
0
  6
CONTINUOUS
 62
3
 10
-384.488928757977530
 20
-137.190557439118750
 40
0.999999999999964
 50
253.739795291702650
 51
0.000000000000000
  0
ARC
  8
0
  6
CONTINUOUS
 62
3
 10
-384.488928757977530
 20
-134.022318305446590
 40
1.000000000000000
 50
0.000000000000000
 51
68.381727577838021
  0
ARC
  8
0
  6
CONTINUOUS
 62
3
 10
-386.887458028366720
 20
-132.637526785528080
 40
0.999999999999961
 50
51.618272422159777
 51
120.000000000003780
  0
ARC
  8
0
  6
CONTINUOUS
 62
3
 10
-380.988928757977530
 20
-125.190557439118740
 40
38.999999999999865
 50
215.284732954534800
 51
264.715267045465400
  0
ARC
  8
0
  6
CONTINUOUS
 62
3
 10
-380.988928757977530
 20
-125.190557439118740
 40
30.499999999999964
 50
216.813854344181070
 51
263.186145655818960
  0
ARC
  8
0
  6
CONTINUOUS
 62
3
 10
-380.988928757977530
 20
-125.190557439118740
 40
33.999999999999964
 50
215.739170477266950
 51
264.260829522733050
  0
ARC
  8
0
  6
CONTINUOUS
 62
3
 10
-380.988928757977530
 20
-125.190557439118740
 40
25.499999999999890
 50
217.589542391857950
 51
262.410457608141830
  0
ARC
  8
0
  6
CONTINUOUS
 62
3
 10
-380.988928757977530
 20
-125.190557439118740
 40
22.000000000000025
 50
219.594068226860800
 51
260.405931773138780
  0
ARC
  8
0
  6
CONTINUOUS
 62
3
 10
-380.988928757977530
 20
-125.190557439118740
 40
16.999999999999773
 50
221.212271417650780
 51
258.787728582349980
  0
ARC
  8
0
  6
CONTINUOUS
 62
3
 10
-380.988928757977530
 20
-125.190557439118740
 40
13.499999999999927
 50
226.260204708312130
 51
253.739795291689150
  0
ARC
  8
0
  6
CONTINUOUS
 62
3
 10
-380.988928757977530
 20
-125.190557439118740
 40
8.499999999999948
 50
231.618272422157330
 51
248.381727577842330
  0
LINE
  8
0
  6
CONTINUOUS
 62
3
 10
-405.106230545909400
 20
-142.001439464456580
 11
-402.487555090132330
 21
-140.489546485143390
  0
LINE
  8
0
  6
CONTINUOUS
 62
3
 10
-412.508007170407720
 20
-146.274857191092480
 11
-409.897882652301970
 21
-144.767901097945720
  0
LINE
  8
0
  6
CONTINUOUS
 62
3
 10
-397.671092598406520
 20
-137.708760569004230
 11
-395.029857441350370
 21
-136.183842740084660
  0
LINE
  8
0
  6
CONTINUOUS
 62
3
 10
-390.131233603391020
 20
-133.355620948579850
 11
-387.387458028366720
 21
-131.771501381743780
  0
LINE
  8
0
  6
CONTINUOUS
 62
3
 10
-383.488928757977530
 20
-137.190557439118750
 11
-383.488928757977530
 21
-134.022318305446590
  0
LINE
  8
0
  6
CONTINUOUS
 62
3
 10
-383.488928757977530
 20
-145.896836679967270
 11
-383.488928757977530
 21
-142.847001022128350
  0
LINE
  8
0
  6
CONTINUOUS
 62
3
 10
-383.488928757977530
 20
-154.482194470872430
 11
-383.488928757977530
 21
-151.458408512246050
  0
ARC
  8
0
  6
CONTINUOUS
 62
3
 10
-390.387458028366720
 20
-126.575348959037250
 40
0.999999999999885
 50
300.000000000003810
 51
8.381727577845549
  0
ARC
  8
0
  6
CONTINUOUS
 62
3
 10
-380.988928757977530
 20
-125.190557439118740
 40
8.499999999999972
 50
171.618272422157790
 51
188.381727577842210
  0
LINE
  8
0
  6
CONTINUOUS
 62
3
 10
-392.631233603391020
 20
-129.025493929657640
 11
-389.887458028366720
 21
-127.441374362821560
  0
ARC
  8
0
  6
CONTINUOUS
 62
3
 10
-393.131233603391020
 20
-128.159468525873340
 40
0.999999999999879
 50
193.739795291686050
 51
300.000000000003810
  0
ARC
  8
0
  6
CONTINUOUS
 62
3
 10
-384.488928757977530
 20
-107.534113856109140
 40
0.999999999999982
 50
281.212271417643990
 51
0.000000000000000
  0
LINE
  8
0
  6
CONTINUOUS
 62
3
 10
-383.488928757977530
 20
-104.484278198270230
 11
-383.488928757977530
 21
-107.534113856109140
  0
ARC
  8
0
  6
CONTINUOUS
 62
3
 10
-384.488928757977530
 20
-104.484278198270230
 40
1.000000000000000
 50
0.000000000000000
 51
99.594068226875478
  0
ARC
  8
0
  6
CONTINUOUS
 62
3
 10
-384.488928757977530
 20
-98.922706365991445
 40
0.999999999999749
 50
277.589542391855960
 51
0.000000000013028
  0
LINE
  8
0
  6
CONTINUOUS
 62
3
 10
-383.488928757977530
 20
-95.898920407365068
 11
-383.488928757977530
 21
-98.922706365991218
  0
ARC
  8
0
  6
CONTINUOUS
 62
3
 10
-384.488928757977530
 20
-95.898920407365068
 40
1.000000000000000
 50
0.000000000000000
 51
96.813854344179688
  0
ARC
  8
0
  6
CONTINUOUS
 62
3
 10
-384.488928757977530
 20
-90.365997140387009
 40
0.999999999999973
 50
275.739170477261670
 51
0.000000000000000
  0
LINE
  8
0
  6
CONTINUOUS
 62
3
 10
-383.488928757977530
 20
-87.352084954093726
 11
-383.488928757977530
 21
-90.365997140387009
  0
ARC
  8
0
  6
CONTINUOUS
 62
3
 10
-384.488928757977530
 20
-87.352084954093726
 40
1.000000000000000
 50
0.000000000000000
 51
95.284732954535698
  0
ARC
  8
0
  6
CONTINUOUS
 62
3
 10
-404.606230545909400
 20
-107.513650009996380
 40
0.999999999999774
 50
143.186145655813330
 51
240.000000000002730
  0
LINE
  8
0
  6
CONTINUOUS
 62
3
 10
-405.106230545909400
 20
-108.379675413780910
 11
-402.487555090131880
 21
-109.891568393094100
  0
ARC
  8
0
  6
CONTINUOUS
 62
3
 10
-401.987555090131880
 20
-109.025542989309570
 40
1.000000000000082
 50
240.000000000002730
 51
322.410457608132330
  0
ARC
  8
0
  6
CONTINUOUS
 62
3
 10
-412.008007170407720
 20
-103.240232283360710
 40
0.999999999999908
 50
144.715267045455050
 51
239.999999999996220
  0
LINE
  8
0
  6
CONTINUOUS
 62
3
 10
-412.508007170407720
 20
-104.106257687145010
 11
-409.897882652301970
 21
-105.613213780291770
  0
ARC
  8
0
  6
CONTINUOUS
 62
3
 10
-409.397882652301970
 20
-104.747188376507460
 40
0.999999999999885
 50
239.999999999996220
 51
324.260829522725940
  0
ARC
  8
0
  6
CONTINUOUS
 62
3
 10
-386.887458028366720
 20
-117.743588092709180
 40
1.000000000000082
 50
240.000000000002730
 51
308.381727577840190
  0
LINE
  8
0
  6
CONTINUOUS
 62
3
 10
-390.131233603391020
 20
-117.025493929657640
 11
-387.387458028366720
 21
-118.609613496493720
  0
ARC
  8
0
  6
CONTINUOUS
 62
3
 10
-394.529857441350370
 20
-113.331246734368530
 40
0.999999999999885
 50
239.999999999996220
 51
318.787728582348790
  0
LINE
  8
0
  6
CONTINUOUS
 62
3
 10
-397.671092598406520
 20
-112.672354309233270
 11
-395.029857441350370
 21
-114.197272138152840
  0
ARC
  8
0
  6
CONTINUOUS
 62
3
 10
-397.171092598406520
 20
-111.806328905448730
 40
1.000000000000173
 50
140.405931773149600
 51
240.000000000002730
  0
ARC
  8
0
  6
CONTINUOUS
 62
3
 10
-384.488928757977530
 20
-116.358796572790900
 40
1.000000000000090
 50
291.618272422161970
 51
0.000000000000000
  0
ARC
  8
0
  6
CONTINUOUS
 62
3
 10
-380.988928757977530
 20
-125.190557439118740
 40
8.499999999999904
 50
111.618272422157710
 51
128.381727577841670
  0
ARC
  8
0
  6
CONTINUOUS
 62
3
 10
-389.631233603391020
 20
-116.159468525873330
 40
0.999999999999858
 50
133.739795291671300
 51
239.999999999996220
  0
LINE
  8
0
  6
CONTINUOUS
 62
3
 10
-383.488928757977530
 20
-113.190557439118740
 11
-383.488928757977530
 21
-116.358796572790900
  0
ARC
  8
0
  6
CONTINUOUS
 62
3
 10
-384.488928757977530
 20
-113.190557439118740
 40
1.000000000000000
 50
0.000000000000000
 51
106.260204708297360
  0
ARC
  8
0
  6
CONTINUOUS
 62
3
 10
-380.988928757977530
 20
-125.190557439118740
 40
13.499999999999963
 50
106.260204708310860
 51
133.739795291687870
  0
ARC
  8
0
  6
CONTINUOUS
 62
3
 10
-380.988928757977530
 20
-125.190557439118740
 40
17.000000000000046
 50
101.212271417650010
 51
138.787728582350240
  0
ARC
  8
0
  6
CONTINUOUS
 62
3
 10
-380.988928757977530
 20
-125.190557439118740
 40
22.000000000000131
 50
99.594068226861211
 51
140.405931773139200
  0
ARC
  8
0
  6
CONTINUOUS
 62
3
 10
-380.988928757977530
 20
-125.190557439118740
 40
30.500000000000135
 50
96.813854344181038
 51
143.186145655818930
  0
ARC
  8
0
  6
CONTINUOUS
 62
3
 10
-380.988928757977530
 20
-125.190557439118740
 40
25.500000000000160
 50
97.589542391858117
 51
142.410457608142050
  0
ARC
  8
0
  6
CONTINUOUS
 62
3
 10
-380.988928757977530
 20
-125.190557439118740
 40
34.000000000000071
 50
95.739170477266924
 51
144.260829522733360
  0
ARC
  8
0
  6
CONTINUOUS
 62
3
 10
-380.988928757977530
 20
-125.190557439118740
 40
38.999999999999986
 50
95.284732954534590
 51
144.715267045465200
  0
ARC
  8
0
  6
CONTINUOUS
 62
3
 10
-408.106230545909400
 20
-113.575827836487430
 40
1.000000000000082
 50
60.000000000002721
 51
156.813854344180160
  0
LINE
  8
0
  6
CONTINUOUS
 62
3
 10
-407.606230545909400
 20
-112.709802432702900
 11
-404.987555090131880
 21
-114.221695412016080
  0
ARC
  8
0
  6
CONTINUOUS
 62
3
 10
-405.487555090131880
 20
-115.087720815800620
 40
0.999999999999701
 50
337.589542391853970
 51
60.000000000002721
  0
ARC
  8
0
  6
CONTINUOUS
 62
3
 10
-415.508007170407720
 20
-109.302410109851760
 40
1.000000000000082
 50
60.000000000002721
 51
155.284732954544520
  0
LINE
  8
0
  6
CONTINUOUS
 62
3
 10
-415.008007170407720
 20
-108.436384706067230
 11
-412.397882652301970
 21
-109.943340799213980
  0
ARC
  8
0
  6
CONTINUOUS
 62
3
 10
-412.897882652301970
 20
-110.809366202998290
 40
0.999999999999863
 50
335.739170477254390
 51
59.999999999996206
  0
ARC
  8
0
  6
CONTINUOUS
 62
3
 10
-390.387458028366720
 20
-123.805765919200460
 40
1.000000000000026
 50
351.618272422167310
 51
60.000000000002721
  0
LINE
  8
0
  6
CONTINUOUS
 62
3
 10
-392.631233603391020
 20
-121.355620948579850
 11
-389.887458028366720
 21
-122.939740515415930
  0
ARC
  8
0
  6
CONTINUOUS
 62
3
 10
-398.029857441350370
 20
-119.393424560859580
 40
1.000000000000076
 50
341.212271417652970
 51
60.000000000002721
  0
LINE
  8
0
  6
CONTINUOUS
 62
3
 10
-400.171092598406970
 20
-117.002481328155710
 11
-397.529857441350370
 21
-118.527399157075050
  0
ARC
  8
0
  6
CONTINUOUS
 62
3
 10
-400.671092598406970
 20
-117.868506731940010
 40
0.999999999999885
 50
59.999999999996206
 51
159.594068226861310
  0
ARC
  8
0
  6
CONTINUOUS
 62
3
 10
-393.131233603391020
 20
-122.221646352364160
 40
0.999999999999885
 50
59.999999999996206
 51
166.260204708307780
  0
ARC
  8
0
  6
CONTINUOUS
 62
3
 10
-380.988928757977530
 20
-125.190557439118740
 40
13.499999999999687
 50
166.260204708311360
 51
193.739795291688180
  0
ARC
  8
0
  6
CONTINUOUS
 62
3
 10
-380.988928757977530
 20
-125.190557439118740
 40
16.999999999999716
 50
161.212271417649560
 51
198.787728582350440
  0
ARC
  8
0
  6
CONTINUOUS
 62
3
 10
-380.988928757977530
 20
-125.190557439118740
 40
22.000000000000206
 50
159.594068226860770
 51
200.405931773139230
  0
ARC
  8
0
  6
CONTINUOUS
 62
3
 10
-380.988928757977530
 20
-125.190557439118740
 40
30.499999999999947
 50
156.813854344181150
 51
203.186145655818850
  0
ARC
  8
0
  6
CONTINUOUS
 62
3
 10
-380.988928757977530
 20
-125.190557439118740
 40
25.500000000000000
 50
157.589542391857980
 51
202.410457608142480
  0
ARC
  8
0
  6
CONTINUOUS
 62
3
 10
-380.988928757977530
 20
-125.190557439118740
 40
34.000000000000007
 50
155.739170477266780
 51
204.260829522733220
  0
ARC
  8
0
  6
CONTINUOUS
 62
3
 10
-380.988928757977530
 20
-125.190557439118740
 40
39.000000000000220
 50
155.284732954534800
 51
204.715267045465200
  0
LINE
  8
0
  6
CONTINUOUS
 62
3
 10
-378.488928757977530
 20
-154.482194470872430
 11
-378.488928757977530
 21
-151.458408512246050
  0
LINE
  8
0
  6
CONTINUOUS
 62
3
 10
-378.488928757977530
 20
-145.896836679967270
 11
-378.488928757977530
 21
-142.847001022128350
  0
LINE
  8
0
  6
CONTINUOUS
 62
3
 10
-378.488928757977530
 20
-137.190557439118750
 11
-378.488928757977530
 21
-134.022318305446590
  0
LINE
  8
0
  6
CONTINUOUS
 62
3
 10
-371.846623912564040
 20
-133.355620948579850
 11
-374.590399487588340
 21
-131.771501381743780
  0
LINE
  8
0
  6
CONTINUOUS
 62
3
 10
-364.306764917548550
 20
-137.708760569004230
 11
-366.948000074604690
 21
-136.183842740084660
  0
LINE
  8
0
  6
CONTINUOUS
 62
3
 10
-349.469850345547340
 20
-146.274857191092480
 11
-352.079974863653090
 21
-144.767901097945720
  0
LINE
  8
0
  6
CONTINUOUS
 62
3
 10
-378.488928757977530
 20
-163.029029924143770
 11
-378.488928757977530
 21
-160.015117737850490
  0
LINE
  8
0
  6
CONTINUOUS
 62
3
 10
-356.871626970045670
 20
-142.001439464456580
 11
-359.490302425822730
 21
-140.489546485143390
  0
ARC
  8
0
  6
CONTINUOUS
 62
3
 10
-380.988928757977530
 20
-125.190557439118740
 40
8.499999999999904
 50
291.618272422157700
 51
308.381727577842640
  0
ARC
  8
0
  6
CONTINUOUS
 62
3
 10
-380.988928757977530
 20
-125.190557439118740
 40
13.499999999999963
 50
286.260204708310820
 51
313.739795291687870
  0
ARC
  8
0
  6
CONTINUOUS
 62
3
 10
-380.988928757977530
 20
-125.190557439118740
 40
17.000000000000046
 50
281.212271417650020
 51
318.787728582350210
  0
ARC
  8
0
  6
CONTINUOUS
 62
3
 10
-380.988928757977530
 20
-125.190557439118740
 40
22.000000000000131
 50
279.594068226861170
 51
320.405931773139170
  0
ARC
  8
0
  6
CONTINUOUS
 62
3
 10
-380.988928757977530
 20
-125.190557439118740
 40
25.499999999999932
 50
277.589542391858170
 51
322.410457608142050
  0
ARC
  8
0
  6
CONTINUOUS
 62
3
 10
-380.988928757977530
 20
-125.190557439118740
 40
34.000000000000071
 50
275.739170477266950
 51
324.260829522733050
  0
ARC
  8
0
  6
CONTINUOUS
 62
3
 10
-380.988928757977530
 20
-125.190557439118740
 40
30.500000000000135
 50
276.813854344181040
 51
323.186145655818900
  0
ARC
  8
0
  6
CONTINUOUS
 62
3
 10
-380.988928757977530
 20
-125.190557439118740
 40
38.999999999999986
 50
275.284732954534600
 51
324.715267045465230
  0
ARC
  8
0
  6
CONTINUOUS
 62
3
 10
-375.090399487588340
 20
-132.637526785528080
 40
0.999999999999885
 50
59.999999999996206
 51
128.381727577840220
  0
ARC
  8
0
  6
CONTINUOUS
 62
3
 10
-377.488928757977530
 20
-134.022318305446590
 40
1.000000000000090
 50
111.618272422161970
 51
180.000000000000000
  0
ARC
  8
0
  6
CONTINUOUS
 62
3
 10
-377.488928757977530
 20
-137.190557439118750
 40
1.000000000000000
 50
180.000000000000000
 51
286.260204708297350
  0
ARC
  8
0
  6
CONTINUOUS
 62
3
 10
-372.346623912564040
 20
-134.221646352364160
 40
0.999999999999858
 50
313.739795291671330
 51
59.999999999996206
  0
ARC
  8
0
  6
CONTINUOUS
 62
3
 10
-367.448000074604690
 20
-137.049868143869190
 40
1.000000000000082
 50
60.000000000002721
 51
138.787728582338990
  0
ARC
  8
0
  6
CONTINUOUS
 62
3
 10
-364.806764917548550
 20
-138.574785972788530
 40
1.000000000000318
 50
320.405931773139570
 51
59.999999999996206
  0
ARC
  8
0
  6
CONTINUOUS
 62
3
 10
-377.488928757977530
 20
-142.847001022128350
 40
0.999999999999982
 50
101.212271417644000
 51
180.000000000000000
  0
ARC
  8
0
  6
CONTINUOUS
 62
3
 10
-377.488928757977530
 20
-145.896836679967270
 40
1.000000000000000
 50
180.000000000000000
 51
279.594068226875490
  0
ARC
  8
0
  6
CONTINUOUS
 62
3
 10
-377.488928757977530
 20
-154.482194470872430
 40
1.000000000000000
 50
180.000000000000000
 51
276.813854344179670
  0
ARC
  8
0
  6
CONTINUOUS
 62
3
 10
-359.990302425822730
 20
-141.355571888927930
 40
1.000000000000082
 50
60.000000000002721
 51
142.410457608148220
  0
ARC
  8
0
  6
CONTINUOUS
 62
3
 10
-357.371626970045670
 20
-142.867464868240890
 40
0.999999999999911
 50
323.186145655802870
 51
59.999999999996206
  0
ARC
  8
0
  6
CONTINUOUS
 62
3
 10
-377.488928757977530
 20
-151.458408512246050
 40
0.999999999999975
 50
97.589542391854238
 51
180.000000000000000
  0
ARC
  8
0
  6
CONTINUOUS
 62
3
 10
-377.488928757977530
 20
-163.029029924143770
 40
1.000000000000000
 50
180.000000000000000
 51
275.284732954535740
  0
ARC
  8
0
  6
CONTINUOUS
 62
3
 10
-377.488928757977530
 20
-160.015117737850490
 40
0.999999999999973
 50
95.739170477261709
 51
180.000000000000000
  0
ARC
  8
0
  6
CONTINUOUS
 62
3
 10
-352.579974863653090
 20
-145.633926501730030
 40
0.999999999999885
 50
59.999999999996206
 51
144.260829522736490
  0
ARC
  8
0
  6
CONTINUOUS
 62
3
 10
-349.969850345547340
 20
-147.140882594877010
 40
0.999999999999776
 50
324.715267045465680
 51
60.000000000002721
  0
CIRCLE
  8
0
  6
CONTINUOUS
 62
3
 10
-380.988928757977530
 20
-125.190557439118740
 40
5.000000000000000
  0
ARC
  8
0
  6
CONTINUOUS
 62
3
 10
-346.469850345547340
 20
-141.078704768385730
 40
0.999999999999885
 50
239.999999999996220
 51
335.284732954544490
  0
LINE
  8
0
  6
CONTINUOUS
 62
3
 10
-346.969850345547340
 20
-141.944730172170040
 11
-349.579974863653090
 21
-140.437774079023510
  0
ARC
  8
0
  6
CONTINUOUS
 62
3
 10
-380.988928757977530
 20
-125.190557439118740
 40
39.000000000000220
 50
335.284732954534830
 51
24.715267045465190
  0
ARC
  8
0
  6
CONTINUOUS
 62
3
 10
-380.988928757977530
 20
-125.190557439118740
 40
34.000000000000007
 50
335.739170477266780
 51
24.260829522733218
  0
ARC
  8
0
  6
CONTINUOUS
 62
3
 10
-380.988928757977530
 20
-125.190557439118740
 40
25.500000000000085
 50
337.589542391857490
 51
22.410457608142021
  0
ARC
  8
0
  6
CONTINUOUS
 62
3
 10
-380.988928757977530
 20
-125.190557439118740
 40
30.499999999999947
 50
336.813854344181150
 51
23.186145655818844
  0
ARC
  8
0
  6
CONTINUOUS
 62
3
 10
-353.871626970045670
 20
-136.805287041750060
 40
1.000000000000082
 50
240.000000000002730
 51
336.813854344180130
  0
LINE
  8
0
  6
CONTINUOUS
 62
3
 10
-354.371626970045670
 20
-137.671312445534600
 11
-356.990302425823190
 21
-136.159419466221640
  0
ARC
  8
0
  6
CONTINUOUS
 62
3
 10
-380.988928757977530
 20
-125.190557439118740
 40
22.000000000000206
 50
339.594068226860770
 51
20.405931773139226
  0
ARC
  8
0
  6
CONTINUOUS
 62
3
 10
-349.079974863653090
 20
-139.571748675238980
 40
0.999999999999769
 50
155.739170477266270
 51
240.000000000002730
  0
ARC
  8
0
  6
CONTINUOUS
 62
3
 10
-356.490302425823190
 20
-135.293394062437100
 40
0.999999999999701
 50
157.589542391853940
 51
240.000000000002730
  0
ARC
  8
0
  6
CONTINUOUS
 62
3
 10
-361.306764917548090
 20
-132.512608146297480
 40
0.999999999999885
 50
239.999999999996220
 51
339.594068226861340
  0
ARC
  8
0
  6
CONTINUOUS
 62
3
 10
-380.988928757977530
 20
-125.190557439118740
 40
17.000000000000146
 50
341.212271417650070
 51
18.787728582350418
  0
LINE
  8
0
  6
CONTINUOUS
 62
3
 10
-361.806764917548090
 20
-133.378633550081790
 11
-364.448000074604690
 21
-131.853715721162220
  0
ARC
  8
0
  6
CONTINUOUS
 62
3
 10
-363.948000074604690
 20
-130.987690317377910
 40
0.999999999999646
 50
161.212271417644620
 51
239.999999999996220
  0
ARC
  8
0
  6
CONTINUOUS
 62
3
 10
-380.988928757977530
 20
-125.190557439118740
 40
13.500000000000130
 50
346.260204708311850
 51
13.739795291688171
  0
ARC
  8
0
  6
CONTINUOUS
 62
3
 10
-368.846623912564040
 20
-128.159468525873340
 40
0.999999999999885
 50
239.999999999996220
 51
346.260204708314010
  0
LINE
  8
0
  6
CONTINUOUS
 62
3
 10
-369.346623912564040
 20
-129.025493929657640
 11
-372.090399487588340
 21
-127.441374362821560
  0
ARC
  8
0
  6
CONTINUOUS
 62
3
 10
-368.846623912564040
 20
-122.221646352364160
 40
0.999999999999879
 50
13.739795291686027
 51
120.000000000003780
  0
ARC
  8
0
  6
CONTINUOUS
 62
3
 10
-380.988928757977530
 20
-125.190557439118740
 40
8.499999999999972
 50
351.618272422157820
 51
8.381727577842204
  0
ARC
  8
0
  6
CONTINUOUS
 62
3
 10
-371.590399487588340
 20
-126.575348959037250
 40
1.000000000000059
 50
171.618272422154460
 51
239.999999999996220
  0
ARC
  8
0
  6
CONTINUOUS
 62
3
 10
-361.306764917548090
 20
-117.868506731940010
 40
1.000000000000094
 50
20.405931773138686
 51
120.000000000003780
  0
LINE
  8
0
  6
CONTINUOUS
 62
3
 10
-361.806764917548090
 20
-117.002481328155710
 11
-364.448000074604690
 21
-118.527399157075050
  0
ARC
  8
0
  6
CONTINUOUS
 62
3
 10
-363.948000074604690
 20
-119.393424560859580
 40
1.000000000000082
 50
119.999999999997270
 51
198.787728582347000
  0
LINE
  8
0
  6
CONTINUOUS
 62
3
 10
-369.346623912564040
 20
-121.355620948579850
 11
-372.090399487588340
 21
-122.939740515415930
  0
ARC
  8
0
  6
CONTINUOUS
 62
3
 10
-371.590399487588340
 20
-123.805765919200460
 40
1.000000000000082
 50
119.999999999997270
 51
188.381727577832660
  0
ARC
  8
0
  6
CONTINUOUS
 62
3
 10
-349.079974863653090
 20
-110.809366202998290
 40
0.999999999999885
 50
120.000000000003780
 51
204.260829522745610
  0
LINE
  8
0
  6
CONTINUOUS
 62
3
 10
-346.969850345547340
 20
-108.436384706067230
 11
-349.579974863653090
 21
-109.943340799213980
  0
ARC
  8
0
  6
CONTINUOUS
 62
3
 10
-346.469850345547340
 20
-109.302410109851760
 40
1.000000000000248
 50
24.715267045455477
 51
119.999999999997270
  0
ARC
  8
0
  6
CONTINUOUS
 62
3
 10
-356.490302425823190
 20
-115.087720815800620
 40
1.000000000000082
 50
119.999999999997270
 51
202.410457608146060
  0
LINE
  8
0
  6
CONTINUOUS
 62
3
 10
-354.371626970045670
 20
-112.709802432702900
 11
-356.990302425823190
 21
-114.221695412016080
  0
ARC
  8
0
  6
CONTINUOUS
 62
3
 10
-353.871626970045670
 20
-113.575827836487430
 40
0.999999999999730
 50
23.186145655819850
 51
119.999999999997270
  0
ARC
  8
0
  6
CONTINUOUS
 62
3
 10
-380.988928757977530
 20
-125.190557439118740
 40
38.999999999999865
 50
35.284732954534789
 51
84.715267045465410
  0
ARC
  8
0
  6
CONTINUOUS
 62
3
 10
-380.988928757977530
 20
-125.190557439118740
 40
33.999999999999829
 50
35.739170477266640
 51
84.260829522733076
  0
ARC
  8
0
  6
CONTINUOUS
 62
3
 10
-380.988928757977530
 20
-125.190557439118740
 40
25.499999999999890
 50
37.589542391857961
 51
82.410457608141883
  0
ARC
  8
0
  6
CONTINUOUS
 62
3
 10
-380.988928757977530
 20
-125.190557439118740
 40
30.499999999999964
 50
36.813854344181067
 51
83.186145655818962
  0
ARC
  8
0
  6
CONTINUOUS
 62
3
 10
-380.988928757977530
 20
-125.190557439118740
 40
22.000000000000025
 50
39.594068226860820
 51
80.405931773138789
  0
ARC
  8
0
  6
CONTINUOUS
 62
3
 10
-380.988928757977530
 20
-125.190557439118740
 40
17.000000000000114
 50
41.212271417649760
 51
78.787728582349985
  0
ARC
  8
0
  6
CONTINUOUS
 62
3
 10
-380.988928757977530
 20
-125.190557439118740
 40
13.499999999999927
 50
46.260204708312145
 51
73.739795291689134
  0
ARC
  8
0
  6
CONTINUOUS
 62
3
 10
-377.488928757977530
 20
-113.190557439118740
 40
0.999999999999964
 50
73.739795291702634
 51
180.000000000000000
  0
LINE
  8
0
  6
CONTINUOUS
 62
3
 10
-378.488928757977530
 20
-113.190557439118740
 11
-378.488928757977530
 21
-116.358796572790900
  0
ARC
  8
0
  6
CONTINUOUS
 62
3
 10
-372.346623912564040
 20
-116.159468525873330
 40
0.999999999999885
 50
300.000000000003810
 51
46.260204708328693
  0
ARC
  8
0
  6
CONTINUOUS
 62
3
 10
-380.988928757977530
 20
-125.190557439118740
 40
8.500000000000128
 50
51.618272422158320
 51
68.381727577842284
  0
ARC
  8
0
  6
CONTINUOUS
 62
3
 10
-377.488928757977530
 20
-116.358796572790900
 40
1.000000000000000
 50
180.000000000000000
 51
248.381727577838030
  0
ARC
  8
0
  6
CONTINUOUS
 62
3
 10
-364.806764917548550
 20
-111.806328905448730
 40
1.000000000000082
 50
299.999999999997270
 51
39.594068226850403
  0
LINE
  8
0
  6
CONTINUOUS
 62
3
 10
-364.306764917548550
 20
-112.672354309233270
 11
-366.948000074604690
 21
-114.197272138152840
  0
ARC
  8
0
  6
CONTINUOUS
 62
3
 10
-367.448000074604690
 20
-113.331246734368530
 40
0.999999999999673
 50
221.212271417651210
 51
300.000000000003810
  0
LINE
  8
0
  6
CONTINUOUS
 62
3
 10
-371.846623912564040
 20
-117.025493929657640
 11
-374.590399487588340
 21
-118.609613496493720
  0
ARC
  8
0
  6
CONTINUOUS
 62
3
 10
-375.090399487588340
 20
-117.743588092709180
 40
0.999999999999961
 50
231.618272422159780
 51
299.999999999997270
  0
ARC
  8
0
  6
CONTINUOUS
 62
3
 10
-352.579974863653090
 20
-104.747188376507460
 40
0.999999999999940
 50
215.739170477274090
 51
300.000000000003810
  0
LINE
  8
0
  6
CONTINUOUS
 62
3
 10
-349.469850345547340
 20
-104.106257687145010
 11
-352.079974863653090
 21
-105.613213780291770
  0
ARC
  8
0
  6
CONTINUOUS
 62
3
 10
-349.969850345547340
 20
-103.240232283360710
 40
0.999999999999885
 50
300.000000000003810
 51
35.284732954544943
  0
ARC
  8
0
  6
CONTINUOUS
 62
3
 10
-359.990302425823190
 20
-109.025542989309570
 40
0.999999999999834
 50
217.589542391867670
 51
299.999999999997270
  0
LINE
  8
0
  6
CONTINUOUS
 62
3
 10
-356.871626970045670
 20
-108.379675413780910
 11
-359.490302425823190
 21
-109.891568393094100
  0
ARC
  8
0
  6
CONTINUOUS
 62
3
 10
-357.371626970045670
 20
-107.513650009996380
 40
1.000000000000082
 50
299.999999999997270
 51
36.813854344186687
  0
ARC
  8
0
  6
CONTINUOUS
 62
3
 10
-377.488928757977530
 20
-87.352084954093726
 40
1.000000000000042
 50
84.715267045464302
 51
180.000000000000000
  0
LINE
  8
0
  6
CONTINUOUS
 62
3
 10
-378.488928757977530
 20
-87.352084954093726
 11
-378.488928757977530
 21
-90.365997140387009
  0
ARC
  8
0
  6
CONTINUOUS
 62
3
 10
-377.488928757977530
 20
-90.365997140387009
 40
1.000000000000000
 50
180.000000000000000
 51
264.260829522738280
  0
ARC
  8
0
  6
CONTINUOUS
 62
3
 10
-377.488928757977530
 20
-95.898920407365068
 40
1.000000000000077
 50
83.186145655820312
 51
180.000000000000000
  0
LINE
  8
0
  6
CONTINUOUS
 62
3
 10
-378.488928757977530
 20
-95.898920407365068
 11
-378.488928757977530
 21
-98.922706365991218
  0
ARC
  8
0
  6
CONTINUOUS
 62
3
 10
-377.488928757977530
 20
-98.922706365991445
 40
1.000000000000000
 50
179.999999999986980
 51
262.410457608144040
  0
ARC
  8
0
  6
CONTINUOUS
 62
3
 10
-377.488928757977530
 20
-104.484278198270230
 40
1.000000000000268
 50
80.405931773124522
 51
180.000000000000000
  0
LINE
  8
0
  6
CONTINUOUS
 62
3
 10
-378.488928757977530
 20
-104.484278198270230
 11
-378.488928757977530
 21
-107.534113856109140
  0
ARC
  8
0
  6
CONTINUOUS
 62
3
 10
-377.488928757977530
 20
-107.534113856109140
 40
1.000000000000000
 50
180.000000000000000
 51
258.787728582356010
  0
LINE
  8
0
  6
DASHDOT
 62
4
 10
-485.657087956563940
 20
-125.190557439118740
 11
-271.451805389535020
 21
-125.190557439118740
  0
ARC
  8
0
  6
CONTINUOUS
 62
3
 10
-346.887436470983520
 20
-196.335277176711910
 40
14.999999999999908
 50
280.304846468766810
 51
315.000000000000000
  0
LINE
  8
0
  6
CONTINUOUS
 62
3
 10
-330.070784397801050
 20
-200.731828539126270
 11
-336.280834753185330
 21
-206.941878894510100
  0
ARC
  8
0
  6
CONTINUOUS
 62
3
 10
-340.677386115599230
 20
-190.125226821328080
 40
14.999999999999961
 50
315.000000000000000
 51
350.000000000000000
  0
LINE
  8
0
  6
CONTINUOUS
 62
3
 10
-321.488928757977530
 20
-161.190557439118750
 11
-321.488928757977530
 21
-175.190557439118630
  0
LINE
  8
0
  6
CONTINUOUS
 62
3
 10
-323.129369969087630
 20
-176.987039126414540
 11
-325.905269820416270
 21
-192.729949486332000
  0
ARC
  8
0
  6
CONTINUOUS
 62
3
 10
-322.488928757977530
 20
-175.190557439118630
 40
1.000000000000028
 50
279.914783369142580
 51
0.000000000000000
  0
ARC
  8
0
  6
CONTINUOUS
 62
3
 10
-322.144562216075770
 20
-177.160687304081560
 40
1.000000000000028
 50
99.914783369142555
 51
169.999999999991590
  0
ARC
  8
0
  6
CONTINUOUS
 62
3
 10
-415.090421044971550
 20
-196.335277176711910
 40
14.999999999999961
 50
225.000000000000000
 51
259.695153531233190
  0
LINE
  8
0
  6
CONTINUOUS
 62
3
 10
-431.907073118154020
 20
-200.731828539126270
 11
-425.697022762769730
 21
-206.941878894510100
  0
LINE
  8
0
  6
CONTINUOUS
 62
3
 10
-440.488928757977530
 20
-156.190557439118630
 11
-440.488928757977530
 21
-175.190557439118630
  0
ARC
  8
0
  6
CONTINUOUS
 62
3
 10
-439.488928757977530
 20
-175.190557439118630
 40
1.000000000000000
 50
180.000000000000000
 51
260.085216630857420
  0
ARC
  8
0
  6
CONTINUOUS
 62
3
 10
-439.833295299879300
 20
-177.160687304081560
 40
0.999999999999677
 50
10.000000000008416
 51
80.085216630857445
  0
LINE
  8
0
  6
CONTINUOUS
 62
3
 10
-440.488928757977530
 20
-156.190557439118630
 11
-440.488928757977530
 21
-137.190557439118750
  0
ARC
  8
0
  6
CONTINUOUS
 62
3
 10
-439.488928757977530
 20
-137.190557439118750
 40
1.000000000000087
 50
109.373802159153490
 51
180.000000000000000
  0
LINE
  8
0
  6
CONTINUOUS
 62
3
 10
-329.829331624490690
 20
-191.190557439118630
 11
-334.603990469778980
 21
-191.190557439118630
  0
ARC
  8
0
  6
CONTINUOUS
 62
3
 10
-334.603990469778980
 20
-196.190557439118630
 40
5.000000000000000
 50
90.000000000000000
 51
139.227195305958050
  0
ARC
  8
0
  6
CONTINUOUS
 62
3
 10
-380.988928757977530
 20
-156.190557439118630
 40
56.249999999999943
 50
294.602882248819700
 51
319.227195305956970
  0
LINE
  8
0
  6
CONTINUOUS
 62
3
 10
-360.488928757977530
 20
-186.052740882396990
 11
-360.488928757977530
 21
-214.054193802755120
  0
ARC
  8
0
  6
CONTINUOUS
 62
3
 10
-367.488928757977530
 20
-210.690557439118630
 40
3.000000000000000
 50
270.000000000000000
 51
0.000000000000000
  0
LINE
  8
0
  6
CONTINUOUS
 62
3
 10
-364.488928757977530
 20
-191.711677916941570
 11
-364.488928757977530
 21
-210.690557439118630
  0
LINE
  8
0
  6
CONTINUOUS
 62
3
 10
-344.204154897983590
 20
-211.093325828210400
 11
-362.658196341219880
 21
-214.448606090617120
  0
ARC
  8
0
  6
CONTINUOUS
 62
3
 10
-365.341477914219810
 20
-199.690557439118630
 40
15.000000000000000
 50
270.000000000000000
 51
280.304846468766810
  0
LINE
  8
0
  6
CONTINUOUS
 62
3
 10
-367.656637132003990
 20
-214.690557439118630
 11
-365.341477914219810
 21
-214.690557439118630
  0
LINE
  8
0
  6
CONTINUOUS
 62
3
 10
-401.488928757977530
 20
-186.052740882396990
 11
-401.488928757977530
 21
-214.054193802755120
  0
LINE
  8
0
  6
CONTINUOUS
 62
3
 10
-397.488928757977530
 20
-191.711677916941570
 11
-397.488928757977530
 21
-210.690557439118630
  0
ARC
  8
0
  6
CONTINUOUS
 62
3
 10
-394.488928757977530
 20
-210.690557439118630
 40
3.000000000000000
 50
180.000000000000000
 51
270.000000000000000
  0
LINE
  8
0
  6
CONTINUOUS
 62
3
 10
-417.773702617971480
 20
-211.093325828210400
 11
-399.319661174735190
 21
-214.448606090617120
  0
ARC
  8
0
  6
CONTINUOUS
 62
3
 10
-396.636379601735260
 20
-199.690557439118630
 40
14.999999999999908
 50
259.695153531233190
 51
270.000000000000000
  0
LINE
  8
0
  6
CONTINUOUS
 62
3
 10
-394.321220383951070
 20
-214.690557439118630
 11
-396.636379601735260
 21
-214.690557439118630
  0
LINE
  8
0
  6
CONTINUOUS
 62
3
 10
-432.148525891464370
 20
-191.190557439118630
 11
-427.373867046176090
 21
-191.190557439118630
  0
ARC
  8
0
  6
CONTINUOUS
 62
3
 10
-380.988928757977530
 20
-156.190557439118630
 40
56.249999999999901
 50
220.772804694043030
 51
245.397117751180330
  0
LINE
  8
0
  6
CONTINUOUS
 62
3
 10
-438.848487546867430
 20
-176.987039126414540
 11
-436.072587695538800
 21
-192.729949486332000
  0
ARC
  8
0
  6
CONTINUOUS
 62
3
 10
-421.300471400355830
 20
-190.125226821328080
 40
14.999999999999844
 50
189.999999999999970
 51
225.000000000000000
  0
ARC
  8
0
  6
CONTINUOUS
 62
3
 10
-329.829331624490690
 20
-186.190557439118630
 40
5.000000000000000
 50
270.000000000000000
 51
349.999999999996870
  0
ARC
  8
0
  6
CONTINUOUS
 62
3
 10
-355.488928757977530
 20
-211.879986418055210
 40
5.000000000000226
 50
114.602882248818190
 51
180.000000000000000
  0
ARC
  8
0
  6
CONTINUOUS
 62
3
 10
-406.488928757977530
 20
-211.879986418055210
 40
5.000000000000000
 50
0.000000000000000
 51
65.397117751181796
  0
ARC
  8
0
  6
CONTINUOUS
 62
3
 10
-432.148525891464370
 20
-186.190557439118630
 40
4.999999999999689
 50
190.000000000003150
 51
270.000000000000000
  0
ARC
  8
0
  6
CONTINUOUS
 62
3
 10
-427.373867046176090
 20
-196.190557439118630
 40
5.000000000000002
 50
40.772804694041938
 51
90.000000000000000
  0
ARC
  8
0
  6
CONTINUOUS
 62
3
 10
-380.988928757977530
 20
-156.190557439118630
 40
60.000000000000036
 50
257.161431859015810
 51
282.838568140984190
  0
ARC
  8
0
  6
CONTINUOUS
 62
3
 10
-380.988928757977530
 20
-156.190557439118630
 40
35.000000000000000
 50
270.000000000000000
 51
320.890007787241700
  0
ARC
  8
0
  6
CONTINUOUS
 62
3
 10
-380.988928757977530
 20
-156.190557439118630
 40
35.000000000000007
 50
219.109992212758270
 51
270.000000000000000
  0
ARC
  8
0
  6
CONTINUOUS
 62
3
 10
-357.488928757977530
 20
-186.052740882396990
 40
2.999999999999980
 50
128.200922830837240
 51
180.000000000000000
  0
ARC
  8
0
  6
CONTINUOUS
 62
3
 10
-367.488928757977530
 20
-191.711677916941570
 40
3.000000000000000
 50
0.000000000000000
 51
110.809573577675730
  0
ARC
  8
0
  6
CONTINUOUS
 62
3
 10
-394.488928757977530
 20
-191.711677916941570
 40
2.999999999999950
 50
69.190426422324265
 51
180.000000000000000
  0
ARC
  8
0
  6
CONTINUOUS
 62
3
 10
-404.488928757977530
 20
-186.052740882396990
 40
3.000000000000000
 50
0.000000000000000
 51
51.799077169162757
  0
INSERT
  8
0
  2
SYM1
 10
-336.794754933818130
 20
-200.384731263277590
  0
INSERT
  8
0
  2
SYM2
 10
-425.183102582136940
 20
-200.384731263277590
  0
INSERT
  8
0
  2
SYM3
 10
-432.988928757977530
 20
-239.190557439118610
 41
-1.000000000000000
  0
INSERT
  8
0
  2
SYM4
 10
-464.988928757977530
 20
-151.190557439118860
 41
-1.000000000000000
  0
INSERT
  8
0
  2
SYM5
 10
-328.988928757977530
 20
-239.190557439118610
  0
LINE
  8
0
  6
CONTINUOUS
 62
3
 10
-360.488928757977530
 20
-31.190557439118749
 11
-360.488928757977530
 21
-71.715426994848457
  0
ARC
  8
0
  6
CONTINUOUS
 62
3
 10
-370.488928757977530
 20
-31.190557439118749
 40
10.000000000000000
 50
0.000000000000000
 51
90.000000000000000
  0
LINE
  8
0
  6
CONTINUOUS
 62
3
 10
-370.488928757977530
 20
-21.190557439118749
 11
-391.488928757977530
 21
-21.190557439118749
  0
ARC
  8
0
  6
CONTINUOUS
 62
3
 10
-391.488928757977530
 20
-31.190557439118749
 40
10.000000000000000
 50
90.000000000000000
 51
180.000000000000000
  0
LINE
  8
0
  6
CONTINUOUS
 62
3
 10
-401.488928757977530
 20
-31.190557439118749
 11
-401.488928757977530
 21
-71.715426994848457
  0
CIRCLE
  8
0
  6
CONTINUOUS
 62
3
 10
-380.988928757977530
 20
-41.190557439118749
 40
10.000000000000000
  0
LINE
  8
0
  6
DASHDOT
 62
4
 10
-357.821015759095990
 20
-41.190557439118749
 11
-404.843529660630680
 21
-41.190557439118749
  0
ARC
  8
0
  6
CONTINUOUS
 62
3
 10
-380.988928757977530
 20
-156.190557439118630
 40
106.000000000000110
 50
311.146783655316030
 51
311.328658646343400
  0
ARC
  8
0
  6
CONTINUOUS
 62
3
 10
-289.988928757977530
 20
-216.190557439118630
 40
3.000000000000000
 50
0.000000000000000
 51
146.601511532010900
  0
LINE
  8
0
  6
CONTINUOUS
 62
3
 10
-313.978030817420740
 20
-242.035564225485470
 11
-313.978030817420740
 21
-247.320404295665750
  0
ARC
  8
0
  6
CONTINUOUS
 62
3
 10
-311.978030817420740
 20
-247.320404295665750
 40
2.000000000000000
 50
180.000000000000000
 51
255.361208056743980
  0
ARC
  8
0
  6
CONTINUOUS
 62
3
 10
-307.151268990078620
 20
-235.690557439118630
 40
2.500000000000000
 50
90.000000000000000
 51
132.885184548955720
  0
ARC
  8
0
  6
CONTINUOUS
 62
3
 10
-308.488928757977530
 20
-236.912301721560790
 40
2.499999999999799
 50
131.928504432617640
 51
180.000000000000000
  0
ARC
  8
0
  6
CONTINUOUS
 62
3
 10
-380.988928757977530
 20
-156.190557439118630
 40
105.999999999999920
 50
311.328658646343400
 51
326.601511532012810
  0
ARC
  8
0
  6
CONTINUOUS
 62
3
 10
-380.988928757977990
 20
-156.190557439118630
 40
106.000000000000010
 50
213.398488467987190
 51
228.671341353656570
  0
ARC
  8
0
  6
CONTINUOUS
 62
3
 10
-454.826588525876900
 20
-235.690557439118630
 40
2.499999999999925
 50
47.114815451044294
 51
90.000000000000000
  0
ARC
  8
0
  6
CONTINUOUS
 62
3
 10
-380.988928757977990
 20
-156.190557439118630
 40
105.999999999999920
 50
228.671341353656570
 51
228.853216344683940
  0
ARC
  8
0
  6
CONTINUOUS
 62
3
 10
-453.488928757977990
 20
-236.912301721560790
 40
2.500000000000000
 50
0.000000000000000
 51
48.071495567382364
  0
LINE
  8
0
  6
CONTINUOUS
 62
3
 10
-447.999826698534780
 20
-242.035564225485470
 11
-447.999826698534780
 21
-247.320404295665750
  0
ARC
  8
0
  6
CONTINUOUS
 62
3
 10
-449.999826698534780
 20
-247.320404295665750
 40
2.000000000000107
 50
284.638791943256020
 51
0.000000000000000
  0
ARC
  8
0
  6
CONTINUOUS
 62
3
 10
-471.988928757977990
 20
-216.190557439118630
 40
2.999999999999984
 50
33.398488467989075
 51
180.000000000000000
  0
ARC
  8
0
  6
CONTINUOUS
 62
3
 10
-455.999826698534780
 20
-242.035564225485470
 40
8.000000000000000
 50
0.000000000000000
 51
48.853216344683808
  0
ARC
  8
0
  6
CONTINUOUS
 62
3
 10
-305.978030817420740
 20
-242.035564225485470
 40
7.999999999999853
 50
131.146783655316200
 51
180.000000000000000
  0
LINE
  8
0
  6
CONTINUOUS
 62
3
 10
-474.988928757977990
 20
-136.423955623300370
 11
-474.988928757977990
 21
-230.190557439118630
  0
LINE
  8
0
  6
CONTINUOUS
 62
3
 10
-286.988928757977530
 20
-136.423955623300370
 11
-286.988928757977530
 21
-230.190557439118630
  0
LINE
  8
0
  6
CONTINUOUS
 62
3
 10
-448.988928757977530
 20
-249.190557439118610
 11
-380.988928757977530
 21
-249.190557439118610
  0
LINE
  8
0
  6
CONTINUOUS
 62
3
 10
-312.988928757977530
 20
-249.190557439118610
 11
-380.988928757977530
 21
-249.190557439118610
  0
LINE
  8
0
  6
CONTINUOUS
 62
3
 10
-480.988928757977530
 20
-251.190557439118610
 11
-450.988928757977530
 21
-251.190557439118610
  0
LINE
  8
0
  6
DASHDOT
 62
4
 10
-468.488928757977530
 20
-229.030278584748570
 11
-468.488928757977530
 21
-255.607349278718290
  0
LINE
  8
0
  6
CONTINUOUS
 62
3
 10
-480.988928757977530
 20
-235.690557439118630
 11
-480.988928757977530
 21
-251.190557439118610
  0
LINE
  8
0
  6
CONTINUOUS
 62
3
 10
-283.488928757977530
 20
-233.190557439118630
 11
-307.151268990078620
 21
-233.190557439118630
  0
LINE
  8
0
  6
CONTINUOUS
 62
3
 10
-280.988928757977530
 20
-251.190557439118610
 11
-310.988928757977530
 21
-251.190557439118610
  0
LINE
  8
0
  6
DASHDOT
 62
4
 10
-293.488928757977530
 20
-229.030278584748570
 11
-293.488928757977530
 21
-255.607349278718290
  0
LINE
  8
0
  6
CONTINUOUS
 62
3
 10
-280.988928757977530
 20
-235.690557439118630
 11
-280.988928757977530
 21
-251.190557439118610
  0
LINE
  8
0
  6
CONTINUOUS
 62
3
 10
-310.988928757977530
 20
-236.912301721560790
 11
-310.988928757977530
 21
-251.190557439118610
  0
ARC
  8
0
  6
CONTINUOUS
 62
3
 10
-394.988928757977990
 20
-136.423955623300370
 40
80.000000000000142
 50
94.660419384114462
 51
180.000000000000000
  0
ARC
  8
0
  6
CONTINUOUS
 62
3
 10
-366.988928757977530
 20
-136.423955623300370
 40
80.000000000000000
 50
0.000000000000000
 51
14.758842360304651
  0
ARC
  8
0
  6
CONTINUOUS
 62
3
 10
-477.988928757977990
 20
-230.190557439118630
 40
3.000000000000000
 50
270.000000000000000
 51
0.000000000000000
  0
ARC
  8
0
  6
CONTINUOUS
 62
3
 10
-283.988928757977530
 20
-230.190557439118630
 40
3.000000000000000
 50
180.000000000000000
 51
270.000000000000000
  0
ARC
  8
0
  6
CONTINUOUS
 62
3
 10
-478.488928757977530
 20
-235.690557439118630
 40
2.500000000000000
 50
90.000000000000000
 51
180.000000000000000
  0
ARC
  8
0
  6
CONTINUOUS
 62
3
 10
-448.988928757977530
 20
-251.190557439118610
 40
2.000000000000000
 50
90.000000000000000
 51
180.000000000000000
  0
ARC
  8
0
  6
CONTINUOUS
 62
3
 10
-283.488928757977530
 20
-235.690557439118630
 40
2.500000000000000
 50
0.000000000000000
 51
90.000000000000000
  0
ARC
  8
0
  6
CONTINUOUS
 62
3
 10
-312.988928757977530
 20
-251.190557439118610
 40
2.000000000000000
 50
0.000000000000000
 51
90.000000000000000
  0
LINE
  8
0
  6
CONTINUOUS
 62
3
 10
-478.488928757977990
 20
-233.190557439118630
 11
-454.826588525876900
 21
-233.190557439118630
  0
LINE
  8
0
  6
CONTINUOUS
 62
3
 10
-450.988928757977990
 20
-236.912301721560790
 11
-450.988928757977990
 21
-251.190557439118610
  0
LINE
  8
0
  6
CONTINUOUS
 62
3
 10
-472.988928757977530
 20
-139.190557439118750
 11
-465.988928757977530
 21
-139.190557439118750
  0
LINE
  8
0
  6
CONTINUOUS
 62
3
 10
-471.486925985108770
 20
-123.190557439118740
 11
-465.988928757977530
 21
-123.190557439118740
  0
LINE
  8
0
  6
CONTINUOUS
 62
3
 10
-288.988928757977080
 20
-139.190557439118750
 11
-289.815773470420940
 21
-139.190557439118750
  0
LINE
  8
0
  6
DASHDOT
 62
4
 10
-357.503826790592600
 20
-126.190557439118740
 11
-404.333882033975560
 21
-126.190557439118740
  0
LINE
  8
0
  6
DASHDOT
 62
4
 10
-380.988928757977530
 20
-12.814301056762616
 11
-380.988928757977530
 21
-256.754654822510930
  0
LINE
  8
0
  6
CONTINUOUS
 62
4
 10
-380.988928757977530
 20
-156.190557439118630
 11
-380.605523529952170
 21
-155.807152211093490
  0
ARC
  8
0
  6
CONTINUOUS
 62
3
 10
-472.988928757977530
 20
-141.190557439118750
 40
2.000000000000000
 50
90.000000000000000
 51
180.000000000000000
  0
ARC
  8
0
  6
CONTINUOUS
 62
3
 10
-465.988928757977530
 20
-131.190557439118750
 40
8.000000000000000
 50
270.000000000000000
 51
90.000000000000000
  0
ARC
  8
0
  6
CONTINUOUS
 62
3
 10
-471.486925985108770
 20
-121.190557439118740
 40
2.000000000000145
 50
168.737752074361230
 51
270.000000000000000
  0
ARC
  8
0
  6
CONTINUOUS
 62
3
 10
-288.988928757977080
 20
-141.190557439118750
 40
2.000000000000000
 50
0.000000000000000
 51
90.000000000000000
  0
ARC
  8
0
  6
CONTINUOUS
 62
3
 10
-290.490931530845840
 20
-121.190557439118740
 40
1.999999999999983
 50
311.409622109280120
 51
11.262247925638780
  0
ARC
  8
0
  6
CONTINUOUS
 62
3
 10
-310.997631687766330
 20
-239.750226744528730
 40
7.999999999999880
 50
129.950233661982990
 51
178.218230102087230
  0
ARC
  8
0
  6
CONTINUOUS
 62
3
 10
-328.988928757977530
 20
-239.190557439118610
 40
10.000000000000000
 50
270.000000000000000
 51
358.218230102088230
  0
ARC
  8
0
  6
CONTINUOUS
 62
3
 10
-432.988928757977530
 20
-239.190557439118610
 40
9.999999999999675
 50
181.781769897911860
 51
270.000000000000000
  0
ARC
  8
0
  6
CONTINUOUS
 62
3
 10
-450.980225828188280
 20
-239.750226744528730
 40
8.000000000000107
 50
1.781769897912753
 51
50.049766338017029
  0
ARC
  8
0
  6
CONTINUOUS
 62
3
 10
-291.988928757977080
 20
-192.176665870011820
 40
4.999999999999877
 50
337.984630459601990
 51
0.000000000000000
  0
ARC
  8
0
  6
CONTINUOUS
 62
3
 10
-469.988928757977530
 20
-192.176665870011820
 40
5.000000000000000
 50
180.000000000000000
 51
202.015369540398010
  0
ARC
  8
0
  6
CONTINUOUS
 62
3
 10
-380.988928757977530
 20
-156.190557439118630
 40
101.000000000000310
 50
202.015369540396850
 51
230.049766338017580
  0
ARC
  8
0
  6
CONTINUOUS
 62
3
 10
-380.988928757977080
 20
-156.190557439118630
 40
101.000000000000050
 50
309.950233661982400
 51
337.984630459603070
  0
ARC
  8
0
  6
CONTINUOUS
 62
3
 10
-366.769552038589040
 20
-194.731124446636980
 40
26.999999999999847
 50
232.492357161294190
 51
319.848912341650250
  0
ARC
  8
0
  6
CONTINUOUS
 62
3
 10
-343.839149074250030
 20
-214.075286870816310
 40
2.999999999999886
 50
99.749988138587184
 51
139.848912341650620
  0
ARC
  8
0
  6
CONTINUOUS
 62
3
 10
-419.783200958336580
 20
-184.457224105785060
 40
26.999999999999797
 50
142.203357465588340
 51
275.631713938414800
  0
ARC
  8
0
  6
CONTINUOUS
 62
3
 10
-416.839188286372400
 20
-214.312421130546370
 40
2.999999999999921
 50
79.695153531234737
 51
95.631713938415942
  0
ARC
  8
0
  6
CONTINUOUS
 62
3
 10
-443.488928757977530
 20
-166.071401592518810
 40
3.000000000000168
 50
322.203357465589990
 51
0.000000000000000
  0
TEXT
  8
0
  6
CONTINUOUS
 62
3
 10
-396.472595214843750
 20
132.070220947265620
 40
12.500000000000000
  1
S090
 50
0.000002504478167
 41
0.470000016689301
  7
STANDARD1
  0
TEXT
  8
0
  6
CONTINUOUS
 62
3
 10
-396.472595214843750
 20
117.945213317871090
 40
12.500000000000000
  1
三菱ギヤードモートル
 50
0.000002504478167
 41
0.625000000000000
  7
STANDARD1
  0
TEXT
  8
0
  6
CONTINUOUS
 62
3
 10
-396.472595214843750
 20
103.820213317871090
 40
12.500000000000000
  1
GM-SSB
 50
0.000002504478167
 41
0.470000016689301
  7
STANDARD1
  0
TEXT
  8
0
  6
CONTINUOUS
 62
3
 10
-396.472595214843750
 20
89.695213317871094
 40
12.500000000000000
  1
0.1kW
 50
0.000002504478167
 41
0.470000016689301
  7
STANDARD1
  0
TEXT
  8
0
  6
CONTINUOUS
 62
3
 10
-396.472595214843750
 20
75.570213317871094
 40
12.500000000000000
  1
1/1200
 50
0.000002504478167
 41
0.470000016689301
  7
STANDARD1
  0
TEXT
  8
0
  6
CONTINUOUS
 62
3
 10
-396.472595214843750
 20
61.445217132568359
 40
12.500000000000000
  1
SCALE1/1
 50
0.000002504478167
 41
0.470000016689301
  7
STANDARD1
  0
ARC
  8
0
  6
CONTINUOUS
 62
3
 10
-366.988928757977530
 20
-136.423955623300370
 40
80.000000000000028
 50
36.186639254938207
 51
85.339580615885225
  0
ARC
  8
0
  6
CONTINUOUS
 62
3
 10
-430.988928757977530
 20
-75.190557439118749
 40
5.633955001831030
 50
9.379064865854279
 51
260.542060050072340
  0
ARC
  8
0
  6
CONTINUOUS
 62
3
 10
-430.988928757977530
 20
-75.190557439118749
 40
6.500000000000066
 50
5.267140598050389
 51
264.228301906986530
  0
LINE
  8
0
  6
CONTINUOUS
 62
3
 10
-433.988925420118220
 20
-73.458510485893186
 11
-433.988926373792540
 21
-76.922608462577756
  0
LINE
  8
0
  6
CONTINUOUS
 62
3
 10
-430.988935459698380
 20
-71.726460439183512
 11
-427.988930818426070
 21
-73.458505617413181
  0
LINE
  8
0
  6
CONTINUOUS
 62
3
 10
-433.988926870071170
 20
-76.922608831897520
 11
-431.611591452089210
 21
-78.295159857654568
  0
LINE
  8
0
  6
CONTINUOUS
 62
3
 10
-430.988935376579320
 20
-71.726460542733122
 11
-433.988926183926420
 21
-73.458510656982384
  0
ARC
  8
0
  6
CONTINUOUS
 62
3
 10
-330.988928757977530
 20
-75.190557439118749
 40
5.633955001831048
 50
279.194274751128830
 51
170.620935134145810
  0
ARC
  8
0
  6
CONTINUOUS
 62
3
 10
-330.988928757977530
 20
-75.190557439118749
 40
6.500000000000007
 50
275.771698093012960
 51
174.732859401949580
  0
LINE
  8
0
  6
CONTINUOUS
 62
3
 10
-333.988926043349300
 20
-74.658798467220862
 11
-333.988926373792760
 21
-73.458505461985425
  0
LINE
  8
0
  6
CONTINUOUS
 62
3
 10
-327.988932095836840
 20
-73.458510485893186
 11
-327.988931142162530
 21
-76.922608462577756
  0
LINE
  8
0
  6
CONTINUOUS
 62
3
 10
-330.988922056256680
 20
-71.726460439183512
 11
-333.988926697529000
 21
-73.458505617413181
  0
LINE
  8
0
  6
CONTINUOUS
 62
3
 10
-327.988930645883900
 20
-76.922608831897520
 11
-330.409531654082680
 21
-78.320139181052895
  0
LINE
  8
0
  6
CONTINUOUS
 62
3
 10
-330.988922139375750
 20
-71.726460542733122
 11
-327.988931332028640
 21
-73.458510656982384
  0
CIRCLE
  8
0
  6
CONTINUOUS
 62
3
 10
-370.488928757977530
 20
-65.190557439120113
 40
5.633955001831055
  0
ARC
  8
0
  6
CONTINUOUS
 62
3
 10
-370.488928757977530
 20
-65.190557439120113
 40
6.499999999999859
 50
287.646413450194980
 51
249.395042493623270
  0
LINE
  8
0
  6
CONTINUOUS
 62
3
 10
-373.488925420118450
 20
-66.922603438671359
 11
-373.488926373792760
 21
-63.458505461986789
  0
LINE
  8
0
  6
CONTINUOUS
 62
3
 10
-367.488932095836840
 20
-63.458510485894550
 11
-367.488931142162530
 21
-66.922608462579120
  0
LINE
  8
0
  6
CONTINUOUS
 62
3
 10
-370.488922056256680
 20
-61.726460439184876
 11
-373.488926697529110
 21
-63.458505617414545
  0
LINE
  8
0
  6
CONTINUOUS
 62
3
 10
-367.488930645883900
 20
-66.922608831898884
 11
-370.488933222389730
 21
-68.654655804535224
  0
LINE
  8
0
  6
CONTINUOUS
 62
3
 10
-370.488922139375860
 20
-61.726460542734486
 11
-367.488931332028530
 21
-63.458510656983748
  0
LINE
  8
0
  6
CONTINUOUS
 62
3
 10
-370.488933462966200
 20
-68.654655614868915
 11
-373.488926335077960
 21
-66.922603657152848
  0
CIRCLE
  8
0
  6
CONTINUOUS
 62
3
 10
-391.488928757977080
 20
-65.190557439120113
 40
5.633955001831055
  0
ARC
  8
0
  6
CONTINUOUS
 62
3
 10
-391.488928757977080
 20
-65.190557439120113
 40
6.499999999999892
 50
290.604957506376760
 51
252.353586549804990
  0
LINE
  8
0
  6
CONTINUOUS
 62
3
 10
-388.488932095836160
 20
-66.922603438671359
 11
-388.488931142161850
 21
-63.458505461986789
  0
LINE
  8
0
  6
CONTINUOUS
 62
3
 10
-394.488925420117770
 20
-63.458510485894550
 11
-394.488926373792080
 21
-66.922608462579120
  0
LINE
  8
0
  6
CONTINUOUS
 62
3
 10
-391.488935459697930
 20
-61.726460439184876
 11
-388.488930818425500
 21
-63.458505617414545
  0
LINE
  8
0
  6
CONTINUOUS
 62
3
 10
-394.488926870070710
 20
-66.922608831898884
 11
-391.488924293564880
 21
-68.654655804535224
  0
LINE
  8
0
  6
CONTINUOUS
 62
3
 10
-391.488935376578870
 20
-61.726460542734486
 11
-394.488926183926080
 21
-63.458510656983748
  0
LINE
  8
0
  6
CONTINUOUS
 62
3
 10
-391.488924052988410
 20
-68.654655614868915
 11
-388.488931180876650
 21
-66.922603657152848
  0
LINE
  8
0
  6
CONTINUOUS
 62
3
 10
-427.988931459154170
 20
-74.609936650713138
 11
-427.988931142162300
 21
-73.458505461985425
  0
POLYLINE
  8
0
  6
CONTINUOUS
 62
3
 66
1
  0
VERTEX
  8
0
  6
CONTINUOUS
 62
3
 10
160.734934773571180
 20
-126.190557439122070
  0
VERTEX
  8
0
  6
CONTINUOUS
 62
3
 10
160.503121257219480
 20
-124.239654218960790
  0
VERTEX
  8
0
  6
CONTINUOUS
 62
3
 10
159.816589171595270
 20
-122.363723115471170
  0
VERTEX
  8
0
  6
CONTINUOUS
 62
3
 10
158.701721559737450
 20
-120.634855108926040
  0
VERTEX
  8
0
  6
CONTINUOUS
 62
3
 10
157.201362158744730
 20
-119.119489627256590
  0
VERTEX
  8
0
  6
CONTINUOUS
 62
3
 10
155.373168938986050
 20
-117.875861316096610
  0
VERTEX
  8
0
  6
CONTINUOUS
 62
3
 10
153.287398340634180
 20
-116.951762114009210
  0
VERTEX
  8
0
  6
CONTINUOUS
 62
3
 10
151.024205358070110
 20
-116.382704635089760
  0
VERTEX
  8
0
  6
CONTINUOUS
 62
3
 10
148.670563228400570
 20
-116.190557439122070
  0
VERTEX
  8
0
  6
CONTINUOUS
 62
3
 10
146.316921098731030
 20
-116.382704635089760
  0
VERTEX
  8
0
  6
CONTINUOUS
 62
3
 10
144.053728116166950
 20
-116.951762114009210
  0
VERTEX
  8
0
  6
CONTINUOUS
 62
3
 10
141.967957517815080
 20
-117.875861316096610
  0
VERTEX
  8
0
  6
CONTINUOUS
 62
3
 10
140.139764298056410
 20
-119.119489627256590
  0
VERTEX
  8
0
  6
CONTINUOUS
 62
3
 10
138.639404897063710
 20
-120.634855108926040
  0
VERTEX
  8
0
  6
CONTINUOUS
 62
3
 10
137.524537285205870
 20
-122.363723115471170
  0
VERTEX
  8
0
  6
CONTINUOUS
 62
3
 10
136.838005199581660
 20
-124.239654218960790
  0
VERTEX
  8
0
  6
CONTINUOUS
 62
3
 10
136.606191683229950
 20
-126.190557439122070
  0
SEQEND
  8
0
  6
CONTINUOUS
 62
3
  0
LINE
  8
0
  6
CONTINUOUS
 62
3
 10
164.520049885906190
 20
-96.440557439122074
 11
164.520049885906190
 21
-84.506745890292166
  0
LINE
  8
0
  6
CONTINUOUS
 62
3
 10
166.520049885906190
 20
-236.087623763543380
 11
166.520049885906190
 21
-251.190557439122070
  0
LINE
  8
0
  6
CONTINUOUS
 62
3
 10
164.520049885906190
 20
-160.440546155425120
 11
164.520049885906190
 21
-91.440557439122074
  0
LINE
  8
0
  6
CONTINUOUS
 62
3
 10
166.520049885906190
 20
-92.440557439122074
 11
166.520049885906190
 21
-159.440546155425120
  0
LINE
  8
0
  6
DASHDOT
 62
4
 10
153.520049885906190
 20
-228.968518216404790
 11
153.520049885906190
 21
-257.409241826328920
  0
LINE
  8
0
  6
CONTINUOUS
 62
3
 10
164.520049885906190
 20
-160.440546155425120
 11
164.520049885906190
 21
-232.087623763543380
  0
LINE
  8
0
  6
CONTINUOUS
 62
3
 10
166.520049885906190
 20
-236.037451139266470
 11
166.520049885906190
 21
-237.836729876264540
  0
LINE
  8
0
  6
CONTINUOUS
 62
3
 10
166.520049885906190
 20
-159.440546155425120
 11
165.520049885906190
 21
-159.440546155425120
  0
LINE
  8
0
  6
CONTINUOUS
 62
3
 10
165.520049885906190
 20
-92.440557439122074
 11
166.520049885906190
 21
-92.440557439122074
  0
LINE
  8
0
  6
DASHDOT
 62
4
 10
115.449671498013620
 20
-126.190557439122070
 11
234.338665307067860
 21
-126.190557439122070
  0
LINE
  8
0
  6
CONTINUOUS
 62
3
 10
160.734934773571180
 20
-126.190557439122070
 11
160.734934773571180
 21
-230.091470443379820
  0
LINE
  8
0
  6
CONTINUOUS
 62
3
 10
136.606191683229950
 20
-126.190557439122070
 11
136.606191683229950
 21
-229.248876167796370
  0
ARC
  8
0
  6
CONTINUOUS
 62
3
 10
109.798381435295990
 20
-127.096287008800970
 40
70.000000000000341
 50
39.469308363517086
 51
88.999999999999716
  0
ARC
  8
0
  6
CONTINUOUS
 62
3
 10
165.520049885906190
 20
-160.440546155425120
 40
1.000000000000000
 50
90.000000000000000
 51
180.000000000000000
  0
ARC
  8
0
  6
CONTINUOUS
 62
3
 10
139.606191683229950
 20
-229.248876167796370
 40
3.000000000000000
 50
180.000000000000000
 51
268.000000000005000
  0
ARC
  8
0
  6
CONTINUOUS
 62
3
 10
163.734934773571180
 20
-230.091470443379820
 40
3.000000000000000
 50
180.000000000000000
 51
268.000000000005000
  0
ARC
  8
0
  6
CONTINUOUS
 62
3
 10
166.520049885906190
 20
-232.087623763543380
 40
2.000000000000000
 50
180.000000000000000
 51
233.130102354158570
  0
ARC
  8
0
  6
CONTINUOUS
 62
3
 10
163.520049885906190
 20
-236.087623763543380
 40
3.000000000000000
 50
0.000000000000000
 51
87.999999999996348
  0
ARC
  8
0
  6
CONTINUOUS
 62
3
 10
161.520049885906190
 20
-84.506745890292166
 40
3.000000000000000
 50
0.000000000000000
 51
39.469308363522465
  0
ARC
  8
0
  6
CONTINUOUS
 62
3
 10
165.520049885906190
 20
-91.440557439122074
 40
1.000000000000000
 50
180.000000000000000
 51
270.000000000000000
  0
LINE
  8
0
  6
CONTINUOUS
 62
3
 10
136.520049885906190
 20
-232.142934354369520
 11
163.624748376013880
 21
-233.089451282486100
  0
LINE
  8
0
  6
CONTINUOUS
 62
3
 10
218.520049885928020
 20
-126.190557439122070
 11
218.520049885928020
 21
-110.590557439121710
  0
ARC
  8
0
  6
CONTINUOUS
 62
3
 10
218.120049885927930
 20
-110.590557439121710
 40
0.400000000000091
 50
0.000000000000000
 51
90.000000000000000
  0
LINE
  8
0
  6
CONTINUOUS
 62
3
 10
218.120049885927930
 20
-110.190557439122070
 11
171.079857507063420
 21
-110.190557439122070
  0
LINE
  8
0
  6
CONTINUOUS
 62
3
 10
170.520049885928020
 20
-110.340557439121710
 11
171.079857507063420
 21
-110.190557439122070
  0
LINE
  8
0
  6
CONTINUOUS
 62
3
 10
170.520049885928020
 20
-110.340557439121710
 11
169.320049885928200
 21
-110.340557439121710
  0
LINE
  8
0
  6
CONTINUOUS
 62
3
 10
166.520049885906190
 20
-109.190557439122070
 11
168.320049885928200
 21
-109.190557439122070
  0
LINE
  8
0
  6
CONTINUOUS
 62
3
 10
168.520049885928020
 20
-109.390557439121890
 11
168.520049885928020
 21
-126.190557439122070
  0
ARC
  8
0
  6
CONTINUOUS
 62
3
 10
169.320049885928200
 20
-109.540557439121980
 40
0.800000000000237
 50
183.703196634280290
 51
270.000000000000000
  0
LINE
  8
0
  6
CONTINUOUS
 62
3
 10
168.520049885928020
 20
-109.390557439121890
 11
168.320049885928200
 21
-109.190557439122070
  0
LINE
  8
0
  6
CONTINUOUS
 62
3
 10
170.520049885928020
 20
-142.040557439121980
 11
171.079857507063420
 21
-142.190557439122070
  0
LINE
  8
0
  6
CONTINUOUS
 62
3
 10
166.520049885906190
 20
-143.190557439122070
 11
168.320049885928200
 21
-143.190557439122070
  0
LINE
  8
0
  6
CONTINUOUS
 62
3
 10
218.120049885927930
 20
-142.190557439122070
 11
171.079857507063420
 21
-142.190557439122070
  0
LINE
  8
0
  6
CONTINUOUS
 62
3
 10
170.520049885928020
 20
-142.040557439121980
 11
169.320049885928200
 21
-142.040557439121980
  0
LINE
  8
0
  6
CONTINUOUS
 62
3
 10
168.520049885928020
 20
-142.990557439121800
 11
168.520049885928020
 21
-126.190557439122070
  0
ARC
  8
0
  6
CONTINUOUS
 62
3
 10
169.320049885928200
 20
-142.840557439121710
 40
0.799999999999727
 50
90.000000000000000
 51
176.296803365752200
  0
LINE
  8
0
  6
CONTINUOUS
 62
3
 10
168.520049885928020
 20
-142.990557439121800
 11
168.320049885928200
 21
-143.190557439122070
  0
LINE
  8
0
  6
CONTINUOUS
 62
3
 10
218.520049885928020
 20
-126.190557439122070
 11
218.520049885928020
 21
-141.790557439121980
  0
ARC
  8
0
  6
CONTINUOUS
 62
3
 10
218.120049885927930
 20
-141.790557439121980
 40
0.400000000000091
 50
270.000000000000000
 51
0.000000000000000
  0
LINE
  8
0
  6
CONTINUOUS
 62
3
 10
218.520049885928020
 20
-121.190557439122070
 11
178.520049885928930
 21
-121.190557439122070
  0
LINE
  8
0
  6
CONTINUOUS
 62
3
 10
218.520049885928020
 20
-131.190557439122070
 11
178.520049885928930
 21
-131.190557439122070
  0
ARC
  8
0
  6
CONTINUOUS
 62
3
 10
178.520049885928930
 20
-126.190557439122070
 40
5.000000000000000
 50
90.000000000000000
 51
270.000000000000000
  0
ARC
  8
0
  6
CONTINUOUS
 62
3
 10
14.520049885904882
 20
-190.190557975298760
 40
1.000000000000000
 50
180.000000000000000
 51
270.000000000000000
  0
LINE
  8
0
  6
CONTINUOUS
 62
3
 10
14.520049885904882
 20
-191.190557975298760
 11
16.520049885904882
 21
-191.190557975298760
  0
ARC
  8
0
  6
CONTINUOUS
 62
3
 10
16.520049885904882
 20
-192.190557975298760
 40
1.000000000000000
 50
0.000000000000000
 51
90.000000000000000
  0
LINE
  8
0
  6
CONTINUOUS
 62
3
 10
17.520049885904882
 20
-213.978182166170820
 11
17.520049885904882
 21
-192.190557975298760
  0
ARC
  8
0
  6
CONTINUOUS
 62
3
 10
16.520049885904882
 20
-120.190557975298750
 40
1.000000000000000
 50
270.000000000000000
 51
0.000000000000000
  0
LINE
  8
0
  6
CONTINUOUS
 62
3
 10
16.520049885904882
 20
-121.190557975298750
 11
14.520049885904882
 21
-121.190557975298750
  0
LINE
  8
0
  6
CONTINUOUS
 62
3
 10
17.520049885904882
 20
-120.190557975298750
 11
17.520049885904882
 21
-97.983671550162455
  0
ARC
  8
0
  6
CONTINUOUS
 62
3
 10
14.520049885904882
 20
-122.190557975298750
 40
1.000000000000000
 50
90.000000000000000
 51
180.000000000000000
  0
LINE
  8
0
  6
CONTINUOUS
 62
3
 10
23.520049885904882
 20
-216.190557975298760
 11
23.520049885904882
 21
-96.190557975298759
  0
LINE
  8
0
  6
CONTINUOUS
 62
3
 10
-8.654447597607657
 20
-72.347443330599958
 11
-18.479965468229352
 21
-72.690557975296940
  0
POINT
  8
0
  6
CONTINUOUS
 62
3
 10
13.520049885904882
 20
-190.690557975298760
  0
ARC
  8
0
  6
CONTINUOUS
 62
3
 10
4.020049885905223
 20
-187.188567034116150
 40
3.000000000000000
 50
180.000000000000000
 51
266.999999999999890
  0
LINE
  8
0
  6
CONTINUOUS
 62
3
 10
23.520049885904882
 20
-216.190557975298760
 11
15.415377973418970
 21
-215.765810118547790
  0
ARC
  8
0
  6
CONTINUOUS
 62
3
 10
-3.979950114094777
 20
-182.953145589439770
 40
5.000000000000000
 50
0.000000000000000
 51
89.000000000000838
  0
LINE
  8
0
  6
CONTINUOUS
 62
3
 10
-3.892688081908432
 20
-177.953907113657810
 11
-18.479950114094777
 21
-177.699285507761150
  0
LINE
  8
0
  6
CONTINUOUS
 62
3
 10
18.677057754633722
 20
-83.041563071178246
 11
-0.636957982824015
 21
-82.029358397340161
  0
ARC
  8
0
  6
CONTINUOUS
 62
3
 10
18.520049885904882
 20
-86.037451675441957
 40
3.000000000000000
 50
0.000000000000000
 51
86.999999999999829
  0
LINE
  8
0
  6
CONTINUOUS
 62
3
 10
21.520049885904882
 20
-94.190557975298759
 11
21.520049885904882
 21
-86.037451675441957
  0
ARC
  8
0
  6
CONTINUOUS
 62
3
 10
23.520049885904882
 20
-94.190557975298759
 40
2.000000000000000
 50
180.000000000000000
 51
270.000000000000000
  0
ARC
  8
0
  6
CONTINUOUS
 62
3
 10
15.520049885904882
 20
-213.768551049038650
 40
2.000000000000000
 50
180.000000000000000
 51
266.999999999999260
  0
ARC
  8
0
  6
CONTINUOUS
 62
3
 10
-8.479950114095118
 20
-77.344397465695408
 40
5.000000000000000
 50
0.000000000000000
 51
92.000000000000398
  0
ARC
  8
0
  6
CONTINUOUS
 62
3
 10
10.520079848080229
 20
-213.785860608713450
 40
3.000000000000012
 50
0.198353339126269
 51
22.444622314741480
  0
LINE
  8
0
  6
CONTINUOUS
 62
3
 10
-3.479950114095118
 20
-79.033469793076449
 11
-3.479950114095118
 21
-77.344397465695408
  0
LINE
  8
0
  6
DASHDOT
 62
4
 10
7.520049885904882
 20
-104.717709381351990
 11
7.520049885904821
 21
-78.878813281618932
  0
POINT
  8
0
  6
CONTINUOUS
 62
3
 10
13.520049885904882
 20
-213.190557975298760
  0
ARC
  8
0
  6
CONTINUOUS
 62
3
 10
-0.479950114095118
 20
-79.033469793076449
 40
3.000000000000000
 50
180.000000000000000
 51
266.999999999998750
  0
LINE
  8
0
  6
CONTINUOUS
 62
3
 10
23.520049885904882
 20
-96.190557975298759
 11
1.258370104690130
 21
-95.023872774855136
  0
LINE
  8
0
  6
CONTINUOUS
 62
3
 10
-2.979978411846446
 20
-94.690557975297395
 11
-2.979979868696887
 21
-94.690557975297395
  0
ARC
  8
0
  6
CONTINUOUS
 62
3
 10
1.520049885904882
 20
-90.030725101082282
 40
5.000000000000000
 50
180.000000000000000
 51
266.999999999999600
  0
LINE
  8
0
  6
CONTINUOUS
 62
3
 10
13.520049885904882
 20
-213.768551049038650
 11
13.520049885904882
 21
-99.690557975298759
  0
ARC
  8
0
  6
CONTINUOUS
 62
3
 10
19.520049885904882
 20
-213.978182166170820
 40
2.000000000000000
 50
180.000000000000000
 51
266.999999999999150
  0
LINE
  8
0
  6
CONTINUOUS
 62
3
 10
13.520049885904882
 20
-213.190557975298760
 11
4.701978339401990
 21
-186.613926137317430
  0
ARC
  8
0
  6
CONTINUOUS
 62
3
 10
1.854619615581669
 20
-187.558673880307310
 40
3.000000000000025
 50
18.355737695025901
 51
106.152202538048220
  0
LINE
  8
0
  6
CONTINUOUS
 62
3
 10
3.863042017176383
 20
-190.184455638379920
 11
5.922483860202931
 21
-190.292386411935520
  0
LINE
  8
0
  6
CONTINUOUS
 62
3
 10
5.191717968299713
 20
-184.558673880307310
 11
12.243234569875426
 21
-184.558673880307310
  0
LINE
  8
0
  6
CONTINUOUS
 62
3
 10
23.520049885904882
 20
-176.175622907780170
 11
13.520049885904882
 21
-176.175622907780170
  0
LINE
  8
0
  6
CONTINUOUS
 62
3
 10
23.520049885904882
 20
-136.205493042817410
 11
13.520049885904882
 21
-136.205493042817350
  0
LINE
  8
0
  6
CONTINUOUS
 62
3
 10
1.020049885905223
 20
-187.188567034116150
 11
1.020049885905223
 21
-182.953145589439770
  0
LINE
  8
0
  6
CONTINUOUS
 62
3
 10
-18.479950114095118
 20
-105.190557975298750
 11
-3.479950114095118
 21
-105.190557975298750
  0
LINE
  8
0
  6
CONTINUOUS
 62
3
 10
-18.479950114095118
 20
-145.190557975298760
 11
-3.479950114095118
 21
-145.190557975298760
  0
LINE
  8
0
  6
CONTINUOUS
 62
3
 10
-1.150212048142635
 20
-161.072110066545410
 11
10.481239475163534
 21
-161.072110066545410
  0
LINE
  8
0
  6
CONTINUOUS
 62
3
 10
-0.529114561585516
 20
-121.190557975298750
 11
10.022429647658214
 21
-121.190557975298750
  0
LINE
  8
0
  6
CONTINUOUS
 62
3
 10
-1.202617383450047
 20
-158.190557975298760
 11
10.518596693563381
 21
-158.190557975298760
  0
LINE
  8
0
  6
CONTINUOUS
 62
3
 10
-0.529114561585516
 20
-107.404673746353970
 11
9.797928707029428
 21
-107.404673746353970
  0
ARC
  8
0
  6
CONTINUOUS
 62
3
 10
19.520049885904882
 20
-97.983671550162455
 40
1.999999999999992
 50
87.000000000000909
 51
180.000000000000000
  0
LINE
  8
0
  6
CONTINUOUS
 62
3
 10
-3.479950114095118
 20
-172.873074516823750
 11
-3.479950114095118
 21
-79.033469793076449
  0
ARC
  8
0
  6
CONTINUOUS
 62
3
 10
-8.479950114095118
 20
-172.873074516823750
 40
4.999999999999952
 50
269.000000000000170
 51
0.000000000000000
  0
LINE
  8
0
  6
DASHDOT
 62
4
 10
40.632191033048457
 20
-65.190557439122074
 11
11.577602190391644
 21
-65.190557439122074
  0
INSERT
  8
0
  2
SYM6
 10
17.520049885904825
 20
-200.384731263279660
  0
INSERT
  8
0
  2
SYM7
 10
46.020049885903461
 20
-151.190557439122070
  0
INSERT
  8
0
  2
SYM8
 10
17.520049885904825
 20
-111.996383614961750
  0
INSERT
  8
0
  2
SYM9
 10
46.020049885903461
 20
-75.190557439122074
  0
INSERT
  8
0
  2
SYM10
 10
30.520049885907099
 20
-65.190557439122074
  0
LINE
  8
0
  6
CONTINUOUS
 62
3
 10
23.520049885904825
 20
-214.690557439120710
 11
23.520049885904825
 21
-97.690557439120482
  0
LINE
  8
0
  6
CONTINUOUS
 62
3
 10
13.520049885904825
 20
-212.268550512860600
 11
13.520049885904825
 21
-204.984709000572760
  0
LINE
  8
0
  6
CONTINUOUS
 62
3
 10
17.520049885904825
 20
-212.478181629992550
 11
17.520049885904825
 21
-194.384731263279660
  0
LINE
  8
0
  6
CONTINUOUS
 62
3
 10
23.520049885904825
 20
-217.683451686206180
 11
23.520049885904825
 21
-97.690557439120482
  0
LINE
  8
0
  6
CONTINUOUS
 62
3
 10
35.020049885908918
 20
-74.190557439122017
 11
35.020049885909827
 21
-59.190557439120198
  0
LINE
  8
0
  6
CONTINUOUS
 62
3
 10
58.020049885909827
 20
-56.190557439122017
 11
38.020049885909827
 21
-56.190557439120653
  0
LINE
  8
0
  6
CONTINUOUS
 62
3
 10
58.020049885905280
 20
-156.190557439122070
 11
58.020049885909827
 21
-56.190557439122017
  0
LINE
  8
0
  6
CONTINUOUS
 62
3
 10
58.020049885903461
 20
-156.190557439122070
 11
58.020049885903461
 21
-215.395453817743090
  0
LINE
  8
0
  6
CONTINUOUS
 62
3
 10
23.520049885904825
 20
-217.683451686206180
 11
43.177057754632585
 21
-218.713631815955470
  0
LINE
  8
0
  6
CONTINUOUS
 62
3
 10
38.020049885908008
 20
-94.083750939372237
 11
38.020049885909941
 21
-80.824627835545414
  0
LINE
  8
0
  6
CONTINUOUS
 62
3
 10
43.177057754637133
 20
-96.660377309371540
 11
23.520049885905280
 21
-97.690557439121164
  0
LINE
  8
0
  6
CONTINUOUS
 62
3
 10
46.020049885903461
 20
-59.190557439121108
 11
46.020049885903461
 21
-121.726455823984390
  0
ARC
  8
0
  6
CONTINUOUS
 62
3
 10
38.020049885908918
 20
-74.190557439122017
 40
3.000000000000000
 50
180.000000000000000
 51
270.000000000000000
  0
ARC
  8
0
  6
CONTINUOUS
 62
3
 10
49.020049885909827
 20
-59.190557439121108
 40
3.000000000000000
 50
90.000000000000000
 51
180.000000000000000
  0
ARC
  8
0
  6
CONTINUOUS
 62
3
 10
38.020049885909827
 20
-59.190557439120653
 40
3.000000000000000
 50
90.000000000000000
 51
179.999999999991330
  0
ARC
  8
0
  6
CONTINUOUS
 62
3
 10
35.020049885908008
 20
-94.083750939372237
 40
2.999999999999901
 50
272.999999999988290
 51
0.000000000000000
  0
ARC
  8
0
  6
CONTINUOUS
 62
3
 10
43.020049885903461
 20
-221.709520420219120
 40
3.000000000000000
 50
0.000000000000000
 51
86.999999999994344
  0
ARC
  8
0
  6
CONTINUOUS
 62
3
 10
43.020049885908008
 20
-93.664488705107885
 40
2.999999999999901
 50
272.999999999988290
 51
0.000000000000000
  0
LINE
  8
0
  6
CONTINUOUS
 62
3
 10
46.020049885903461
 20
-140.654659054259750
 11
46.020049885903461
 21
-225.978956435113960
  0
ARC
  8
0
  6
CONTINUOUS
 62
3
 10
58.520049885906190
 20
-195.136463842944470
 40
2.000000000000000
 50
0.000000000000000
 51
90.000000000000000
  0
LINE
  8
0
  6
CONTINUOUS
 62
3
 10
60.520049885906190
 20
-195.136463842944470
 11
60.520049885906190
 21
-212.287753044393810
  0
LINE
  8
0
  6
CONTINUOUS
 62
3
 10
35.520049885906190
 20
-231.166989749652150
 11
8.318151894150503
 21
-233.001819145264510
  0
ARC
  8
0
  6
CONTINUOUS
 62
3
 10
8.520049885906190
 20
-235.995017635329480
 40
3.000000000000365
 50
93.858884296478166
 51
180.000000000000000
  0
LINE
  8
0
  6
CONTINUOUS
 62
3
 10
58.520049885906190
 20
-56.190557439122017
 11
58.520049885906190
 21
-214.954474542017070
  0
LINE
  8
0
  6
CONTINUOUS
 62
3
 10
60.439242161689378
 20
-229.486134005086510
 11
136.520049885906190
 21
-232.142934354369520
  0
LINE
  8
0
  6
CONTINUOUS
 62
4
 10
58.520049885906190
 20
-56.190557439122017
 11
78.877111042783724
 21
-56.190557439122017
  0
LINE
  8
0
  6
CONTINUOUS
 62
3
 10
60.439242161689378
 20
-229.486134005086510
 11
35.520049885906190
 21
-231.166989749652150
  0
LINE
  8
0
  6
DASHDOT
 62
4
 10
18.520049885906190
 20
-228.968518216404790
 11
18.520049885906190
 21
-257.892699429783480
  0
LINE
  8
0
  6
CONTINUOUS
 62
3
 10
5.520049885906190
 20
-235.995017635329480
 11
5.520049885906190
 21
-251.190557439122070
  0
LINE
  8
0
  6
CONTINUOUS
 62
3
 10
58.520049885906190
 20
-56.190557439122017
 11
111.020049885906190
 21
-57.106948347853518
  0
ARC
  8
0
  6
CONTINUOUS
 62
3
 10
38.487601339636910
 20
-225.955460099774830
 40
4.999999999999822
 50
273.858884296473550
 51
311.410957896502510
  0
LINE
  8
0
  6
CONTINUOUS
 62
3
 10
59.842960511906711
 20
-213.787722202614930
 11
41.794877904638668
 21
-229.705382995327400
  0
ARC
  8
0
  6
CONTINUOUS
 62
3
 10
58.520049885906190
 20
-212.287753044393810
 40
1.999999999999916
 50
311.410957896496880
 51
0.000000000000000
  0
LINE
  8
0
  6
CONTINUOUS
 62
3
 10
166.520049885906190
 20
-251.190557439122070
 11
49.520049885906190
 21
-251.190557439122070
  0
LINE
  8
0
  6
CONTINUOUS
 62
3
 10
49.520049885906190
 20
-251.190557439122070
 11
5.520049885906190
 21
-251.190557439122070
  0
LINE
  8
0
  6
CONTINUOUS
 62
3
 10
30.520049885906190
 20
-75.190557439122017
 11
35.020049885906190
 21
-75.190557439122017
  0
ARC
  8
0
  6
CONTINUOUS
 62
3
 10
44.020049885903461
 20
-140.654659054259750
 40
2.000000000000000
 50
0.000000000000000
 51
59.999999999996206
  0
LINE
  8
0
  6
CONTINUOUS
 62
3
 10
23.520049885905280
 20
-176.190557439122070
 11
46.020049885903461
 21
-176.190557439122070
  0
ARC
  8
0
  6
CONTINUOUS
 62
3
 10
46.020049885903461
 20
-137.190557439122070
 40
2.000000000000000
 50
180.000000000000000
 51
240.000000000002730
  0
LINE
  8
0
  6
CONTINUOUS
 62
3
 10
30.520049885906190
 20
-75.190557439122017
 11
30.520049885909827
 21
-21.190557439122017
  0
ARC
  8
0
  6
CONTINUOUS
 62
3
 10
46.020049885903461
 20
-125.190557439122070
 40
2.000000000000164
 50
119.999999999997270
 51
180.000000000000000
  0
LINE
  8
0
  6
CONTINUOUS
 62
3
 10
23.520049885905280
 20
-136.190557439122070
 11
44.020049885903461
 21
-136.190557439122070
  0
LINE
  8
0
  6
DASHDOT
 62
4
 10
24.789802485093276
 20
-41.190557439122017
 11
42.889068500384781
 21
-41.190557439122017
  0
LINE
  8
0
  6
CONTINUOUS
 62
3
 10
30.520049885909827
 20
-21.190557439122017
 11
35.020049885909827
 21
-21.190557439122017
  0
ARC
  8
0
  6
CONTINUOUS
 62
3
 10
44.020049885903461
 20
-121.726455823984390
 40
1.999999999999770
 50
300.000000000003810
 51
0.000000000000000
  0
LINE
  8
0
  6
CONTINUOUS
 62
3
 10
35.020049885909827
 20
-21.190557439122017
 11
35.020049885909827
 21
-75.190557439122017
  0
LINE
  8
0
  6
CONTINUOUS
 62
3
 10
44.020049885903461
 20
-125.190557439122070
 11
44.020049885903461
 21
-137.190557439122070
  0
LINE
  8
0
  6
DASHDOT
 62
4
 10
164.065304819884600
 20
37.309442560881251
 11
142.918068330644870
 21
37.309442560881251
  0
LINE
  8
0
  6
DASHDOT
 62
4
 10
153.520049885905280
 20
26.998341060018646
 11
153.520049885905280
 21
47.542254781794981
  0
ARC
  8
0
  6
CONTINUOUS
 62
3
 10
218.120049885927930
 20
109.209442560880880
 40
0.400000000000091
 50
270.000000000000000
 51
0.000000000000000
  0
LINE
  8
0
  6
CONTINUOUS
 62
3
 10
218.520049885928020
 20
124.809442560881250
 11
218.520049885928020
 21
140.409442560881160
  0
LINE
  8
0
  6
CONTINUOUS
 62
3
 10
168.520049885928020
 20
108.009442560881070
 11
168.320049885928200
 21
107.809442560880790
  0
ARC
  8
0
  6
CONTINUOUS
 62
3
 10
169.320049885928200
 20
108.159442560880700
 40
0.800000000000182
 50
90.000000000000000
 51
176.296803365719710
  0
LINE
  8
0
  6
CONTINUOUS
 62
3
 10
168.520049885928020
 20
108.009442560881070
 11
168.520049885928020
 21
124.809442560880790
  0
LINE
  8
0
  6
CONTINUOUS
 62
3
 10
170.520049885928020
 20
108.959442560880880
 11
169.320049885928200
 21
108.959442560880880
  0
LINE
  8
0
  6
CONTINUOUS
 62
3
 10
218.120049885927930
 20
108.809442560880790
 11
171.079857507063420
 21
108.809442560880790
  0
LINE
  8
0
  6
CONTINUOUS
 62
3
 10
166.520049885905730
 20
107.809442560880340
 11
168.320049885928200
 21
107.809442560880790
  0
LINE
  8
0
  6
CONTINUOUS
 62
3
 10
170.520049885928020
 20
108.959442560880880
 11
171.079857507063420
 21
108.809442560880790
  0
LINE
  8
0
  6
CONTINUOUS
 62
3
 10
168.520049885928020
 20
141.609442560880980
 11
168.320049885928200
 21
141.809442560880800
  0
ARC
  8
0
  6
CONTINUOUS
 62
3
 10
169.320049885928200
 20
141.459442560880890
 40
0.800000000000237
 50
183.703196634280290
 51
270.000000000000000
  0
LINE
  8
0
  6
CONTINUOUS
 62
3
 10
168.520049885928020
 20
141.609442560880980
 11
168.520049885928020
 21
124.809442560880790
  0
LINE
  8
0
  6
CONTINUOUS
 62
3
 10
166.520049885905730
 20
141.809442560881250
 11
168.320049885928200
 21
141.809442560880800
  0
LINE
  8
0
  6
CONTINUOUS
 62
3
 10
170.520049885928020
 20
140.659442560880710
 11
169.320049885928200
 21
140.659442560880710
  0
LINE
  8
0
  6
CONTINUOUS
 62
3
 10
170.520049885928020
 20
140.659442560880710
 11
171.079857507063420
 21
140.809442560880800
  0
LINE
  8
0
  6
CONTINUOUS
 62
3
 10
173.520049885928020
 20
108.809442560881250
 11
173.520049885928020
 21
105.809442560881250
  0
LINE
  8
0
  6
CONTINUOUS
 62
3
 10
218.120049885927930
 20
140.809442560880800
 11
171.079857507063420
 21
140.809442560880800
  0
LINE
  8
0
  6
CONTINUOUS
 62
3
 10
218.520049885928020
 20
105.809442560881250
 11
173.520049885928020
 21
105.809442560881250
  0
ARC
  8
0
  6
CONTINUOUS
 62
3
 10
218.120049885927930
 20
140.409442560880710
 40
0.400000000000091
 50
0.000000000000000
 51
90.000000000000000
  0
LINE
  8
0
  6
CONTINUOUS
 62
3
 10
218.520049885928020
 20
124.809442560881250
 11
218.520049885928020
 21
105.809442560881250
  0
ARC
  8
0
  6
CONTINUOUS
 62
3
 10
161.520049885905280
 20
190.545619304495400
 40
3.000000000000000
 50
0.000000000000000
 51
39.469308363515758
  0
ARC
  8
0
  6
CONTINUOUS
 62
3
 10
160.119891858454540
 20
192.191195329856100
 40
3.000000000000300
 50
41.317082812093204
 51
88.999999999989555
  0
ARC
  8
0
  6
CONTINUOUS
 62
3
 10
133.594273163893770
 20
210.587983289063910
 40
2.999999999999899
 50
4.937727294942317
 51
69.196592175621532
  0
ARC
  8
0
  6
CONTINUOUS
 62
3
 10
109.798381435295080
 20
147.956078185986570
 40
70.000000000000071
 50
39.469308363516824
 51
41.317082812097524
  0
ARC
  8
0
  6
CONTINUOUS
 62
3
 10
109.798381435295080
 20
147.956078185986570
 40
70.000000000000185
 50
69.196592175610675
 51
88.999999999999716
  0
ARC
  8
0
  6
CONTINUOUS
 62
3
 10
165.520049885906190
 20
159.309442560881250
 40
1.000000000000000
 50
180.000000000000000
 51
270.000000000000000
  0
ARC
  8
0
  6
CONTINUOUS
 62
3
 10
153.520049885905280
 20
212.309442560881280
 40
16.999999999999638
 50
184.937727294950460
 51
268.999999999999770
  0
ARC
  8
0
  6
CONTINUOUS
 62
3
 10
153.520049885905280
 20
37.309442560881251
 40
16.999999999999773
 50
91.000000000000256
 51
175.062272705051070
  0
ARC
  8
0
  6
CONTINUOUS
 62
3
 10
165.520049885905280
 20
90.309442560881251
 40
1.000000000000000
 50
90.000000000000000
 51
180.000000000000000
  0
CIRCLE
  8
0
  6
CONTINUOUS
 62
3
 10
153.520049885905280
 20
37.309442560881251
 40
6.000000000000000
  0
ARC
  8
0
  6
CONTINUOUS
 62
3
 10
109.798381435295080
 20
101.662806935775470
 40
70.000000000000014
 50
271.000000000000280
 51
290.803407824389690
  0
ARC
  8
0
  6
CONTINUOUS
 62
3
 10
109.798381435295080
 20
101.662806935775470
 40
70.000000000000327
 50
318.682917187902550
 51
320.530691636482910
  0
ARC
  8
0
  6
CONTINUOUS
 62
3
 10
133.594273163893770
 20
39.030901832698618
 40
3.000000000000189
 50
290.803407824383500
 51
355.062272705049050
  0
ARC
  8
0
  6
CONTINUOUS
 62
3
 10
160.119891858454540
 20
57.427689791905976
 40
3.000000000000049
 50
271.000000000010400
 51
318.682917187906810
  0
ARC
  8
0
  6
CONTINUOUS
 62
3
 10
161.520049885905280
 20
59.073265817266218
 40
3.000000000000058
 50
320.530691636484220
 51
0.000000000000000
  0
CIRCLE
  8
0
  6
CONTINUOUS
 62
3
 10
153.520049885905280
 20
212.309442560881280
 40
6.000000000000000
  0
LINE
  8
0
  6
CONTINUOUS
 62
3
 10
153.223358976471390
 20
195.312031743222410
 11
160.172249077766930
 21
195.190738415325310
  0
LINE
  8
0
  6
CONTINUOUS
 62
3
 10
164.520049885905280
 20
124.809442560881250
 11
164.520049885905280
 21
190.545619304495400
  0
LINE
  8
0
  6
CONTINUOUS
 62
3
 10
166.520049885906640
 20
124.809442560881250
 11
166.520049885904370
 21
219.895956245302610
  0
LINE
  8
0
  6
CONTINUOUS
 62
3
 10
166.520049885905280
 20
49.809442560880797
 11
166.520049885904370
 21
29.809445532476929
  0
LINE
  8
0
  6
CONTINUOUS
 62
3
 10
166.520049885906190
 20
124.809442560881250
 11
166.520049885904370
 21
29.722928876459463
  0
LINE
  8
0
  6
CONTINUOUS
 62
3
 10
164.520049885905280
 20
124.809442560881250
 11
164.520049885905280
 21
59.073265817266218
  0
LINE
  8
0
  6
CONTINUOUS
 62
3
 10
153.223358976471390
 20
54.306853378539671
 11
160.172249077766930
 21
54.428146706436763
  0
LINE
  8
0
  6
DASHDOT
 62
4
 10
164.065304819884600
 20
212.309442560881280
 11
142.918068330644870
 21
212.309442560881280
  0
LINE
  8
0
  6
DASHDOT
 62
4
 10
153.520049885905280
 20
222.620544061743890
 11
153.520049885905280
 21
202.076630339967550
  0
ARC
  8
0
  6
CONTINUOUS
 62
3
 10
161.520049885904370
 20
29.722928876459463
 40
5.000000000000068
 50
271.000000000001760
 51
359.999999999994830
  0
LINE
  8
0
  6
CONTINUOUS
 62
3
 10
165.520049885905280
 20
91.309442560881251
 11
166.520049885905280
 21
91.309442560881251
  0
LINE
  8
0
  6
CONTINUOUS
 62
3
 10
165.520049885906190
 20
158.309442560881250
 11
166.520049885906190
 21
158.309442560881250
  0
ARC
  8
0
  6
CONTINUOUS
 62
3
 10
161.520049885904370
 20
219.895956245302610
 40
5.000000000000000
 50
0.000000000000000
 51
88.999999999998238
  0
ARC
  8
0
  6
CONTINUOUS
 62
3
 10
16.520049885907554
 20
181.309442560881280
 40
3.000000000000000
 50
90.000000000000000
 51
180.000000000000000
  0
LINE
  8
0
  6
CONTINUOUS
 62
3
 10
13.520049885907554
 20
181.309442560881280
 11
13.520049885907554
 21
137.809442560881250
  0
ARC
  8
0
  6
CONTINUOUS
 62
3
 10
10.520049885907554
 20
181.309442560881280
 40
3.000000000000000
 50
270.000000000000000
 51
0.000000000000000
  0
LINE
  8
0
  6
CONTINUOUS
 62
3
 10
-18.479950114096539
 20
178.309442560881280
 11
10.520049885907554
 21
178.309442560881280
  0
LINE
  8
0
  6
CONTINUOUS
 62
3
 10
17.520049885907099
 20
182.309442560881280
 11
17.520049885907099
 21
157.240019484164090
  0
LINE
  8
0
  6
CONTINUOUS
 62
3
 10
16.520049885907554
 20
184.309442560881280
 11
23.520049885907099
 21
184.309442560881280
  0
ARC
  8
0
  6
CONTINUOUS
 62
3
 10
19.520049885907099
 20
182.309442560881280
 40
2.000000000000000
 50
90.000000000000000
 51
180.000000000000000
  0
ARC
  8
0
  6
CONTINUOUS
 62
3
 10
15.520049885907554
 20
153.240019484164090
 40
2.000000000000000
 50
90.000000000000000
 51
180.000000000000000
  0
ARC
  8
0
  6
CONTINUOUS
 62
3
 10
15.520049885907099
 20
157.240019484164090
 40
2.000000000000000
 50
270.000000000000000
 51
0.000000000000000
  0
LINE
  8
0
  6
CONTINUOUS
 62
3
 10
13.520049885907554
 20
155.240019484164090
 11
-0.479950114127462
 21
155.240019484164090
  0
ARC
  8
0
  6
CONTINUOUS
 62
3
 10
-0.479950114127462
 20
158.240019484164090
 40
3.000000000000000
 50
180.000000000000000
 51
270.000000000000000
  0
LINE
  8
0
  6
CONTINUOUS
 62
3
 10
-3.479950114092901
 20
173.309442560881280
 11
-3.479950114092901
 21
124.809442560881250
  0
ARC
  8
0
  6
CONTINUOUS
 62
3
 10
-8.479950114092901
 20
173.309442560881280
 40
5.000000000000000
 50
0.000000000000000
 51
90.000000000000000
  0
LINE
  8
0
  6
CONTINUOUS
 62
3
 10
-18.479950114088808
 20
137.809442560881250
 11
-3.479950114092901
 21
137.809442560881250
  0
ARC
  8
0
  6
CONTINUOUS
 62
3
 10
-0.479950114092901
 20
140.809442560881250
 40
3.000000000000000
 50
180.000000000000000
 51
270.000000000000000
  0
ARC
  8
0
  6
CONTINUOUS
 62
3
 10
18.520049885907099
 20
134.809442560881250
 40
3.000000000000000
 50
0.000000000000000
 51
90.000000000000000
  0
LINE
  8
0
  6
CONTINUOUS
 62
3
 10
21.520049885907099
 20
114.809442560881250
 11
21.520049885907099
 21
134.809442560881250
  0
ARC
  8
0
  6
CONTINUOUS
 62
3
 10
18.520049885907099
 20
114.809442560881250
 40
3.000000000000000
 50
270.000000000000000
 51
0.000000000000000
  0
LINE
  8
0
  6
CONTINUOUS
 62
3
 10
-18.479950114088808
 20
111.809442560881250
 11
-3.479950114092901
 21
111.809442560881250
  0
ARC
  8
0
  6
CONTINUOUS
 62
3
 10
-0.479950114127462
 20
91.378865637598409
 40
3.000000000000000
 50
90.000000000000000
 51
180.000000000000000
  0
LINE
  8
0
  6
CONTINUOUS
 62
3
 10
-3.479950114092901
 20
76.309442560881251
 11
-3.479950114092901
 21
124.809442560881250
  0
ARC
  8
0
  6
CONTINUOUS
 62
3
 10
-0.479950114092901
 20
108.809442560881250
 40
3.000000000000000
 50
90.000000000000000
 51
180.000000000000000
  0
LINE
  8
0
  6
CONTINUOUS
 62
3
 10
13.520049885907554
 20
68.309442560881251
 11
13.520049885907554
 21
111.809442560881250
  0
LINE
  8
0
  6
CONTINUOUS
 62
3
 10
17.520049885907099
 20
67.309442560881251
 11
17.520049885907099
 21
92.378865637598409
  0
ARC
  8
0
  6
CONTINUOUS
 62
3
 10
15.520049885907099
 20
92.378865637598409
 40
2.000000000000000
 50
0.000000000000000
 51
90.000000000000000
  0
ARC
  8
0
  6
CONTINUOUS
 62
3
 10
15.520049885907554
 20
96.378865637598409
 40
2.000000000000000
 50
180.000000000000000
 51
270.000000000000000
  0
LINE
  8
0
  6
CONTINUOUS
 62
3
 10
13.520049885907554
 20
94.378865637598409
 11
-0.479950114127462
 21
94.378865637598409
  0
LINE
  8
0
  6
CONTINUOUS
 62
3
 10
-18.479950114096539
 20
71.309442560881251
 11
10.520049885907554
 21
71.309442560881251
  0
ARC
  8
0
  6
CONTINUOUS
 62
3
 10
-8.479950114092901
 20
76.309442560881251
 40
5.000000000000000
 50
270.000000000000000
 51
0.000000000000000
  0
LINE
  8
0
  6
CONTINUOUS
 62
3
 10
16.520049885907554
 20
65.309442560881251
 11
23.520049885907099
 21
65.309442560881251
  0
ARC
  8
0
  6
CONTINUOUS
 62
3
 10
19.520049885907099
 20
67.309442560881251
 40
2.000000000000000
 50
180.000000000000000
 51
270.000000000000000
  0
ARC
  8
0
  6
CONTINUOUS
 62
3
 10
16.520049885907554
 20
68.309442560881251
 40
3.000000000000000
 50
180.000000000000000
 51
270.000000000000000
  0
ARC
  8
0
  6
CONTINUOUS
 62
3
 10
10.520049885907554
 20
68.309442560881251
 40
3.000000000000000
 50
0.000000000000000
 51
90.000000000000000
  0
ARC
  8
0
  6
CONTINUOUS
 62
3
 10
10.520049885905280
 20
219.962029919118090
 40
5.000000000000244
 50
91.775473893781850
 51
180.000000000000000
  0
LINE
  8
0
  6
CONTINUOUS
 62
3
 10
10.365135355257223
 20
224.959629491732580
 11
63.520049885905280
 21
226.607314248487230
  0
LINE
  8
0
  6
CONTINUOUS
 62
3
 10
10.365135355257223
 20
24.659255630029946
 11
63.520049885905280
 21
23.011570873274394
  0
ARC
  8
0
  6
CONTINUOUS
 62
3
 10
10.520049885905280
 20
29.656855202643527
 40
5.000000000000000
 50
180.000000000000000
 51
268.224526106217870
  0
LINE
  8
0
  6
CONTINUOUS
 62
4
 10
10.528122042616758
 20
198.583579328502540
 11
39.284236452191578
 21
198.081639484400280
  0
LINE
  8
0
  6
CONTINUOUS
 62
4
 10
10.528122042616758
 20
51.035305793259539
 11
39.284236452191578
 21
51.537245637362247
  0
LINE
  8
0
  6
CONTINUOUS
 62
3
 10
10.432787853719162
 20
194.723690400677470
 11
25.242633935653828
 21
194.465183575740180
  0
ARC
  8
0
  6
CONTINUOUS
 62
3
 10
10.520049885905280
 20
199.722928876459490
 40
5.000000000000000
 50
180.000000000000000
 51
269.000000000003410
  0
ARC
  8
0
  6
CONTINUOUS
 62
3
 10
25.155371903467255
 20
189.465945099958620
 40
5.000000000000079
 50
86.175596971354679
 51
88.999999999998138
  0
LINE
  8
0
  6
CONTINUOUS
 62
3
 10
25.488866259415715
 20
194.454810854271050
 11
46.020049885909600
 21
193.082347814057470
  0
LINE
  8
0
  6
CONTINUOUS
 62
3
 10
10.432787853719162
 20
54.895194721084152
 11
25.242633935653828
 21
55.153701546021438
  0
ARC
  8
0
  6
CONTINUOUS
 62
3
 10
10.520049885905280
 20
49.895956245302585
 40
4.999999999999606
 50
90.999999999996646
 51
180.000000000000000
  0
LINE
  8
0
  6
CONTINUOUS
 62
3
 10
25.488866259415715
 20
55.164074267491486
 11
46.020049885905280
 21
56.536537307704037
  0
ARC
  8
0
  6
CONTINUOUS
 62
3
 10
25.155371903467255
 20
60.152940021803460
 40
5.000000000000068
 50
271.000000000001760
 51
273.824403028645630
  0
LINE
  8
0
  6
CONTINUOUS
 62
3
 10
5.520049885905280
 20
50.109909650569278
 11
5.520049885905280
 21
29.656855202643527
  0
LINE
  8
0
  6
CONTINUOUS
 62
3
 10
63.520049885905280
 20
226.607314248487230
 11
161.607311918090940
 21
224.895194721084640
  0
LINE
  8
0
  6
CONTINUOUS
 62
3
 10
5.520049885905280
 20
199.508975471192340
 11
5.520049885905280
 21
219.962029919118090
  0
LINE
  8
0
  6
CONTINUOUS
 62
3
 10
58.520049885905280
 20
124.809442560881250
 11
58.520049885905280
 21
30.809442560881251
  0
LINE
  8
0
  6
CONTINUOUS
 62
3
 10
58.020049885905280
 20
30.748349833632545
 11
111.020049885905280
 21
31.673468274828082
  0
LINE
  8
0
  6
CONTINUOUS
 62
3
 10
58.520049885905280
 20
218.861807755665950
 11
111.020049885905280
 21
217.945416846933990
  0
LINE
  8
0
  6
CONTINUOUS
 62
3
 10
58.520049885905280
 20
124.809442560881250
 11
58.520049885905280
 21
218.809442560881280
  0
LINE
  8
0
  6
DASHDOT
 62
4
 10
27.930936783913182
 20
212.309442560881280
 11
10.109710422836486
 21
212.309442560881280
  0
LINE
  8
0
  6
DASHDOT
 62
4
 10
18.520049885905280
 20
221.630475930573770
 11
18.520049885905280
 21
202.324147372763720
  0
LINE
  8
0
  6
DASHDOT
 62
4
 10
-253.506994540108280
 20
124.809442560881250
 11
236.600748098270230
 21
124.809442560881250
  0
CIRCLE
  8
0
  6
CONTINUOUS
 62
3
 10
18.520049885905280
 20
37.309442560881251
 40
6.000000000000000
  0
CIRCLE
  8
0
  6
CONTINUOUS
 62
3
 10
18.520049885905280
 20
212.309442560881280
 40
6.000000000000000
  0
LINE
  8
0
  6
CONTINUOUS
 62
3
 10
63.520049885905280
 20
23.011570873274394
 11
161.607311918090940
 21
24.723690400677441
  0
LINE
  8
0
  6
CONTINUOUS
 62
3
 10
23.520049885908008
 20
141.809442560882620
 11
23.520049885910737
 21
184.309442560882640
  0
LINE
  8
0
  6
CONTINUOUS
 62
3
 10
23.520049885910737
 20
184.309442560882640
 11
43.177057754638042
 21
185.339622690630900
  0
ARC
  8
0
  6
CONTINUOUS
 62
3
 10
43.020049885909373
 20
188.335511294894560
 40
2.999999999999925
 50
272.999999999996990
 51
359.999999999991300
  0
LINE
  8
0
  6
CONTINUOUS
 62
3
 10
46.020049885906644
 20
148.309442560881710
 11
46.020049885911192
 21
216.809442560881280
  0
LINE
  8
0
  6
CONTINUOUS
 62
3
 10
44.020049885910055
 20
203.541493368450570
 11
44.020049885911192
 21
216.809442560881280
  0
LINE
  8
0
  6
CONTINUOUS
 62
3
 10
38.520050839584599
 20
202.309442560881730
 11
38.520050839585053
 21
215.309442560881730
  0
LINE
  8
0
  6
CONTINUOUS
 62
3
 10
38.520052104070089
 20
215.309442538180750
 11
38.020051153876864
 21
214.443512967112610
  0
LINE
  8
0
  6
CONTINUOUS
 62
3
 10
38.520051477442337
 20
202.309442536813780
 11
38.020051451295274
 21
203.175566676947940
  0
LINE
  8
0
  6
CONTINUOUS
 62
3
 10
44.020049885910964
 20
215.309442560881390
 11
38.520051793259370
 21
215.309442560881730
  0
LINE
  8
0
  6
CONTINUOUS
 62
3
 10
44.444597313609563
 20
202.309442560881390
 11
38.520050839584599
 21
202.309442560881730
  0
LINE
  8
0
  6
CONTINUOUS
 62
3
 10
38.020050839584599
 20
203.175566714019400
 11
38.020050839585053
 21
214.443512957305530
  0
ARC
  8
0
  6
CONTINUOUS
 62
3
 10
46.020049885911192
 20
216.809442560881280
 40
2.000000000000000
 50
90.000000000000000
 51
180.000000000000000
  0
LINE
  8
0
  6
CONTINUOUS
 62
3
 10
58.520049885905280
 20
218.809442560880260
 11
46.020049885911192
 21
218.809442560881280
  0
ARC
  8
0
  6
CONTINUOUS
 62
3
 10
46.020049885910282
 20
203.541493368450350
 40
2.000000000000000
 50
180.000000000000000
 51
239.999999999991450
  0
ARC
  8
0
  6
CONTINUOUS
 62
3
 10
44.020049885909827
 20
200.077391753312210
 40
2.000000000000000
 50
0.000000000000000
 51
60.000000000002721
  0
INSERT
  8
0
  2
SYM11
 10
30.520049885911192
 20
135.309442560882160
 41
-1.000000000000000
 50
179.999999999996310
  0
LINE
  8
0
  6
CONTINUOUS
 62
3
 10
35.020049885912101
 20
145.309442560882160
 11
30.520049885911192
 21
145.309442560882160
  0
LINE
  8
0
  6
CONTINUOUS
 62
3
 10
35.020049885911192
 20
124.809442560882610
 11
35.020049885912101
 21
145.309442560882160
  0
LINE
  8
0
  6
CONTINUOUS
 62
3
 10
30.520049885910282
 20
124.809442560882160
 11
30.520049885911192
 21
145.309442560882160
  0
INSERT
  8
0
  2
SYM12
 10
46.020049885908463
 20
174.809442560881280
 41
-1.000000000000000
 50
179.999999999996310
  0
ARC
  8
0
  6
CONTINUOUS
 62
3
 10
43.020049885906644
 20
148.309442560881710
 40
3.000000000000000
 50
270.000000000000000
 51
359.999999999991300
  0
LINE
  8
0
  6
CONTINUOUS
 62
3
 10
43.020049885906190
 20
145.309442560881710
 11
38.020049885912101
 21
145.309442560881710
  0
ARC
  8
0
  6
CONTINUOUS
 62
3
 10
38.020049885912101
 20
142.309442560881710
 40
3.000000000000000
 50
90.000000000000000
 51
179.999999999991330
  0
ARC
  8
0
  6
CONTINUOUS
 62
3
 10
48.020049885911192
 20
216.809442560881280
 40
2.000000000000000
 50
90.000000000000000
 51
180.000000000000000
  0
LINE
  8
0
  6
CONTINUOUS
 62
3
 10
58.020049885905280
 20
124.809442560881700
 11
58.020049885911192
 21
218.809442560880370
  0
LINE
  8
0
  6
CONTINUOUS
 62
3
 10
23.520049885907099
 20
65.309442560882616
 11
43.177057754634404
 21
64.279262431133446
  0
ARC
  8
0
  6
CONTINUOUS
 62
3
 10
43.020049885905280
 20
61.283373826869791
 40
3.000000000000000
 50
0.000000000000000
 51
86.999999999994344
  0
LINE
  8
0
  6
CONTINUOUS
 62
3
 10
46.020049885905280
 20
101.309442560882610
 11
46.020049885905280
 21
32.809442560882616
  0
LINE
  8
0
  6
CONTINUOUS
 62
3
 10
44.020049885905280
 20
46.077391753313549
 11
44.020049885905280
 21
32.809442560882616
  0
LINE
  8
0
  6
CONTINUOUS
 62
3
 10
38.520050839579596
 20
47.309442560882616
 11
38.520050839579596
 21
34.309442560882616
  0
LINE
  8
0
  6
CONTINUOUS
 62
3
 10
38.520052104064632
 20
34.309442583583603
 11
38.020051153871407
 21
35.175372154652194
  0
LINE
  8
0
  6
CONTINUOUS
 62
3
 10
38.520051477437335
 20
47.309442584950574
 11
38.020051451290271
 21
46.443318444816867
  0
LINE
  8
0
  6
CONTINUOUS
 62
3
 10
44.020049885905280
 20
34.309442560882616
 11
38.520051793253913
 21
34.309442560882616
  0
LINE
  8
0
  6
CONTINUOUS
 62
3
 10
44.444597313604675
 20
47.309442560882616
 11
38.520050839579596
 21
47.309442560882616
  0
LINE
  8
0
  6
CONTINUOUS
 62
3
 10
38.020050839579596
 20
46.443318407745409
 11
38.020050839579596
 21
35.175372164459276
  0
ARC
  8
0
  6
CONTINUOUS
 62
3
 10
46.020049885905280
 20
32.809442560882616
 40
2.000000000000000
 50
180.000000000000000
 51
270.000000000000000
  0
LINE
  8
0
  6
CONTINUOUS
 62
3
 10
58.020049885905280
 20
30.809442560882616
 11
46.020049885905280
 21
30.809442560882616
  0
ARC
  8
0
  6
CONTINUOUS
 62
3
 10
46.020049885905280
 20
46.077391753313549
 40
2.000000000000164
 50
119.999999999997270
 51
180.000000000000000
  0
ARC
  8
0
  6
CONTINUOUS
 62
3
 10
44.020049885905280
 20
49.541493368451682
 40
2.000000000000164
 50
299.999999999997270
 51
0.000000000000000
  0
LINE
  8
0
  6
CONTINUOUS
 62
3
 10
23.520049885907099
 20
128.809442560882620
 11
23.520049885907099
 21
120.809442560882610
  0
INSERT
  8
0
  2
SYM13
 10
30.520049885910737
 20
114.309442560882610
  0
LINE
  8
0
  6
CONTINUOUS
 62
3
 10
35.020049885911192
 20
104.309442560882610
 11
30.520049885910282
 21
104.309442560882610
  0
LINE
  8
0
  6
CONTINUOUS
 62
3
 10
35.020049885911192
 20
124.809442560882160
 11
35.020049885911192
 21
104.309442560882610
  0
LINE
  8
0
  6
CONTINUOUS
 62
3
 10
30.520049885910282
 20
124.809442560882610
 11
30.520049885910282
 21
104.309442560882610
  0
INSERT
  8
0
  2
SYM14
 10
46.020049885905280
 20
74.809442560882616
  0
ARC
  8
0
  6
CONTINUOUS
 62
3
 10
43.020049885905280
 20
101.309442560882610
 40
3.000000000000000
 50
0.000000000000000
 51
90.000000000000000
  0
LINE
  8
0
  6
CONTINUOUS
 62
3
 10
43.020049885905280
 20
104.309442560882610
 11
38.020049885911192
 21
104.309442560882610
  0
ARC
  8
0
  6
CONTINUOUS
 62
3
 10
38.020049885911192
 20
107.309442560882610
 40
3.000000000000000
 50
180.000000000000000
 51
270.000000000000000
  0
ARC
  8
0
  6
CONTINUOUS
 62
3
 10
48.020049885905280
 20
32.809442560882616
 40
2.000000000000000
 50
180.000000000000000
 51
270.000000000000000
  0
LINE
  8
0
  6
CONTINUOUS
 62
3
 10
58.020049885905280
 20
124.809442560881250
 11
58.020049885905280
 21
30.809442560882616
  0
LINE
  8
0
  6
DASHDOT
 62
4
 10
18.520049885905280
 20
27.988409191188765
 11
18.520049885905280
 21
47.294737748998813
  0
LINE
  8
0
  6
DASHDOT
 62
4
 10
27.930936783913182
 20
37.309442560881251
 11
10.109710422836486
 21
37.309442560881251
  0
LINE
  8
0
  6
CONTINUOUS
 62
3
 10
23.520049885908008
 20
107.809442560879880
 11
23.520049885910737
 21
65.309442560879887
  0
LINE
  8
0
  6
DASHDOT
 62
4
 10
7.520049885907099
 20
113.389289461250620
 11
7.520049885907099
 21
137.432403834849280
  0
CIRCLE
  8
0
  6
CONTINUOUS
 62
3
 10
7.520049885907099
 20
124.809442560881250
 40
8.462876856846833
  0
INSERT
  8
0
  2
SYM15
 10
17.520049885907099
 20
169.003616385040230
 41
-1.000000000000000
 50
180.000000000000000
  0
INSERT
  8
0
  2
SYM16
 10
17.520049885907099
 20
80.615268736722300
  0
LINE
  8
0
  6
CONTINUOUS
 62
3
 10
-18.479950114088808
 20
178.309442560881280
 11
-18.479950114088808
 21
124.809442560881250
  0
LINE
  8
0
  6
CONTINUOUS
 62
3
 10
-18.479950114088808
 20
71.309442560881251
 11
-18.479950114088808
 21
124.809442560881250
  0
LINE
  8
0
  6
CONTINUOUS
 62
3
 10
-0.479950114092901
 20
137.809442560881250
 11
18.520049885907099
 21
137.809442560881250
  0
LINE
  8
0
  6
CONTINUOUS
 62
3
 10
-0.479950114092901
 20
111.809442560881250
 11
18.520049885907099
 21
111.809442560881250
  0
ARC
  8
0
  6
CONTINUOUS
 62
3
 10
-216.484795063202740
 20
86.409442560881331
 40
20.599999999999891
 50
235.000000000000400
 51
270.000000000000000
  0
ARC
  8
0
  6
CONTINUOUS
 62
3
 10
-234.379950114110040
 20
76.965822427251993
 40
2.599999999999909
 50
180.000000000000000
 51
234.999999999998810
  0
LINE
  8
0
  6
CONTINUOUS
 62
3
 10
-228.300469652034110
 20
69.534910448528109
 11
-235.871248848622880
 21
74.836027112100652
  0
LINE
  8
0
  6
CONTINUOUS
 62
3
 10
-236.979950114109950
 20
76.965822427251993
 11
-236.979950114109950
 21
124.809442560881300
  0
LINE
  8
0
  6
CONTINUOUS
 62
4
 10
-138.979950114109950
 20
83.767528790541547
 11
-18.479950114088808
 21
83.767528790541547
  0
LINE
  8
0
  6
CONTINUOUS
 62
4
 10
-138.979950114109950
 20
78.676359965998614
 11
-18.479950114088808
 21
78.676359965998614
  0
LINE
  8
0
  6
CONTINUOUS
 62
4
 10
-138.979950114109950
 20
74.309442560881308
 11
-18.479950114088808
 21
74.309442560881308
  0
LINE
  8
0
  6
CONTINUOUS
 62
4
 10
-138.979950114109950
 20
73.809442560881308
 11
-18.479950114088808
 21
73.809442560881308
  0
LINE
  8
0
  6
CONTINUOUS
 62
3
 10
-18.479950114088808
 20
71.309442560881308
 11
-56.779950114088763
 21
71.309442560881308
  0
LINE
  8
0
  6
CONTINUOUS
 62
3
 10
-56.779950114088763
 20
72.309442560881308
 11
-56.779950114088763
 21
34.309442560881308
  0
ARC
  8
0
  6
CONTINUOUS
 62
3
 10
-57.779950114088763
 20
34.309442560881308
 40
1.000000000000000
 50
270.000000000000000
 51
0.000000000000000
  0
LINE
  8
0
  6
CONTINUOUS
 62
3
 10
-145.779950114088760
 20
33.309442560881308
 11
-57.779950114088763
 21
33.309442560881308
  0
ARC
  8
0
  6
CONTINUOUS
 62
3
 10
-145.779950114088760
 20
34.309442560881308
 40
1.000000000000000
 50
180.000000000000000
 51
270.000000000000000
  0
LINE
  8
0
  6
CONTINUOUS
 62
3
 10
-139.779950114088760
 20
32.809442560881308
 11
-131.779950114088760
 21
32.809442560881308
  0
LINE
  8
0
  6
CONTINUOUS
 62
3
 10
-71.779950114088763
 20
32.809442560881308
 11
-63.779950114088763
 21
32.809442560881308
  0
LINE
  8
0
  6
CONTINUOUS
 62
3
 10
-71.779950114088763
 20
33.309442560881308
 11
-71.779950114088763
 21
32.809442560881308
  0
LINE
  8
0
  6
CONTINUOUS
 62
3
 10
-63.779950114088763
 20
33.309442560881308
 11
-63.779950114088763
 21
32.809442560881308
  0
LINE
  8
0
  6
CONTINUOUS
 62
3
 10
-131.779950114088760
 20
33.309442560881308
 11
-131.779950114088760
 21
32.809442560881308
  0
LINE
  8
0
  6
CONTINUOUS
 62
3
 10
-139.779950114088760
 20
33.309442560881308
 11
-139.779950114088760
 21
32.809442560881308
  0
LINE
  8
0
  6
CONTINUOUS
 62
3
 10
-56.779950114088763
 20
72.309442560881308
 11
-138.979950114109950
 21
72.309442560881308
  0
POLYLINE
  8
0
  6
CONTINUOUS
 62
3
 66
1
 70
1
  0
VERTEX
  8
0
  6
CONTINUOUS
 62
3
 10
-145.279950114109740
 20
77.482111606533778
  0
VERTEX
  8
0
  6
CONTINUOUS
 62
3
 10
-145.370259296214560
 20
78.185068572734139
  0
VERTEX
  8
0
  6
CONTINUOUS
 62
3
 10
-145.637716311306690
 20
78.861011296946231
  0
VERTEX
  8
0
  6
CONTINUOUS
 62
3
 10
-146.072042936287770
 20
79.483963679351632
  0
VERTEX
  8
0
  6
CONTINUOUS
 62
3
 10
-146.656548242532950
 20
80.029986009250209
  0
VERTEX
  8
0
  6
CONTINUOUS
 62
3
 10
-147.368770018917620
 20
80.478094954716823
  0
VERTEX
  8
0
  6
CONTINUOUS
 62
3
 10
-148.181337981993810
 20
80.811069940279594
  0
VERTEX
  8
0
  6
CONTINUOUS
 62
3
 10
-149.063025600633920
 20
81.016114923977838
  0
VERTEX
  8
0
  6
CONTINUOUS
 62
3
 10
-149.979950114109730
 20
81.085350142078610
  0
VERTEX
  8
0
  6
CONTINUOUS
 62
3
 10
-150.896874627585530
 20
81.016114923977838
  0
VERTEX
  8
0
  6
CONTINUOUS
 62
3
 10
-151.778562246225650
 20
80.811069940279594
  0
VERTEX
  8
0
  6
CONTINUOUS
 62
3
 10
-152.591130209301840
 20
80.478094954716823
  0
VERTEX
  8
0
  6
CONTINUOUS
 62
3
 10
-153.303351985686500
 20
80.029986009250209
  0
VERTEX
  8
0
  6
CONTINUOUS
 62
3
 10
-153.887857291931680
 20
79.483963679351632
  0
VERTEX
  8
0
  6
CONTINUOUS
 62
3
 10
-154.322183916912760
 20
78.861011296946231
  0
VERTEX
  8
0
  6
CONTINUOUS
 62
3
 10
-154.589640932004900
 20
78.185068572734139
  0
VERTEX
  8
0
  6
CONTINUOUS
 62
3
 10
-154.679950114109720
 20
77.482111606533778
  0
VERTEX
  8
0
  6
CONTINUOUS
 62
3
 10
-154.589640932004900
 20
76.779154640333417
  0
VERTEX
  8
0
  6
CONTINUOUS
 62
3
 10
-154.322183916912760
 20
76.103211916121325
  0
VERTEX
  8
0
  6
CONTINUOUS
 62
3
 10
-153.887857291931680
 20
75.480259533715923
  0
VERTEX
  8
0
  6
CONTINUOUS
 62
3
 10
-153.303351985686480
 20
74.934237203817347
  0
VERTEX
  8
0
  6
CONTINUOUS
 62
3
 10
-152.591130209301840
 20
74.486128258350732
  0
VERTEX
  8
0
  6
CONTINUOUS
 62
3
 10
-151.778562246225650
 20
74.153153272787961
  0
VERTEX
  8
0
  6
CONTINUOUS
 62
3
 10
-150.896874627585530
 20
73.948108289089717
  0
VERTEX
  8
0
  6
CONTINUOUS
 62
3
 10
-149.979950114109730
 20
73.878873070988945
  0
VERTEX
  8
0
  6
CONTINUOUS
 62
3
 10
-149.063025600633920
 20
73.948108289089717
  0
VERTEX
  8
0
  6
CONTINUOUS
 62
3
 10
-148.181337981993810
 20
74.153153272787961
  0
VERTEX
  8
0
  6
CONTINUOUS
 62
3
 10
-147.368770018917620
 20
74.486128258350732
  0
VERTEX
  8
0
  6
CONTINUOUS
 62
3
 10
-146.656548242532980
 20
74.934237203817347
  0
VERTEX
  8
0
  6
CONTINUOUS
 62
3
 10
-146.072042936287770
 20
75.480259533715923
  0
VERTEX
  8
0
  6
CONTINUOUS
 62
3
 10
-145.637716311306690
 20
76.103211916121325
  0
VERTEX
  8
0
  6
CONTINUOUS
 62
3
 10
-145.370259296214560
 20
76.779154640333417
  0
SEQEND
  8
0
  6
CONTINUOUS
 62
3
  0
LINE
  8
0
  6
CONTINUOUS
 62
3
 10
-151.979950114109950
 20
74.489736052533345
 11
-149.979950114109950
 21
75.665521538156241
  0
LINE
  8
0
  6
CONTINUOUS
 62
3
 10
-149.979950114109950
 20
75.665521538156241
 11
-147.979950114109950
 21
77.318163177279558
  0
LINE
  8
0
  6
CONTINUOUS
 62
3
 10
-147.979950114109950
 20
74.489736052533345
 11
-149.979950114109950
 21
75.665521538156241
  0
LINE
  8
0
  6
CONTINUOUS
 62
3
 10
-149.979950114109950
 20
75.665521538156241
 11
-151.979950114109950
 21
77.318163177279558
  0
LINE
  8
0
  6
CONTINUOUS
 62
3
 10
-138.979950114109950
 20
73.469746200072251
 11
-138.979950114109730
 21
124.809442560881300
  0
ARC
  8
0
  6
CONTINUOUS
 62
3
 10
-141.979950114109950
 20
73.469746200072365
 40
3.000000000000000
 50
270.000000000000000
 51
359.999999999997780
  0
LINE
  8
0
  6
CONTINUOUS
 62
3
 10
-145.979950114109950
 20
70.469746200072365
 11
-141.979950114109950
 21
70.469746200072365
  0
ARC
  8
0
  6
CONTINUOUS
 62
3
 10
-145.979950114109950
 20
67.469746200072365
 40
3.000000000000000
 50
90.000000000000000
 51
180.000000000000000
  0
LINE
  8
0
  6
CONTINUOUS
 62
3
 10
-148.979950114109950
 20
65.809442560881308
 11
-216.484795063202740
 21
65.809442560881308
  0
LINE
  8
0
  6
CONTINUOUS
 62
3
 10
-148.979950114109950
 20
65.809442560881308
 11
-148.979950114109950
 21
67.469746200072365
  0
LINE
  8
0
  6
CONTINUOUS
 62
3
 10
-146.779950114088760
 20
70.361112659038355
 11
-146.779950114088760
 21
34.309442560881308
  0
LINE
  8
0
  6
CONTINUOUS
 62
3
 10
-146.779950114088760
 20
67.309442560881308
 11
-56.779950114088763
 21
67.309442560881308
  0
POLYLINE
  8
0
  6
CONTINUOUS
 62
3
 66
1
 70
1
  0
VERTEX
  8
0
  6
CONTINUOUS
 62
3
 10
-145.279950114109740
 20
172.136773515228810
  0
VERTEX
  8
0
  6
CONTINUOUS
 62
3
 10
-145.370259296214560
 20
172.839730481429170
  0
VERTEX
  8
0
  6
CONTINUOUS
 62
3
 10
-145.637716311306690
 20
173.515673205641260
  0
VERTEX
  8
0
  6
CONTINUOUS
 62
3
 10
-146.072042936287770
 20
174.138625588046660
  0
VERTEX
  8
0
  6
CONTINUOUS
 62
3
 10
-146.656548242532950
 20
174.684647917945260
  0
VERTEX
  8
0
  6
CONTINUOUS
 62
3
 10
-147.368770018917620
 20
175.132756863411880
  0
VERTEX
  8
0
  6
CONTINUOUS
 62
3
 10
-148.181337981993810
 20
175.465731848974630
  0
VERTEX
  8
0
  6
CONTINUOUS
 62
3
 10
-149.063025600633920
 20
175.670776832672890
  0
VERTEX
  8
0
  6
CONTINUOUS
 62
3
 10
-149.979950114109730
 20
175.740012050773660
  0
VERTEX
  8
0
  6
CONTINUOUS
 62
3
 10
-150.896874627585530
 20
175.670776832672890
  0
VERTEX
  8
0
  6
CONTINUOUS
 62
3
 10
-151.778562246225650
 20
175.465731848974630
  0
VERTEX
  8
0
  6
CONTINUOUS
 62
3
 10
-152.591130209301840
 20
175.132756863411880
  0
VERTEX
  8
0
  6
CONTINUOUS
 62
3
 10
-153.303351985686500
 20
174.684647917945260
  0
VERTEX
  8
0
  6
CONTINUOUS
 62
3
 10
-153.887857291931680
 20
174.138625588046660
  0
VERTEX
  8
0
  6
CONTINUOUS
 62
3
 10
-154.322183916912760
 20
173.515673205641260
  0
VERTEX
  8
0
  6
CONTINUOUS
 62
3
 10
-154.589640932004900
 20
172.839730481429170
  0
VERTEX
  8
0
  6
CONTINUOUS
 62
3
 10
-154.679950114109720
 20
172.136773515228810
  0
VERTEX
  8
0
  6
CONTINUOUS
 62
3
 10
-154.589640932004900
 20
171.433816549028450
  0
VERTEX
  8
0
  6
CONTINUOUS
 62
3
 10
-154.322183916912760
 20
170.757873824816360
  0
VERTEX
  8
0
  6
CONTINUOUS
 62
3
 10
-153.887857291931680
 20
170.134921442410960
  0
VERTEX
  8
0
  6
CONTINUOUS
 62
3
 10
-153.303351985686480
 20
169.588899112512370
  0
VERTEX
  8
0
  6
CONTINUOUS
 62
3
 10
-152.591130209301840
 20
169.140790167045740
  0
VERTEX
  8
0
  6
CONTINUOUS
 62
3
 10
-151.778562246225650
 20
168.807815181482990
  0
VERTEX
  8
0
  6
CONTINUOUS
 62
3
 10
-150.896874627585530
 20
168.602770197784740
  0
VERTEX
  8
0
  6
CONTINUOUS
 62
3
 10
-149.979950114109730
 20
168.533534979683960
  0
VERTEX
  8
0
  6
CONTINUOUS
 62
3
 10
-149.063025600633920
 20
168.602770197784740
  0
VERTEX
  8
0
  6
CONTINUOUS
 62
3
 10
-148.181337981993810
 20
168.807815181482990
  0
VERTEX
  8
0
  6
CONTINUOUS
 62
3
 10
-147.368770018917620
 20
169.140790167045740
  0
VERTEX
  8
0
  6
CONTINUOUS
 62
3
 10
-146.656548242532980
 20
169.588899112512370
  0
VERTEX
  8
0
  6
CONTINUOUS
 62
3
 10
-146.072042936287770
 20
170.134921442410960
  0
VERTEX
  8
0
  6
CONTINUOUS
 62
3
 10
-145.637716311306690
 20
170.757873824816360
  0
VERTEX
  8
0
  6
CONTINUOUS
 62
3
 10
-145.370259296214560
 20
171.433816549028450
  0
SEQEND
  8
0
  6
CONTINUOUS
 62
3
  0
LINE
  8
0
  6
CONTINUOUS
 62
3
 10
-151.979950114109950
 20
175.129149069229240
 11
-149.979950114109950
 21
173.953363583606460
  0
LINE
  8
0
  6
CONTINUOUS
 62
3
 10
-149.979950114109950
 20
173.953363583606460
 11
-147.979950114109950
 21
172.300721944483030
  0
LINE
  8
0
  6
CONTINUOUS
 62
3
 10
-147.979950114109950
 20
175.129149069229240
 11
-149.979950114109950
 21
173.953363583606460
  0
LINE
  8
0
  6
CONTINUOUS
 62
3
 10
-149.979950114109950
 20
173.953363583606460
 11
-151.979950114109950
 21
172.300721944483030
  0
LINE
  8
0
  6
CONTINUOUS
 62
3
 10
-138.979950114109950
 20
183.809442560881280
 11
-138.979950114109730
 21
124.809442560881300
  0
ARC
  8
0
  6
CONTINUOUS
 62
3
 10
-216.484795063202740
 20
163.209442560881260
 40
20.600000000000023
 50
90.000000000000000
 51
124.999999999999600
  0
ARC
  8
0
  6
CONTINUOUS
 62
3
 10
-234.379950114110040
 20
172.653062694510600
 40
2.600000000000131
 50
125.000000000001180
 51
180.000000000000000
  0
LINE
  8
0
  6
CONTINUOUS
 62
3
 10
-236.979950114109950
 20
172.653062694510600
 11
-236.979950114109950
 21
124.809442560881300
  0
LINE
  8
0
  6
CONTINUOUS
 62
3
 10
-228.300469652034110
 20
180.083974673234480
 11
-235.871248848622880
 21
174.782858009661940
  0
LINE
  8
0
  6
CONTINUOUS
 62
3
 10
-138.979950114109950
 20
183.809442560881280
 11
-216.484795063202740
 21
183.809442560881280
  0
LINE
  8
0
  6
CONTINUOUS
 62
4
 10
-138.979950114109950
 20
110.809442560881300
 11
-18.479950114088808
 21
110.809442560881300
  0
LINE
  8
0
  6
CONTINUOUS
 62
4
 10
-138.979950114109730
 20
106.423327769131360
 11
-18.479950114088808
 21
106.423327769131360
  0
LINE
  8
0
  6
CONTINUOUS
 62
4
 10
-138.979950114109730
 20
105.181407904243450
 11
-18.479950114088808
 21
105.181407904243450
  0
LINE
  8
0
  6
CONTINUOUS
 62
4
 10
-138.979950114109730
 20
101.971202880885150
 11
-18.479950114088808
 21
101.971202880885150
  0
LINE
  8
0
  6
CONTINUOUS
 62
4
 10
-138.979950114109950
 20
100.624801155386560
 11
-18.479950114088808
 21
100.624801155386560
  0
LINE
  8
0
  6
CONTINUOUS
 62
4
 10
-138.979950114109950
 20
97.532070163721329
 11
-18.479950114088808
 21
97.532070163721329
  0
LINE
  8
0
  6
CONTINUOUS
 62
4
 10
-138.979950114109950
 20
96.053047010244228
 11
-18.479950114088808
 21
96.053047010244228
  0
LINE
  8
0
  6
CONTINUOUS
 62
4
 10
-138.979950114109950
 20
93.095051402111295
 11
-18.479950114088808
 21
93.095051402111295
  0
LINE
  8
0
  6
CONTINUOUS
 62
4
 10
-138.979950114109950
 20
91.505841609372538
 11
-18.479950114088808
 21
91.505841609372538
  0
LINE
  8
0
  6
CONTINUOUS
 62
4
 10
-138.979950114109950
 20
175.809442560881280
 11
-18.479950114088808
 21
175.809442560881280
  0
LINE
  8
0
  6
CONTINUOUS
 62
4
 10
-138.979950114109950
 20
175.309442560881280
 11
-18.479950114088808
 21
175.309442560881280
  0
LINE
  8
0
  6
CONTINUOUS
 62
4
 10
-138.979950114109950
 20
170.942525155763970
 11
-18.479950114088808
 21
170.942525155763970
  0
LINE
  8
0
  6
CONTINUOUS
 62
4
 10
-138.979950114109950
 20
165.851356331221040
 11
-18.479950114088808
 21
165.851356331221040
  0
LINE
  8
0
  6
CONTINUOUS
 62
4
 10
-138.979950114109950
 20
158.113043512390080
 11
-18.479950114088808
 21
158.113043512390080
  0
LINE
  8
0
  6
CONTINUOUS
 62
4
 10
-138.979950114109950
 20
156.523833719651320
 11
-18.479950114088808
 21
156.523833719651320
  0
LINE
  8
0
  6
CONTINUOUS
 62
4
 10
-138.979950114109950
 20
153.565838111518390
 11
-18.479950114088808
 21
153.565838111518390
  0
LINE
  8
0
  6
CONTINUOUS
 62
4
 10
-138.979950114109950
 20
152.086814958041290
 11
-18.479950114088808
 21
152.086814958041290
  0
LINE
  8
0
  6
CONTINUOUS
 62
4
 10
-138.979950114109950
 20
148.994083966376050
 11
-18.479950114088808
 21
148.994083966376050
  0
LINE
  8
0
  6
CONTINUOUS
 62
4
 10
-138.979950114109950
 20
147.647682240877460
 11
-18.479950114088808
 21
147.647682240877460
  0
LINE
  8
0
  6
CONTINUOUS
 62
4
 10
-138.979950114109950
 20
143.195557352631250
 11
-18.479950114088808
 21
143.195557352631250
  0
LINE
  8
0
  6
CONTINUOUS
 62
4
 10
-138.979950114109950
 20
144.437477217519160
 11
-18.479950114088808
 21
144.437477217519160
  0
LINE
  8
0
  6
CONTINUOUS
 62
4
 10
-138.979950114109950
 20
138.809442560881310
 11
-18.479950114088808
 21
138.809442560881310
  0
LINE
  8
0
  6
CONTINUOUS
 62
3
 10
-18.479950114088808
 20
178.309442560881280
 11
-138.979950114109950
 21
178.309442560881280
  0
POLYLINE
  8
0
  6
CONTINUOUS
 62
3
 66
1
  0
VERTEX
  8
0
  6
CONTINUOUS
 62
3
 10
292.190864300223380
 20
-126.190558040051570
  0
VERTEX
  8
0
  6
CONTINUOUS
 62
3
 10
292.059592807964350
 20
-124.353062816906980
  0
VERTEX
  8
0
  6
CONTINUOUS
 62
3
 10
291.670248454322970
 20
-122.578141271677060
  0
VERTEX
  8
0
  6
CONTINUOUS
 62
3
 10
291.036089894801250
 20
-120.926236231106610
  0
VERTEX
  8
0
  6
CONTINUOUS
 62
3
 10
290.178712639378150
 20
-119.453601342256460
  0
VERTEX
  8
0
  6
CONTINUOUS
 62
3
 10
289.127313643290220
 20
-118.210385421948550
  0
VERTEX
  8
0
  6
CONTINUOUS
 62
3
 10
287.917697039700900
 20
-117.238924698890880
  0
VERTEX
  8
0
  6
CONTINUOUS
 62
3
 10
286.591054872841650
 20
-116.572301104130430
  0
VERTEX
  8
0
  6
CONTINUOUS
 62
3
 10
285.192564352296300
 20
-116.233215705525870
  0
VERTEX
  8
0
  6
CONTINUOUS
 62
3
 10
283.769849397254350
 20
-116.233215650079100
  0
VERTEX
  8
0
  6
CONTINUOUS
 62
3
 10
282.371358860999290
 20
-116.572300939678250
  0
VERTEX
  8
0
  6
CONTINUOUS
 62
3
 10
281.044716663255660
 20
-117.238924431033530
  0
VERTEX
  8
0
  6
CONTINUOUS
 62
3
 10
279.835100014658960
 20
-118.210385059807600
  0
VERTEX
  8
0
  6
CONTINUOUS
 62
3
 10
278.783700960973310
 20
-119.453600898164160
  0
VERTEX
  8
0
  6
CONTINUOUS
 62
3
 10
277.926323637323550
 20
-120.926235720186020
  0
VERTEX
  8
0
  6
CONTINUOUS
 62
3
 10
277.292165001269720
 20
-122.578140711326980
  0
VERTEX
  8
0
  6
CONTINUOUS
 62
3
 10
276.902820565396950
 20
-124.353062226209430
  0
VERTEX
  8
0
  6
CONTINUOUS
 62
3
 10
276.771548988007510
 20
-126.190557439122040
  0
SEQEND
  8
0
  6
CONTINUOUS
 62
3
  0
LINE
  8
0
  6
CONTINUOUS
 62
3
 10
319.667117260258240
 20
-126.190557439122040
 11
306.062338439312950
 21
-126.190557439122040
  0
ARC
  8
0
  6
CONTINUOUS
 62
3
 10
306.062338439312950
 20
-129.690557439122050
 40
3.500000000000000
 50
90.000000000000000
 51
180.000000000000000
  0
LINE
  8
0
  6
CONTINUOUS
 62
3
 10
302.562338439312950
 20
-129.690557439122050
 11
302.562338439312950
 21
-219.590557439122140
  0
LINE
  8
0
  6
CONTINUOUS
 62
3
 10
268.562338439312950
 20
-136.423955623303210
 11
268.562338439312950
 21
-230.190557439122050
  0
LINE
  8
0
  6
DASHDOT
 62
4
 10
257.354541119646460
 20
-126.190557439122040
 11
465.479559856323250
 21
-126.190557439122040
  0
LINE
  8
0
  6
CONTINUOUS
 62
3
 10
276.771548988007450
 20
-126.190557439122040
 11
276.771548988007450
 21
-230.190557439122050
  0
LINE
  8
0
  6
CONTINUOUS
 62
3
 10
292.190864300223440
 20
-126.190558040051570
 11
292.190864300223440
 21
-230.190557439122050
  0
LINE
  8
0
  6
CONTINUOUS
 62
3
 10
295.815338439312650
 20
-136.190557439122050
 11
295.815338439312650
 21
-230.190557439122050
  0
ARC
  8
0
  6
CONTINUOUS
 62
3
 10
348.562338439312950
 20
-136.423955623303210
 40
52.746750336799941
 50
91.910213171710112
 51
180.000000000000000
  0
ARC
  8
0
  6
CONTINUOUS
 62
3
 10
348.562338439312950
 20
-136.423955623303210
 40
79.999999999999844
 50
91.910213171710154
 51
180.000000000000000
  0
LINE
  8
0
  6
CONTINUOUS
 62
3
 10
283.994497403900250
 20
-89.190557439119175
 11
277.695673666370510
 21
-89.190557439119175
  0
ARC
  8
0
  6
CONTINUOUS
 62
3
 10
277.695673666370510
 20
-94.190557439119175
 40
5.000000000000000
 50
90.000000000000000
 51
173.967950853629450
  0
ARC
  8
0
  6
CONTINUOUS
 62
3
 10
571.062338439312950
 20
-125.190557439119170
 40
299.999999999999940
 50
173.967950853630160
 51
178.252838824485310
  0
LINE
  8
0
  6
DASHDOT
 62
4
 10
4.067052719288768
 20
-125.190557439118740
 11
-250.322461103474780
 21
-125.190557439118740
  0
LINE
  8
0
  6
CONTINUOUS
 62
3
 10
-148.979950114120360
 20
-125.190557439118740
 11
-148.979950114120360
 21
-90.190557439118749
  0
LINE
  8
0
  6
CONTINUOUS
 62
4
 10
-148.979950114120360
 20
-91.886956487609979
 11
-146.779950114098710
 21
-91.886956487609979
  0
LINE
  8
0
  6
CONTINUOUS
 62
4
 10
-148.979950114120360
 20
-93.476166280348735
 11
-146.779950114098710
 21
-93.476166280348735
  0
LINE
  8
0
  6
CONTINUOUS
 62
4
 10
-148.979950114120360
 20
-96.434161888481668
 11
-146.779950114098710
 21
-96.434161888481668
  0
LINE
  8
0
  6
CONTINUOUS
 62
4
 10
-148.979950114120360
 20
-97.913185041958769
 11
-146.779950114098710
 21
-97.913185041958769
  0
LINE
  8
0
  6
CONTINUOUS
 62
4
 10
-148.979950114120360
 20
-101.005916033624110
 11
-146.779950114098710
 21
-101.005916033624110
  0
LINE
  8
0
  6
CONTINUOUS
 62
4
 10
-148.979950114120360
 20
-102.352317759122590
 11
-146.779950114098710
 21
-102.352317759122590
  0
LINE
  8
0
  6
CONTINUOUS
 62
4
 10
-148.979950114120360
 20
-105.190557439118740
 11
-146.779950114098710
 21
-105.190557439118740
  0
LINE
  8
0
  6
CONTINUOUS
 62
4
 10
-56.779950114098710
 20
-96.434161888481668
 11
-18.479950114099211
 21
-96.434161888481668
  0
LINE
  8
0
  6
CONTINUOUS
 62
4
 10
-56.779950114098710
 20
-97.913185041958769
 11
-18.479950114099211
 21
-97.913185041958769
  0
LINE
  8
0
  6
CONTINUOUS
 62
4
 10
-56.779950114098710
 20
-101.005916033624110
 11
-18.479950114099211
 21
-101.005916033624110
  0
LINE
  8
0
  6
CONTINUOUS
 62
4
 10
-56.779950114098710
 20
-102.352317759122590
 11
-18.479950114099211
 21
-102.352317759122590
  0
LINE
  8
0
  6
CONTINUOUS
 62
4
 10
-56.779950114098710
 20
-105.190557439118740
 11
-18.479950114099211
 21
-105.190557439118740
  0
LINE
  8
0
  6
CONTINUOUS
 62
4
 10
-56.779950114098710
 20
-93.476166280348735
 11
-18.479950114099211
 21
-93.476166280348735
  0
LINE
  8
0
  6
CONTINUOUS
 62
4
 10
-56.779950114098710
 20
-91.886956487609979
 11
-18.479950114099211
 21
-91.886956487609979
  0
ARC
  8
0
  6
CONTINUOUS
 62
3
 10
-141.979950114120360
 20
-84.190557439118749
 40
3.000000000000000
 50
270.000000000000000
 51
0.000000000000000
  0
LINE
  8
0
  6
CONTINUOUS
 62
3
 10
-141.979950114120360
 20
-87.190557439118749
 11
-145.979950114120360
 21
-87.190557439118749
  0
ARC
  8
0
  6
CONTINUOUS
 62
3
 10
-145.979950114120360
 20
-90.190557439118749
 40
3.000000000000000
 50
90.000000000000000
 51
180.000000000000000
  0
LINE
  8
0
  6
CONTINUOUS
 62
3
 10
-148.979950114120360
 20
-125.190557439118740
 11
-148.979950114120360
 21
-160.190557439118750
  0
LINE
  8
0
  6
CONTINUOUS
 62
4
 10
-148.979950114120360
 20
-158.494158390627520
 11
-146.779950114098710
 21
-158.494158390627520
  0
LINE
  8
0
  6
CONTINUOUS
 62
4
 10
-148.979950114120360
 20
-156.904948597888760
 11
-146.779950114098710
 21
-156.904948597888760
  0
LINE
  8
0
  6
CONTINUOUS
 62
4
 10
-148.979950114120360
 20
-153.946952989755830
 11
-146.779950114098710
 21
-153.946952989755830
  0
LINE
  8
0
  6
CONTINUOUS
 62
4
 10
-148.979950114120360
 20
-152.467929836278730
 11
-146.779950114098710
 21
-152.467929836278730
  0
LINE
  8
0
  6
CONTINUOUS
 62
4
 10
-148.979950114120360
 20
-149.375198844613380
 11
-146.779950114098710
 21
-149.375198844613380
  0
LINE
  8
0
  6
CONTINUOUS
 62
4
 10
-148.979950114120360
 20
-148.028797119114900
 11
-146.779950114098710
 21
-148.028797119114900
  0
LINE
  8
0
  6
CONTINUOUS
 62
4
 10
-148.979950114120360
 20
-145.190557439118750
 11
-146.779950114098710
 21
-145.190557439118750
  0
LINE
  8
0
  6
CONTINUOUS
 62
4
 10
-56.779950114098710
 20
-153.946952989755830
 11
-18.479950114099211
 21
-153.946952989755830
  0
LINE
  8
0
  6
CONTINUOUS
 62
4
 10
-56.779950114098710
 20
-152.467929836278730
 11
-18.479950114099211
 21
-152.467929836278730
  0
LINE
  8
0
  6
CONTINUOUS
 62
4
 10
-56.779950114098710
 20
-149.375198844613380
 11
-18.479950114099211
 21
-149.375198844613380
  0
LINE
  8
0
  6
CONTINUOUS
 62
4
 10
-56.779950114098710
 20
-148.028797119114900
 11
-18.479950114099211
 21
-148.028797119114900
  0
LINE
  8
0
  6
CONTINUOUS
 62
4
 10
-56.779950114098710
 20
-145.190557439118750
 11
-18.479950114099211
 21
-145.190557439118750
  0
LINE
  8
0
  6
CONTINUOUS
 62
4
 10
-56.779950114098710
 20
-156.904948597888760
 11
-18.479950114099211
 21
-156.904948597888760
  0
LINE
  8
0
  6
CONTINUOUS
 62
4
 10
-56.779950114098710
 20
-158.494158390627520
 11
-18.479950114099211
 21
-158.494158390627520
  0
ARC
  8
0
  6
CONTINUOUS
 62
3
 10
-141.979950114120360
 20
-166.190557439118750
 40
3.000000000000000
 50
0.000000000000000
 51
90.000000000000000
  0
LINE
  8
0
  6
CONTINUOUS
 62
3
 10
-141.979950114120360
 20
-163.190557439118750
 11
-145.979950114120360
 21
-163.190557439118750
  0
ARC
  8
0
  6
CONTINUOUS
 62
3
 10
-145.979950114120360
 20
-160.190557439118750
 40
3.000000000000000
 50
180.000000000000000
 51
270.000000000000000
  0
LINE
  8
0
  6
CONTINUOUS
 62
3
 10
-57.779950114098710
 20
-89.190557439118749
 11
-145.779950114098710
 21
-89.190557439118749
  0
ARC
  8
0
  6
CONTINUOUS
 62
3
 10
-145.779950114098710
 20
-90.190557439118749
 40
1.000000000000000
 50
90.000000000000000
 51
180.000000000000000
  0
LINE
  8
0
  6
CONTINUOUS
 62
3
 10
-146.779950114098480
 20
-90.190557439118749
 11
-146.779950114099170
 21
-125.190557439118970
  0
LINE
  8
0
  6
CONTINUOUS
 62
3
 10
-146.779950114098480
 20
-160.190557439118750
 11
-146.779950114099170
 21
-125.190557439118520
  0
LINE
  8
0
  6
CONTINUOUS
 62
3
 10
-57.779950114098710
 20
-161.190557439118750
 11
-145.779950114098710
 21
-161.190557439118750
  0
ARC
  8
0
  6
CONTINUOUS
 62
3
 10
-145.779950114098710
 20
-160.190557439118750
 40
0.999999999999773
 50
180.000000000000000
 51
270.000000000000000
  0
LINE
  8
0
  6
CONTINUOUS
 62
3
 10
-56.779950114098483
 20
-160.190557439118750
 11
-56.779950114099165
 21
-125.190557439117150
  0
ARC
  8
0
  6
CONTINUOUS
 62
3
 10
-57.779950114098710
 20
-160.190557439118750
 40
1.000000000000000
 50
270.000000000000000
 51
0.000000000000000
  0
LINE
  8
0
  6
CONTINUOUS
 62
3
 10
-56.779950114098483
 20
-90.190557439118749
 11
-56.779950114099165
 21
-125.190557439120340
  0
ARC
  8
0
  6
CONTINUOUS
 62
3
 10
-57.779950114098710
 20
-90.190557439118749
 40
1.000000000000227
 50
0.000000000000000
 51
90.000000000000000
  0
LINE
  8
0
  6
CONTINUOUS
 62
3
 10
-18.479950114095175
 20
-125.190557439118630
 11
-18.479950114100632
 21
-177.690557975296910
  0
CIRCLE
  8
0
  6
CONTINUOUS
 62
3
 10
362.562338439312950
 20
-126.190557439122040
 40
23.500000000000000
  0
LINE
  8
0
  6
CONTINUOUS
 62
3
 10
262.562338439312950
 20
-251.190557439122020
 11
292.562338439312950
 21
-251.190557439122020
  0
LINE
  8
0
  6
CONTINUOUS
 62
3
 10
462.562338439312950
 20
-251.190557439122020
 11
432.562338439312950
 21
-251.190557439122020
  0
LINE
  8
0
  6
CONTINUOUS
 62
3
 10
262.562338439312950
 20
-251.190557439122020
 11
292.562338439312950
 21
-251.190557439122020
  0
POLYLINE
  8
0
  6
CONTINUOUS
 62
3
 66
1
  0
VERTEX
  8
0
  6
CONTINUOUS
 62
3
 10
448.353127890618400
 20
-126.190557439122040
  0
VERTEX
  8
0
  6
CONTINUOUS
 62
3
 10
448.221856313228950
 20
-124.353062226209430
  0
VERTEX
  8
0
  6
CONTINUOUS
 62
3
 10
447.832511877356180
 20
-122.578140711326980
  0
VERTEX
  8
0
  6
CONTINUOUS
 62
3
 10
447.198353241302300
 20
-120.926235720186020
  0
VERTEX
  8
0
  6
CONTINUOUS
 62
3
 10
446.340975917652600
 20
-119.453600898164160
  0
VERTEX
  8
0
  6
CONTINUOUS
 62
3
 10
445.289576863966940
 20
-118.210385059807600
  0
VERTEX
  8
0
  6
CONTINUOUS
 62
3
 10
444.079960215370250
 20
-117.238924431033530
  0
VERTEX
  8
0
  6
CONTINUOUS
 62
3
 10
442.753318017626610
 20
-116.572300939678250
  0
VERTEX
  8
0
  6
CONTINUOUS
 62
3
 10
441.354827481371560
 20
-116.233215650079100
  0
VERTEX
  8
0
  6
CONTINUOUS
 62
3
 10
439.932112526329600
 20
-116.233215705525870
  0
VERTEX
  8
0
  6
CONTINUOUS
 62
3
 10
438.533622005784250
 20
-116.572301104130430
  0
VERTEX
  8
0
  6
CONTINUOUS
 62
3
 10
437.206979838925010
 20
-117.238924698890880
  0
VERTEX
  8
0
  6
CONTINUOUS
 62
3
 10
435.997363235335680
 20
-118.210385421948550
  0
VERTEX
  8
0
  6
CONTINUOUS
 62
3
 10
434.945964239247760
 20
-119.453601342256460
  0
VERTEX
  8
0
  6
CONTINUOUS
 62
3
 10
434.088586983824650
 20
-120.926236231106620
  0
VERTEX
  8
0
  6
CONTINUOUS
 62
3
 10
433.454428424302930
 20
-122.578141271677080
  0
VERTEX
  8
0
  6
CONTINUOUS
 62
3
 10
433.065084070661560
 20
-124.353062816906990
  0
VERTEX
  8
0
  6
CONTINUOUS
 62
3
 10
432.933812578402520
 20
-126.190558040051570
  0
SEQEND
  8
0
  6
CONTINUOUS
 62
3
  0
LINE
  8
0
  6
CONTINUOUS
 62
3
 10
415.562338439312950
 20
-226.590557439122140
 11
362.562338439312950
 21
-226.590557439122140
  0
LINE
  8
0
  6
CONTINUOUS
 62
3
 10
422.562338439312950
 20
-129.690557439122050
 11
422.562338439312950
 21
-219.590557439122140
  0
LINE
  8
0
  6
CONTINUOUS
 62
3
 10
405.457559618367670
 20
-126.190557439122040
 11
419.062338439312950
 21
-126.190557439122040
  0
ARC
  8
0
  6
CONTINUOUS
 62
3
 10
362.562338439312950
 20
-126.190557439122040
 40
40.000000000000000
 50
270.000000000000000
 51
355.999370038428480
  0
ARC
  8
0
  6
CONTINUOUS
 62
3
 10
415.562338439312950
 20
-219.590557439122140
 40
7.000000000000000
 50
270.000000000000000
 51
0.000000000000000
  0
ARC
  8
0
  6
CONTINUOUS
 62
3
 10
419.062338439312950
 20
-129.690557439122050
 40
3.500000000000000
 50
0.000000000000000
 51
90.000000000000000
  0
ARC
  8
0
  6
CONTINUOUS
 62
3
 10
405.457559618367670
 20
-129.190557439122050
 40
3.000000000000000
 50
90.000000000000000
 51
175.999370038424810
  0
ARC
  8
0
  6
CONTINUOUS
 62
3
 10
309.562338439312950
 20
-219.590557439122140
 40
7.000000000000000
 50
180.000000000000000
 51
270.000000000000000
  0
LINE
  8
0
  6
CONTINUOUS
 62
3
 10
309.562338439312950
 20
-226.590557439122140
 11
362.562338439312950
 21
-226.590557439122140
  0
LINE
  8
0
  6
DASHDOT
 62
4
 10
275.062338439312950
 20
-229.030278584751980
 11
275.062338439312950
 21
-255.607349278721700
  0
LINE
  8
0
  6
CONTINUOUS
 62
3
 10
430.562338439312950
 20
-249.190557439122020
 11
362.562338439312950
 21
-249.190557439122020
  0
LINE
  8
0
  6
CONTINUOUS
 62
3
 10
460.062338439312950
 20
-233.190557439122050
 11
362.562338439312950
 21
-233.190557439122050
  0
LINE
  8
0
  6
CONTINUOUS
 62
3
 10
294.562338439312950
 20
-249.190557439122020
 11
362.562338439312950
 21
-249.190557439122020
  0
LINE
  8
0
  6
CONTINUOUS
 62
3
 10
456.562338439312950
 20
-136.423955623303210
 11
456.562338439312950
 21
-230.190557439122050
  0
LINE
  8
0
  6
CONTINUOUS
 62
3
 10
462.562338439312950
 20
-235.690557439122050
 11
462.562338439312950
 21
-251.190557439122020
  0
LINE
  8
0
  6
DASHDOT
 62
4
 10
450.062338439312950
 20
-229.030278584751980
 11
450.062338439312950
 21
-255.607349278721700
  0
LINE
  8
0
  6
CONTINUOUS
 62
3
 10
262.562338439312950
 20
-235.690557439122050
 11
262.562338439312950
 21
-251.190557439122020
  0
LINE
  8
0
  6
CONTINUOUS
 62
3
 10
265.062338439312950
 20
-233.190557439122050
 11
362.562338439312950
 21
-233.190557439122050
  0
LINE
  8
0
  6
DASHDOT
 62
4
 10
362.562338439312950
 20
-7.655587846393161
 11
362.562338439312950
 21
-261.892635385922290
  0
LINE
  8
0
  6
CONTINUOUS
 62
3
 10
432.933812578402470
 20
-126.190558040051570
 11
432.933812578402470
 21
-230.190557439122050
  0
LINE
  8
0
  6
CONTINUOUS
 62
3
 10
448.353127890618450
 20
-126.190557439122040
 11
448.353127890618450
 21
-230.190557439122050
  0
LINE
  8
0
  6
CONTINUOUS
 62
3
 10
429.309338439313250
 20
-136.190557439122050
 11
429.309338439313250
 21
-230.190557439122050
  0
ARC
  8
0
  6
CONTINUOUS
 62
3
 10
362.562338439312950
 20
-556.190557439122020
 40
472.746750336799780
 50
90.000000000000000
 51
91.910213171709955
  0
ARC
  8
0
  6
CONTINUOUS
 62
3
 10
376.562338439312950
 20
-136.423955623303210
 40
52.746750336800233
 50
0.000000000000000
 51
88.089786828289888
  0
ARC
  8
0
  6
CONTINUOUS
 62
3
 10
362.562338439312950
 20
-556.190557439122020
 40
472.746750336800180
 50
88.089786828290045
 51
90.000000000000000
  0
ARC
  8
0
  6
CONTINUOUS
 62
3
 10
362.562338439312950
 20
-556.190557439122020
 40
500.000000000000000
 50
90.000000000000000
 51
91.910213171709970
  0
ARC
  8
0
  6
CONTINUOUS
 62
3
 10
362.562338439312950
 20
-556.190557439122020
 40
500.000000000000060
 50
88.089786828290030
 51
90.000000000000000
  0
ARC
  8
0
  6
CONTINUOUS
 62
3
 10
376.562338439312950
 20
-136.423955623303210
 40
80.000000000000000
 50
0.000000000000000
 51
88.089786828289846
  0
ARC
  8
0
  6
CONTINUOUS
 62
3
 10
459.562338439312950
 20
-230.190557439122050
 40
3.000000000000000
 50
180.000000000000000
 51
270.000000000000000
  0
ARC
  8
0
  6
CONTINUOUS
 62
3
 10
265.562338439312950
 20
-230.190557439122050
 40
3.000000000000000
 50
270.000000000000000
 51
0.000000000000000
  0
ARC
  8
0
  6
CONTINUOUS
 62
3
 10
460.062338439312950
 20
-235.690557439122050
 40
2.500000000000000
 50
0.000000000000000
 51
90.000000000000000
  0
ARC
  8
0
  6
CONTINUOUS
 62
3
 10
430.562338439312950
 20
-251.190557439122020
 40
2.000000000000000
 50
0.000000000000000
 51
90.000000000000000
  0
ARC
  8
0
  6
CONTINUOUS
 62
3
 10
265.062338439312950
 20
-235.690557439122050
 40
2.500000000000000
 50
90.000000000000000
 51
180.000000000000000
  0
ARC
  8
0
  6
CONTINUOUS
 62
3
 10
294.562338439312950
 20
-251.190557439122020
 40
2.000000000000000
 50
90.000000000000000
 51
180.000000000000000
  0
ARC
  8
0
  6
CONTINUOUS
 62
3
 10
273.771548988007450
 20
-230.190557439122050
 40
3.000000000000000
 50
270.000000000000000
 51
0.000000000000000
  0
ARC
  8
0
  6
CONTINUOUS
 62
3
 10
289.190864300223440
 20
-230.190557439122050
 40
3.000000000000000
 50
270.000000000000000
 51
0.000000000000000
  0
ARC
  8
0
  6
CONTINUOUS
 62
3
 10
435.933812578402470
 20
-230.190557439122050
 40
3.000000000000000
 50
180.000000000000000
 51
270.000000000000000
  0
ARC
  8
0
  6
CONTINUOUS
 62
3
 10
451.353127890618450
 20
-230.190557439122050
 40
3.000000000000000
 50
180.000000000000000
 51
270.000000000000000
  0
ARC
  8
0
  6
CONTINUOUS
 62
3
 10
292.815338439312650
 20
-230.190557439122050
 40
3.000000000000000
 50
270.000000000000000
 51
0.000000000000000
  0
ARC
  8
0
  6
CONTINUOUS
 62
3
 10
432.309338439313250
 20
-230.190557439122050
 40
3.000000000000000
 50
180.000000000000000
 51
270.000000000000000
  0
LINE
  8
0
  6
DASHDOT
 62
4
 10
385.730251438194500
 20
-41.190557439122045
 11
338.707737536659810
 21
-41.190557439122045
  0
ARC
  8
0
  6
CONTINUOUS
 62
3
 10
373.062338439312950
 20
-31.190557439122045
 40
10.000000000000000
 50
0.000000000000000
 51
90.000000000000000
  0
LINE
  8
0
  6
CONTINUOUS
 62
3
 10
383.062338439312950
 20
-31.190557439122045
 11
383.062338439312950
 21
-56.190550478257506
  0
CIRCLE
  8
0
  6
CONTINUOUS
 62
3
 10
362.562338439312950
 20
-41.190557439122045
 40
10.000000000000000
  0
LINE
  8
0
  6
CONTINUOUS
 62
3
 10
342.062338439312950
 20
-31.190557439122045
 11
342.062338439312950
 21
-56.688455374041865
  0
ARC
  8
0
  6
CONTINUOUS
 62
3
 10
352.062338439312950
 20
-31.190557439122045
 40
10.000000000000000
 50
90.000000000000000
 51
180.000000000000000
  0
LINE
  8
0
  6
CONTINUOUS
 62
3
 10
373.062338439312950
 20
-21.190557439122045
 11
352.062338439312950
 21
-21.190557439122045
  0
LINE
  8
0
  6
CONTINUOUS
 62
3
 10
343.562338439312040
 20
-131.190557439122050
 11
351.562338439312040
 21
-131.190557439122050
  0
LINE
  8
0
  6
CONTINUOUS
 62
3
 10
351.562338439312040
 20
-131.190557439122050
 11
351.562338439312040
 21
-121.190557439122040
  0
ARC
  8
0
  6
CONTINUOUS
 62
3
 10
362.562338439312040
 20
-126.190557439122040
 40
16.000000000000192
 50
198.209956864282790
 51
161.790043135717210
  0
LINE
  8
0
  6
CONTINUOUS
 62
3
 10
343.562338439312040
 20
-131.190557439122050
 11
343.562338439312040
 21
-121.190557439122040
  0
LINE
  8
0
  6
CONTINUOUS
 62
3
 10
343.562338439312040
 20
-121.190557439122040
 11
351.562338439312040
 21
-121.190557439122040
  0
CIRCLE
  8
0
  6
CONTINUOUS
 62
3
 10
362.562338439312950
 20
-126.190557439122040
 40
3.323500000000024
  0
CIRCLE
  8
0
  6
CONTINUOUS
 62
4
 10
362.562338439312950
 20
-126.190557439122040
 40
4.000000000000000
  0
ARC
  8
0
  6
CONTINUOUS
 62
3
 10
362.562338439312950
 20
-126.190557439122040
 40
40.000000000000249
 50
184.000629961571520
 51
270.000000000000000
  0
ARC
  8
0
  6
CONTINUOUS
 62
3
 10
319.667117260258240
 20
-129.190557439122050
 40
3.000000000000032
 50
4.000629961575198
 51
90.000000000000000
  0
CIRCLE
  8
0
  6
CONTINUOUS
 62
3
 10
362.562338439312950
 20
-126.190557439122040
 40
33.500000000000000
  0
LINE
  8
0
  6
DASHDOT
 62
4
 10
394.331087802172990
 20
-125.190557439119200
 11
330.474836843430240
 21
-125.190557439119200
  0
LINE
  8
0
  6
CONTINUOUS
 62
3
 10
-18.479950114099211
 20
-125.190557439118740
 11
-18.479950114099211
 21
-72.690557439118749
  0
ARC
  8
0
  6
CONTINUOUS
 62
3
 10
-216.484795063213140
 20
-158.590557439119070
 40
20.599999999999795
 50
235.000000000000260
 51
270.000000000000000
  0
ARC
  8
0
  6
CONTINUOUS
 62
3
 10
-234.379950114120450
 20
-168.034177572748400
 40
2.599999999999909
 50
180.000000000000000
 51
234.999999999994540
  0
LINE
  8
0
  6
CONTINUOUS
 62
3
 10
-236.979950114120360
 20
-168.034177572748400
 11
-236.979950114120360
 21
-125.190557439118740
  0
LINE
  8
0
  6
CONTINUOUS
 62
3
 10
-228.300469652044510
 20
-175.465089551472180
 11
-235.871248848633290
 21
-170.163972887899520
  0
LINE
  8
0
  6
CONTINUOUS
 62
4
 10
-139.137550460491640
 20
-165.230992845642990
 11
-18.479950114099211
 21
-165.230992845642990
  0
LINE
  8
0
  6
CONTINUOUS
 62
4
 10
-138.979950114120360
 20
-166.232471209458280
 11
-18.479950114099211
 21
-166.232471209458280
  0
LINE
  8
0
  6
CONTINUOUS
 62
4
 10
-138.979950114120360
 20
-169.695212966223640
 11
-18.479950114099211
 21
-169.695212966223640
  0
LINE
  8
0
  6
CONTINUOUS
 62
4
 10
-138.979950114120360
 20
-171.323640034001560
 11
-18.479950114099211
 21
-171.323640034001560
  0
LINE
  8
0
  6
CONTINUOUS
 62
4
 10
-138.979950114120360
 20
-176.190557439118980
 11
-18.479950114099211
 21
-176.190557439118980
  0
LINE
  8
0
  6
CONTINUOUS
 62
4
 10
-138.979950114120360
 20
-175.690557439118750
 11
-18.479950114099211
 21
-175.690557439118750
  0
LINE
  8
0
  6
CONTINUOUS
 62
3
 10
-18.479950114099211
 20
-177.690557439118750
 11
-138.979950114120360
 21
-177.690557439118750
  0
ARC
  8
0
  6
CONTINUOUS
 62
3
 10
-216.484795063213140
 20
-91.790557439118430
 40
20.599999999999909
 50
90.000000000000000
 51
124.999999999999780
  0
ARC
  8
0
  6
CONTINUOUS
 62
3
 10
-234.379950114120450
 20
-82.346937305489092
 40
2.600000000000037
 50
125.000000000002600
 51
180.000000000000000
  0
LINE
  8
0
  6
CONTINUOUS
 62
3
 10
-236.979950114120360
 20
-82.346937305489092
 11
-236.979950114120360
 21
-125.190557439118740
  0
LINE
  8
0
  6
CONTINUOUS
 62
3
 10
-228.300469652044510
 20
-74.916025326765094
 11
-235.871248848633290
 21
-80.217141990337979
  0
LINE
  8
0
  6
CONTINUOUS
 62
4
 10
-139.137550460491640
 20
-85.150122032594282
 11
-18.479950114099211
 21
-85.150122032594282
  0
LINE
  8
0
  6
CONTINUOUS
 62
4
 10
-138.979950114120360
 20
-84.148643668778988
 11
-18.479950114099211
 21
-84.148643668778988
  0
LINE
  8
0
  6
CONTINUOUS
 62
4
 10
-138.979950114120360
 20
-80.685901912013861
 11
-18.479950114099211
 21
-80.685901912013861
  0
LINE
  8
0
  6
CONTINUOUS
 62
4
 10
-138.979950114120360
 20
-79.057474844235941
 11
-18.479950114099211
 21
-79.057474844235941
  0
LINE
  8
0
  6
CONTINUOUS
 62
4
 10
-138.979950114120360
 20
-74.190557439118521
 11
-18.479950114099211
 21
-74.190557439118521
  0
LINE
  8
0
  6
CONTINUOUS
 62
4
 10
-138.979950114120360
 20
-74.690557439118749
 11
-18.479950114099211
 21
-74.690557439118749
  0
LINE
  8
0
  6
CONTINUOUS
 62
3
 10
-18.479950114099211
 20
-72.690557439118749
 11
-138.979950114120360
 21
-72.690557439118749
  0
POLYLINE
  8
0
  6
CONTINUOUS
 62
3
 66
1
 70
1
  0
VERTEX
  8
0
  6
CONTINUOUS
 62
3
 10
-145.279950114120140
 20
-77.863226484771104
  0
VERTEX
  8
0
  6
CONTINUOUS
 62
3
 10
-145.370259296224960
 20
-77.160269518570743
  0
VERTEX
  8
0
  6
CONTINUOUS
 62
3
 10
-145.637716311317090
 20
-76.484326794358651
  0
VERTEX
  8
0
  6
CONTINUOUS
 62
3
 10
-146.072042936298170
 20
-75.861374411953250
  0
VERTEX
  8
0
  6
CONTINUOUS
 62
3
 10
-146.656548242543350
 20
-75.315352082054673
  0
VERTEX
  8
0
  6
CONTINUOUS
 62
3
 10
-147.368770018928020
 20
-74.867243136588058
  0
VERTEX
  8
0
  6
CONTINUOUS
 62
3
 10
-148.181337982004210
 20
-74.534268151025287
  0
VERTEX
  8
0
  6
CONTINUOUS
 62
3
 10
-149.063025600644320
 20
-74.329223167327044
  0
VERTEX
  8
0
  6
CONTINUOUS
 62
3
 10
-149.979950114120130
 20
-74.259987949226272
  0
VERTEX
  8
0
  6
CONTINUOUS
 62
3
 10
-150.896874627595930
 20
-74.329223167327044
  0
VERTEX
  8
0
  6
CONTINUOUS
 62
3
 10
-151.778562246236050
 20
-74.534268151025287
  0
VERTEX
  8
0
  6
CONTINUOUS
 62
3
 10
-152.591130209312240
 20
-74.867243136588058
  0
VERTEX
  8
0
  6
CONTINUOUS
 62
3
 10
-153.303351985696910
 20
-75.315352082054673
  0
VERTEX
  8
0
  6
CONTINUOUS
 62
3
 10
-153.887857291942080
 20
-75.861374411953250
  0
VERTEX
  8
0
  6
CONTINUOUS
 62
3
 10
-154.322183916923170
 20
-76.484326794358651
  0
VERTEX
  8
0
  6
CONTINUOUS
 62
3
 10
-154.589640932015300
 20
-77.160269518570743
  0
VERTEX
  8
0
  6
CONTINUOUS
 62
3
 10
-154.679950114120120
 20
-77.863226484771104
  0
VERTEX
  8
0
  6
CONTINUOUS
 62
3
 10
-154.589640932015300
 20
-78.566183450971465
  0
VERTEX
  8
0
  6
CONTINUOUS
 62
3
 10
-154.322183916923170
 20
-79.242126175183557
  0
VERTEX
  8
0
  6
CONTINUOUS
 62
3
 10
-153.887857291942080
 20
-79.865078557588959
  0
VERTEX
  8
0
  6
CONTINUOUS
 62
3
 10
-153.303351985696880
 20
-80.411100887487535
  0
VERTEX
  8
0
  6
CONTINUOUS
 62
3
 10
-152.591130209312240
 20
-80.859209832954150
  0
VERTEX
  8
0
  6
CONTINUOUS
 62
3
 10
-151.778562246236050
 20
-81.192184818516921
  0
VERTEX
  8
0
  6
CONTINUOUS
 62
3
 10
-150.896874627595930
 20
-81.397229802215165
  0
VERTEX
  8
0
  6
CONTINUOUS
 62
3
 10
-149.979950114120130
 20
-81.466465020315937
  0
VERTEX
  8
0
  6
CONTINUOUS
 62
3
 10
-149.063025600644320
 20
-81.397229802215165
  0
VERTEX
  8
0
  6
CONTINUOUS
 62
3
 10
-148.181337982004210
 20
-81.192184818516921
  0
VERTEX
  8
0
  6
CONTINUOUS
 62
3
 10
-147.368770018928020
 20
-80.859209832954150
  0
VERTEX
  8
0
  6
CONTINUOUS
 62
3
 10
-146.656548242543380
 20
-80.411100887487535
  0
VERTEX
  8
0
  6
CONTINUOUS
 62
3
 10
-146.072042936298170
 20
-79.865078557588959
  0
VERTEX
  8
0
  6
CONTINUOUS
 62
3
 10
-145.637716311317090
 20
-79.242126175183557
  0
VERTEX
  8
0
  6
CONTINUOUS
 62
3
 10
-145.370259296224960
 20
-78.566183450971465
  0
SEQEND
  8
0
  6
CONTINUOUS
 62
3
  0
LINE
  8
0
  6
CONTINUOUS
 62
3
 10
-151.979950114120360
 20
-74.870850930770786
 11
-149.979950114120360
 21
-76.046636416393568
  0
LINE
  8
0
  6
CONTINUOUS
 62
3
 10
-149.979950114120360
 20
-76.046636416393568
 11
-147.979950114120360
 21
-77.699278055516999
  0
LINE
  8
0
  6
CONTINUOUS
 62
3
 10
-147.979950114120360
 20
-74.870850930770786
 11
-149.979950114120360
 21
-76.046636416393568
  0
LINE
  8
0
  6
CONTINUOUS
 62
3
 10
-149.979950114120360
 20
-76.046636416393568
 11
-151.979950114120360
 21
-77.699278055516999
  0
POLYLINE
  8
0
  6
CONTINUOUS
 62
3
 66
1
 70
1
  0
VERTEX
  8
0
  6
CONTINUOUS
 62
3
 10
-145.279950114120140
 20
-172.517888393466390
  0
VERTEX
  8
0
  6
CONTINUOUS
 62
3
 10
-145.370259296224960
 20
-171.814931427266030
  0
VERTEX
  8
0
  6
CONTINUOUS
 62
3
 10
-145.637716311317090
 20
-171.138988703053940
  0
VERTEX
  8
0
  6
CONTINUOUS
 62
3
 10
-146.072042936298170
 20
-170.516036320648540
  0
VERTEX
  8
0
  6
CONTINUOUS
 62
3
 10
-146.656548242543350
 20
-169.970013990749980
  0
VERTEX
  8
0
  6
CONTINUOUS
 62
3
 10
-147.368770018928020
 20
-169.521905045283350
  0
VERTEX
  8
0
  6
CONTINUOUS
 62
3
 10
-148.181337982004210
 20
-169.188930059720600
  0
VERTEX
  8
0
  6
CONTINUOUS
 62
3
 10
-149.063025600644320
 20
-168.983885076022350
  0
VERTEX
  8
0
  6
CONTINUOUS
 62
3
 10
-149.979950114120130
 20
-168.914649857921570
  0
VERTEX
  8
0
  6
CONTINUOUS
 62
3
 10
-150.896874627595930
 20
-168.983885076022350
  0
VERTEX
  8
0
  6
CONTINUOUS
 62
3
 10
-151.778562246236050
 20
-169.188930059720600
  0
VERTEX
  8
0
  6
CONTINUOUS
 62
3
 10
-152.591130209312240
 20
-169.521905045283350
  0
VERTEX
  8
0
  6
CONTINUOUS
 62
3
 10
-153.303351985696910
 20
-169.970013990749980
  0
VERTEX
  8
0
  6
CONTINUOUS
 62
3
 10
-153.887857291942080
 20
-170.516036320648540
  0
VERTEX
  8
0
  6
CONTINUOUS
 62
3
 10
-154.322183916923170
 20
-171.138988703053940
  0
VERTEX
  8
0
  6
CONTINUOUS
 62
3
 10
-154.589640932015300
 20
-171.814931427266030
  0
VERTEX
  8
0
  6
CONTINUOUS
 62
3
 10
-154.679950114120120
 20
-172.517888393466390
  0
VERTEX
  8
0
  6
CONTINUOUS
 62
3
 10
-154.589640932015300
 20
-173.220845359666750
  0
VERTEX
  8
0
  6
CONTINUOUS
 62
3
 10
-154.322183916923170
 20
-173.896788083878850
  0
VERTEX
  8
0
  6
CONTINUOUS
 62
3
 10
-153.887857291942080
 20
-174.519740466284250
  0
VERTEX
  8
0
  6
CONTINUOUS
 62
3
 10
-153.303351985696880
 20
-175.065762796182810
  0
VERTEX
  8
0
  6
CONTINUOUS
 62
3
 10
-152.591130209312240
 20
-175.513871741649440
  0
VERTEX
  8
0
  6
CONTINUOUS
 62
3
 10
-151.778562246236050
 20
-175.846846727212180
  0
VERTEX
  8
0
  6
CONTINUOUS
 62
3
 10
-150.896874627595930
 20
-176.051891710910440
  0
VERTEX
  8
0
  6
CONTINUOUS
 62
3
 10
-149.979950114120130
 20
-176.121126929011210
  0
VERTEX
  8
0
  6
CONTINUOUS
 62
3
 10
-149.063025600644320
 20
-176.051891710910440
  0
VERTEX
  8
0
  6
CONTINUOUS
 62
3
 10
-148.181337982004210
 20
-175.846846727212180
  0
VERTEX
  8
0
  6
CONTINUOUS
 62
3
 10
-147.368770018928020
 20
-175.513871741649440
  0
VERTEX
  8
0
  6
CONTINUOUS
 62
3
 10
-146.656548242543380
 20
-175.065762796182810
  0
VERTEX
  8
0
  6
CONTINUOUS
 62
3
 10
-146.072042936298170
 20
-174.519740466284250
  0
VERTEX
  8
0
  6
CONTINUOUS
 62
3
 10
-145.637716311317090
 20
-173.896788083878850
  0
VERTEX
  8
0
  6
CONTINUOUS
 62
3
 10
-145.370259296224960
 20
-173.220845359666750
  0
SEQEND
  8
0
  6
CONTINUOUS
 62
3
  0
LINE
  8
0
  6
CONTINUOUS
 62
3
 10
-151.979950114120360
 20
-175.510263947466710
 11
-149.979950114120360
 21
-174.334478461843930
  0
LINE
  8
0
  6
CONTINUOUS
 62
3
 10
-149.979950114120360
 20
-174.334478461843930
 11
-147.979950114120360
 21
-172.681836822720500
  0
LINE
  8
0
  6
CONTINUOUS
 62
3
 10
-147.979950114120360
 20
-175.510263947466710
 11
-149.979950114120360
 21
-174.334478461843930
  0
LINE
  8
0
  6
CONTINUOUS
 62
3
 10
-149.979950114120360
 20
-174.334478461843930
 11
-151.979950114120360
 21
-172.681836822720500
  0
LINE
  8
0
  6
CONTINUOUS
 62
3
 10
-138.979950114120360
 20
-71.190557439118521
 11
-216.484795063213140
 21
-71.190557439118521
  0
LINE
  8
0
  6
CONTINUOUS
 62
3
 10
-138.979950114120360
 20
-71.190557439118521
 11
-138.979950114120360
 21
-84.190557439118749
  0
LINE
  8
0
  6
CONTINUOUS
 62
3
 10
-138.979950114120360
 20
-179.190557439118980
 11
-138.979950114120360
 21
-166.190557439118750
  0
LINE
  8
0
  6
CONTINUOUS
 62
3
 10
-138.979950114120360
 20
-179.190557439118980
 11
-216.484795063213140
 21
-179.190557439118980
  0
ENDSEC
  0
EOF
