  0
SECTION
  2
HEADER
  9
$TEXTSIZE
 40
2.5
  9
$ACADVER
  1
AC1009
  9
$DIMASZ
 40
3.863703297614046
  9
$DIMEXE
 40
2.000000000000000
  9
$DIMEXO
 40
1.000000000000000
  9
$DIMLFAC
 40
1.000000000000000
  9
$DIMSCALE
 40
1.000000000000000
  9
$DIMTAD
 70
1
  9
$DIMTFAC
 40
0.625000000000000
  9
$DIMTXT
 40
3.200000047683716
  9
$LUPREC
 70
3
  9
$REGENMODE
 70
1
  9
$TEXTSTYLE
  7
STANDARD1
  0
ENDSEC
  0
SECTION
  2
TABLES
  0
TABLE
  2
LTYPE
 70
4
  0
LTYPE
  2
CONTINUOUS
 70
64
  3
Solid line
 72
65
 73
0
 40
0.0
  0
LTYPE
  2
DASHED
 70
64
  3
-- -- -- -- -- -- -- -- -- -- -- -- -- -- --
 72
65
 73
2
 40
0.75
 49
0.5
 49
-0.25
  0
LTYPE
  2
DASHDOT
 70
64
  3
__ . __ . __ . __ . __ . __ . __ . __ . __ . __
 72
65
 73
4
 40
1.0
 49
0.5
 49
-0.25
 49
0.0
 49
-0.25
  0
LTYPE
  2
DIVIDE
 70
64
  3
__ . . __ . . __ . . __ . . __ . . __ . . __
 72
65
 73
6
 40
1.25
 49
0.5
 49
-0.25
 49
0.0
 49
-0.25
 49
0.0
 49
-0.25
  0
ENDTAB
  0
TABLE
  2
LAYER
 70
1
  0
LAYER
  2
0
 70
64
 62
2
  6
CONTINUOUS
  0
ENDTAB
  0
TABLE
  2
STYLE
 70
4
  0
STYLE
  2
STANDARD1
 70
64
 40
0.0
 41
1.0
 50
0.0
 71
0
 42
3.200000047683716
  3
MONOTXT
  4
BIGFONT
  0
STYLE
  2
STANDARD2
 70
68
 40
0.0
 41
1.0
 50
0.0
 71
0
 42
3.200000047683716
  3
MONOTXT
  4
BIGFONT
  0
STYLE
  2
STANDARD3
 70
64
 40
0.0
 41
1.0
 50
0.0
 71
0
 42
3.200000047683716
  3
MONOTXT
  4

  0
STYLE
  2
STANDARD4
 70
68
 40
0.0
 41
1.0
 50
0.0
 71
0
 42
3.200000047683716
  3
MONOTXT
  4

  0
ENDTAB
  0
TABLE
  2
VIEW
 70
0
  0
ENDTAB
  0
ENDSEC
  0
SECTION
  2
BLOCKS
  0
BLOCK
  8
0
  2
ZU_SYM_1
 70
64
 10
0.000000000000000
 20
0.000000000000000
  0
LINE
  8
0
  6
CONTINUOUS
 62
256
 10
0.000000000000000
 20
-4.249999046325684
 11
-5.000000000000000
 21
-4.249999046325684
  0
LINE
  8
0
  6
CONTINUOUS
 62
256
 10
0.000000000000000
 20
4.249999046325684
 11
-5.000000000000000
 21
4.249999046325684
  0
LINE
  8
0
  6
CONTINUOUS
 62
256
 10
-5.000000000000000
 20
-4.249999046325684
 11
-5.000000000000000
 21
4.249999046325684
  0
LINE
  8
0
  6
CONTINUOUS
 62
256
 10
0.000000000000000
 20
-4.249999046325684
 11
0.000000000000000
 21
4.249999046325684
  0
POINT
  8
0
  6
CONTINUOUS
 62
256
 10
0.000000000000000
 20
0.000000000000000
  0
ENDBLK
  8
0
  0
BLOCK
  8
0
  2
ZU_SYM_2
 70
64
 10
0.000000000000000
 20
0.000000000000000
  0
ARC
  8
0
  6
CONTINUOUS
 62
256
 10
-0.979025304317474
 20
-2.200000762939453
 40
1.299999237060547
 50
196.601531107481040
 51
270.000000000000000
  0
ARC
  8
0
  6
CONTINUOUS
 62
256
 10
-0.979025304317474
 20
2.200000762939453
 40
1.299999237060547
 50
90.000000000000000
 51
163.398451589674950
  0
LINE
  8
0
  6
CONTINUOUS
 62
256
 10
0.000000000000000
 20
-3.500000000000000
 11
-0.979025304317474
 21
-3.500000000000000
  0
LINE
  8
0
  6
CONTINUOUS
 62
256
 10
0.000000000000000
 20
3.500000000000000
 11
-0.979025304317474
 21
3.500000000000000
  0
LINE
  8
0
  6
CONTINUOUS
 62
256
 10
0.000000000000000
 20
-3.500000000000000
 11
0.000000000000000
 21
3.500000000000000
  0
LINE
  8
0
  6
CONTINUOUS
 62
256
 10
0.000000000000000
 20
-3.500000000000000
 11
0.000000000000000
 21
3.500000000000000
  0
POINT
  8
0
  6
CONTINUOUS
 62
256
 10
0.000000000000000
 20
0.000000000000000
  0
ARC
  8
0
  6
CONTINUOUS
 62
256
 10
6.399999618530273
 20
0.000000000000000
 40
9.000000000000000
 50
163.398451589674950
 51
196.601531107481040
  0
ENDBLK
  8
0
  0
BLOCK
  8
0
  2
ZU_SYM_3
 70
64
 10
0.000000000000000
 20
0.000000000000000
  0
ARC
  8
0
  6
CONTINUOUS
 62
256
 10
-0.979025304317474
 20
-2.200000762939453
 40
1.299999237060547
 50
196.601531107481040
 51
270.000000000000000
  0
ARC
  8
0
  6
CONTINUOUS
 62
256
 10
-0.979025304317474
 20
2.200000762939453
 40
1.299999237060547
 50
90.000000000000000
 51
163.398451589674950
  0
LINE
  8
0
  6
CONTINUOUS
 62
256
 10
0.000000000000000
 20
-3.500000000000000
 11
-0.979025304317474
 21
-3.500000000000000
  0
LINE
  8
0
  6
CONTINUOUS
 62
256
 10
0.000000000000000
 20
3.500000000000000
 11
-0.979025304317474
 21
3.500000000000000
  0
LINE
  8
0
  6
CONTINUOUS
 62
256
 10
0.000000000000000
 20
-3.500000000000000
 11
0.000000000000000
 21
3.500000000000000
  0
LINE
  8
0
  6
CONTINUOUS
 62
256
 10
0.000000000000000
 20
-3.500000000000000
 11
0.000000000000000
 21
3.500000000000000
  0
POINT
  8
0
  6
CONTINUOUS
 62
256
 10
0.000000000000000
 20
0.000000000000000
  0
ARC
  8
0
  6
CONTINUOUS
 62
256
 10
6.399999618530273
 20
0.000000000000000
 40
9.000000000000000
 50
163.398451589674950
 51
196.601531107481040
  0
ENDBLK
  8
0
  0
ENDSEC
  0
SECTION
  2
ENTITIES
  0
LINE
  8
0
  6
CONTINUOUS
 62
256
 10
67.579083178584369
 20
-129.593548287321250
 11
86.079083178596193
 21
-129.593548287321250
  0
LINE
  8
0
  6
CONTINUOUS
 62
256
 10
67.579083178584369
 20
-128.592069923505960
 11
86.079083178596193
 21
-128.592069923505960
  0
LINE
  8
0
  6
CONTINUOUS
 62
256
 10
67.579083178584369
 20
-121.855235468490490
 11
86.079083178596193
 21
-121.855235468490490
  0
LINE
  8
0
  6
CONTINUOUS
 62
256
 10
67.579083178584369
 20
-120.266025675751730
 11
86.079083178596193
 21
-120.266025675751730
  0
LINE
  8
0
  6
CONTINUOUS
 62
256
 10
67.579083178584369
 20
-117.308030067618800
 11
86.079083178596193
 21
-117.308030067618800
  0
LINE
  8
0
  6
CONTINUOUS
 62
256
 10
67.579083178584369
 20
-115.829006914141700
 11
86.079083178596193
 21
-115.829006914141700
  0
LINE
  8
0
  6
CONTINUOUS
 62
256
 10
67.579083178584369
 20
-112.736275922476350
 11
86.079083178596193
 21
-112.736275922476350
  0
LINE
  8
0
  6
CONTINUOUS
 62
256
 10
67.579083178584369
 20
-111.389874196977870
 11
86.079083178596193
 21
-111.389874196977870
  0
LINE
  8
0
  6
CONTINUOUS
 62
256
 10
67.579083178584369
 20
-108.551634516981720
 11
86.079083178596193
 21
-108.551634516981720
  0
LINE
  8
0
  6
CONTINUOUS
 62
256
 10
67.579083178584369
 20
-48.511199110457255
 11
86.079083178596193
 21
-48.511199110457255
  0
LINE
  8
0
  6
CONTINUOUS
 62
256
 10
67.579083178584369
 20
-47.509720746641960
 11
86.079083178596193
 21
-47.509720746641960
  0
LINE
  8
0
  6
CONTINUOUS
 62
256
 10
67.579083178584369
 20
-68.551634516981721
 11
83.079083178596193
 21
-68.551634516981721
  0
LINE
  8
0
  6
CONTINUOUS
 62
256
 10
67.579083178584369
 20
-65.713394836985572
 11
83.079083178596193
 21
-65.713394836985572
  0
LINE
  8
0
  6
CONTINUOUS
 62
256
 10
67.579083178584369
 20
-64.366993111487091
 11
83.079083178596193
 21
-64.366993111487091
  0
LINE
  8
0
  6
CONTINUOUS
 62
256
 10
67.579083178584369
 20
-61.274262119821742
 11
86.079083178596193
 21
-61.274262119821742
  0
LINE
  8
0
  6
CONTINUOUS
 62
256
 10
67.579083178584369
 20
-59.795238966344641
 11
86.079083178596193
 21
-59.795238966344641
  0
LINE
  8
0
  6
CONTINUOUS
 62
256
 10
67.579083178584369
 20
-56.837243358211708
 11
86.079083178596193
 21
-56.837243358211708
  0
LINE
  8
0
  6
CONTINUOUS
 62
256
 10
67.579083178584369
 20
-55.248033565472952
 11
86.079083178596193
 21
-55.248033565472952
  0
LINE
  8
0
  6
CONTINUOUS
 62
256
 10
67.579083178584369
 20
-44.046978989876834
 11
86.079083178596193
 21
-44.046978989876834
  0
LINE
  8
0
  6
CONTINUOUS
 62
256
 10
67.579083178584369
 20
-42.418551922098914
 11
83.079083941535657
 21
-42.418551922098914
  0
LINE
  8
0
  6
CONTINUOUS
 62
256
 10
67.579083178584369
 20
-38.051634516981721
 11
83.079083941535657
 21
-38.051634516981721
  0
LINE
  8
0
  6
CONTINUOUS
 62
256
 10
66.579083178584142
 20
-88.551634516981721
 11
66.579083178584142
 21
-36.051634516981721
  0
LINE
  8
0
  6
CONTINUOUS
 62
256
 10
93.579083178596193
 20
-31.569094901727112
 11
106.579083178594810
 21
-32.023064905120009
  0
LINE
  8
0
  6
CONTINUOUS
 62
256
 10
93.579083178596193
 20
-31.569094901727112
 11
93.579083178596193
 21
-73.551634516981721
  0
LINE
  8
0
  6
CONTINUOUS
 62
256
 10
93.579083178596193
 20
-125.646174282052930
 11
93.579083178596193
 21
-73.551634516981721
  0
LINE
  8
0
  6
CONTINUOUS
 62
256
 10
143.579083178596190
 20
-130.846100014602600
 11
143.579083178596190
 21
-73.551634516981721
  0
LINE
  8
0
  6
CONTINUOUS
 62
256
 10
145.579083178596190
 20
-134.008377674770600
 11
145.579083178596190
 21
-143.051634516981720
  0
LINE
  8
0
  6
CONTINUOUS
 62
256
 10
143.122714194689250
 20
-131.508758436880270
 11
95.579083178596193
 21
-130.678881270570860
  0
LINE
  8
0
  6
DASHDOT
 62
256
 10
135.579083178596190
 20
-145.509482414578090
 11
135.579083178596190
 21
-130.275171051041070
  0
LINE
  8
0
  6
CONTINUOUS
 62
256
 10
89.146344543345094
 20
-130.288447951905250
 11
95.025564324144398
 21
-124.131318142664900
  0
LINE
  8
0
  6
CONTINUOUS
 62
256
 10
95.579083178597102
 20
-130.678881270570860
 11
68.006384498475654
 21
-131.481020013417040
  0
LINE
  8
0
  6
CONTINUOUS
 62
256
 10
143.579083178596190
 20
-51.108843137471922
 11
143.579083178596190
 21
-73.551634516981721
  0
LINE
  8
0
  6
CONTINUOUS
 62
256
 10
65.579083178596193
 20
-143.051634516981720
 11
65.579083178596193
 21
-134.029912543469440
  0
LINE
  8
0
  6
CONTINUOUS
 62
256
 10
145.579083178596190
 20
-73.551634516981721
 11
145.579083178596190
 21
-92.551634516981721
  0
LINE
  8
0
  6
CONTINUOUS
 62
256
 10
145.579083178596190
 20
-73.551634516981721
 11
145.579083178596190
 21
-54.551634516981721
  0
LINE
  8
0
  6
CONTINUOUS
 62
256
 10
143.579083178596190
 20
-143.551634516981720
 11
67.579083178596193
 21
-143.551634516981720
  0
LINE
  8
0
  6
DASHDOT
 62
256
 10
75.579083178596193
 20
-145.509482414578090
 11
75.579083178596193
 21
-128.474201001186880
  0
LINE
  8
0
  6
CONTINUOUS
 62
256
 10
95.579083178596193
 20
-122.750125797053440
 11
95.579083178596193
 21
-110.985617038370020
  0
LINE
  8
0
  6
CONTINUOUS
 62
256
 10
143.579083178596190
 20
-143.551634516981720
 11
143.579083178596190
 21
-143.051634516981720
  0
LINE
  8
0
  6
CONTINUOUS
 62
256
 10
143.579083178596190
 20
-143.051634516981720
 11
145.579083178596190
 21
-143.051634516981720
  0
LINE
  8
0
  6
CONTINUOUS
 62
256
 10
65.579083178596193
 20
-143.051634516981720
 11
67.579083178596193
 21
-143.051634516981720
  0
LINE
  8
0
  6
CONTINUOUS
 62
256
 10
67.579083178596193
 20
-143.551634516981720
 11
67.579083178596193
 21
-143.051634516981720
  0
LINE
  8
0
  6
CONTINUOUS
 62
256
 10
141.233819411274450
 20
-129.510393129561630
 11
141.233819411274450
 21
-74.079233089138143
  0
LINE
  8
0
  6
CONTINUOUS
 62
256
 10
125.633819411274080
 20
-129.238094116681170
 11
125.633819411274080
 21
-74.079232472981857
  0
LINE
  8
0
  6
CONTINUOUS
 62
256
 10
86.079083178596193
 20
-83.801259797207422
 11
86.079083178596193
 21
-130.955253131935020
  0
LINE
  8
0
  6
DASHDOT
 62
256
 10
185.182636196948810
 20
-73.551634516981721
 11
115.841668798891530
 21
-73.551634516981721
  0
LINE
  8
0
  6
CONTINUOUS
 62
256
 10
88.079083178596193
 20
-32.138612239544273
 11
88.079083178596193
 21
-36.545016231951195
  0
LINE
  8
0
  6
CONTINUOUS
 62
256
 10
93.079083178596193
 20
-31.559988283345774
 11
93.079083178596193
 21
-126.169809223321860
  0
LINE
  8
0
  6
CONTINUOUS
 62
256
 10
87.079083178596193
 20
-36.945016231950831
 11
87.679083178596102
 21
-36.945016231950831
  0
LINE
  8
0
  6
CONTINUOUS
 62
256
 10
67.579083178584369
 20
-38.051634516981721
 11
67.579083178584369
 21
-131.530473027465630
  0
LINE
  8
0
  6
CONTINUOUS
 62
256
 10
86.079083178596193
 20
-37.945016231950831
 11
86.079083178596193
 21
-75.301261704556055
  0
LINE
  8
0
  6
CONTINUOUS
 62
256
 10
172.579083178572550
 20
-73.551634516981721
 11
172.579083178572550
 21
-65.951634516981358
  0
LINE
  8
0
  6
CONTINUOUS
 62
256
 10
88.079083178596193
 20
-74.701634516981358
 11
88.079083178596193
 21
-84.401634516982085
  0
LINE
  8
0
  6
CONTINUOUS
 62
256
 10
87.079083178596193
 20
-84.801634516981721
 11
87.679083178596102
 21
-84.801634516981721
  0
LINE
  8
0
  6
CONTINUOUS
 62
256
 10
87.079083178596193
 20
-74.301634516981721
 11
87.679083178596102
 21
-74.301634516981721
  0
LINE
  8
0
  6
CONTINUOUS
 62
256
 10
83.579083178596193
 20
-72.551634516981721
 11
85.579083178596193
 21
-72.551634516981721
  0
LINE
  8
0
  6
CONTINUOUS
 62
256
 10
83.079083178596193
 20
-72.051634516981721
 11
83.079083178596193
 21
-67.551634516981721
  0
LINE
  8
0
  6
CONTINUOUS
 62
256
 10
83.579083178596193
 20
-62.551634516981721
 11
85.579083178596193
 21
-62.551634516981721
  0
LINE
  8
0
  6
CONTINUOUS
 62
256
 10
83.079083178596193
 20
-63.051634516981721
 11
83.079083178596193
 21
-67.551634516981721
  0
LINE
  8
0
  6
CONTINUOUS
 62
256
 10
66.579083178584369
 20
-36.051634516981721
 11
66.579083178583915
 21
-131.979962770255950
  0
LINE
  8
0
  6
CONTINUOUS
 62
256
 10
68.026818946950698
 20
-37.554373569297240
 11
83.079083941535657
 21
-36.765517787751492
  0
LINE
  8
0
  6
CONTINUOUS
 62
256
 10
86.079083178596193
 20
-32.173522369400416
 11
86.079083178596193
 21
-35.301635470656038
  0
LINE
  8
0
  6
CONTINUOUS
 62
256
 10
83.087060945062092
 20
-35.606264945137809
 11
66.579083178584369
 21
-36.038541556196833
  0
LINE
  8
0
  6
CONTINUOUS
 62
256
 10
86.570356975377763
 20
-31.673598521822896
 11
93.079083178596193
 21
-31.559988283345774
  0
LINE
  8
0
  6
CONTINUOUS
 62
256
 10
172.579083178572550
 20
-73.551634516981721
 11
172.579083178572550
 21
-81.151634516982085
  0
LINE
  8
0
  6
CONTINUOUS
 62
256
 10
147.579083178572550
 20
-73.551634516981721
 11
147.579083178572550
 21
-81.751641955643208
  0
LINE
  8
0
  6
CONTINUOUS
 62
256
 10
172.179083178572450
 20
-81.551634516981721
 11
150.698698420842900
 21
-81.551634516981721
  0
LINE
  8
0
  6
CONTINUOUS
 62
256
 10
150.138890799707500
 20
-81.401634516982085
 11
147.979083178572180
 21
-81.401634516982085
  0
LINE
  8
0
  6
CONTINUOUS
 62
256
 10
150.138890799707500
 20
-81.401634516982085
 11
150.698698420842900
 21
-81.551634516981721
  0
LINE
  8
0
  6
CONTINUOUS
 62
256
 10
147.279083178572360
 20
-82.051641955642481
 11
147.582690650321640
 21
-81.748034483893207
  0
LINE
  8
0
  6
CONTINUOUS
 62
256
 10
145.579083178596190
 20
-82.051641955642481
 11
147.279083178572360
 21
-82.051641955642481
  0
LINE
  8
0
  6
CONTINUOUS
 62
256
 10
147.579083178572550
 20
-73.551634516981721
 11
147.579083178572550
 21
-65.351627078320234
  0
LINE
  8
0
  6
CONTINUOUS
 62
256
 10
172.179083178572450
 20
-65.551634516981721
 11
150.698698420842900
 21
-65.551634516981721
  0
LINE
  8
0
  6
CONTINUOUS
 62
256
 10
145.579083178596190
 20
-65.051627078320053
 11
147.279083178572360
 21
-65.051627078320053
  0
LINE
  8
0
  6
CONTINUOUS
 62
256
 10
150.138890799707500
 20
-65.701634516981358
 11
147.979083178572180
 21
-65.701634516981358
  0
LINE
  8
0
  6
CONTINUOUS
 62
256
 10
150.138890799707500
 20
-65.701634516981358
 11
150.698698420842900
 21
-65.551634516981721
  0
LINE
  8
0
  6
CONTINUOUS
 62
256
 10
147.279083178572360
 20
-65.051627078320053
 11
147.582690650321640
 21
-65.355234550069326
  0
LINE
  8
0
  6
CONTINUOUS
 62
256
 10
172.579083178572550
 20
-71.051634516981721
 11
151.079083178572550
 21
-71.051634516981721
  0
LINE
  8
0
  6
CONTINUOUS
 62
256
 10
172.579083178572550
 20
-76.051634516981721
 11
151.079083178572550
 21
-76.051634516981721
  0
ARC
  8
0
  6
CONTINUOUS
 62
256
 10
144.579083178596190
 20
-130.846100014602600
 40
1.000000000000000
 50
180.000000000000000
 51
244.623066474844900
  0
ARC
  8
0
  6
CONTINUOUS
 62
256
 10
143.079083178596190
 20
-134.008377674770600
 40
2.500000000000000
 50
0.000000000000000
 51
89.000000000003439
  0
ARC
  8
0
  6
CONTINUOUS
 62
256
 10
87.699863397797344
 20
-128.907255606294710
 40
1.999999999999826
 50
271.666365925982290
 51
316.322680344548870
  0
ARC
  8
0
  6
CONTINUOUS
 62
256
 10
93.579083178596193
 20
-122.750125797053440
 40
2.000000000000529
 50
316.322680344538920
 51
0.000000000000000
  0
ARC
  8
0
  6
CONTINUOUS
 62
256
 10
68.079083178596193
 20
-133.979962770245950
 40
2.499999999999789
 50
91.666365925987520
 51
180.000000000000000
  0
ARC
  8
0
  6
CONTINUOUS
 62
256
 10
104.834108343469320
 20
-81.992606256075305
 40
50.000000000000121
 50
40.046696754629615
 51
87.999999999999503
  0
ARC
  8
0
  6
CONTINUOUS
 62
256
 10
141.579083178594830
 20
-51.108843137471922
 40
2.000000000000000
 50
0.000000000000000
 51
40.046696754630069
  0
ARC
  8
0
  6
CONTINUOUS
 62
256
 10
144.579083178596190
 20
-54.551634516981721
 40
1.000000000000000
 50
0.000000000000000
 51
90.000000000000000
  0
ARC
  8
0
  6
CONTINUOUS
 62
256
 10
144.579083178596190
 20
-52.551634516981721
 40
1.000000000000000
 50
180.000000000000000
 51
270.000000000000000
  0
ARC
  8
0
  6
CONTINUOUS
 62
256
 10
144.579083178596190
 20
-92.551634516981721
 40
1.000000000000000
 50
270.000000000000000
 51
0.000000000000000
  0
ARC
  8
0
  6
CONTINUOUS
 62
256
 10
144.579083178596190
 20
-94.551634516981721
 40
1.000000000000000
 50
90.000000000000000
 51
180.000000000000000
  0
ARC
  8
0
  6
CONTINUOUS
 62
256
 10
93.579083178596193
 20
-110.985617038370020
 40
2.000000000000000
 50
0.000000000000000
 51
88.499999999997286
  0
ARC
  8
0
  6
CONTINUOUS
 62
256
 10
127.633819411274080
 20
-129.238094116681170
 40
2.000000000000000
 50
180.000000000000000
 51
268.999999999998240
  0
ARC
  8
0
  6
CONTINUOUS
 62
256
 10
143.233819411274450
 20
-129.510393129561630
 40
2.000000000000000
 50
180.000000000000000
 51
268.999999999998240
  0
ARC
  8
0
  6
CONTINUOUS
 62
256
 10
88.579083178596193
 20
-32.138612239544273
 40
0.499999999999321
 50
90.999999999977078
 51
180.000000000000000
  0
ARC
  8
0
  6
CONTINUOUS
 62
256
 10
87.679083178596102
 20
-36.545016231951195
 40
0.399999999999636
 50
270.000000000000000
 51
0.000000000000000
  0
ARC
  8
0
  6
CONTINUOUS
 62
256
 10
87.079083178596193
 20
-37.945016231950831
 40
1.000000000000000
 50
90.000000000000000
 51
180.000000000000000
  0
ARC
  8
0
  6
CONTINUOUS
 62
256
 10
87.679083178596102
 20
-84.401634516982085
 40
0.399999999999636
 50
270.000000000000000
 51
0.000000000000000
  0
ARC
  8
0
  6
CONTINUOUS
 62
256
 10
87.079083178596193
 20
-85.801634516981721
 40
1.000000000000000
 50
90.000000000000000
 51
180.000000000000000
  0
ARC
  8
0
  6
CONTINUOUS
 62
256
 10
87.679083178596102
 20
-74.701634516981358
 40
0.400000000000091
 50
0.000000000000000
 51
90.000000000000000
  0
ARC
  8
0
  6
CONTINUOUS
 62
256
 10
87.079083178596193
 20
-73.301634516981721
 40
1.000000000000000
 50
180.000000000000000
 51
270.000000000000000
  0
ARC
  8
0
  6
CONTINUOUS
 62
256
 10
83.579083178596193
 20
-72.051634516981721
 40
0.500000000000000
 50
180.000000000000000
 51
270.000000000000000
  0
ARC
  8
0
  6
CONTINUOUS
 62
256
 10
85.579083178596193
 20
-73.051634516981721
 40
0.500000000000000
 50
0.000000000000000
 51
90.000000000000000
  0
ARC
  8
0
  6
CONTINUOUS
 62
256
 10
85.579083178596193
 20
-62.051634516981721
 40
0.500000000000000
 50
270.000000000000000
 51
0.000000000000000
  0
ARC
  8
0
  6
CONTINUOUS
 62
256
 10
83.579083178596193
 20
-63.051634516981721
 40
0.500000000000000
 50
90.000000000000000
 51
180.000000000000000
  0
ARC
  8
0
  6
CONTINUOUS
 62
256
 10
68.079083178584369
 20
-38.051634516981721
 40
0.500000000000000
 50
90.000000000000000
 51
180.000000000000000
  0
ARC
  8
0
  6
CONTINUOUS
 62
256
 10
85.079083178596193
 20
-34.553759214675665
 40
1.000000000000499
 50
311.593253995556780
 51
0.000000000000000
  0
ARC
  8
0
  6
CONTINUOUS
 62
256
 10
86.579083178596193
 20
-32.173522369400416
 40
0.499999999999321
 50
90.999999999977078
 51
180.000000000000000
  0
ARC
  8
0
  6
CONTINUOUS
 62
256
 10
172.179083178572450
 20
-81.151634516982085
 40
0.399999999999636
 50
270.000000000000000
 51
0.000000000000000
  0
ARC
  8
0
  6
CONTINUOUS
 62
256
 10
147.979083178572180
 20
-81.801634516981721
 40
0.399999999999636
 50
90.000000000000000
 51
172.299196497413900
  0
ARC
  8
0
  6
CONTINUOUS
 62
256
 10
172.179083178572450
 20
-65.951634516981358
 40
0.400000000000091
 50
0.000000000000000
 51
90.000000000000000
  0
ARC
  8
0
  6
CONTINUOUS
 62
256
 10
147.979083178572180
 20
-65.301634516981721
 40
0.399999999999814
 50
187.700803502457570
 51
270.000000000000000
  0
ARC
  8
0
  6
CONTINUOUS
 62
256
 10
151.079083178572550
 20
-73.551634516981721
 40
2.500000000000000
 50
90.000000000000000
 51
270.000000000000000
  0
LINE
  8
0
  6
CONTINUOUS
 62
256
 10
125.766629172800080
 20
-71.573072956445117
 11
125.633819411274260
 21
-74.079233705295337
  0
LINE
  8
0
  6
CONTINUOUS
 62
256
 10
126.160535909603780
 20
-69.152256487553487
 11
125.766629172800080
 21
-71.573072956445117
  0
LINE
  8
0
  6
CONTINUOUS
 62
256
 10
126.802125599817880
 20
-66.899222302383393
 11
126.160535909603780
 21
-69.152256487553487
  0
LINE
  8
0
  6
CONTINUOUS
 62
256
 10
127.669549675417610
 20
-64.890694780094464
 11
126.802125599817880
 21
-66.899222302383393
  0
LINE
  8
0
  6
CONTINUOUS
 62
256
 10
128.733269049021770
 20
-63.195071918456520
 11
127.669549675417610
 21
-64.890694780094464
  0
LINE
  8
0
  6
CONTINUOUS
 62
256
 10
129.957060032114240
 20
-61.870096122003119
 11
128.733269049021770
 21
-63.195071918456520
  0
LINE
  8
0
  6
CONTINUOUS
 62
256
 10
131.299247889346130
 20
-60.960887853643129
 11
129.957060032114240
 21
-61.870096122003119
  0
LINE
  8
0
  6
CONTINUOUS
 62
256
 10
132.714126021705540
 20
-60.498409111368382
 11
131.299247889346130
 21
-60.960887853643129
  0
LINE
  8
0
  6
CONTINUOUS
 62
256
 10
134.153512449972510
 20
-60.498409054516564
 11
132.714126021705540
 21
-60.498409111368382
  0
LINE
  8
0
  6
CONTINUOUS
 62
256
 10
135.568390594280400
 20
-60.960887685023707
 11
134.153512449972510
 21
-60.498409054516564
  0
LINE
  8
0
  6
CONTINUOUS
 62
256
 10
136.910578475002350
 20
-61.870095847358215
 11
135.568390594280400
 21
-60.960887685023707
  0
LINE
  8
0
  6
CONTINUOUS
 62
256
 10
138.134369492326530
 20
-63.195071547138845
 11
136.910578475002350
 21
-61.870095847358215
  0
LINE
  8
0
  6
CONTINUOUS
 62
256
 10
139.198088909738350
 20
-64.890694324748793
 11
138.134369492326530
 21
-63.195071547138845
  0
LINE
  8
0
  6
CONTINUOUS
 62
256
 10
140.065513037229830
 20
-66.899221778515980
 11
139.198088909738350
 21
-64.890694324748793
  0
LINE
  8
0
  6
CONTINUOUS
 62
256
 10
140.707102785652720
 20
-69.152255913003998
 11
140.065513037229830
 21
-66.899221778515980
  0
LINE
  8
0
  6
CONTINUOUS
 62
256
 10
141.101009584999990
 20
-71.573072350779157
 11
140.707102785652720
 21
-69.152255913003998
  0
LINE
  8
0
  6
CONTINUOUS
 62
256
 10
141.233819411274280
 20
-74.079233089138143
 11
141.101009584999990
 21
-71.573072350779157
  0
LINE
  8
0
  6
CONTINUOUS
 62
256
 10
66.579083178584142
 20
-88.551634516981721
 11
66.579083178584142
 21
-36.051634516981721
  0
LINE
  8
0
  6
CONTINUOUS
 62
256
 10
8.279083178584642
 20
-121.855235468490490
 11
66.579083178584142
 21
-121.855235468490490
  0
LINE
  8
0
  6
CONTINUOUS
 62
256
 10
8.279083178584642
 20
-120.266025675751730
 11
66.579083178584142
 21
-120.266025675751730
  0
LINE
  8
0
  6
CONTINUOUS
 62
256
 10
8.279083178584642
 20
-108.551634516981720
 11
66.579083178584142
 21
-108.551634516981720
  0
LINE
  8
0
  6
CONTINUOUS
 62
256
 10
8.279083178584642
 20
-111.389874196977870
 11
66.579083178584142
 21
-111.389874196977870
  0
LINE
  8
0
  6
CONTINUOUS
 62
256
 10
8.279083178584642
 20
-112.736275922476350
 11
66.579083178584142
 21
-112.736275922476350
  0
LINE
  8
0
  6
CONTINUOUS
 62
256
 10
8.279083178584642
 20
-115.829006914141700
 11
66.579083178584142
 21
-115.829006914141700
  0
LINE
  8
0
  6
CONTINUOUS
 62
256
 10
8.279083178584642
 20
-117.308030067618800
 11
66.579083178584142
 21
-117.308030067618800
  0
LINE
  8
0
  6
CONTINUOUS
 62
256
 10
-74.078517167808286
 20
-128.592069923505960
 11
66.579083178584142
 21
-128.592069923505960
  0
LINE
  8
0
  6
CONTINUOUS
 62
256
 10
-73.920916821437004
 20
-129.593548287321250
 11
66.579083178584142
 21
-129.593548287321250
  0
LINE
  8
0
  6
CONTINUOUS
 62
256
 10
-73.920916821437004
 20
-133.056290044086610
 11
65.755975627287057
 21
-133.056290044086610
  0
LINE
  8
0
  6
CONTINUOUS
 62
256
 10
-73.920916821437004
 20
-134.684717111864530
 11
65.579083178596193
 21
-134.684717111864530
  0
LINE
  8
0
  6
CONTINUOUS
 62
256
 10
-73.920916821437004
 20
-139.551634516981950
 11
65.579083178596193
 21
-139.551634516981950
  0
LINE
  8
0
  6
CONTINUOUS
 62
256
 10
-73.920916821437004
 20
-139.051634516981720
 11
65.579083178596193
 21
-139.051634516981720
  0
LINE
  8
0
  6
CONTINUOUS
 62
256
 10
65.579083178596193
 20
-141.051634516981720
 11
-73.920916821437004
 21
-141.051634516981720
  0
LINE
  8
0
  6
CONTINUOUS
 62
256
 10
8.279083178584642
 20
-55.248033565472952
 11
66.579083178584142
 21
-55.248033565472952
  0
LINE
  8
0
  6
CONTINUOUS
 62
256
 10
8.279083178584642
 20
-56.837243358211708
 11
66.579083178584142
 21
-56.837243358211708
  0
LINE
  8
0
  6
CONTINUOUS
 62
256
 10
8.279083178584642
 20
-68.551634516981721
 11
66.579083178584142
 21
-68.551634516981721
  0
LINE
  8
0
  6
CONTINUOUS
 62
256
 10
8.279083178584642
 20
-65.713394836985572
 11
66.579083178584142
 21
-65.713394836985572
  0
LINE
  8
0
  6
CONTINUOUS
 62
256
 10
8.279083178584642
 20
-64.366993111487091
 11
66.579083178584142
 21
-64.366993111487091
  0
LINE
  8
0
  6
CONTINUOUS
 62
256
 10
8.279083178584642
 20
-61.274262119821742
 11
66.579083178584142
 21
-61.274262119821742
  0
LINE
  8
0
  6
CONTINUOUS
 62
256
 10
8.279083178584642
 20
-59.795238966344641
 11
66.579083178584142
 21
-59.795238966344641
  0
LINE
  8
0
  6
CONTINUOUS
 62
256
 10
-74.078517167808286
 20
-48.511199110457255
 11
66.579083178584142
 21
-48.511199110457255
  0
LINE
  8
0
  6
CONTINUOUS
 62
256
 10
-73.920916821437004
 20
-47.509720746641960
 11
66.579083178584142
 21
-47.509720746641960
  0
LINE
  8
0
  6
CONTINUOUS
 62
256
 10
-73.920916821437004
 20
-44.046978989876834
 11
66.579083178584142
 21
-44.046978989876834
  0
LINE
  8
0
  6
CONTINUOUS
 62
256
 10
-73.920916821437004
 20
-42.418551922098914
 11
66.579083178584142
 21
-42.418551922098914
  0
LINE
  8
0
  6
CONTINUOUS
 62
256
 10
-73.920916821437004
 20
-37.551634516981494
 11
66.579083178584142
 21
-37.551634516981494
  0
LINE
  8
0
  6
CONTINUOUS
 62
256
 10
-73.920916821437004
 20
-38.051634516981721
 11
66.579083178584142
 21
-38.051634516981721
  0
LINE
  8
0
  6
CONTINUOUS
 62
256
 10
66.579083178584142
 20
-36.051634516981721
 11
-73.920916821437004
 21
-36.051634516981721
  0
LINE
  8
0
  6
DASHDOT
 62
256
 10
105.662935396588640
 20
-88.551634516981721
 11
-190.990821869453160
 21
-88.551634516981721
  0
LINE
  8
0
  6
CONTINUOUS
 62
256
 10
-73.920916821437004
 20
-142.551634516981950
 11
-151.425761770529790
 21
-142.551634516981950
  0
LINE
  8
0
  6
CONTINUOUS
 62
256
 10
-73.920916821437004
 20
-142.551634516981950
 11
-73.920916821437004
 21
-129.551634516981720
  0
LINE
  8
0
  6
CONTINUOUS
 62
256
 10
-73.920916821437004
 20
-34.551634516981494
 11
-73.920916821437004
 21
-47.551634516981721
  0
LINE
  8
0
  6
CONTINUOUS
 62
256
 10
-73.920916821437004
 20
-34.551634516981494
 11
-151.425761770529790
 21
-34.551634516981494
  0
LINE
  8
0
  6
CONTINUOUS
 62
256
 10
-84.920916821437004
 20
-137.695555539706900
 11
-86.920916821437004
 21
-136.042913900583470
  0
LINE
  8
0
  6
CONTINUOUS
 62
256
 10
-82.920916821437004
 20
-138.871341025329680
 11
-84.920916821437004
 21
-137.695555539706900
  0
LINE
  8
0
  6
CONTINUOUS
 62
256
 10
-84.920916821437004
 20
-137.695555539706900
 11
-82.920916821437004
 21
-136.042913900583470
  0
LINE
  8
0
  6
CONTINUOUS
 62
256
 10
-86.920916821437004
 20
-138.871341025329680
 11
-84.920916821437004
 21
-137.695555539706900
  0
LINE
  8
0
  6
CONTINUOUS
 62
256
 10
-80.311226003541606
 20
-136.581922437529730
 11
-80.220916821436788
 21
-135.878965471329370
  0
LINE
  8
0
  6
CONTINUOUS
 62
256
 10
-80.578683018633740
 20
-137.257865161741820
 11
-80.311226003541606
 21
-136.581922437529730
  0
LINE
  8
0
  6
CONTINUOUS
 62
256
 10
-81.013009643614822
 20
-137.880817544147220
 11
-80.578683018633740
 21
-137.257865161741820
  0
LINE
  8
0
  6
CONTINUOUS
 62
256
 10
-81.597514949860013
 20
-138.426839874045810
 11
-81.013009643614822
 21
-137.880817544147220
  0
LINE
  8
0
  6
CONTINUOUS
 62
256
 10
-82.309736726244651
 20
-138.874948819512440
 11
-81.597514949860013
 21
-138.426839874045810
  0
LINE
  8
0
  6
CONTINUOUS
 62
256
 10
-83.122304689320856
 20
-139.207923805075180
 11
-82.309736726244651
 21
-138.874948819512440
  0
LINE
  8
0
  6
CONTINUOUS
 62
256
 10
-84.003992307960971
 20
-139.412968788773440
 11
-83.122304689320856
 21
-139.207923805075180
  0
LINE
  8
0
  6
CONTINUOUS
 62
256
 10
-84.920916821436776
 20
-139.482204006874210
 11
-84.003992307960971
 21
-139.412968788773440
  0
LINE
  8
0
  6
CONTINUOUS
 62
256
 10
-85.837841334912582
 20
-139.412968788773440
 11
-84.920916821436776
 21
-139.482204006874210
  0
LINE
  8
0
  6
CONTINUOUS
 62
256
 10
-86.719528953552697
 20
-139.207923805075180
 11
-85.837841334912582
 21
-139.412968788773440
  0
LINE
  8
0
  6
CONTINUOUS
 62
256
 10
-87.532096916628902
 20
-138.874948819512440
 11
-86.719528953552697
 21
-139.207923805075180
  0
LINE
  8
0
  6
CONTINUOUS
 62
256
 10
-88.244318693013540
 20
-138.426839874045810
 11
-87.532096916628902
 21
-138.874948819512440
  0
LINE
  8
0
  6
CONTINUOUS
 62
256
 10
-88.828823999258731
 20
-137.880817544147220
 11
-88.244318693013540
 21
-138.426839874045810
  0
LINE
  8
0
  6
CONTINUOUS
 62
256
 10
-89.263150624239813
 20
-137.257865161741820
 11
-88.828823999258731
 21
-137.880817544147220
  0
LINE
  8
0
  6
CONTINUOUS
 62
256
 10
-89.530607639331947
 20
-136.581922437529730
 11
-89.263150624239813
 21
-137.257865161741820
  0
LINE
  8
0
  6
CONTINUOUS
 62
256
 10
-89.620916821436765
 20
-135.878965471329370
 11
-89.530607639331947
 21
-136.581922437529730
  0
LINE
  8
0
  6
CONTINUOUS
 62
256
 10
-89.530607639331947
 20
-135.176008505129000
 11
-89.620916821436765
 21
-135.878965471329370
  0
LINE
  8
0
  6
CONTINUOUS
 62
256
 10
-89.263150624239813
 20
-134.500065780916910
 11
-89.530607639331947
 21
-135.176008505129000
  0
LINE
  8
0
  6
CONTINUOUS
 62
256
 10
-88.828823999258731
 20
-133.877113398511510
 11
-89.263150624239813
 21
-134.500065780916910
  0
LINE
  8
0
  6
CONTINUOUS
 62
256
 10
-88.244318693013540
 20
-133.331091068612920
 11
-88.828823999258731
 21
-133.877113398511510
  0
LINE
  8
0
  6
CONTINUOUS
 62
256
 10
-87.532096916628902
 20
-132.882982123146290
 11
-88.244318693013540
 21
-133.331091068612920
  0
LINE
  8
0
  6
CONTINUOUS
 62
256
 10
-86.719528953552697
 20
-132.550007137583550
 11
-87.532096916628902
 21
-132.882982123146290
  0
LINE
  8
0
  6
CONTINUOUS
 62
256
 10
-85.837841334912582
 20
-132.344962153885290
 11
-86.719528953552697
 21
-132.550007137583550
  0
LINE
  8
0
  6
CONTINUOUS
 62
256
 10
-84.920916821436776
 20
-132.275726935784520
 11
-85.837841334912582
 21
-132.344962153885290
  0
LINE
  8
0
  6
CONTINUOUS
 62
256
 10
-84.003992307960971
 20
-132.344962153885290
 11
-84.920916821436776
 21
-132.275726935784520
  0
LINE
  8
0
  6
CONTINUOUS
 62
256
 10
-83.122304689320856
 20
-132.550007137583550
 11
-84.003992307960971
 21
-132.344962153885290
  0
LINE
  8
0
  6
CONTINUOUS
 62
256
 10
-82.309736726244651
 20
-132.882982123146290
 11
-83.122304689320856
 21
-132.550007137583550
  0
LINE
  8
0
  6
CONTINUOUS
 62
256
 10
-81.597514949860013
 20
-133.331091068612920
 11
-82.309736726244651
 21
-132.882982123146290
  0
LINE
  8
0
  6
CONTINUOUS
 62
256
 10
-81.013009643614822
 20
-133.877113398511510
 11
-81.597514949860013
 21
-133.331091068612920
  0
LINE
  8
0
  6
CONTINUOUS
 62
256
 10
-80.578683018633740
 20
-134.500065780916910
 11
-81.013009643614822
 21
-133.877113398511510
  0
LINE
  8
0
  6
CONTINUOUS
 62
256
 10
-80.311226003541606
 20
-135.176008505129000
 11
-80.578683018633740
 21
-134.500065780916910
  0
LINE
  8
0
  6
CONTINUOUS
 62
256
 10
-80.220916821436788
 20
-135.878965471329370
 11
-80.311226003541606
 21
-135.176008505129000
  0
LINE
  8
0
  6
CONTINUOUS
 62
256
 10
-84.920916821437004
 20
-39.407713494256541
 11
-86.920916821437004
 21
-41.060355133379971
  0
LINE
  8
0
  6
CONTINUOUS
 62
256
 10
-82.920916821437004
 20
-38.231928008633759
 11
-84.920916821437004
 21
-39.407713494256541
  0
LINE
  8
0
  6
CONTINUOUS
 62
256
 10
-84.920916821437004
 20
-39.407713494256541
 11
-82.920916821437004
 21
-41.060355133379971
  0
LINE
  8
0
  6
CONTINUOUS
 62
256
 10
-86.920916821437004
 20
-38.231928008633759
 11
-84.920916821437004
 21
-39.407713494256541
  0
LINE
  8
0
  6
CONTINUOUS
 62
256
 10
-80.311226003541606
 20
-41.927260528834438
 11
-80.220916821436788
 21
-41.224303562634077
  0
LINE
  8
0
  6
CONTINUOUS
 62
256
 10
-80.578683018633740
 20
-42.603203253046530
 11
-80.311226003541606
 21
-41.927260528834438
  0
LINE
  8
0
  6
CONTINUOUS
 62
256
 10
-81.013009643614822
 20
-43.226155635451931
 11
-80.578683018633740
 21
-42.603203253046530
  0
LINE
  8
0
  6
CONTINUOUS
 62
256
 10
-81.597514949860013
 20
-43.772177965350508
 11
-81.013009643614822
 21
-43.226155635451931
  0
LINE
  8
0
  6
CONTINUOUS
 62
256
 10
-82.309736726244651
 20
-44.220286910817130
 11
-81.597514949860013
 21
-43.772177965350508
  0
LINE
  8
0
  6
CONTINUOUS
 62
256
 10
-83.122304689320856
 20
-44.553261896379887
 11
-82.309736726244651
 21
-44.220286910817130
  0
LINE
  8
0
  6
CONTINUOUS
 62
256
 10
-84.003992307960971
 20
-44.758306880078138
 11
-83.122304689320856
 21
-44.553261896379887
  0
LINE
  8
0
  6
CONTINUOUS
 62
256
 10
-84.920916821436776
 20
-44.827542098178910
 11
-84.003992307960971
 21
-44.758306880078138
  0
LINE
  8
0
  6
CONTINUOUS
 62
256
 10
-85.837841334912582
 20
-44.758306880078138
 11
-84.920916821436776
 21
-44.827542098178910
  0
LINE
  8
0
  6
CONTINUOUS
 62
256
 10
-86.719528953552697
 20
-44.553261896379887
 11
-85.837841334912582
 21
-44.758306880078138
  0
LINE
  8
0
  6
CONTINUOUS
 62
256
 10
-87.532096916628902
 20
-44.220286910817130
 11
-86.719528953552697
 21
-44.553261896379887
  0
LINE
  8
0
  6
CONTINUOUS
 62
256
 10
-88.244318693013540
 20
-43.772177965350508
 11
-87.532096916628902
 21
-44.220286910817130
  0
LINE
  8
0
  6
CONTINUOUS
 62
256
 10
-88.828823999258731
 20
-43.226155635451931
 11
-88.244318693013540
 21
-43.772177965350508
  0
LINE
  8
0
  6
CONTINUOUS
 62
256
 10
-89.263150624239813
 20
-42.603203253046530
 11
-88.828823999258731
 21
-43.226155635451931
  0
LINE
  8
0
  6
CONTINUOUS
 62
256
 10
-89.530607639331947
 20
-41.927260528834438
 11
-89.263150624239813
 21
-42.603203253046530
  0
LINE
  8
0
  6
CONTINUOUS
 62
256
 10
-89.620916821436765
 20
-41.224303562634077
 11
-89.530607639331947
 21
-41.927260528834438
  0
LINE
  8
0
  6
CONTINUOUS
 62
256
 10
-89.530607639331947
 20
-40.521346596433716
 11
-89.620916821436765
 21
-41.224303562634077
  0
LINE
  8
0
  6
CONTINUOUS
 62
256
 10
-89.263150624239813
 20
-39.845403872221624
 11
-89.530607639331947
 21
-40.521346596433716
  0
LINE
  8
0
  6
CONTINUOUS
 62
256
 10
-88.828823999258731
 20
-39.222451489816223
 11
-89.263150624239813
 21
-39.845403872221624
  0
LINE
  8
0
  6
CONTINUOUS
 62
256
 10
-88.244318693013540
 20
-38.676429159917639
 11
-88.828823999258731
 21
-39.222451489816223
  0
LINE
  8
0
  6
CONTINUOUS
 62
256
 10
-87.532096916628902
 20
-38.228320214451024
 11
-88.244318693013540
 21
-38.676429159917639
  0
LINE
  8
0
  6
CONTINUOUS
 62
256
 10
-86.719528953552697
 20
-37.895345228888267
 11
-87.532096916628902
 21
-38.228320214451024
  0
LINE
  8
0
  6
CONTINUOUS
 62
256
 10
-85.837841334912582
 20
-37.690300245190016
 11
-86.719528953552697
 21
-37.895345228888267
  0
LINE
  8
0
  6
CONTINUOUS
 62
256
 10
-84.920916821436776
 20
-37.621065027089244
 11
-85.837841334912582
 21
-37.690300245190016
  0
LINE
  8
0
  6
CONTINUOUS
 62
256
 10
-84.003992307960971
 20
-37.690300245190016
 11
-84.920916821436776
 21
-37.621065027089244
  0
LINE
  8
0
  6
CONTINUOUS
 62
256
 10
-83.122304689320856
 20
-37.895345228888267
 11
-84.003992307960971
 21
-37.690300245190016
  0
LINE
  8
0
  6
CONTINUOUS
 62
256
 10
-82.309736726244651
 20
-38.228320214451024
 11
-83.122304689320856
 21
-37.895345228888267
  0
LINE
  8
0
  6
CONTINUOUS
 62
256
 10
-81.597514949860013
 20
-38.676429159917639
 11
-82.309736726244651
 21
-38.228320214451024
  0
LINE
  8
0
  6
CONTINUOUS
 62
256
 10
-81.013009643614822
 20
-39.222451489816223
 11
-81.597514949860013
 21
-38.676429159917639
  0
LINE
  8
0
  6
CONTINUOUS
 62
256
 10
-80.578683018633740
 20
-39.845403872221624
 11
-81.013009643614822
 21
-39.222451489816223
  0
LINE
  8
0
  6
CONTINUOUS
 62
256
 10
-80.311226003541606
 20
-40.521346596433716
 11
-80.578683018633740
 21
-39.845403872221624
  0
LINE
  8
0
  6
CONTINUOUS
 62
256
 10
-80.220916821436788
 20
-41.224303562634077
 11
-80.311226003541606
 21
-40.521346596433716
  0
LINE
  8
0
  6
CONTINUOUS
 62
256
 10
-83.920916821437004
 20
-88.551634516981721
 11
-83.920916821437004
 21
-53.551634516981721
  0
LINE
  8
0
  6
CONTINUOUS
 62
256
 10
-83.920916821437004
 20
-55.248033565472952
 11
-81.720916821415358
 21
-55.248033565472952
  0
LINE
  8
0
  6
CONTINUOUS
 62
256
 10
-83.920916821437004
 20
-56.837243358211708
 11
-81.720916821415358
 21
-56.837243358211708
  0
LINE
  8
0
  6
CONTINUOUS
 62
256
 10
-83.920916821437004
 20
-59.795238966344641
 11
-81.720916821415358
 21
-59.795238966344641
  0
LINE
  8
0
  6
CONTINUOUS
 62
256
 10
-83.920916821437004
 20
-61.274262119821742
 11
-81.720916821415358
 21
-61.274262119821742
  0
LINE
  8
0
  6
CONTINUOUS
 62
256
 10
-83.920916821437004
 20
-64.366993111487091
 11
-81.720916821415358
 21
-64.366993111487091
  0
LINE
  8
0
  6
CONTINUOUS
 62
256
 10
-83.920916821437004
 20
-65.713394836985572
 11
-81.720916821415358
 21
-65.713394836985572
  0
LINE
  8
0
  6
CONTINUOUS
 62
256
 10
-83.920916821437004
 20
-68.551634516981721
 11
-81.720916821415358
 21
-68.551634516981721
  0
ARC
  8
0
  6
CONTINUOUS
 62
256
 10
7.279083178584642
 20
-53.551634516981721
 40
1.000000000000227
 50
0.000000000000000
 51
90.000000000000000
  0
LINE
  8
0
  6
CONTINUOUS
 62
256
 10
7.279083178584642
 20
-52.551634516981721
 11
-80.720916821415358
 21
-52.551634516981721
  0
LINE
  8
0
  6
CONTINUOUS
 62
256
 10
8.279083178584870
 20
-53.551634516981721
 11
8.279083178584187
 21
-88.551634516983313
  0
ARC
  8
0
  6
CONTINUOUS
 62
256
 10
-80.720916821415358
 20
-53.551634516981721
 40
1.000000000000000
 50
90.000000000000000
 51
180.000000000000000
  0
LINE
  8
0
  6
CONTINUOUS
 62
256
 10
-81.720916821415130
 20
-53.551634516981721
 11
-81.720916821415813
 21
-88.551634516981949
  0
ARC
  8
0
  6
CONTINUOUS
 62
256
 10
-76.920916821437004
 20
-47.551634516981721
 40
3.000000000000000
 50
270.000000000000000
 51
0.000000000000000
  0
LINE
  8
0
  6
CONTINUOUS
 62
256
 10
-76.920916821437004
 20
-50.551634516981721
 11
-80.920916821437004
 21
-50.551634516981721
  0
ARC
  8
0
  6
CONTINUOUS
 62
256
 10
-80.920916821437004
 20
-53.551634516981721
 40
3.000000000000000
 50
90.000000000000000
 51
180.000000000000000
  0
LINE
  8
0
  6
CONTINUOUS
 62
256
 10
-163.241436359361160
 20
-38.277102404628067
 11
-170.812215555949930
 21
-43.578219068200951
  0
LINE
  8
0
  6
CONTINUOUS
 62
256
 10
-171.920916821437000
 20
-45.708014383352065
 11
-171.920916821437000
 21
-88.551634516981721
  0
ARC
  8
0
  6
CONTINUOUS
 62
256
 10
-169.320916821437090
 20
-45.708014383352065
 40
2.600000000000037
 50
125.000000000002630
 51
180.000000000000000
  0
ARC
  8
0
  6
CONTINUOUS
 62
256
 10
-151.425761770529790
 20
-55.151634516981403
 40
20.599999999999909
 50
90.000000000000000
 51
124.999999999999790
  0
LINE
  8
0
  6
CONTINUOUS
 62
256
 10
-83.920916821437004
 20
-88.551634516981721
 11
-83.920916821437004
 21
-123.551634516981720
  0
LINE
  8
0
  6
CONTINUOUS
 62
256
 10
-83.920916821437004
 20
-121.855235468490490
 11
-81.720916821415358
 21
-121.855235468490490
  0
LINE
  8
0
  6
CONTINUOUS
 62
256
 10
-83.920916821437004
 20
-120.266025675751730
 11
-81.720916821415358
 21
-120.266025675751730
  0
LINE
  8
0
  6
CONTINUOUS
 62
256
 10
-83.920916821437004
 20
-117.308030067618800
 11
-81.720916821415358
 21
-117.308030067618800
  0
LINE
  8
0
  6
CONTINUOUS
 62
256
 10
-83.920916821437004
 20
-115.829006914141700
 11
-81.720916821415358
 21
-115.829006914141700
  0
LINE
  8
0
  6
CONTINUOUS
 62
256
 10
-83.920916821437004
 20
-112.736275922476350
 11
-81.720916821415358
 21
-112.736275922476350
  0
LINE
  8
0
  6
CONTINUOUS
 62
256
 10
-83.920916821437004
 20
-111.389874196977870
 11
-81.720916821415358
 21
-111.389874196977870
  0
LINE
  8
0
  6
CONTINUOUS
 62
256
 10
-83.920916821437004
 20
-108.551634516981720
 11
-81.720916821415358
 21
-108.551634516981720
  0
ARC
  8
0
  6
CONTINUOUS
 62
256
 10
7.279083178584642
 20
-123.551634516981720
 40
1.000000000000000
 50
270.000000000000000
 51
0.000000000000000
  0
LINE
  8
0
  6
CONTINUOUS
 62
256
 10
7.279083178584642
 20
-124.551634516981720
 11
-80.720916821415358
 21
-124.551634516981720
  0
LINE
  8
0
  6
CONTINUOUS
 62
256
 10
8.279083178584870
 20
-123.551634516981720
 11
8.279083178584187
 21
-88.551634516980130
  0
ARC
  8
0
  6
CONTINUOUS
 62
256
 10
-80.720916821415358
 20
-123.551634516981720
 40
0.999999999999773
 50
180.000000000000000
 51
270.000000000000000
  0
LINE
  8
0
  6
CONTINUOUS
 62
256
 10
-81.720916821415130
 20
-123.551634516981720
 11
-81.720916821415813
 21
-88.551634516981494
  0
ARC
  8
0
  6
CONTINUOUS
 62
256
 10
-76.920916821437004
 20
-129.551634516981720
 40
3.000000000000000
 50
0.000000000000000
 51
90.000000000000000
  0
LINE
  8
0
  6
CONTINUOUS
 62
256
 10
-76.920916821437004
 20
-126.551634516981720
 11
-80.920916821437004
 21
-126.551634516981720
  0
ARC
  8
0
  6
CONTINUOUS
 62
256
 10
-80.920916821437004
 20
-123.551634516981720
 40
3.000000000000000
 50
180.000000000000000
 51
270.000000000000000
  0
LINE
  8
0
  6
CONTINUOUS
 62
256
 10
-163.241436359361160
 20
-138.826166629335150
 11
-170.812215555949930
 21
-133.525049965762490
  0
LINE
  8
0
  6
CONTINUOUS
 62
256
 10
-171.920916821437000
 20
-131.395254650611380
 11
-171.920916821437000
 21
-88.551634516981721
  0
ARC
  8
0
  6
CONTINUOUS
 62
256
 10
-169.320916821437090
 20
-131.395254650611380
 40
2.599999999999909
 50
180.000000000000000
 51
234.999999999994740
  0
ARC
  8
0
  6
CONTINUOUS
 62
256
 10
-151.425761770529790
 20
-121.951634516982040
 40
20.599999999999795
 50
235.000000000000260
 51
270.000000000000000
  0
LINE
  8
0
  6
CONTINUOUS
 62
256
 10
83.079083941535657
 20
-43.801633563307291
 11
83.079083941535657
 21
-35.301635470655924
  0
LINE
  8
0
  6
CONTINUOUS
 62
256
 10
88.079083941535657
 20
-35.301635470655924
 11
83.079083941535657
 21
-35.301635470655924
  0
LINE
  8
0
  6
CONTINUOUS
 62
256
 10
86.079083178596193
 20
-43.801633563307291
 11
83.079083941535657
 21
-43.801633563307291
  0
INSERT
  8
0
  2
ZU_SYM_1
 10
88.079083178596193
 20
-79.551260750881966
  0
ARC
  8
0
  6
CONTINUOUS
 62
256
 10
141.579083178596190
 20
71.509566554300363
 40
1.999999999999740
 50
319.953303245398050
 51
0.000000000000000
  0
ARC
  8
0
  6
CONTINUOUS
 62
256
 10
141.579083178596190
 20
158.430083451142310
 40
2.000000000000000
 50
0.000000000000000
 51
40.046696754622253
  0
CIRCLE
  8
0
  6
CONTINUOUS
 62
256
 10
135.579083178596190
 20
57.969825002721336
 40
3.500000000000000
  0
ARC
  8
0
  6
CONTINUOUS
 62
256
 10
104.834108343469320
 20
102.393329672901910
 40
50.000000000000199
 50
317.780692710463370
 51
319.953303245374120
  0
ARC
  8
0
  6
CONTINUOUS
 62
256
 10
140.381861975469750
 20
70.138760822604127
 40
1.999999999999698
 50
272.000000000003920
 51
317.780692710462180
  0
ARC
  8
0
  6
CONTINUOUS
 62
256
 10
144.579083178596190
 20
133.969825002721340
 40
1.000000000000000
 50
0.000000000000000
 51
90.000000000000000
  0
ARC
  8
0
  6
CONTINUOUS
 62
256
 10
144.579083178596190
 20
135.969825002721340
 40
0.999999999999645
 50
196.601549599049580
 51
270.000000000000000
  0
CIRCLE
  8
0
  6
CONTINUOUS
 62
256
 10
135.579083178596190
 20
171.969825002721340
 40
3.500000000000000
  0
ARC
  8
0
  6
CONTINUOUS
 62
256
 10
104.834108343469320
 20
127.546320332540740
 40
50.000000000000334
 50
40.046696754626673
 51
42.219307289536644
  0
ARC
  8
0
  6
CONTINUOUS
 62
256
 10
140.381861975469750
 20
159.800889182838550
 40
2.000000000000186
 50
42.219307289537625
 51
87.999999999995723
  0
ARC
  8
0
  6
CONTINUOUS
 62
256
 10
144.579083178596190
 20
95.969825002721336
 40
1.000000000000000
 50
270.000000000000000
 51
0.000000000000000
  0
ARC
  8
0
  6
CONTINUOUS
 62
256
 10
144.579083178596190
 20
93.969825002721336
 40
1.000000000000000
 50
90.000000000000000
 51
163.398450400950540
  0
ARC
  8
0
  6
CONTINUOUS
 62
256
 10
143.579083178596190
 20
178.009431726880390
 40
2.000000000000000
 50
0.000000000000000
 51
88.854237161824017
  0
ARC
  8
0
  6
CONTINUOUS
 62
256
 10
143.579083178596190
 20
51.930218278562279
 40
1.999999999999710
 50
271.145762838176150
 51
0.000000000000000
  0
LINE
  8
0
  6
CONTINUOUS
 62
256
 10
145.579083178596190
 20
114.969825002721340
 11
145.579083178596190
 21
51.930218278562279
  0
LINE
  8
0
  6
CONTINUOUS
 62
256
 10
140.451660968874880
 20
68.139979168566242
 11
135.579083178595740
 21
67.969825002721336
  0
LINE
  8
0
  6
CONTINUOUS
 62
256
 10
143.579083178596190
 20
114.969825002721340
 11
143.579083178596190
 21
71.509566554300363
  0
LINE
  8
0
  6
DASHDOT
 62
256
 10
142.686821825871450
 20
57.969825002721336
 11
128.482929792800860
 21
57.969825002721336
  0
LINE
  8
0
  6
DASHDOT
 62
256
 10
135.579083178596190
 20
65.461931351062958
 11
135.579083178596190
 21
50.883419159705227
  0
LINE
  8
0
  6
CONTINUOUS
 62
256
 10
140.451660968874880
 20
161.799670836876430
 11
135.579083178595740
 21
161.969825002721340
  0
LINE
  8
0
  6
CONTINUOUS
 62
256
 10
145.579083178596190
 20
114.969825002721340
 11
145.579083178596190
 21
178.009431726880390
  0
LINE
  8
0
  6
CONTINUOUS
 62
256
 10
143.579083178596190
 20
114.969825002721340
 11
143.579083178596190
 21
158.430083451142310
  0
LINE
  8
0
  6
DASHDOT
 62
256
 10
142.755619465617200
 20
171.969825002721340
 11
128.146132421561560
 21
171.969825002721340
  0
LINE
  8
0
  6
DASHDOT
 62
256
 10
135.579083178596190
 20
164.806541357433160
 11
135.579083178596190
 21
178.630064405504530
  0
LINE
  8
0
  6
CONTINUOUS
 62
256
 10
172.579083178572550
 20
114.969825002721340
 11
172.579083178572550
 21
107.369825002720970
  0
LINE
  8
0
  6
CONTINUOUS
 62
256
 10
172.179083178572450
 20
106.969825002721340
 11
150.698698420842900
 21
106.969825002721340
  0
ARC
  8
0
  6
CONTINUOUS
 62
256
 10
172.179083178572450
 20
122.569825002721700
 40
0.400000000000091
 50
0.000000000000000
 51
90.000000000000000
  0
ARC
  8
0
  6
CONTINUOUS
 62
256
 10
172.179083178572450
 20
107.369825002720970
 40
0.399999999999636
 50
270.000000000000000
 51
0.000000000000000
  0
LINE
  8
0
  6
CONTINUOUS
 62
256
 10
172.579083178572550
 20
104.969825002721150
 11
172.579083178572550
 21
107.369825002720970
  0
LINE
  8
0
  6
CONTINUOUS
 62
256
 10
172.579083178572550
 20
104.969825002721150
 11
148.579083178572550
 21
104.969825002721150
  0
LINE
  8
0
  6
CONTINUOUS
 62
256
 10
172.179083178572450
 20
122.969825002721340
 11
150.698698420842900
 21
122.969825002721340
  0
LINE
  8
0
  6
CONTINUOUS
 62
256
 10
172.579083178572550
 20
114.969825002721340
 11
172.579083178572550
 21
122.569825002721700
  0
LINE
  8
0
  6
CONTINUOUS
 62
256
 10
147.579083178572550
 20
114.969825002721340
 11
147.579083178572550
 21
106.769817564059840
  0
LINE
  8
0
  6
CONTINUOUS
 62
256
 10
150.138890799707500
 20
122.819825002721700
 11
147.979083178572180
 21
122.819825002721700
  0
LINE
  8
0
  6
CONTINUOUS
 62
256
 10
150.138890799707500
 20
122.819825002721700
 11
150.698698420842900
 21
122.969825002721340
  0
ARC
  8
0
  6
CONTINUOUS
 62
256
 10
147.979083178572180
 20
106.719825002721340
 40
0.399999999999636
 50
90.000000000000000
 51
172.299196497543190
  0
LINE
  8
0
  6
CONTINUOUS
 62
256
 10
147.279083178572360
 20
106.469817564059650
 11
147.582690650321640
 21
106.773425035808940
  0
LINE
  8
0
  6
CONTINUOUS
 62
256
 10
145.579083178596190
 20
106.469817564059650
 11
147.279083178572360
 21
106.469817564059650
  0
LINE
  8
0
  6
CONTINUOUS
 62
256
 10
145.579083178596190
 20
123.469832441383010
 11
147.279083178572360
 21
123.469832441383010
  0
LINE
  8
0
  6
CONTINUOUS
 62
256
 10
147.579083178572550
 20
114.969825002721340
 11
147.579083178572550
 21
123.169832441382820
  0
ARC
  8
0
  6
CONTINUOUS
 62
256
 10
147.979083178572180
 20
123.219825002721340
 40
0.399999999999814
 50
187.700803502457570
 51
270.000000000000000
  0
LINE
  8
0
  6
CONTINUOUS
 62
256
 10
147.279083178572360
 20
123.469832441383010
 11
147.582690650321640
 21
123.166224969633730
  0
LINE
  8
0
  6
CONTINUOUS
 62
256
 10
150.138890799707500
 20
107.119825002720970
 11
147.979083178572180
 21
107.119825002720970
  0
LINE
  8
0
  6
CONTINUOUS
 62
256
 10
150.138890799707500
 20
107.119825002720970
 11
150.698698420842900
 21
106.969825002721340
  0
LINE
  8
0
  6
CONTINUOUS
 62
256
 10
148.579083178572550
 20
107.119825002720970
 11
148.579083178572550
 21
104.969825002721150
  0
LINE
  8
0
  6
DASHDOT
 62
256
 10
302.137385724941850
 20
-22.629282944080842
 11
302.137385724941850
 21
-151.985087204868250
  0
LINE
  8
0
  6
DASHDOT
 62
256
 10
320.376813323669470
 20
-88.551634516981721
 11
284.685955789016130
 21
-88.551634516981721
  0
LINE
  8
0
  6
DASHDOT
 62
256
 10
410.275835330892280
 20
-73.551634516981721
 11
200.458258387977820
 21
-73.551634516981721
  0
ARC
  8
0
  6
CONTINUOUS
 62
256
 10
302.137385724941850
 20
258.048365483018420
 40
400.599999999999910
 50
270.000000000000000
 51
273.933897417635990
  0
ARC
  8
0
  6
CONTINUOUS
 62
256
 10
302.137385724941850
 20
258.048365483018420
 40
400.600000000000020
 50
266.066102582364010
 51
270.000000000000000
  0
ARC
  8
0
  6
CONTINUOUS
 62
256
 10
339.127452963088220
 20
-60.487877885966100
 40
20.599999999999973
 50
19.861001831245090
 51
44.999999999997293
  0
ARC
  8
0
  6
CONTINUOUS
 62
256
 10
302.137385724941850
 20
-435.151634516981860
 40
400.599999999999910
 50
84.256318189006564
 51
84.682177158375552
  0
ARC
  8
0
  6
CONTINUOUS
 62
256
 10
265.147318486795480
 20
-60.487877885966100
 40
20.600000000000069
 50
135.000000000002700
 51
157.340457143263110
  0
ARC
  8
0
  6
CONTINUOUS
 62
256
 10
302.137385724941850
 20
-435.151634516981860
 40
400.600000000000080
 50
95.317822841624448
 51
95.743681810993436
  0
ARC
  8
0
  6
CONTINUOUS
 62
256
 10
341.568252725029200
 20
-43.129687774683362
 40
6.600000000000278
 50
44.999999999997208
 51
84.256318189005128
  0
ARC
  8
0
  6
CONTINUOUS
 62
256
 10
262.706518724854500
 20
-43.129687774683362
 40
6.600000000000009
 50
95.743681810995113
 51
135.000000000002930
  0
LINE
  8
0
  6
CONTINUOUS
 62
256
 10
353.693852655531830
 20
-45.921478193523853
 11
346.235157480860830
 21
-38.462783018852178
  0
LINE
  8
0
  6
CONTINUOUS
 62
256
 10
250.580918794351870
 20
-45.921478193523853
 11
258.039613969022870
 21
-38.462783018852178
  0
ARC
  8
0
  6
CONTINUOUS
 62
256
 10
381.437385724941810
 20
-102.594134516981740
 40
20.800000000000001
 50
218.403653658203410
 51
265.808273843992540
  0
LINE
  8
0
  6
CONTINUOUS
 62
256
 10
377.140255345522750
 20
-32.671514444201534
 11
382.233892273799710
 21
-134.544253009742310
  0
LINE
  8
0
  6
CONTINUOUS
 62
256
 10
378.738259087727330
 20
-32.591614257091351
 11
383.831896016004290
 21
-134.464352822631330
  0
LINE
  8
0
  6
CONTINUOUS
 62
256
 10
378.813165513142620
 20
-34.089742765408005
 11
379.790969325650170
 21
-34.040852574782662
  0
LINE
  8
0
  6
CONTINUOUS
 62
256
 10
379.162728831749750
 20
-41.081009137552883
 11
380.140532644257520
 21
-41.032118946927540
  0
LINE
  8
0
  6
CONTINUOUS
 62
256
 10
378.813165513142620
 20
-34.089742765408005
 11
379.162728831749750
 21
-41.081009137552883
  0
LINE
  8
0
  6
CONTINUOUS
 62
256
 10
378.813165513142620
 20
-34.089742765408005
 11
379.162728831749750
 21
-41.081009137552883
  0
POINT
  8
0
  6
CONTINUOUS
 62
256
 10
378.987947172446180
 20
-37.585375951480387
  0
LINE
  8
0
  6
CONTINUOUS
 62
256
 10
378.738259087727330
 20
-32.591614257091351
 11
377.140255345522750
 21
-32.671514444201534
  0
LINE
  8
0
  6
CONTINUOUS
 62
256
 10
377.939257216625040
 20
-32.631564350646499
 11
383.032894144902000
 21
-134.504302916186590
  0
ARC
  8
0
  6
CONTINUOUS
 62
256
 10
381.204644188570680
 20
-41.869347484958212
 40
1.999999999999927
 50
182.862405226112710
 51
265.126025186159040
  0
ARC
  8
0
  6
CONTINUOUS
 62
256
 10
375.611631090854870
 20
-42.148998139844025
 40
1.999999999999958
 50
280.598785266065990
 51
2.862405226112642
  0
ARC
  8
0
  6
CONTINUOUS
 62
256
 10
379.437385724941810
 20
-62.594134516981740
 40
18.799999999999983
 50
100.598785266066060
 51
167.116020571951450
  0
LINE
  8
0
  6
CONTINUOUS
 62
256
 10
246.137425241744040
 20
-52.551634516981437
 11
244.637385724941850
 21
-52.551634516981437
  0
LINE
  8
0
  6
CONTINUOUS
 62
256
 10
244.637385724941850
 20
-55.450205087442214
 11
244.637385724941850
 21
-52.551634516981437
  0
LINE
  8
0
  6
CONTINUOUS
 62
256
 10
239.137385724941850
 20
-124.551634516981210
 11
217.270720951999460
 21
-124.551634516981210
  0
LINE
  8
0
  6
CONTINUOUS
 62
256
 10
246.363411013370180
 20
-52.551634516981437
 11
217.270720951999460
 21
-52.551634516981437
  0
LINE
  8
0
  6
CONTINUOUS
 62
256
 10
349.880001168011570
 20
-62.330253927052446
 11
349.219619307573000
 21
-63.781578263986368
  0
LINE
  8
0
  6
CONTINUOUS
 62
256
 10
350.708139057826600
 20
-61.265837032867687
 11
349.880001168011570
 21
-62.330253927052446
  0
LINE
  8
0
  6
CONTINUOUS
 62
256
 10
351.672788544570780
 20
-60.628486475446103
 11
350.708139057826600
 21
-61.265837032867687
  0
LINE
  8
0
  6
CONTINUOUS
 62
256
 10
352.737554812725480
 20
-60.442248559976086
 11
351.672788544570780
 21
-60.628486475446103
  0
LINE
  8
0
  6
CONTINUOUS
 62
256
 10
353.862265786907240
 20
-60.714149770863884
 11
352.737554812725480
 21
-60.442248559976086
  0
LINE
  8
0
  6
CONTINUOUS
 62
256
 10
355.004487765570050
 20
-61.433931672744592
 11
353.862265786907240
 21
-60.714149770863884
  0
LINE
  8
0
  6
CONTINUOUS
 62
256
 10
356.121126382556950
 20
-62.574437946258051
 11
355.004487765570050
 21
-61.433931672744592
  0
LINE
  8
0
  6
CONTINUOUS
 62
256
 10
357.170052494562810
 20
-64.092638956295559
 11
356.121126382556950
 21
-62.574437946258051
  0
LINE
  8
0
  6
CONTINUOUS
 62
256
 10
358.111691652148980
 20
-65.931255197254444
 11
357.170052494562810
 21
-64.092638956295559
  0
LINE
  8
0
  6
CONTINUOUS
 62
256
 10
358.910517185891590
 20
-68.020918365083503
 11
358.111691652148980
 21
-65.931255197254444
  0
LINE
  8
0
  6
CONTINUOUS
 62
256
 10
359.536390575704620
 20
-70.282788522028738
 11
358.910517185891590
 21
-68.020918365083503
  0
LINE
  8
0
  6
CONTINUOUS
 62
256
 10
359.965698533162310
 20
-72.631528612278302
 11
359.536390575704620
 21
-70.282788522028738
  0
LINE
  8
0
  6
CONTINUOUS
 62
256
 10
360.182243896365830
 20
-74.978524104377371
 11
359.965698533162310
 21
-72.631528612278302
  0
ARC
  8
0
  6
CONTINUOUS
 62
256
 10
352.052308642067150
 20
-64.769440164375737
 40
2.999999999999738
 50
160.774476771054340
 51
179.999999999826310
  0
LINE
  8
0
  6
CONTINUOUS
 62
256
 10
349.052308642019400
 20
-64.769440164366642
 11
349.052308642019400
 21
-129.551634516981720
  0
ARC
  8
0
  6
CONTINUOUS
 62
256
 10
252.222462807816560
 20
-64.769440164375737
 40
3.000000000048203
 50
0.000000000173701
 51
19.225523228942780
  0
LINE
  8
0
  6
CONTINUOUS
 62
256
 10
360.182243896365890
 20
-74.978524104377357
 11
360.182243896365890
 21
-129.551634516981720
  0
ARC
  8
0
  6
CONTINUOUS
 62
256
 10
242.092527553518270
 20
-129.551634516981720
 40
2.000000000000000
 50
270.000000000000000
 51
0.000000000000000
  0
ARC
  8
0
  6
CONTINUOUS
 62
256
 10
253.222462807864760
 20
-129.551634516981720
 40
2.000000000000000
 50
270.000000000000000
 51
0.000000000000000
  0
ARC
  8
0
  6
CONTINUOUS
 62
256
 10
255.974134249006060
 20
-129.551634516981720
 40
2.000000000000000
 50
270.000000000000000
 51
0.000000000000000
  0
ARC
  8
0
  6
CONTINUOUS
 62
256
 10
348.300637200878100
 20
-129.551634516981720
 40
2.000000000000000
 50
180.000000000000000
 51
270.000000000000000
  0
ARC
  8
0
  6
CONTINUOUS
 62
256
 10
351.052308642019400
 20
-129.551634516981720
 40
2.000000000000000
 50
180.000000000000000
 51
270.000000000000000
  0
ARC
  8
0
  6
CONTINUOUS
 62
256
 10
362.182243896365890
 20
-129.551634516981720
 40
2.000000000000000
 50
180.000000000000000
 51
270.000000000000000
  0
ARC
  8
0
  6
CONTINUOUS
 62
256
 10
302.137385724941850
 20
-73.551634516981721
 40
14.999999999999194
 50
29.495546123202022
 51
74.327299558595001
  0
ARC
  8
0
  6
CONTINUOUS
 62
256
 10
302.137385724941850
 20
-73.551634516981721
 40
14.999999999999222
 50
71.480227576789375
 51
31.760752476936535
  0
ARC
  8
0
  6
CONTINUOUS
 62
256
 10
302.137385724941850
 20
-73.551634516982631
 40
20.000000000000288
 50
31.725452044934123
 51
75.608178603069305
  0
ARC
  8
0
  6
CONTINUOUS
 62
256
 10
344.637392409108540
 20
-142.551634516981720
 40
1.000000000000000
 50
0.000000000000000
 51
90.000000000000000
  0
LINE
  8
0
  6
CONTINUOUS
 62
256
 10
345.637392409108540
 20
-143.551634516981720
 11
345.637392409108540
 21
-142.551634516981720
  0
ARC
  8
0
  6
CONTINUOUS
 62
256
 10
336.137369746180870
 20
-139.051634516981720
 40
7.000000000000222
 50
200.924832427637600
 51
220.005146632326730
  0
ARC
  8
0
  6
CONTINUOUS
 62
256
 10
268.137401703703290
 20
-139.051634516981720
 40
7.000000000000203
 50
319.994853367670830
 51
339.075167572361120
  0
LINE
  8
0
  6
CONTINUOUS
 62
256
 10
292.137378364934650
 20
-76.051634516981721
 11
297.137378364934650
 21
-76.051634516981721
  0
ARC
  8
0
  6
CONTINUOUS
 62
256
 10
302.137385724941850
 20
-73.551634516981721
 40
24.799999999999748
 50
184.279783200283820
 51
270.000000000000000
  0
ARC
  8
0
  6
CONTINUOUS
 62
256
 10
275.412116783357760
 20
-75.551634516981721
 40
2.000000000000236
 50
4.279783200257985
 51
90.000000000000000
  0
ARC
  8
0
  6
CONTINUOUS
 62
256
 10
265.437385724942030
 20
-76.051634516981721
 40
2.500000000000000
 50
90.000000000000000
 51
180.000000000000000
  0
LINE
  8
0
  6
CONTINUOUS
 62
256
 10
267.937385724942030
 20
-126.751634516982430
 11
302.137385724941850
 21
-126.751634516982430
  0
ARC
  8
0
  6
CONTINUOUS
 62
256
 10
267.937385724942030
 20
-121.751634516982430
 40
5.000000000000000
 50
180.000000000000000
 51
270.000000000000000
  0
LINE
  8
0
  6
CONTINUOUS
 62
256
 10
262.937385724942030
 20
-76.051634516981721
 11
262.937385724942030
 21
-121.751634516982430
  0
LINE
  8
0
  6
CONTINUOUS
 62
256
 10
336.337385724941670
 20
-126.751634516982430
 11
302.137385724941850
 21
-126.751634516982430
  0
ARC
  8
0
  6
CONTINUOUS
 62
256
 10
336.337385724941670
 20
-121.751634516982430
 40
5.000000000000000
 50
270.000000000000000
 51
0.000000000000000
  0
ARC
  8
0
  6
CONTINUOUS
 62
256
 10
302.137385724941850
 20
-73.551634516981721
 40
24.800000000000182
 50
270.000000000000000
 51
355.720216799716350
  0
ARC
  8
0
  6
CONTINUOUS
 62
256
 10
328.862654666525940
 20
-75.551634516981721
 40
2.000000000000000
 50
90.000000000000000
 51
175.720216799741140
  0
ARC
  8
0
  6
CONTINUOUS
 62
256
 10
338.837385724941670
 20
-76.051634516981721
 40
2.500000000000000
 50
0.000000000000000
 51
90.000000000000000
  0
LINE
  8
0
  6
CONTINUOUS
 62
256
 10
341.337385724941670
 20
-76.051634516981721
 11
341.337385724941670
 21
-121.751634516982430
  0
LINE
  8
0
  6
CONTINUOUS
 62
256
 10
275.412116783357760
 20
-73.551634516981721
 11
265.437385724942030
 21
-73.551634516981721
  0
LINE
  8
0
  6
CONTINUOUS
 62
256
 10
328.862654666525940
 20
-73.551634516981721
 11
338.837385724941670
 21
-73.551634516981721
  0
ARC
  8
0
  6
CONTINUOUS
 62
256
 10
302.137385724941850
 20
-431.551634516981720
 40
399.999999999999770
 50
87.093615629290099
 51
90.000000000000000
  0
ARC
  8
0
  6
CONTINUOUS
 62
256
 10
237.137385724941850
 20
-130.309981596263240
 40
2.000000000000160
 50
303.749090950205020
 51
0.000000000000000
  0
ARC
  8
0
  6
CONTINUOUS
 62
256
 10
364.637392409108540
 20
-134.051634516981720
 40
2.500000000000000
 50
0.000000000000000
 51
90.000000000000000
  0
ARC
  8
0
  6
DASHED
 62
256
 10
239.637392409108540
 20
-134.051634516981720
 40
2.500000000000000
 50
90.000000000000000
 51
180.000000000000000
  0
ARC
  8
0
  6
CONTINUOUS
 62
256
 10
239.637379040775160
 20
-134.051634516981720
 40
2.500000000000000
 50
90.000000000000000
 51
180.000000000000000
  0
ARC
  8
0
  6
CONTINUOUS
 62
256
 10
259.637379040775160
 20
-142.551634516981720
 40
1.000000000000000
 50
90.000000000000000
 51
180.000000000000000
  0
ARC
  8
0
  6
CONTINUOUS
 62
256
 10
367.137385724941850
 20
-130.309981596263240
 40
2.000000000000000
 50
180.000000000000000
 51
236.250909049805780
  0
ARC
  8
0
  6
CONTINUOUS
 62
256
 10
302.137385724941850
 20
-431.551634516981720
 40
399.999999999999090
 50
90.000000000000000
 51
92.906384370709901
  0
ARC
  8
0
  6
CONTINUOUS
 62
256
 10
284.137385724941850
 20
-77.008266224752333
 40
45.000000000000597
 50
92.906384370709858
 51
180.000000000000000
  0
ARC
  8
0
  6
CONTINUOUS
 62
256
 10
320.137385724941850
 20
-77.008266224752333
 40
45.000000000000000
 50
0.000000000000000
 51
87.093615629290099
  0
ARC
  8
0
  6
CONTINUOUS
 62
256
 10
302.137385724941850
 20
-73.551634516982631
 40
19.999999999999886
 50
151.820240962304300
 51
313.242851348263170
  0
ARC
  8
0
  6
CONTINUOUS
 62
256
 10
302.137385724941850
 20
-73.551634516982631
 40
19.999999999999751
 50
301.817285839823170
 51
33.739346948272932
  0
ARC
  8
0
  6
CONTINUOUS
 62
256
 10
302.137385724941850
 20
-73.551634516982631
 40
20.000000000000398
 50
75.608178603069376
 51
158.452064872031570
  0
ARC
  8
0
  6
CONTINUOUS
 62
256
 10
302.137385724941850
 20
-431.551634516981720
 40
381.163251475935790
 50
90.000000000000000
 51
92.906384370709830
  0
ARC
  8
0
  6
CONTINUOUS
 62
256
 10
284.137385724941850
 20
-77.008266224752333
 40
26.163251475936192
 50
92.906384370708764
 51
180.000000000000000
  0
ARC
  8
0
  6
CONTINUOUS
 62
256
 10
320.137385724941850
 20
-77.008266224752333
 40
26.163251475936249
 50
0.000000000000000
 51
87.093615629290255
  0
ARC
  8
0
  6
CONTINUOUS
 62
256
 10
302.137385724941850
 20
-431.551634516981720
 40
381.163251475935400
 50
87.093615629290099
 51
90.000000000000000
  0
LINE
  8
0
  6
CONTINUOUS
 62
256
 10
239.137385724941850
 20
-77.008266224752333
 11
239.137385724941850
 21
-130.309981596263240
  0
LINE
  8
0
  6
CONTINUOUS
 62
256
 10
365.137385724941850
 20
-77.008266224752333
 11
365.137385724941850
 21
-130.309981596263240
  0
LINE
  8
0
  6
DASHDOT
 62
256
 10
359.137385724941850
 20
-129.079486288588670
 11
359.137385724941850
 21
-147.104490213138890
  0
LINE
  8
0
  6
CONTINUOUS
 62
256
 10
255.222462807864760
 20
-64.769440164366642
 11
255.222462807864760
 21
-129.551634516981720
  0
LINE
  8
0
  6
CONTINUOUS
 62
256
 10
244.092527553518270
 20
-74.978524104377357
 11
244.092527553518270
 21
-129.551634516981720
  0
LINE
  8
0
  6
CONTINUOUS
 62
256
 10
344.637392409109000
 20
-141.551634516981720
 11
302.137385724941850
 21
-141.551634516981720
  0
LINE
  8
0
  6
DASHDOT
 62
256
 10
245.137385724941850
 20
-129.079486288588670
 11
245.137385724941850
 21
-147.104490213138890
  0
LINE
  8
0
  6
CONTINUOUS
 62
256
 10
364.637392409108540
 20
-131.551634516981720
 11
302.137385724941850
 21
-131.551634516981720
  0
LINE
  8
0
  6
CONTINUOUS
 62
256
 10
239.637379040775160
 20
-131.551634516981720
 11
302.137385724941850
 21
-131.551634516981720
  0
LINE
  8
0
  6
CONTINUOUS
 62
256
 10
367.137392409108540
 20
-143.551634516981720
 11
367.137392409108540
 21
-134.051634516981720
  0
LINE
  8
0
  6
CONTINUOUS
 62
256
 10
237.137392409108540
 20
-143.551634516981720
 11
237.137392409108540
 21
-134.043458852558620
  0
LINE
  8
0
  6
CONTINUOUS
 62
256
 10
259.637379040775160
 20
-141.551634516981720
 11
302.137385724941850
 21
-141.551634516981720
  0
LINE
  8
0
  6
CONTINUOUS
 62
256
 10
330.775467098798800
 20
-143.551634516981720
 11
367.137379040775160
 21
-143.551634516981720
  0
LINE
  8
0
  6
CONTINUOUS
 62
256
 10
273.499304351084900
 20
-143.551634516981720
 11
237.137392409108540
 21
-143.551634516981720
  0
LINE
  8
0
  6
CONTINUOUS
 62
256
 10
258.637379040775160
 20
-143.551634516981720
 11
258.637379040775160
 21
-142.551634516981720
  0
LINE
  8
0
  6
CONTINUOUS
 62
256
 10
257.974134249006060
 20
-77.008266224752333
 11
257.974134249006060
 21
-129.551634516981720
  0
LINE
  8
0
  6
CONTINUOUS
 62
256
 10
346.300637200878100
 20
-77.008266224752333
 11
346.300637200878100
 21
-129.551634516981720
  0
LINE
  8
0
  6
CONTINUOUS
 62
256
 10
244.309072916721420
 20
-72.631528612278245
 11
244.092527553517870
 21
-74.978524104377286
  0
LINE
  8
0
  6
CONTINUOUS
 62
256
 10
244.738380874179110
 20
-70.282788522028696
 11
244.309072916721420
 21
-72.631528612278245
  0
LINE
  8
0
  6
CONTINUOUS
 62
256
 10
245.364254263992170
 20
-68.020918365083475
 11
244.738380874179110
 21
-70.282788522028696
  0
LINE
  8
0
  6
CONTINUOUS
 62
256
 10
246.163079797734720
 20
-65.931255197254430
 11
245.364254263992170
 21
-68.020918365083475
  0
LINE
  8
0
  6
CONTINUOUS
 62
256
 10
247.104718955320890
 20
-64.092638956295545
 11
246.163079797734720
 21
-65.931255197254430
  0
LINE
  8
0
  6
CONTINUOUS
 62
256
 10
248.153645067326750
 20
-62.574437946258051
 11
247.104718955320890
 21
-64.092638956295545
  0
LINE
  8
0
  6
CONTINUOUS
 62
256
 10
249.270283684313630
 20
-61.433931672744585
 11
248.153645067326750
 21
-62.574437946258051
  0
LINE
  8
0
  6
CONTINUOUS
 62
256
 10
250.412505662976400
 20
-60.714149770863877
 11
249.270283684313630
 21
-61.433931672744585
  0
LINE
  8
0
  6
CONTINUOUS
 62
256
 10
251.537216637158200
 20
-60.442248559976079
 11
250.412505662976400
 21
-60.714149770863877
  0
LINE
  8
0
  6
CONTINUOUS
 62
256
 10
252.601982905312890
 20
-60.628486475446081
 11
251.537216637158200
 21
-60.442248559976079
  0
LINE
  8
0
  6
CONTINUOUS
 62
256
 10
253.566632392057070
 20
-61.265837032867651
 11
252.601982905312890
 21
-60.628486475446081
  0
LINE
  8
0
  6
CONTINUOUS
 62
256
 10
254.394770281872100
 20
-62.330253927052382
 11
253.566632392057070
 21
-61.265837032867651
  0
LINE
  8
0
  6
CONTINUOUS
 62
256
 10
255.055152142310730
 20
-63.781578263986276
 11
254.394770281872100
 21
-62.330253927052382
  0
LINE
  8
0
  6
CONTINUOUS
 62
256
 10
297.137378364934650
 20
-71.051634516981721
 11
297.137378364934650
 21
-76.051634516981721
  0
LINE
  8
0
  6
CONTINUOUS
 62
256
 10
292.137378364934650
 20
-71.051634516981721
 11
292.137378364934650
 21
-76.051634516981721
  0
LINE
  8
0
  6
CONTINUOUS
 62
256
 10
292.137378364934650
 20
-71.051634516981721
 11
297.137378364934650
 21
-71.051634516981721
  0
ARC
  8
0
  6
CONTINUOUS
 62
256
 10
302.137378364934650
 20
-73.551634516981721
 40
8.000000000000096
 50
198.209956864282790
 51
161.789968677645760
  0
CIRCLE
  8
0
  6
CONTINUOUS
 62
256
 10
302.137385724941850
 20
-73.551634516981721
 40
3.000000000000000
  0
CIRCLE
  8
0
  6
CONTINUOUS
 62
256
 10
302.137385724941850
 20
-73.551634516981721
 40
2.458500000000015
  0
INSERT
  8
0
  2
ZU_SYM_2
 10
383.582207931285210
 20
-129.470591128242180
 41
-1.000000000000000
 42
1.000000000000000
 43
1.000000000000000
 50
2.862405226113666
  0
LINE
  8
0
  6
CONTINUOUS
 62
256
 10
382.233892273799710
 20
-134.544253009742310
 11
383.831896016004290
 21
-134.464352822631330
  0
ARC
  8
0
  6
CONTINUOUS
 62
256
 10
385.363851556274080
 20
-125.053494839025230
 40
1.999999999999995
 50
99.916536608232732
 51
182.862405226112230
  0
ARC
  8
0
  6
CONTINUOUS
 62
256
 10
379.770838458558270
 20
-125.333145493911030
 40
1.999999999999927
 50
2.862405226112724
 51
85.808273843998279
  0
ARC
  8
0
  6
CONTINUOUS
 62
256
 10
381.437385724941810
 20
-102.594134516981740
 40
20.799999999999919
 50
334.359929784105190
 51
5.724810452223412
  0
ARC
  8
0
  6
CONTINUOUS
 62
256
 10
381.437385724941810
 20
-102.594134516981740
 40
20.800000000000040
 50
279.916536608230560
 51
334.359929784105190
  0
ARC
  8
0
  6
CONTINUOUS
 62
256
 10
381.437385724941810
 20
-102.594134516981740
 40
20.799999999999919
 50
334.359929784105190
 51
5.724810452223412
  0
ARC
  8
0
  6
CONTINUOUS
 62
256
 10
379.437385724941810
 20
-62.594134516981740
 40
18.799999999999837
 50
5.724810452223617
 51
35.808626813495707
  0
LINE
  8
0
  6
CONTINUOUS
 62
256
 10
402.133645076562740
 20
-100.519321549400710
 11
398.143620138906730
 21
-60.718822796283462
  0
ARC
  8
0
  6
CONTINUOUS
 62
256
 10
379.855888189577850
 20
-35.339229853336178
 40
1.299999237060645
 50
19.463936333587128
 51
92.862405909347800
  0
ARC
  8
0
  6
CONTINUOUS
 62
256
 10
380.075613780329830
 20
-39.733741668373909
 40
1.299999237060550
 50
272.862387240019760
 51
346.260856815788600
  0
ARC
  8
0
  6
CONTINUOUS
 62
256
 10
372.595932584621780
 20
-37.904976680871641
 40
8.999999999999949
 50
346.260856815786500
 51
19.463936333592208
  0
ARC
  8
0
  6
CONTINUOUS
 62
256
 10
379.437385724941810
 20
-62.594134516981740
 40
18.799999999999933
 50
35.808626813495742
 51
85.126025186157236
  0
ARC
  8
0
  6
CONTINUOUS
 62
256
 10
510.637385724941850
 20
-88.551634516981267
 40
300.000000000000060
 50
173.967950853630210
 51
186.032049146369810
  0
ARC
  8
0
  6
CONTINUOUS
 62
256
 10
217.270720951999460
 20
-57.551634516981437
 40
5.000000000000000
 50
90.000000000000000
 51
173.967950853629670
  0
ARC
  8
0
  6
CONTINUOUS
 62
256
 10
217.270720951999460
 20
-119.551634516981210
 40
5.000000000000143
 50
186.032049146370330
 51
270.000000000000000
  0
LINE
  8
0
  6
CONTINUOUS
 62
256
 10
210.137385724941850
 20
-91.051634516981210
 11
210.647802572459570
 21
-91.051634516981210
  0
LINE
  8
0
  6
CONTINUOUS
 62
256
 10
210.137385724941850
 20
-91.051634516981210
 11
210.137385724941850
 21
-86.051634516981210
  0
LINE
  8
0
  6
CONTINUOUS
 62
256
 10
210.137385724941850
 20
-86.051634516980982
 11
210.647802572459570
 21
-86.051634516980982
  0
LINE
  8
0
  6
CONTINUOUS
 62
256
 10
65.579083178596193
 20
51.904262454528180
 11
65.579083178596193
 21
61.469825002721336
  0
LINE
  8
0
  6
CONTINUOUS
 62
256
 10
65.579083178596193
 20
178.035387550914490
 11
65.579083178596193
 21
168.469825002721340
  0
LINE
  8
0
  6
DASHDOT
 62
256
 10
185.174535316909900
 20
114.969825002721340
 11
-193.756603581194210
 21
114.969825002721340
  0
LINE
  8
0
  6
CONTINUOUS
 62
256
 10
86.079083178596079
 20
151.219824049047930
 11
86.079083178596079
 21
177.469825002722250
  0
LINE
  8
0
  6
CONTINUOUS
 62
256
 10
87.079083178596079
 20
152.219825002722250
 11
87.679083178596443
 21
152.219825002722250
  0
LINE
  8
0
  6
CONTINUOUS
 62
256
 10
88.079083178596079
 20
151.819825002722610
 11
88.079083178596079
 21
142.119825002722790
  0
ARC
  8
0
  6
CONTINUOUS
 62
256
 10
87.679083178596443
 20
151.819825002722610
 40
0.399999999999636
 50
0.000000000000000
 51
90.000000000000000
  0
ARC
  8
0
  6
CONTINUOUS
 62
256
 10
87.079083178596079
 20
153.219825002722250
 40
1.000000000000000
 50
180.000000000000000
 51
270.000000000000000
  0
LINE
  8
0
  6
CONTINUOUS
 62
256
 10
87.079083178596079
 20
141.719825002722250
 11
87.679083178596443
 21
141.719825002722250
  0
ARC
  8
0
  6
CONTINUOUS
 62
256
 10
87.679083178596443
 20
142.119825002722790
 40
0.400000000000546
 50
270.000000000000000
 51
0.000000000000000
  0
ARC
  8
0
  6
CONTINUOUS
 62
256
 10
87.079083178596079
 20
140.719825002722250
 40
1.000000000000000
 50
90.000000000000000
 51
180.000000000000000
  0
ARC
  8
0
  6
CONTINUOUS
 62
256
 10
85.079083178596079
 20
164.969825002722250
 40
1.000000000000000
 50
270.000000000000000
 51
0.000000000000000
  0
ARC
  8
0
  6
CONTINUOUS
 62
256
 10
86.579083178596079
 20
177.469825002722250
 40
0.500000000000000
 50
90.000000000000000
 51
180.000000000000000
  0
ARC
  8
0
  6
CONTINUOUS
 62
256
 10
75.579083178596079
 20
171.969825002722250
 40
7.999999999999964
 50
207.975174367152760
 51
270.000000000000000
  0
ARC
  8
0
  6
CONTINUOUS
 62
256
 10
68.072300300374877
 20
167.982568951344550
 40
0.500000000000217
 50
27.975174367227915
 51
91.499999999989043
  0
ARC
  8
0
  6
CONTINUOUS
 62
256
 10
68.079083178596079
 20
167.982746567261530
 40
0.500000000000872
 50
91.499999999987068
 51
180.000000000000000
  0
ARC
  8
0
  6
CONTINUOUS
 62
256
 10
67.079083178596079
 20
167.996182320536720
 40
0.499999999999054
 50
271.499999999992550
 51
0.000000000000000
  0
LINE
  8
0
  6
CONTINUOUS
 62
256
 10
93.079083178596079
 20
177.969825002722250
 11
93.079083178596079
 21
114.969825002722250
  0
LINE
  8
0
  6
CONTINUOUS
 62
256
 10
86.079083178596079
 20
114.969825002722250
 11
86.079083178596079
 21
142.719825956396560
  0
LINE
  8
0
  6
CONTINUOUS
 62
256
 10
85.079083178596079
 20
163.969825002722250
 11
75.579083178596079
 21
163.969825002722250
  0
LINE
  8
0
  6
CONTINUOUS
 62
256
 10
93.579083178596193
 20
177.969825002722250
 11
86.579083178596079
 21
177.969825002722250
  0
LINE
  8
0
  6
CONTINUOUS
 62
256
 10
66.579083178596079
 20
114.969825002722250
 11
66.579083178596079
 21
167.469825002722250
  0
LINE
  8
0
  6
CONTINUOUS
 62
256
 10
67.092171652749926
 20
167.496353658049880
 11
66.579083178596079
 21
167.469825002722250
  0
LINE
  8
0
  6
CONTINUOUS
 62
256
 10
67.579083178596079
 20
167.982746567261530
 11
67.579083178596079
 21
114.969825002722250
  0
LINE
  8
0
  6
CONTINUOUS
 62
256
 10
83.079083178596079
 20
174.469825002722250
 11
83.079083178596079
 21
165.969825002722250
  0
ARC
  8
0
  6
CONTINUOUS
 62
256
 10
81.079083178596079
 20
165.969825002722250
 40
2.000000000000000
 50
270.000000000000000
 51
0.000000000000000
  0
LINE
  8
0
  6
CONTINUOUS
 62
256
 10
85.579083178596079
 20
174.969825002722250
 11
83.579083178596079
 21
174.969825002722250
  0
ARC
  8
0
  6
CONTINUOUS
 62
256
 10
83.579083178596079
 20
174.469825002722250
 40
0.500000000000000
 50
90.000000000000000
 51
180.000000000000000
  0
ARC
  8
0
  6
CONTINUOUS
 62
256
 10
85.579083178596079
 20
175.469825002722250
 40
0.500000000000000
 50
270.000000000000000
 51
0.000000000000000
  0
LINE
  8
0
  6
CONTINUOUS
 62
256
 10
83.079083178596079
 20
174.469825002722250
 11
83.079083178596079
 21
177.219808070287400
  0
LINE
  8
0
  6
CONTINUOUS
 62
256
 10
86.079083178596193
 20
177.219808070287400
 11
83.079083178596079
 21
177.219808070287400
  0
LINE
  8
0
  6
CONTINUOUS
 62
256
 10
86.079083178596079
 20
78.719825956396562
 11
86.079083178596079
 21
52.469825002722246
  0
LINE
  8
0
  6
CONTINUOUS
 62
256
 10
87.079083178596079
 20
77.719825002722246
 11
87.679083178596443
 21
77.719825002722246
  0
LINE
  8
0
  6
CONTINUOUS
 62
256
 10
88.079083178596079
 20
78.119825002722791
 11
88.079083178596079
 21
87.819825002722609
  0
ARC
  8
0
  6
CONTINUOUS
 62
256
 10
87.679083178596443
 20
78.119825002722791
 40
0.400000000000546
 50
270.000000000000000
 51
0.000000000000000
  0
ARC
  8
0
  6
CONTINUOUS
 62
256
 10
87.079083178596079
 20
76.719825002722246
 40
1.000000000000000
 50
90.000000000000000
 51
180.000000000000000
  0
LINE
  8
0
  6
CONTINUOUS
 62
256
 10
87.079083178596079
 20
88.219825002722246
 11
87.679083178596443
 21
88.219825002722246
  0
ARC
  8
0
  6
CONTINUOUS
 62
256
 10
87.679083178596443
 20
87.819825002722609
 40
0.399999999999636
 50
0.000000000000000
 51
90.000000000000000
  0
ARC
  8
0
  6
CONTINUOUS
 62
256
 10
87.079083178596079
 20
89.219825002722246
 40
1.000000000000000
 50
180.000000000000000
 51
270.000000000000000
  0
ARC
  8
0
  6
CONTINUOUS
 62
256
 10
85.079083178596079
 20
64.969825002722246
 40
1.000000000000000
 50
0.000000000000000
 51
90.000000000000000
  0
ARC
  8
0
  6
CONTINUOUS
 62
256
 10
86.579083178596079
 20
52.469825002722246
 40
0.500000000000000
 50
180.000000000000000
 51
270.000000000000000
  0
ARC
  8
0
  6
CONTINUOUS
 62
256
 10
75.579083178596079
 20
57.969825002722246
 40
8.000000000000000
 50
90.000000000000000
 51
152.024825632841500
  0
ARC
  8
0
  6
CONTINUOUS
 62
256
 10
68.072300300374877
 20
61.957081054100854
 40
0.499999999999963
 50
268.500000000010170
 51
332.024825632772090
  0
ARC
  8
0
  6
CONTINUOUS
 62
256
 10
68.079083178596079
 20
61.956903438182962
 40
0.500000000000000
 50
180.000000000000000
 51
268.500000000010350
  0
ARC
  8
0
  6
CONTINUOUS
 62
256
 10
67.079083178596079
 20
61.943467684907773
 40
0.500000000000000
 50
0.000000000000000
 51
88.500000000010303
  0
LINE
  8
0
  6
CONTINUOUS
 62
256
 10
93.079083178596079
 20
51.969825002722246
 11
93.079083178596079
 21
114.969825002722250
  0
LINE
  8
0
  6
CONTINUOUS
 62
256
 10
86.079083178596079
 20
114.969825002722250
 11
86.079083178596079
 21
87.219824049047929
  0
LINE
  8
0
  6
CONTINUOUS
 62
256
 10
85.079083178596079
 20
65.969825002722246
 11
75.579083178596079
 21
65.969825002722246
  0
LINE
  8
0
  6
CONTINUOUS
 62
256
 10
93.579083178596193
 20
51.969825002722246
 11
86.579083178596079
 21
51.969825002722246
  0
LINE
  8
0
  6
CONTINUOUS
 62
256
 10
66.579083178596079
 20
114.969825002723160
 11
66.579083178596079
 21
62.469825002722246
  0
LINE
  8
0
  6
CONTINUOUS
 62
256
 10
67.092171652749926
 20
62.443296347395517
 11
66.579083178596079
 21
62.469825002722246
  0
LINE
  8
0
  6
CONTINUOUS
 62
256
 10
67.579083178596079
 20
61.956903438182962
 11
67.579083178596079
 21
114.969825002722250
  0
LINE
  8
0
  6
CONTINUOUS
 62
256
 10
83.079083178596079
 20
55.469825002722246
 11
83.079083178596079
 21
63.969825002722246
  0
ARC
  8
0
  6
CONTINUOUS
 62
256
 10
81.079083178596079
 20
63.969825002722246
 40
2.000000000000000
 50
0.000000000000000
 51
90.000000000000000
  0
LINE
  8
0
  6
CONTINUOUS
 62
256
 10
85.579083178596079
 20
54.969825002722246
 11
83.579083178596079
 21
54.969825002722246
  0
ARC
  8
0
  6
CONTINUOUS
 62
256
 10
83.579083178596079
 20
55.469825002722246
 40
0.500000000000000
 50
180.000000000000000
 51
270.000000000000000
  0
ARC
  8
0
  6
CONTINUOUS
 62
256
 10
85.579083178596079
 20
54.469825002722246
 40
0.500000000000000
 50
0.000000000000000
 51
90.000000000000000
  0
LINE
  8
0
  6
CONTINUOUS
 62
256
 10
83.079083178596079
 20
55.469825002722246
 11
83.079083178596079
 21
52.719841935158001
  0
LINE
  8
0
  6
CONTINUOUS
 62
256
 10
86.079083178596193
 20
52.719841935158001
 11
83.079083178596079
 21
52.719841935158001
  0
LINE
  8
0
  6
CONTINUOUS
 62
256
 10
125.585174908405410
 20
171.620830035696600
 11
125.577283881947550
 21
171.846799468004060
  0
LINE
  8
0
  6
CONTINUOUS
 62
256
 10
93.579083178596193
 20
114.969825002721340
 11
93.579083178596193
 21
51.969818318554644
  0
LINE
  8
0
  6
CONTINUOUS
 62
256
 10
93.579083178596193
 20
114.969825002721340
 11
93.579083178596193
 21
177.987292071634330
  0
LINE
  8
0
  6
DASHDOT
 62
256
 10
75.579083178596193
 20
165.469825002721340
 11
75.579083178596193
 21
178.469825002721340
  0
LINE
  8
0
  6
DASHDOT
 62
256
 10
69.079083178596193
 20
171.969825002721340
 11
82.079083178596193
 21
171.969825002721340
  0
LINE
  8
0
  6
CONTINUOUS
 62
256
 10
94.111300588251652
 20
51.969818318554644
 11
93.579083178596193
 21
51.969818318554644
  0
LINE
  8
0
  6
CONTINUOUS
 62
256
 10
106.579083178594810
 20
52.423788321947541
 11
93.579083178596193
 21
51.969818318554644
  0
LINE
  8
0
  6
CONTINUOUS
 62
256
 10
106.579083178594810
 20
177.515861683495130
 11
93.579083178596193
 21
177.969831686888030
  0
LINE
  8
0
  6
DASHDOT
 62
256
 10
75.579083178596193
 20
64.469825002721336
 11
75.579083178596193
 21
51.469825002721336
  0
LINE
  8
0
  6
DASHDOT
 62
256
 10
69.079083178596193
 20
57.969825002721336
 11
82.079083178596193
 21
57.969825002721336
  0
LINE
  8
0
  6
CONTINUOUS
 62
256
 10
95.579083178596193
 20
180.969831686888030
 11
143.619075180995420
 21
180.009031846840120
  0
LINE
  8
0
  6
CONTINUOUS
 62
256
 10
95.579083178596193
 20
48.969818318554644
 11
143.619075180995420
 21
49.930618158602556
  0
LINE
  8
0
  6
CONTINUOUS
 62
256
 10
67.512453518131224
 20
180.034277364872650
 11
95.579083178596193
 21
180.969831686888030
  0
LINE
  8
0
  6
CONTINUOUS
 62
256
 10
67.512453518131224
 20
49.905372640570022
 11
95.579083178596193
 21
48.969818318554644
  0
ARC
  8
0
  6
CONTINUOUS
 62
256
 10
67.579083178596193
 20
51.904262454528180
 40
2.000000000000000
 50
180.000000000000000
 51
268.090847567012470
  0
ARC
  8
0
  6
CONTINUOUS
 62
256
 10
67.579083178596193
 20
178.035387550914490
 40
1.999999999999839
 50
91.909152432987696
 51
180.000000000000000
  0
CIRCLE
  8
0
  6
CONTINUOUS
 62
256
 10
75.579083178596193
 20
171.969825002721340
 40
3.500000000000000
  0
CIRCLE
  8
0
  6
CONTINUOUS
 62
256
 10
75.579083178596193
 20
171.969825002721340
 40
3.500000000000000
  0
ARC
  8
0
  6
CONTINUOUS
 62
256
 10
104.834108343469320
 20
102.393329672901910
 40
49.999999999999616
 50
272.000000000000510
 51
292.989886801797520
  0
ARC
  8
0
  6
CONTINUOUS
 62
256
 10
123.581403321443300
 20
58.205786959951183
 40
1.999999999999803
 50
292.989886801789740
 51
358.873292028276640
  0
ARC
  8
0
  6
CONTINUOUS
 62
256
 10
135.579083178596190
 20
57.969825002721336
 40
9.999999999999954
 50
97.216447257426452
 51
169.206675526603420
  0
CIRCLE
  8
0
  6
CONTINUOUS
 62
256
 10
75.579083178596193
 20
57.969825002721336
 40
3.500000000000000
  0
CIRCLE
  8
0
  6
CONTINUOUS
 62
256
 10
75.579083178596193
 20
57.969825002721336
 40
3.500000000000000
  0
ARC
  8
0
  6
CONTINUOUS
 62
256
 10
135.579083178596190
 20
57.969825002721336
 40
10.000000000000000
 50
90.000000000000000
 51
178.873292028281720
  0
ARC
  8
0
  6
CONTINUOUS
 62
256
 10
104.834108343469320
 20
127.546320332540740
 40
49.999999999999957
 50
67.010113198202461
 51
87.999999999999460
  0
ARC
  8
0
  6
CONTINUOUS
 62
256
 10
123.581403321443300
 20
171.733863045491490
 40
2.000000000000022
 50
1.126707971723436
 51
67.010113198210234
  0
ARC
  8
0
  6
CONTINUOUS
 62
256
 10
135.579083178596190
 20
171.969825002721340
 40
9.999999999999819
 50
181.999999999998470
 51
270.000000000000000
  0
LINE
  8
0
  6
CONTINUOUS
 62
256
 10
88.079083178596079
 20
87.219824049047929
 11
83.079083178596079
 21
87.219824049047929
  0
LINE
  8
0
  6
CONTINUOUS
 62
256
 10
88.079083178596079
 20
78.719825956396562
 11
83.079083178596079
 21
78.719825956396562
  0
LINE
  8
0
  6
CONTINUOUS
 62
256
 10
83.079083178596079
 20
87.219824049047929
 11
83.079083178596079
 21
78.719825956396562
  0
LINE
  8
0
  6
CONTINUOUS
 62
256
 10
88.079083178596079
 20
142.719825956396560
 11
83.079083178596079
 21
142.719825956396560
  0
LINE
  8
0
  6
CONTINUOUS
 62
256
 10
88.079083178596079
 20
151.219824049047930
 11
83.079083178596079
 21
151.219824049047930
  0
LINE
  8
0
  6
CONTINUOUS
 62
256
 10
83.079083178596079
 20
142.719825956396560
 11
83.079083178596079
 21
151.219824049047930
  0
ARC
  8
0
  6
CONTINUOUS
 62
256
 10
-68.420916821403921
 20
178.469825002721340
 40
5.000000000000000
 50
180.000000000000000
 51
270.000000000000000
  0
LINE
  8
0
  6
CONTINUOUS
 62
256
 10
-73.420916821403921
 20
168.469825002721340
 11
-73.420916821403921
 21
173.469825002721340
  0
LINE
  8
0
  6
DASHDOT
 62
256
 10
50.579083178596079
 20
168.469825002721340
 11
50.579083178596079
 21
173.469825002721340
  0
LINE
  8
0
  6
DASHDOT
 62
256
 10
50.579083178596079
 20
168.469825002721340
 11
50.579083178596079
 21
173.469825002721340
  0
ARC
  8
0
  6
CONTINUOUS
 62
256
 10
45.579083178596079
 20
178.469825002721340
 40
5.000000000000000
 50
270.000000000000000
 51
0.000000000000000
  0
LINE
  8
0
  6
CONTINUOUS
 62
256
 10
-73.420916821403921
 20
173.469825002721340
 11
50.579083178596079
 21
173.469825002721340
  0
LINE
  8
0
  6
CONTINUOUS
 62
256
 10
40.079083178596079
 20
192.130850062408170
 11
-62.920916821403921
 21
192.130850062408170
  0
ARC
  8
0
  6
CONTINUOUS
 62
256
 10
45.579083178596079
 20
197.130850062408170
 40
5.000000000000074
 50
287.457603123721870
 51
0.000000000000000
  0
ARC
  8
0
  6
CONTINUOUS
 62
256
 10
45.779083178595897
 20
192.807396188150510
 40
1.300000000000182
 50
0.000000000000000
 51
73.398450400977680
  0
ARC
  8
0
  6
CONTINUOUS
 62
256
 10
43.579083178596079
 20
185.428371862401040
 40
9.000000000000123
 50
73.398450400980863
 51
106.601549599019150
  0
ARC
  8
0
  6
CONTINUOUS
 62
256
 10
41.379083178596261
 20
192.807396188150510
 40
1.300000000000019
 50
106.601549599022380
 51
180.000000000000000
  0
LINE
  8
0
  6
CONTINUOUS
 62
256
 10
47.079083178596079
 20
192.807396188150510
 11
47.079083178596079
 21
191.820386450226120
  0
LINE
  8
0
  6
CONTINUOUS
 62
256
 10
47.011831660007381
 20
191.786288240030130
 11
47.079083178596079
 21
191.820386450226120
  0
LINE
  8
0
  6
CONTINUOUS
 62
256
 10
46.812661542385584
 20
191.753500404929500
 11
47.011831660007381
 21
191.786288240030130
  0
LINE
  8
0
  6
CONTINUOUS
 62
256
 10
46.489226821654988
 20
191.723282963039480
 11
46.812661542385584
 21
191.753500404929500
  0
LINE
  8
0
  6
CONTINUOUS
 62
256
 10
46.053956912748994
 20
191.696797153705770
 11
46.489226821654988
 21
191.723282963039480
  0
LINE
  8
0
  6
CONTINUOUS
 62
256
 10
45.523578994164687
 20
191.675060811727690
 11
46.053956912748994
 21
191.696797153705770
  0
LINE
  8
0
  6
CONTINUOUS
 62
256
 10
44.918475191873895
 20
191.658909252537510
 11
45.523578994164687
 21
191.675060811727690
  0
LINE
  8
0
  6
CONTINUOUS
 62
256
 10
44.261899305652527
 20
191.648963171497060
 11
44.918475191873895
 21
191.658909252537510
  0
LINE
  8
0
  6
CONTINUOUS
 62
256
 10
43.579083178596079
 20
191.645604790922900
 11
44.261899305652527
 21
191.648963171497060
  0
LINE
  8
0
  6
CONTINUOUS
 62
256
 10
42.896267051539631
 20
191.648963171497060
 11
43.579083178596079
 21
191.645604790922900
  0
LINE
  8
0
  6
CONTINUOUS
 62
256
 10
42.239691165318263
 20
191.658909252537510
 11
42.896267051539631
 21
191.648963171497060
  0
LINE
  8
0
  6
CONTINUOUS
 62
256
 10
41.634587363027471
 20
191.675060811727690
 11
42.239691165318263
 21
191.658909252537510
  0
LINE
  8
0
  6
CONTINUOUS
 62
256
 10
41.104209444443164
 20
191.696797153705770
 11
41.634587363027471
 21
191.675060811727690
  0
LINE
  8
0
  6
CONTINUOUS
 62
256
 10
40.668939535537170
 20
191.723282963039480
 11
41.104209444443164
 21
191.696797153705770
  0
LINE
  8
0
  6
CONTINUOUS
 62
256
 10
40.345504814806574
 20
191.753500404929500
 11
40.668939535537170
 21
191.723282963039480
  0
LINE
  8
0
  6
CONTINUOUS
 62
256
 10
40.146334697184770
 20
191.786288240030130
 11
40.345504814806574
 21
191.753500404929500
  0
LINE
  8
0
  6
CONTINUOUS
 62
256
 10
40.079083178596079
 20
191.820386450226120
 11
40.146334697184770
 21
191.786288240030130
  0
LINE
  8
0
  6
CONTINUOUS
 62
256
 10
40.079083178596079
 20
192.807396188150510
 11
40.079083178596079
 21
191.820386450226120
  0
ARC
  8
0
  6
CONTINUOUS
 62
256
 10
-68.420916821403921
 20
197.130850062408170
 40
5.000000000000000
 50
180.000000000000000
 51
252.542396876278100
  0
LINE
  8
0
  6
CONTINUOUS
 62
256
 10
-69.920916821403921
 20
192.807396188150510
 11
-69.920916821403921
 21
191.820386450226120
  0
LINE
  8
0
  6
CONTINUOUS
 62
256
 10
-62.920916821403921
 20
192.807396188150510
 11
-62.920916821403921
 21
191.820386450226120
  0
ARC
  8
0
  6
CONTINUOUS
 62
256
 10
-68.620916821403739
 20
192.807396188150510
 40
1.300000000000019
 50
106.601549599022380
 51
180.000000000000000
  0
ARC
  8
0
  6
CONTINUOUS
 62
256
 10
-66.420916821403921
 20
185.428371862401040
 40
9.000000000000123
 50
73.398450400980863
 51
106.601549599019150
  0
ARC
  8
0
  6
CONTINUOUS
 62
256
 10
-64.220916821404103
 20
192.807396188150510
 40
1.300000000000182
 50
0.000000000000000
 51
73.398450400977680
  0
LINE
  8
0
  6
CONTINUOUS
 62
256
 10
-62.988168339992619
 20
191.786288240030130
 11
-62.920916821403921
 21
191.820386450226120
  0
LINE
  8
0
  6
CONTINUOUS
 62
256
 10
-63.187338457614416
 20
191.753500404929500
 11
-62.988168339992619
 21
191.786288240030130
  0
LINE
  8
0
  6
CONTINUOUS
 62
256
 10
-63.510773178345012
 20
191.723282963039480
 11
-63.187338457614416
 21
191.753500404929500
  0
LINE
  8
0
  6
CONTINUOUS
 62
256
 10
-63.946043087251006
 20
191.696797153705770
 11
-63.510773178345012
 21
191.723282963039480
  0
LINE
  8
0
  6
CONTINUOUS
 62
256
 10
-64.476421005835320
 20
191.675060811727690
 11
-63.946043087251006
 21
191.696797153705770
  0
LINE
  8
0
  6
CONTINUOUS
 62
256
 10
-65.081524808126105
 20
191.658909252537510
 11
-64.476421005835320
 21
191.675060811727690
  0
LINE
  8
0
  6
CONTINUOUS
 62
256
 10
-65.738100694347480
 20
191.648963171497060
 11
-65.081524808126105
 21
191.658909252537510
  0
LINE
  8
0
  6
CONTINUOUS
 62
256
 10
-66.420916821403921
 20
191.645604790922900
 11
-65.738100694347480
 21
191.648963171497060
  0
LINE
  8
0
  6
CONTINUOUS
 62
256
 10
-67.103732948460376
 20
191.648963171497060
 11
-66.420916821403921
 21
191.645604790922900
  0
LINE
  8
0
  6
CONTINUOUS
 62
256
 10
-67.760308834681737
 20
191.658909252537510
 11
-67.103732948460376
 21
191.648963171497060
  0
LINE
  8
0
  6
CONTINUOUS
 62
256
 10
-68.365412636972536
 20
191.675060811727690
 11
-67.760308834681737
 21
191.658909252537510
  0
LINE
  8
0
  6
CONTINUOUS
 62
256
 10
-68.895790555556843
 20
191.696797153705770
 11
-68.365412636972536
 21
191.675060811727690
  0
LINE
  8
0
  6
CONTINUOUS
 62
256
 10
-69.331060464462823
 20
191.723282963039480
 11
-68.895790555556843
 21
191.696797153705770
  0
LINE
  8
0
  6
CONTINUOUS
 62
256
 10
-69.654495185193426
 20
191.753500404929500
 11
-69.331060464462823
 21
191.723282963039480
  0
LINE
  8
0
  6
CONTINUOUS
 62
256
 10
-69.853665302815230
 20
191.786288240030130
 11
-69.654495185193426
 21
191.753500404929500
  0
LINE
  8
0
  6
CONTINUOUS
 62
256
 10
-69.920916821403921
 20
191.820386450226120
 11
-69.853665302815230
 21
191.786288240030130
  0
LINE
  8
0
  6
CONTINUOUS
 62
256
 10
50.579083178596079
 20
197.130850062408170
 11
50.579083178596079
 21
210.069825002721250
  0
LINE
  8
0
  6
CONTINUOUS
 62
256
 10
-73.420916821403921
 20
197.130850062408170
 11
-73.420916821403921
 21
210.069825002721250
  0
LINE
  8
0
  6
CONTINUOUS
 62
256
 10
-73.420916821403921
 20
196.664335293783550
 11
-74.420916821403921
 21
196.664335293783550
  0
LINE
  8
0
  6
CONTINUOUS
 62
256
 10
51.579083178596079
 20
191.570698365506360
 11
-74.420916821403921
 21
191.570698365506360
  0
ARC
  8
0
  6
CONTINUOUS
 62
256
 10
-68.420916821403921
 20
210.069825002721250
 40
5.000000000000000
 50
90.000000000000000
 51
180.000000000000000
  0
ARC
  8
0
  6
CONTINUOUS
 62
256
 10
-74.420916821403921
 20
194.664335293783550
 40
2.000000000000000
 50
90.000000000000000
 51
180.000000000000000
  0
ARC
  8
0
  6
CONTINUOUS
 62
256
 10
-74.420916821403921
 20
193.570698365506360
 40
2.000000000000000
 50
180.000000000000000
 51
270.000000000000000
  0
ARC
  8
0
  6
CONTINUOUS
 62
256
 10
-74.420916821403921
 20
192.771696494421120
 40
2.000000000000000
 50
180.000000000000000
 51
270.000000000000000
  0
LINE
  8
0
  6
CONTINUOUS
 62
256
 10
-76.420916821403921
 20
194.664335293783550
 11
-76.420916821403921
 21
191.972694623302230
  0
ARC
  8
0
  6
CONTINUOUS
 62
256
 10
-74.420916821403921
 20
191.972694623302230
 40
2.000000000000000
 50
180.000000000000000
 51
270.000000000000000
  0
LINE
  8
0
  6
CONTINUOUS
 62
256
 10
-73.420916821403921
 20
178.469825002721340
 11
-73.420916821403921
 21
189.972694623302230
  0
ARC
  8
0
  6
CONTINUOUS
 62
256
 10
45.579083178596079
 20
210.069825002721250
 40
5.000000000000000
 50
0.000000000000000
 51
90.000000000000000
  0
LINE
  8
0
  6
CONTINUOUS
 62
256
 10
-68.420916821403921
 20
215.069825002721250
 11
45.579083178596079
 21
215.069825002721250
  0
LINE
  8
0
  6
CONTINUOUS
 62
256
 10
50.579083178596079
 20
178.469825002721340
 11
50.579083178596079
 21
189.771696494421120
  0
LINE
  8
0
  6
CONTINUOUS
 62
256
 10
53.579083178596079
 20
194.664335293783550
 11
53.579083178596079
 21
191.972694623302230
  0
LINE
  8
0
  6
CONTINUOUS
 62
256
 10
51.579083178596079
 20
190.771696494404300
 11
-74.420916821403921
 21
190.771696494404300
  0
LINE
  8
0
  6
CONTINUOUS
 62
256
 10
51.579083178596079
 20
189.972694623302230
 11
-74.420916821403921
 21
189.972694623302230
  0
LINE
  8
0
  6
CONTINUOUS
 62
256
 10
50.579083178596079
 20
196.664335293783550
 11
51.579083178596079
 21
196.664335293783550
  0
ARC
  8
0
  6
CONTINUOUS
 62
256
 10
51.579083178596079
 20
194.664335293783550
 40
2.000000000000000
 50
0.000000000000000
 51
90.000000000000000
  0
ARC
  8
0
  6
CONTINUOUS
 62
256
 10
51.579083178596079
 20
193.570698365506360
 40
2.000000000000000
 50
270.000000000000000
 51
0.000000000000000
  0
ARC
  8
0
  6
CONTINUOUS
 62
256
 10
51.579083178596079
 20
192.771696494421120
 40
2.000000000000000
 50
270.000000000000000
 51
0.000000000000000
  0
ARC
  8
0
  6
CONTINUOUS
 62
256
 10
51.579083178596079
 20
191.972694623302230
 40
2.000000000000000
 50
270.000000000000000
 51
0.000000000000000
  0
ARC
  8
0
  6
CONTINUOUS
 62
256
 10
-151.425761770517850
 20
76.569825002721359
 40
20.599999999999891
 50
235.000000000000400
 51
270.000000000000000
  0
ARC
  8
0
  6
CONTINUOUS
 62
256
 10
-169.320916821425160
 20
67.126204869092021
 40
2.599999999999909
 50
180.000000000000000
 51
234.999999999998520
  0
LINE
  8
0
  6
CONTINUOUS
 62
256
 10
-163.241436359349220
 20
59.695292890368137
 11
-170.812215555938000
 21
64.996409553940680
  0
LINE
  8
0
  6
CONTINUOUS
 62
256
 10
-171.920916821425070
 20
67.126204869092021
 11
-171.920916821425070
 21
114.969825002721340
  0
LINE
  8
0
  6
CONTINUOUS
 62
256
 10
8.279083178596125
 20
62.469825002721336
 11
8.279083178596125
 21
24.469825002721336
  0
ARC
  8
0
  6
CONTINUOUS
 62
256
 10
7.279083178596125
 20
24.469825002721336
 40
1.000000000000000
 50
270.000000000000000
 51
0.000000000000000
  0
LINE
  8
0
  6
CONTINUOUS
 62
256
 10
-80.720916821403875
 20
23.469825002721336
 11
7.279083178596125
 21
23.469825002721336
  0
ARC
  8
0
  6
CONTINUOUS
 62
256
 10
-80.720916821403875
 20
24.469825002721336
 40
1.000000000000000
 50
180.000000000000000
 51
270.000000000000000
  0
LINE
  8
0
  6
CONTINUOUS
 62
256
 10
-74.720916821403875
 20
22.969825002721336
 11
-66.720916821403875
 21
22.969825002721336
  0
LINE
  8
0
  6
CONTINUOUS
 62
256
 10
-6.720916821403875
 20
22.969825002721336
 11
1.279083178596125
 21
22.969825002721336
  0
LINE
  8
0
  6
CONTINUOUS
 62
256
 10
-6.720916821403875
 20
23.469825002721336
 11
-6.720916821403875
 21
22.969825002721336
  0
LINE
  8
0
  6
CONTINUOUS
 62
256
 10
1.279083178596125
 20
23.469825002721336
 11
1.279083178596125
 21
22.969825002721336
  0
LINE
  8
0
  6
CONTINUOUS
 62
256
 10
-66.720916821403875
 20
23.469825002721336
 11
-66.720916821403875
 21
22.969825002721336
  0
LINE
  8
0
  6
CONTINUOUS
 62
256
 10
-74.720916821403875
 20
23.469825002721336
 11
-74.720916821403875
 21
22.969825002721336
  0
LINE
  8
0
  6
CONTINUOUS
 62
256
 10
8.279083178596125
 20
62.469825002721336
 11
-73.920916821425067
 21
62.469825002721336
  0
LINE
  8
0
  6
CONTINUOUS
 62
256
 10
-80.311226003529669
 20
66.939537082173445
 11
-80.220916821424851
 21
67.642494048373806
  0
LINE
  8
0
  6
CONTINUOUS
 62
256
 10
-80.578683018621803
 20
66.263594357961352
 11
-80.311226003529669
 21
66.939537082173445
  0
LINE
  8
0
  6
CONTINUOUS
 62
256
 10
-81.013009643602885
 20
65.640641975555951
 11
-80.578683018621803
 21
66.263594357961352
  0
LINE
  8
0
  6
CONTINUOUS
 62
256
 10
-81.597514949848076
 20
65.094619645657374
 11
-81.013009643602885
 21
65.640641975555951
  0
LINE
  8
0
  6
CONTINUOUS
 62
256
 10
-82.309736726232714
 20
64.646510700190760
 11
-81.597514949848076
 21
65.094619645657374
  0
LINE
  8
0
  6
CONTINUOUS
 62
256
 10
-83.122304689308919
 20
64.313535714627989
 11
-82.309736726232714
 21
64.646510700190760
  0
LINE
  8
0
  6
CONTINUOUS
 62
256
 10
-84.003992307949034
 20
64.108490730929745
 11
-83.122304689308919
 21
64.313535714627989
  0
LINE
  8
0
  6
CONTINUOUS
 62
256
 10
-84.920916821424839
 20
64.039255512828973
 11
-84.003992307949034
 21
64.108490730929745
  0
LINE
  8
0
  6
CONTINUOUS
 62
256
 10
-85.837841334900645
 20
64.108490730929745
 11
-84.920916821424839
 21
64.039255512828973
  0
LINE
  8
0
  6
CONTINUOUS
 62
256
 10
-86.719528953540760
 20
64.313535714627989
 11
-85.837841334900645
 21
64.108490730929745
  0
LINE
  8
0
  6
CONTINUOUS
 62
256
 10
-87.532096916616965
 20
64.646510700190760
 11
-86.719528953540760
 21
64.313535714627989
  0
LINE
  8
0
  6
CONTINUOUS
 62
256
 10
-88.244318693001603
 20
65.094619645657374
 11
-87.532096916616965
 21
64.646510700190760
  0
LINE
  8
0
  6
CONTINUOUS
 62
256
 10
-88.828823999246794
 20
65.640641975555951
 11
-88.244318693001603
 21
65.094619645657374
  0
LINE
  8
0
  6
CONTINUOUS
 62
256
 10
-89.263150624227876
 20
66.263594357961352
 11
-88.828823999246794
 21
65.640641975555951
  0
LINE
  8
0
  6
CONTINUOUS
 62
256
 10
-89.530607639320010
 20
66.939537082173445
 11
-89.263150624227876
 21
66.263594357961352
  0
LINE
  8
0
  6
CONTINUOUS
 62
256
 10
-89.620916821424828
 20
67.642494048373806
 11
-89.530607639320010
 21
66.939537082173445
  0
LINE
  8
0
  6
CONTINUOUS
 62
256
 10
-89.530607639320010
 20
68.345451014574166
 11
-89.620916821424828
 21
67.642494048373806
  0
LINE
  8
0
  6
CONTINUOUS
 62
256
 10
-89.263150624227876
 20
69.021393738786259
 11
-89.530607639320010
 21
68.345451014574166
  0
LINE
  8
0
  6
CONTINUOUS
 62
256
 10
-88.828823999246794
 20
69.644346121191660
 11
-89.263150624227876
 21
69.021393738786259
  0
LINE
  8
0
  6
CONTINUOUS
 62
256
 10
-88.244318693001603
 20
70.190368451090237
 11
-88.828823999246794
 21
69.644346121191660
  0
LINE
  8
0
  6
CONTINUOUS
 62
256
 10
-87.532096916616965
 20
70.638477396556851
 11
-88.244318693001603
 21
70.190368451090237
  0
LINE
  8
0
  6
CONTINUOUS
 62
256
 10
-86.719528953540760
 20
70.971452382119622
 11
-87.532096916616965
 21
70.638477396556851
  0
LINE
  8
0
  6
CONTINUOUS
 62
256
 10
-85.837841334900645
 20
71.176497365817866
 11
-86.719528953540760
 21
70.971452382119622
  0
LINE
  8
0
  6
CONTINUOUS
 62
256
 10
-84.920916821424839
 20
71.245732583918638
 11
-85.837841334900645
 21
71.176497365817866
  0
LINE
  8
0
  6
CONTINUOUS
 62
256
 10
-84.003992307949034
 20
71.176497365817866
 11
-84.920916821424839
 21
71.245732583918638
  0
LINE
  8
0
  6
CONTINUOUS
 62
256
 10
-83.122304689308919
 20
70.971452382119622
 11
-84.003992307949034
 21
71.176497365817866
  0
LINE
  8
0
  6
CONTINUOUS
 62
256
 10
-82.309736726232714
 20
70.638477396556851
 11
-83.122304689308919
 21
70.971452382119622
  0
LINE
  8
0
  6
CONTINUOUS
 62
256
 10
-81.597514949848076
 20
70.190368451090237
 11
-82.309736726232714
 21
70.638477396556851
  0
LINE
  8
0
  6
CONTINUOUS
 62
256
 10
-81.013009643602885
 20
69.644346121191660
 11
-81.597514949848076
 21
70.190368451090237
  0
LINE
  8
0
  6
CONTINUOUS
 62
256
 10
-80.578683018621803
 20
69.021393738786259
 11
-81.013009643602885
 21
69.644346121191660
  0
LINE
  8
0
  6
CONTINUOUS
 62
256
 10
-80.311226003529669
 20
68.345451014574166
 11
-80.578683018621803
 21
69.021393738786259
  0
LINE
  8
0
  6
CONTINUOUS
 62
256
 10
-80.220916821424851
 20
67.642494048373806
 11
-80.311226003529669
 21
68.345451014574166
  0
LINE
  8
0
  6
CONTINUOUS
 62
256
 10
-86.920916821425067
 20
64.650118494373373
 11
-84.920916821425067
 21
65.825903979996269
  0
LINE
  8
0
  6
CONTINUOUS
 62
256
 10
-84.920916821425067
 20
65.825903979996269
 11
-82.920916821425067
 21
67.478545619119586
  0
LINE
  8
0
  6
CONTINUOUS
 62
256
 10
-82.920916821425067
 20
64.650118494373373
 11
-84.920916821425067
 21
65.825903979996269
  0
LINE
  8
0
  6
CONTINUOUS
 62
256
 10
-84.920916821425067
 20
65.825903979996269
 11
-86.920916821425067
 21
67.478545619119586
  0
LINE
  8
0
  6
CONTINUOUS
 62
256
 10
-73.920916821425067
 20
63.630128641912279
 11
-73.920916821424839
 21
114.969825002721340
  0
ARC
  8
0
  6
CONTINUOUS
 62
256
 10
-76.920916821425067
 20
63.630128641912393
 40
3.000000000000000
 50
270.000000000000000
 51
359.999999999997780
  0
LINE
  8
0
  6
CONTINUOUS
 62
256
 10
-80.920916821425067
 20
60.630128641912393
 11
-76.920916821425067
 21
60.630128641912393
  0
ARC
  8
0
  6
CONTINUOUS
 62
256
 10
-80.920916821425067
 20
57.630128641912393
 40
3.000000000000000
 50
90.000000000000000
 51
180.000000000000000
  0
LINE
  8
0
  6
CONTINUOUS
 62
256
 10
-83.920916821425067
 20
55.969825002721336
 11
-151.425761770517850
 21
55.969825002721336
  0
LINE
  8
0
  6
CONTINUOUS
 62
256
 10
-83.920916821425067
 20
55.969825002721336
 11
-83.920916821425067
 21
57.630128641912393
  0
LINE
  8
0
  6
CONTINUOUS
 62
256
 10
-81.720916821403875
 20
60.521495100878383
 11
-81.720916821403875
 21
24.469825002721336
  0
LINE
  8
0
  6
CONTINUOUS
 62
256
 10
-81.720916821403875
 20
57.469825002721336
 11
8.279083178596125
 21
57.469825002721336
  0
LINE
  8
0
  6
CONTINUOUS
 62
256
 10
-80.311226003529669
 20
161.594198990868510
 11
-80.220916821424851
 21
162.297155957068870
  0
LINE
  8
0
  6
CONTINUOUS
 62
256
 10
-80.578683018621803
 20
160.918256266656410
 11
-80.311226003529669
 21
161.594198990868510
  0
LINE
  8
0
  6
CONTINUOUS
 62
256
 10
-81.013009643602885
 20
160.295303884251010
 11
-80.578683018621803
 21
160.918256266656410
  0
LINE
  8
0
  6
CONTINUOUS
 62
256
 10
-81.597514949848076
 20
159.749281554352420
 11
-81.013009643602885
 21
160.295303884251010
  0
LINE
  8
0
  6
CONTINUOUS
 62
256
 10
-82.309736726232714
 20
159.301172608885790
 11
-81.597514949848076
 21
159.749281554352420
  0
LINE
  8
0
  6
CONTINUOUS
 62
256
 10
-83.122304689308919
 20
158.968197623323050
 11
-82.309736726232714
 21
159.301172608885790
  0
LINE
  8
0
  6
CONTINUOUS
 62
256
 10
-84.003992307949034
 20
158.763152639624790
 11
-83.122304689308919
 21
158.968197623323050
  0
LINE
  8
0
  6
CONTINUOUS
 62
256
 10
-84.920916821424839
 20
158.693917421524020
 11
-84.003992307949034
 21
158.763152639624790
  0
LINE
  8
0
  6
CONTINUOUS
 62
256
 10
-85.837841334900645
 20
158.763152639624790
 11
-84.920916821424839
 21
158.693917421524020
  0
LINE
  8
0
  6
CONTINUOUS
 62
256
 10
-86.719528953540760
 20
158.968197623323050
 11
-85.837841334900645
 21
158.763152639624790
  0
LINE
  8
0
  6
CONTINUOUS
 62
256
 10
-87.532096916616965
 20
159.301172608885790
 11
-86.719528953540760
 21
158.968197623323050
  0
LINE
  8
0
  6
CONTINUOUS
 62
256
 10
-88.244318693001603
 20
159.749281554352420
 11
-87.532096916616965
 21
159.301172608885790
  0
LINE
  8
0
  6
CONTINUOUS
 62
256
 10
-88.828823999246794
 20
160.295303884251010
 11
-88.244318693001603
 21
159.749281554352420
  0
LINE
  8
0
  6
CONTINUOUS
 62
256
 10
-89.263150624227876
 20
160.918256266656410
 11
-88.828823999246794
 21
160.295303884251010
  0
LINE
  8
0
  6
CONTINUOUS
 62
256
 10
-89.530607639320010
 20
161.594198990868510
 11
-89.263150624227876
 21
160.918256266656410
  0
LINE
  8
0
  6
CONTINUOUS
 62
256
 10
-89.620916821424828
 20
162.297155957068870
 11
-89.530607639320010
 21
161.594198990868510
  0
LINE
  8
0
  6
CONTINUOUS
 62
256
 10
-89.530607639320010
 20
163.000112923269230
 11
-89.620916821424828
 21
162.297155957068870
  0
LINE
  8
0
  6
CONTINUOUS
 62
256
 10
-89.263150624227876
 20
163.676055647481320
 11
-89.530607639320010
 21
163.000112923269230
  0
LINE
  8
0
  6
CONTINUOUS
 62
256
 10
-88.828823999246794
 20
164.299008029886720
 11
-89.263150624227876
 21
163.676055647481320
  0
LINE
  8
0
  6
CONTINUOUS
 62
256
 10
-88.244318693001603
 20
164.845030359785310
 11
-88.828823999246794
 21
164.299008029886720
  0
LINE
  8
0
  6
CONTINUOUS
 62
256
 10
-87.532096916616965
 20
165.293139305251940
 11
-88.244318693001603
 21
164.845030359785310
  0
LINE
  8
0
  6
CONTINUOUS
 62
256
 10
-86.719528953540760
 20
165.626114290814680
 11
-87.532096916616965
 21
165.293139305251940
  0
LINE
  8
0
  6
CONTINUOUS
 62
256
 10
-85.837841334900645
 20
165.831159274512940
 11
-86.719528953540760
 21
165.626114290814680
  0
LINE
  8
0
  6
CONTINUOUS
 62
256
 10
-84.920916821424839
 20
165.900394492613710
 11
-85.837841334900645
 21
165.831159274512940
  0
LINE
  8
0
  6
CONTINUOUS
 62
256
 10
-84.003992307949034
 20
165.831159274512940
 11
-84.920916821424839
 21
165.900394492613710
  0
LINE
  8
0
  6
CONTINUOUS
 62
256
 10
-83.122304689308919
 20
165.626114290814680
 11
-84.003992307949034
 21
165.831159274512940
  0
LINE
  8
0
  6
CONTINUOUS
 62
256
 10
-82.309736726232714
 20
165.293139305251940
 11
-83.122304689308919
 21
165.626114290814680
  0
LINE
  8
0
  6
CONTINUOUS
 62
256
 10
-81.597514949848076
 20
164.845030359785310
 11
-82.309736726232714
 21
165.293139305251940
  0
LINE
  8
0
  6
CONTINUOUS
 62
256
 10
-81.013009643602885
 20
164.299008029886720
 11
-81.597514949848076
 21
164.845030359785310
  0
LINE
  8
0
  6
CONTINUOUS
 62
256
 10
-80.578683018621803
 20
163.676055647481320
 11
-81.013009643602885
 21
164.299008029886720
  0
LINE
  8
0
  6
CONTINUOUS
 62
256
 10
-80.311226003529669
 20
163.000112923269230
 11
-80.578683018621803
 21
163.676055647481320
  0
LINE
  8
0
  6
CONTINUOUS
 62
256
 10
-80.220916821424851
 20
162.297155957068870
 11
-80.311226003529669
 21
163.000112923269230
  0
LINE
  8
0
  6
CONTINUOUS
 62
256
 10
-86.920916821425067
 20
165.289531511069300
 11
-84.920916821425067
 21
164.113746025446520
  0
LINE
  8
0
  6
CONTINUOUS
 62
256
 10
-84.920916821425067
 20
164.113746025446520
 11
-82.920916821425067
 21
162.461104386323090
  0
LINE
  8
0
  6
CONTINUOUS
 62
256
 10
-82.920916821425067
 20
165.289531511069300
 11
-84.920916821425067
 21
164.113746025446520
  0
LINE
  8
0
  6
CONTINUOUS
 62
256
 10
-84.920916821425067
 20
164.113746025446520
 11
-86.920916821425067
 21
162.461104386323090
  0
LINE
  8
0
  6
CONTINUOUS
 62
256
 10
-73.920916821425067
 20
173.969825002721340
 11
-73.920916821424839
 21
114.969825002721340
  0
ARC
  8
0
  6
CONTINUOUS
 62
256
 10
-151.425761770517850
 20
153.369825002721310
 40
20.600000000000023
 50
90.000000000000000
 51
124.999999999999630
  0
ARC
  8
0
  6
CONTINUOUS
 62
256
 10
-169.320916821425160
 20
162.813445136350650
 40
2.600000000000131
 50
125.000000000001180
 51
180.000000000000000
  0
LINE
  8
0
  6
CONTINUOUS
 62
256
 10
-171.920916821425070
 20
162.813445136350650
 11
-171.920916821425070
 21
114.969825002721340
  0
LINE
  8
0
  6
CONTINUOUS
 62
256
 10
-163.241436359349220
 20
170.244357115074540
 11
-170.812215555938000
 21
164.943240451501990
  0
LINE
  8
0
  6
CONTINUOUS
 62
256
 10
-73.920916821425067
 20
173.969825002721340
 11
-151.425761770517850
 21
173.969825002721340
  0
LINE
  8
0
  6
CONTINUOUS
 62
256
 10
66.579083178596079
 20
168.469825002721340
 11
-73.920916821425067
 21
168.469825002721340
  0
LINE
  8
0
  6
CONTINUOUS
 62
256
 10
-73.920916821425067
 20
128.969825002721340
 11
66.579083178596079
 21
128.969825002721340
  0
LINE
  8
0
  6
CONTINUOUS
 62
256
 10
-73.920916821425067
 20
134.597859659359190
 11
66.579083178596079
 21
134.597859659359190
  0
LINE
  8
0
  6
CONTINUOUS
 62
256
 10
-73.920916821425067
 20
133.355939794471280
 11
66.579083178596079
 21
133.355939794471280
  0
LINE
  8
0
  6
CONTINUOUS
 62
256
 10
-73.920916821425067
 20
137.808064682717490
 11
66.579083178596079
 21
137.808064682717490
  0
LINE
  8
0
  6
CONTINUOUS
 62
256
 10
-73.920916821425067
 20
139.154466408216080
 11
66.579083178596079
 21
139.154466408216080
  0
LINE
  8
0
  6
CONTINUOUS
 62
256
 10
-73.920916821425067
 20
142.247197399881320
 11
66.579083178596079
 21
142.247197399881320
  0
LINE
  8
0
  6
CONTINUOUS
 62
256
 10
-73.920916821425067
 20
143.726220553358420
 11
66.579083178596079
 21
143.726220553358420
  0
LINE
  8
0
  6
CONTINUOUS
 62
256
 10
-73.920916821425067
 20
146.684216161491350
 11
66.579083178596079
 21
146.684216161491350
  0
LINE
  8
0
  6
CONTINUOUS
 62
256
 10
-73.920916821425067
 20
148.273425954230110
 11
66.579083178596079
 21
148.273425954230110
  0
LINE
  8
0
  6
CONTINUOUS
 62
256
 10
-73.920916821425067
 20
156.011738773061100
 11
66.579083178596079
 21
156.011738773061100
  0
LINE
  8
0
  6
CONTINUOUS
 62
256
 10
-73.920916821425067
 20
161.102907597604030
 11
66.579083178596079
 21
161.102907597604030
  0
LINE
  8
0
  6
CONTINUOUS
 62
256
 10
-73.920916821425067
 20
165.469825002721340
 11
66.579083178596079
 21
165.469825002721340
  0
LINE
  8
0
  6
CONTINUOUS
 62
256
 10
-73.920916821425067
 20
165.969825002721340
 11
66.579083178596079
 21
165.969825002721340
  0
LINE
  8
0
  6
CONTINUOUS
 62
256
 10
-73.920916821425067
 20
81.666224051212566
 11
66.579083178596079
 21
81.666224051212566
  0
LINE
  8
0
  6
CONTINUOUS
 62
256
 10
-73.920916821425067
 20
83.255433843951323
 11
66.579083178596079
 21
83.255433843951323
  0
LINE
  8
0
  6
CONTINUOUS
 62
256
 10
-73.920916821425067
 20
86.213429452084256
 11
66.579083178596079
 21
86.213429452084256
  0
LINE
  8
0
  6
CONTINUOUS
 62
256
 10
-73.920916821425067
 20
87.692452605561357
 11
66.579083178596079
 21
87.692452605561357
  0
LINE
  8
0
  6
CONTINUOUS
 62
256
 10
-73.920916821425067
 20
90.785183597226592
 11
66.579083178596079
 21
90.785183597226592
  0
LINE
  8
0
  6
CONTINUOUS
 62
256
 10
-73.920916821424839
 20
92.131585322725186
 11
66.579083178596079
 21
92.131585322725186
  0
LINE
  8
0
  6
CONTINUOUS
 62
256
 10
-73.920916821424839
 20
95.341790346083485
 11
66.579083178596079
 21
95.341790346083485
  0
LINE
  8
0
  6
CONTINUOUS
 62
256
 10
-73.920916821424839
 20
96.583710210971390
 11
66.579083178596079
 21
96.583710210971390
  0
LINE
  8
0
  6
CONTINUOUS
 62
256
 10
-73.920916821425067
 20
100.969825002721340
 11
66.579083178596079
 21
100.969825002721340
  0
LINE
  8
0
  6
CONTINUOUS
 62
256
 10
66.579083178596079
 20
61.469825002721336
 11
8.279083178596125
 21
61.469825002721336
  0
LINE
  8
0
  6
CONTINUOUS
 62
256
 10
-73.920916821425067
 20
63.969825002721336
 11
66.579083178596079
 21
63.969825002721336
  0
LINE
  8
0
  6
CONTINUOUS
 62
256
 10
-73.920916821425067
 20
64.469825002721336
 11
66.579083178596079
 21
64.469825002721336
  0
LINE
  8
0
  6
CONTINUOUS
 62
256
 10
-73.920916821425067
 20
68.836742407838642
 11
66.579083178596079
 21
68.836742407838642
  0
LINE
  8
0
  6
CONTINUOUS
 62
256
 10
-73.920916821425067
 20
73.927911232381575
 11
66.579083178596079
 21
73.927911232381575
  0
LINE
  8
0
  6
CONTINUOUS
 62
256
 10
66.579083178596079
 20
168.469825002721340
 11
66.579083178596079
 21
114.969825002721340
  0
LINE
  8
0
  6
CONTINUOUS
 62
256
 10
66.579083178596079
 20
61.469825002721336
 11
66.579083178596079
 21
114.969825002721340
  0
LINE
  8
0
  6
DASHDOT
 62
256
 10
-60.720916821403904
 20
37.469825002721336
 11
-78.720916821403904
 21
37.469825002721336
  0
LINE
  8
0
  6
DASHDOT
 62
256
 10
-69.720916821403904
 20
28.469825002721336
 11
-69.720916821403904
 21
55.471424325271073
  0
LINE
  8
0
  6
DASHED
 62
256
 10
-76.720916821403904
 20
57.469825002721336
 11
-76.720916821403904
 21
37.469825002721336
  0
LINE
  8
0
  6
DASHED
 62
256
 10
-62.720916821403904
 20
57.469825002721336
 11
-62.720916821403904
 21
37.469825002721336
  0
ARC
  8
0
  6
DASHED
 62
256
 10
-69.720916821403904
 20
37.469825002721336
 40
7.000000000000000
 50
180.000000000000000
 51
0.000000000000000
  0
CIRCLE
  8
0
  6
DASHED
 62
256
 10
-69.720916821403904
 20
37.469825002721336
 40
6.000000000000000
  0
LINE
  8
0
  6
DASHDOT
 62
256
 10
-322.950058640544740
 20
-73.551634516981608
 11
-287.780795363767540
 21
-73.551634516981608
  0
LINE
  8
0
  6
DASHDOT
 62
256
 10
-416.172062063036040
 20
-88.551634516981721
 11
-202.617372032821720
 21
-88.551634516981721
  0
LINE
  8
0
  6
DASHDOT
 62
256
 10
-305.211307642435030
 20
-20.692715057946657
 11
-305.211307642435030
 21
-152.901885719413260
  0
LINE
  8
0
  6
CONTINUOUS
 62
256
 10
-261.711300958268510
 20
-143.551634516981610
 11
-261.711300958268510
 21
-139.169935965365080
  0
ARC
  8
0
  6
CONTINUOUS
 62
256
 10
-276.974653425516180
 20
-104.643301183648300
 40
35.500000000000021
 50
308.712608107085260
 51
314.999999999999370
  0
ARC
  8
0
  6
CONTINUOUS
 62
256
 10
-271.211323621196190
 20
-139.051634516981610
 40
7.000000000000026
 50
319.994853367676850
 51
348.763010699952590
  0
LINE
  8
0
  6
CONTINUOUS
 62
256
 10
-270.692828896863200
 20
-141.061687791879080
 11
-271.211309586326310
 21
-141.361032042189720
  0
LINE
  8
0
  6
CONTINUOUS
 62
256
 10
-271.211309944626630
 20
-141.361031717828610
 11
-271.596238311969270
 21
-141.138792519224920
  0
ARC
  8
0
  6
CONTINUOUS
 62
256
 10
-271.211307642434970
 20
-139.051634516981720
 40
4.249999046325112
 50
213.421052387187270
 51
336.366492255661850
  0
ARC
  8
0
  6
CONTINUOUS
 62
256
 10
-339.211291663674050
 20
-139.051634516981610
 40
7.000000000000113
 50
319.994853367677480
 51
338.582462249806040
  0
LINE
  8
0
  6
CONTINUOUS
 62
256
 10
-339.211273382720950
 20
-141.361031717828610
 11
-338.826349083187320
 21
-141.138794867783080
  0
LINE
  8
0
  6
CONTINUOUS
 62
256
 10
-339.729748799634540
 20
-141.061691042843850
 11
-339.211273741021160
 21
-141.361032042189720
  0
ARC
  8
0
  6
CONTINUOUS
 62
256
 10
-339.211275684912610
 20
-139.051634516981720
 40
4.249999046324948
 50
203.633554367305890
 51
326.578910144749160
  0
ARC
  8
0
  6
CONTINUOUS
 62
256
 10
-339.211291663674050
 20
-139.051634516981610
 40
6.999999999999814
 50
191.236989300047780
 51
220.005146632323740
  0
LINE
  8
0
  6
CONTINUOUS
 62
256
 10
-348.711314326601950
 20
-143.551634516981840
 11
-348.711314326601950
 21
-139.169935965364890
  0
ARC
  8
0
  6
CONTINUOUS
 62
256
 10
-333.447961859354340
 20
-104.643301183648530
 40
35.500000000000043
 50
225.000000000000770
 51
231.287391892914880
  0
LINE
  8
0
  6
CONTINUOUS
 62
256
 10
-361.410211040486960
 20
-124.057206342014840
 11
-362.353443266166100
 21
-123.113974116335730
  0
LINE
  8
0
  6
CONTINUOUS
 62
256
 10
-368.211307642435260
 20
-115.515047797396730
 11
-368.211307642435260
 21
-130.309981596263130
  0
ARC
  8
0
  6
CONTINUOUS
 62
256
 10
-348.211307642435260
 20
-108.971838492604660
 40
19.999999999999879
 50
195.974204007402700
 51
225.000000000000400
  0
ARC
  8
0
  6
CONTINUOUS
 62
256
 10
-360.211291663673820
 20
-67.551634516981835
 40
4.999999999999901
 50
126.240697575482170
 51
134.427260397015460
  0
ARC
  8
0
  6
CONTINUOUS
 62
256
 10
-323.211307642435260
 20
-77.008266224751310
 40
44.999999999999886
 50
148.490164730418170
 51
155.577054368654470
  0
ARC
  8
0
  6
CONTINUOUS
 62
256
 10
-323.211307642435260
 20
-77.008266224751310
 40
44.999999999999915
 50
92.906384370709901
 51
115.154512373014270
  0
LINE
  8
0
  6
CONTINUOUS
 62
256
 10
-331.961291663673820
 20
-35.445744699401757
 11
-331.961291663673820
 21
-33.696172070808757
  0
ARC
  8
0
  6
CONTINUOUS
 62
256
 10
-337.211291663673820
 20
-39.551634516981721
 40
4.249999046325408
 50
65.218588681290470
 51
124.030555795933740
  0
LINE
  8
0
  6
CONTINUOUS
 62
256
 10
-278.461291663673820
 20
-35.445746838133630
 11
-278.461291663673820
 21
-33.696172070808757
  0
ARC
  8
0
  6
CONTINUOUS
 62
256
 10
-273.211291663673760
 20
-39.551634516981721
 40
4.249999046324875
 50
55.969368198859584
 51
114.781478127106790
  0
LINE
  8
0
  6
CONTINUOUS
 62
256
 10
-251.872362693393540
 20
-129.745591915770890
 11
-246.678405294604320
 21
-124.551634516981720
  0
ARC
  8
0
  6
CONTINUOUS
 62
256
 10
-244.211307642435200
 20
-125.551634516981590
 40
2.000000000000000
 50
0.000000000000000
 51
29.999999999996092
  0
LINE
  8
0
  6
CONTINUOUS
 62
256
 10
-242.211307642435200
 20
-124.551634516981720
 11
-242.211307642435200
 21
-130.309981596263130
  0
ARC
  8
0
  6
CONTINUOUS
 62
256
 10
-287.211307642435260
 20
-77.008266224751310
 40
45.000000000000043
 50
64.845487626985744
 51
87.093615629290113
  0
ARC
  8
0
  6
CONTINUOUS
 62
256
 10
-305.211307642435260
 20
-431.551634516981610
 40
400.000000000000000
 50
87.093615629290099
 51
90.000000000000000
  0
ARC
  8
0
  6
CONTINUOUS
 62
256
 10
-305.211307642435260
 20
-431.551634516981610
 40
400.000000000000000
 50
90.000000000000000
 51
92.906384370709901
  0
ARC
  8
0
  6
CONTINUOUS
 62
256
 10
-279.461291663673820
 20
-33.696172070808757
 40
1.000000000000000
 50
0.000000000000000
 51
79.855205773680638
  0
ARC
  8
0
  6
CONTINUOUS
 62
256
 10
-330.961291663673820
 20
-33.696172070808757
 40
1.000000000000024
 50
100.144794226305890
 51
180.000000000000000
  0
ARC
  8
0
  6
CONTINUOUS
 62
256
 10
-271.211307642434970
 20
-139.051634516981720
 40
7.000000000000062
 50
200.924832427638110
 51
214.849904579047800
  0
ARC
  8
0
  6
CONTINUOUS
 62
256
 10
-339.211275684912610
 20
-139.051634516981720
 40
7.000000000000076
 50
325.150095420952820
 51
339.075167572360840
  0
LINE
  8
0
  6
CONTINUOUS
 62
256
 10
-265.466744995897050
 20
-143.051634516981840
 11
-269.775169803030910
 21
-143.051634516981840
  0
LINE
  8
0
  6
CONTINUOUS
 62
256
 10
-344.955838331450420
 20
-143.051634516981840
 11
-340.647413524316560
 21
-143.051634516981840
  0
LINE
  8
0
  6
CONTINUOUS
 62
256
 10
-240.211314326601890
 20
-143.551634516981610
 11
-240.211314326601890
 21
-134.051634516981610
  0
LINE
  8
0
  6
CONTINUOUS
 62
256
 10
-358.550252591476920
 20
-129.745591915770890
 11
-364.158423552639080
 21
-124.137420954608960
  0
LINE
  8
0
  6
CONTINUOUS
 62
256
 10
-366.211307642435260
 20
-123.551634516981840
 11
-365.572637115011960
 21
-123.551634516981840
  0
LINE
  8
0
  6
CONTINUOUS
 62
256
 10
-367.711314326601950
 20
-131.551634516981840
 11
-357.334323321261540
 21
-131.551634516981840
  0
LINE
  8
0
  6
CONTINUOUS
 62
256
 10
-370.211300958268570
 20
-143.551634516981840
 11
-370.211300958268570
 21
-134.051634516981840
  0
LINE
  8
0
  6
DASHDOT
 62
256
 10
-362.211307642435030
 20
-126.587598280882620
 11
-362.211307642435030
 21
-150.762412603598590
  0
LINE
  8
0
  6
CONTINUOUS
 62
256
 10
-242.711300958268510
 20
-131.551634516981610
 11
-253.088291963608810
 21
-131.551634516981610
  0
LINE
  8
0
  6
DASHDOT
 62
256
 10
-248.211307642435320
 20
-126.587598280882370
 11
-248.211307642435320
 21
-150.762412603598360
  0
ARC
  8
0
  6
DASHED
 62
256
 10
-242.711314326601890
 20
-134.051634516981610
 40
2.500000000000000
 50
0.000000000000000
 51
56.250909049796419
  0
ARC
  8
0
  6
CONTINUOUS
 62
256
 10
-365.572637115011960
 20
-125.551634516981840
 40
1.999999999999695
 50
45.000000000000000
 51
90.000000000000000
  0
ARC
  8
0
  6
CONTINUOUS
 62
256
 10
-366.211307642435260
 20
-125.551634516981840
 40
2.000000000000000
 50
90.000000000000000
 51
180.000000000000000
  0
ARC
  8
0
  6
CONTINUOUS
 62
256
 10
-367.711314326601950
 20
-134.051634516981840
 40
2.500000000000000
 50
90.000000000000000
 51
180.000000000000000
  0
ARC
  8
0
  6
DASHED
 62
256
 10
-367.711300958268570
 20
-134.051634516981840
 40
2.500000000000074
 50
123.749090950200680
 51
180.000000000000000
  0
ARC
  8
0
  6
CONTINUOUS
 62
256
 10
-370.211307642435260
 20
-130.309981596263130
 40
2.000000000000034
 50
303.749090950199620
 51
0.000000000000000
  0
ARC
  8
0
  6
CONTINUOUS
 62
256
 10
-253.088291963608810
 20
-133.551634516981610
 40
2.000000000000000
 50
90.000000000000000
 51
129.566222467277900
  0
ARC
  8
0
  6
CONTINUOUS
 62
256
 10
-242.711300958268510
 20
-134.051634516981610
 40
2.500000000000000
 50
0.000000000000000
 51
90.000000000000000
  0
ARC
  8
0
  6
CONTINUOUS
 62
256
 10
-240.211307642435200
 20
-130.309981596263130
 40
2.000000000000000
 50
180.000000000000000
 51
236.250909049800580
  0
LINE
  8
0
  6
CONTINUOUS
 62
256
 10
-348.711314326601950
 20
-143.051634516981840
 11
-370.211300958268570
 21
-143.051634516981840
  0
LINE
  8
0
  6
CONTINUOUS
 62
256
 10
-261.711300958268510
 20
-143.051634516981610
 11
-240.211314326601890
 21
-143.051634516981610
  0
ARC
  8
0
  6
CONTINUOUS
 62
256
 10
-357.334323321261540
 20
-133.551634516981840
 40
1.999999999999928
 50
50.433777532722338
 51
90.000000000000000
  0
ARC
  8
0
  6
CONTINUOUS
 62
256
 10
-271.211323621196410
 20
-139.051634516981610
 40
6.999999999999931
 50
200.924832427640500
 51
220.005146632323520
  0
LINE
  8
0
  6
CONTINUOUS
 62
256
 10
-337.775137845508430
 20
-143.051634516981840
 11
-333.466713038374560
 21
-143.051634516981840
  0
LINE
  8
0
  6
CONTINUOUS
 62
256
 10
-333.849389016292430
 20
-143.551634516981840
 11
-370.211300958268570
 21
-143.551634516981840
  0
LINE
  8
0
  6
CONTINUOUS
 62
256
 10
-272.647445481839040
 20
-143.051634516981840
 11
-276.955870288972850
 21
-143.051634516981840
  0
LINE
  8
0
  6
CONTINUOUS
 62
256
 10
-276.573226268578310
 20
-143.551634516981610
 11
-240.211314326601890
 21
-143.551634516981610
  0
LINE
  8
0
  6
CONTINUOUS
 62
256
 10
-363.711307642435030
 20
-71.221025756762174
 11
-363.711307642435030
 21
-62.594134516981740
  0
INSERT
  8
0
  2
ZU_SYM_3
 10
-386.656129848778390
 20
-129.470591128242180
 50
357.137594773886350
  0
LINE
  8
0
  6
CONTINUOUS
 62
256
 10
-385.307814191292890
 20
-134.544253009742310
 11
-386.905817933497470
 21
-134.464352822631330
  0
ARC
  8
0
  6
CONTINUOUS
 62
256
 10
-384.511307642434990
 20
-102.594134516981740
 40
20.800000000000082
 50
274.191726156007410
 51
354.952683218992150
  0
ARC
  8
0
  6
CONTINUOUS
 62
256
 10
-388.437773473767270
 20
-125.053494839025230
 40
2.000000000000154
 50
357.137594773887600
 51
80.083463391768035
  0
ARC
  8
0
  6
CONTINUOUS
 62
256
 10
-382.844760376051450
 20
-125.333145493911030
 40
1.999999999999962
 50
94.191726156001650
 51
177.137594773887370
  0
ARC
  8
0
  6
CONTINUOUS
 62
256
 10
-384.511307642434990
 20
-102.594134516981740
 40
20.799999999999986
 50
174.275189547776620
 51
205.640070215894870
  0
ARC
  8
0
  6
CONTINUOUS
 62
256
 10
-384.511307642434990
 20
-102.594134516981740
 40
20.799999999999926
 50
205.640070215894870
 51
260.083463391769380
  0
ARC
  8
0
  6
CONTINUOUS
 62
256
 10
-384.511307642434990
 20
-102.594134516981740
 40
20.799999999999986
 50
174.275189547776620
 51
205.640070215894870
  0
ARC
  8
0
  6
CONTINUOUS
 62
256
 10
-382.511307642434990
 20
-62.594134516981740
 40
18.799999999999933
 50
144.191373186504250
 51
174.275189547776420
  0
LINE
  8
0
  6
CONTINUOUS
 62
256
 10
-405.207566994055920
 20
-100.519321549400710
 11
-401.217542056399910
 21
-60.718822796283462
  0
LINE
  8
0
  6
CONTINUOUS
 62
256
 10
-380.214177263015930
 20
-32.671514444201534
 11
-385.307814191292890
 21
-134.544253009742310
  0
LINE
  8
0
  6
CONTINUOUS
 62
256
 10
-381.812181005220510
 20
-32.591614257091351
 11
-386.905817933497470
 21
-134.464352822631330
  0
ARC
  8
0
  6
CONTINUOUS
 62
256
 10
-382.929810107071030
 20
-35.339229853336178
 40
1.299999237060475
 50
87.137594090651845
 51
160.536063666412730
  0
ARC
  8
0
  6
CONTINUOUS
 62
256
 10
-383.149535697823010
 20
-39.733741668373909
 40
1.299999237060493
 50
193.739143184211430
 51
267.137612759980130
  0
LINE
  8
0
  6
CONTINUOUS
 62
256
 10
-381.887087430635800
 20
-34.089742765408005
 11
-382.864891243143350
 21
-34.040852574782662
  0
LINE
  8
0
  6
CONTINUOUS
 62
256
 10
-382.236650749242930
 20
-41.081009137552883
 11
-383.214454561750700
 21
-41.032118946927540
  0
LINE
  8
0
  6
CONTINUOUS
 62
256
 10
-381.887087430635800
 20
-34.089742765408005
 11
-382.236650749242930
 21
-41.081009137552883
  0
LINE
  8
0
  6
CONTINUOUS
 62
256
 10
-381.887087430635800
 20
-34.089742765408005
 11
-382.236650749242930
 21
-41.081009137552883
  0
POINT
  8
0
  6
CONTINUOUS
 62
256
 10
-382.061869089939360
 20
-37.585375951480387
  0
ARC
  8
0
  6
CONTINUOUS
 62
256
 10
-375.669854502114960
 20
-37.904976680871641
 40
9.000000000000060
 50
160.536063666407810
 51
193.739143184213500
  0
LINE
  8
0
  6
CONTINUOUS
 62
256
 10
-381.812181005220510
 20
-32.591614257091351
 11
-380.214177263015930
 21
-32.671514444201534
  0
ARC
  8
0
  6
CONTINUOUS
 62
256
 10
-382.511307642434990
 20
-62.594134516981740
 40
18.800000000000036
 50
94.873974813842736
 51
144.191373186504220
  0
LINE
  8
0
  6
CONTINUOUS
 62
256
 10
-381.013179134118220
 20
-32.631564350646499
 11
-386.106816062395180
 21
-134.504302916186590
  0
ARC
  8
0
  6
CONTINUOUS
 62
256
 10
-384.278566106063860
 20
-41.869347484958212
 40
1.999999999999928
 50
274.873974813840960
 51
357.137594773887320
  0
ARC
  8
0
  6
CONTINUOUS
 62
256
 10
-378.685553008348050
 20
-42.148998139844025
 40
1.999999999999927
 50
177.137594773887290
 51
259.401214733933840
  0
ARC
  8
0
  6
CONTINUOUS
 62
256
 10
-382.511307642434990
 20
-62.594134516981740
 40
18.799999999999955
 50
0.000000000000000
 51
79.401214733933926
  0
ARC
  8
0
  6
CONTINUOUS
 62
256
 10
-513.711307642435030
 20
-88.551634516981721
 40
300.000000000000000
 50
353.967950853630270
 51
6.032049146369774
  0
ARC
  8
0
  6
CONTINUOUS
 62
256
 10
-220.344642869492700
 20
-57.551634516981949
 40
5.000000000000143
 50
6.032049146370343
 51
90.000000000000000
  0
ARC
  8
0
  6
CONTINUOUS
 62
256
 10
-220.344642869492700
 20
-119.551634516981720
 40
5.000000000000000
 50
270.000000000000000
 51
353.967950853629650
  0
LINE
  8
0
  6
CONTINUOUS
 62
256
 10
-213.211307642435090
 20
-91.051634516981721
 11
-213.721724489952810
 21
-91.051634516981721
  0
LINE
  8
0
  6
CONTINUOUS
 62
256
 10
-213.211307642435090
 20
-91.051634516981721
 11
-213.211307642435090
 21
-86.051634516981721
  0
LINE
  8
0
  6
CONTINUOUS
 62
256
 10
-213.211307642435090
 20
-86.051634516981494
 11
-213.721724489952810
 21
-86.051634516981494
  0
LINE
  8
0
  6
CONTINUOUS
 62
256
 10
-247.711307642435090
 20
-124.551634516981720
 11
-220.344642869492700
 21
-124.551634516981720
  0
LINE
  8
0
  6
CONTINUOUS
 62
256
 10
-247.711307642435090
 20
-52.551634516981949
 11
-220.344642869492700
 21
-52.551634516981949
  0
LINE
  8
0
  6
CONTINUOUS
 62
256
 10
-249.211347159237280
 20
-52.551634516981949
 11
-247.711307642435090
 21
-52.551634516981949
  0
LINE
  8
0
  6
CONTINUOUS
 62
256
 10
-247.711307642435090
 20
-124.551634516981720
 11
-247.711307642435090
 21
-118.544133579244090
  0
LINE
  8
0
  6
CONTINUOUS
 62
256
 10
-247.711307642435090
 20
-58.563648662551486
 11
-247.711307642435090
 21
-52.551634516981949
  0
LINE
  8
0
  6
CONTINUOUS
 62
256
 10
-249.211347159237280
 20
-124.551634516981490
 11
-247.711307642435090
 21
-124.551634516981490
  0
ARC
  8
0
  6
CONTINUOUS
 62
256
 10
-63.611307642434952
 20
-88.551634516981721
 40
290.796999999999850
 50
174.998349729065040
 51
180.000000000000000
  0
LINE
  8
0
  6
CONTINUOUS
 62
256
 10
-347.288897958291050
 20
-50.306137130733077
 11
-343.948592925013370
 21
-46.965832097455177
  0
ARC
  8
0
  6
CONTINUOUS
 62
256
 10
-332.583198229954410
 20
-65.011836859069717
 40
20.797000000000015
 50
135.000000000000000
 51
174.998349729064640
  0
ARC
  8
0
  6
CONTINUOUS
 62
256
 10
-305.211307642435030
 20
-435.151634516981860
 40
390.797000000000030
 50
90.000000000000000
 51
95.417963762360529
  0
ARC
  8
0
  6
CONTINUOUS
 62
256
 10
-341.827272581453370
 20
-49.087152441014950
 40
3.000000000000067
 50
95.417963762365673
 51
135.000000000003470
  0
ARC
  8
0
  6
CONTINUOUS
 62
256
 10
-63.611307642434952
 20
-88.551634516981721
 40
290.797000000000200
 50
180.000000000000000
 51
185.001650270934930
  0
LINE
  8
0
  6
CONTINUOUS
 62
256
 10
-347.288897958291050
 20
-126.797131903230370
 11
-343.948592925013370
 21
-130.137436936508270
  0
ARC
  8
0
  6
CONTINUOUS
 62
256
 10
-332.583198229954410
 20
-112.091432174893730
 40
20.796999999999880
 50
185.001650270935300
 51
225.000000000000030
  0
ARC
  8
0
  6
CONTINUOUS
 62
256
 10
-305.211307642435030
 20
258.048365483018420
 40
390.797000000000030
 50
264.582036237639500
 51
270.000000000000000
  0
ARC
  8
0
  6
CONTINUOUS
 62
256
 10
-341.827272581453370
 20
-128.016116592948490
 40
3.000000000000346
 50
224.999999999996930
 51
264.582036237634780
  0
ARC
  8
0
  6
CONTINUOUS
 62
256
 10
-546.811307642435390
 20
-88.551634516981721
 40
290.797000000000080
 50
354.998349729065010
 51
0.000000000000000
  0
LINE
  8
0
  6
CONTINUOUS
 62
256
 10
-263.133717326579070
 20
-126.797131903230370
 11
-266.474022359856750
 21
-130.137436936508270
  0
ARC
  8
0
  6
CONTINUOUS
 62
256
 10
-277.839417054915660
 20
-112.091432174893730
 40
20.796999999999976
 50
314.999999999999890
 51
354.998349729064670
  0
ARC
  8
0
  6
CONTINUOUS
 62
256
 10
-305.211307642435030
 20
258.048365483018420
 40
390.797000000000030
 50
270.000000000000000
 51
275.417963762360500
  0
ARC
  8
0
  6
CONTINUOUS
 62
256
 10
-268.595342703416750
 20
-128.016116592948490
 40
3.000000000000067
 50
275.417963762365730
 51
315.000000000003470
  0
ARC
  8
0
  6
CONTINUOUS
 62
256
 10
-546.811307642435390
 20
-88.551634516981721
 40
290.797000000000420
 50
0.000000000000000
 51
5.752282731536625
  0
ARC
  8
0
  6
CONTINUOUS
 62
256
 10
-268.595342703416750
 20
-49.087152441014950
 40
3.000000000000346
 50
44.999999999996930
 51
84.582036237634824
  0
ARC
  8
0
  6
CONTINUOUS
 62
256
 10
-305.211307642435030
 20
-435.151634516981860
 40
390.797000000000030
 50
84.582036237639471
 51
90.000000000000000
  0
LINE
  8
0
  6
CONTINUOUS
 62
256
 10
-260.586608487817390
 20
-52.853245969495219
 11
-266.474022359856750
 21
-46.965832097455177
  0
ARC
  8
0
  6
CONTINUOUS
 62
256
 10
-344.642174642522380
 20
-43.129687774683362
 40
6.600000000000009
 50
95.743681810995113
 51
135.000000000002930
  0
ARC
  8
0
  6
CONTINUOUS
 62
256
 10
-344.642174642522380
 20
-133.973581259280080
 40
6.600000000000278
 50
224.999999999997190
 51
264.256318189004620
  0
ARC
  8
0
  6
CONTINUOUS
 62
256
 10
-265.780440642347740
 20
-133.973581259280080
 40
6.600000000000009
 50
275.743681810995100
 51
315.000000000002960
  0
ARC
  8
0
  6
CONTINUOUS
 62
256
 10
-265.780440642347740
 20
-43.129687774683362
 40
6.600000000000278
 50
44.999999999997208
 51
84.256318189005128
  0
ARC
  8
0
  6
CONTINUOUS
 62
256
 10
-305.211307642435030
 20
-435.151634516981860
 40
400.599999999999910
 50
90.000000000000000
 51
95.743681810993436
  0
ARC
  8
0
  6
CONTINUOUS
 62
256
 10
-305.211307642435030
 20
258.048365483018420
 40
400.599999999999910
 50
264.256318189006550
 51
270.000000000000000
  0
ARC
  8
0
  6
CONTINUOUS
 62
256
 10
-305.211307642435030
 20
258.048365483018420
 40
400.599999999999910
 50
270.000000000000000
 51
275.743681810993510
  0
ARC
  8
0
  6
CONTINUOUS
 62
256
 10
-305.211307642435030
 20
-435.151634516981860
 40
400.599999999999850
 50
84.256318189006578
 51
90.000000000000000
  0
ARC
  8
0
  6
CONTINUOUS
 62
256
 10
-63.611307642434724
 20
-88.551634516981721
 40
300.599999999999850
 50
174.247717268463390
 51
180.000000000000000
  0
ARC
  8
0
  6
CONTINUOUS
 62
256
 10
-63.611307642434724
 20
-88.551634516981721
 40
300.600000000000310
 50
180.000000000000000
 51
185.752282731536610
  0
ARC
  8
0
  6
CONTINUOUS
 62
256
 10
-546.811307642435390
 20
-88.551634516981721
 40
300.599999999999850
 50
354.247717268463420
 51
0.000000000000000
  0
ARC
  8
0
  6
CONTINUOUS
 62
256
 10
-546.811307642435390
 20
-88.551634516981721
 40
300.600000000000310
 50
0.000000000000000
 51
5.752282731536605
  0
ARC
  8
0
  6
CONTINUOUS
 62
256
 10
-308.711307642435030
 20
-123.376194815713460
 40
1.000000000000000
 50
0.000000000000000
 51
84.260829522738462
  0
ARC
  8
0
  6
CONTINUOUS
 62
256
 10
-308.711307642435030
 20
-126.390107002006740
 40
1.000000000000042
 50
264.715267045464260
 51
0.000000000000000
  0
ARC
  8
0
  6
CONTINUOUS
 62
256
 10
-308.711307642435030
 20
-117.843271548735400
 40
1.000000000000077
 50
263.186145655820330
 51
0.000000000000000
  0
LINE
  8
0
  6
CONTINUOUS
 62
256
 10
-307.711307642435030
 20
-126.390107002006740
 11
-307.711307642435030
 21
-123.376194815713460
  0
ARC
  8
0
  6
CONTINUOUS
 62
256
 10
-322.252236325807870
 20
-94.348767395240884
 40
0.999999999999885
 50
300.000000000003810
 51
18.787728582347054
  0
LINE
  8
0
  6
CONTINUOUS
 62
256
 10
-324.393471482864470
 20
-96.739710627944760
 11
-321.752236325807870
 21
-95.214792799025190
  0
ARC
  8
0
  6
CONTINUOUS
 62
256
 10
-324.893471482864470
 20
-95.873685224160454
 40
1.000000000000094
 50
200.405931773138660
 51
300.000000000004150
  0
ARC
  8
0
  6
CONTINUOUS
 62
256
 10
-329.709933974589380
 20
-98.654471140300075
 40
1.000000000000082
 50
299.999999999997270
 51
22.410457608146118
  0
ARC
  8
0
  6
CONTINUOUS
 62
256
 10
-337.120261536759470
 20
-102.932825753101950
 40
1.000000000000082
 50
299.999999999997270
 51
24.260829522733705
  0
LINE
  8
0
  6
CONTINUOUS
 62
256
 10
-331.828609430366900
 20
-101.032389523397550
 11
-329.209933974589380
 21
-99.520496544084608
  0
ARC
  8
0
  6
CONTINUOUS
 62
256
 10
-332.328609430366900
 20
-100.166364119613040
 40
0.999999999999730
 50
203.186145655819840
 51
299.999999999997390
  0
LINE
  8
0
  6
CONTINUOUS
 62
256
 10
-339.230386054865220
 20
-105.305807250033010
 11
-336.620261536759470
 21
-103.798851156886490
  0
ARC
  8
0
  6
CONTINUOUS
 62
256
 10
-339.730386054865220
 20
-104.439781846248710
 40
1.000000000000249
 50
204.715267045455480
 51
300.000000000003300
  0
ARC
  8
0
  6
CONTINUOUS
 62
256
 10
-336.230386054865220
 20
-110.501959672739990
 40
1.000000000000082
 50
119.999999999997300
 51
215.284732954534750
  0
ARC
  8
0
  6
CONTINUOUS
 62
256
 10
-333.620261536759470
 20
-108.995003579593000
 40
0.999999999999807
 50
35.739170477263514
 51
120.000000000003010
  0
ARC
  8
0
  6
CONTINUOUS
 62
256
 10
-308.711307642435030
 20
-114.819485590109020
 40
1.000000000000000
 50
0.000000000000000
 51
82.410457608145990
  0
ARC
  8
0
  6
CONTINUOUS
 62
256
 10
-328.828609430366900
 20
-106.228541946103860
 40
0.999999999999885
 50
120.000000000003810
 51
216.813854344196470
  0
ARC
  8
0
  6
CONTINUOUS
 62
256
 10
-326.209933974589830
 20
-104.716648966790880
 40
1.000000000000194
 50
37.589542391851786
 51
119.999999999997270
  0
ARC
  8
0
  6
CONTINUOUS
 62
256
 10
-308.711307642435030
 20
-109.257913757830220
 40
1.000000000000268
 50
260.405931773124510
 51
0.000000000000000
  0
ARC
  8
0
  6
CONTINUOUS
 62
256
 10
-308.711307642435030
 20
-106.208078099991330
 40
1.000000000000000
 50
0.000000000000000
 51
78.787728582356166
  0
ARC
  8
0
  6
CONTINUOUS
 62
256
 10
-321.393471482864020
 20
-101.935863050651510
 40
0.999999999999885
 50
120.000000000003810
 51
219.594068226860970
  0
ARC
  8
0
  6
CONTINUOUS
 62
256
 10
-318.752236325807870
 20
-100.410945221732160
 40
1.000000000000165
 50
41.212271417643834
 51
119.999999999998080
  0
ARC
  8
0
  6
CONTINUOUS
 62
256
 10
-313.853612487848520
 20
-97.582723430227134
 40
0.999999999999885
 50
120.000000000003810
 51
226.260204708329240
  0
ARC
  8
0
  6
CONTINUOUS
 62
256
 10
-308.711307642435030
 20
-100.551634516981720
 40
0.999999999999964
 50
253.739795291702650
 51
0.000000000000000
  0
ARC
  8
0
  6
CONTINUOUS
 62
256
 10
-308.711307642435030
 20
-97.383395383309562
 40
1.000000000000000
 50
0.000000000000000
 51
68.381727577839243
  0
ARC
  8
0
  6
CONTINUOUS
 62
256
 10
-311.109836912824220
 20
-95.998603863391054
 40
0.999999999999961
 50
51.618272422159770
 51
120.000000000004590
  0
ARC
  8
0
  6
CONTINUOUS
 62
256
 10
-305.211307642435030
 20
-88.551634516981721
 40
38.999999999999872
 50
215.284732954534800
 51
264.715267045465400
  0
ARC
  8
0
  6
CONTINUOUS
 62
256
 10
-305.211307642435030
 20
-88.551634516981721
 40
30.499999999999964
 50
216.813854344181040
 51
263.186145655819020
  0
ARC
  8
0
  6
CONTINUOUS
 62
256
 10
-305.211307642435030
 20
-88.551634516981721
 40
33.999999999999964
 50
215.739170477266950
 51
264.260829522733050
  0
ARC
  8
0
  6
CONTINUOUS
 62
256
 10
-305.211307642435030
 20
-88.551634516981721
 40
25.499999999999890
 50
217.589542391857950
 51
262.410457608141830
  0
ARC
  8
0
  6
CONTINUOUS
 62
256
 10
-305.211307642435030
 20
-88.551634516981721
 40
22.000000000000025
 50
219.594068226860800
 51
260.405931773138780
  0
ARC
  8
0
  6
CONTINUOUS
 62
256
 10
-305.211307642435030
 20
-88.551634516981721
 40
16.999999999999773
 50
221.212271417650750
 51
258.787728582349980
  0
ARC
  8
0
  6
CONTINUOUS
 62
256
 10
-305.211307642435030
 20
-88.551634516981721
 40
13.499999999999927
 50
226.260204708312130
 51
253.739795291689090
  0
ARC
  8
0
  6
CONTINUOUS
 62
256
 10
-305.211307642435030
 20
-88.551634516981721
 40
8.499999999999949
 50
231.618272422157330
 51
248.381727577842410
  0
LINE
  8
0
  6
CONTINUOUS
 62
256
 10
-329.328609430366900
 20
-105.362516542319550
 11
-326.709933974589830
 21
-103.850623563006370
  0
LINE
  8
0
  6
CONTINUOUS
 62
256
 10
-336.730386054865220
 20
-109.635934268955450
 11
-334.120261536759470
 21
-108.128978175808680
  0
LINE
  8
0
  6
CONTINUOUS
 62
256
 10
-321.893471482864020
 20
-101.069837646867200
 11
-319.252236325807870
 21
-99.544919817947630
  0
LINE
  8
0
  6
CONTINUOUS
 62
256
 10
-314.353612487848520
 20
-96.716698026442828
 11
-311.609836912824220
 21
-95.132578459606748
  0
LINE
  8
0
  6
CONTINUOUS
 62
256
 10
-307.711307642435030
 20
-100.551634516981720
 11
-307.711307642435030
 21
-97.383395383309562
  0
LINE
  8
0
  6
CONTINUOUS
 62
256
 10
-307.711307642435030
 20
-109.257913757830220
 11
-307.711307642435030
 21
-106.208078099991330
  0
LINE
  8
0
  6
CONTINUOUS
 62
256
 10
-307.711307642435030
 20
-117.843271548735400
 11
-307.711307642435030
 21
-114.819485590109020
  0
ARC
  8
0
  6
CONTINUOUS
 62
256
 10
-314.609836912824220
 20
-89.936426036900230
 40
0.999999999999885
 50
300.000000000003810
 51
8.381727577845361
  0
ARC
  8
0
  6
CONTINUOUS
 62
256
 10
-305.211307642435030
 20
-88.551634516981721
 40
8.499999999999972
 50
171.618272422157790
 51
188.381727577842210
  0
LINE
  8
0
  6
CONTINUOUS
 62
256
 10
-316.853612487848520
 20
-92.386571007520615
 11
-314.109836912824220
 21
-90.802451440684536
  0
ARC
  8
0
  6
CONTINUOUS
 62
256
 10
-317.353612487848520
 20
-91.520545603736309
 40
0.999999999999879
 50
193.739795291686020
 51
300.000000000003810
  0
ARC
  8
0
  6
CONTINUOUS
 62
256
 10
-308.711307642435030
 20
-70.895190933972117
 40
0.999999999999982
 50
281.212271417643990
 51
0.000000000000000
  0
LINE
  8
0
  6
CONTINUOUS
 62
256
 10
-307.711307642435030
 20
-67.845355276133205
 11
-307.711307642435030
 21
-70.895190933972117
  0
ARC
  8
0
  6
CONTINUOUS
 62
256
 10
-308.711307642435030
 20
-67.845355276133205
 40
1.000000000000000
 50
0.000000000000000
 51
99.594068226874853
  0
ARC
  8
0
  6
CONTINUOUS
 62
256
 10
-308.711307642435030
 20
-62.283783443854418
 40
0.999999999999749
 50
277.589542391855960
 51
0.000000000013028
  0
LINE
  8
0
  6
CONTINUOUS
 62
256
 10
-307.711307642435030
 20
-59.259997485228041
 11
-307.711307642435030
 21
-62.283783443854190
  0
ARC
  8
0
  6
CONTINUOUS
 62
256
 10
-308.711307642435030
 20
-59.259997485228041
 40
1.000000000000000
 50
0.000000000000000
 51
96.813854344180214
  0
ARC
  8
0
  6
CONTINUOUS
 62
256
 10
-308.711307642435030
 20
-53.727074218249982
 40
0.999999999999973
 50
275.739170477261670
 51
0.000000000000000
  0
LINE
  8
0
  6
CONTINUOUS
 62
256
 10
-307.711307642435030
 20
-50.713162031956699
 11
-307.711307642435030
 21
-53.727074218249982
  0
ARC
  8
0
  6
CONTINUOUS
 62
256
 10
-308.711307642435030
 20
-50.713162031956699
 40
1.000000000000000
 50
0.000000000000000
 51
95.284732954535926
  0
ARC
  8
0
  6
CONTINUOUS
 62
256
 10
-328.828609430366900
 20
-70.874727087859355
 40
0.999999999999774
 50
143.186145655813330
 51
240.000000000003440
  0
LINE
  8
0
  6
CONTINUOUS
 62
256
 10
-329.328609430366900
 20
-71.740752491643889
 11
-326.709933974589380
 21
-73.252645470957077
  0
ARC
  8
0
  6
CONTINUOUS
 62
256
 10
-326.209933974589380
 20
-72.386620067172544
 40
1.000000000000082
 50
240.000000000002670
 51
322.410457608131140
  0
ARC
  8
0
  6
CONTINUOUS
 62
256
 10
-336.230386054865220
 20
-66.601309361223684
 40
0.999999999999908
 50
144.715267045455050
 51
239.999999999996560
  0
LINE
  8
0
  6
CONTINUOUS
 62
256
 10
-336.730386054865220
 20
-67.467334765007990
 11
-334.120261536759470
 21
-68.974290858154745
  0
ARC
  8
0
  6
CONTINUOUS
 62
256
 10
-333.620261536759470
 20
-68.108265454370439
 40
0.999999999999885
 50
239.999999999996160
 51
324.260829522725320
  0
ARC
  8
0
  6
CONTINUOUS
 62
256
 10
-311.109836912824220
 20
-81.104665170572162
 40
1.000000000000082
 50
240.000000000002670
 51
308.381727577839230
  0
LINE
  8
0
  6
CONTINUOUS
 62
256
 10
-314.353612487848520
 20
-80.386571007520615
 11
-311.609836912824220
 21
-81.970690574356695
  0
ARC
  8
0
  6
CONTINUOUS
 62
256
 10
-318.752236325807870
 20
-76.692323812231507
 40
0.999999999999885
 50
239.999999999996160
 51
318.787728582349130
  0
LINE
  8
0
  6
CONTINUOUS
 62
256
 10
-321.893471482864020
 20
-76.033431387096243
 11
-319.252236325807870
 21
-77.558349216015813
  0
ARC
  8
0
  6
CONTINUOUS
 62
256
 10
-321.393471482864020
 20
-75.167405983311710
 40
1.000000000000173
 50
140.405931773149600
 51
240.000000000002330
  0
ARC
  8
0
  6
CONTINUOUS
 62
256
 10
-308.711307642435030
 20
-79.719873650653881
 40
1.000000000000090
 50
291.618272422162020
 51
0.000000000000000
  0
ARC
  8
0
  6
CONTINUOUS
 62
256
 10
-305.211307642435030
 20
-88.551634516981721
 40
8.499999999999904
 50
111.618272422157720
 51
128.381727577841810
  0
ARC
  8
0
  6
CONTINUOUS
 62
256
 10
-313.853612487848520
 20
-79.520545603736309
 40
0.999999999999858
 50
133.739795291671330
 51
239.999999999995340
  0
LINE
  8
0
  6
CONTINUOUS
 62
256
 10
-307.711307642435030
 20
-76.551634516981721
 11
-307.711307642435030
 21
-79.719873650653881
  0
ARC
  8
0
  6
CONTINUOUS
 62
256
 10
-308.711307642435030
 20
-76.551634516981721
 40
1.000000000000000
 50
0.000000000000000
 51
106.260204708296920
  0
ARC
  8
0
  6
CONTINUOUS
 62
256
 10
-305.211307642435030
 20
-88.551634516981721
 40
13.499999999999963
 50
106.260204708310880
 51
133.739795291687780
  0
ARC
  8
0
  6
CONTINUOUS
 62
256
 10
-305.211307642435030
 20
-88.551634516981721
 40
17.000000000000046
 50
101.212271417650020
 51
138.787728582350240
  0
ARC
  8
0
  6
CONTINUOUS
 62
256
 10
-305.211307642435030
 20
-88.551634516981721
 40
22.000000000000131
 50
99.594068226861211
 51
140.405931773139140
  0
ARC
  8
0
  6
CONTINUOUS
 62
256
 10
-305.211307642435030
 20
-88.551634516981721
 40
30.500000000000135
 50
96.813854344181038
 51
143.186145655818930
  0
ARC
  8
0
  6
CONTINUOUS
 62
256
 10
-305.211307642435030
 20
-88.551634516981721
 40
25.500000000000160
 50
97.589542391858117
 51
142.410457608142050
  0
ARC
  8
0
  6
CONTINUOUS
 62
256
 10
-305.211307642435030
 20
-88.551634516981721
 40
34.000000000000071
 50
95.739170477266939
 51
144.260829522733360
  0
ARC
  8
0
  6
CONTINUOUS
 62
256
 10
-305.211307642435030
 20
-88.551634516981721
 40
38.999999999999986
 50
95.284732954534590
 51
144.715267045465230
  0
ARC
  8
0
  6
CONTINUOUS
 62
256
 10
-332.328609430366900
 20
-76.936904914350407
 40
1.000000000000082
 50
60.000000000002721
 51
156.813854344180360
  0
LINE
  8
0
  6
CONTINUOUS
 62
256
 10
-331.828609430366900
 20
-76.070879510565874
 11
-329.209933974589380
 21
-77.582772489879062
  0
ARC
  8
0
  6
CONTINUOUS
 62
256
 10
-329.709933974589380
 20
-78.448797893663595
 40
0.999999999999701
 50
337.589542391853970
 51
60.000000000001812
  0
ARC
  8
0
  6
CONTINUOUS
 62
256
 10
-339.730386054865220
 20
-72.663487187714736
 40
1.000000000000082
 50
60.000000000002721
 51
155.284732954544150
  0
LINE
  8
0
  6
CONTINUOUS
 62
256
 10
-339.230386054865220
 20
-71.797461783930203
 11
-336.620261536759470
 21
-73.304417877076958
  0
ARC
  8
0
  6
CONTINUOUS
 62
256
 10
-337.120261536759470
 20
-74.170443280861264
 40
0.999999999999863
 50
335.739170477254390
 51
59.999999999995801
  0
ARC
  8
0
  6
CONTINUOUS
 62
256
 10
-314.609836912824220
 20
-87.166842997063441
 40
1.000000000000026
 50
351.618272422167310
 51
60.000000000001499
  0
LINE
  8
0
  6
CONTINUOUS
 62
256
 10
-316.853612487848520
 20
-84.716698026442828
 11
-314.109836912824220
 21
-86.300817593278907
  0
ARC
  8
0
  6
CONTINUOUS
 62
256
 10
-322.252236325807870
 20
-82.754501638722559
 40
1.000000000000076
 50
341.212271417653030
 51
60.000000000002721
  0
LINE
  8
0
  6
CONTINUOUS
 62
256
 10
-324.393471482864470
 20
-80.363558406018683
 11
-321.752236325807870
 21
-81.888476234938025
  0
ARC
  8
0
  6
CONTINUOUS
 62
256
 10
-324.893471482864470
 20
-81.229583809802989
 40
0.999999999999885
 50
59.999999999996206
 51
159.594068226861740
  0
ARC
  8
0
  6
CONTINUOUS
 62
256
 10
-317.353612487848520
 20
-85.582723430227134
 40
0.999999999999885
 50
59.999999999996206
 51
166.260204708308440
  0
ARC
  8
0
  6
CONTINUOUS
 62
256
 10
-305.211307642435030
 20
-88.551634516981721
 40
13.499999999999687
 50
166.260204708311360
 51
193.739795291688210
  0
ARC
  8
0
  6
CONTINUOUS
 62
256
 10
-305.211307642435030
 20
-88.551634516981721
 40
16.999999999999716
 50
161.212271417649590
 51
198.787728582350440
  0
ARC
  8
0
  6
CONTINUOUS
 62
256
 10
-305.211307642435030
 20
-88.551634516981721
 40
22.000000000000206
 50
159.594068226860770
 51
200.405931773139230
  0
ARC
  8
0
  6
CONTINUOUS
 62
256
 10
-305.211307642435030
 20
-88.551634516981721
 40
30.499999999999954
 50
156.813854344181150
 51
203.186145655818820
  0
ARC
  8
0
  6
CONTINUOUS
 62
256
 10
-305.211307642435030
 20
-88.551634516981721
 40
25.500000000000000
 50
157.589542391858000
 51
202.410457608142480
  0
ARC
  8
0
  6
CONTINUOUS
 62
256
 10
-305.211307642435030
 20
-88.551634516981721
 40
34.000000000000007
 50
155.739170477266780
 51
204.260829522733220
  0
ARC
  8
0
  6
CONTINUOUS
 62
256
 10
-305.211307642435030
 20
-88.551634516981721
 40
39.000000000000220
 50
155.284732954534800
 51
204.715267045465200
  0
LINE
  8
0
  6
CONTINUOUS
 62
256
 10
-302.711307642435030
 20
-117.843271548735400
 11
-302.711307642435030
 21
-114.819485590109020
  0
LINE
  8
0
  6
CONTINUOUS
 62
256
 10
-302.711307642435030
 20
-109.257913757830220
 11
-302.711307642435030
 21
-106.208078099991330
  0
LINE
  8
0
  6
CONTINUOUS
 62
256
 10
-302.711307642435030
 20
-100.551634516981720
 11
-302.711307642435030
 21
-97.383395383309562
  0
LINE
  8
0
  6
CONTINUOUS
 62
256
 10
-296.069002797021540
 20
-96.716698026442828
 11
-298.812778372045840
 21
-95.132578459606748
  0
LINE
  8
0
  6
CONTINUOUS
 62
256
 10
-288.529143802006050
 20
-101.069837646867200
 11
-291.170378959062190
 21
-99.544919817947630
  0
LINE
  8
0
  6
CONTINUOUS
 62
256
 10
-273.692229230004900
 20
-109.635934268955450
 11
-276.302353748110590
 21
-108.128978175808680
  0
LINE
  8
0
  6
CONTINUOUS
 62
256
 10
-302.711307642435030
 20
-126.390107002006740
 11
-302.711307642435030
 21
-123.376194815713460
  0
LINE
  8
0
  6
CONTINUOUS
 62
256
 10
-281.094005854503170
 20
-105.362516542319550
 11
-283.712681310280230
 21
-103.850623563006370
  0
ARC
  8
0
  6
CONTINUOUS
 62
256
 10
-305.211307642435030
 20
-88.551634516981721
 40
8.499999999999904
 50
291.618272422157700
 51
308.381727577842750
  0
ARC
  8
0
  6
CONTINUOUS
 62
256
 10
-305.211307642435030
 20
-88.551634516981721
 40
13.499999999999963
 50
286.260204708310820
 51
313.739795291687760
  0
ARC
  8
0
  6
CONTINUOUS
 62
256
 10
-305.211307642435030
 20
-88.551634516981721
 40
17.000000000000046
 50
281.212271417650020
 51
318.787728582350210
  0
ARC
  8
0
  6
CONTINUOUS
 62
256
 10
-305.211307642435030
 20
-88.551634516981721
 40
22.000000000000131
 50
279.594068226861170
 51
320.405931773139120
  0
ARC
  8
0
  6
CONTINUOUS
 62
256
 10
-305.211307642435030
 20
-88.551634516981721
 40
25.499999999999932
 50
277.589542391858170
 51
322.410457608142050
  0
ARC
  8
0
  6
CONTINUOUS
 62
256
 10
-305.211307642435030
 20
-88.551634516981721
 40
34.000000000000071
 50
275.739170477266950
 51
324.260829522732990
  0
ARC
  8
0
  6
CONTINUOUS
 62
256
 10
-305.211307642435030
 20
-88.551634516981721
 40
30.500000000000135
 50
276.813854344181040
 51
323.186145655818850
  0
ARC
  8
0
  6
CONTINUOUS
 62
256
 10
-305.211307642435030
 20
-88.551634516981721
 40
38.999999999999986
 50
275.284732954534600
 51
324.715267045465110
  0
ARC
  8
0
  6
CONTINUOUS
 62
256
 10
-299.312778372045840
 20
-95.998603863391054
 40
0.999999999999885
 50
59.999999999996206
 51
128.381727577839710
  0
ARC
  8
0
  6
CONTINUOUS
 62
256
 10
-301.711307642435030
 20
-97.383395383309562
 40
1.000000000000090
 50
111.618272422161990
 51
180.000000000000000
  0
ARC
  8
0
  6
CONTINUOUS
 62
256
 10
-301.711307642435030
 20
-100.551634516981720
 40
1.000000000000000
 50
180.000000000000000
 51
286.260204708296900
  0
ARC
  8
0
  6
CONTINUOUS
 62
256
 10
-296.569002797021540
 20
-97.582723430227134
 40
0.999999999999858
 50
313.739795291671330
 51
59.999999999995389
  0
ARC
  8
0
  6
CONTINUOUS
 62
256
 10
-291.670378959062190
 20
-100.410945221732160
 40
1.000000000000082
 50
60.000000000002721
 51
138.787728582338080
  0
ARC
  8
0
  6
CONTINUOUS
 62
256
 10
-289.029143802006050
 20
-101.935863050651510
 40
1.000000000000318
 50
320.405931773139570
 51
59.999999999995502
  0
ARC
  8
0
  6
CONTINUOUS
 62
256
 10
-301.711307642435030
 20
-106.208078099991330
 40
0.999999999999982
 50
101.212271417644000
 51
180.000000000000000
  0
ARC
  8
0
  6
CONTINUOUS
 62
256
 10
-301.711307642435030
 20
-109.257913757830220
 40
1.000000000000000
 50
180.000000000000000
 51
279.594068226874810
  0
ARC
  8
0
  6
CONTINUOUS
 62
256
 10
-301.711307642435030
 20
-117.843271548735400
 40
1.000000000000000
 50
180.000000000000000
 51
276.813854344180130
  0
ARC
  8
0
  6
CONTINUOUS
 62
256
 10
-284.212681310280230
 20
-104.716648966790880
 40
1.000000000000082
 50
60.000000000002721
 51
142.410457608147480
  0
ARC
  8
0
  6
CONTINUOUS
 62
256
 10
-281.594005854503170
 20
-106.228541946103860
 40
0.999999999999911
 50
323.186145655802870
 51
59.999999999997016
  0
ARC
  8
0
  6
CONTINUOUS
 62
256
 10
-301.711307642435030
 20
-114.819485590109020
 40
0.999999999999975
 50
97.589542391854238
 51
180.000000000000000
  0
ARC
  8
0
  6
CONTINUOUS
 62
256
 10
-301.711307642435030
 20
-126.390107002006740
 40
1.000000000000000
 50
180.000000000000000
 51
275.284732954535910
  0
ARC
  8
0
  6
CONTINUOUS
 62
256
 10
-301.711307642435030
 20
-123.376194815713460
 40
0.999999999999973
 50
95.739170477261709
 51
180.000000000000000
  0
ARC
  8
0
  6
CONTINUOUS
 62
256
 10
-276.802353748110590
 20
-108.995003579593000
 40
0.999999999999885
 50
59.999999999996206
 51
144.260829522736400
  0
ARC
  8
0
  6
CONTINUOUS
 62
256
 10
-274.192229230004900
 20
-110.501959672739990
 40
0.999999999999776
 50
324.715267045465680
 51
60.000000000003446
  0
CIRCLE
  8
0
  6
CONTINUOUS
 62
256
 10
-305.211307642435030
 20
-88.551634516981721
 40
5.000000000000000
  0
ARC
  8
0
  6
CONTINUOUS
 62
256
 10
-270.692229230004900
 20
-104.439781846248710
 40
0.999999999999885
 50
239.999999999996160
 51
335.284732954544490
  0
LINE
  8
0
  6
CONTINUOUS
 62
256
 10
-271.192229230004900
 20
-105.305807250033010
 11
-273.802353748110650
 21
-103.798851156886490
  0
ARC
  8
0
  6
CONTINUOUS
 62
256
 10
-305.211307642435030
 20
-88.551634516981721
 40
39.000000000000163
 50
335.284732954534770
 51
24.715267045465222
  0
ARC
  8
0
  6
CONTINUOUS
 62
256
 10
-305.211307642435030
 20
-88.551634516981721
 40
33.999999999999964
 50
335.739170477266730
 51
24.260829522733257
  0
ARC
  8
0
  6
CONTINUOUS
 62
256
 10
-305.211307642435030
 20
-88.551634516981721
 40
25.500000000000085
 50
337.589542391857490
 51
22.410457608142028
  0
ARC
  8
0
  6
CONTINUOUS
 62
256
 10
-305.211307642435030
 20
-88.551634516981721
 40
30.499999999999954
 50
336.813854344181150
 51
23.186145655818844
  0
ARC
  8
0
  6
CONTINUOUS
 62
256
 10
-278.094005854503170
 20
-100.166364119613040
 40
1.000000000000082
 50
240.000000000002670
 51
336.813854344180360
  0
LINE
  8
0
  6
CONTINUOUS
 62
256
 10
-278.594005854503170
 20
-101.032389523397550
 11
-281.212681310280690
 21
-99.520496544084608
  0
ARC
  8
0
  6
CONTINUOUS
 62
256
 10
-305.211307642435030
 20
-88.551634516981721
 40
22.000000000000206
 50
339.594068226860770
 51
20.405931773139223
  0
ARC
  8
0
  6
CONTINUOUS
 62
256
 10
-273.302353748110650
 20
-102.932825753101950
 40
0.999999999999769
 50
155.739170477266270
 51
240.000000000003440
  0
ARC
  8
0
  6
CONTINUOUS
 62
256
 10
-280.712681310280690
 20
-98.654471140300075
 40
0.999999999999701
 50
157.589542391853970
 51
240.000000000001820
  0
ARC
  8
0
  6
CONTINUOUS
 62
256
 10
-285.529143802005590
 20
-95.873685224160454
 40
0.999999999999885
 50
239.999999999996160
 51
339.594068226861740
  0
ARC
  8
0
  6
CONTINUOUS
 62
256
 10
-305.211307642435030
 20
-88.551634516981721
 40
17.000000000000146
 50
341.212271417650070
 51
18.787728582350436
  0
LINE
  8
0
  6
CONTINUOUS
 62
256
 10
-286.029143802005590
 20
-96.739710627944760
 11
-288.670378959062190
 21
-95.214792799025190
  0
ARC
  8
0
  6
CONTINUOUS
 62
256
 10
-288.170378959062190
 20
-94.348767395240884
 40
0.999999999999646
 50
161.212271417644640
 51
239.999999999995770
  0
ARC
  8
0
  6
CONTINUOUS
 62
256
 10
-305.211307642435030
 20
-88.551634516981721
 40
13.500000000000130
 50
346.260204708311850
 51
13.739795291688171
  0
ARC
  8
0
  6
CONTINUOUS
 62
256
 10
-293.069002797021540
 20
-91.520545603736309
 40
0.999999999999885
 50
239.999999999996160
 51
346.260204708314010
  0
LINE
  8
0
  6
CONTINUOUS
 62
256
 10
-293.569002797021540
 20
-92.386571007520615
 11
-296.312778372045840
 21
-90.802451440684536
  0
ARC
  8
0
  6
CONTINUOUS
 62
256
 10
-293.069002797021540
 20
-85.582723430227134
 40
0.999999999999879
 50
13.739795291686027
 51
120.000000000003810
  0
ARC
  8
0
  6
CONTINUOUS
 62
256
 10
-305.211307642435030
 20
-88.551634516981721
 40
8.499999999999972
 50
351.618272422157820
 51
8.381727577842204
  0
ARC
  8
0
  6
CONTINUOUS
 62
256
 10
-295.812778372045840
 20
-89.936426036900230
 40
1.000000000000059
 50
171.618272422154460
 51
239.999999999995050
  0
ARC
  8
0
  6
CONTINUOUS
 62
256
 10
-285.529143802005590
 20
-81.229583809802989
 40
1.000000000000094
 50
20.405931773138683
 51
120.000000000004160
  0
LINE
  8
0
  6
CONTINUOUS
 62
256
 10
-286.029143802005590
 20
-80.363558406018683
 11
-288.670378959062190
 21
-81.888476234938025
  0
ARC
  8
0
  6
CONTINUOUS
 62
256
 10
-288.170378959062190
 20
-82.754501638722559
 40
1.000000000000082
 50
119.999999999997300
 51
198.787728582347000
  0
LINE
  8
0
  6
CONTINUOUS
 62
256
 10
-293.569002797021540
 20
-84.716698026442828
 11
-296.312778372045840
 21
-86.300817593278907
  0
ARC
  8
0
  6
CONTINUOUS
 62
256
 10
-295.812778372045840
 20
-87.166842997063441
 40
1.000000000000082
 50
119.999999999997300
 51
188.381727577833000
  0
ARC
  8
0
  6
CONTINUOUS
 62
256
 10
-273.302353748110650
 20
-74.170443280861264
 40
0.999999999999885
 50
120.000000000003810
 51
204.260829522746350
  0
LINE
  8
0
  6
CONTINUOUS
 62
256
 10
-271.192229230004900
 20
-71.797461783930203
 11
-273.802353748110650
 21
-73.304417877076958
  0
ARC
  8
0
  6
CONTINUOUS
 62
256
 10
-270.692229230004900
 20
-72.663487187714736
 40
1.000000000000249
 50
24.715267045455473
 51
119.999999999996050
  0
ARC
  8
0
  6
CONTINUOUS
 62
256
 10
-280.712681310280690
 20
-78.448797893663595
 40
1.000000000000082
 50
119.999999999997300
 51
202.410457608146120
  0
LINE
  8
0
  6
CONTINUOUS
 62
256
 10
-278.594005854503170
 20
-76.070879510565874
 11
-281.212681310280690
 21
-77.582772489879062
  0
ARC
  8
0
  6
CONTINUOUS
 62
256
 10
-278.094005854503170
 20
-76.936904914350407
 40
0.999999999999730
 50
23.186145655819846
 51
119.999999999997370
  0
ARC
  8
0
  6
CONTINUOUS
 62
256
 10
-305.211307642435030
 20
-88.551634516981721
 40
38.999999999999822
 50
35.284732954534839
 51
84.715267045465410
  0
ARC
  8
0
  6
CONTINUOUS
 62
256
 10
-305.211307642435030
 20
-88.551634516981721
 40
33.999999999999829
 50
35.739170477266640
 51
84.260829522733033
  0
ARC
  8
0
  6
CONTINUOUS
 62
256
 10
-305.211307642435030
 20
-88.551634516981721
 40
25.499999999999890
 50
37.589542391857954
 51
82.410457608141925
  0
ARC
  8
0
  6
CONTINUOUS
 62
256
 10
-305.211307642435030
 20
-88.551634516981721
 40
30.499999999999964
 50
36.813854344181067
 51
83.186145655818933
  0
ARC
  8
0
  6
CONTINUOUS
 62
256
 10
-305.211307642435030
 20
-88.551634516981721
 40
22.000000000000025
 50
39.594068226860820
 51
80.405931773138747
  0
ARC
  8
0
  6
CONTINUOUS
 62
256
 10
-305.211307642435030
 20
-88.551634516981721
 40
17.000000000000114
 50
41.212271417649752
 51
78.787728582350027
  0
ARC
  8
0
  6
CONTINUOUS
 62
256
 10
-305.211307642435030
 20
-88.551634516981721
 40
13.499999999999927
 50
46.260204708312138
 51
73.739795291689092
  0
ARC
  8
0
  6
CONTINUOUS
 62
256
 10
-301.711307642435030
 20
-76.551634516981721
 40
0.999999999999964
 50
73.739795291702634
 51
180.000000000000000
  0
LINE
  8
0
  6
CONTINUOUS
 62
256
 10
-302.711307642435030
 20
-76.551634516981721
 11
-302.711307642435030
 21
-79.719873650653881
  0
ARC
  8
0
  6
CONTINUOUS
 62
256
 10
-296.569002797021540
 20
-79.520545603736309
 40
0.999999999999885
 50
300.000000000003810
 51
46.260204708329255
  0
ARC
  8
0
  6
CONTINUOUS
 62
256
 10
-305.211307642435030
 20
-88.551634516981721
 40
8.500000000000128
 50
51.618272422158320
 51
68.381727577842469
  0
ARC
  8
0
  6
CONTINUOUS
 62
256
 10
-301.711307642435030
 20
-79.719873650653881
 40
1.000000000000000
 50
180.000000000000000
 51
248.381727577839200
  0
ARC
  8
0
  6
CONTINUOUS
 62
256
 10
-289.029143802006050
 20
-75.167405983311710
 40
1.000000000000082
 50
299.999999999997270
 51
39.594068226849963
  0
LINE
  8
0
  6
CONTINUOUS
 62
256
 10
-288.529143802006050
 20
-76.033431387096243
 11
-291.170378959062190
 21
-77.558349216015813
  0
ARC
  8
0
  6
CONTINUOUS
 62
256
 10
-291.670378959062190
 20
-76.692323812231507
 40
0.999999999999673
 50
221.212271417651180
 51
300.000000000003410
  0
LINE
  8
0
  6
CONTINUOUS
 62
256
 10
-296.069002797021540
 20
-80.386571007520615
 11
-298.812778372045840
 21
-81.970690574356695
  0
ARC
  8
0
  6
CONTINUOUS
 62
256
 10
-299.312778372045840
 20
-81.104665170572162
 40
0.999999999999961
 50
231.618272422159780
 51
299.999999999997330
  0
ARC
  8
0
  6
CONTINUOUS
 62
256
 10
-276.802353748110590
 20
-68.108265454370439
 40
0.999999999999940
 50
215.739170477274090
 51
300.000000000002560
  0
LINE
  8
0
  6
CONTINUOUS
 62
256
 10
-273.692229230004900
 20
-67.467334765007990
 11
-276.302353748110590
 21
-68.974290858154745
  0
ARC
  8
0
  6
CONTINUOUS
 62
256
 10
-274.192229230004900
 20
-66.601309361223684
 40
0.999999999999885
 50
300.000000000003810
 51
35.284732954544275
  0
ARC
  8
0
  6
CONTINUOUS
 62
256
 10
-284.212681310280690
 20
-72.386620067172544
 40
0.999999999999834
 50
217.589542391867670
 51
299.999999999997730
  0
LINE
  8
0
  6
CONTINUOUS
 62
256
 10
-281.094005854503170
 20
-71.740752491643889
 11
-283.712681310280690
 21
-73.252645470957077
  0
ARC
  8
0
  6
CONTINUOUS
 62
256
 10
-281.594005854503170
 20
-70.874727087859355
 40
1.000000000000082
 50
299.999999999997270
 51
36.813854344187355
  0
ARC
  8
0
  6
CONTINUOUS
 62
256
 10
-301.711307642435030
 20
-50.713162031956699
 40
1.000000000000042
 50
84.715267045464316
 51
180.000000000000000
  0
LINE
  8
0
  6
CONTINUOUS
 62
256
 10
-302.711307642435030
 20
-50.713162031956699
 11
-302.711307642435030
 21
-53.727074218249982
  0
ARC
  8
0
  6
CONTINUOUS
 62
256
 10
-301.711307642435030
 20
-53.727074218249982
 40
1.000000000000000
 50
180.000000000000000
 51
264.260829522738450
  0
ARC
  8
0
  6
CONTINUOUS
 62
256
 10
-301.711307642435030
 20
-59.259997485228041
 40
1.000000000000077
 50
83.186145655820326
 51
180.000000000000000
  0
LINE
  8
0
  6
CONTINUOUS
 62
256
 10
-302.711307642435030
 20
-59.259997485228041
 11
-302.711307642435030
 21
-62.283783443854190
  0
ARC
  8
0
  6
CONTINUOUS
 62
256
 10
-301.711307642435030
 20
-62.283783443854418
 40
1.000000000000000
 50
179.999999999986980
 51
262.410457608142680
  0
ARC
  8
0
  6
CONTINUOUS
 62
256
 10
-301.711307642435030
 20
-67.845355276133205
 40
1.000000000000268
 50
80.405931773124522
 51
180.000000000000000
  0
LINE
  8
0
  6
CONTINUOUS
 62
256
 10
-302.711307642435030
 20
-67.845355276133205
 11
-302.711307642435030
 21
-70.895190933972117
  0
ARC
  8
0
  6
CONTINUOUS
 62
256
 10
-301.711307642435030
 20
-70.895190933972117
 40
1.000000000000000
 50
180.000000000000000
 51
258.787728582356180
  0
LINE
  8
0
  6
CONTINUOUS
 62
256
 10
-356.767774573025010
 20
-45.921478193523853
 11
-349.309079398354020
 21
-38.462783018852178
  0
LINE
  8
0
  6
CONTINUOUS
 62
256
 10
-356.767774573025010
 20
-131.181790840439590
 11
-349.309079398354020
 21
-138.640486015111260
  0
LINE
  8
0
  6
CONTINUOUS
 62
256
 10
-253.654840711845110
 20
-131.181790840439590
 11
-261.113535886516100
 21
-138.640486015111260
  0
LINE
  8
0
  6
CONTINUOUS
 62
256
 10
-253.654840711845110
 20
-45.921478193523853
 11
-261.113535886516100
 21
-38.462783018852178
  0
ARC
  8
0
  6
CONTINUOUS
 62
256
 10
-342.201374880581400
 20
-60.487877885966100
 40
20.600000000000069
 50
135.000000000002700
 51
174.247717268463500
  0
ARC
  8
0
  6
CONTINUOUS
 62
256
 10
-342.201374880581400
 20
-116.615391147997340
 40
20.599999999999916
 50
185.752282731536470
 51
224.999999999997300
  0
ARC
  8
0
  6
CONTINUOUS
 62
256
 10
-268.221240404288720
 20
-116.615391147997340
 40
20.600000000000069
 50
315.000000000002670
 51
354.247717268463480
  0
ARC
  8
0
  6
CONTINUOUS
 62
256
 10
-268.221240404288720
 20
-60.487877885966100
 40
20.599999999999916
 50
5.752282731536487
 51
44.999999999997335
  0
ARC
  8
0
  6
CONTINUOUS
 62
256
 10
-268.221240404288720
 20
-60.487877885966100
 40
10.797000000000011
 50
5.752282731536912
 51
44.999999999998295
  0
LINE
  8
0
  6
CONTINUOUS
 62
256
 10
67.579083178596079
 20
161.102907597604030
 11
86.079083178596079
 21
161.102907597604030
  0
LINE
  8
0
  6
CONTINUOUS
 62
256
 10
67.579083178596079
 20
156.011738773061100
 11
86.079083178596079
 21
156.011738773061100
  0
LINE
  8
0
  6
CONTINUOUS
 62
256
 10
67.579083178596079
 20
148.273425954230110
 11
83.079083178596079
 21
148.273425954230110
  0
LINE
  8
0
  6
CONTINUOUS
 62
256
 10
67.579083178596079
 20
146.684216161491350
 11
83.079083178596079
 21
146.684216161491350
  0
LINE
  8
0
  6
CONTINUOUS
 62
256
 10
67.579083178596079
 20
143.726220553358420
 11
83.079083178596079
 21
143.726220553358420
  0
LINE
  8
0
  6
CONTINUOUS
 62
256
 10
67.579083178596079
 20
142.247197399881320
 11
86.079083178596079
 21
142.247197399881320
  0
LINE
  8
0
  6
CONTINUOUS
 62
256
 10
67.579083178596079
 20
139.154466408216080
 11
86.079083178596079
 21
139.154466408216080
  0
LINE
  8
0
  6
CONTINUOUS
 62
256
 10
67.579083178596079
 20
137.808064682717490
 11
86.079083178596079
 21
137.808064682717490
  0
LINE
  8
0
  6
CONTINUOUS
 62
256
 10
67.579083178596079
 20
134.597859659359190
 11
86.079083178596079
 21
134.597859659359190
  0
LINE
  8
0
  6
CONTINUOUS
 62
256
 10
67.579083178596079
 20
133.355939794471280
 11
86.079083178596079
 21
133.355939794471280
  0
LINE
  8
0
  6
CONTINUOUS
 62
256
 10
67.579083178596079
 20
128.969825002721340
 11
86.079083178596079
 21
128.969825002721340
  0
LINE
  8
0
  6
CONTINUOUS
 62
256
 10
67.579083178596079
 20
100.969825002721320
 11
86.079083178596079
 21
100.969825002721340
  0
LINE
  8
0
  6
CONTINUOUS
 62
256
 10
67.579083178596079
 20
96.583710210971390
 11
86.079083178596079
 21
96.583710210971390
  0
LINE
  8
0
  6
CONTINUOUS
 62
256
 10
67.579083178596079
 20
95.341790346083485
 11
86.079083178596079
 21
95.341790346083485
  0
LINE
  8
0
  6
CONTINUOUS
 62
256
 10
67.579083178596079
 20
92.131585322725186
 11
86.079083178596079
 21
92.131585322725186
  0
LINE
  8
0
  6
CONTINUOUS
 62
256
 10
67.579083178596079
 20
90.785183597226592
 11
86.079083178596079
 21
90.785183597226592
  0
LINE
  8
0
  6
CONTINUOUS
 62
256
 10
67.579083178596079
 20
87.692452605561357
 11
86.079083178596079
 21
87.692452605561357
  0
LINE
  8
0
  6
CONTINUOUS
 62
256
 10
67.579083178596079
 20
86.213429452084270
 11
83.079083178596079
 21
86.213429452084256
  0
LINE
  8
0
  6
CONTINUOUS
 62
256
 10
67.579083178596079
 20
83.255433843951323
 11
83.079083178596079
 21
83.255433843951323
  0
LINE
  8
0
  6
CONTINUOUS
 62
256
 10
67.579083178596079
 20
81.666224051212566
 11
83.079083178596079
 21
81.666224051212566
  0
LINE
  8
0
  6
CONTINUOUS
 62
256
 10
67.579083178596079
 20
73.927911232381575
 11
86.079083178596079
 21
73.927911232381575
  0
LINE
  8
0
  6
CONTINUOUS
 62
256
 10
67.579083178596079
 20
68.836742407838642
 11
86.079083178596079
 21
68.836742407838642
  0
TEXT
  8
0
  6
CONTINUOUS
 62
256
 10
-350.838592529296870
 20
56.054046630859375
 40
10.295999526977539
  1
ＳＣＡＬＥ１／１
 50
0.000002504478167
 41
0.984848625190477
  7
STANDARD1
  0
TEXT
  8
0
  6
CONTINUOUS
 62
256
 10
-350.838592529296870
 20
72.590049743652344
 40
10.295999526977539
  1
１／３～１／３０
 50
0.000002504478167
 41
0.984848625190477
  7
STANDARD1
  0
TEXT
  8
0
  6
CONTINUOUS
 62
256
 10
-350.838592529296870
 20
89.126045227050781
 40
10.295999526977539
  1
０．２ｋＷ
 50
0.000002504478167
 41
0.984848625190477
  7
STANDARD1
  0
TEXT
  8
0
  6
CONTINUOUS
 62
256
 10
-350.838592529296870
 20
105.662048339843750
 40
10.295999526977539
  1
ＧＭ－ＳＳＢ
 50
0.000002504478167
 41
0.984848625190477
  7
STANDARD1
  0
TEXT
  8
0
  6
CONTINUOUS
 62
256
 10
-350.838592529296870
 20
122.198051452636720
 40
10.295999526977539
  1
三菱ギヤードモートル
 50
0.000002504478167
 41
0.984848625190477
  7
STANDARD1
  0
TEXT
  8
0
  6
CONTINUOUS
 62
256
 10
-350.838592529296870
 20
138.734054565429690
 40
10.295999526977539
  1
Ｓ０９１
 50
0.000002504478167
 41
0.984848625190477
  7
STANDARD1
  0
LINE
  8
0
  6
CONTINUOUS
 62
256
 10
352.554099088672610
 20
-44.781724626664428
 11
353.040902480378240
 21
-44.294921234958814
  0
LINE
  8
0
  6
CONTINUOUS
 62
256
 10
345.907295615258930
 20
-38.134921153250716
 11
346.394099006964550
 21
-37.648117761545095
  0
LINE
  8
0
  6
CONTINUOUS
 62
256
 10
352.867237697641430
 20
-44.529177675814061
 11
346.190138395168500
 21
-37.852078373341136
  0
LINE
  8
0
  6
CONTINUOUS
 62
256
 10
352.554099088672610
 20
-44.781724626664428
 11
345.907295615258930
 21
-38.134921153250716
  0
POINT
  8
0
  6
CONTINUOUS
 62
256
 10
349.230697351965770
 20
-41.458322889957572
  0
ARC
  8
0
  6
CONTINUOUS
 62
256
 10
346.967955787038760
 20
-43.721064454884605
 40
6.099999427795400
 50
354.601910595264770
 51
95.398072101891529
  0
LINE
  8
0
  6
CONTINUOUS
 62
256
 10
251.720672361211060
 20
-44.781724626664428
 11
251.233868969505470
 21
-44.294921234958807
  0
LINE
  8
0
  6
CONTINUOUS
 62
256
 10
258.367475834624770
 20
-38.134921153250716
 11
257.880672442919150
 21
-37.648117761545095
  0
LINE
  8
0
  6
CONTINUOUS
 62
256
 10
251.407533752242300
 20
-44.529177675814054
 11
258.084633054715200
 21
-37.852078373341136
  0
LINE
  8
0
  6
CONTINUOUS
 62
256
 10
251.720672361211060
 20
-44.781724626664428
 11
258.367475834624770
 21
-38.134921153250716
  0
POINT
  8
0
  6
CONTINUOUS
 62
256
 10
255.044074097917930
 20
-41.458322889957572
  0
ARC
  8
0
  6
CONTINUOUS
 62
256
 10
257.306815662844940
 20
-43.721064454884605
 40
6.099999427795406
 50
84.601927898108485
 51
185.398089404735170
  0
LINE
  8
0
  6
CONTINUOUS
 62
256
 10
-254.794594278704300
 20
-44.781724626664428
 11
-254.307790886998700
 21
-44.294921234958807
  0
LINE
  8
0
  6
CONTINUOUS
 62
256
 10
-261.441397752118010
 20
-38.134921153250716
 11
-260.954594360412390
 21
-37.648117761545095
  0
LINE
  8
0
  6
CONTINUOUS
 62
256
 10
-254.481455669735540
 20
-44.529177675814061
 11
-261.158554972208440
 21
-37.852078373341136
  0
LINE
  8
0
  6
CONTINUOUS
 62
256
 10
-254.794594278704300
 20
-44.781724626664428
 11
-261.441397752118010
 21
-38.134921153250716
  0
POINT
  8
0
  6
CONTINUOUS
 62
256
 10
-258.117996015411170
 20
-41.458322889957572
  0
ARC
  8
0
  6
CONTINUOUS
 62
256
 10
-260.380737580338180
 20
-43.721064454884605
 40
6.099999427795370
 50
354.601910595264710
 51
95.398072101891557
  0
LINE
  8
0
  6
CONTINUOUS
 62
256
 10
-355.628021006165800
 20
-44.781724626664428
 11
-356.114824397871420
 21
-44.294921234958807
  0
LINE
  8
0
  6
CONTINUOUS
 62
256
 10
-348.981217532752110
 20
-38.134921153250716
 11
-349.468020924457730
 21
-37.648117761545095
  0
LINE
  8
0
  6
CONTINUOUS
 62
256
 10
-355.941159615134610
 20
-44.529177675814061
 11
-349.264060312661680
 21
-37.852078373341136
  0
LINE
  8
0
  6
CONTINUOUS
 62
256
 10
-355.628021006165800
 20
-44.781724626664428
 11
-348.981217532752110
 21
-38.134921153250716
  0
POINT
  8
0
  6
CONTINUOUS
 62
256
 10
-352.304619269458950
 20
-41.458322889957572
  0
ARC
  8
0
  6
CONTINUOUS
 62
256
 10
-350.041877704531940
 20
-43.721064454884605
 40
6.099999427795406
 50
84.601927898108485
 51
185.398089404735230
  0
LINE
  8
0
  6
CONTINUOUS
 62
256
 10
-355.628021006165800
 20
-132.321544407298770
 11
-356.114824397871420
 21
-132.808347799004390
  0
LINE
  8
0
  6
CONTINUOUS
 62
256
 10
-348.981217532752110
 20
-138.968347880712510
 11
-349.468020924457730
 21
-139.455151272418110
  0
LINE
  8
0
  6
CONTINUOUS
 62
256
 10
-355.941159615134610
 20
-132.574091358149160
 11
-349.264060312661680
 21
-139.251190660622090
  0
LINE
  8
0
  6
CONTINUOUS
 62
256
 10
-355.628021006165800
 20
-132.321544407298770
 11
-348.981217532752110
 21
-138.968347880712510
  0
POINT
  8
0
  6
CONTINUOUS
 62
256
 10
-352.304619269458950
 20
-135.644946144005640
  0
ARC
  8
0
  6
CONTINUOUS
 62
256
 10
-350.041877704531940
 20
-133.382204579078600
 40
6.099999427795398
 50
174.601910595264910
 51
275.398072101891500
  0
LINE
  8
0
  6
CONTINUOUS
 62
256
 10
-254.794594278704300
 20
-132.321544407298770
 11
-254.307790886998700
 21
-132.808347799004390
  0
LINE
  8
0
  6
CONTINUOUS
 62
256
 10
-261.441397752118010
 20
-138.968347880712510
 11
-260.954594360412390
 21
-139.455151272418110
  0
LINE
  8
0
  6
CONTINUOUS
 62
256
 10
-254.481455669735540
 20
-132.574091358149160
 11
-261.158554972208440
 21
-139.251190660622090
  0
LINE
  8
0
  6
CONTINUOUS
 62
256
 10
-254.794594278704300
 20
-132.321544407298770
 11
-261.441397752118010
 21
-138.968347880712510
  0
POINT
  8
0
  6
CONTINUOUS
 62
256
 10
-258.117996015411170
 20
-135.644946144005640
  0
ARC
  8
0
  6
CONTINUOUS
 62
256
 10
-260.380737580338180
 20
-133.382204579078600
 40
6.099999427795406
 50
264.601927898108500
 51
5.398089404735109
  0
ENDSEC
  0
EOF
