  0
SECTION
  2
HEADER
  9
$FILLMODE
 70
1
  9
$TEXTSTYLE
  7
STANDARD1
  9
$ACADVER
  1
AC1009
  9
$DIMASZ
 40
1.931851648807023
  9
$DIMEXE
 40
2.000000000000000
  9
$DIMEXO
 40
1.000000000000000
  9
$DIMLFAC
 40
1.000000000000000
  9
$DIMSCALE
 40
1.000000000000000
  9
$DIMTAD
 70
1
  9
$DIMTFAC
 40
0.714285731315613
  9
$DIMTXT
 40
2.799999952316284
  9
$LUPREC
 70
3
  9
$TEXTSIZE
 40
3.299999952316284
  9
$REGENMODE
 70
1
  0
ENDSEC
  0
SECTION
  2
TABLES
  0
TABLE
  2
LTYPE
 70
4
  0
LTYPE
  2
CONTINUOUS
 70
64
  3
Solid line
 72
65
 73
0
 40
0.0
  0
LTYPE
  2
DASHED
 70
64
  3
-- -- -- -- -- -- -- -- -- -- -- -- -- -- --
 72
65
 73
2
 40
0.75
 49
0.5
 49
-0.25
  0
LTYPE
  2
DASHDOT
 70
64
  3
__ . __ . __ . __ . __ . __ . __ . __ . __ . __
 72
65
 73
4
 40
1.0
 49
0.5
 49
-0.25
 49
0.0
 49
-0.25
  0
LTYPE
  2
DIVIDE
 70
64
  3
__ . . __ . . __ . . __ . . __ . . __ . . __
 72
65
 73
6
 40
1.25
 49
0.5
 49
-0.25
 49
0.0
 49
-0.25
 49
0.0
 49
-0.25
  0
ENDTAB
  0
TABLE
  2
LAYER
 70
1
  0
LAYER
  2
0
 70
64
 62
2
  6
CONTINUOUS
  0
ENDTAB
  0
TABLE
  2
STYLE
 70
4
  0
STYLE
  2
STANDARD1
 70
64
 40
0.0
 41
1.0
 50
0.0
 71
0
 42
3.299999952316284
  3
MONOTXT
  4
BIGFONT
  0
STYLE
  2
STANDARD2
 70
68
 40
0.0
 41
1.0
 50
0.0
 71
0
 42
3.299999952316284
  3
MONOTXT
  4
BIGFONT
  0
STYLE
  2
STANDARD3
 70
64
 40
0.0
 41
1.0
 50
0.0
 71
0
 42
3.299999952316284
  3
MONOTXT
  4

  0
STYLE
  2
STANDARD4
 70
68
 40
0.0
 41
1.0
 50
0.0
 71
0
 42
3.299999952316284
  3
MONOTXT
  4

  0
ENDTAB
  0
TABLE
  2
VIEW
 70
0
  0
ENDTAB
  0
ENDSEC
  0
SECTION
  2
BLOCKS
  0
BLOCK
  8
0
  2
SYM1
 70
64
 10
0.000000000000000
 20
0.000000000000000
  0
ARC
  8
0
  6
CONTINUOUS
 62
3
 10
-0.979025304317474
 20
-2.200000762939453
 40
1.299999237060547
 50
196.601531107481040
 51
270.000000000000000
  0
ARC
  8
0
  6
CONTINUOUS
 62
3
 10
-0.979025304317474
 20
2.200000762939453
 40
1.299999237060547
 50
90.000000000000000
 51
163.398451589674950
  0
LINE
  8
0
  6
CONTINUOUS
 62
3
 10
-0.000000000000000
 20
-3.500000000000000
 11
-0.979025304317474
 21
-3.500000000000000
  0
LINE
  8
0
  6
CONTINUOUS
 62
3
 10
0.000000000000000
 20
3.500000000000000
 11
-0.979025304317474
 21
3.500000000000000
  0
LINE
  8
0
  6
CONTINUOUS
 62
3
 10
0.000000000000000
 20
-3.500000000000000
 11
-0.000000000000000
 21
3.500000000000000
  0
LINE
  8
0
  6
CONTINUOUS
 62
3
 10
0.000000000000000
 20
-3.500000000000000
 11
-0.000000000000000
 21
3.500000000000000
  0
POINT
  8
0
  6
CONTINUOUS
 62
3
 10
0.000000000000000
 20
0.000000000000000
  0
ARC
  8
0
  6
CONTINUOUS
 62
3
 10
6.399999618530273
 20
0.000000000000000
 40
9.000000000000000
 50
163.398451589674950
 51
196.601531107481040
  0
ENDBLK
  8
0
  0
BLOCK
  8
0
  2
SYM2
 70
64
 10
0.000000000000000
 20
0.000000000000000
  0
LINE
  8
0
  6
CONTINUOUS
 62
3
 10
-0.000000000000000
 20
-5.000000000000000
 11
-6.000000000000000
 21
-5.000000000000000
  0
LINE
  8
0
  6
CONTINUOUS
 62
3
 10
0.000000000000000
 20
5.000000000000000
 11
-6.000000000000000
 21
5.000000000000000
  0
LINE
  8
0
  6
CONTINUOUS
 62
3
 10
-6.000000000000000
 20
-5.000000000000000
 11
-6.000000000000000
 21
5.000000000000000
  0
LINE
  8
0
  6
CONTINUOUS
 62
3
 10
0.000000000000000
 20
5.000000000000000
 11
0.000000000000000
 21
-5.000000000000000
  0
POINT
  8
0
  6
CONTINUOUS
 62
3
 10
0.000000000000000
 20
0.000000000000000
  0
ENDBLK
  8
0
  0
ENDSEC
  0
SECTION
  2
ENTITIES
  0
ARC
  8
0
  6
CONTINUOUS
 62
3
 10
-278.443691459020390
 20
-149.077391565604700
 40
6.099999427795406
 50
264.601927898108500
 51
5.398089404735109
  0
POINT
  8
0
  6
CONTINUOUS
 62
3
 10
-276.180949894093370
 20
-151.340133130531740
  0
LINE
  8
0
  6
CONTINUOUS
 62
3
 10
-272.857548157386530
 20
-148.016731393824870
 11
-279.504351630800220
 21
-154.663534867238610
  0
LINE
  8
0
  6
CONTINUOUS
 62
3
 10
-272.544409548417720
 20
-148.269278344675260
 11
-279.221508850890640
 21
-154.946377647148180
  0
LINE
  8
0
  6
CONTINUOUS
 62
3
 10
-279.504351630800220
 20
-154.663534867238610
 11
-279.017548239094590
 21
-155.150338258944200
  0
LINE
  8
0
  6
CONTINUOUS
 62
3
 10
-272.857548157386530
 20
-148.016731393824870
 11
-272.370744765680910
 21
-148.503534785530490
  0
ARC
  8
0
  6
CONTINUOUS
 62
3
 10
-368.104831583214210
 20
-149.077391565604700
 40
6.099999427795398
 50
174.601910595264880
 51
275.398072101891500
  0
POINT
  8
0
  6
CONTINUOUS
 62
3
 10
-370.367573148141220
 20
-151.340133130531740
  0
LINE
  8
0
  6
CONTINUOUS
 62
3
 10
-373.690974884848060
 20
-148.016731393824870
 11
-367.044171411434380
 21
-154.663534867238610
  0
LINE
  8
0
  6
CONTINUOUS
 62
3
 10
-374.004113493816870
 20
-148.269278344675260
 11
-367.327014191343950
 21
-154.946377647148180
  0
LINE
  8
0
  6
CONTINUOUS
 62
3
 10
-367.044171411434380
 20
-154.663534867238610
 11
-367.530974803140000
 21
-155.150338258944200
  0
LINE
  8
0
  6
CONTINUOUS
 62
3
 10
-373.690974884848060
 20
-148.016731393824870
 11
-374.177778276553680
 21
-148.503534785530490
  0
ARC
  8
0
  6
CONTINUOUS
 62
3
 10
-368.104831583214210
 20
-59.416251441410701
 40
6.099999427795406
 50
84.601927898108471
 51
185.398089404735260
  0
POINT
  8
0
  6
CONTINUOUS
 62
3
 10
-370.367573148141220
 20
-57.153509876483668
  0
LINE
  8
0
  6
CONTINUOUS
 62
3
 10
-373.690974884848060
 20
-60.476911613190524
 11
-367.044171411434380
 21
-53.830108139776812
  0
LINE
  8
0
  6
CONTINUOUS
 62
3
 10
-374.004113493816870
 20
-60.224364662340157
 11
-367.327014191343950
 21
-53.547265359867232
  0
LINE
  8
0
  6
CONTINUOUS
 62
3
 10
-367.044171411434380
 20
-53.830108139776812
 11
-367.530974803140000
 21
-53.343304748071191
  0
LINE
  8
0
  6
CONTINUOUS
 62
3
 10
-373.690974884848060
 20
-60.476911613190524
 11
-374.177778276553680
 21
-59.990108221484903
  0
ARC
  8
0
  6
CONTINUOUS
 62
3
 10
-278.443691459020390
 20
-59.416251441410701
 40
6.099999427795398
 50
354.601910595264830
 51
95.398072101891529
  0
POINT
  8
0
  6
CONTINUOUS
 62
3
 10
-276.180949894093370
 20
-57.153509876483668
  0
LINE
  8
0
  6
CONTINUOUS
 62
3
 10
-272.857548157386530
 20
-60.476911613190524
 11
-279.504351630800220
 21
-53.830108139776812
  0
LINE
  8
0
  6
CONTINUOUS
 62
3
 10
-272.544409548417720
 20
-60.224364662340157
 11
-279.221508850890640
 21
-53.547265359867232
  0
LINE
  8
0
  6
CONTINUOUS
 62
3
 10
-279.504351630800220
 20
-53.830108139776812
 11
-279.017548239094590
 21
-53.343304748071191
  0
LINE
  8
0
  6
CONTINUOUS
 62
3
 10
-272.857548157386530
 20
-60.476911613190524
 11
-272.370744765680910
 21
-59.990108221484903
  0
TEXT
  8
0
  6
CONTINUOUS
 62
3
 10
-372.560241699218750
 20
134.953338623046880
 40
10.295999526977539
  1
Ｓ０９３
 50
0.000002504478167
 41
0.984848625190477
  7
STANDARD1
  0
TEXT
  8
0
  6
CONTINUOUS
 62
3
 10
-372.560241699218750
 20
118.417327880859370
 40
10.295999526977539
  1
三菱ギヤードモートル
 50
0.000002504478167
 41
0.984848625190477
  7
STANDARD1
  0
TEXT
  8
0
  6
CONTINUOUS
 62
3
 10
-372.560241699218750
 20
101.881324768066400
 40
10.295999526977539
  1
ＧＭ－ＳＳＢ
 50
0.000002504478167
 41
0.984848625190477
  7
STANDARD1
  0
TEXT
  8
0
  6
CONTINUOUS
 62
3
 10
-372.560241699218750
 20
85.345329284667969
 40
10.295999526977539
  1
０．２ｋＷ
 50
0.000002504478167
 41
0.984848625190477
  7
STANDARD1
  0
TEXT
  8
0
  6
CONTINUOUS
 62
3
 10
-372.560241699218750
 20
68.809326171875000
 40
10.295999526977539
  1
１／６０～１／１００
 50
0.000002504478167
 41
0.984848625190477
  7
STANDARD1
  0
TEXT
  8
0
  6
CONTINUOUS
 62
3
 10
-372.560241699218750
 20
52.273326873779297
 40
10.295999526977539
  1
ＳＣＡＬＥ１／１
 50
0.000002504478167
 41
0.984848625190477
  7
STANDARD1
  0
ARC
  8
0
  6
CONTINUOUS
 62
3
 10
401.878499955725370
 20
-78.289321503507821
 40
18.799999999999983
 50
100.598785266066050
 51
133.784164360902170
  0
INSERT
  8
0
  2
SYM1
 10
406.023322162068780
 20
-145.165778114768270
 41
-1.000000000000000
 42
1.000000000000000
 43
1.000000000000000
 50
2.862405226113666
  0
LINE
  8
0
  6
CONTINUOUS
 62
3
 10
404.675006504583280
 20
-150.239439996268400
 11
406.273010246787860
 21
-150.159539809157420
  0
ARC
  8
0
  6
CONTINUOUS
 62
3
 10
403.878499955725370
 20
-118.289321503507820
 40
20.800000000000015
 50
244.971000512385070
 51
265.808273843992590
  0
ARC
  8
0
  6
CONTINUOUS
 62
3
 10
407.804965787057650
 20
-140.748681825551330
 40
1.999999999999995
 50
99.916536608232732
 51
182.862405226112400
  0
ARC
  8
0
  6
CONTINUOUS
 62
3
 10
402.211952689341840
 20
-141.028332480437140
 40
1.999999999999927
 50
2.862405226112724
 51
85.808273843998350
  0
ARC
  8
0
  6
CONTINUOUS
 62
3
 10
403.878499955725370
 20
-118.289321503507820
 40
20.799999999999926
 50
334.359929784105190
 51
5.724810452223396
  0
ARC
  8
0
  6
CONTINUOUS
 62
3
 10
403.878499955725370
 20
-118.289321503507820
 40
20.800000000000054
 50
279.916536608230560
 51
334.359929784105190
  0
ARC
  8
0
  6
CONTINUOUS
 62
3
 10
403.878499955725370
 20
-118.289321503507820
 40
20.799999999999926
 50
334.359929784105190
 51
5.724810452223396
  0
ARC
  8
0
  6
CONTINUOUS
 62
3
 10
401.878499955725370
 20
-78.289321503507821
 40
18.799999999999837
 50
5.724810452223617
 51
35.808626813495749
  0
LINE
  8
0
  6
CONTINUOUS
 62
3
 10
424.574759307346310
 20
-116.214508535926810
 11
420.584734369690300
 21
-76.414009782809543
  0
LINE
  8
0
  6
CONTINUOUS
 62
3
 10
399.581369576306320
 20
-48.366701430727616
 11
404.675006504583280
 21
-150.239439996268400
  0
LINE
  8
0
  6
CONTINUOUS
 62
3
 10
401.179373318510900
 20
-48.286801243617433
 11
406.273010246787860
 21
-150.159539809157420
  0
ARC
  8
0
  6
CONTINUOUS
 62
3
 10
402.297002420361420
 20
-51.034416839862260
 40
1.299999237060645
 50
19.463936333587132
 51
92.862405909348169
  0
ARC
  8
0
  6
CONTINUOUS
 62
3
 10
402.516728011113400
 20
-55.428928654899991
 40
1.299999237060550
 50
272.862387240019760
 51
346.260856815788600
  0
LINE
  8
0
  6
CONTINUOUS
 62
3
 10
401.254279743926190
 20
-49.784929751934087
 11
402.232083556433740
 21
-49.736039561308743
  0
LINE
  8
0
  6
CONTINUOUS
 62
3
 10
401.603843062533310
 20
-56.776196124078965
 11
402.581646875041090
 21
-56.727305933453621
  0
LINE
  8
0
  6
CONTINUOUS
 62
3
 10
401.254279743926190
 20
-49.784929751934087
 11
401.603843062533310
 21
-56.776196124078965
  0
LINE
  8
0
  6
CONTINUOUS
 62
3
 10
401.254279743926190
 20
-49.784929751934087
 11
401.603843062533310
 21
-56.776196124078965
  0
POINT
  8
0
  6
CONTINUOUS
 62
3
 10
401.429061403229750
 20
-53.280562938006469
  0
ARC
  8
0
  6
CONTINUOUS
 62
3
 10
395.037046815405350
 20
-53.600163667397723
 40
8.999999999999948
 50
346.260856815786500
 51
19.463936333592187
  0
LINE
  8
0
  6
CONTINUOUS
 62
3
 10
401.179373318510900
 20
-48.286801243617433
 11
399.581369576306320
 21
-48.366701430727616
  0
ARC
  8
0
  6
CONTINUOUS
 62
3
 10
401.878499955725370
 20
-78.289321503507821
 40
18.799999999999933
 50
35.808626813495749
 51
85.126025186157264
  0
LINE
  8
0
  6
CONTINUOUS
 62
3
 10
400.380371447408610
 20
-48.326751337172581
 11
405.474008375685570
 21
-150.199489902712680
  0
ARC
  8
0
  6
CONTINUOUS
 62
3
 10
403.645758419354250
 20
-57.564534471484293
 40
1.999999999999927
 50
182.862405226112710
 51
265.126025186159040
  0
ARC
  8
0
  6
CONTINUOUS
 62
3
 10
398.052745321638440
 20
-57.844185126370107
 40
1.999999999999958
 50
280.598785266065990
 51
2.862405226112724
  0
ARC
  8
0
  6
CONTINUOUS
 62
3
 10
-360.264328759263660
 20
-132.310578134523440
 40
20.599999999999916
 50
185.752282731536500
 51
224.999999999997330
  0
ARC
  8
0
  6
CONTINUOUS
 62
3
 10
-360.264328759263660
 20
-76.183064872492196
 40
20.600000000000069
 50
135.000000000002670
 51
174.247717268463500
  0
LINE
  8
0
  6
CONTINUOUS
 62
3
 10
-271.717794590527320
 20
-146.876977826965690
 11
-279.176489765198310
 21
-154.335673001637360
  0
LINE
  8
0
  6
CONTINUOUS
 62
3
 10
-374.830728451707270
 20
-146.876977826965690
 11
-367.372033277036280
 21
-154.335673001637360
  0
LINE
  8
0
  6
CONTINUOUS
 62
3
 10
-374.830728451707270
 20
-61.616665180049949
 11
-367.372033277036280
 21
-54.157970005378274
  0
ARC
  8
0
  6
CONTINUOUS
 62
3
 10
-319.774261521117300
 20
-86.590377920498213
 40
1.000000000000000
 50
180.000000000000000
 51
258.787728582356010
  0
LINE
  8
0
  6
CONTINUOUS
 62
3
 10
-320.774261521117300
 20
-83.540542262659301
 11
-320.774261521117300
 21
-86.590377920498213
  0
ARC
  8
0
  6
CONTINUOUS
 62
3
 10
-319.774261521117300
 20
-83.540542262659301
 40
1.000000000000268
 50
80.405931773124522
 51
180.000000000000000
  0
ARC
  8
0
  6
CONTINUOUS
 62
3
 10
-319.774261521117300
 20
-77.978970430380514
 40
1.000000000000000
 50
179.999999999986980
 51
262.410457608144040
  0
LINE
  8
0
  6
CONTINUOUS
 62
3
 10
-320.774261521117300
 20
-74.955184471754137
 11
-320.774261521117300
 21
-77.978970430380286
  0
ARC
  8
0
  6
CONTINUOUS
 62
3
 10
-319.774261521117300
 20
-74.955184471754137
 40
1.000000000000077
 50
83.186145655820312
 51
180.000000000000000
  0
ARC
  8
0
  6
CONTINUOUS
 62
3
 10
-319.774261521117300
 20
-69.422261204776078
 40
1.000000000000000
 50
180.000000000000000
 51
264.260829522738280
  0
LINE
  8
0
  6
CONTINUOUS
 62
3
 10
-320.774261521117300
 20
-66.408349018482795
 11
-320.774261521117300
 21
-69.422261204776078
  0
ARC
  8
0
  6
CONTINUOUS
 62
3
 10
-319.774261521117300
 20
-66.408349018482795
 40
1.000000000000042
 50
84.715267045464302
 51
180.000000000000000
  0
ARC
  8
0
  6
CONTINUOUS
 62
3
 10
-299.656959733185430
 20
-86.569914074385451
 40
1.000000000000082
 50
299.999999999997270
 51
36.813854344186687
  0
LINE
  8
0
  6
CONTINUOUS
 62
3
 10
-299.156959733185430
 20
-87.435939478169985
 11
-301.775635188962950
 21
-88.947832457483173
  0
ARC
  8
0
  6
CONTINUOUS
 62
3
 10
-302.275635188962950
 20
-88.081807053698640
 40
0.999999999999834
 50
217.589542391867670
 51
299.999999999997270
  0
ARC
  8
0
  6
CONTINUOUS
 62
3
 10
-317.375732250728110
 20
-96.799852157098258
 40
0.999999999999961
 50
231.618272422159780
 51
299.999999999997270
  0
LINE
  8
0
  6
CONTINUOUS
 62
3
 10
-314.131956675703800
 20
-96.081757994046711
 11
-316.875732250728110
 21
-97.665877560882791
  0
ARC
  8
0
  6
CONTINUOUS
 62
3
 10
-309.733332837744460
 20
-92.387510798757603
 40
0.999999999999673
 50
221.212271417651210
 51
300.000000000003810
  0
LINE
  8
0
  6
CONTINUOUS
 62
3
 10
-306.592097680688310
 20
-91.728618373622339
 11
-309.233332837744460
 21
-93.253536202541909
  0
ARC
  8
0
  6
CONTINUOUS
 62
3
 10
-307.092097680688310
 20
-90.862592969837806
 40
1.000000000000082
 50
299.999999999997270
 51
39.594068226850403
  0
ARC
  8
0
  6
CONTINUOUS
 62
3
 10
-319.774261521117300
 20
-95.415060637179977
 40
1.000000000000000
 50
180.000000000000000
 51
248.381727577838030
  0
ARC
  8
0
  6
CONTINUOUS
 62
3
 10
-323.274261521117300
 20
-104.246821503507810
 40
8.500000000000128
 50
51.618272422158320
 51
68.381727577842284
  0
ARC
  8
0
  6
CONTINUOUS
 62
3
 10
-314.631956675703800
 20
-95.215732590262405
 40
0.999999999999885
 50
300.000000000003810
 51
46.260204708328693
  0
LINE
  8
0
  6
CONTINUOUS
 62
3
 10
-320.774261521117300
 20
-92.246821503507817
 11
-320.774261521117300
 21
-95.415060637179977
  0
ARC
  8
0
  6
CONTINUOUS
 62
3
 10
-319.774261521117300
 20
-92.246821503507817
 40
0.999999999999964
 50
73.739795291702634
 51
180.000000000000000
  0
ARC
  8
0
  6
CONTINUOUS
 62
3
 10
-323.274261521117300
 20
-104.246821503507810
 40
13.499999999999927
 50
46.260204708312145
 51
73.739795291689134
  0
ARC
  8
0
  6
CONTINUOUS
 62
3
 10
-323.274261521117300
 20
-104.246821503507810
 40
17.000000000000114
 50
41.212271417649760
 51
78.787728582349985
  0
ARC
  8
0
  6
CONTINUOUS
 62
3
 10
-323.274261521117300
 20
-104.246821503507810
 40
22.000000000000025
 50
39.594068226860820
 51
80.405931773138789
  0
ARC
  8
0
  6
CONTINUOUS
 62
3
 10
-323.274261521117300
 20
-104.246821503507810
 40
30.499999999999964
 50
36.813854344181067
 51
83.186145655818962
  0
ARC
  8
0
  6
CONTINUOUS
 62
3
 10
-323.274261521117300
 20
-104.246821503507810
 40
25.499999999999890
 50
37.589542391857961
 51
82.410457608141883
  0
ARC
  8
0
  6
CONTINUOUS
 62
3
 10
-323.274261521117300
 20
-104.246821503507810
 40
33.999999999999829
 50
35.739170477266640
 51
84.260829522733076
  0
LINE
  8
0
  6
CONTINUOUS
 62
3
 10
-296.656959733185430
 20
-91.766066497091970
 11
-299.275635188962950
 21
-93.277959476405158
  0
ARC
  8
0
  6
CONTINUOUS
 62
3
 10
-298.775635188962950
 20
-94.143984880189691
 40
1.000000000000082
 50
119.999999999997270
 51
202.410457608146060
  0
ARC
  8
0
  6
CONTINUOUS
 62
3
 10
-313.875732250728110
 20
-102.862029983589530
 40
1.000000000000082
 50
119.999999999997270
 51
188.381727577832660
  0
LINE
  8
0
  6
CONTINUOUS
 62
3
 10
-311.631956675703800
 20
-100.411885012968920
 11
-314.375732250728110
 21
-101.996004579805000
  0
ARC
  8
0
  6
CONTINUOUS
 62
3
 10
-306.233332837744460
 20
-98.449688625248655
 40
1.000000000000082
 50
119.999999999997270
 51
198.787728582347000
  0
LINE
  8
0
  6
CONTINUOUS
 62
3
 10
-304.092097680687860
 20
-96.058745392544779
 11
-306.733332837744460
 21
-97.583663221464121
  0
ARC
  8
0
  6
CONTINUOUS
 62
3
 10
-303.592097680687860
 20
-96.924770796329085
 40
1.000000000000094
 50
20.405931773138686
 51
120.000000000003780
  0
ARC
  8
0
  6
CONTINUOUS
 62
3
 10
-313.875732250728110
 20
-105.631613023426320
 40
1.000000000000059
 50
171.618272422154460
 51
239.999999999996220
  0
ARC
  8
0
  6
CONTINUOUS
 62
3
 10
-323.274261521117300
 20
-104.246821503507810
 40
8.499999999999972
 50
351.618272422157820
 51
8.381727577842204
  0
ARC
  8
0
  6
CONTINUOUS
 62
3
 10
-311.131956675703800
 20
-101.277910416753230
 40
0.999999999999879
 50
13.739795291686027
 51
120.000000000003780
  0
LINE
  8
0
  6
CONTINUOUS
 62
3
 10
-311.631956675703800
 20
-108.081757994046710
 11
-314.375732250728110
 21
-106.497638427210630
  0
ARC
  8
0
  6
CONTINUOUS
 62
3
 10
-311.131956675703800
 20
-107.215732590262400
 40
0.999999999999885
 50
239.999999999996220
 51
346.260204708314010
  0
ARC
  8
0
  6
CONTINUOUS
 62
3
 10
-323.274261521117300
 20
-104.246821503507810
 40
13.500000000000130
 50
346.260204708311850
 51
13.739795291688171
  0
ARC
  8
0
  6
CONTINUOUS
 62
3
 10
-306.233332837744460
 20
-110.043954381766980
 40
0.999999999999646
 50
161.212271417644620
 51
239.999999999996220
  0
LINE
  8
0
  6
CONTINUOUS
 62
3
 10
-304.092097680687860
 20
-112.434897614470850
 11
-306.733332837744460
 21
-110.909979785551280
  0
ARC
  8
0
  6
CONTINUOUS
 62
3
 10
-323.274261521117300
 20
-104.246821503507810
 40
17.000000000000146
 50
341.212271417650070
 51
18.787728582350418
  0
ARC
  8
0
  6
CONTINUOUS
 62
3
 10
-303.592097680687860
 20
-111.568872210686550
 40
0.999999999999885
 50
239.999999999996220
 51
339.594068226861340
  0
ARC
  8
0
  6
CONTINUOUS
 62
3
 10
-298.775635188962950
 20
-114.349658126826170
 40
0.999999999999701
 50
157.589542391853940
 51
240.000000000002730
  0
ARC
  8
0
  6
CONTINUOUS
 62
3
 10
-323.274261521117300
 20
-104.246821503507810
 40
22.000000000000206
 50
339.594068226860770
 51
20.405931773139226
  0
LINE
  8
0
  6
CONTINUOUS
 62
3
 10
-296.656959733185430
 20
-116.727576509923660
 11
-299.275635188962950
 21
-115.215683530610700
  0
ARC
  8
0
  6
CONTINUOUS
 62
3
 10
-323.274261521117300
 20
-104.246821503507810
 40
25.500000000000085
 50
337.589542391857490
 51
22.410457608142021
  0
CIRCLE
  8
0
  6
CONTINUOUS
 62
3
 10
-323.274261521117300
 20
-104.246821503507810
 40
5.000000000000000
  0
ARC
  8
0
  6
CONTINUOUS
 62
3
 10
-319.774261521117300
 20
-139.071381802239560
 40
0.999999999999973
 50
95.739170477261709
 51
180.000000000000000
  0
ARC
  8
0
  6
CONTINUOUS
 62
3
 10
-319.774261521117300
 20
-142.085293988532840
 40
1.000000000000000
 50
180.000000000000000
 51
275.284732954535740
  0
ARC
  8
0
  6
CONTINUOUS
 62
3
 10
-319.774261521117300
 20
-130.514672576635120
 40
0.999999999999975
 50
97.589542391854238
 51
180.000000000000000
  0
ARC
  8
0
  6
CONTINUOUS
 62
3
 10
-299.656959733185430
 20
-121.923728932629950
 40
0.999999999999911
 50
323.186145655802870
 51
59.999999999996206
  0
ARC
  8
0
  6
CONTINUOUS
 62
3
 10
-302.275635188962500
 20
-120.411835953316990
 40
1.000000000000082
 50
60.000000000002721
 51
142.410457608148220
  0
ARC
  8
0
  6
CONTINUOUS
 62
3
 10
-319.774261521117300
 20
-133.538458535261500
 40
1.000000000000000
 50
180.000000000000000
 51
276.813854344179670
  0
ARC
  8
0
  6
CONTINUOUS
 62
3
 10
-319.774261521117300
 20
-124.953100744356330
 40
1.000000000000000
 50
180.000000000000000
 51
279.594068226875490
  0
ARC
  8
0
  6
CONTINUOUS
 62
3
 10
-319.774261521117300
 20
-121.903265086517420
 40
0.999999999999982
 50
101.212271417644000
 51
180.000000000000000
  0
ARC
  8
0
  6
CONTINUOUS
 62
3
 10
-307.092097680688310
 20
-117.631050037177600
 40
1.000000000000318
 50
320.405931773139570
 51
59.999999999996206
  0
ARC
  8
0
  6
CONTINUOUS
 62
3
 10
-309.733332837744460
 20
-116.106132208258250
 40
1.000000000000082
 50
60.000000000002721
 51
138.787728582338990
  0
ARC
  8
0
  6
CONTINUOUS
 62
3
 10
-314.631956675703800
 20
-113.277910416753230
 40
0.999999999999858
 50
313.739795291671330
 51
59.999999999996206
  0
ARC
  8
0
  6
CONTINUOUS
 62
3
 10
-319.774261521117300
 20
-116.246821503507810
 40
1.000000000000000
 50
180.000000000000000
 51
286.260204708297350
  0
ARC
  8
0
  6
CONTINUOUS
 62
3
 10
-319.774261521117300
 20
-113.078582369835650
 40
1.000000000000090
 50
111.618272422161970
 51
180.000000000000000
  0
ARC
  8
0
  6
CONTINUOUS
 62
3
 10
-317.375732250728110
 20
-111.693790849917150
 40
0.999999999999885
 50
59.999999999996206
 51
128.381727577840220
  0
ARC
  8
0
  6
CONTINUOUS
 62
3
 10
-323.274261521117300
 20
-104.246821503507810
 40
30.500000000000135
 50
276.813854344181040
 51
323.186145655818900
  0
ARC
  8
0
  6
CONTINUOUS
 62
3
 10
-323.274261521117300
 20
-104.246821503507810
 40
34.000000000000071
 50
275.739170477266950
 51
324.260829522733050
  0
ARC
  8
0
  6
CONTINUOUS
 62
3
 10
-323.274261521117300
 20
-104.246821503507810
 40
25.499999999999932
 50
277.589542391858170
 51
322.410457608142050
  0
ARC
  8
0
  6
CONTINUOUS
 62
3
 10
-323.274261521117300
 20
-104.246821503507810
 40
22.000000000000131
 50
279.594068226861170
 51
320.405931773139170
  0
ARC
  8
0
  6
CONTINUOUS
 62
3
 10
-323.274261521117300
 20
-104.246821503507810
 40
17.000000000000046
 50
281.212271417650020
 51
318.787728582350210
  0
ARC
  8
0
  6
CONTINUOUS
 62
3
 10
-323.274261521117300
 20
-104.246821503507810
 40
13.499999999999963
 50
286.260204708310820
 51
313.739795291687870
  0
ARC
  8
0
  6
CONTINUOUS
 62
3
 10
-323.274261521117300
 20
-104.246821503507810
 40
8.499999999999904
 50
291.618272422157700
 51
308.381727577842640
  0
LINE
  8
0
  6
CONTINUOUS
 62
3
 10
-299.156959733185430
 20
-121.057703528845650
 11
-301.775635188962500
 21
-119.545810549532460
  0
LINE
  8
0
  6
CONTINUOUS
 62
3
 10
-320.774261521117300
 20
-142.085293988532840
 11
-320.774261521117300
 21
-139.071381802239560
  0
LINE
  8
0
  6
CONTINUOUS
 62
3
 10
-306.592097680688310
 20
-116.765024633393290
 11
-309.233332837744460
 21
-115.240106804473720
  0
LINE
  8
0
  6
CONTINUOUS
 62
3
 10
-314.131956675703800
 20
-112.411885012968920
 11
-316.875732250728110
 21
-110.827765446132840
  0
LINE
  8
0
  6
CONTINUOUS
 62
3
 10
-320.774261521117300
 20
-116.246821503507810
 11
-320.774261521117300
 21
-113.078582369835650
  0
LINE
  8
0
  6
CONTINUOUS
 62
3
 10
-320.774261521117300
 20
-124.953100744356330
 11
-320.774261521117300
 21
-121.903265086517420
  0
LINE
  8
0
  6
CONTINUOUS
 62
3
 10
-320.774261521117300
 20
-133.538458535261500
 11
-320.774261521117300
 21
-130.514672576635120
  0
ARC
  8
0
  6
CONTINUOUS
 62
3
 10
-323.274261521117300
 20
-104.246821503507810
 40
39.000000000000220
 50
155.284732954534800
 51
204.715267045465200
  0
ARC
  8
0
  6
CONTINUOUS
 62
3
 10
-323.274261521117300
 20
-104.246821503507810
 40
34.000000000000007
 50
155.739170477266780
 51
204.260829522733220
  0
ARC
  8
0
  6
CONTINUOUS
 62
3
 10
-323.274261521117300
 20
-104.246821503507810
 40
25.500000000000000
 50
157.589542391857980
 51
202.410457608142480
  0
ARC
  8
0
  6
CONTINUOUS
 62
3
 10
-323.274261521117300
 20
-104.246821503507810
 40
30.499999999999947
 50
156.813854344181150
 51
203.186145655818850
  0
ARC
  8
0
  6
CONTINUOUS
 62
3
 10
-323.274261521117300
 20
-104.246821503507810
 40
22.000000000000206
 50
159.594068226860770
 51
200.405931773139230
  0
ARC
  8
0
  6
CONTINUOUS
 62
3
 10
-323.274261521117300
 20
-104.246821503507810
 40
16.999999999999716
 50
161.212271417649560
 51
198.787728582350440
  0
ARC
  8
0
  6
CONTINUOUS
 62
3
 10
-323.274261521117300
 20
-104.246821503507810
 40
13.499999999999687
 50
166.260204708311360
 51
193.739795291688180
  0
ARC
  8
0
  6
CONTINUOUS
 62
3
 10
-335.416566366530790
 20
-101.277910416753230
 40
0.999999999999885
 50
59.999999999996206
 51
166.260204708307780
  0
ARC
  8
0
  6
CONTINUOUS
 62
3
 10
-342.956425361546740
 20
-96.924770796329085
 40
0.999999999999885
 50
59.999999999996206
 51
159.594068226861310
  0
LINE
  8
0
  6
CONTINUOUS
 62
3
 10
-342.456425361546740
 20
-96.058745392544779
 11
-339.815190204490140
 21
-97.583663221464121
  0
ARC
  8
0
  6
CONTINUOUS
 62
3
 10
-340.315190204490140
 20
-98.449688625248655
 40
1.000000000000076
 50
341.212271417652970
 51
60.000000000002721
  0
LINE
  8
0
  6
CONTINUOUS
 62
3
 10
-334.916566366530790
 20
-100.411885012968920
 11
-332.172790791506490
 21
-101.996004579805000
  0
ARC
  8
0
  6
CONTINUOUS
 62
3
 10
-332.672790791506490
 20
-102.862029983589530
 40
1.000000000000026
 50
351.618272422167310
 51
60.000000000002721
  0
ARC
  8
0
  6
CONTINUOUS
 62
3
 10
-355.183215415441740
 20
-89.865630267387360
 40
0.999999999999863
 50
335.739170477254390
 51
59.999999999996206
  0
LINE
  8
0
  6
CONTINUOUS
 62
3
 10
-357.293339933547490
 20
-87.492648770456299
 11
-354.683215415441740
 21
-88.999604863603054
  0
ARC
  8
0
  6
CONTINUOUS
 62
3
 10
-357.793339933547490
 20
-88.358674174240832
 40
1.000000000000082
 50
60.000000000002721
 51
155.284732954544520
  0
ARC
  8
0
  6
CONTINUOUS
 62
3
 10
-347.772887853271640
 20
-94.143984880189691
 40
0.999999999999701
 50
337.589542391853970
 51
60.000000000002721
  0
LINE
  8
0
  6
CONTINUOUS
 62
3
 10
-349.891563309049160
 20
-91.766066497091970
 11
-347.272887853271640
 21
-93.277959476405158
  0
ARC
  8
0
  6
CONTINUOUS
 62
3
 10
-350.391563309049160
 20
-92.632091900876503
 40
1.000000000000082
 50
60.000000000002721
 51
156.813854344180160
  0
ARC
  8
0
  6
CONTINUOUS
 62
3
 10
-323.274261521117300
 20
-104.246821503507810
 40
38.999999999999986
 50
95.284732954534590
 51
144.715267045465200
  0
ARC
  8
0
  6
CONTINUOUS
 62
3
 10
-323.274261521117300
 20
-104.246821503507810
 40
34.000000000000071
 50
95.739170477266924
 51
144.260829522733360
  0
ARC
  8
0
  6
CONTINUOUS
 62
3
 10
-323.274261521117300
 20
-104.246821503507810
 40
25.500000000000160
 50
97.589542391858117
 51
142.410457608142050
  0
ARC
  8
0
  6
CONTINUOUS
 62
3
 10
-323.274261521117300
 20
-104.246821503507810
 40
30.500000000000135
 50
96.813854344181038
 51
143.186145655818930
  0
ARC
  8
0
  6
CONTINUOUS
 62
3
 10
-323.274261521117300
 20
-104.246821503507810
 40
22.000000000000131
 50
99.594068226861211
 51
140.405931773139200
  0
ARC
  8
0
  6
CONTINUOUS
 62
3
 10
-323.274261521117300
 20
-104.246821503507810
 40
17.000000000000046
 50
101.212271417650010
 51
138.787728582350240
  0
ARC
  8
0
  6
CONTINUOUS
 62
3
 10
-323.274261521117300
 20
-104.246821503507810
 40
13.499999999999963
 50
106.260204708310860
 51
133.739795291687870
  0
ARC
  8
0
  6
CONTINUOUS
 62
3
 10
-326.774261521117300
 20
-92.246821503507817
 40
1.000000000000000
 50
0.000000000000000
 51
106.260204708297360
  0
LINE
  8
0
  6
CONTINUOUS
 62
3
 10
-325.774261521117300
 20
-92.246821503507817
 11
-325.774261521117300
 21
-95.415060637179977
  0
ARC
  8
0
  6
CONTINUOUS
 62
3
 10
-331.916566366530790
 20
-95.215732590262405
 40
0.999999999999858
 50
133.739795291671300
 51
239.999999999996220
  0
ARC
  8
0
  6
CONTINUOUS
 62
3
 10
-323.274261521117300
 20
-104.246821503507810
 40
8.499999999999904
 50
111.618272422157710
 51
128.381727577841670
  0
ARC
  8
0
  6
CONTINUOUS
 62
3
 10
-326.774261521117300
 20
-95.415060637179977
 40
1.000000000000090
 50
291.618272422161970
 51
0.000000000000000
  0
ARC
  8
0
  6
CONTINUOUS
 62
3
 10
-339.456425361546280
 20
-90.862592969837806
 40
1.000000000000173
 50
140.405931773149600
 51
240.000000000002730
  0
LINE
  8
0
  6
CONTINUOUS
 62
3
 10
-339.956425361546280
 20
-91.728618373622339
 11
-337.315190204490140
 21
-93.253536202541909
  0
ARC
  8
0
  6
CONTINUOUS
 62
3
 10
-336.815190204490140
 20
-92.387510798757603
 40
0.999999999999885
 50
239.999999999996220
 51
318.787728582348790
  0
LINE
  8
0
  6
CONTINUOUS
 62
3
 10
-332.416566366530790
 20
-96.081757994046711
 11
-329.672790791506490
 21
-97.665877560882791
  0
ARC
  8
0
  6
CONTINUOUS
 62
3
 10
-329.172790791506490
 20
-96.799852157098258
 40
1.000000000000082
 50
240.000000000002730
 51
308.381727577840190
  0
ARC
  8
0
  6
CONTINUOUS
 62
3
 10
-351.683215415441740
 20
-83.803452440896535
 40
0.999999999999885
 50
239.999999999996220
 51
324.260829522725940
  0
LINE
  8
0
  6
CONTINUOUS
 62
3
 10
-354.793339933547490
 20
-83.162521751534086
 11
-352.183215415441740
 21
-84.669477844680841
  0
ARC
  8
0
  6
CONTINUOUS
 62
3
 10
-354.293339933547490
 20
-82.296496347749780
 40
0.999999999999908
 50
144.715267045455050
 51
239.999999999996220
  0
ARC
  8
0
  6
CONTINUOUS
 62
3
 10
-344.272887853271640
 20
-88.081807053698640
 40
1.000000000000082
 50
240.000000000002730
 51
322.410457608132330
  0
LINE
  8
0
  6
CONTINUOUS
 62
3
 10
-347.391563309049160
 20
-87.435939478169985
 11
-344.772887853271640
 21
-88.947832457483173
  0
ARC
  8
0
  6
CONTINUOUS
 62
3
 10
-346.891563309049160
 20
-86.569914074385451
 40
0.999999999999774
 50
143.186145655813330
 51
240.000000000002730
  0
ARC
  8
0
  6
CONTINUOUS
 62
3
 10
-326.774261521117300
 20
-66.408349018482795
 40
1.000000000000000
 50
0.000000000000000
 51
95.284732954535698
  0
LINE
  8
0
  6
CONTINUOUS
 62
3
 10
-325.774261521117300
 20
-66.408349018482795
 11
-325.774261521117300
 21
-69.422261204776078
  0
ARC
  8
0
  6
CONTINUOUS
 62
3
 10
-326.774261521117300
 20
-69.422261204776078
 40
0.999999999999973
 50
275.739170477261670
 51
0.000000000000000
  0
ARC
  8
0
  6
CONTINUOUS
 62
3
 10
-326.774261521117300
 20
-74.955184471754137
 40
1.000000000000000
 50
0.000000000000000
 51
96.813854344179688
  0
LINE
  8
0
  6
CONTINUOUS
 62
3
 10
-325.774261521117300
 20
-74.955184471754137
 11
-325.774261521117300
 21
-77.978970430380286
  0
ARC
  8
0
  6
CONTINUOUS
 62
3
 10
-326.774261521117300
 20
-77.978970430380514
 40
0.999999999999749
 50
277.589542391855960
 51
0.000000000013028
  0
ARC
  8
0
  6
CONTINUOUS
 62
3
 10
-326.774261521117300
 20
-83.540542262659301
 40
1.000000000000000
 50
0.000000000000000
 51
99.594068226875478
  0
LINE
  8
0
  6
CONTINUOUS
 62
3
 10
-325.774261521117300
 20
-83.540542262659301
 11
-325.774261521117300
 21
-86.590377920498213
  0
ARC
  8
0
  6
CONTINUOUS
 62
3
 10
-326.774261521117300
 20
-86.590377920498213
 40
0.999999999999982
 50
281.212271417643990
 51
0.000000000000000
  0
ARC
  8
0
  6
CONTINUOUS
 62
3
 10
-335.416566366530790
 20
-107.215732590262400
 40
0.999999999999879
 50
193.739795291686050
 51
300.000000000003810
  0
LINE
  8
0
  6
CONTINUOUS
 62
3
 10
-334.916566366530790
 20
-108.081757994046710
 11
-332.172790791506490
 21
-106.497638427210630
  0
ARC
  8
0
  6
CONTINUOUS
 62
3
 10
-323.274261521117300
 20
-104.246821503507810
 40
8.499999999999972
 50
171.618272422157790
 51
188.381727577842210
  0
ARC
  8
0
  6
CONTINUOUS
 62
3
 10
-332.672790791506490
 20
-105.631613023426320
 40
0.999999999999885
 50
300.000000000003810
 51
8.381727577845549
  0
LINE
  8
0
  6
CONTINUOUS
 62
3
 10
-325.774261521117300
 20
-133.538458535261500
 11
-325.774261521117300
 21
-130.514672576635120
  0
LINE
  8
0
  6
CONTINUOUS
 62
3
 10
-325.774261521117300
 20
-124.953100744356330
 11
-325.774261521117300
 21
-121.903265086517420
  0
LINE
  8
0
  6
CONTINUOUS
 62
3
 10
-325.774261521117300
 20
-116.246821503507810
 11
-325.774261521117300
 21
-113.078582369835650
  0
LINE
  8
0
  6
CONTINUOUS
 62
3
 10
-332.416566366530790
 20
-112.411885012968920
 11
-329.672790791506490
 21
-110.827765446132840
  0
LINE
  8
0
  6
CONTINUOUS
 62
3
 10
-339.956425361546280
 20
-116.765024633393290
 11
-337.315190204490140
 21
-115.240106804473720
  0
LINE
  8
0
  6
CONTINUOUS
 62
3
 10
-354.793339933547490
 20
-125.331121255481540
 11
-352.183215415441740
 21
-123.824165162334790
  0
LINE
  8
0
  6
CONTINUOUS
 62
3
 10
-347.391563309049160
 20
-121.057703528845650
 11
-344.772887853272100
 21
-119.545810549532460
  0
ARC
  8
0
  6
CONTINUOUS
 62
3
 10
-323.274261521117300
 20
-104.246821503507810
 40
8.499999999999948
 50
231.618272422157330
 51
248.381727577842330
  0
ARC
  8
0
  6
CONTINUOUS
 62
3
 10
-323.274261521117300
 20
-104.246821503507810
 40
13.499999999999927
 50
226.260204708312130
 51
253.739795291689150
  0
ARC
  8
0
  6
CONTINUOUS
 62
3
 10
-323.274261521117300
 20
-104.246821503507810
 40
16.999999999999773
 50
221.212271417650780
 51
258.787728582349980
  0
ARC
  8
0
  6
CONTINUOUS
 62
3
 10
-323.274261521117300
 20
-104.246821503507810
 40
22.000000000000025
 50
219.594068226860800
 51
260.405931773138780
  0
ARC
  8
0
  6
CONTINUOUS
 62
3
 10
-323.274261521117300
 20
-104.246821503507810
 40
25.499999999999890
 50
217.589542391857950
 51
262.410457608141830
  0
ARC
  8
0
  6
CONTINUOUS
 62
3
 10
-323.274261521117300
 20
-104.246821503507810
 40
33.999999999999964
 50
215.739170477266950
 51
264.260829522733050
  0
ARC
  8
0
  6
CONTINUOUS
 62
3
 10
-323.274261521117300
 20
-104.246821503507810
 40
30.499999999999964
 50
216.813854344181070
 51
263.186145655818960
  0
ARC
  8
0
  6
CONTINUOUS
 62
3
 10
-323.274261521117300
 20
-104.246821503507810
 40
38.999999999999865
 50
215.284732954534800
 51
264.715267045465400
  0
ARC
  8
0
  6
CONTINUOUS
 62
3
 10
-329.172790791506490
 20
-111.693790849917150
 40
0.999999999999961
 50
51.618272422159777
 51
120.000000000003780
  0
ARC
  8
0
  6
CONTINUOUS
 62
3
 10
-326.774261521117300
 20
-113.078582369835650
 40
1.000000000000000
 50
0.000000000000000
 51
68.381727577838021
  0
ARC
  8
0
  6
CONTINUOUS
 62
3
 10
-326.774261521117300
 20
-116.246821503507810
 40
0.999999999999964
 50
253.739795291702650
 51
0.000000000000000
  0
ARC
  8
0
  6
CONTINUOUS
 62
3
 10
-331.916566366530790
 20
-113.277910416753230
 40
0.999999999999885
 50
120.000000000003780
 51
226.260204708328700
  0
ARC
  8
0
  6
CONTINUOUS
 62
3
 10
-336.815190204490140
 20
-116.106132208258250
 40
1.000000000000165
 50
41.212271417643841
 51
119.999999999997270
  0
ARC
  8
0
  6
CONTINUOUS
 62
3
 10
-339.456425361546280
 20
-117.631050037177600
 40
0.999999999999885
 50
120.000000000003780
 51
219.594068226860460
  0
ARC
  8
0
  6
CONTINUOUS
 62
3
 10
-326.774261521117300
 20
-121.903265086517420
 40
1.000000000000000
 50
0.000000000000000
 51
78.787728582355996
  0
ARC
  8
0
  6
CONTINUOUS
 62
3
 10
-326.774261521117300
 20
-124.953100744356330
 40
1.000000000000268
 50
260.405931773124510
 51
0.000000000000000
  0
ARC
  8
0
  6
CONTINUOUS
 62
3
 10
-344.272887853272100
 20
-120.411835953316990
 40
1.000000000000194
 50
37.589542391851793
 51
119.999999999997270
  0
ARC
  8
0
  6
CONTINUOUS
 62
3
 10
-346.891563309049160
 20
-121.923728932629950
 40
0.999999999999885
 50
120.000000000003780
 51
216.813854344197100
  0
ARC
  8
0
  6
CONTINUOUS
 62
3
 10
-326.774261521117300
 20
-130.514672576635120
 40
1.000000000000000
 50
0.000000000000000
 51
82.410457608145762
  0
ARC
  8
0
  6
CONTINUOUS
 62
3
 10
-351.683215415441740
 20
-124.690190566119090
 40
0.999999999999807
 50
35.739170477263521
 51
120.000000000003780
  0
ARC
  8
0
  6
CONTINUOUS
 62
3
 10
-354.293339933547490
 20
-126.197146659266080
 40
1.000000000000082
 50
119.999999999997270
 51
215.284732954534320
  0
ARC
  8
0
  6
CONTINUOUS
 62
3
 10
-357.793339933547490
 20
-120.134968832774800
 40
1.000000000000248
 50
204.715267045455480
 51
300.000000000003810
  0
LINE
  8
0
  6
CONTINUOUS
 62
3
 10
-357.293339933547490
 20
-121.000994236559100
 11
-354.683215415441740
 21
-119.494038143412580
  0
ARC
  8
0
  6
CONTINUOUS
 62
3
 10
-350.391563309049160
 20
-115.861551106139130
 40
0.999999999999730
 50
203.186145655819840
 51
299.999999999997270
  0
LINE
  8
0
  6
CONTINUOUS
 62
3
 10
-349.891563309049160
 20
-116.727576509923660
 11
-347.272887853271640
 21
-115.215683530610700
  0
ARC
  8
0
  6
CONTINUOUS
 62
3
 10
-355.183215415441740
 20
-118.628012739628040
 40
1.000000000000082
 50
299.999999999997270
 51
24.260829522733715
  0
ARC
  8
0
  6
CONTINUOUS
 62
3
 10
-347.772887853271640
 20
-114.349658126826170
 40
1.000000000000082
 50
299.999999999997270
 51
22.410457608146043
  0
ARC
  8
0
  6
CONTINUOUS
 62
3
 10
-342.956425361546740
 20
-111.568872210686550
 40
1.000000000000094
 50
200.405931773138690
 51
300.000000000003810
  0
LINE
  8
0
  6
CONTINUOUS
 62
3
 10
-342.456425361546740
 20
-112.434897614470850
 11
-339.815190204490140
 21
-110.909979785551280
  0
ARC
  8
0
  6
CONTINUOUS
 62
3
 10
-340.315190204490140
 20
-110.043954381766980
 40
0.999999999999885
 50
300.000000000003810
 51
18.787728582346993
  0
LINE
  8
0
  6
CONTINUOUS
 62
3
 10
-325.774261521117300
 20
-142.085293988532840
 11
-325.774261521117300
 21
-139.071381802239560
  0
ARC
  8
0
  6
CONTINUOUS
 62
3
 10
-326.774261521117300
 20
-133.538458535261500
 40
1.000000000000077
 50
263.186145655820330
 51
0.000000000000000
  0
ARC
  8
0
  6
CONTINUOUS
 62
3
 10
-326.774261521117300
 20
-142.085293988532840
 40
1.000000000000042
 50
264.715267045464260
 51
0.000000000000000
  0
ARC
  8
0
  6
CONTINUOUS
 62
3
 10
-326.774261521117300
 20
-139.071381802239560
 40
1.000000000000000
 50
0.000000000000000
 51
84.260829522738291
  0
ARC
  8
0
  6
CONTINUOUS
 62
3
 10
-81.674261521116932
 20
-104.246821503507810
 40
300.600000000000360
 50
180.000000000000000
 51
185.752282731536610
  0
ARC
  8
0
  6
CONTINUOUS
 62
3
 10
-81.674261521116932
 20
-104.246821503507810
 40
300.599999999999910
 50
174.247717268463390
 51
180.000000000000000
  0
ARC
  8
0
  6
CONTINUOUS
 62
3
 10
-323.274261521117300
 20
242.353178496492320
 40
400.599999999999910
 50
270.000000000000000
 51
275.743681810993450
  0
ARC
  8
0
  6
CONTINUOUS
 62
3
 10
-323.274261521117300
 20
242.353178496492320
 40
400.599999999999910
 50
264.256318189006550
 51
270.000000000000000
  0
ARC
  8
0
  6
CONTINUOUS
 62
3
 10
-323.274261521117300
 20
-450.846821503507950
 40
400.599999999999910
 50
90.000000000000000
 51
95.743681810993436
  0
ARC
  8
0
  6
CONTINUOUS
 62
3
 10
-283.843394521029950
 20
-149.668768245806180
 40
6.600000000000009
 50
275.743681810995100
 51
315.000000000002790
  0
ARC
  8
0
  6
CONTINUOUS
 62
3
 10
-362.705128521204640
 20
-149.668768245806180
 40
6.600000000000278
 50
224.999999999997190
 51
264.256318189004900
  0
ARC
  8
0
  6
CONTINUOUS
 62
3
 10
-362.705128521204640
 20
-58.824874761209458
 40
6.600000000000009
 50
95.743681810995099
 51
135.000000000002790
  0
ARC
  8
0
  6
CONTINUOUS
 62
4
 10
-286.658296582098960
 20
-143.711303579474590
 40
3.000000000000067
 50
275.417963762365730
 51
315.000000000003070
  0
ARC
  8
0
  6
CONTINUOUS
 62
4
 10
-323.274261521117300
 20
242.353178496492320
 40
390.797000000000030
 50
270.000000000000000
 51
275.417963762360500
  0
LINE
  8
0
  6
CONTINUOUS
 62
4
 10
-281.196671205261280
 20
-142.492318889756460
 11
-284.536976238538950
 21
-145.832623923034360
  0
ARC
  8
0
  6
CONTINUOUS
 62
4
 10
-359.890226460135640
 20
-143.711303579474590
 40
3.000000000000346
 50
224.999999999996960
 51
264.582036237634270
  0
ARC
  8
0
  6
CONTINUOUS
 62
4
 10
-323.274261521117300
 20
242.353178496492320
 40
390.797000000000030
 50
264.582036237639500
 51
270.000000000000000
  0
ARC
  8
0
  6
CONTINUOUS
 62
4
 10
-350.646152108636670
 20
-127.786619161419820
 40
20.796999999999880
 50
185.001650270935330
 51
225.000000000000000
  0
LINE
  8
0
  6
CONTINUOUS
 62
4
 10
-365.351851836973310
 20
-142.492318889756460
 11
-362.011546803695640
 21
-145.832623923034360
  0
ARC
  8
0
  6
CONTINUOUS
 62
4
 10
-81.674261521117160
 20
-104.246821503507810
 40
290.797000000000250
 50
180.000000000000000
 51
185.001650270934930
  0
ARC
  8
0
  6
CONTINUOUS
 62
4
 10
-359.890226460135640
 20
-64.782339427541046
 40
3.000000000000067
 50
95.417963762365673
 51
135.000000000003040
  0
ARC
  8
0
  6
CONTINUOUS
 62
4
 10
-323.274261521117300
 20
-450.846821503507950
 40
390.797000000000030
 50
90.000000000000000
 51
95.417963762360529
  0
ARC
  8
0
  6
CONTINUOUS
 62
4
 10
-350.646152108636670
 20
-80.707023845595813
 40
20.797000000000015
 50
135.000000000000000
 51
174.998349729064670
  0
LINE
  8
0
  6
CONTINUOUS
 62
4
 10
-365.351851836973310
 20
-66.001324117259173
 11
-362.011546803695640
 21
-62.661019083981273
  0
ARC
  8
0
  6
CONTINUOUS
 62
4
 10
-81.674261521117160
 20
-104.246821503507810
 40
290.796999999999910
 50
174.998349729065040
 51
180.000000000000000
  0
ARC
  8
0
  6
CONTINUOUS
 62
3
 10
-400.574261521117250
 20
-78.289321503507836
 40
18.799999999999955
 50
0.000000000000000
 51
79.401214733933941
  0
ARC
  8
0
  6
CONTINUOUS
 62
3
 10
-396.748506887030320
 20
-57.844185126370121
 40
1.999999999999927
 50
177.137594773887290
 51
259.401214733934010
  0
ARC
  8
0
  6
CONTINUOUS
 62
3
 10
-402.341519984746130
 20
-57.564534471484308
 40
1.999999999999928
 50
274.873974813840960
 51
357.137594773887320
  0
LINE
  8
0
  6
CONTINUOUS
 62
3
 10
-399.076133012800480
 20
-48.326751337172595
 11
-404.169769941077450
 21
-150.199489902712680
  0
ARC
  8
0
  6
CONTINUOUS
 62
3
 10
-400.574261521117250
 20
-78.289321503507836
 40
18.800000000000036
 50
94.873974813842736
 51
144.191373186504250
  0
LINE
  8
0
  6
CONTINUOUS
 62
3
 10
-399.875134883902770
 20
-48.286801243617447
 11
-398.277131141698190
 21
-48.366701430727630
  0
ARC
  8
0
  6
CONTINUOUS
 62
3
 10
-393.732808380797220
 20
-53.600163667397737
 40
9.000000000000060
 50
160.536063666407810
 51
193.739143184213500
  0
POINT
  8
0
  6
CONTINUOUS
 62
3
 10
-400.124822968621630
 20
-53.280562938006483
  0
LINE
  8
0
  6
CONTINUOUS
 62
3
 10
-399.950041309318070
 20
-49.784929751934101
 11
-400.299604627925190
 21
-56.776196124078979
  0
LINE
  8
0
  6
CONTINUOUS
 62
3
 10
-399.950041309318070
 20
-49.784929751934101
 11
-400.299604627925190
 21
-56.776196124078979
  0
LINE
  8
0
  6
CONTINUOUS
 62
3
 10
-400.299604627925190
 20
-56.776196124078979
 11
-401.277408440432960
 21
-56.727305933453636
  0
LINE
  8
0
  6
CONTINUOUS
 62
3
 10
-399.950041309318070
 20
-49.784929751934101
 11
-400.927845121825610
 21
-49.736039561308758
  0
ARC
  8
0
  6
CONTINUOUS
 62
3
 10
-401.212489576505280
 20
-55.428928654900005
 40
1.299999237060493
 50
193.739143184211430
 51
267.137612759980240
  0
ARC
  8
0
  6
CONTINUOUS
 62
3
 10
-400.992763985753300
 20
-51.034416839862274
 40
1.299999237060474
 50
87.137594090651831
 51
160.536063666412870
  0
LINE
  8
0
  6
CONTINUOUS
 62
3
 10
-399.875134883902770
 20
-48.286801243617447
 11
-404.968771812179740
 21
-150.159539809157420
  0
LINE
  8
0
  6
CONTINUOUS
 62
3
 10
-398.277131141698190
 20
-48.366701430727630
 11
-403.370768069975160
 21
-150.239439996268400
  0
LINE
  8
0
  6
CONTINUOUS
 62
3
 10
-423.270520872738190
 20
-116.214508535926820
 11
-419.280495935082170
 21
-76.414009782809558
  0
ARC
  8
0
  6
CONTINUOUS
 62
3
 10
-400.574261521117250
 20
-78.289321503507836
 40
18.799999999999933
 50
144.191373186504250
 51
174.275189547776390
  0
ARC
  8
0
  6
CONTINUOUS
 62
3
 10
-402.574261521117250
 20
-118.289321503507830
 40
20.799999999999986
 50
174.275189547776620
 51
205.640070215894870
  0
ARC
  8
0
  6
CONTINUOUS
 62
3
 10
-402.574261521117250
 20
-118.289321503507830
 40
20.799999999999926
 50
205.640070215894870
 51
260.083463391769440
  0
ARC
  8
0
  6
CONTINUOUS
 62
3
 10
-402.574261521117250
 20
-118.289321503507830
 40
20.799999999999986
 50
174.275189547776620
 51
205.640070215894870
  0
ARC
  8
0
  6
CONTINUOUS
 62
3
 10
-400.907714254733720
 20
-141.028332480437140
 40
1.999999999999962
 50
94.191726156001650
 51
177.137594773887290
  0
ARC
  8
0
  6
CONTINUOUS
 62
3
 10
-406.500727352449530
 20
-140.748681825551330
 40
2.000000000000154
 50
357.137594773887600
 51
80.083463391767268
  0
ARC
  8
0
  6
CONTINUOUS
 62
3
 10
-402.574261521117250
 20
-118.289321503507830
 40
20.800000000000082
 50
274.191726156007460
 51
354.952683218992150
  0
LINE
  8
0
  6
CONTINUOUS
 62
3
 10
-403.370768069975160
 20
-150.239439996268400
 11
-404.968771812179740
 21
-150.159539809157420
  0
INSERT
  8
0
  2
SYM1
 10
-404.719083727460660
 20
-145.165778114768270
 41
1.000000000000000
 42
1.000000000000000
 43
1.000000000000000
 50
357.137594773886350
  0
LINE
  8
0
  6
CONTINUOUS
 62
3
 10
-381.774261521117300
 20
-86.916212743288270
 11
-381.774261521117300
 21
-78.289321503507836
  0
LINE
  8
0
  6
CONTINUOUS
 62
3
 10
-354.774263905301610
 20
-49.690193148505728
 11
-354.774262951627290
 21
-46.803443880927603
  0
LINE
  8
0
  6
CONTINUOUS
 62
3
 10
-359.774259136931960
 20
-46.803449858508770
 11
-359.774260090606280
 21
-49.690195311389630
  0
LINE
  8
0
  6
CONTINUOUS
 62
3
 10
-357.274266242324300
 20
-45.360072763151720
 11
-359.774260027115590
 21
-46.803449407699190
  0
LINE
  8
0
  6
CONTINUOUS
 62
3
 10
-357.274256008991530
 20
-51.133568441229897
 11
-354.774263703948010
 21
-49.690193094485778
  0
LINE
  8
0
  6
CONTINUOUS
 62
3
 10
-357.274266303553760
 20
-45.360073243294437
 11
-354.774261575506900
 21
-46.803444278387587
  0
LINE
  8
0
  6
CONTINUOUS
 62
3
 10
-359.774260873061170
 20
-49.690195478183796
 11
-357.274256523554640
 21
-51.133569054879672
  0
CIRCLE
  8
0
  6
CONTINUOUS
 62
3
 10
-363.274261521117070
 20
-162.746821503507870
 40
5.000000000000000
  0
LINE
  8
0
  6
CONTINUOUS
 62
3
 10
-360.774263905301610
 20
-164.190193148505780
 11
-360.774262951627290
 21
-161.303443880927660
  0
LINE
  8
0
  6
CONTINUOUS
 62
3
 10
-365.774259136931960
 20
-161.303449858508830
 11
-365.774260090606280
 21
-164.190195311389690
  0
LINE
  8
0
  6
CONTINUOUS
 62
3
 10
-363.274266242324300
 20
-159.860072763151780
 11
-365.774260027115590
 21
-161.303449407699250
  0
LINE
  8
0
  6
CONTINUOUS
 62
3
 10
-363.274256008991530
 20
-165.633568441229950
 11
-360.774263703948010
 21
-164.190193094485830
  0
LINE
  8
0
  6
CONTINUOUS
 62
3
 10
-363.274266303553760
 20
-159.860073243294490
 11
-360.774261575506900
 21
-161.303444278387640
  0
LINE
  8
0
  6
CONTINUOUS
 62
3
 10
-365.774260873061170
 20
-164.190195478183850
 11
-363.274256523554640
 21
-165.633569054879730
  0
CIRCLE
  8
0
  6
CONTINUOUS
 62
3
 10
-283.274261521117520
 20
-162.746821503507870
 40
5.000000000000000
  0
LINE
  8
0
  6
CONTINUOUS
 62
3
 10
-285.774259136932980
 20
-164.190193148505780
 11
-285.774260090607300
 21
-161.303443880927660
  0
LINE
  8
0
  6
CONTINUOUS
 62
3
 10
-280.774263905302630
 20
-161.303449858508830
 11
-280.774262951628320
 21
-164.190195311389690
  0
LINE
  8
0
  6
CONTINUOUS
 62
3
 10
-283.274256799910290
 20
-159.860072763151780
 11
-280.774263015119000
 21
-161.303449407699250
  0
LINE
  8
0
  6
CONTINUOUS
 62
3
 10
-283.274267033242950
 20
-165.633568441229950
 11
-285.774259338286580
 21
-164.190193094485830
  0
LINE
  8
0
  6
CONTINUOUS
 62
3
 10
-283.274256738680830
 20
-159.860073243294490
 11
-285.774261466727690
 21
-161.303444278387640
  0
LINE
  8
0
  6
CONTINUOUS
 62
3
 10
-280.774262169173430
 20
-164.190195478183850
 11
-283.274266518679950
 21
-165.633569054879730
  0
LINE
  8
0
  6
CONTINUOUS
 62
3
 10
-323.274261521117070
 20
-167.246821503507820
 11
-356.925048971517070
 21
-167.246821503507820
  0
ARC
  8
0
  6
CONTINUOUS
 62
3
 10
-356.925048971517070
 20
-166.246821503507820
 40
1.000000000000049
 50
151.134272584994620
 51
270.000000000000000
  0
ARC
  8
0
  6
CONTINUOUS
 62
3
 10
-363.274261521117070
 20
-162.746821503507870
 40
6.249999999999792
 50
331.134272584992350
 51
147.533799814502200
  0
ARC
  8
0
  6
CONTINUOUS
 62
3
 10
-369.391146419022330
 20
-158.855007126410640
 40
0.999999999999825
 50
195.896808563644750
 51
327.533799814499730
  0
LINE
  8
0
  6
CONTINUOUS
 62
3
 10
-323.274261521117520
 20
-167.246821503507820
 11
-289.623474070717520
 21
-167.246821503507820
  0
ARC
  8
0
  6
CONTINUOUS
 62
3
 10
-289.623474070717520
 20
-166.246821503507820
 40
1.000000000000000
 50
270.000000000000000
 51
28.865727415011673
  0
ARC
  8
0
  6
CONTINUOUS
 62
3
 10
-283.274261521117520
 20
-162.746821503507870
 40
6.250000000000016
 50
32.466200185499126
 51
208.865727415006660
  0
ARC
  8
0
  6
CONTINUOUS
 62
3
 10
-277.157376623212260
 20
-158.855007126410610
 40
1.000000000000154
 50
212.466200185493310
 51
344.103191436353650
  0
ARC
  8
0
  6
CONTINUOUS
 62
3
 10
-283.274261521117520
 20
-162.746821503507930
 40
7.000000000000063
 50
308.213210701740310
 51
8.736046408088891
  0
ARC
  8
0
  6
CONTINUOUS
 62
3
 10
-302.472908038605060
 20
-126.393039522395150
 40
40.999999999999915
 50
313.090533982667180
 51
327.706333120354880
  0
ARC
  8
0
  6
CONTINUOUS
 62
3
 10
-270.425080648055880
 20
-160.772346664127270
 40
6.000000000000012
 50
132.989840483216540
 51
188.736046408088780
  0
LINE
  8
0
  6
CONTINUOUS
 62
3
 10
-289.083736540428620
 20
-168.246821503507820
 11
-278.944134502195080
 21
-168.246821503507820
  0
ARC
  8
0
  6
CONTINUOUS
 62
3
 10
-283.274261521117520
 20
-162.746821503507870
 40
7.999999999999941
 50
214.228866327812370
 51
223.432536557789660
  0
LINE
  8
0
  6
CONTINUOUS
 62
3
 10
-357.464786501805970
 20
-168.246821503507820
 11
-367.604388540039510
 21
-168.246821503507820
  0
ARC
  8
0
  6
CONTINUOUS
 62
3
 10
-363.274261521117070
 20
-162.746821503507870
 40
7.999999999999938
 50
316.567463442210340
 51
325.771133672187600
  0
ARC
  8
0
  6
CONTINUOUS
 62
3
 10
-363.274261521117070
 20
-162.746821503507930
 40
7.000000000000076
 50
171.263953591911330
 51
231.786789298259690
  0
ARC
  8
0
  6
CONTINUOUS
 62
3
 10
-376.123442394178710
 20
-160.772346664127270
 40
5.999999999999940
 50
351.263953591910930
 51
47.010159516783276
  0
ARC
  8
0
  6
CONTINUOUS
 62
3
 10
-344.075615003629310
 20
-126.393039522395150
 40
41.000000000000014
 50
212.293666879645140
 51
227.010159516783600
  0
LINE
  8
0
  6
CONTINUOUS
 62
3
 10
-351.024261521117070
 20
-48.246821503507817
 11
-351.024261521117070
 21
-40.247925911645382
  0
ARC
  8
0
  6
CONTINUOUS
 62
3
 10
-350.024261521117300
 20
-40.247925911645382
 40
0.999999999999975
 50
97.328097969880389
 51
180.000000000000000
  0
LINE
  8
0
  6
CONTINUOUS
 62
3
 10
-363.524261521117070
 20
-48.246821503507817
 11
-363.524261521117070
 21
-44.458084158739496
  0
ARC
  8
0
  6
CONTINUOUS
 62
3
 10
-364.524261521117070
 20
-44.458084158739496
 40
1.000000000000000
 50
0.000000000000000
 51
115.053819043268190
  0
ARC
  8
0
  6
CONTINUOUS
 62
3
 10
-323.274261521117070
 20
-438.246821503507820
 40
400.000000000000000
 50
90.000000000000000
 51
93.357817421570701
  0
ARC
  8
0
  6
CONTINUOUS
 62
3
 10
-323.274261521117520
 20
-438.246821503507820
 40
400.000000000000170
 50
86.642182578429299
 51
90.000000000000000
  0
LINE
  8
0
  6
CONTINUOUS
 62
3
 10
-371.774261521117300
 20
-168.746821503507820
 11
-395.774261521117300
 21
-168.746821503507820
  0
LINE
  8
0
  6
CONTINUOUS
 62
3
 10
-274.774261521117300
 20
-168.746821503507820
 11
-250.774261521117300
 21
-168.746821503507820
  0
LINE
  8
0
  6
CONTINUOUS
 62
3
 10
-323.274261521117300
 20
-167.246821503507820
 11
-356.659883243455850
 21
-167.246821503507820
  0
LINE
  8
0
  6
CONTINUOUS
 62
3
 10
-357.464786501806200
 20
-168.246821503507820
 11
-370.774261521117300
 21
-168.246821503507820
  0
LINE
  8
0
  6
CONTINUOUS
 62
3
 10
-385.312831981662380
 20
-144.246821503507820
 11
-390.774261521117300
 21
-144.246821503507820
  0
LINE
  8
0
  6
CONTINUOUS
 62
3
 10
-371.774261521117300
 20
-169.246821503507820
 11
-395.774261521117300
 21
-169.246821503507820
  0
LINE
  8
0
  6
CONTINUOUS
 62
3
 10
-382.776869305497260
 20
-145.644044755143230
 11
-380.424413361994310
 21
-149.366172915620610
  0
LINE
  8
0
  6
CONTINUOUS
 62
3
 10
-371.774261521117300
 20
-169.246821503507820
 11
-371.774261521117300
 21
-160.650784661185980
  0
LINE
  8
0
  6
CONTINUOUS
 62
3
 10
-395.774261521117300
 20
-169.246821503507820
 11
-395.774261521117300
 21
-157.246821503507820
  0
LINE
  8
0
  6
DASHDOT
 62
4
 10
-385.796518143431510
 20
-172.827325272428880
 11
-385.796518143431510
 21
-153.304977097380060
  0
LINE
  8
0
  6
CONTINUOUS
 62
3
 10
-378.193706061922280
 20
-154.246821503507820
 11
-392.774261521117300
 21
-154.246821503507820
  0
LINE
  8
0
  6
CONTINUOUS
 62
3
 10
-323.274261521117300
 20
-167.246821503507820
 11
-289.888639798778970
 21
-167.246821503507820
  0
LINE
  8
0
  6
CONTINUOUS
 62
3
 10
-289.083736540428620
 20
-168.246821503507820
 11
-275.774261521117300
 21
-168.246821503507820
  0
LINE
  8
0
  6
CONTINUOUS
 62
3
 10
-261.235691060572210
 20
-144.246821503507820
 11
-255.774261521117300
 21
-144.246821503507820
  0
LINE
  8
0
  6
CONTINUOUS
 62
3
 10
-274.774261521117300
 20
-169.246821503507820
 11
-250.774261521117300
 21
-169.246821503507820
  0
LINE
  8
0
  6
CONTINUOUS
 62
3
 10
-263.771653736737330
 20
-145.644044755143230
 11
-266.124109680240280
 21
-149.366172915620610
  0
LINE
  8
0
  6
CONTINUOUS
 62
3
 10
-274.774261521117300
 20
-169.246821503507820
 11
-274.774261521117300
 21
-160.650784661185980
  0
LINE
  8
0
  6
CONTINUOUS
 62
3
 10
-250.774261521117300
 20
-169.246821503507820
 11
-250.774261521117300
 21
-157.246821503507820
  0
LINE
  8
0
  6
DASHDOT
 62
4
 10
-260.752004898803080
 20
-172.827325272428880
 11
-260.752004898803080
 21
-153.304977097380060
  0
LINE
  8
0
  6
CONTINUOUS
 62
3
 10
-268.354816980312310
 20
-154.246821503507820
 11
-253.774261521117300
 21
-154.246821503507820
  0
ARC
  8
0
  6
CONTINUOUS
 62
3
 10
-323.274261521117300
 20
-438.246821503507820
 40
400.000000000000000
 50
90.000000000000000
 51
93.357817421570687
  0
ARC
  8
0
  6
CONTINUOUS
 62
3
 10
-323.274261521117300
 20
-438.246821503507820
 40
400.000000000000170
 50
86.642182578429313
 51
90.000000000000000
  0
ARC
  8
0
  6
CONTINUOUS
 62
3
 10
-344.075615003629540
 20
-126.393039522395150
 40
41.000000000000014
 50
212.293666879645140
 51
227.010159516783520
  0
ARC
  8
0
  6
CONTINUOUS
 62
3
 10
-378.193706061922280
 20
-157.246821503507820
 40
2.999999999999881
 50
42.123770773014201
 51
90.000000000000000
  0
ARC
  8
0
  6
CONTINUOUS
 62
3
 10
-374.774261521117300
 20
-160.650784661185980
 40
3.000000000000000
 50
0.000000000000000
 51
48.136221427766380
  0
ARC
  8
0
  6
CONTINUOUS
 62
3
 10
-344.075615003629540
 20
-126.393039522395150
 40
42.999999999999908
 50
212.293666879645230
 51
228.136221427764950
  0
ARC
  8
0
  6
CONTINUOUS
 62
3
 10
-302.472908038605060
 20
-126.393039522395150
 40
40.999999999999915
 50
313.090533982667180
 51
327.706333120354880
  0
ARC
  8
0
  6
CONTINUOUS
 62
3
 10
-390.774261521117300
 20
-147.246821503507820
 40
3.000000000000000
 50
90.000000000000000
 51
180.000000000000000
  0
ARC
  8
0
  6
CONTINUOUS
 62
3
 10
-370.774261521117300
 20
-169.246821503507820
 40
1.000000000000000
 50
90.000000000000000
 51
180.000000000000000
  0
ARC
  8
0
  6
CONTINUOUS
 62
3
 10
-385.312831981662380
 20
-147.246821503507820
 40
3.000000000000127
 50
32.293666879644171
 51
90.000000000000000
  0
ARC
  8
0
  6
CONTINUOUS
 62
3
 10
-392.774261521117300
 20
-157.246821503507820
 40
3.000000000000000
 50
90.000000000000000
 51
180.000000000000000
  0
ARC
  8
0
  6
CONTINUOUS
 62
3
 10
-396.774261521117300
 20
-152.774685548508270
 40
3.000000000000029
 50
311.810314895778110
 51
0.000000000000000
  0
ARC
  8
0
  6
CONTINUOUS
 62
3
 10
-255.774261521117300
 20
-147.246821503507820
 40
3.000000000000000
 50
0.000000000000000
 51
90.000000000000000
  0
ARC
  8
0
  6
CONTINUOUS
 62
3
 10
-275.774261521117300
 20
-169.246821503507820
 40
1.000000000000000
 50
0.000000000000000
 51
90.000000000000000
  0
ARC
  8
0
  6
CONTINUOUS
 62
3
 10
-261.235691060572210
 20
-147.246821503507820
 40
3.000000000000000
 50
90.000000000000000
 51
147.706333120355820
  0
ARC
  8
0
  6
CONTINUOUS
 62
3
 10
-268.354816980312310
 20
-157.246821503507820
 40
3.000000000000000
 50
90.000000000000000
 51
137.876229226985800
  0
ARC
  8
0
  6
CONTINUOUS
 62
3
 10
-271.774261521117300
 20
-160.650784661185980
 40
3.000000000000084
 50
131.863778572233600
 51
180.000000000000000
  0
ARC
  8
0
  6
CONTINUOUS
 62
3
 10
-302.472908038605060
 20
-126.393039522395150
 40
43.000000000000021
 50
311.863778572235050
 51
327.706333120354710
  0
ARC
  8
0
  6
CONTINUOUS
 62
3
 10
-253.774261521117300
 20
-157.246821503507820
 40
3.000000000000000
 50
0.000000000000000
 51
90.000000000000000
  0
ARC
  8
0
  6
CONTINUOUS
 62
3
 10
-249.774261521117300
 20
-152.774685548508270
 40
3.000000000000000
 50
180.000000000000000
 51
228.189685104221890
  0
ARC
  8
0
  6
CONTINUOUS
 62
3
 10
-363.274261521117300
 20
-162.746821503507870
 40
7.000000000000076
 50
171.263953591911330
 51
231.786789298261400
  0
ARC
  8
0
  6
CONTINUOUS
 62
3
 10
-376.123442394178940
 20
-160.772346664127210
 40
5.999999999999940
 50
351.263953591910930
 51
47.010159516783453
  0
ARC
  8
0
  6
CONTINUOUS
 62
3
 10
-283.274261521117520
 20
-162.746821503507870
 40
7.000000000000107
 50
308.213210701740080
 51
8.736046408088662
  0
ARC
  8
0
  6
CONTINUOUS
 62
3
 10
-270.425080648055650
 20
-160.772346664127210
 40
6.000000000000167
 50
132.989840483218130
 51
188.736046408088700
  0
ARC
  8
0
  6
CONTINUOUS
 62
3
 10
-363.274261521117300
 20
-162.746821503507870
 40
7.999999999999938
 50
316.567463442210340
 51
325.771133672187600
  0
ARC
  8
0
  6
CONTINUOUS
 62
3
 10
-283.274261521117520
 20
-162.746821503507870
 40
7.999999999999941
 50
214.228866327812370
 51
223.432536557789660
  0
ARC
  8
0
  6
CONTINUOUS
 62
3
 10
-357.274261521117070
 20
-48.246821503507817
 40
5.000000000000345
 50
321.205521573455480
 51
228.448949624457100
  0
ARC
  8
0
  6
CONTINUOUS
 62
3
 10
-357.274261521117070
 20
-48.246821503507817
 40
6.250000000000000
 50
180.000000000000000
 51
218.517260595967570
  0
ARC
  8
0
  6
CONTINUOUS
 62
3
 10
-357.274261521117070
 20
-48.246821503507817
 40
6.250000000000186
 50
331.137210601943650
 51
0.000000000000000
  0
ARC
  8
0
  6
CONTINUOUS
 62
3
 10
-343.774261521117070
 20
-88.847694429612602
 40
50.000000000000199
 50
93.357817421570815
 51
151.143261462943740
  0
LINE
  8
0
  6
CONTINUOUS
 62
3
 10
-381.803188196717310
 20
-77.246821503507761
 11
-381.059231083718710
 21
-77.246821503507761
  0
LINE
  8
0
  6
CONTINUOUS
 62
3
 10
-388.198658255464580
 20
-133.322020221587510
 11
-378.733771577884230
 21
-148.297655083377550
  0
LINE
  8
0
  6
CONTINUOUS
 62
3
 10
-393.774261521117300
 20
-152.774685548508270
 11
-393.774261521117300
 21
-137.136071886531450
  0
LINE
  8
0
  6
DASHDOT
 62
4
 10
-323.274261521117300
 20
-27.238613336114213
 11
-323.274261521117300
 21
-179.925565687197380
  0
LINE
  8
0
  6
DASHDOT
 62
4
 10
-341.664041315376380
 20
-84.246821503507817
 11
-304.949570112563380
 21
-84.246821503507817
  0
ARC
  8
0
  6
CONTINUOUS
 62
4
 10
-286.284194282970930
 20
-76.183064872492196
 40
10.797000000000011
 50
5.752282731536912
 51
44.999999999998295
  0
ARC
  8
0
  6
CONTINUOUS
 62
3
 10
-286.284194282970930
 20
-76.183064872492196
 40
20.599999999999916
 50
5.752282731536487
 51
44.999999999997321
  0
ARC
  8
0
  6
CONTINUOUS
 62
3
 10
-286.284194282970930
 20
-132.310578134523440
 40
20.600000000000069
 50
315.000000000002670
 51
354.247717268463480
  0
LINE
  8
0
  6
CONTINUOUS
 62
3
 10
-271.717794590527320
 20
-61.616665180049949
 11
-279.176489765198310
 21
-54.157970005378274
  0
ARC
  8
0
  6
CONTINUOUS
 62
3
 10
-292.255183108687110
 20
-82.296496347749780
 40
0.999999999999885
 50
300.000000000003810
 51
35.284732954544943
  0
LINE
  8
0
  6
CONTINUOUS
 62
3
 10
-291.755183108687110
 20
-83.162521751534086
 11
-294.365307626792860
 21
-84.669477844680841
  0
ARC
  8
0
  6
CONTINUOUS
 62
3
 10
-294.865307626792860
 20
-83.803452440896535
 40
0.999999999999940
 50
215.739170477274090
 51
300.000000000003810
  0
ARC
  8
0
  6
CONTINUOUS
 62
3
 10
-323.274261521117300
 20
-104.246821503507810
 40
38.999999999999865
 50
35.284732954534789
 51
84.715267045465410
  0
ARC
  8
0
  6
CONTINUOUS
 62
3
 10
-296.156959733185430
 20
-92.632091900876503
 40
0.999999999999730
 50
23.186145655819850
 51
119.999999999997270
  0
ARC
  8
0
  6
CONTINUOUS
 62
3
 10
-288.755183108687110
 20
-88.358674174240832
 40
1.000000000000248
 50
24.715267045455477
 51
119.999999999997270
  0
LINE
  8
0
  6
CONTINUOUS
 62
3
 10
-289.255183108687110
 20
-87.492648770456299
 11
-291.865307626792860
 21
-88.999604863603054
  0
ARC
  8
0
  6
CONTINUOUS
 62
3
 10
-291.365307626792860
 20
-89.865630267387360
 40
0.999999999999885
 50
120.000000000003780
 51
204.260829522745610
  0
ARC
  8
0
  6
CONTINUOUS
 62
3
 10
-291.365307626792860
 20
-118.628012739628040
 40
0.999999999999769
 50
155.739170477266270
 51
240.000000000002730
  0
ARC
  8
0
  6
CONTINUOUS
 62
3
 10
-296.156959733185430
 20
-115.861551106139130
 40
1.000000000000082
 50
240.000000000002730
 51
336.813854344180130
  0
ARC
  8
0
  6
CONTINUOUS
 62
3
 10
-323.274261521117300
 20
-104.246821503507810
 40
30.499999999999947
 50
336.813854344181150
 51
23.186145655818844
  0
ARC
  8
0
  6
CONTINUOUS
 62
3
 10
-323.274261521117300
 20
-104.246821503507810
 40
34.000000000000007
 50
335.739170477266780
 51
24.260829522733218
  0
ARC
  8
0
  6
CONTINUOUS
 62
3
 10
-323.274261521117300
 20
-104.246821503507810
 40
39.000000000000220
 50
335.284732954534830
 51
24.715267045465190
  0
LINE
  8
0
  6
CONTINUOUS
 62
3
 10
-289.255183108687110
 20
-121.000994236559100
 11
-291.865307626792860
 21
-119.494038143412580
  0
ARC
  8
0
  6
CONTINUOUS
 62
3
 10
-288.755183108687110
 20
-120.134968832774800
 40
0.999999999999885
 50
239.999999999996220
 51
335.284732954544490
  0
ARC
  8
0
  6
CONTINUOUS
 62
3
 10
-292.255183108687110
 20
-126.197146659266080
 40
0.999999999999776
 50
324.715267045465680
 51
60.000000000002721
  0
ARC
  8
0
  6
CONTINUOUS
 62
3
 10
-294.865307626792860
 20
-124.690190566119090
 40
0.999999999999885
 50
59.999999999996206
 51
144.260829522736490
  0
ARC
  8
0
  6
CONTINUOUS
 62
3
 10
-323.274261521117300
 20
-104.246821503507810
 40
38.999999999999986
 50
275.284732954534600
 51
324.715267045465230
  0
LINE
  8
0
  6
CONTINUOUS
 62
3
 10
-291.755183108687110
 20
-125.331121255481540
 11
-294.365307626792860
 21
-123.824165162334790
  0
ARC
  8
0
  6
CONTINUOUS
 62
3
 10
-564.874261521117660
 20
-104.246821503507810
 40
300.600000000000360
 50
0.000000000000000
 51
5.752282731536604
  0
ARC
  8
0
  6
CONTINUOUS
 62
3
 10
-564.874261521117660
 20
-104.246821503507810
 40
300.599999999999910
 50
354.247717268463420
 51
0.000000000000000
  0
ARC
  8
0
  6
CONTINUOUS
 62
3
 10
-323.274261521117300
 20
-450.846821503507950
 40
400.599999999999910
 50
84.256318189006564
 51
90.000000000000000
  0
ARC
  8
0
  6
CONTINUOUS
 62
3
 10
-283.843394521029950
 20
-58.824874761209458
 40
6.600000000000278
 50
44.999999999997215
 51
84.256318189004901
  0
LINE
  8
0
  6
CONTINUOUS
 62
4
 10
-278.649562366499590
 20
-68.548432956021315
 11
-284.536976238538950
 21
-62.661019083981273
  0
ARC
  8
0
  6
CONTINUOUS
 62
4
 10
-323.274261521117300
 20
-450.846821503507950
 40
390.797000000000030
 50
84.582036237639471
 51
90.000000000000000
  0
ARC
  8
0
  6
CONTINUOUS
 62
4
 10
-286.658296582098960
 20
-64.782339427541046
 40
3.000000000000346
 50
44.999999999996930
 51
84.582036237634313
  0
ARC
  8
0
  6
CONTINUOUS
 62
4
 10
-564.874261521117660
 20
-104.246821503507810
 40
290.797000000000480
 50
0.000000000000000
 51
5.752282731536624
  0
ARC
  8
0
  6
CONTINUOUS
 62
4
 10
-295.902370933597920
 20
-127.786619161419820
 40
20.797000000000015
 50
315.000000000000000
 51
354.998349729064670
  0
ARC
  8
0
  6
CONTINUOUS
 62
4
 10
-564.874261521117660
 20
-104.246821503507810
 40
290.797000000000140
 50
354.998349729065010
 51
0.000000000000000
  0
LINE
  8
0
  6
CONTINUOUS
 62
3
 10
-267.274301037919490
 20
-140.246821503507590
 11
-265.774261521117300
 21
-140.246821503507590
  0
LINE
  8
0
  6
CONTINUOUS
 62
3
 10
-265.774261521117300
 20
-74.258835649077582
 11
-265.774261521117300
 21
-68.246821503508045
  0
LINE
  8
0
  6
CONTINUOUS
 62
3
 10
-265.774261521117300
 20
-140.246821503507820
 11
-265.774261521117300
 21
-134.239320565770190
  0
LINE
  8
0
  6
CONTINUOUS
 62
3
 10
-267.274301037919490
 20
-68.246821503508045
 11
-265.774261521117300
 21
-68.246821503508045
  0
LINE
  8
0
  6
CONTINUOUS
 62
3
 10
-265.774261521117300
 20
-68.246821503508045
 11
-238.407596748174910
 21
-68.246821503508045
  0
LINE
  8
0
  6
CONTINUOUS
 62
3
 10
-265.774261521117300
 20
-140.246821503507820
 11
-238.407596748174910
 21
-140.246821503507820
  0
LINE
  8
0
  6
CONTINUOUS
 62
3
 10
-231.274261521117300
 20
-101.746821503507590
 11
-231.784678368635010
 21
-101.746821503507590
  0
LINE
  8
0
  6
CONTINUOUS
 62
3
 10
-231.274261521117300
 20
-106.746821503507810
 11
-231.274261521117300
 21
-101.746821503507810
  0
LINE
  8
0
  6
CONTINUOUS
 62
3
 10
-231.274261521117300
 20
-106.746821503507810
 11
-231.784678368635010
 21
-106.746821503507810
  0
ARC
  8
0
  6
CONTINUOUS
 62
3
 10
-238.407596748174910
 20
-135.246821503507820
 40
5.000000000000000
 50
270.000000000000000
 51
353.967950853629650
  0
ARC
  8
0
  6
CONTINUOUS
 62
3
 10
-238.407596748174910
 20
-73.246821503508045
 40
5.000000000000143
 50
6.032049146370342
 51
90.000000000000000
  0
ARC
  8
0
  6
CONTINUOUS
 62
3
 10
-531.774261521117300
 20
-104.246821503507810
 40
300.000000000000060
 50
353.967950853630210
 51
6.032049146369772
  0
LINE
  8
0
  6
CONTINUOUS
 62
3
 10
-291.774259136932980
 20
-49.690193148505728
 11
-291.774260090607300
 21
-46.803443880927603
  0
LINE
  8
0
  6
CONTINUOUS
 62
3
 10
-286.774263905302630
 20
-46.803449858508770
 11
-286.774262951628320
 21
-49.690195311389630
  0
LINE
  8
0
  6
CONTINUOUS
 62
3
 10
-289.274256799910290
 20
-45.360072763151720
 11
-286.774263015119000
 21
-46.803449407699190
  0
LINE
  8
0
  6
CONTINUOUS
 62
3
 10
-289.274267033242950
 20
-51.133568441229897
 11
-291.774259338286580
 21
-49.690193094485778
  0
LINE
  8
0
  6
CONTINUOUS
 62
3
 10
-289.274256738680830
 20
-45.360073243294437
 11
-291.774261466727690
 21
-46.803444278387587
  0
LINE
  8
0
  6
CONTINUOUS
 62
3
 10
-286.774262169173430
 20
-49.690195478183796
 11
-289.274266518679950
 21
-51.133569054879672
  0
ARC
  8
0
  6
CONTINUOUS
 62
3
 10
-282.024261521117520
 20
-44.458084158739496
 40
0.999999999999981
 50
64.946180956731823
 51
180.000000000000000
  0
ARC
  8
0
  6
CONTINUOUS
 62
3
 10
-296.524261521117300
 20
-40.247925911645382
 40
0.999999999999773
 50
0.000000000000000
 51
82.671902030119611
  0
LINE
  8
0
  6
CONTINUOUS
 62
3
 10
-295.524261521117520
 20
-48.246821503507817
 11
-295.524261521117520
 21
-40.247925911645382
  0
LINE
  8
0
  6
CONTINUOUS
 62
3
 10
-283.024261521117520
 20
-48.246821503507817
 11
-283.024261521117520
 21
-44.458084158739496
  0
ARC
  8
0
  6
CONTINUOUS
 62
3
 10
-302.774261521117520
 20
-88.847694429612602
 40
49.999999999999993
 50
24.331631548023370
 51
86.642182578429185
  0
LINE
  8
0
  6
CONTINUOUS
 62
3
 10
-252.774261521117300
 20
-152.774685548508270
 11
-252.774261521117300
 21
-140.246821503507820
  0
LINE
  8
0
  6
CONTINUOUS
 62
3
 10
-262.726471187969540
 20
-140.246821503507820
 11
-267.814751464350140
 21
-148.297655083377550
  0
ARC
  8
0
  6
CONTINUOUS
 62
3
 10
-289.274261521117520
 20
-48.246821503507817
 40
5.000000000000269
 50
311.551050375542900
 51
218.794478426544520
  0
ARC
  8
0
  6
CONTINUOUS
 62
3
 10
-289.274261521117520
 20
-48.246821503507817
 40
6.250000000000000
 50
180.000000000000000
 51
208.862789398056320
  0
ARC
  8
0
  6
CONTINUOUS
 62
3
 10
-289.274261521117520
 20
-48.246821503507817
 40
6.250000000000213
 50
321.482739404032430
 51
0.000000000000000
  0
LINE
  8
0
  6
DASHDOT
 62
4
 10
-220.083389864772470
 20
-104.246821503507810
 11
-435.287834517090230
 21
-104.246821503507810
  0
LINE
  8
0
  6
CONTINUOUS
 62
3
 10
66.310784764027630
 20
148.262508819711910
 11
66.310784764027630
 21
160.462507675302730
  0
LINE
  8
0
  6
CONTINUOUS
 62
3
 10
60.310784764027630
 20
159.362508247507320
 11
60.310784764027630
 21
149.362508247507320
  0
LINE
  8
0
  6
CONTINUOUS
 62
3
 10
66.310784764027630
 20
149.362508247507320
 11
60.310784764027630
 21
149.362508247507320
  0
LINE
  8
0
  6
CONTINUOUS
 62
3
 10
66.310784764027630
 20
159.362508247507320
 11
60.310784764027630
 21
159.362508247507320
  0
LINE
  8
0
  6
CONTINUOUS
 62
3
 10
66.310784764027630
 20
92.462507675301822
 11
66.310784764027630
 21
80.262508819711002
  0
LINE
  8
0
  6
CONTINUOUS
 62
3
 10
60.310784764027630
 20
81.362508247506412
 11
60.310784764027630
 21
91.362508247506412
  0
LINE
  8
0
  6
CONTINUOUS
 62
3
 10
66.310784764027630
 20
91.362508247506412
 11
60.310784764027630
 21
91.362508247506412
  0
LINE
  8
0
  6
CONTINUOUS
 62
3
 10
66.310784764027630
 20
81.362508247506412
 11
60.310784764027630
 21
81.362508247506412
  0
ARC
  8
0
  6
CONTINUOUS
 62
3
 10
63.310784764027744
 20
51.228533651290491
 40
1.000000000000114
 50
180.000000000000000
 51
265.335584795435580
  0
LINE
  8
0
  6
CONTINUOUS
 62
3
 10
63.310784764027630
 20
50.862508247508231
 11
63.310784764027630
 21
81.362508247505502
  0
LINE
  8
0
  6
CONTINUOUS
 62
3
 10
72.310784764027630
 20
120.362508247506410
 11
72.310784764027630
 21
49.862508247506412
  0
LINE
  8
0
  6
CONTINUOUS
 62
3
 10
64.310784764027630
 20
49.862508247508231
 11
72.310784764027630
 21
49.862508247506412
  0
ARC
  8
0
  6
CONTINUOUS
 62
3
 10
64.310784764027630
 20
50.862508247508231
 40
1.000000000000999
 50
253.216766737311250
 51
270.000000000000000
  0
ARC
  8
0
  6
CONTINUOUS
 62
3
 10
63.148145745133661
 20
49.235157482692557
 40
1.000000000000481
 50
54.456596482759011
 51
85.335584795446323
  0
ARC
  8
0
  6
CONTINUOUS
 62
3
 10
64.310784764027630
 20
50.862508247508231
 40
1.000000000000000
 50
180.000000000000000
 51
253.216766737311250
  0
ARC
  8
0
  6
CONTINUOUS
 62
3
 10
63.148145745133661
 20
191.489859012320270
 40
1.000000000000574
 50
274.664415204553680
 51
305.543403517241020
  0
ARC
  8
0
  6
CONTINUOUS
 62
3
 10
61.310784764027630
 20
178.350621999359650
 40
1.999999999999851
 50
271.499999999989830
 51
0.000000000000000
  0
ARC
  8
0
  6
CONTINUOUS
 62
3
 10
64.310784764027630
 20
189.862508247504590
 40
1.000000000000999
 50
106.783233262688730
 51
180.000000000000000
  0
ARC
  8
0
  6
CONTINUOUS
 62
3
 10
64.310784764027630
 20
189.862508247504590
 40
1.000000000000000
 50
90.000000000000000
 51
106.783233262688730
  0
LINE
  8
0
  6
CONTINUOUS
 62
3
 10
64.310784764027630
 20
190.862508247504590
 11
72.310784764027630
 21
190.862508247506410
  0
LINE
  8
0
  6
CONTINUOUS
 62
3
 10
61.363138660643017
 20
176.351307349408670
 11
45.810784764028540
 21
175.944054630055690
  0
LINE
  8
0
  6
CONTINUOUS
 62
3
 10
72.310784764027630
 20
120.362508247506410
 11
72.310784764027630
 21
190.862508247506410
  0
LINE
  8
0
  6
CONTINUOUS
 62
3
 10
45.810784764028540
 20
120.362508247506410
 11
45.810784764028540
 21
175.944054630055690
  0
ARC
  8
0
  6
CONTINUOUS
 62
3
 10
63.310784764027630
 20
189.496482843722330
 40
0.999999999999668
 50
94.664415204557926
 51
180.000000000000000
  0
LINE
  8
0
  6
CONTINUOUS
 62
3
 10
62.310784764027630
 20
178.324436077790780
 11
62.310784764027630
 21
189.496482843722330
  0
ARC
  8
0
  6
CONTINUOUS
 62
3
 10
60.310784764027630
 20
178.324436077790780
 40
1.999999999999851
 50
271.499999999989830
 51
0.000000000000000
  0
ARC
  8
0
  6
CONTINUOUS
 62
3
 10
66.210784764028176
 20
160.512508247506960
 40
0.099999999999454
 50
0.000000000000000
 51
90.000000000000000
  0
ARC
  8
0
  6
CONTINUOUS
 62
3
 10
64.310784764027630
 20
161.612508247507320
 40
1.000000000000000
 50
180.000000000000000
 51
270.000000000000000
  0
ARC
  8
0
  6
CONTINUOUS
 62
3
 10
66.210784764028176
 20
148.212508247506780
 40
0.099999999999454
 50
270.000000000000000
 51
0.000000000000000
  0
ARC
  8
0
  6
CONTINUOUS
 62
3
 10
64.310784764027630
 20
147.112508247507320
 40
1.000000000000000
 50
90.000000000000000
 51
180.000000000000000
  0
LINE
  8
0
  6
CONTINUOUS
 62
3
 10
66.310784764027630
 20
160.512508247506960
 11
66.310784764027630
 21
148.212508247506780
  0
LINE
  8
0
  6
CONTINUOUS
 62
3
 10
64.310784764027630
 20
160.612508247507320
 11
66.210784764028176
 21
160.612508247507320
  0
LINE
  8
0
  6
CONTINUOUS
 62
3
 10
64.310784764027630
 20
148.112508247507320
 11
66.210784764028176
 21
148.112508247507320
  0
LINE
  8
0
  6
CONTINUOUS
 62
3
 10
63.310784764027630
 20
189.862508247504590
 11
63.310784764027630
 21
159.362508247507320
  0
LINE
  8
0
  6
CONTINUOUS
 62
3
 10
63.310784764027630
 20
149.362508247507320
 11
63.310784764027630
 21
120.362508247506410
  0
LINE
  8
0
  6
CONTINUOUS
 62
3
 10
60.310784764027630
 20
189.362508247507320
 11
60.310784764027630
 21
179.362508247507320
  0
LINE
  8
0
  6
CONTINUOUS
 62
3
 10
62.310784764027630
 20
189.362508247507320
 11
60.310784764027630
 21
189.362508247507320
  0
LINE
  8
0
  6
CONTINUOUS
 62
3
 10
62.310784764027630
 20
179.362508247507320
 11
60.310784764027630
 21
179.362508247507320
  0
ARC
  8
0
  6
CONTINUOUS
 62
3
 10
61.310784764027630
 20
62.374394495653178
 40
2.000000000000000
 50
0.000000000000000
 51
88.500000000010189
  0
LINE
  8
0
  6
CONTINUOUS
 62
3
 10
61.363138660643017
 20
64.373709145604153
 11
45.810784764028540
 21
64.780961864957135
  0
LINE
  8
0
  6
CONTINUOUS
 62
3
 10
45.810784764028540
 20
120.362508247506410
 11
45.810784764028540
 21
64.780961864957135
  0
LINE
  8
0
  6
CONTINUOUS
 62
3
 10
62.310784764027630
 20
62.400580417222045
 11
62.310784764027630
 21
51.228533651291400
  0
ARC
  8
0
  6
CONTINUOUS
 62
3
 10
60.310784764027630
 20
62.400580417222045
 40
2.000000000000000
 50
0.000000000000000
 51
88.500000000010189
  0
ARC
  8
0
  6
CONTINUOUS
 62
3
 10
66.210784764028176
 20
80.212508247506776
 40
0.100000000000364
 50
270.000000000000000
 51
0.000000000000000
  0
ARC
  8
0
  6
CONTINUOUS
 62
3
 10
64.310784764027630
 20
79.112508247506412
 40
1.000000000000000
 50
90.000000000000000
 51
180.000000000000000
  0
ARC
  8
0
  6
CONTINUOUS
 62
3
 10
66.210784764028176
 20
92.512508247506048
 40
0.099999999999454
 50
0.000000000000000
 51
90.000000000000000
  0
ARC
  8
0
  6
CONTINUOUS
 62
3
 10
64.310784764027630
 20
93.612508247506412
 40
1.000000000000000
 50
180.000000000000000
 51
270.000000000000000
  0
LINE
  8
0
  6
CONTINUOUS
 62
3
 10
66.310784764027630
 20
80.212508247506776
 11
66.310784764027630
 21
92.512508247506048
  0
LINE
  8
0
  6
CONTINUOUS
 62
3
 10
64.310784764027630
 20
80.112508247506412
 11
66.210784764028176
 21
80.112508247506412
  0
LINE
  8
0
  6
CONTINUOUS
 62
3
 10
64.310784764027630
 20
92.612508247506412
 11
66.210784764028176
 21
92.612508247506412
  0
LINE
  8
0
  6
CONTINUOUS
 62
3
 10
63.310784764027630
 20
91.362508247505502
 11
63.310784764027630
 21
120.362508247506410
  0
LINE
  8
0
  6
CONTINUOUS
 62
3
 10
60.310784764027630
 20
51.362508247506412
 11
60.310784764027630
 21
61.362508247506412
  0
LINE
  8
0
  6
CONTINUOUS
 62
3
 10
62.310784764027630
 20
51.362508247505900
 11
60.310784764027630
 21
51.362508247506412
  0
LINE
  8
0
  6
CONTINUOUS
 62
3
 10
62.310784764027630
 20
61.362508247505900
 11
60.310784764027630
 21
61.362508247506412
  0
ARC
  8
0
  6
CONTINUOUS
 62
3
 10
192.410784764027540
 20
130.962508247505870
 40
0.400000000000091
 50
0.000000000000000
 51
90.000000000000000
  0
LINE
  8
0
  6
CONTINUOUS
 62
3
 10
192.810784764027630
 20
120.362508247506410
 11
192.810784764027630
 21
130.962508247505870
  0
LINE
  8
0
  6
CONTINUOUS
 62
3
 10
154.810784764027630
 20
108.362508247505500
 11
156.410784764027540
 21
108.362508247506410
  0
LINE
  8
0
  6
CONTINUOUS
 62
3
 10
192.410784764027540
 20
131.362508247506410
 11
159.370592385163040
 21
131.362508247506410
  0
LINE
  8
0
  6
CONTINUOUS
 62
3
 10
156.810784764027630
 20
108.762508247506040
 11
156.410784764027540
 21
108.362508247506410
  0
LINE
  8
0
  6
CONTINUOUS
 62
3
 10
159.370592385163040
 20
109.362508247506410
 11
158.810784764027630
 21
109.512508247506040
  0
LINE
  8
0
  6
CONTINUOUS
 62
3
 10
158.810784764027630
 20
109.512508247506040
 11
157.610784764027360
 21
109.512508247506040
  0
ARC
  8
0
  6
CONTINUOUS
 62
3
 10
157.610784764027360
 20
108.712508247505860
 40
0.800000000000182
 50
90.000000000000000
 51
176.296803365717580
  0
LINE
  8
0
  6
CONTINUOUS
 62
3
 10
192.410784764027540
 20
131.362508247506410
 11
159.370592385163040
 21
131.362508247506410
  0
LINE
  8
0
  6
CONTINUOUS
 62
3
 10
156.810784764027630
 20
108.762508247506040
 11
156.410784764027540
 21
108.362508247506410
  0
LINE
  8
0
  6
CONTINUOUS
 62
3
 10
159.370592385163040
 20
109.362508247506410
 11
158.810784764027630
 21
109.512508247506040
  0
LINE
  8
0
  6
CONTINUOUS
 62
3
 10
158.810784764027630
 20
109.512508247506040
 11
157.610784764027360
 21
109.512508247506040
  0
LINE
  8
0
  6
CONTINUOUS
 62
3
 10
156.810784764027630
 20
120.362508247506410
 11
156.810784764027630
 21
108.762508247506040
  0
LINE
  8
0
  6
CONTINUOUS
 62
3
 10
154.810784764027630
 20
108.362508247505500
 11
156.410784764027540
 21
108.362508247506410
  0
LINE
  8
0
  6
CONTINUOUS
 62
3
 10
160.810784764027630
 20
109.362508247506410
 11
160.810784764027630
 21
106.862508247506410
  0
LINE
  8
0
  6
CONTINUOUS
 62
3
 10
154.810784764027630
 20
132.362508247506410
 11
156.410784764027540
 21
132.362508247506410
  0
LINE
  8
0
  6
CONTINUOUS
 62
3
 10
156.810784764027630
 20
131.962508247505870
 11
156.410784764027540
 21
132.362508247506410
  0
LINE
  8
0
  6
CONTINUOUS
 62
3
 10
159.370592385163040
 20
131.362508247506410
 11
158.810784764027630
 21
131.212508247505870
  0
LINE
  8
0
  6
CONTINUOUS
 62
3
 10
158.810784764027630
 20
131.212508247505870
 11
157.610784764027360
 21
131.212508247505870
  0
ARC
  8
0
  6
CONTINUOUS
 62
3
 10
157.610784764027360
 20
132.012508247506050
 40
0.799999999999783
 50
183.703196634282420
 51
270.000000000000000
  0
LINE
  8
0
  6
CONTINUOUS
 62
3
 10
156.810784764027630
 20
131.962508247505870
 11
156.410784764027540
 21
132.362508247506410
  0
LINE
  8
0
  6
CONTINUOUS
 62
3
 10
159.370592385163040
 20
131.362508247506410
 11
158.810784764027630
 21
131.212508247505870
  0
LINE
  8
0
  6
CONTINUOUS
 62
3
 10
158.810784764027630
 20
131.212508247505870
 11
157.610784764027360
 21
131.212508247505870
  0
LINE
  8
0
  6
CONTINUOUS
 62
3
 10
156.810784764027630
 20
120.362508247506410
 11
156.810784764027630
 21
131.962508247505870
  0
LINE
  8
0
  6
CONTINUOUS
 62
3
 10
192.810786671330330
 20
106.862508247506410
 11
160.810786671330330
 21
106.862508247506410
  0
LINE
  8
0
  6
CONTINUOUS
 62
3
 10
192.810784764027630
 20
109.762508247506040
 11
192.810784764027630
 21
106.862508247506410
  0
ARC
  8
0
  6
CONTINUOUS
 62
3
 10
192.410784764027540
 20
109.762508247506040
 40
0.399999999999636
 50
270.000000000000000
 51
0.000000000000000
  0
LINE
  8
0
  6
CONTINUOUS
 62
3
 10
192.410784764027540
 20
109.362508247506410
 11
159.370592385163040
 21
109.362508247506410
  0
LINE
  8
0
  6
CONTINUOUS
 62
3
 10
192.410784764027540
 20
109.362508247506410
 11
159.370592385163040
 21
109.362508247506410
  0
LINE
  8
0
  6
CONTINUOUS
 62
3
 10
192.810784764027630
 20
120.362508247506410
 11
192.810784764027630
 21
109.762508247506040
  0
LINE
  8
0
  6
CONTINUOUS
 62
4
 10
72.810784764027630
 20
49.914450418151318
 11
79.881637228228101
 21
49.914450418151318
  0
LINE
  8
0
  6
CONTINUOUS
 62
3
 10
154.810784764027630
 20
190.897113721274760
 11
154.810784764027630
 21
120.362508247506410
  0
LINE
  8
0
  6
CONTINUOUS
 62
3
 10
152.845689576902260
 20
192.896809111587570
 11
74.810784764027630
 21
194.258913441763070
  0
LINE
  8
0
  6
CONTINUOUS
 62
3
 10
152.845689576902260
 20
47.828207383424342
 11
74.810784764027630
 21
46.466103053248844
  0
LINE
  8
0
  6
CONTINUOUS
 62
3
 10
154.810784764027630
 20
49.827902773737151
 11
154.810784764027630
 21
120.362508247506410
  0
LINE
  8
0
  6
CONTINUOUS
 62
3
 10
74.810784764027630
 20
46.466103053248844
 11
39.735357101096270
 21
47.789873577014077
  0
LINE
  8
0
  6
CONTINUOUS
 62
3
 10
74.810784764027630
 20
194.258913441763070
 11
39.735357101096270
 21
192.935142917997840
  0
LINE
  8
0
  6
CONTINUOUS
 62
3
 10
72.810784764027630
 20
49.853780715041466
 11
72.810784764027630
 21
120.362508247506410
  0
LINE
  8
0
  6
CONTINUOUS
 62
3
 10
152.810784764027630
 20
73.912546185936662
 11
152.810784764027630
 21
120.362508247506410
  0
LINE
  8
0
  6
CONTINUOUS
 62
3
 10
150.080795733161720
 20
70.989406761001192
 11
142.810784764027630
 21
70.862508247505502
  0
LINE
  8
0
  6
CONTINUOUS
 62
3
 10
106.810784764027630
 20
50.455980455065401
 11
72.810784764027630
 21
49.862508247506412
  0
LINE
  8
0
  6
DASHDOT
 62
4
 10
153.082430586491680
 20
57.862508247505502
 11
133.319179061441900
 21
57.862508247505502
  0
LINE
  8
0
  6
CONTINUOUS
 62
3
 10
72.810784764027630
 20
190.862508247506410
 11
72.810784764027630
 21
120.362508247506410
  0
LINE
  8
0
  6
CONTINUOUS
 62
4
 10
142.810784764027630
 20
169.862508247506410
 11
149.492967562415290
 21
169.862508247506410
  0
LINE
  8
0
  6
CONTINUOUS
 62
3
 10
152.810784764027630
 20
166.812470309075250
 11
152.810784764027630
 21
120.362508247506410
  0
LINE
  8
0
  6
CONTINUOUS
 62
3
 10
150.080795733161720
 20
169.735609734010720
 11
142.810784764027630
 21
169.862508247506410
  0
LINE
  8
0
  6
CONTINUOUS
 62
3
 10
106.810784764027630
 20
190.269036039946510
 11
72.810784764027630
 21
190.862508247506410
  0
ARC
  8
0
  6
CONTINUOUS
 62
3
 10
152.810784764027630
 20
49.827902773737151
 40
2.000000000000027
 50
271.000000000001760
 51
0.000000000000000
  0
ARC
  8
0
  6
CONTINUOUS
 62
3
 10
39.810784764027630
 20
49.788450737812127
 40
2.000000000000000
 50
180.000000000000000
 51
267.838644059775390
  0
ARC
  8
0
  6
CONTINUOUS
 62
3
 10
152.810784764027630
 20
190.897113721274760
 40
2.000000000000000
 50
0.000000000000000
 51
88.999999999998238
  0
ARC
  8
0
  6
CONTINUOUS
 62
3
 10
39.810784764027630
 20
190.936565757199790
 40
1.999999999999720
 50
92.161355940224595
 51
180.000000000000000
  0
ARC
  8
0
  6
CONTINUOUS
 62
3
 10
105.763640377791030
 20
130.278174330563160
 40
59.999999999999616
 50
67.619615415393312
 51
89.000000000000398
  0
ARC
  8
0
  6
CONTINUOUS
 62
3
 10
150.810784764027630
 20
73.912546185936662
 40
2.000000000000242
 50
320.957132821453510
 51
0.000000000000000
  0
ARC
  8
0
  6
CONTINUOUS
 62
3
 10
150.045890920287090
 20
72.989102151314000
 40
2.000000000000027
 50
271.000000000001760
 51
319.772582959554710
  0
ARC
  8
0
  6
CONTINUOUS
 62
3
 10
127.847362655689720
 20
56.815608630688985
 40
2.000000000000135
 50
292.380384584596470
 51
4.002115591437622
  0
ARC
  8
0
  6
CONTINUOUS
 62
3
 10
142.810784764027630
 20
57.862508247505502
 40
13.000000000000000
 50
90.000000000000000
 51
184.002115591443470
  0
ARC
  8
0
  6
CONTINUOUS
 62
3
 10
105.763640377791030
 20
110.446842164448750
 40
60.000000000000036
 50
319.772582959567330
 51
320.957132821443390
  0
ARC
  8
0
  6
CONTINUOUS
 62
3
 10
105.763640377791030
 20
110.446842164448750
 40
59.999999999999872
 50
270.999999999999660
 51
292.380384584606300
  0
ARC
  8
0
  6
CONTINUOUS
 62
3
 10
153.810784764027630
 20
97.362508247506412
 40
1.000000000000000
 50
90.000000000000000
 51
180.000000000000000
  0
ARC
  8
0
  6
CONTINUOUS
 62
3
 10
153.810784764027630
 20
99.362508247506412
 40
1.000000000000000
 50
270.000000000000000
 51
0.000000000000000
  0
CIRCLE
  8
0
  6
CONTINUOUS
 62
3
 10
49.810784764027630
 20
57.862508247505502
 40
5.000000000000000
  0
CIRCLE
  8
0
  6
CONTINUOUS
 62
3
 10
142.810784764027630
 20
57.862508247505502
 40
5.000000000000000
  0
ARC
  8
0
  6
CONTINUOUS
 62
3
 10
150.810784764027630
 20
166.812470309075250
 40
2.000000000000000
 50
0.000000000000000
 51
39.042867178546516
  0
ARC
  8
0
  6
CONTINUOUS
 62
3
 10
150.045890920287090
 20
167.735914343697910
 40
1.999999999999549
 50
40.227417040425401
 51
88.999999999998238
  0
ARC
  8
0
  6
CONTINUOUS
 62
3
 10
127.847362655689720
 20
183.909407864322930
 40
1.999999999999929
 50
355.997884408536380
 51
67.619615415393611
  0
ARC
  8
0
  6
CONTINUOUS
 62
3
 10
142.810784764027630
 20
182.862508247506410
 40
12.999999999999615
 50
175.997884408560510
 51
270.000000000000000
  0
ARC
  8
0
  6
CONTINUOUS
 62
3
 10
105.763640377791030
 20
130.278174330563160
 40
60.000000000000000
 50
39.042867178556605
 51
40.227417040431980
  0
ARC
  8
0
  6
CONTINUOUS
 62
3
 10
153.810784764027630
 20
143.362508247506410
 40
1.000000000000000
 50
180.000000000000000
 51
270.000000000000000
  0
ARC
  8
0
  6
CONTINUOUS
 62
3
 10
153.810784764027630
 20
141.362508247506410
 40
1.000000000000000
 50
0.000000000000000
 51
90.000000000000000
  0
CIRCLE
  8
0
  6
CONTINUOUS
 62
3
 10
49.810784764027630
 20
182.862508247506410
 40
5.000000000000000
  0
CIRCLE
  8
0
  6
CONTINUOUS
 62
3
 10
142.810784764027630
 20
182.862508247506410
 40
5.000000000000000
  0
LINE
  8
0
  6
CONTINUOUS
 62
3
 10
45.810784764028540
 20
66.862508247506469
 11
45.810784764028540
 21
120.362508247506460
  0
LINE
  8
0
  6
CONTINUOUS
 62
3
 10
45.810784764028540
 20
173.862508247506410
 11
45.810784764028540
 21
120.362508247506460
  0
LINE
  8
0
  6
CONTINUOUS
 62
4
 10
-94.689215235992606
 20
79.320594477166708
 11
63.310784764027630
 21
79.320594477166708
  0
LINE
  8
0
  6
CONTINUOUS
 62
4
 10
-94.689215235992606
 20
74.229425652623775
 11
63.310784764027630
 21
74.229425652623775
  0
LINE
  8
0
  6
CONTINUOUS
 62
4
 10
-94.689215235992606
 20
69.862508247506469
 11
63.310784764027630
 21
69.862508247506469
  0
LINE
  8
0
  6
CONTINUOUS
 62
4
 10
-94.689215235992606
 20
69.362508247506469
 11
63.310784764027630
 21
69.362508247506469
  0
LINE
  8
0
  6
CONTINUOUS
 62
3
 10
45.810784764028540
 20
66.862508247506469
 11
-12.489215235971415
 21
66.862508247506469
  0
LINE
  8
0
  6
CONTINUOUS
 62
4
 10
-94.689215235992606
 20
106.362508247506460
 11
63.310784764027630
 21
106.362508247506460
  0
LINE
  8
0
  6
CONTINUOUS
 62
4
 10
-94.689215235992378
 20
101.976393455756520
 11
63.310784764027630
 21
101.976393455756520
  0
LINE
  8
0
  6
CONTINUOUS
 62
4
 10
-94.689215235992378
 20
100.734473590868610
 11
63.310784764027630
 21
100.734473590868610
  0
LINE
  8
0
  6
CONTINUOUS
 62
4
 10
-94.689215235992378
 20
97.524268567510319
 11
63.310784764027630
 21
97.524268567510319
  0
LINE
  8
0
  6
CONTINUOUS
 62
4
 10
-94.689215235992606
 20
96.177866842011724
 11
63.310784764027630
 21
96.177866842011724
  0
LINE
  8
0
  6
CONTINUOUS
 62
4
 10
-94.689215235992606
 20
93.085135850346489
 11
63.310784764027630
 21
93.085135850346489
  0
LINE
  8
0
  6
CONTINUOUS
 62
4
 10
-94.689215235992606
 20
91.606112696869388
 11
63.310784764027630
 21
91.606112696869388
  0
LINE
  8
0
  6
CONTINUOUS
 62
4
 10
-94.689215235992606
 20
88.648117088736456
 11
60.310784764027630
 21
88.648117088736456
  0
LINE
  8
0
  6
CONTINUOUS
 62
4
 10
-94.689215235992606
 20
87.058907295997699
 11
60.310784764027630
 21
87.058907295997699
  0
LINE
  8
0
  6
CONTINUOUS
 62
4
 10
-94.689215235992606
 20
171.362508247506410
 11
63.310784764027630
 21
171.362508247506410
  0
LINE
  8
0
  6
CONTINUOUS
 62
4
 10
-94.689215235992606
 20
170.862508247506410
 11
63.310784764027630
 21
170.862508247506410
  0
LINE
  8
0
  6
CONTINUOUS
 62
4
 10
-94.689215235992606
 20
166.495590842389220
 11
63.310784764027630
 21
166.495590842389220
  0
LINE
  8
0
  6
CONTINUOUS
 62
4
 10
-94.689215235992606
 20
161.404422017846170
 11
63.310784764027630
 21
161.404422017846170
  0
LINE
  8
0
  6
CONTINUOUS
 62
4
 10
-94.689215235992606
 20
153.666109199015180
 11
60.310784764027630
 21
153.666109199015180
  0
LINE
  8
0
  6
CONTINUOUS
 62
4
 10
-94.689215235992606
 20
152.076899406276420
 11
60.310784764027630
 21
152.076899406276420
  0
LINE
  8
0
  6
CONTINUOUS
 62
4
 10
-94.689215235992606
 20
149.118903798143490
 11
63.310784764027630
 21
149.118903798143490
  0
LINE
  8
0
  6
CONTINUOUS
 62
4
 10
-94.689215235992606
 20
147.639880644666450
 11
63.310784764027630
 21
147.639880644666450
  0
LINE
  8
0
  6
CONTINUOUS
 62
4
 10
-94.689215235992606
 20
144.547149653001210
 11
63.310784764027630
 21
144.547149653001210
  0
LINE
  8
0
  6
CONTINUOUS
 62
4
 10
-94.689215235992606
 20
143.200747927502620
 11
63.310784764027630
 21
143.200747927502620
  0
LINE
  8
0
  6
CONTINUOUS
 62
4
 10
-94.689215235992606
 20
138.748623039256420
 11
63.310784764027630
 21
138.748623039256420
  0
LINE
  8
0
  6
CONTINUOUS
 62
4
 10
-94.689215235992606
 20
139.990542904144320
 11
63.310784764027630
 21
139.990542904144320
  0
LINE
  8
0
  6
CONTINUOUS
 62
4
 10
-94.689215235992606
 20
134.362508247506470
 11
63.310784764027630
 21
134.362508247506470
  0
LINE
  8
0
  6
CONTINUOUS
 62
3
 10
45.810784764028540
 20
173.862508247506410
 11
-94.689215235992606
 21
173.862508247506410
  0
LINE
  8
0
  6
CONTINUOUS
 62
3
 10
-94.689215235992606
 20
179.362508247506410
 11
-172.194060185085390
 21
179.362508247506410
  0
LINE
  8
0
  6
CONTINUOUS
 62
3
 10
-184.009734773916760
 20
175.637040359859610
 11
-191.580513970505540
 21
170.335923696287180
  0
LINE
  8
0
  6
CONTINUOUS
 62
3
 10
-192.689215235992610
 20
168.206128381135840
 11
-192.689215235992610
 21
120.362508247506460
  0
ARC
  8
0
  6
CONTINUOUS
 62
3
 10
-190.089215235992700
 20
168.206128381135840
 40
2.600000000000037
 50
125.000000000002600
 51
180.000000000000000
  0
ARC
  8
0
  6
CONTINUOUS
 62
3
 10
-172.194060185085390
 20
158.762508247506500
 40
20.599999999999909
 50
90.000000000000000
 51
124.999999999999780
  0
LINE
  8
0
  6
CONTINUOUS
 62
3
 10
-94.689215235992606
 20
179.362508247506410
 11
-94.689215235992378
 21
120.362508247506460
  0
LINE
  8
0
  6
CONTINUOUS
 62
3
 10
-105.689215235992600
 20
169.506429270231590
 11
-107.689215235992600
 21
167.853787631108160
  0
LINE
  8
0
  6
CONTINUOUS
 62
3
 10
-103.689215235992600
 20
170.682214755854370
 11
-105.689215235992600
 21
169.506429270231590
  0
LINE
  8
0
  6
CONTINUOUS
 62
3
 10
-105.689215235992600
 20
169.506429270231590
 11
-103.689215235992600
 21
167.853787631108160
  0
LINE
  8
0
  6
CONTINUOUS
 62
3
 10
-107.689215235992600
 20
170.682214755854370
 11
-105.689215235992600
 21
169.506429270231590
  0
POLYLINE
  8
0
  6
CONTINUOUS
 62
3
 66
1
 70
1
  0
VERTEX
  8
0
  6
CONTINUOUS
 62
3
 10
-100.989215235992390
 20
167.689839201854060
  0
VERTEX
  8
0
  6
CONTINUOUS
 62
3
 10
-101.079524418097200
 20
168.392796168054420
  0
VERTEX
  8
0
  6
CONTINUOUS
 62
3
 10
-101.346981433189340
 20
169.068738892266510
  0
VERTEX
  8
0
  6
CONTINUOUS
 62
3
 10
-101.781308058170420
 20
169.691691274671910
  0
VERTEX
  8
0
  6
CONTINUOUS
 62
3
 10
-102.365813364415610
 20
170.237713604570500
  0
VERTEX
  8
0
  6
CONTINUOUS
 62
3
 10
-103.078035140800250
 20
170.685822550037130
  0
VERTEX
  8
0
  6
CONTINUOUS
 62
3
 10
-103.890603103876450
 20
171.018797535599870
  0
VERTEX
  8
0
  6
CONTINUOUS
 62
3
 10
-104.772290722516570
 20
171.223842519298130
  0
VERTEX
  8
0
  6
CONTINUOUS
 62
3
 10
-105.689215235992370
 20
171.293077737398900
  0
VERTEX
  8
0
  6
CONTINUOUS
 62
3
 10
-106.606139749468180
 20
171.223842519298130
  0
VERTEX
  8
0
  6
CONTINUOUS
 62
3
 10
-107.487827368108290
 20
171.018797535599870
  0
VERTEX
  8
0
  6
CONTINUOUS
 62
3
 10
-108.300395331184500
 20
170.685822550037130
  0
VERTEX
  8
0
  6
CONTINUOUS
 62
3
 10
-109.012617107569140
 20
170.237713604570500
  0
VERTEX
  8
0
  6
CONTINUOUS
 62
3
 10
-109.597122413814330
 20
169.691691274671910
  0
VERTEX
  8
0
  6
CONTINUOUS
 62
3
 10
-110.031449038795410
 20
169.068738892266510
  0
VERTEX
  8
0
  6
CONTINUOUS
 62
3
 10
-110.298906053887540
 20
168.392796168054420
  0
VERTEX
  8
0
  6
CONTINUOUS
 62
3
 10
-110.389215235992360
 20
167.689839201854060
  0
VERTEX
  8
0
  6
CONTINUOUS
 62
3
 10
-110.298906053887540
 20
166.986882235653700
  0
VERTEX
  8
0
  6
CONTINUOUS
 62
3
 10
-110.031449038795410
 20
166.310939511441600
  0
VERTEX
  8
0
  6
CONTINUOUS
 62
3
 10
-109.597122413814330
 20
165.687987129036200
  0
VERTEX
  8
0
  6
CONTINUOUS
 62
3
 10
-109.012617107569140
 20
165.141964799137610
  0
VERTEX
  8
0
  6
CONTINUOUS
 62
3
 10
-108.300395331184500
 20
164.693855853670980
  0
VERTEX
  8
0
  6
CONTINUOUS
 62
3
 10
-107.487827368108290
 20
164.360880868108240
  0
VERTEX
  8
0
  6
CONTINUOUS
 62
3
 10
-106.606139749468180
 20
164.155835884409980
  0
VERTEX
  8
0
  6
CONTINUOUS
 62
3
 10
-105.689215235992370
 20
164.086600666309210
  0
VERTEX
  8
0
  6
CONTINUOUS
 62
3
 10
-104.772290722516570
 20
164.155835884409980
  0
VERTEX
  8
0
  6
CONTINUOUS
 62
3
 10
-103.890603103876450
 20
164.360880868108240
  0
VERTEX
  8
0
  6
CONTINUOUS
 62
3
 10
-103.078035140800250
 20
164.693855853670980
  0
VERTEX
  8
0
  6
CONTINUOUS
 62
3
 10
-102.365813364415610
 20
165.141964799137610
  0
VERTEX
  8
0
  6
CONTINUOUS
 62
3
 10
-101.781308058170420
 20
165.687987129036200
  0
VERTEX
  8
0
  6
CONTINUOUS
 62
3
 10
-101.346981433189340
 20
166.310939511441600
  0
VERTEX
  8
0
  6
CONTINUOUS
 62
3
 10
-101.079524418097200
 20
166.986882235653700
  0
SEQEND
  8
0
  6
CONTINUOUS
 62
3
  0
LINE
  8
0
  6
CONTINUOUS
 62
3
 10
-102.489215235971410
 20
62.862508247506469
 11
-12.489215235971415
 21
62.862508247506469
  0
LINE
  8
0
  6
CONTINUOUS
 62
3
 10
-102.489215235971410
 20
65.914178345663515
 11
-102.489215235971410
 21
29.862508247506469
  0
LINE
  8
0
  6
CONTINUOUS
 62
3
 10
-104.689215235992600
 20
61.362508247506469
 11
-104.689215235992600
 21
63.022811886697525
  0
LINE
  8
0
  6
CONTINUOUS
 62
3
 10
-104.689215235992600
 20
61.362508247506469
 11
-172.194060185085390
 21
61.362508247506469
  0
ARC
  8
0
  6
CONTINUOUS
 62
3
 10
-101.689215235992600
 20
63.022811886697525
 40
3.000000000000000
 50
90.000000000000000
 51
180.000000000000000
  0
LINE
  8
0
  6
CONTINUOUS
 62
3
 10
-101.689215235992600
 20
66.022811886697525
 11
-97.689215235992606
 21
66.022811886697525
  0
ARC
  8
0
  6
CONTINUOUS
 62
3
 10
-97.689215235992606
 20
69.022811886697525
 40
3.000000000000000
 50
270.000000000000000
 51
359.999999999997780
  0
LINE
  8
0
  6
CONTINUOUS
 62
3
 10
-94.689215235992606
 20
69.022811886697411
 11
-94.689215235992378
 21
120.362508247506460
  0
LINE
  8
0
  6
CONTINUOUS
 62
3
 10
-105.689215235992600
 20
71.218587224781402
 11
-107.689215235992600
 21
72.871228863904719
  0
LINE
  8
0
  6
CONTINUOUS
 62
3
 10
-103.689215235992600
 20
70.042801739158506
 11
-105.689215235992600
 21
71.218587224781402
  0
LINE
  8
0
  6
CONTINUOUS
 62
3
 10
-105.689215235992600
 20
71.218587224781402
 11
-103.689215235992600
 21
72.871228863904719
  0
LINE
  8
0
  6
CONTINUOUS
 62
3
 10
-107.689215235992600
 20
70.042801739158506
 11
-105.689215235992600
 21
71.218587224781402
  0
POLYLINE
  8
0
  6
CONTINUOUS
 62
3
 66
1
 70
1
  0
VERTEX
  8
0
  6
CONTINUOUS
 62
3
 10
-100.989215235992390
 20
73.035177293158938
  0
VERTEX
  8
0
  6
CONTINUOUS
 62
3
 10
-101.079524418097200
 20
73.738134259359299
  0
VERTEX
  8
0
  6
CONTINUOUS
 62
3
 10
-101.346981433189340
 20
74.414076983571391
  0
VERTEX
  8
0
  6
CONTINUOUS
 62
3
 10
-101.781308058170420
 20
75.037029365976792
  0
VERTEX
  8
0
  6
CONTINUOUS
 62
3
 10
-102.365813364415610
 20
75.583051695875369
  0
VERTEX
  8
0
  6
CONTINUOUS
 62
3
 10
-103.078035140800250
 20
76.031160641341984
  0
VERTEX
  8
0
  6
CONTINUOUS
 62
3
 10
-103.890603103876450
 20
76.364135626904755
  0
VERTEX
  8
0
  6
CONTINUOUS
 62
3
 10
-104.772290722516570
 20
76.569180610602999
  0
VERTEX
  8
0
  6
CONTINUOUS
 62
3
 10
-105.689215235992370
 20
76.638415828703771
  0
VERTEX
  8
0
  6
CONTINUOUS
 62
3
 10
-106.606139749468180
 20
76.569180610602999
  0
VERTEX
  8
0
  6
CONTINUOUS
 62
3
 10
-107.487827368108290
 20
76.364135626904755
  0
VERTEX
  8
0
  6
CONTINUOUS
 62
3
 10
-108.300395331184500
 20
76.031160641341984
  0
VERTEX
  8
0
  6
CONTINUOUS
 62
3
 10
-109.012617107569140
 20
75.583051695875369
  0
VERTEX
  8
0
  6
CONTINUOUS
 62
3
 10
-109.597122413814330
 20
75.037029365976792
  0
VERTEX
  8
0
  6
CONTINUOUS
 62
3
 10
-110.031449038795410
 20
74.414076983571391
  0
VERTEX
  8
0
  6
CONTINUOUS
 62
3
 10
-110.298906053887540
 20
73.738134259359299
  0
VERTEX
  8
0
  6
CONTINUOUS
 62
3
 10
-110.389215235992360
 20
73.035177293158938
  0
VERTEX
  8
0
  6
CONTINUOUS
 62
3
 10
-110.298906053887540
 20
72.332220326958577
  0
VERTEX
  8
0
  6
CONTINUOUS
 62
3
 10
-110.031449038795410
 20
71.656277602746485
  0
VERTEX
  8
0
  6
CONTINUOUS
 62
3
 10
-109.597122413814330
 20
71.033325220341084
  0
VERTEX
  8
0
  6
CONTINUOUS
 62
3
 10
-109.012617107569140
 20
70.487302890442507
  0
VERTEX
  8
0
  6
CONTINUOUS
 62
3
 10
-108.300395331184500
 20
70.039193944975892
  0
VERTEX
  8
0
  6
CONTINUOUS
 62
3
 10
-107.487827368108290
 20
69.706218959413121
  0
VERTEX
  8
0
  6
CONTINUOUS
 62
3
 10
-106.606139749468180
 20
69.501173975714877
  0
VERTEX
  8
0
  6
CONTINUOUS
 62
3
 10
-105.689215235992370
 20
69.431938757614105
  0
VERTEX
  8
0
  6
CONTINUOUS
 62
3
 10
-104.772290722516570
 20
69.501173975714877
  0
VERTEX
  8
0
  6
CONTINUOUS
 62
3
 10
-103.890603103876450
 20
69.706218959413121
  0
VERTEX
  8
0
  6
CONTINUOUS
 62
3
 10
-103.078035140800250
 20
70.039193944975892
  0
VERTEX
  8
0
  6
CONTINUOUS
 62
3
 10
-102.365813364415610
 20
70.487302890442507
  0
VERTEX
  8
0
  6
CONTINUOUS
 62
3
 10
-101.781308058170420
 20
71.033325220341084
  0
VERTEX
  8
0
  6
CONTINUOUS
 62
3
 10
-101.346981433189340
 20
71.656277602746485
  0
VERTEX
  8
0
  6
CONTINUOUS
 62
3
 10
-101.079524418097200
 20
72.332220326958577
  0
SEQEND
  8
0
  6
CONTINUOUS
 62
3
  0
LINE
  8
0
  6
CONTINUOUS
 62
3
 10
-12.489215235971415
 20
67.862508247506469
 11
-94.689215235992606
 21
67.862508247506469
  0
LINE
  8
0
  6
CONTINUOUS
 62
3
 10
-95.489215235971415
 20
28.862508247506469
 11
-95.489215235971415
 21
28.362508247506469
  0
LINE
  8
0
  6
CONTINUOUS
 62
3
 10
-87.489215235971415
 20
28.862508247506469
 11
-87.489215235971415
 21
28.362508247506469
  0
LINE
  8
0
  6
CONTINUOUS
 62
3
 10
-19.489215235971415
 20
28.862508247506469
 11
-19.489215235971415
 21
28.362508247506469
  0
LINE
  8
0
  6
CONTINUOUS
 62
3
 10
-27.489215235971415
 20
28.862508247506469
 11
-27.489215235971415
 21
28.362508247506469
  0
LINE
  8
0
  6
CONTINUOUS
 62
3
 10
-27.489215235971415
 20
28.362508247506469
 11
-19.489215235971415
 21
28.362508247506469
  0
LINE
  8
0
  6
CONTINUOUS
 62
3
 10
-95.489215235971415
 20
28.362508247506469
 11
-87.489215235971415
 21
28.362508247506469
  0
ARC
  8
0
  6
CONTINUOUS
 62
3
 10
-101.489215235971410
 20
29.862508247506469
 40
1.000000000000000
 50
180.000000000000000
 51
270.000000000000000
  0
LINE
  8
0
  6
CONTINUOUS
 62
3
 10
-101.489215235971410
 20
28.862508247506469
 11
-13.489215235971415
 21
28.862508247506469
  0
ARC
  8
0
  6
CONTINUOUS
 62
3
 10
-13.489215235971415
 20
29.862508247506469
 40
1.000000000000000
 50
270.000000000000000
 51
0.000000000000000
  0
LINE
  8
0
  6
CONTINUOUS
 62
3
 10
-12.489215235971415
 20
67.862508247506469
 11
-12.489215235971415
 21
29.862508247506469
  0
LINE
  8
0
  6
CONTINUOUS
 62
3
 10
-192.689215235992610
 20
72.518888113877154
 11
-192.689215235992610
 21
120.362508247506460
  0
LINE
  8
0
  6
CONTINUOUS
 62
3
 10
-184.009734773916760
 20
65.087976135153269
 11
-191.580513970505540
 21
70.389092798725812
  0
ARC
  8
0
  6
CONTINUOUS
 62
3
 10
-190.089215235992700
 20
72.518888113877154
 40
2.599999999999909
 50
180.000000000000000
 51
234.999999999998810
  0
ARC
  8
0
  6
CONTINUOUS
 62
3
 10
-172.194060185085390
 20
81.962508247506491
 40
20.599999999999891
 50
235.000000000000400
 51
270.000000000000000
  0
ARC
  8
0
  6
CONTINUOUS
 62
3
 10
30.810784764028540
 20
197.365377868087310
 40
2.000000000000000
 50
270.000000000000000
 51
0.000000000000000
  0
ARC
  8
0
  6
CONTINUOUS
 62
3
 10
30.810784764028540
 20
198.164379739206200
 40
2.000000000000000
 50
270.000000000000000
 51
0.000000000000000
  0
ARC
  8
0
  6
CONTINUOUS
 62
3
 10
30.810784764028540
 20
198.963381610291440
 40
2.000000000000000
 50
270.000000000000000
 51
0.000000000000000
  0
ARC
  8
0
  6
CONTINUOUS
 62
3
 10
30.810784764028540
 20
200.057018538568630
 40
2.000000000000000
 50
0.000000000000000
 51
90.000000000000000
  0
LINE
  8
0
  6
CONTINUOUS
 62
3
 10
29.810784764028540
 20
202.057018538568630
 11
30.810784764028540
 21
202.057018538568630
  0
LINE
  8
0
  6
CONTINUOUS
 62
3
 10
30.810784764028540
 20
195.365377868087310
 11
-95.189215235971460
 21
195.365377868087310
  0
LINE
  8
0
  6
CONTINUOUS
 62
3
 10
30.810784764028540
 20
196.164379739189370
 11
-95.189215235971460
 21
196.164379739189370
  0
LINE
  8
0
  6
CONTINUOUS
 62
3
 10
32.810784764028540
 20
200.057018538568630
 11
32.810784764028540
 21
197.365377868087310
  0
LINE
  8
0
  6
CONTINUOUS
 62
3
 10
29.810784764028540
 20
183.862508247506410
 11
29.810784764028540
 21
195.164379739206200
  0
LINE
  8
0
  6
CONTINUOUS
 62
3
 10
-89.189215235971460
 20
220.462508247506320
 11
24.810784764028540
 21
220.462508247506320
  0
ARC
  8
0
  6
CONTINUOUS
 62
3
 10
24.810784764028540
 20
215.462508247506320
 40
5.000000000000000
 50
0.000000000000000
 51
90.000000000000000
  0
LINE
  8
0
  6
CONTINUOUS
 62
3
 10
-94.189215235971460
 20
183.862508247506410
 11
-94.189215235971460
 21
195.365377868087310
  0
ARC
  8
0
  6
CONTINUOUS
 62
3
 10
-95.189215235971460
 20
197.365377868087310
 40
2.000000000000000
 50
180.000000000000000
 51
270.000000000000000
  0
LINE
  8
0
  6
CONTINUOUS
 62
3
 10
-97.189215235971460
 20
200.057018538568630
 11
-97.189215235971460
 21
197.365377868087310
  0
ARC
  8
0
  6
CONTINUOUS
 62
3
 10
-95.189215235971460
 20
198.164379739206200
 40
2.000000000000000
 50
180.000000000000000
 51
270.000000000000000
  0
ARC
  8
0
  6
CONTINUOUS
 62
3
 10
-95.189215235971460
 20
198.963381610291440
 40
2.000000000000000
 50
180.000000000000000
 51
270.000000000000000
  0
ARC
  8
0
  6
CONTINUOUS
 62
3
 10
-95.189215235971460
 20
200.057018538568630
 40
2.000000000000000
 50
90.000000000000000
 51
180.000000000000000
  0
ARC
  8
0
  6
CONTINUOUS
 62
3
 10
-89.189215235971460
 20
215.462508247506320
 40
5.000000000000000
 50
90.000000000000000
 51
180.000000000000000
  0
LINE
  8
0
  6
CONTINUOUS
 62
3
 10
30.810784764028540
 20
196.963381610291440
 11
-95.189215235971460
 21
196.963381610291440
  0
LINE
  8
0
  6
CONTINUOUS
 62
3
 10
-94.189215235971460
 20
202.057018538568630
 11
-95.189215235971460
 21
202.057018538568630
  0
LINE
  8
0
  6
CONTINUOUS
 62
3
 10
-94.189215235971460
 20
202.523533307193250
 11
-94.189215235971460
 21
215.462508247506320
  0
LINE
  8
0
  6
CONTINUOUS
 62
3
 10
29.810784764028540
 20
202.523533307193250
 11
29.810784764028540
 21
215.462508247506320
  0
POLYLINE
  8
0
  6
CONTINUOUS
 62
3
 66
1
  0
VERTEX
  8
0
  6
CONTINUOUS
 62
3
 10
-90.689215235971460
 20
197.213069695011200
  0
VERTEX
  8
0
  6
CONTINUOUS
 62
3
 10
-90.621963717382769
 20
197.178971484815210
  0
VERTEX
  8
0
  6
CONTINUOUS
 62
3
 10
-90.422793599760965
 20
197.146183649714570
  0
VERTEX
  8
0
  6
CONTINUOUS
 62
3
 10
-90.099358879030362
 20
197.115966207824560
  0
VERTEX
  8
0
  6
CONTINUOUS
 62
3
 10
-89.664088970124382
 20
197.089480398490850
  0
VERTEX
  8
0
  6
CONTINUOUS
 62
3
 10
-89.133711051540075
 20
197.067744056512770
  0
VERTEX
  8
0
  6
CONTINUOUS
 62
3
 10
-88.528607249249276
 20
197.051592497322590
  0
VERTEX
  8
0
  6
CONTINUOUS
 62
3
 10
-87.872031363027915
 20
197.041646416282130
  0
VERTEX
  8
0
  6
CONTINUOUS
 62
3
 10
-87.189215235971460
 20
197.038288035707980
  0
VERTEX
  8
0
  6
CONTINUOUS
 62
3
 10
-86.506399108915019
 20
197.041646416282130
  0
VERTEX
  8
0
  6
CONTINUOUS
 62
3
 10
-85.849823222693644
 20
197.051592497322590
  0
VERTEX
  8
0
  6
CONTINUOUS
 62
3
 10
-85.244719420402859
 20
197.067744056512770
  0
VERTEX
  8
0
  6
CONTINUOUS
 62
3
 10
-84.714341501818552
 20
197.089480398490850
  0
VERTEX
  8
0
  6
CONTINUOUS
 62
3
 10
-84.279071592912558
 20
197.115966207824560
  0
VERTEX
  8
0
  6
CONTINUOUS
 62
3
 10
-83.955636872181955
 20
197.146183649714570
  0
VERTEX
  8
0
  6
CONTINUOUS
 62
3
 10
-83.756466754560151
 20
197.178971484815210
  0
VERTEX
  8
0
  6
CONTINUOUS
 62
3
 10
-83.689215235971460
 20
197.213069695011200
  0
SEQEND
  8
0
  6
CONTINUOUS
 62
3
  0
ARC
  8
0
  6
CONTINUOUS
 62
3
 10
-84.989215235971642
 20
198.200079432935580
 40
1.300000000000182
 50
0.000000000000000
 51
73.398450400977637
  0
ARC
  8
0
  6
CONTINUOUS
 62
3
 10
-87.189215235971460
 20
190.821055107186110
 40
9.000000000000123
 50
73.398450400980877
 51
106.601549599019120
  0
ARC
  8
0
  6
CONTINUOUS
 62
3
 10
-89.389215235971278
 20
198.200079432935580
 40
1.300000000000019
 50
106.601549599022360
 51
180.000000000000000
  0
LINE
  8
0
  6
CONTINUOUS
 62
3
 10
-83.689215235971460
 20
198.200079432935580
 11
-83.689215235971460
 21
197.213069695011200
  0
LINE
  8
0
  6
CONTINUOUS
 62
3
 10
-90.689215235971460
 20
198.200079432935580
 11
-90.689215235971460
 21
197.213069695011200
  0
ARC
  8
0
  6
CONTINUOUS
 62
3
 10
-89.189215235971460
 20
202.523533307193250
 40
5.000000000000000
 50
180.000000000000000
 51
252.542396876278160
  0
LINE
  8
0
  6
CONTINUOUS
 62
3
 10
19.310784764028540
 20
198.200079432935580
 11
19.310784764028540
 21
197.213069695011200
  0
POLYLINE
  8
0
  6
CONTINUOUS
 62
3
 66
1
  0
VERTEX
  8
0
  6
CONTINUOUS
 62
3
 10
19.310784764028540
 20
197.213069695011200
  0
VERTEX
  8
0
  6
CONTINUOUS
 62
3
 10
19.378036282617234
 20
197.178971484815210
  0
VERTEX
  8
0
  6
CONTINUOUS
 62
3
 10
19.577206400239035
 20
197.146183649714570
  0
VERTEX
  8
0
  6
CONTINUOUS
 62
3
 10
19.900641120969631
 20
197.115966207824560
  0
VERTEX
  8
0
  6
CONTINUOUS
 62
3
 10
20.335911029875625
 20
197.089480398490850
  0
VERTEX
  8
0
  6
CONTINUOUS
 62
3
 10
20.866288948459932
 20
197.067744056512770
  0
VERTEX
  8
0
  6
CONTINUOUS
 62
3
 10
21.471392750750724
 20
197.051592497322590
  0
VERTEX
  8
0
  6
CONTINUOUS
 62
3
 10
22.127968636972092
 20
197.041646416282130
  0
VERTEX
  8
0
  6
CONTINUOUS
 62
3
 10
22.810784764028540
 20
197.038288035707980
  0
VERTEX
  8
0
  6
CONTINUOUS
 62
3
 10
23.493600891084988
 20
197.041646416282130
  0
VERTEX
  8
0
  6
CONTINUOUS
 62
3
 10
24.150176777306353
 20
197.051592497322590
  0
VERTEX
  8
0
  6
CONTINUOUS
 62
3
 10
24.755280579597144
 20
197.067744056512770
  0
VERTEX
  8
0
  6
CONTINUOUS
 62
3
 10
25.285658498181455
 20
197.089480398490850
  0
VERTEX
  8
0
  6
CONTINUOUS
 62
3
 10
25.720928407087445
 20
197.115966207824560
  0
VERTEX
  8
0
  6
CONTINUOUS
 62
3
 10
26.044363127818041
 20
197.146183649714570
  0
VERTEX
  8
0
  6
CONTINUOUS
 62
3
 10
26.243533245439846
 20
197.178971484815210
  0
VERTEX
  8
0
  6
CONTINUOUS
 62
3
 10
26.310784764028536
 20
197.213069695011200
  0
SEQEND
  8
0
  6
CONTINUOUS
 62
3
  0
LINE
  8
0
  6
CONTINUOUS
 62
3
 10
26.310784764028540
 20
198.200079432935580
 11
26.310784764028540
 21
197.213069695011200
  0
ARC
  8
0
  6
CONTINUOUS
 62
3
 10
20.610784764028722
 20
198.200079432935580
 40
1.300000000000019
 50
106.601549599022360
 51
180.000000000000000
  0
ARC
  8
0
  6
CONTINUOUS
 62
3
 10
22.810784764028540
 20
190.821055107186110
 40
9.000000000000123
 50
73.398450400980877
 51
106.601549599019120
  0
ARC
  8
0
  6
CONTINUOUS
 62
3
 10
25.010784764028358
 20
198.200079432935580
 40
1.300000000000182
 50
0.000000000000000
 51
73.398450400977637
  0
ARC
  8
0
  6
CONTINUOUS
 62
3
 10
24.810784764028540
 20
202.523533307193250
 40
5.000000000000072
 50
287.457603123721870
 51
0.000000000000000
  0
LINE
  8
0
  6
CONTINUOUS
 62
3
 10
19.310784764028540
 20
197.523533307193250
 11
-83.689215235971460
 21
197.523533307193250
  0
LINE
  8
0
  6
CONTINUOUS
 62
3
 10
-94.189215235971460
 20
178.862508247506410
 11
29.810784764028540
 21
178.862508247506410
  0
ARC
  8
0
  6
CONTINUOUS
 62
3
 10
24.810784764028540
 20
183.862508247506410
 40
5.000000000000000
 50
270.000000000000000
 51
0.000000000000000
  0
LINE
  8
0
  6
DASHDOT
 62
3
 10
29.810784764028540
 20
173.862508247506410
 11
29.810784764028540
 21
178.862508247506410
  0
LINE
  8
0
  6
DASHDOT
 62
3
 10
29.810784764028540
 20
173.862508247506410
 11
29.810784764028540
 21
178.862508247506410
  0
LINE
  8
0
  6
CONTINUOUS
 62
3
 10
-94.189215235971460
 20
173.862508247506410
 11
-94.189215235971460
 21
178.862508247506410
  0
ARC
  8
0
  6
CONTINUOUS
 62
3
 10
-89.189215235971460
 20
183.862508247506410
 40
5.000000000000000
 50
180.000000000000000
 51
270.000000000000000
  0
LINE
  8
0
  6
DASHDOT
 62
4
 10
-90.489215235971415
 20
33.862508247506469
 11
-90.489215235971415
 21
60.864107570056206
  0
LINE
  8
0
  6
DASHDOT
 62
4
 10
-81.489215235971415
 20
42.862508247506469
 11
-99.489215235971415
 21
42.862508247506469
  0
CIRCLE
  8
0
  6
DASHED
 62
4
 10
-90.489215235971415
 20
42.862508247506469
 40
6.000000000000000
  0
ARC
  8
0
  6
DASHED
 62
4
 10
-90.489215235971415
 20
42.862508247506469
 40
7.000000000000000
 50
180.000000000000000
 51
0.000000000000000
  0
LINE
  8
0
  6
DASHED
 62
4
 10
-83.489215235971415
 20
62.862508247506469
 11
-83.489215235971415
 21
42.862508247506469
  0
LINE
  8
0
  6
DASHED
 62
4
 10
-97.489215235971415
 20
62.862508247506469
 11
-97.489215235971415
 21
42.862508247506469
  0
LINE
  8
0
  6
DASHDOT
 62
4
 10
219.812178140821740
 20
120.362508247506410
 11
-216.815802307302650
 21
120.362508247506410
  0
LINE
  8
0
  6
CONTINUOUS
 62
3
 10
37.810784764027630
 20
49.788450737812127
 11
37.810784764027630
 21
66.862508247506469
  0
LINE
  8
0
  6
CONTINUOUS
 62
3
 10
37.810784764027630
 20
190.936565757199790
 11
37.810784764027630
 21
173.862508247506410
  0
LINE
  8
0
  6
DASHDOT
 62
4
 10
58.699588818546772
 20
182.862508247506410
 11
40.319179061441901
 21
182.862508247506410
  0
LINE
  8
0
  6
DASHDOT
 62
4
 10
49.810784764027630
 20
192.213007296742940
 11
49.810784764027630
 21
173.475159982479450
  0
LINE
  8
0
  6
DASHDOT
 62
4
 10
58.196507610513663
 20
57.862508247505502
 11
40.319179061441901
 21
57.862508247505502
  0
LINE
  8
0
  6
DASHDOT
 62
4
 10
49.810784764027630
 20
48.526296606991309
 11
49.810784764027630
 21
67.870247866687350
  0
LINE
  8
0
  6
DASHDOT
 62
4
 10
142.810784764027630
 20
48.900394354388482
 11
142.810784764027630
 21
67.737719213162563
  0
LINE
  8
0
  6
DASHDOT
 62
4
 10
151.905332173332000
 20
182.862508247506410
 11
133.319179061441900
 21
182.862508247506410
  0
LINE
  8
0
  6
DASHDOT
 62
4
 10
142.810784764027630
 20
191.781264138606280
 11
142.810784764027630
 21
172.360754783419910
  0
INSERT
  8
0
  2
SYM2
 10
66.310784764028085
 20
-106.246821503507930
  0
LINE
  8
0
  6
CONTINUOUS
 62
3
 10
63.310784764028028
 20
-53.246821503507931
 11
60.310784764028085
 21
-53.246821503507931
  0
LINE
  8
0
  6
CONTINUOUS
 62
3
 10
63.565563200874976
 20
-43.246821503507931
 11
60.310784764028085
 21
-43.246821503507931
  0
LINE
  8
0
  6
CONTINUOUS
 62
3
 10
60.310784764028085
 20
-53.246821503507931
 11
60.310784764028085
 21
-43.246821503507931
  0
LINE
  8
0
  6
DASHDOT
 62
4
 10
406.512185072919240
 20
-84.246821503507817
 11
220.834493906528220
 21
-84.246821503507817
  0
ARC
  8
0
  6
CONTINUOUS
 62
3
 10
-172.194060185084940
 20
-137.646821503508140
 40
20.599999999999795
 50
235.000000000000260
 51
270.000000000000000
  0
ARC
  8
0
  6
CONTINUOUS
 62
3
 10
-190.089215235992240
 20
-147.090441637137470
 40
2.599999999999909
 50
180.000000000000000
 51
234.999999999994540
  0
LINE
  8
0
  6
CONTINUOUS
 62
3
 10
-192.689215235992150
 20
-147.090441637137470
 11
-192.689215235992150
 21
-104.246821503507810
  0
LINE
  8
0
  6
CONTINUOUS
 62
3
 10
-184.009734773916310
 20
-154.521353615861240
 11
-191.580513970505080
 21
-149.220236952288590
  0
ARC
  8
0
  6
CONTINUOUS
 62
3
 10
-101.689215235992150
 20
-139.246821503507820
 40
3.000000000000000
 50
180.000000000000000
 51
270.000000000000000
  0
LINE
  8
0
  6
CONTINUOUS
 62
3
 10
-97.689215235992151
 20
-142.246821503507820
 11
-101.689215235992150
 21
-142.246821503507820
  0
ARC
  8
0
  6
CONTINUOUS
 62
3
 10
-97.689215235992151
 20
-145.246821503507820
 40
3.000000000000000
 50
0.000000000000000
 51
90.000000000000000
  0
LINE
  8
0
  6
CONTINUOUS
 62
3
 10
-102.489215235970270
 20
-139.246821503507820
 11
-102.489215235970960
 21
-104.246821503507590
  0
ARC
  8
0
  6
CONTINUOUS
 62
3
 10
-101.489215235970500
 20
-139.246821503507820
 40
0.999999999999773
 50
180.000000000000000
 51
270.000000000000000
  0
LINE
  8
0
  6
CONTINUOUS
 62
3
 10
-12.489215235970278
 20
-139.246821503507820
 11
-12.489215235970960
 21
-104.246821503506220
  0
LINE
  8
0
  6
CONTINUOUS
 62
3
 10
-13.489215235970505
 20
-140.246821503507820
 11
-101.489215235970500
 21
-140.246821503507820
  0
ARC
  8
0
  6
CONTINUOUS
 62
3
 10
-13.489215235970505
 20
-139.246821503507820
 40
1.000000000000000
 50
270.000000000000000
 51
0.000000000000000
  0
LINE
  8
0
  6
CONTINUOUS
 62
4
 10
-104.689215235992150
 20
-124.246821503507810
 11
-102.489215235970500
 21
-124.246821503507810
  0
LINE
  8
0
  6
CONTINUOUS
 62
4
 10
-104.689215235992150
 20
-127.085061183503960
 11
-102.489215235970500
 21
-127.085061183503960
  0
LINE
  8
0
  6
CONTINUOUS
 62
4
 10
-104.689215235992150
 20
-128.431462909002450
 11
-102.489215235970500
 21
-128.431462909002450
  0
LINE
  8
0
  6
CONTINUOUS
 62
4
 10
-104.689215235992150
 20
-131.524193900667800
 11
-102.489215235970500
 21
-131.524193900667800
  0
LINE
  8
0
  6
CONTINUOUS
 62
4
 10
-104.689215235992150
 20
-133.003217054144900
 11
-102.489215235970500
 21
-133.003217054144900
  0
LINE
  8
0
  6
CONTINUOUS
 62
4
 10
-104.689215235992150
 20
-135.961212662277830
 11
-102.489215235970500
 21
-135.961212662277830
  0
LINE
  8
0
  6
CONTINUOUS
 62
4
 10
-104.689215235992150
 20
-137.550422455016590
 11
-102.489215235970500
 21
-137.550422455016590
  0
LINE
  8
0
  6
CONTINUOUS
 62
3
 10
-104.689215235992150
 20
-104.246821503507810
 11
-104.689215235992150
 21
-139.246821503507820
  0
ARC
  8
0
  6
CONTINUOUS
 62
3
 10
-172.194060185084940
 20
-70.846821503507499
 40
20.599999999999909
 50
90.000000000000000
 51
124.999999999999780
  0
ARC
  8
0
  6
CONTINUOUS
 62
3
 10
-190.089215235992240
 20
-61.403201369878161
 40
2.600000000000037
 50
125.000000000002600
 51
180.000000000000000
  0
LINE
  8
0
  6
CONTINUOUS
 62
3
 10
-192.689215235992150
 20
-61.403201369878161
 11
-192.689215235992150
 21
-104.246821503507810
  0
LINE
  8
0
  6
CONTINUOUS
 62
3
 10
-184.009734773916310
 20
-53.972289391154163
 11
-191.580513970505080
 21
-59.273406054727047
  0
ARC
  8
0
  6
CONTINUOUS
 62
3
 10
-101.689215235992150
 20
-69.246821503507817
 40
3.000000000000000
 50
90.000000000000000
 51
180.000000000000000
  0
LINE
  8
0
  6
CONTINUOUS
 62
3
 10
-97.689215235992151
 20
-66.246821503507817
 11
-101.689215235992150
 21
-66.246821503507817
  0
ARC
  8
0
  6
CONTINUOUS
 62
3
 10
-97.689215235992151
 20
-63.246821503507817
 40
3.000000000000000
 50
270.000000000000000
 51
0.000000000000000
  0
LINE
  8
0
  6
CONTINUOUS
 62
3
 10
-102.489215235970270
 20
-69.246821503507817
 11
-102.489215235970960
 21
-104.246821503508040
  0
ARC
  8
0
  6
CONTINUOUS
 62
3
 10
-101.489215235970500
 20
-69.246821503507817
 40
1.000000000000000
 50
90.000000000000000
 51
180.000000000000000
  0
LINE
  8
0
  6
CONTINUOUS
 62
3
 10
-12.489215235970278
 20
-69.246821503507817
 11
-12.489215235970960
 21
-104.246821503509400
  0
LINE
  8
0
  6
CONTINUOUS
 62
3
 10
-13.489215235970505
 20
-68.246821503507817
 11
-101.489215235970500
 21
-68.246821503507817
  0
ARC
  8
0
  6
CONTINUOUS
 62
3
 10
-13.489215235970505
 20
-69.246821503507817
 40
1.000000000000227
 50
0.000000000000000
 51
90.000000000000000
  0
LINE
  8
0
  6
CONTINUOUS
 62
4
 10
-104.689215235992150
 20
-84.246821503507817
 11
-102.489215235970500
 21
-84.246821503507817
  0
LINE
  8
0
  6
CONTINUOUS
 62
4
 10
-104.689215235992150
 20
-81.408581823511668
 11
-102.489215235970500
 21
-81.408581823511668
  0
LINE
  8
0
  6
CONTINUOUS
 62
4
 10
-104.689215235992150
 20
-80.062180098013187
 11
-102.489215235970500
 21
-80.062180098013187
  0
LINE
  8
0
  6
CONTINUOUS
 62
4
 10
-104.689215235992150
 20
-76.969449106347838
 11
-102.489215235970500
 21
-76.969449106347838
  0
LINE
  8
0
  6
CONTINUOUS
 62
4
 10
-104.689215235992150
 20
-75.490425952870737
 11
-102.489215235970500
 21
-75.490425952870737
  0
LINE
  8
0
  6
CONTINUOUS
 62
4
 10
-104.689215235992150
 20
-72.532430344737804
 11
-102.489215235970500
 21
-72.532430344737804
  0
LINE
  8
0
  6
CONTINUOUS
 62
4
 10
-104.689215235992150
 20
-70.943220551999048
 11
-102.489215235970500
 21
-70.943220551999048
  0
LINE
  8
0
  6
CONTINUOUS
 62
3
 10
-104.689215235992150
 20
-104.246821503507810
 11
-104.689215235992150
 21
-69.246821503507817
  0
POLYLINE
  8
0
  6
CONTINUOUS
 62
3
 66
1
 70
1
  0
VERTEX
  8
0
  6
CONTINUOUS
 62
3
 10
-100.989215235991930
 20
-56.919490549160173
  0
VERTEX
  8
0
  6
CONTINUOUS
 62
3
 10
-101.079524418096750
 20
-56.216533582959812
  0
VERTEX
  8
0
  6
CONTINUOUS
 62
3
 10
-101.346981433188880
 20
-55.540590858747720
  0
VERTEX
  8
0
  6
CONTINUOUS
 62
3
 10
-101.781308058169960
 20
-54.917638476342319
  0
VERTEX
  8
0
  6
CONTINUOUS
 62
3
 10
-102.365813364415160
 20
-54.371616146443735
  0
VERTEX
  8
0
  6
CONTINUOUS
 62
3
 10
-103.078035140799790
 20
-53.923507200977120
  0
VERTEX
  8
0
  6
CONTINUOUS
 62
3
 10
-103.890603103876000
 20
-53.590532215414363
  0
VERTEX
  8
0
  6
CONTINUOUS
 62
3
 10
-104.772290722516110
 20
-53.385487231716112
  0
VERTEX
  8
0
  6
CONTINUOUS
 62
3
 10
-105.689215235991920
 20
-53.316252013615340
  0
VERTEX
  8
0
  6
CONTINUOUS
 62
3
 10
-106.606139749467720
 20
-53.385487231716112
  0
VERTEX
  8
0
  6
CONTINUOUS
 62
3
 10
-107.487827368107840
 20
-53.590532215414363
  0
VERTEX
  8
0
  6
CONTINUOUS
 62
3
 10
-108.300395331184040
 20
-53.923507200977120
  0
VERTEX
  8
0
  6
CONTINUOUS
 62
3
 10
-109.012617107568680
 20
-54.371616146443735
  0
VERTEX
  8
0
  6
CONTINUOUS
 62
3
 10
-109.597122413813870
 20
-54.917638476342319
  0
VERTEX
  8
0
  6
CONTINUOUS
 62
3
 10
-110.031449038794960
 20
-55.540590858747720
  0
VERTEX
  8
0
  6
CONTINUOUS
 62
3
 10
-110.298906053887090
 20
-56.216533582959812
  0
VERTEX
  8
0
  6
CONTINUOUS
 62
3
 10
-110.389215235991910
 20
-56.919490549160173
  0
VERTEX
  8
0
  6
CONTINUOUS
 62
3
 10
-110.298906053887090
 20
-57.622447515360534
  0
VERTEX
  8
0
  6
CONTINUOUS
 62
3
 10
-110.031449038794960
 20
-58.298390239572626
  0
VERTEX
  8
0
  6
CONTINUOUS
 62
3
 10
-109.597122413813870
 20
-58.921342621978027
  0
VERTEX
  8
0
  6
CONTINUOUS
 62
3
 10
-109.012617107568680
 20
-59.467364951876604
  0
VERTEX
  8
0
  6
CONTINUOUS
 62
3
 10
-108.300395331184040
 20
-59.915473897343226
  0
VERTEX
  8
0
  6
CONTINUOUS
 62
3
 10
-107.487827368107840
 20
-60.248448882905983
  0
VERTEX
  8
0
  6
CONTINUOUS
 62
3
 10
-106.606139749467720
 20
-60.453493866604234
  0
VERTEX
  8
0
  6
CONTINUOUS
 62
3
 10
-105.689215235991920
 20
-60.522729084705006
  0
VERTEX
  8
0
  6
CONTINUOUS
 62
3
 10
-104.772290722516110
 20
-60.453493866604234
  0
VERTEX
  8
0
  6
CONTINUOUS
 62
3
 10
-103.890603103876000
 20
-60.248448882905983
  0
VERTEX
  8
0
  6
CONTINUOUS
 62
3
 10
-103.078035140799790
 20
-59.915473897343226
  0
VERTEX
  8
0
  6
CONTINUOUS
 62
3
 10
-102.365813364415160
 20
-59.467364951876604
  0
VERTEX
  8
0
  6
CONTINUOUS
 62
3
 10
-101.781308058169960
 20
-58.921342621978027
  0
VERTEX
  8
0
  6
CONTINUOUS
 62
3
 10
-101.346981433188880
 20
-58.298390239572626
  0
VERTEX
  8
0
  6
CONTINUOUS
 62
3
 10
-101.079524418096750
 20
-57.622447515360534
  0
SEQEND
  8
0
  6
CONTINUOUS
 62
3
  0
LINE
  8
0
  6
CONTINUOUS
 62
3
 10
-107.689215235992150
 20
-53.927114995159855
 11
-105.689215235992150
 21
-55.102900480782637
  0
LINE
  8
0
  6
CONTINUOUS
 62
3
 10
-105.689215235992150
 20
-55.102900480782637
 11
-103.689215235992150
 21
-56.755542119906067
  0
LINE
  8
0
  6
CONTINUOUS
 62
3
 10
-103.689215235992150
 20
-53.927114995159855
 11
-105.689215235992150
 21
-55.102900480782637
  0
LINE
  8
0
  6
CONTINUOUS
 62
3
 10
-105.689215235992150
 20
-55.102900480782637
 11
-107.689215235992150
 21
-56.755542119906067
  0
POLYLINE
  8
0
  6
CONTINUOUS
 62
3
 66
1
 70
1
  0
VERTEX
  8
0
  6
CONTINUOUS
 62
3
 10
-100.989215235991930
 20
-151.574152457855460
  0
VERTEX
  8
0
  6
CONTINUOUS
 62
3
 10
-101.079524418096750
 20
-150.871195491655100
  0
VERTEX
  8
0
  6
CONTINUOUS
 62
3
 10
-101.346981433188880
 20
-150.195252767443010
  0
VERTEX
  8
0
  6
CONTINUOUS
 62
3
 10
-101.781308058169960
 20
-149.572300385037610
  0
VERTEX
  8
0
  6
CONTINUOUS
 62
3
 10
-102.365813364415160
 20
-149.026278055139020
  0
VERTEX
  8
0
  6
CONTINUOUS
 62
3
 10
-103.078035140799790
 20
-148.578169109672390
  0
VERTEX
  8
0
  6
CONTINUOUS
 62
3
 10
-103.890603103876000
 20
-148.245194124109640
  0
VERTEX
  8
0
  6
CONTINUOUS
 62
3
 10
-104.772290722516110
 20
-148.040149140411390
  0
VERTEX
  8
0
  6
CONTINUOUS
 62
3
 10
-105.689215235991920
 20
-147.970913922310610
  0
VERTEX
  8
0
  6
CONTINUOUS
 62
3
 10
-106.606139749467720
 20
-148.040149140411390
  0
VERTEX
  8
0
  6
CONTINUOUS
 62
3
 10
-107.487827368107840
 20
-148.245194124109640
  0
VERTEX
  8
0
  6
CONTINUOUS
 62
3
 10
-108.300395331184040
 20
-148.578169109672390
  0
VERTEX
  8
0
  6
CONTINUOUS
 62
3
 10
-109.012617107568680
 20
-149.026278055139020
  0
VERTEX
  8
0
  6
CONTINUOUS
 62
3
 10
-109.597122413813870
 20
-149.572300385037610
  0
VERTEX
  8
0
  6
CONTINUOUS
 62
3
 10
-110.031449038794960
 20
-150.195252767443010
  0
VERTEX
  8
0
  6
CONTINUOUS
 62
3
 10
-110.298906053887090
 20
-150.871195491655100
  0
VERTEX
  8
0
  6
CONTINUOUS
 62
3
 10
-110.389215235991910
 20
-151.574152457855460
  0
VERTEX
  8
0
  6
CONTINUOUS
 62
3
 10
-110.298906053887090
 20
-152.277109424055820
  0
VERTEX
  8
0
  6
CONTINUOUS
 62
3
 10
-110.031449038794960
 20
-152.953052148267910
  0
VERTEX
  8
0
  6
CONTINUOUS
 62
3
 10
-109.597122413813870
 20
-153.576004530673320
  0
VERTEX
  8
0
  6
CONTINUOUS
 62
3
 10
-109.012617107568680
 20
-154.122026860571910
  0
VERTEX
  8
0
  6
CONTINUOUS
 62
3
 10
-108.300395331184040
 20
-154.570135806038540
  0
VERTEX
  8
0
  6
CONTINUOUS
 62
3
 10
-107.487827368107840
 20
-154.903110791601280
  0
VERTEX
  8
0
  6
CONTINUOUS
 62
3
 10
-106.606139749467720
 20
-155.108155775299540
  0
VERTEX
  8
0
  6
CONTINUOUS
 62
3
 10
-105.689215235991920
 20
-155.177390993400310
  0
VERTEX
  8
0
  6
CONTINUOUS
 62
3
 10
-104.772290722516110
 20
-155.108155775299540
  0
VERTEX
  8
0
  6
CONTINUOUS
 62
3
 10
-103.890603103876000
 20
-154.903110791601280
  0
VERTEX
  8
0
  6
CONTINUOUS
 62
3
 10
-103.078035140799790
 20
-154.570135806038540
  0
VERTEX
  8
0
  6
CONTINUOUS
 62
3
 10
-102.365813364415160
 20
-154.122026860571910
  0
VERTEX
  8
0
  6
CONTINUOUS
 62
3
 10
-101.781308058169960
 20
-153.576004530673320
  0
VERTEX
  8
0
  6
CONTINUOUS
 62
3
 10
-101.346981433188880
 20
-152.953052148267910
  0
VERTEX
  8
0
  6
CONTINUOUS
 62
3
 10
-101.079524418096750
 20
-152.277109424055820
  0
SEQEND
  8
0
  6
CONTINUOUS
 62
3
  0
LINE
  8
0
  6
CONTINUOUS
 62
3
 10
-107.689215235992150
 20
-154.566528011855780
 11
-105.689215235992150
 21
-153.390742526233000
  0
LINE
  8
0
  6
CONTINUOUS
 62
3
 10
-105.689215235992150
 20
-153.390742526233000
 11
-103.689215235992150
 21
-151.738100887109570
  0
LINE
  8
0
  6
CONTINUOUS
 62
3
 10
-103.689215235992150
 20
-154.566528011855780
 11
-105.689215235992150
 21
-153.390742526233000
  0
LINE
  8
0
  6
CONTINUOUS
 62
3
 10
-105.689215235992150
 20
-153.390742526233000
 11
-107.689215235992150
 21
-151.738100887109570
  0
LINE
  8
0
  6
CONTINUOUS
 62
3
 10
-94.689215235992151
 20
-50.246821503507590
 11
-172.194060185084940
 21
-50.246821503507590
  0
LINE
  8
0
  6
CONTINUOUS
 62
3
 10
-94.689215235992151
 20
-50.246821503507590
 11
-94.689215235992151
 21
-63.246821503507817
  0
LINE
  8
0
  6
CONTINUOUS
 62
3
 10
-94.689215235992151
 20
-158.246821503508040
 11
-94.689215235992151
 21
-145.246821503507820
  0
LINE
  8
0
  6
CONTINUOUS
 62
3
 10
-94.689215235992151
 20
-158.246821503508040
 11
-172.194060185084940
 21
-158.246821503508040
  0
LINE
  8
0
  6
DASHDOT
 62
4
 10
91.866256870330290
 20
-104.246821503507810
 11
-207.132283787882440
 21
-104.246821503507810
  0
LINE
  8
0
  6
CONTINUOUS
 62
3
 10
45.810784764028995
 20
-51.746821503507817
 11
-94.689215235992151
 21
-51.746821503507817
  0
LINE
  8
0
  6
CONTINUOUS
 62
4
 10
-94.689215235992151
 20
-53.746821503507817
 11
63.310784764027972
 21
-53.746821503507817
  0
LINE
  8
0
  6
CONTINUOUS
 62
4
 10
-94.689215235992151
 20
-53.246821503507590
 11
63.310784764027972
 21
-53.246821503507590
  0
LINE
  8
0
  6
CONTINUOUS
 62
4
 10
-94.689215235992151
 20
-58.113738908625010
 11
63.310784764027972
 21
-58.113738908625010
  0
LINE
  8
0
  6
CONTINUOUS
 62
4
 10
-94.689215235992151
 20
-59.742165976402930
 11
63.310784764027972
 21
-59.742165976402930
  0
LINE
  8
0
  6
CONTINUOUS
 62
4
 10
-94.689215235992151
 20
-63.204907733168056
 11
63.310784764027915
 21
-63.204907733168056
  0
LINE
  8
0
  6
CONTINUOUS
 62
4
 10
-94.846815582363433
 20
-64.206386096983351
 11
63.310784764027858
 21
-64.206386096983351
  0
LINE
  8
0
  6
CONTINUOUS
 62
4
 10
-12.489215235970505
 20
-75.490425952870737
 11
45.810784764028995
 21
-75.490425952870737
  0
LINE
  8
0
  6
CONTINUOUS
 62
4
 10
-12.489215235970505
 20
-76.969449106347838
 11
45.810784764028995
 21
-76.969449106347838
  0
LINE
  8
0
  6
CONTINUOUS
 62
4
 10
-12.489215235970505
 20
-80.062180098013187
 11
45.810784764028995
 21
-80.062180098013187
  0
LINE
  8
0
  6
CONTINUOUS
 62
4
 10
-12.489215235970505
 20
-81.408581823511668
 11
45.810784764028995
 21
-81.408581823511668
  0
LINE
  8
0
  6
CONTINUOUS
 62
4
 10
-12.489215235970505
 20
-84.246821503507817
 11
45.810784764028995
 21
-84.246821503507817
  0
LINE
  8
0
  6
CONTINUOUS
 62
4
 10
-12.489215235970505
 20
-72.532430344737804
 11
45.810784764028995
 21
-72.532430344737804
  0
LINE
  8
0
  6
CONTINUOUS
 62
4
 10
-12.489215235970505
 20
-70.943220551999048
 11
45.810784764028995
 21
-70.943220551999048
  0
LINE
  8
0
  6
CONTINUOUS
 62
4
 10
-94.689215235992151
 20
-145.288735273847350
 11
63.310784764028085
 21
-145.288735273847350
  0
LINE
  8
0
  6
CONTINUOUS
 62
4
 10
-94.846815582363433
 20
-144.287256910032060
 11
63.310784764028085
 21
-144.287256910032060
  0
LINE
  8
0
  6
CONTINUOUS
 62
4
 10
-12.489215235970505
 20
-133.003217054144900
 11
45.810784764028995
 21
-133.003217054144900
  0
LINE
  8
0
  6
CONTINUOUS
 62
4
 10
-12.489215235970505
 20
-131.524193900667800
 11
45.810784764028995
 21
-131.524193900667800
  0
LINE
  8
0
  6
CONTINUOUS
 62
4
 10
-12.489215235970505
 20
-128.431462909002450
 11
45.810784764028995
 21
-128.431462909002450
  0
LINE
  8
0
  6
CONTINUOUS
 62
4
 10
-12.489215235970505
 20
-127.085061183503960
 11
45.810784764028995
 21
-127.085061183503960
  0
LINE
  8
0
  6
CONTINUOUS
 62
4
 10
-12.489215235970505
 20
-124.246821503507810
 11
45.810784764028995
 21
-124.246821503507810
  0
LINE
  8
0
  6
CONTINUOUS
 62
4
 10
-12.489215235970505
 20
-135.961212662277830
 11
45.810784764028995
 21
-135.961212662277830
  0
LINE
  8
0
  6
CONTINUOUS
 62
4
 10
-12.489215235970505
 20
-137.550422455016590
 11
45.810784764028995
 21
-137.550422455016590
  0
LINE
  8
0
  6
CONTINUOUS
 62
4
 10
-94.689215235992151
 20
-148.751477030612700
 11
63.310784764028085
 21
-148.751477030612700
  0
LINE
  8
0
  6
CONTINUOUS
 62
4
 10
-94.689215235992151
 20
-150.379904098390630
 11
63.310784764028085
 21
-150.379904098390630
  0
LINE
  8
0
  6
CONTINUOUS
 62
4
 10
-94.689215235992151
 20
-154.746821503507820
 11
38.998898461548947
 21
-154.746821503507820
  0
LINE
  8
0
  6
CONTINUOUS
 62
4
 10
-94.689215235992151
 20
-155.246821503508040
 11
38.481842711637000
 21
-155.246821503508040
  0
LINE
  8
0
  6
CONTINUOUS
 62
3
 10
37.836379207579171
 20
-156.746821503507820
 11
-94.689215235992151
 21
-156.746821503507820
  0
LINE
  8
0
  6
CONTINUOUS
 62
3
 10
258.519702400450800
 20
-68.246821503508045
 11
239.711835182783030
 21
-68.246821503508045
  0
LINE
  8
0
  6
CONTINUOUS
 62
3
 10
254.078499955725420
 20
-140.246821503507820
 11
239.711835182783030
 21
-140.246821503507820
  0
LINE
  8
0
  6
CONTINUOUS
 62
3
 10
232.578499955725420
 20
-101.746821503507590
 11
233.088916803243140
 21
-101.746821503507590
  0
LINE
  8
0
  6
CONTINUOUS
 62
3
 10
232.578499955725420
 20
-106.746821503507810
 11
232.578499955725420
 21
-101.746821503507810
  0
LINE
  8
0
  6
CONTINUOUS
 62
3
 10
232.578499955725420
 20
-106.746821503507810
 11
233.088916803243140
 21
-106.746821503507810
  0
ARC
  8
0
  6
CONTINUOUS
 62
3
 10
239.711835182783030
 20
-135.246821503507820
 40
5.000000000000143
 50
186.032049146370330
 51
270.000000000000000
  0
ARC
  8
0
  6
CONTINUOUS
 62
3
 10
239.711835182783030
 20
-73.246821503508045
 40
5.000000000000000
 50
90.000000000000000
 51
173.967950853629670
  0
ARC
  8
0
  6
CONTINUOUS
 62
3
 10
533.078499955725420
 20
-104.246821503507840
 40
300.000000000000060
 50
173.967950853630210
 51
186.032049146369810
  0
ARC
  8
0
  6
CONTINUOUS
 62
3
 10
153.978090922592860
 20
-151.600024195200600
 40
3.000000000000000
 50
180.000000000000000
 51
248.825002431728220
  0
ARC
  8
0
  6
CONTINUOUS
 62
3
 10
133.015165877081020
 20
-150.865920576553440
 40
3.000000000000000
 50
180.000000000000000
 51
268.999999999989370
  0
LINE
  8
0
  6
CONTINUOUS
 62
3
 10
324.578499955725420
 20
-167.246821503507820
 11
357.964121678064200
 21
-167.246821503507820
  0
ARC
  8
0
  6
CONTINUOUS
 62
3
 10
364.578499955725420
 20
-162.746821503507820
 40
7.999999999999785
 50
214.228866327813620
 51
223.432536557791050
  0
LINE
  8
0
  6
CONTINUOUS
 62
3
 10
358.769024936414550
 20
-168.246821503507820
 11
372.078499955725420
 21
-168.246821503507820
  0
LINE
  8
0
  6
CONTINUOUS
 62
3
 10
324.578499955725420
 20
-167.246821503507820
 11
291.192878233387090
 21
-167.246821503507820
  0
ARC
  8
0
  6
CONTINUOUS
 62
3
 10
284.578499955725870
 20
-162.746821503507820
 40
7.999999999999812
 50
316.567463442208920
 51
325.771133672186410
  0
ARC
  8
0
  6
CONTINUOUS
 62
3
 10
277.078499955725420
 20
-169.246821503507820
 40
1.000000000000000
 50
90.000000000000000
 51
180.000000000000000
  0
LINE
  8
0
  6
CONTINUOUS
 62
3
 10
290.387974975036740
 20
-168.246821503507820
 11
277.078499955725420
 21
-168.246821503507820
  0
LINE
  8
0
  6
CONTINUOUS
 62
3
 10
276.078499955725420
 20
-169.246821503507820
 11
252.078499955725420
 21
-169.246821503507820
  0
CIRCLE
  8
0
  6
CONTINUOUS
 62
3
 10
324.578499955725420
 20
-84.246821503507817
 40
19.000000000000000
  0
CIRCLE
  8
0
  6
CONTINUOUS
 62
3
 10
324.578499955725420
 20
-84.246821503507817
 40
3.323500000000024
  0
LINE
  8
0
  6
CONTINUOUS
 62
3
 10
192.810784764027630
 20
-81.246821503507817
 11
163.810784764028090
 21
-81.246821503507817
  0
LINE
  8
0
  6
CONTINUOUS
 62
3
 10
192.810784764027630
 20
-87.246821503507817
 11
163.810784764028090
 21
-87.246821503507817
  0
ARC
  8
0
  6
CONTINUOUS
 62
3
 10
163.810784764028090
 20
-84.246821503507817
 40
3.000000000000000
 50
90.000000000000000
 51
270.000000000000000
  0
LINE
  8
0
  6
CONTINUOUS
 62
3
 10
72.810784764028085
 20
-145.890071834626720
 11
72.810784764027630
 21
-84.246821503507817
  0
LINE
  8
0
  6
CONTINUOUS
 62
3
 10
72.810784764027630
 20
-38.246821503507817
 11
72.810784764027630
 21
-84.246821503507817
  0
ARC
  8
0
  6
CONTINUOUS
 62
3
 10
324.578499955725420
 20
-84.246821503507817
 40
22.000000000000011
 50
38.816131624158764
 51
78.293519882306597
  0
LINE
  8
0
  6
CONTINUOUS
 62
3
 10
373.078499955725420
 20
-169.246821503507820
 11
397.078499955725870
 21
-169.246821503507820
  0
ARC
  8
0
  6
CONTINUOUS
 62
3
 10
372.078499955725420
 20
-169.246821503507820
 40
1.000000000000000
 50
0.000000000000000
 51
90.000000000000000
  0
LINE
  8
0
  6
CONTINUOUS
 62
3
 10
324.578499955725420
 20
-167.246821503507820
 11
355.578499955725420
 21
-167.246821503507820
  0
ARC
  8
0
  6
CONTINUOUS
 62
3
 10
392.374613476438750
 20
-151.246821503507820
 40
3.000000000000000
 50
180.000000000000000
 51
270.000000000000000
  0
ARC
  8
0
  6
CONTINUOUS
 62
3
 10
376.903949306443790
 20
-151.246821503507820
 40
3.000000000000000
 50
180.000000000000000
 51
270.000000000000000
  0
ARC
  8
0
  6
CONTINUOUS
 62
3
 10
272.253050605007500
 20
-151.246821503507820
 40
3.000000000000000
 50
270.000000000000000
 51
0.000000000000000
  0
ARC
  8
0
  6
CONTINUOUS
 62
3
 10
256.782386435012090
 20
-151.246821503507820
 40
3.000000000000000
 50
270.000000000000000
 51
0.000000000000000
  0
ARC
  8
0
  6
CONTINUOUS
 62
3
 10
324.578499955725420
 20
-84.246821503507817
 40
22.000000000000171
 50
74.570234885459982
 51
40.667845852653031
  0
ARC
  8
0
  6
CONTINUOUS
 62
3
 10
398.078499955725420
 20
-152.774685548508390
 40
3.000000000000000
 50
180.000000000000000
 51
228.189685104226240
  0
ARC
  8
0
  6
CONTINUOUS
 62
3
 10
394.078499955725420
 20
-157.246821503507820
 40
3.000000000000000
 50
0.000000000000000
 51
90.000000000000000
  0
ARC
  8
0
  6
CONTINUOUS
 62
3
 10
324.578499955725420
 20
-438.246821503507820
 40
399.999999999999720
 50
86.642182578429299
 51
90.000000000000000
  0
ARC
  8
0
  6
CONTINUOUS
 62
3
 10
345.078499955725420
 20
-88.847694429612602
 40
50.000000000000000
 50
0.000000000000000
 51
86.642182578429143
  0
ARC
  8
0
  6
CONTINUOUS
 62
3
 10
324.578499955725420
 20
-438.246821503507820
 40
376.652999999999510
 50
86.642182578429285
 51
90.000000000000000
  0
ARC
  8
0
  6
CONTINUOUS
 62
3
 10
345.078499955725420
 20
-88.847694429612602
 40
26.653000000000247
 50
0.000000000000000
 51
86.642182578428859
  0
ARC
  8
0
  6
CONTINUOUS
 62
3
 10
374.731499955725670
 20
-151.246821503507820
 40
3.000000000000000
 50
180.000000000000000
 51
270.000000000000000
  0
ARC
  8
0
  6
CONTINUOUS
 62
3
 10
274.425499955725630
 20
-151.246821503507820
 40
3.000000000000000
 50
270.000000000000000
 51
0.000000000000000
  0
ARC
  8
0
  6
CONTINUOUS
 62
3
 10
304.078499955725420
 20
-88.847694429612602
 40
26.652999999999526
 50
93.357817421571141
 51
180.000000000000000
  0
ARC
  8
0
  6
CONTINUOUS
 62
3
 10
324.578499955725420
 20
-438.246821503507820
 40
376.652999999999340
 50
90.000000000000000
 51
93.357817421570715
  0
ARC
  8
0
  6
CONTINUOUS
 62
3
 10
251.078499955725420
 20
-152.774685548508390
 40
3.000000000000284
 50
311.810314895773730
 51
0.000000000000000
  0
ARC
  8
0
  6
CONTINUOUS
 62
3
 10
255.078499955725420
 20
-157.246821503507820
 40
3.000000000000000
 50
90.000000000000000
 51
180.000000000000000
  0
ARC
  8
0
  6
CONTINUOUS
 62
3
 10
277.078499955725420
 20
-169.246821503507820
 40
1.000000000000000
 50
90.000000000000000
 51
180.000000000000000
  0
ARC
  8
0
  6
CONTINUOUS
 62
3
 10
324.578499955725420
 20
-438.246821503507820
 40
400.000000000000000
 50
90.000000000000000
 51
93.357817421570701
  0
ARC
  8
0
  6
CONTINUOUS
 62
3
 10
304.078499955725420
 20
-88.847694429612602
 40
49.999999999999744
 50
93.357817421570857
 51
180.000000000000000
  0
ARC
  8
0
  6
CONTINUOUS
 62
3
 10
153.810784764027630
 20
-63.246821503507817
 40
1.000000000000000
 50
0.000000000000000
 51
80.022062996017439
  0
ARC
  8
0
  6
CONTINUOUS
 62
3
 10
154.330591592985460
 20
-60.292197862404464
 40
1.999999999999653
 50
218.432783305167020
 51
260.022062996055920
  0
ARC
  8
0
  6
CONTINUOUS
 62
3
 10
105.763640377790580
 20
-98.831155420451068
 40
60.000000000000639
 50
38.432783305177523
 51
88.999999999999972
  0
ARC
  8
0
  6
CONTINUOUS
 62
3
 10
153.810784764027630
 20
-107.246821503507810
 40
1.000000000000000
 50
90.000000000000000
 51
180.000000000000000
  0
ARC
  8
0
  6
CONTINUOUS
 62
3
 10
153.810784764027630
 20
-105.246821503507810
 40
1.000000000000000
 50
270.000000000000000
 51
0.000000000000000
  0
ARC
  8
0
  6
CONTINUOUS
 62
3
 10
153.810784764027630
 20
-153.730811677716700
 40
1.000000000000000
 50
180.000000000000000
 51
240.000000000015750
  0
ARC
  8
0
  6
CONTINUOUS
 62
3
 10
151.810784764027630
 20
-157.194913292854840
 40
3.000000000000000
 50
0.000000000000000
 51
88.999999999989399
  0
ARC
  8
0
  6
CONTINUOUS
 62
3
 10
40.810784764027630
 20
-157.137860613787780
 40
3.000000000000099
 50
92.119248310867050
 51
180.000000000000000
  0
ARC
  8
0
  6
CONTINUOUS
 62
3
 10
72.810784764027630
 20
-126.500129216975430
 40
2.000000000000000
 50
0.000000000000000
 51
90.000000000000000
  0
ARC
  8
0
  6
CONTINUOUS
 62
3
 10
62.688357808029195
 20
-150.324180116474960
 40
3.000000000000099
 50
272.119248310867080
 51
309.407385823772980
  0
ARC
  8
0
  6
CONTINUOUS
 62
3
 10
72.810784764027630
 20
-143.301583540134740
 40
2.000000000000103
 50
309.407385823781850
 51
0.000000000000000
  0
ARC
  8
0
  6
CONTINUOUS
 62
3
 10
324.578499955725870
 20
-84.246821503507817
 40
27.000000000000338
 50
183.954572122090720
 51
356.045427877909220
  0
ARC
  8
0
  6
CONTINUOUS
 62
3
 10
361.578499955725420
 20
-144.246821503507820
 40
5.000000000000000
 50
270.000000000000000
 51
0.000000000000000
  0
ARC
  8
0
  6
CONTINUOUS
 62
3
 10
287.578499955725420
 20
-144.246821503507820
 40
5.000000000000000
 50
180.000000000000000
 51
270.000000000000000
  0
ARC
  8
0
  6
CONTINUOUS
 62
3
 10
364.078499955725420
 20
-86.746821503507817
 40
2.500000000000000
 50
0.000000000000000
 51
90.000000000000000
  0
ARC
  8
0
  6
CONTINUOUS
 62
3
 10
285.078499955725420
 20
-86.746821503507817
 40
2.500000000000000
 50
90.000000000000000
 51
180.000000000000000
  0
ARC
  8
0
  6
CONTINUOUS
 62
3
 10
287.578499955725420
 20
-144.246821503507820
 40
5.000000000000000
 50
180.000000000000000
 51
270.000000000000000
  0
ARC
  8
0
  6
CONTINUOUS
 62
3
 10
353.509452238704400
 20
-86.246821503507817
 40
2.000000000000000
 50
90.000000000000000
 51
176.045427877907830
  0
ARC
  8
0
  6
CONTINUOUS
 62
3
 10
295.647547672746900
 20
-86.246821503507817
 40
1.999999999999775
 50
3.954572122092177
 51
90.000000000000000
  0
LINE
  8
0
  6
DASHDOT
 62
4
 10
206.378605101695030
 20
-84.246821503507817
 11
122.484504330220260
 21
-84.246821503507817
  0
LINE
  8
0
  6
CONTINUOUS
 62
3
 10
389.374613476438750
 20
-88.847693744901335
 11
389.374613476438750
 21
-151.246821503507820
  0
LINE
  8
0
  6
CONTINUOUS
 62
3
 10
373.903949306443790
 20
-88.847694429612602
 11
373.903949306443790
 21
-151.246821503507820
  0
LINE
  8
0
  6
CONTINUOUS
 62
3
 10
275.253050605007500
 20
-88.847694429612602
 11
275.253050605007500
 21
-151.246821503507820
  0
LINE
  8
0
  6
CONTINUOUS
 62
3
 10
259.782386435012090
 20
-88.847693744901335
 11
259.782386435012090
 21
-151.246821503507820
  0
LINE
  8
0
  6
CONTINUOUS
 62
3
 10
397.078499955725870
 20
-169.246821503507820
 11
397.078499955725420
 21
-157.246821503507820
  0
LINE
  8
0
  6
CONTINUOUS
 62
3
 10
395.078499955725420
 20
-152.774685548508390
 11
395.078499955725420
 21
-88.847694429612602
  0
LINE
  8
0
  6
DASHDOT
 62
4
 10
301.590131270560960
 20
-104.246821503507810
 11
347.536825774372120
 21
-104.246821503507810
  0
LINE
  8
0
  6
CONTINUOUS
 62
3
 10
371.731499955725670
 20
-88.847694429612602
 11
371.731499955725670
 21
-151.246821503507820
  0
LINE
  8
0
  6
CONTINUOUS
 62
3
 10
324.578499955725420
 20
-154.246821503507820
 11
394.078499955725420
 21
-154.246821503507820
  0
LINE
  8
0
  6
CONTINUOUS
 62
3
 10
277.425499955725630
 20
-88.847694429612602
 11
277.425499955725630
 21
-151.246821503507820
  0
LINE
  8
0
  6
CONTINUOUS
 62
3
 10
324.578499955725420
 20
-154.246821503507820
 11
255.078499955725420
 21
-154.246821503507820
  0
LINE
  8
0
  6
CONTINUOUS
 62
3
 10
252.078499955725420
 20
-169.246821503507820
 11
252.078499955725420
 21
-157.246821503507820
  0
LINE
  8
0
  6
CONTINUOUS
 62
3
 10
276.078499955725420
 20
-169.246821503507820
 11
252.078499955725420
 21
-169.246821503507820
  0
LINE
  8
0
  6
CONTINUOUS
 62
3
 10
254.078499955725420
 20
-152.774685548508390
 11
254.078499955725420
 21
-88.847694429612602
  0
LINE
  8
0
  6
CONTINUOUS
 62
3
 10
324.578499955725420
 20
-167.246821503507820
 11
293.578499955725420
 21
-167.246821503507820
  0
LINE
  8
0
  6
DASHDOT
 62
4
 10
324.578499955725420
 20
-28.853376876895709
 11
324.578499955725420
 21
-179.175139469596620
  0
LINE
  8
0
  6
DASHDOT
 62
4
 10
262.078499955725420
 20
-151.662014895188800
 11
262.078499955725420
 21
-171.658989014494180
  0
LINE
  8
0
  6
DASHDOT
 62
4
 10
387.078499955725420
 20
-151.162014895188800
 11
387.078499955725420
 21
-171.658989014494180
  0
LINE
  8
0
  6
CONTINUOUS
 62
3
 10
106.810784764027630
 20
-38.840293711066806
 11
72.810784764027630
 21
-38.246821503507817
  0
LINE
  8
0
  6
CONTINUOUS
 62
3
 10
152.810784764027630
 20
-169.246821503507820
 11
39.810784764027630
 21
-169.246821503507820
  0
LINE
  8
0
  6
CONTINUOUS
 62
3
 10
154.810784764027630
 20
-157.194913292854840
 11
154.810784764027630
 21
-168.746821503507820
  0
LINE
  8
0
  6
DASHDOT
 62
4
 10
142.810784764027630
 20
-152.144252774107370
 11
142.810784764027630
 21
-171.894877533781250
  0
LINE
  8
0
  6
DASHDOT
 62
4
 10
49.810784764027630
 20
-172.080439514982570
 11
49.810784764027630
 21
-151.880372236143560
  0
LINE
  8
0
  6
CONTINUOUS
 62
3
 10
154.810784764027630
 20
-84.246821503507817
 11
154.810784764027630
 21
-105.246821503507810
  0
LINE
  8
0
  6
CONTINUOUS
 62
3
 10
154.810784764027630
 20
-84.246821503507817
 11
154.810784764027630
 21
-63.246821503507817
  0
LINE
  8
0
  6
CONTINUOUS
 62
3
 10
152.810784764027630
 20
-61.594530907740591
 11
152.810784764027630
 21
-153.730811677716700
  0
LINE
  8
0
  6
CONTINUOUS
 62
3
 10
37.810784764027630
 20
-168.746821503507820
 11
37.810784764027630
 21
-157.137860613787780
  0
LINE
  8
0
  6
CONTINUOUS
 62
3
 10
40.699846481801160
 20
-154.139912532593370
 11
75.310784764029449
 21
-152.859143841712470
  0
LINE
  8
0
  6
CONTINUOUS
 62
3
 10
151.863141983340030
 20
-154.195370207386080
 11
75.310784764027630
 21
-152.859143841712470
  0
LINE
  8
0
  6
CONTINUOUS
 62
3
 10
64.592848163982126
 20
-152.642135354197310
 11
74.080445001329736
 21
-144.846887031949340
  0
LINE
  8
0
  6
CONTINUOUS
 62
3
 10
74.810784764027630
 20
-143.301583540134740
 11
74.810784764027630
 21
-126.500129216975430
  0
LINE
  8
0
  6
CONTINUOUS
 62
3
 10
373.078499955725420
 20
-169.246821503507820
 11
373.078499955725420
 21
-169.246821503507820
  0
LINE
  8
0
  6
CONTINUOUS
 62
3
 10
276.078499955725420
 20
-169.246821503507820
 11
276.078499955725420
 21
-169.246821503507820
  0
LINE
  8
0
  6
CONTINUOUS
 62
3
 10
152.810784764027630
 20
-169.246821503507820
 11
152.810784764027630
 21
-168.746821503507820
  0
LINE
  8
0
  6
CONTINUOUS
 62
3
 10
152.810784764027630
 20
-168.746821503507820
 11
154.810784764027630
 21
-168.746821503507820
  0
LINE
  8
0
  6
CONTINUOUS
 62
3
 10
39.810784764027630
 20
-168.746821503507820
 11
39.810784764027630
 21
-169.246821503507820
  0
LINE
  8
0
  6
CONTINUOUS
 62
3
 10
37.810784764027630
 20
-168.746821503507820
 11
39.810784764027630
 21
-168.746821503507820
  0
LINE
  8
0
  6
CONTINUOUS
 62
3
 10
324.578499955725420
 20
-149.246821503507820
 11
361.578499955725420
 21
-149.246821503507820
  0
LINE
  8
0
  6
CONTINUOUS
 62
3
 10
366.578499955725420
 20
-86.746821503507817
 11
366.578499955725420
 21
-144.246821503507820
  0
LINE
  8
0
  6
CONTINUOUS
 62
3
 10
282.578499955725420
 20
-86.542437498843356
 11
282.578499955725420
 21
-144.246821503507820
  0
LINE
  8
0
  6
CONTINUOUS
 62
3
 10
324.578499955725420
 20
-149.246821503507820
 11
287.578499955725420
 21
-149.246821503507820
  0
LINE
  8
0
  6
CONTINUOUS
 62
3
 10
353.509452238704400
 20
-84.246821503507817
 11
364.078499955725420
 21
-84.246821503507817
  0
LINE
  8
0
  6
CONTINUOUS
 62
3
 10
295.647547672746900
 20
-84.246821503507817
 11
285.078499955725420
 21
-84.246821503507817
  0
LINE
  8
0
  6
CONTINUOUS
 62
3
 10
282.578499955725420
 20
-86.746821503507817
 11
282.578499955725420
 21
-144.246821503507820
  0
LINE
  8
0
  6
CONTINUOUS
 62
3
 10
324.578499955725420
 20
-149.246821503507820
 11
287.578499955725420
 21
-149.246821503507820
  0
POLYLINE
  8
0
  6
CONTINUOUS
 62
3
 66
1
  0
VERTEX
  8
0
  6
CONTINUOUS
 62
3
 10
275.253050605007620
 20
-88.847694429612602
  0
VERTEX
  8
0
  6
CONTINUOUS
 62
3
 10
275.104418368006460
 20
-85.921339599370683
  0
VERTEX
  8
0
  6
CONTINUOUS
 62
3
 10
274.664233510517140
 20
-83.107442944136253
  0
VERTEX
  8
0
  6
CONTINUOUS
 62
3
 10
273.949412089754390
 20
-80.514140934318561
  0
VERTEX
  8
0
  6
CONTINUOUS
 62
3
 10
272.987424292041680
 20
-78.241092711814389
  0
VERTEX
  8
0
  6
CONTINUOUS
 62
3
 10
271.815238768956140
 20
-76.375650245074425
  0
VERTEX
  8
0
  6
CONTINUOUS
 62
3
 10
270.477901952780710
 20
-74.989501441943304
  0
VERTEX
  8
0
  6
CONTINUOUS
 62
3
 10
269.026806947373870
 20
-74.135915223564155
  0
VERTEX
  8
0
  6
CONTINUOUS
 62
3
 10
267.517718520010020
 20
-73.847694429612602
  0
VERTEX
  8
0
  6
CONTINUOUS
 62
3
 10
266.008630092646170
 20
-74.135915223564155
  0
VERTEX
  8
0
  6
CONTINUOUS
 62
3
 10
264.557535087239330
 20
-74.989501441943304
  0
VERTEX
  8
0
  6
CONTINUOUS
 62
3
 10
263.220198271063910
 20
-76.375650245074425
  0
VERTEX
  8
0
  6
CONTINUOUS
 62
3
 10
262.048012747978360
 20
-78.241092711814389
  0
VERTEX
  8
0
  6
CONTINUOUS
 62
3
 10
261.086024950265650
 20
-80.514140934318576
  0
VERTEX
  8
0
  6
CONTINUOUS
 62
3
 10
260.371203529502910
 20
-83.107442944136253
  0
VERTEX
  8
0
  6
CONTINUOUS
 62
3
 10
259.931018672013580
 20
-85.921339599370683
  0
VERTEX
  8
0
  6
CONTINUOUS
 62
3
 10
259.782386435012430
 20
-88.847694429612602
  0
SEQEND
  8
0
  6
CONTINUOUS
 62
3
  0
POLYLINE
  8
0
  6
CONTINUOUS
 62
3
 66
1
  0
VERTEX
  8
0
  6
CONTINUOUS
 62
3
 10
389.374613476438870
 20
-88.847694429612602
  0
VERTEX
  8
0
  6
CONTINUOUS
 62
3
 10
389.225981239437710
 20
-85.921339599370683
  0
VERTEX
  8
0
  6
CONTINUOUS
 62
3
 10
388.785796381948390
 20
-83.107442944136253
  0
VERTEX
  8
0
  6
CONTINUOUS
 62
3
 10
388.070974961185640
 20
-80.514140934318561
  0
VERTEX
  8
0
  6
CONTINUOUS
 62
3
 10
387.108987163472930
 20
-78.241092711814389
  0
VERTEX
  8
0
  6
CONTINUOUS
 62
3
 10
385.936801640387390
 20
-76.375650245074425
  0
VERTEX
  8
0
  6
CONTINUOUS
 62
3
 10
384.599464824211960
 20
-74.989501441943304
  0
VERTEX
  8
0
  6
CONTINUOUS
 62
3
 10
383.148369818805120
 20
-74.135915223564155
  0
VERTEX
  8
0
  6
CONTINUOUS
 62
3
 10
381.639281391441270
 20
-73.847694429612602
  0
VERTEX
  8
0
  6
CONTINUOUS
 62
3
 10
380.130192964077420
 20
-74.135915223564155
  0
VERTEX
  8
0
  6
CONTINUOUS
 62
3
 10
378.679097958670580
 20
-74.989501441943304
  0
VERTEX
  8
0
  6
CONTINUOUS
 62
3
 10
377.341761142495160
 20
-76.375650245074425
  0
VERTEX
  8
0
  6
CONTINUOUS
 62
3
 10
376.169575619409610
 20
-78.241092711814389
  0
VERTEX
  8
0
  6
CONTINUOUS
 62
3
 10
375.207587821696900
 20
-80.514140934318576
  0
VERTEX
  8
0
  6
CONTINUOUS
 62
3
 10
374.492766400934160
 20
-83.107442944136253
  0
VERTEX
  8
0
  6
CONTINUOUS
 62
3
 10
374.052581543444830
 20
-85.921339599370683
  0
VERTEX
  8
0
  6
CONTINUOUS
 62
3
 10
373.903949306443680
 20
-88.847694429612602
  0
SEQEND
  8
0
  6
CONTINUOUS
 62
3
  0
LINE
  8
0
  6
CONTINUOUS
 62
3
 10
130.015165877081020
 20
-89.347693872674427
 11
130.015165877081020
 21
-150.865920576553440
  0
LINE
  8
0
  6
CONTINUOUS
 62
3
 10
150.978090922592860
 20
-89.347694429612602
 11
150.978090922592860
 21
-151.600024195200600
  0
POLYLINE
  8
0
  6
CONTINUOUS
 62
3
 66
1
  0
VERTEX
  8
0
  6
CONTINUOUS
 62
3
 10
150.978090922592510
 20
-89.347694429612602
  0
VERTEX
  8
0
  6
CONTINUOUS
 62
3
 10
150.776692564146320
 20
-86.421339634571027
  0
VERTEX
  8
0
  6
CONTINUOUS
 62
3
 10
150.180237114589260
 20
-83.607443010452272
  0
VERTEX
  8
0
  6
CONTINUOUS
 62
3
 10
149.211646021794910
 20
-81.014141023842825
  0
VERTEX
  8
0
  6
CONTINUOUS
 62
3
 10
147.908141697362990
 20
-78.741092813326546
  0
VERTEX
  8
0
  6
CONTINUOUS
 62
3
 10
146.319817080250860
 20
-76.875650344771415
  0
VERTEX
  8
0
  6
CONTINUOUS
 62
3
 10
144.507710593268570
 20
-75.489501524350274
  0
VERTEX
  8
0
  6
CONTINUOUS
 62
3
 10
142.541460470778160
 20
-74.635915272576639
  0
VERTEX
  8
0
  6
CONTINUOUS
 62
3
 10
140.496628600465470
 20
-74.347694429612602
  0
VERTEX
  8
0
  6
CONTINUOUS
 62
3
 10
138.451796722442740
 20
-74.635915160548080
  0
VERTEX
  8
0
  6
CONTINUOUS
 62
3
 10
136.485546577118410
 20
-75.489501304598335
  0
VERTEX
  8
0
  6
CONTINUOUS
 62
3
 10
134.673440053055940
 20
-76.875650025741038
  0
VERTEX
  8
0
  6
CONTINUOUS
 62
3
 10
133.085115386042220
 20
-78.741092407277904
  0
VERTEX
  8
0
  6
CONTINUOUS
 62
3
 10
131.781611000805040
 20
-81.014140546380133
  0
VERTEX
  8
0
  6
CONTINUOUS
 62
3
 10
130.813019838638500
 20
-83.607442479924160
  0
VERTEX
  8
0
  6
CONTINUOUS
 62
3
 10
130.216564313808220
 20
-86.421339071365381
  0
VERTEX
  8
0
  6
CONTINUOUS
 62
3
 10
130.015165877080450
 20
-89.347693855373109
  0
SEQEND
  8
0
  6
CONTINUOUS
 62
3
  0
LINE
  8
0
  6
CONTINUOUS
 62
3
 10
192.810784764027630
 20
-84.246821503507817
 11
192.810784764027630
 21
-73.646821503508363
  0
LINE
  8
0
  6
CONTINUOUS
 62
3
 10
192.410784764027540
 20
-73.246821503507817
 11
159.370592385163040
 21
-73.246821503507817
  0
LINE
  8
0
  6
CONTINUOUS
 62
3
 10
192.410784764027540
 20
-73.246821503507817
 11
159.370592385163040
 21
-73.246821503507817
  0
ARC
  8
0
  6
CONTINUOUS
 62
3
 10
192.410784764027540
 20
-73.646821503508363
 40
0.400000000000091
 50
0.000000000000000
 51
90.000000000000000
  0
LINE
  8
0
  6
CONTINUOUS
 62
3
 10
154.810784764027630
 20
-72.246821503507817
 11
156.410784764027540
 21
-72.246821503507817
  0
LINE
  8
0
  6
CONTINUOUS
 62
3
 10
156.810784764027630
 20
-84.246821503507817
 11
156.810784764027630
 21
-72.646821503508363
  0
LINE
  8
0
  6
CONTINUOUS
 62
3
 10
158.810784764027630
 20
-73.396821503508363
 11
157.610784764027360
 21
-73.396821503508363
  0
LINE
  8
0
  6
CONTINUOUS
 62
3
 10
159.370592385163040
 20
-73.246821503507817
 11
158.810784764027630
 21
-73.396821503508363
  0
LINE
  8
0
  6
CONTINUOUS
 62
3
 10
156.810784764027630
 20
-72.646821503508363
 11
156.410784764027540
 21
-72.246821503507817
  0
ARC
  8
0
  6
CONTINUOUS
 62
3
 10
157.610784764027360
 20
-72.596821503508181
 40
0.799999999999783
 50
183.703196634282420
 51
270.000000000000000
  0
LINE
  8
0
  6
CONTINUOUS
 62
3
 10
158.810784764027630
 20
-73.396821503508363
 11
157.610784764027360
 21
-73.396821503508363
  0
LINE
  8
0
  6
CONTINUOUS
 62
3
 10
159.370592385163040
 20
-73.246821503507817
 11
158.810784764027630
 21
-73.396821503508363
  0
LINE
  8
0
  6
CONTINUOUS
 62
3
 10
156.810784764027630
 20
-72.646821503508363
 11
156.410784764027540
 21
-72.246821503507817
  0
LINE
  8
0
  6
CONTINUOUS
 62
3
 10
154.810784764027630
 20
-72.246821503507817
 11
156.410784764027540
 21
-72.246821503507817
  0
LINE
  8
0
  6
CONTINUOUS
 62
3
 10
154.810784764027630
 20
-96.246821503507817
 11
156.410784764027540
 21
-96.246821503507817
  0
LINE
  8
0
  6
CONTINUOUS
 62
3
 10
156.810784764027630
 20
-84.246821503507817
 11
156.810784764027630
 21
-95.846821503508181
  0
LINE
  8
0
  6
CONTINUOUS
 62
3
 10
63.310784764028085
 20
-111.246821503507810
 11
63.310784764028085
 21
-153.258900662702220
  0
LINE
  8
0
  6
CONTINUOUS
 62
3
 10
158.810784764027630
 20
-95.096821503508181
 11
157.610784764027360
 21
-95.096821503508181
  0
LINE
  8
0
  6
CONTINUOUS
 62
3
 10
159.370592385163040
 20
-95.246821503507817
 11
158.810784764027630
 21
-95.096821503508181
  0
LINE
  8
0
  6
CONTINUOUS
 62
3
 10
156.810784764027630
 20
-95.846821503508181
 11
156.410784764027540
 21
-96.246821503507817
  0
LINE
  8
0
  6
CONTINUOUS
 62
3
 10
192.410784764027540
 20
-95.246821503507817
 11
159.370592385163040
 21
-95.246821503507817
  0
ARC
  8
0
  6
CONTINUOUS
 62
3
 10
157.610784764027360
 20
-95.896821503507454
 40
0.799999999999272
 50
90.000000000000000
 51
176.296803365782610
  0
LINE
  8
0
  6
CONTINUOUS
 62
3
 10
158.810784764027630
 20
-95.096821503508181
 11
157.610784764027360
 21
-95.096821503508181
  0
LINE
  8
0
  6
CONTINUOUS
 62
3
 10
159.370592385163040
 20
-95.246821503507817
 11
158.810784764027630
 21
-95.096821503508181
  0
LINE
  8
0
  6
CONTINUOUS
 62
3
 10
156.810784764027630
 20
-95.846821503508181
 11
156.410784764027540
 21
-96.246821503507817
  0
LINE
  8
0
  6
CONTINUOUS
 62
3
 10
66.310784764028085
 20
-42.146822075712407
 11
64.810784764028085
 21
-42.146822075712407
  0
ARC
  8
0
  6
CONTINUOUS
 62
3
 10
66.210784764028631
 20
-42.813638436265137
 40
0.100000000000364
 50
270.000000000000000
 51
0.000000000000000
  0
LINE
  8
0
  6
CONTINUOUS
 62
3
 10
66.310784764028085
 20
-42.813638436265137
 11
66.310784764028085
 21
-39.476111677491645
  0
LINE
  8
0
  6
CONTINUOUS
 62
3
 10
64.310784764028085
 20
-42.913638436265501
 11
66.210784764028631
 21
-42.913638436265501
  0
ARC
  8
0
  6
CONTINUOUS
 62
3
 10
66.210784764028631
 20
-39.476111677491645
 40
0.099999999999454
 50
0.000000000000000
 51
90.000000000000000
  0
LINE
  8
0
  6
CONTINUOUS
 62
3
 10
64.310784764028085
 20
-39.376111677491281
 11
66.210784764028631
 21
-39.376111677491281
  0
ARC
  8
0
  6
CONTINUOUS
 62
3
 10
66.210784764028176
 20
-112.396821503508360
 40
0.099999999999454
 50
270.000000000000000
 51
0.000000000000000
  0
LINE
  8
0
  6
CONTINUOUS
 62
3
 10
66.310784764028085
 20
-112.396821503508360
 11
66.310784764028085
 21
-100.096821503508180
  0
LINE
  8
0
  6
CONTINUOUS
 62
3
 10
64.310784764028085
 20
-112.496821503507810
 11
66.210784764028176
 21
-112.496821503507810
  0
ARC
  8
0
  6
CONTINUOUS
 62
3
 10
66.210784764028176
 20
-100.096821503508180
 40
0.099999999999909
 50
0.000000000000000
 51
90.000000000000000
  0
LINE
  8
0
  6
CONTINUOUS
 62
3
 10
64.310784764028085
 20
-99.996821503507817
 11
66.210784764028176
 21
-99.996821503507817
  0
LINE
  8
0
  6
CONTINUOUS
 62
3
 10
63.310784764028085
 20
-43.913638436265501
 11
63.310784764027630
 21
-101.246821503507810
  0
LINE
  8
0
  6
CONTINUOUS
 62
3
 10
60.310784764028085
 20
-51.354032679970146
 11
45.810784764028995
 21
-51.733728542723838
  0
LINE
  8
0
  6
CONTINUOUS
 62
3
 10
63.310784764028085
 20
-39.246821503507817
 11
63.310784764028085
 21
-43.246821503507817
  0
LINE
  8
0
  6
CONTINUOUS
 62
3
 10
64.810784764028085
 20
-42.913638436265501
 11
64.810784764028085
 21
-42.146822075712407
  0
LINE
  8
0
  6
CONTINUOUS
 62
3
 10
192.410784764027540
 20
-95.246821503507817
 11
159.370592385163040
 21
-95.246821503507817
  0
LINE
  8
0
  6
CONTINUOUS
 62
3
 10
154.810784764027630
 20
-96.246821503507817
 11
156.410784764027540
 21
-96.246821503507817
  0
LINE
  8
0
  6
CONTINUOUS
 62
3
 10
192.810784764027630
 20
-84.246821503507817
 11
192.810784764027630
 21
-94.846821503508181
  0
ARC
  8
0
  6
CONTINUOUS
 62
3
 10
192.410784764027540
 20
-94.846821503508181
 40
0.399999999999636
 50
270.000000000000000
 51
0.000000000000000
  0
ARC
  8
0
  6
CONTINUOUS
 62
3
 10
64.310784764028085
 20
-40.376111677491281
 40
1.000000000000000
 50
90.000000000000000
 51
180.000000000000000
  0
ARC
  8
0
  6
CONTINUOUS
 62
3
 10
64.310784764028085
 20
-43.913638436265501
 40
1.000000000000000
 50
90.000000000000000
 51
180.000000000000000
  0
ARC
  8
0
  6
CONTINUOUS
 62
3
 10
64.310784764028085
 20
-98.996821503507817
 40
1.000000000000000
 50
180.000000000000000
 51
270.000000000000000
  0
ARC
  8
0
  6
CONTINUOUS
 62
3
 10
64.310784764028085
 20
-113.496821503507810
 40
1.000000000000000
 50
90.000000000000000
 51
180.000000000000000
  0
ARC
  8
0
  6
CONTINUOUS
 62
3
 10
63.310784764028085
 20
-92.514770695938751
 40
1.000000000000000
 50
180.000000000000000
 51
240.000000000015750
  0
LINE
  8
0
  6
CONTINUOUS
 62
3
 10
62.310784764028085
 20
-77.978872311076884
 11
62.310784764028085
 21
-92.514770695938751
  0
ARC
  8
0
  6
CONTINUOUS
 62
3
 10
62.310784764028085
 20
-94.246821503507817
 40
1.000000000000000
 50
0.000000000000000
 51
59.999999999989690
  0
ARC
  8
0
  6
CONTINUOUS
 62
3
 10
63.310784764028085
 20
-77.978872311076884
 40
0.999999999999688
 50
120.000000000010300
 51
180.000000000000000
  0
ARC
  8
0
  6
CONTINUOUS
 62
3
 10
62.310784764028085
 20
-76.246821503507817
 40
1.000000000000476
 50
299.999999999984250
 51
0.000000000000000
  0
LINE
  8
0
  6
CONTINUOUS
 62
3
 10
45.810784764028995
 20
-51.746821503507817
 11
45.810784764028995
 21
-104.246821503507810
  0
LINE
  8
0
  6
CONTINUOUS
 62
3
 10
45.810784764028995
 20
-153.950783602324920
 11
45.810784764028995
 21
-104.246821503507810
  0
LINE
  8
0
  6
CONTINUOUS
 62
3
 10
72.310784764028995
 20
-146.300884417406450
 11
72.310784764028995
 21
-104.246821503507810
  0
LINE
  8
0
  6
CONTINUOUS
 62
3
 10
72.310784764028085
 20
-38.246821503507817
 11
72.310784764028085
 21
-104.246821503507810
  0
LINE
  8
0
  6
CONTINUOUS
 62
3
 10
64.310784764028085
 20
-38.246821503507817
 11
72.310784764028085
 21
-38.246821503507817
  0
ARC
  8
0
  6
CONTINUOUS
 62
3
 10
64.310784764028085
 20
-39.246821503507817
 40
1.000000000000000
 50
90.000000000000000
 51
180.000000000000000
  0
LINE
  8
0
  6
CONTINUOUS
 62
3
 10
311.078499955725420
 20
-81.246821503507817
 11
311.078499955725420
 21
-87.246821503507817
  0
ARC
  8
0
  6
CONTINUOUS
 62
3
 10
324.578499955725420
 20
-84.246821503507817
 40
11.000000000000037
 50
195.826620131872290
 51
164.173379868127710
  0
LINE
  8
0
  6
CONTINUOUS
 62
3
 10
317.078499955725420
 20
-87.246821503507817
 11
317.078499955725420
 21
-81.246821503507817
  0
LINE
  8
0
  6
CONTINUOUS
 62
3
 10
311.078499955725420
 20
-81.246821503507817
 11
317.078499955725420
 21
-81.246821503507817
  0
LINE
  8
0
  6
CONTINUOUS
 62
3
 10
311.078499955725420
 20
-87.246821503507817
 11
317.078499955725420
 21
-87.246821503507817
  0
CIRCLE
  8
0
  6
CONTINUOUS
 62
4
 10
324.578499955725420
 20
-84.246821503507817
 40
4.000000000000000
  0
LINE
  8
0
  6
CONTINUOUS
 62
3
 10
45.810784764028995
 20
-104.246821503507810
 11
45.810784764028995
 21
-51.746821503507817
  0
LINE
  8
0
  6
CONTINUOUS
 62
3
 10
45.810784764028995
 20
-104.246821503507810
 11
45.810784764028995
 21
-153.950783602325000
  0
LINE
  8
0
  6
CONTINUOUS
 62
4
 10
45.810784764028995
 20
-75.490425952870737
 11
63.310784764028085
 21
-75.490425952870737
  0
LINE
  8
0
  6
CONTINUOUS
 62
4
 10
45.810784764028995
 20
-76.969449106347838
 11
63.002022311918608
 21
-76.969449106347838
  0
LINE
  8
0
  6
CONTINUOUS
 62
4
 10
45.810784764028995
 20
-80.062180098013187
 11
62.310784764028085
 21
-80.062180098013187
  0
LINE
  8
0
  6
CONTINUOUS
 62
4
 10
45.810784764028995
 20
-81.408581823511668
 11
62.310784764028085
 21
-81.408581823511668
  0
LINE
  8
0
  6
CONTINUOUS
 62
4
 10
45.810784764028995
 20
-84.246821503507817
 11
62.310784764028085
 21
-84.246821503507817
  0
LINE
  8
0
  6
CONTINUOUS
 62
4
 10
45.810784764028995
 20
-72.532430344737804
 11
63.310784764028085
 21
-72.532430344737804
  0
LINE
  8
0
  6
CONTINUOUS
 62
4
 10
45.810784764028995
 20
-70.943220551999048
 11
63.310784764028085
 21
-70.943220551999048
  0
LINE
  8
0
  6
CONTINUOUS
 62
4
 10
45.810784764028995
 20
-133.003217054144900
 11
63.310784764028085
 21
-133.003217054144900
  0
LINE
  8
0
  6
CONTINUOUS
 62
4
 10
45.810784764028995
 20
-131.524193900667800
 11
63.310784764028085
 21
-131.524193900667800
  0
LINE
  8
0
  6
CONTINUOUS
 62
4
 10
45.810784764028995
 20
-128.431462909002450
 11
63.310784764028085
 21
-128.431462909002450
  0
LINE
  8
0
  6
CONTINUOUS
 62
4
 10
45.810784764028995
 20
-127.085061183503960
 11
63.310784764028085
 21
-127.085061183503960
  0
LINE
  8
0
  6
CONTINUOUS
 62
4
 10
45.810784764028995
 20
-124.246821503507810
 11
63.310784764028085
 21
-124.246821503507810
  0
LINE
  8
0
  6
CONTINUOUS
 62
4
 10
45.810784764028995
 20
-135.961212662277830
 11
63.310784764028085
 21
-135.961212662277830
  0
LINE
  8
0
  6
CONTINUOUS
 62
4
 10
45.810784764028995
 20
-137.550422455016590
 11
63.310784764028085
 21
-137.550422455016590
  0
ENDSEC
  0
EOF
