  0
SECTION
  2
HEADER
  9
$FILLMODE
 70
1
  9
$TEXTSTYLE
  7
STANDARD1
  9
$ACADVER
  1
AC1009
  9
$DIMASZ
 40
1.931851648807023
  9
$DIMEXE
 40
2.000000000000000
  9
$DIMEXO
 40
1.000000000000000
  9
$DIMLFAC
 40
1.000000000000000
  9
$DIMSCALE
 40
1.000000000000000
  9
$DIMTAD
 70
1
  9
$DIMTFAC
 40
0.714285731315613
  9
$DIMTXT
 40
3.200000047683716
  9
$LUPREC
 70
3
  9
$TEXTSIZE
 40
2.799999952316284
  9
$REGENMODE
 70
1
  0
ENDSEC
  0
SECTION
  2
TABLES
  0
TABLE
  2
LTYPE
 70
4
  0
LTYPE
  2
CONTINUOUS
 70
64
  3
Solid line
 72
65
 73
0
 40
0.0
  0
LTYPE
  2
DASHED
 70
64
  3
-- -- -- -- -- -- -- -- -- -- -- -- -- -- --
 72
65
 73
2
 40
0.75
 49
0.5
 49
-0.25
  0
LTYPE
  2
DASHDOT
 70
64
  3
__ . __ . __ . __ . __ . __ . __ . __ . __ . __
 72
65
 73
4
 40
1.0
 49
0.5
 49
-0.25
 49
0.0
 49
-0.25
  0
LTYPE
  2
DIVIDE
 70
64
  3
__ . . __ . . __ . . __ . . __ . . __ . . __
 72
65
 73
6
 40
1.25
 49
0.5
 49
-0.25
 49
0.0
 49
-0.25
 49
0.0
 49
-0.25
  0
ENDTAB
  0
TABLE
  2
LAYER
 70
1
  0
LAYER
  2
0
 70
64
 62
2
  6
CONTINUOUS
  0
ENDTAB
  0
TABLE
  2
STYLE
 70
4
  0
STYLE
  2
STANDARD1
 70
64
 40
0.0
 41
1.0
 50
0.0
 71
0
 42
2.799999952316284
  3
MONOTXT
  4
BIGFONT
  0
STYLE
  2
STANDARD2
 70
68
 40
0.0
 41
1.0
 50
0.0
 71
0
 42
2.799999952316284
  3
MONOTXT
  4
BIGFONT
  0
STYLE
  2
STANDARD3
 70
64
 40
0.0
 41
1.0
 50
0.0
 71
0
 42
2.799999952316284
  3
MONOTXT
  4

  0
STYLE
  2
STANDARD4
 70
68
 40
0.0
 41
1.0
 50
0.0
 71
0
 42
2.799999952316284
  3
MONOTXT
  4

  0
ENDTAB
  0
TABLE
  2
VIEW
 70
0
  0
ENDTAB
  0
ENDSEC
  0
SECTION
  2
BLOCKS
  0
BLOCK
  8
0
  2
SYM1
 70
64
 10
0.000000000000000
 20
0.000000000000000
  0
ARC
  8
0
  6
CONTINUOUS
 62
3
 10
6.399999618530273
 20
0.000000000000000
 40
9.000000000000000
 50
163.398451589674950
 51
196.601531107481040
  0
POINT
  8
0
  6
CONTINUOUS
 62
3
 10
0.000000000000000
 20
0.000000000000000
  0
LINE
  8
0
  6
CONTINUOUS
 62
3
 10
0.000000000000000
 20
-3.500000000000000
 11
-0.000000000000000
 21
3.500000000000000
  0
LINE
  8
0
  6
CONTINUOUS
 62
3
 10
0.000000000000000
 20
-3.500000000000000
 11
-0.000000000000000
 21
3.500000000000000
  0
LINE
  8
0
  6
CONTINUOUS
 62
3
 10
0.000000000000000
 20
3.500000000000000
 11
-0.979025304317474
 21
3.500000000000000
  0
LINE
  8
0
  6
CONTINUOUS
 62
3
 10
-0.000000000000000
 20
-3.500000000000000
 11
-0.979025304317474
 21
-3.500000000000000
  0
ARC
  8
0
  6
CONTINUOUS
 62
3
 10
-0.979025304317474
 20
2.200000762939453
 40
1.299999237060547
 50
90.000000000000000
 51
163.398451589674950
  0
ARC
  8
0
  6
CONTINUOUS
 62
3
 10
-0.979025304317474
 20
-2.200000762939453
 40
1.299999237060547
 50
196.601531107481040
 51
270.000000000000000
  0
ENDBLK
  8
0
  0
BLOCK
  8
0
  2
SYM2
 70
64
 10
0.000000000000000
 20
0.000000000000000
  0
CIRCLE
  8
0
  6
CONTINUOUS
 62
3
 10
0.000000000000000
 20
0.000000000000000
 40
5.000000000000000
  0
LINE
  8
0
  6
CONTINUOUS
 62
3
 10
4.989816965891634
 20
-2.892629271321994
 11
0.010171343047148
 21
-5.767622431692701
  0
LINE
  8
0
  6
CONTINUOUS
 62
3
 10
4.979648434603448
 20
2.874994693650046
 11
4.989821279270270
 21
-2.892629961559101
  0
LINE
  8
0
  6
CONTINUOUS
 62
3
 10
-0.010171198458579
 20
5.767622839547471
 11
4.979645433681753
 21
2.874994469174567
  0
LINE
  8
0
  6
CONTINUOUS
 62
3
 10
-4.989816965891634
 20
2.892629271321994
 11
-0.010171343047148
 21
5.767622431692701
  0
LINE
  8
0
  6
CONTINUOUS
 62
3
 10
-4.979648434603448
 20
-2.874994693650046
 11
-4.989821279270270
 21
2.892629961559101
  0
LINE
  8
0
  6
CONTINUOUS
 62
3
 10
0.010171198458579
 20
-5.767622839547471
 11
-4.979645433681753
 21
-2.874994469174567
  0
POINT
  8
0
  6
CONTINUOUS
 62
3
 10
0.000000000000000
 20
0.000000000000000
  0
ENDBLK
  8
0
  0
BLOCK
  8
0
  2
SYM3
 70
64
 10
0.000000000000000
 20
0.000000000000000
  0
CIRCLE
  8
0
  6
CONTINUOUS
 62
3
 10
0.000000000000000
 20
0.000000000000000
 40
5.000000000000000
  0
LINE
  8
0
  6
CONTINUOUS
 62
3
 10
4.989816965891634
 20
-2.892629271321994
 11
0.010171343047148
 21
-5.767622431692701
  0
LINE
  8
0
  6
CONTINUOUS
 62
3
 10
4.979648434603448
 20
2.874994693650046
 11
4.989821279270270
 21
-2.892629961559101
  0
LINE
  8
0
  6
CONTINUOUS
 62
3
 10
-0.010171198458579
 20
5.767622839547471
 11
4.979645433681753
 21
2.874994469174567
  0
LINE
  8
0
  6
CONTINUOUS
 62
3
 10
-4.989816965891634
 20
2.892629271321994
 11
-0.010171343047148
 21
5.767622431692701
  0
LINE
  8
0
  6
CONTINUOUS
 62
3
 10
-4.979648434603448
 20
-2.874994693650046
 11
-4.989821279270270
 21
2.892629961559101
  0
LINE
  8
0
  6
CONTINUOUS
 62
3
 10
0.010171198458579
 20
-5.767622839547471
 11
-4.979645433681753
 21
-2.874994469174567
  0
POINT
  8
0
  6
CONTINUOUS
 62
3
 10
0.000000000000000
 20
0.000000000000000
  0
ENDBLK
  8
0
  0
BLOCK
  8
0
  2
SYM4
 70
64
 10
0.000000000000000
 20
0.000000000000000
  0
CIRCLE
  8
0
  6
CONTINUOUS
 62
3
 10
0.000000000000000
 20
0.000000000000000
 40
5.633955001831055
  0
CIRCLE
  8
0
  6
CONTINUOUS
 62
3
 10
0.000000000000000
 20
0.000000000000000
 40
6.500000000000000
  0
POINT
  8
0
  6
CONTINUOUS
 62
3
 10
0.000000000000000
 20
0.000000000000000
  0
LINE
  8
0
  6
CONTINUOUS
 62
3
 10
-2.999996662140960
 20
-1.732045999551255
 11
-2.999997615815242
 21
1.732051977133316
  0
LINE
  8
0
  6
CONTINUOUS
 62
3
 10
2.999996662140697
 20
1.732046953225571
 11
2.999997615814979
 21
-1.732051023458999
  0
LINE
  8
0
  6
CONTINUOUS
 62
3
 10
0.000006701720849
 20
3.464096999935236
 11
-2.999997939551520
 21
1.732051821705568
  0
LINE
  8
0
  6
CONTINUOUS
 62
3
 10
2.999998112093635
 20
-1.732051392778772
 11
-0.000004464412200
 21
-3.464098365415111
  0
LINE
  8
0
  6
CONTINUOUS
 62
3
 10
0.000006618601731
 20
3.464096896385627
 11
2.999997425948948
 21
1.732046782136365
  0
LINE
  8
0
  6
CONTINUOUS
 62
3
 10
-0.000004704988612
 20
-3.464098175748802
 11
-2.999997577100373
 21
-1.732046218032735
  0
POINT
  8
0
  6
CONTINUOUS
 62
3
 10
0.500000119209290
 20
6.500000000000000
  0
POINT
  8
0
  6
CONTINUOUS
 62
3
 10
0.000000000000000
 20
5.633955001831055
  0
ENDBLK
  8
0
  0
BLOCK
  8
0
  2
SYM5
 70
64
 10
0.000000000000000
 20
0.000000000000000
  0
CIRCLE
  8
0
  6
CONTINUOUS
 62
3
 10
0.000000000000000
 20
0.000000000000000
 40
5.633955001831055
  0
CIRCLE
  8
0
  6
CONTINUOUS
 62
3
 10
0.000000000000000
 20
0.000000000000000
 40
6.500000000000000
  0
POINT
  8
0
  6
CONTINUOUS
 62
3
 10
0.000000000000000
 20
0.000000000000000
  0
LINE
  8
0
  6
CONTINUOUS
 62
3
 10
-2.999996662140960
 20
-1.732045999551255
 11
-2.999997615815242
 21
1.732051977133316
  0
LINE
  8
0
  6
CONTINUOUS
 62
3
 10
2.999996662140697
 20
1.732046953225571
 11
2.999997615814979
 21
-1.732051023458999
  0
LINE
  8
0
  6
CONTINUOUS
 62
3
 10
0.000006701720849
 20
3.464096999935236
 11
-2.999997939551520
 21
1.732051821705568
  0
LINE
  8
0
  6
CONTINUOUS
 62
3
 10
2.999998112093635
 20
-1.732051392778772
 11
-0.000004464412200
 21
-3.464098365415111
  0
LINE
  8
0
  6
CONTINUOUS
 62
3
 10
0.000006618601731
 20
3.464096896385627
 11
2.999997425948948
 21
1.732046782136365
  0
LINE
  8
0
  6
CONTINUOUS
 62
3
 10
-0.000004704988612
 20
-3.464098175748802
 11
-2.999997577100373
 21
-1.732046218032735
  0
POINT
  8
0
  6
CONTINUOUS
 62
3
 10
0.500000119209290
 20
6.500000000000000
  0
POINT
  8
0
  6
CONTINUOUS
 62
3
 10
0.000000000000000
 20
5.633955001831055
  0
ENDBLK
  8
0
  0
BLOCK
  8
0
  2
SYM6
 70
64
 10
0.000000000000000
 20
0.000000000000000
  0
CIRCLE
  8
0
  6
CONTINUOUS
 62
3
 10
0.000000000000000
 20
0.000000000000000
 40
5.633955001831055
  0
CIRCLE
  8
0
  6
CONTINUOUS
 62
3
 10
0.000000000000000
 20
0.000000000000000
 40
6.500000000000000
  0
POINT
  8
0
  6
CONTINUOUS
 62
3
 10
0.000000000000000
 20
0.000000000000000
  0
LINE
  8
0
  6
CONTINUOUS
 62
3
 10
-2.999996662140960
 20
-1.732045999551255
 11
-2.999997615815242
 21
1.732051977133316
  0
LINE
  8
0
  6
CONTINUOUS
 62
3
 10
2.999996662140697
 20
1.732046953225571
 11
2.999997615814979
 21
-1.732051023458999
  0
LINE
  8
0
  6
CONTINUOUS
 62
3
 10
0.000006701720849
 20
3.464096999935236
 11
-2.999997939551520
 21
1.732051821705568
  0
LINE
  8
0
  6
CONTINUOUS
 62
3
 10
2.999998112093635
 20
-1.732051392778772
 11
-0.000004464412200
 21
-3.464098365415111
  0
LINE
  8
0
  6
CONTINUOUS
 62
3
 10
0.000006618601731
 20
3.464096896385627
 11
2.999997425948948
 21
1.732046782136365
  0
LINE
  8
0
  6
CONTINUOUS
 62
3
 10
-0.000004704988612
 20
-3.464098175748802
 11
-2.999997577100373
 21
-1.732046218032735
  0
POINT
  8
0
  6
CONTINUOUS
 62
3
 10
0.500000119209290
 20
6.500000000000000
  0
POINT
  8
0
  6
CONTINUOUS
 62
3
 10
0.000000000000000
 20
5.633955001831055
  0
ENDBLK
  8
0
  0
BLOCK
  8
0
  2
SYM7
 70
64
 10
0.000000000000000
 20
0.000000000000000
  0
CIRCLE
  8
0
  6
CONTINUOUS
 62
3
 10
0.000000000000000
 20
0.000000000000000
 40
5.633955001831055
  0
CIRCLE
  8
0
  6
CONTINUOUS
 62
3
 10
0.000000000000000
 20
0.000000000000000
 40
6.500000000000000
  0
POINT
  8
0
  6
CONTINUOUS
 62
3
 10
0.000000000000000
 20
0.000000000000000
  0
LINE
  8
0
  6
CONTINUOUS
 62
3
 10
-2.999996662140960
 20
-1.732045999551255
 11
-2.999997615815242
 21
1.732051977133316
  0
LINE
  8
0
  6
CONTINUOUS
 62
3
 10
2.999996662140697
 20
1.732046953225571
 11
2.999997615814979
 21
-1.732051023458999
  0
LINE
  8
0
  6
CONTINUOUS
 62
3
 10
0.000006701720849
 20
3.464096999935236
 11
-2.999997939551520
 21
1.732051821705568
  0
LINE
  8
0
  6
CONTINUOUS
 62
3
 10
2.999998112093635
 20
-1.732051392778772
 11
-0.000004464412200
 21
-3.464098365415111
  0
LINE
  8
0
  6
CONTINUOUS
 62
3
 10
0.000006618601731
 20
3.464096896385627
 11
2.999997425948948
 21
1.732046782136365
  0
LINE
  8
0
  6
CONTINUOUS
 62
3
 10
-0.000004704988612
 20
-3.464098175748802
 11
-2.999997577100373
 21
-1.732046218032735
  0
POINT
  8
0
  6
CONTINUOUS
 62
3
 10
0.500000119209290
 20
6.500000000000000
  0
POINT
  8
0
  6
CONTINUOUS
 62
3
 10
0.000000000000000
 20
5.633955001831055
  0
ENDBLK
  8
0
  0
BLOCK
  8
0
  2
SYM8
 70
64
 10
0.000000000000000
 20
0.000000000000000
  0
CIRCLE
  8
0
  6
CONTINUOUS
 62
3
 10
0.000000000000000
 20
0.000000000000000
 40
5.633955001831055
  0
CIRCLE
  8
0
  6
CONTINUOUS
 62
3
 10
0.000000000000000
 20
0.000000000000000
 40
6.500000000000000
  0
POINT
  8
0
  6
CONTINUOUS
 62
3
 10
0.000000000000000
 20
0.000000000000000
  0
LINE
  8
0
  6
CONTINUOUS
 62
3
 10
-2.999996662140960
 20
-1.732045999551255
 11
-2.999997615815242
 21
1.732051977133316
  0
LINE
  8
0
  6
CONTINUOUS
 62
3
 10
2.999996662140697
 20
1.732046953225571
 11
2.999997615814979
 21
-1.732051023458999
  0
LINE
  8
0
  6
CONTINUOUS
 62
3
 10
0.000006701720849
 20
3.464096999935236
 11
-2.999997939551520
 21
1.732051821705568
  0
LINE
  8
0
  6
CONTINUOUS
 62
3
 10
2.999998112093635
 20
-1.732051392778772
 11
-0.000004464412200
 21
-3.464098365415111
  0
LINE
  8
0
  6
CONTINUOUS
 62
3
 10
0.000006618601731
 20
3.464096896385627
 11
2.999997425948948
 21
1.732046782136365
  0
LINE
  8
0
  6
CONTINUOUS
 62
3
 10
-0.000004704988612
 20
-3.464098175748802
 11
-2.999997577100373
 21
-1.732046218032735
  0
POINT
  8
0
  6
CONTINUOUS
 62
3
 10
0.500000119209290
 20
6.500000000000000
  0
POINT
  8
0
  6
CONTINUOUS
 62
3
 10
0.000000000000000
 20
5.633955001831055
  0
ENDBLK
  8
0
  0
BLOCK
  8
0
  2
SYM9
 70
64
 10
0.000000000000000
 20
0.000000000000000
  0
CIRCLE
  8
0
  6
CONTINUOUS
 62
3
 10
0.000000000000000
 20
0.000000000000000
 40
5.633955001831055
  0
CIRCLE
  8
0
  6
CONTINUOUS
 62
3
 10
0.000000000000000
 20
0.000000000000000
 40
6.500000000000000
  0
POINT
  8
0
  6
CONTINUOUS
 62
3
 10
0.000000000000000
 20
0.000000000000000
  0
LINE
  8
0
  6
CONTINUOUS
 62
3
 10
-2.999996662140960
 20
-1.732045999551255
 11
-2.999997615815242
 21
1.732051977133316
  0
LINE
  8
0
  6
CONTINUOUS
 62
3
 10
2.999996662140697
 20
1.732046953225571
 11
2.999997615814979
 21
-1.732051023458999
  0
LINE
  8
0
  6
CONTINUOUS
 62
3
 10
0.000006701720849
 20
3.464096999935236
 11
-2.999997939551520
 21
1.732051821705568
  0
LINE
  8
0
  6
CONTINUOUS
 62
3
 10
2.999998112093635
 20
-1.732051392778772
 11
-0.000004464412200
 21
-3.464098365415111
  0
LINE
  8
0
  6
CONTINUOUS
 62
3
 10
0.000006618601731
 20
3.464096896385627
 11
2.999997425948948
 21
1.732046782136365
  0
LINE
  8
0
  6
CONTINUOUS
 62
3
 10
-0.000004704988612
 20
-3.464098175748802
 11
-2.999997577100373
 21
-1.732046218032735
  0
POINT
  8
0
  6
CONTINUOUS
 62
3
 10
0.500000119209290
 20
6.500000000000000
  0
POINT
  8
0
  6
CONTINUOUS
 62
3
 10
0.000000000000000
 20
5.633955001831055
  0
ENDBLK
  8
0
  0
BLOCK
  8
0
  2
SYM10
 70
64
 10
0.000000000000000
 20
0.000000000000000
  0
POINT
  8
0
  6
CONTINUOUS
 62
3
 10
0.000000000000000
 20
0.000000000000000
  0
LINE
  8
0
  6
CONTINUOUS
 62
3
 10
-0.000027060931608
 20
-5.749995231614290
 11
-3.250020760774497
 21
-5.749981880178368
  0
LINE
  8
0
  6
CONTINUOUS
 62
3
 10
-3.250024308998832
 20
-5.749987011620533
 11
-4.000020133420207
 21
-4.899982163000686
  0
LINE
  8
0
  6
CONTINUOUS
 62
3
 10
-4.000014781949545
 20
-4.899978112209579
 11
-3.999973773958658
 21
4.900011588107803
  0
LINE
  8
0
  6
CONTINUOUS
 62
3
 10
-3.999972830514309
 20
4.900008662670757
 11
-3.249970339875063
 21
5.750006850331147
  0
LINE
  8
0
  6
CONTINUOUS
 62
3
 10
-3.249972343459831
 20
5.750005722029982
 11
0.000027906669402
 21
5.749993324257003
  0
LINE
  8
0
  6
CONTINUOUS
 62
3
 10
0.000023687533422
 20
5.749999046325684
 11
-0.000023687533422
 21
-5.749999046325684
  0
LINE
  8
0
  6
CONTINUOUS
 62
3
 10
-3.250009052584916
 20
-2.899986267083180
 11
-0.000013285950788
 21
-2.899999618524636
  0
LINE
  8
0
  6
CONTINUOUS
 62
3
 10
-3.249984168999890
 20
2.900012016287064
 11
0.000013133145058
 21
2.899999618522375
  0
ARC
  8
0
  6
CONTINUOUS
 62
3
 10
-2.270017623901367
 20
-4.324990272521973
 40
1.729999542236328
 50
124.499759285265280
 51
179.999745461767870
  0
ARC
  8
0
  6
CONTINUOUS
 62
3
 10
-2.269982337951660
 20
4.325008392333984
 40
1.729999542236328
 50
179.999745461767870
 51
235.499786279783790
  0
ARC
  8
0
  6
CONTINUOUS
 62
3
 10
1.981662750244141
 20
-0.000008163610801
 40
5.981661796569824
 50
150.999363302540700
 51
209.000072979481700
  0
ENDBLK
  8
0
  0
BLOCK
  8
0
  2
SYM11
 70
64
 10
0.000000000000000
 20
0.000000000000000
  0
POINT
  8
0
  6
CONTINUOUS
 62
3
 10
0.000000000000000
 20
0.000000000000000
  0
LINE
  8
0
  6
CONTINUOUS
 62
3
 10
-0.000027060931608
 20
-5.749995231614290
 11
-3.250020760774497
 21
-5.749981880178368
  0
LINE
  8
0
  6
CONTINUOUS
 62
3
 10
-3.250024308998832
 20
-5.749987011620533
 11
-4.000020133420207
 21
-4.899982163000686
  0
LINE
  8
0
  6
CONTINUOUS
 62
3
 10
-4.000014781949545
 20
-4.899978112209579
 11
-3.999973773958658
 21
4.900011588107803
  0
LINE
  8
0
  6
CONTINUOUS
 62
3
 10
-3.999972830514309
 20
4.900008662670757
 11
-3.249970339875063
 21
5.750006850331147
  0
LINE
  8
0
  6
CONTINUOUS
 62
3
 10
-3.249972343459831
 20
5.750005722029982
 11
0.000027906669402
 21
5.749993324257003
  0
LINE
  8
0
  6
CONTINUOUS
 62
3
 10
0.000023687533422
 20
5.749999046325684
 11
-0.000023687533422
 21
-5.749999046325684
  0
LINE
  8
0
  6
CONTINUOUS
 62
3
 10
-3.250009052584916
 20
-2.899986267083180
 11
-0.000013285950788
 21
-2.899999618524636
  0
LINE
  8
0
  6
CONTINUOUS
 62
3
 10
-3.249984168999890
 20
2.900012016287064
 11
0.000013133145058
 21
2.899999618522375
  0
ARC
  8
0
  6
CONTINUOUS
 62
3
 10
-2.270017623901367
 20
-4.324990272521973
 40
1.729999542236328
 50
124.499759285265280
 51
179.999745461767870
  0
ARC
  8
0
  6
CONTINUOUS
 62
3
 10
-2.269982337951660
 20
4.325008392333984
 40
1.729999542236328
 50
179.999745461767870
 51
235.499786279783790
  0
ARC
  8
0
  6
CONTINUOUS
 62
3
 10
1.981662750244141
 20
-0.000008163610801
 40
5.981661796569824
 50
150.999363302540700
 51
209.000072979481700
  0
ENDBLK
  8
0
  0
BLOCK
  8
0
  2
SYM12
 70
64
 10
0.000000000000000
 20
0.000000000000000
  0
POINT
  8
0
  6
CONTINUOUS
 62
3
 10
0.000000000000000
 20
0.000000000000000
  0
LINE
  8
0
  6
CONTINUOUS
 62
3
 10
0.000000000000000
 20
-6.500000000000000
 11
-0.000000000000000
 21
6.500000000000000
  0
LINE
  8
0
  6
CONTINUOUS
 62
3
 10
-7.999999046325684
 20
5.633875846862793
 11
-7.999999046325684
 21
-5.634070396423340
  0
LINE
  8
0
  6
CONTINUOUS
 62
3
 10
0.000000000000000
 20
6.500000000000000
 11
-7.499999046325684
 21
6.500000000000000
  0
LINE
  8
0
  6
CONTINUOUS
 62
3
 10
-0.000000000000000
 20
-6.500000000000000
 11
-7.499998092651367
 21
-6.500000000000000
  0
LINE
  8
0
  6
CONTINUOUS
 62
3
 10
-7.499999203818277
 20
6.499999909101064
 11
-7.999999021366804
 21
5.633876130311293
  0
LINE
  8
0
  6
CONTINUOUS
 62
3
 10
-7.499997911632022
 20
-6.499999445138201
 11
-7.999998623386432
 21
-5.634070287011241
  0
LINE
  8
0
  6
CONTINUOUS
 62
3
 10
-7.499999046325684
 20
6.500000000000000
 11
-7.499999046325684
 21
-6.500000000000000
  0
ENDBLK
  8
0
  0
BLOCK
  8
0
  2
SYM13
 70
64
 10
0.000000000000000
 20
0.000000000000000
  0
POINT
  8
0
  6
CONTINUOUS
 62
3
 10
0.000000000000000
 20
0.000000000000000
  0
LINE
  8
0
  6
CONTINUOUS
 62
3
 10
0.000000000000000
 20
-6.500000000000000
 11
-0.000000000000000
 21
6.500000000000000
  0
LINE
  8
0
  6
CONTINUOUS
 62
3
 10
-7.999999046325684
 20
5.633875846862793
 11
-7.999999046325684
 21
-5.634070396423340
  0
LINE
  8
0
  6
CONTINUOUS
 62
3
 10
0.000000000000000
 20
6.500000000000000
 11
-7.499999046325684
 21
6.500000000000000
  0
LINE
  8
0
  6
CONTINUOUS
 62
3
 10
-0.000000000000000
 20
-6.500000000000000
 11
-7.499998092651367
 21
-6.500000000000000
  0
LINE
  8
0
  6
CONTINUOUS
 62
3
 10
-7.499999203818277
 20
6.499999909101064
 11
-7.999999021366804
 21
5.633876130311293
  0
LINE
  8
0
  6
CONTINUOUS
 62
3
 10
-7.499997911632022
 20
-6.499999445138201
 11
-7.999998623386432
 21
-5.634070287011241
  0
LINE
  8
0
  6
CONTINUOUS
 62
3
 10
-7.499999046325684
 20
6.500000000000000
 11
-7.499999046325684
 21
-6.500000000000000
  0
ENDBLK
  8
0
  0
BLOCK
  8
0
  2
SYM14
 70
64
 10
0.000000000000000
 20
0.000000000000000
  0
POINT
  8
0
  6
CONTINUOUS
 62
3
 10
0.000000000000000
 20
0.000000000000000
  0
LINE
  8
0
  6
CONTINUOUS
 62
3
 10
-0.000027060931608
 20
-5.749995231614290
 11
-3.250020760774497
 21
-5.749981880178368
  0
LINE
  8
0
  6
CONTINUOUS
 62
3
 10
-3.250024308998832
 20
-5.749987011620533
 11
-4.000020133420207
 21
-4.899982163000686
  0
LINE
  8
0
  6
CONTINUOUS
 62
3
 10
-4.000014781949545
 20
-4.899978112209579
 11
-3.999973773958658
 21
4.900011588107803
  0
LINE
  8
0
  6
CONTINUOUS
 62
3
 10
-3.999972830514309
 20
4.900008662670757
 11
-3.249970339875063
 21
5.750006850331147
  0
LINE
  8
0
  6
CONTINUOUS
 62
3
 10
-3.249972343459831
 20
5.750005722029982
 11
0.000027906669402
 21
5.749993324257003
  0
LINE
  8
0
  6
CONTINUOUS
 62
3
 10
0.000023687533422
 20
5.749999046325684
 11
-0.000023687533422
 21
-5.749999046325684
  0
LINE
  8
0
  6
CONTINUOUS
 62
3
 10
-3.250009052584916
 20
-2.899986267083180
 11
-0.000013285950788
 21
-2.899999618524636
  0
LINE
  8
0
  6
CONTINUOUS
 62
3
 10
-3.249984168999890
 20
2.900012016287064
 11
0.000013133145058
 21
2.899999618522375
  0
ARC
  8
0
  6
CONTINUOUS
 62
3
 10
-2.270017623901367
 20
-4.324990272521973
 40
1.729999542236328
 50
124.499759285265280
 51
179.999745461767870
  0
ARC
  8
0
  6
CONTINUOUS
 62
3
 10
-2.269982337951660
 20
4.325008392333984
 40
1.729999542236328
 50
179.999745461767870
 51
235.499786279783790
  0
ARC
  8
0
  6
CONTINUOUS
 62
3
 10
1.981662750244141
 20
-0.000008163610801
 40
5.981661796569824
 50
150.999363302540700
 51
209.000072979481700
  0
ENDBLK
  8
0
  0
BLOCK
  8
0
  2
SYM15
 70
64
 10
0.000000000000000
 20
0.000000000000000
  0
POINT
  8
0
  6
CONTINUOUS
 62
3
 10
0.000000000000000
 20
0.000000000000000
  0
LINE
  8
0
  6
CONTINUOUS
 62
3
 10
-0.000027060931608
 20
-5.749995231614290
 11
-3.250020760774497
 21
-5.749981880178368
  0
LINE
  8
0
  6
CONTINUOUS
 62
3
 10
-3.250024308998832
 20
-5.749987011620533
 11
-4.000020133420207
 21
-4.899982163000686
  0
LINE
  8
0
  6
CONTINUOUS
 62
3
 10
-4.000014781949545
 20
-4.899978112209579
 11
-3.999973773958658
 21
4.900011588107803
  0
LINE
  8
0
  6
CONTINUOUS
 62
3
 10
-3.999972830514309
 20
4.900008662670757
 11
-3.249970339875063
 21
5.750006850331147
  0
LINE
  8
0
  6
CONTINUOUS
 62
3
 10
-3.249972343459831
 20
5.750005722029982
 11
0.000027906669402
 21
5.749993324257003
  0
LINE
  8
0
  6
CONTINUOUS
 62
3
 10
0.000023687533422
 20
5.749999046325684
 11
-0.000023687533422
 21
-5.749999046325684
  0
LINE
  8
0
  6
CONTINUOUS
 62
3
 10
-3.250009052584916
 20
-2.899986267083180
 11
-0.000013285950788
 21
-2.899999618524636
  0
LINE
  8
0
  6
CONTINUOUS
 62
3
 10
-3.249984168999890
 20
2.900012016287064
 11
0.000013133145058
 21
2.899999618522375
  0
ARC
  8
0
  6
CONTINUOUS
 62
3
 10
-2.270017623901367
 20
-4.324990272521973
 40
1.729999542236328
 50
124.499759285265280
 51
179.999745461767870
  0
ARC
  8
0
  6
CONTINUOUS
 62
3
 10
-2.269982337951660
 20
4.325008392333984
 40
1.729999542236328
 50
179.999745461767870
 51
235.499786279783790
  0
ARC
  8
0
  6
CONTINUOUS
 62
3
 10
1.981662750244141
 20
-0.000008163610801
 40
5.981661796569824
 50
150.999363302540700
 51
209.000072979481700
  0
ENDBLK
  8
0
  0
BLOCK
  8
0
  2
SYM16
 70
64
 10
0.000000000000000
 20
0.000000000000000
  0
POINT
  8
0
  6
CONTINUOUS
 62
3
 10
0.000000000000000
 20
0.000000000000000
  0
LINE
  8
0
  6
CONTINUOUS
 62
3
 10
0.000000000000000
 20
-6.500000000000000
 11
-0.000000000000000
 21
6.500000000000000
  0
LINE
  8
0
  6
CONTINUOUS
 62
3
 10
-7.999999046325684
 20
5.633875846862793
 11
-7.999999046325684
 21
-5.634070396423340
  0
LINE
  8
0
  6
CONTINUOUS
 62
3
 10
0.000000000000000
 20
6.500000000000000
 11
-7.499999046325684
 21
6.500000000000000
  0
LINE
  8
0
  6
CONTINUOUS
 62
3
 10
-0.000000000000000
 20
-6.500000000000000
 11
-7.499998092651367
 21
-6.500000000000000
  0
LINE
  8
0
  6
CONTINUOUS
 62
3
 10
-7.499999203818277
 20
6.499999909101064
 11
-7.999999021366804
 21
5.633876130311293
  0
LINE
  8
0
  6
CONTINUOUS
 62
3
 10
-7.499997911632022
 20
-6.499999445138201
 11
-7.999998623386432
 21
-5.634070287011241
  0
LINE
  8
0
  6
CONTINUOUS
 62
3
 10
-7.499999046325684
 20
6.500000000000000
 11
-7.499999046325684
 21
-6.500000000000000
  0
ENDBLK
  8
0
  0
BLOCK
  8
0
  2
SYM17
 70
64
 10
0.000000000000000
 20
0.000000000000000
  0
POINT
  8
0
  6
CONTINUOUS
 62
3
 10
0.000000000000000
 20
0.000000000000000
  0
LINE
  8
0
  6
CONTINUOUS
 62
3
 10
0.000000000000000
 20
-6.500000000000000
 11
-0.000000000000000
 21
6.500000000000000
  0
LINE
  8
0
  6
CONTINUOUS
 62
3
 10
-7.999999046325684
 20
5.633875846862793
 11
-7.999999046325684
 21
-5.634070396423340
  0
LINE
  8
0
  6
CONTINUOUS
 62
3
 10
0.000000000000000
 20
6.500000000000000
 11
-7.499999046325684
 21
6.500000000000000
  0
LINE
  8
0
  6
CONTINUOUS
 62
3
 10
-0.000000000000000
 20
-6.500000000000000
 11
-7.499998092651367
 21
-6.500000000000000
  0
LINE
  8
0
  6
CONTINUOUS
 62
3
 10
-7.499999203818277
 20
6.499999909101064
 11
-7.999999021366804
 21
5.633876130311293
  0
LINE
  8
0
  6
CONTINUOUS
 62
3
 10
-7.499997911632022
 20
-6.499999445138201
 11
-7.999998623386432
 21
-5.634070287011241
  0
LINE
  8
0
  6
CONTINUOUS
 62
3
 10
-7.499999046325684
 20
6.500000000000000
 11
-7.499999046325684
 21
-6.500000000000000
  0
ENDBLK
  8
0
  0
BLOCK
  8
0
  2
SYM18
 70
64
 10
0.000000000000000
 20
0.000000000000000
  0
POINT
  8
0
  6
CONTINUOUS
 62
3
 10
0.000000000000000
 20
0.000000000000000
  0
LINE
  8
0
  6
CONTINUOUS
 62
3
 10
0.000000000000000
 20
-6.500000000000000
 11
-0.000000000000000
 21
6.500000000000000
  0
LINE
  8
0
  6
CONTINUOUS
 62
3
 10
-7.999999046325684
 20
5.633875846862793
 11
-7.999999046325684
 21
-5.634070396423340
  0
LINE
  8
0
  6
CONTINUOUS
 62
3
 10
0.000000000000000
 20
6.500000000000000
 11
-7.499999046325684
 21
6.500000000000000
  0
LINE
  8
0
  6
CONTINUOUS
 62
3
 10
-0.000000000000000
 20
-6.500000000000000
 11
-7.499998092651367
 21
-6.500000000000000
  0
LINE
  8
0
  6
CONTINUOUS
 62
3
 10
-7.499999203818277
 20
6.499999909101064
 11
-7.999999021366804
 21
5.633876130311293
  0
LINE
  8
0
  6
CONTINUOUS
 62
3
 10
-7.499997911632022
 20
-6.499999445138201
 11
-7.999998623386432
 21
-5.634070287011241
  0
LINE
  8
0
  6
CONTINUOUS
 62
3
 10
-7.499999046325684
 20
6.500000000000000
 11
-7.499999046325684
 21
-6.500000000000000
  0
ENDBLK
  8
0
  0
BLOCK
  8
0
  2
SYM19
 70
64
 10
0.000000000000000
 20
0.000000000000000
  0
POINT
  8
0
  6
CONTINUOUS
 62
3
 10
0.000000000000000
 20
0.000000000000000
  0
LINE
  8
0
  6
CONTINUOUS
 62
3
 10
0.000000000000000
 20
-6.500000000000000
 11
-0.000000000000000
 21
6.500000000000000
  0
LINE
  8
0
  6
CONTINUOUS
 62
3
 10
-7.999999046325684
 20
5.633875846862793
 11
-7.999999046325684
 21
-5.634070396423340
  0
LINE
  8
0
  6
CONTINUOUS
 62
3
 10
0.000000000000000
 20
6.500000000000000
 11
-7.499999046325684
 21
6.500000000000000
  0
LINE
  8
0
  6
CONTINUOUS
 62
3
 10
-0.000000000000000
 20
-6.500000000000000
 11
-7.499998092651367
 21
-6.500000000000000
  0
LINE
  8
0
  6
CONTINUOUS
 62
3
 10
-7.499999203818277
 20
6.499999909101064
 11
-7.999999021366804
 21
5.633876130311293
  0
LINE
  8
0
  6
CONTINUOUS
 62
3
 10
-7.499997911632022
 20
-6.499999445138201
 11
-7.999998623386432
 21
-5.634070287011241
  0
LINE
  8
0
  6
CONTINUOUS
 62
3
 10
-7.499999046325684
 20
6.500000000000000
 11
-7.499999046325684
 21
-6.500000000000000
  0
ENDBLK
  8
0
  0
BLOCK
  8
0
  2
SYM20
 70
64
 10
0.000000000000000
 20
0.000000000000000
  0
ARC
  8
0
  6
CONTINUOUS
 62
3
 10
6.399999618530273
 20
0.000000000000000
 40
9.000000000000000
 50
163.398451589674950
 51
196.601531107481040
  0
POINT
  8
0
  6
CONTINUOUS
 62
3
 10
0.000000000000000
 20
0.000000000000000
  0
LINE
  8
0
  6
CONTINUOUS
 62
3
 10
0.000000000000000
 20
-3.500000000000000
 11
-0.000000000000000
 21
3.500000000000000
  0
LINE
  8
0
  6
CONTINUOUS
 62
3
 10
0.000000000000000
 20
-3.500000000000000
 11
-0.000000000000000
 21
3.500000000000000
  0
LINE
  8
0
  6
CONTINUOUS
 62
3
 10
0.000000000000000
 20
3.500000000000000
 11
-0.979025304317474
 21
3.500000000000000
  0
LINE
  8
0
  6
CONTINUOUS
 62
3
 10
-0.000000000000000
 20
-3.500000000000000
 11
-0.979025304317474
 21
-3.500000000000000
  0
ARC
  8
0
  6
CONTINUOUS
 62
3
 10
-0.979025304317474
 20
2.200000762939453
 40
1.299999237060547
 50
90.000000000000000
 51
163.398451589674950
  0
ARC
  8
0
  6
CONTINUOUS
 62
3
 10
-0.979025304317474
 20
-2.200000762939453
 40
1.299999237060547
 50
196.601531107481040
 51
270.000000000000000
  0
ENDBLK
  8
0
  0
ENDSEC
  0
SECTION
  2
ENTITIES
  0
LINE
  8
0
  6
CONTINUOUS
 62
3
 10
-346.479142317472110
 20
-171.851795734800500
 11
-345.992338925766490
 21
-172.338599126506130
  0
LINE
  8
0
  6
CONTINUOUS
 62
3
 10
-353.125945790885790
 20
-178.498599208214240
 11
-352.639142399180170
 21
-178.985402599919840
  0
LINE
  8
0
  6
CONTINUOUS
 62
3
 10
-346.166003708503300
 20
-172.104342685650890
 11
-352.843103010976220
 21
-178.781441988123820
  0
LINE
  8
0
  6
CONTINUOUS
 62
3
 10
-346.479142317472110
 20
-171.851795734800500
 11
-353.125945790885790
 21
-178.498599208214240
  0
POINT
  8
0
  6
CONTINUOUS
 62
3
 10
-349.802544054178950
 20
-175.175197471507370
  0
ARC
  8
0
  6
CONTINUOUS
 62
3
 10
-352.065285619105960
 20
-172.912455906580330
 40
6.099999427795406
 50
264.601927898108500
 51
5.398089404735109
  0
LINE
  8
0
  6
CONTINUOUS
 62
3
 10
-447.312569044933640
 20
-171.851795734800500
 11
-447.799372436639260
 21
-172.338599126506130
  0
LINE
  8
0
  6
CONTINUOUS
 62
3
 10
-440.665765571519960
 20
-178.498599208214240
 11
-441.152568963225580
 21
-178.985402599919840
  0
LINE
  8
0
  6
CONTINUOUS
 62
3
 10
-447.625707653902450
 20
-172.104342685650890
 11
-440.948608351429530
 21
-178.781441988123820
  0
LINE
  8
0
  6
CONTINUOUS
 62
3
 10
-447.312569044933640
 20
-171.851795734800500
 11
-440.665765571519960
 21
-178.498599208214240
  0
POINT
  8
0
  6
CONTINUOUS
 62
3
 10
-443.989167308226800
 20
-175.175197471507370
  0
ARC
  8
0
  6
CONTINUOUS
 62
3
 10
-441.726425743299790
 20
-172.912455906580330
 40
6.099999427795398
 50
174.601910595264880
 51
275.398072101891500
  0
LINE
  8
0
  6
CONTINUOUS
 62
3
 10
-447.312569044933640
 20
-84.311975954166158
 11
-447.799372436639260
 21
-83.825172562460537
  0
LINE
  8
0
  6
CONTINUOUS
 62
3
 10
-440.665765571519960
 20
-77.665172480752446
 11
-441.152568963225580
 21
-77.178369089046825
  0
LINE
  8
0
  6
CONTINUOUS
 62
3
 10
-447.625707653902450
 20
-84.059429003315785
 11
-440.948608351429530
 21
-77.382329700842874
  0
LINE
  8
0
  6
CONTINUOUS
 62
3
 10
-447.312569044933640
 20
-84.311975954166158
 11
-440.665765571519960
 21
-77.665172480752446
  0
POINT
  8
0
  6
CONTINUOUS
 62
3
 10
-443.989167308226800
 20
-80.988574217459302
  0
ARC
  8
0
  6
CONTINUOUS
 62
3
 10
-441.726425743299790
 20
-83.251315782386342
 40
6.099999427795419
 50
84.601927898108485
 51
185.398089404735120
  0
LINE
  8
0
  6
CONTINUOUS
 62
3
 10
-346.479142317472110
 20
-84.311975954166158
 11
-345.992338925766490
 21
-83.825172562460537
  0
LINE
  8
0
  6
CONTINUOUS
 62
3
 10
-353.125945790885790
 20
-77.665172480752446
 11
-352.639142399180170
 21
-77.178369089046825
  0
LINE
  8
0
  6
CONTINUOUS
 62
3
 10
-346.166003708503300
 20
-84.059429003315785
 11
-352.843103010976220
 21
-77.382329700842874
  0
LINE
  8
0
  6
CONTINUOUS
 62
3
 10
-346.479142317472110
 20
-84.311975954166158
 11
-353.125945790885790
 21
-77.665172480752446
  0
POINT
  8
0
  6
CONTINUOUS
 62
3
 10
-349.802544054178950
 20
-80.988574217459302
  0
ARC
  8
0
  6
CONTINUOUS
 62
3
 10
-352.065285619105960
 20
-83.251315782386342
 40
6.099999427795398
 50
354.601910595264880
 51
95.398072101891515
  0
ARC
  8
0
  6
CONTINUOUS
 62
3
 10
42.146486439840004
 20
-232.142107565168200
 40
3.000000000000000
 50
0.000000000000000
 51
38.927553831336432
  0
LINE
  8
0
  6
CONTINUOUS
 62
3
 10
4.589833673575953
 20
-180.868905538085640
 11
-11.353513560159996
 21
-180.590613376947660
  0
LINE
  8
0
  6
CONTINUOUS
 62
3
 10
0.146471085700881
 20
-169.081885844481230
 11
0.146471085700199
 21
-180.791346355614680
  0
ARC
  8
0
  6
CONTINUOUS
 62
3
 10
1.713215653293872
 20
-182.081885844481010
 40
3.000000000000041
 50
38.927553831334741
 51
90.000000000000000
  0
LINE
  8
0
  6
CONTINUOUS
 62
3
 10
44.480309643606660
 20
-230.257095826859650
 11
4.047038857060528
 21
-180.196874106172570
  0
LINE
  8
0
  6
CONTINUOUS
 62
3
 10
34.082264859466221
 20
-179.081885844481010
 11
6.035279262239413
 21
-179.081885844481010
  0
LINE
  8
0
  6
CONTINUOUS
 62
3
 10
41.146500265887624
 20
-205.445971297872570
 11
35.287034169422640
 21
-183.578146120638050
  0
LINE
  8
0
  6
CONTINUOUS
 62
3
 10
45.146486439840004
 20
-220.374122928635980
 11
43.206139254049930
 21
-213.132648646944290
  0
ARC
  8
0
  6
CONTINUOUS
 62
3
 10
-382.895855681202870
 20
-132.815284028667240
 40
80.000000000000014
 50
30.608391721920281
 51
85.339580615885211
  0
LINE
  8
0
  6
CONTINUOUS
 62
3
 10
-339.395855681202870
 20
-164.081885844483510
 11
-339.395855681202870
 21
-158.074384906745880
  0
LINE
  8
0
  6
CONTINUOUS
 62
3
 10
-340.895895198005060
 20
-164.081885844483280
 11
-339.395855681202870
 21
-164.081885844483280
  0
ARC
  8
0
  6
CONTINUOUS
 62
3
 10
-312.029190908260490
 20
-159.081885844483510
 40
5.000000000000000
 50
270.000000000000000
 51
353.967950853629650
  0
LINE
  8
0
  6
CONTINUOUS
 62
3
 10
-339.395855681202870
 20
-164.081885844483510
 11
-312.029190908260490
 21
-164.081885844483510
  0
LINE
  8
0
  6
CONTINUOUS
 62
3
 10
-304.895855681202870
 20
-130.581885844483510
 11
-305.406272528720590
 21
-130.581885844483510
  0
LINE
  8
0
  6
CONTINUOUS
 62
3
 10
-304.895855681202870
 20
-130.581885844483510
 11
-304.895855681202870
 21
-125.581885844483500
  0
LINE
  8
0
  6
CONTINUOUS
 62
3
 10
-304.895855681202870
 20
-125.581885844483280
 11
-305.406272528720590
 21
-125.581885844483280
  0
LINE
  8
0
  6
CONTINUOUS
 62
3
 10
-340.895895198005060
 20
-92.081885844483736
 11
-339.395855681202870
 21
-92.081885844483736
  0
LINE
  8
0
  6
CONTINUOUS
 62
3
 10
-339.395855681202870
 20
-98.093899990053274
 11
-339.395855681202870
 21
-92.081885844483736
  0
ARC
  8
0
  6
CONTINUOUS
 62
3
 10
-605.395855681202870
 20
-128.081885844483510
 40
300.000000000000060
 50
353.967950853630210
 51
6.032049146369772
  0
ARC
  8
0
  6
CONTINUOUS
 62
3
 10
-312.029190908260490
 20
-97.081885844483736
 40
5.000000000000143
 50
6.032049146370342
 51
90.000000000000000
  0
LINE
  8
0
  6
CONTINUOUS
 62
3
 10
-339.395855681202870
 20
-92.081885844483736
 11
-312.029190908260490
 21
-92.081885844483736
  0
CIRCLE
  8
0
  6
DASHED
 62
4
 10
-147.653528914289720
 20
44.418114155516491
 40
6.000000000000000
  0
ARC
  8
0
  6
DASHED
 62
4
 10
-147.653528914289720
 20
44.418114155516491
 40
7.000000000000000
 50
180.000000000000000
 51
0.000000000000000
  0
LINE
  8
0
  6
DASHED
 62
4
 10
-140.653528914289720
 20
64.418114155516491
 11
-140.653528914289720
 21
44.418114155516491
  0
LINE
  8
0
  6
DASHED
 62
4
 10
-154.653528914289720
 20
64.418114155516491
 11
-154.653528914289720
 21
44.418114155516491
  0
LINE
  8
0
  6
DASHDOT
 62
4
 10
-147.653528914289720
 20
35.418114155516491
 11
-147.653528914289720
 21
62.419713478066228
  0
LINE
  8
0
  6
DASHDOT
 62
4
 10
-138.653528914289720
 20
44.418114155516491
 11
-156.653528914289720
 21
44.418114155516491
  0
LINE
  8
0
  6
CONTINUOUS
 62
3
 10
45.146486439852396
 20
67.104114155516498
 11
77.646487393530222
 21
67.104114155516498
  0
LINE
  8
0
  6
CONTINUOUS
 62
3
 10
45.146486439852396
 20
83.752114155516495
 11
85.646486439854897
 21
83.752114155516495
  0
LINE
  8
0
  6
CONTINUOUS
 62
3
 10
45.146486439852396
 20
98.418114155516491
 11
85.646486439853973
 21
98.418114155516491
  0
LINE
  8
0
  6
CONTINUOUS
 62
3
 10
45.146486439852396
 20
176.732114155516480
 11
77.646487393530222
 21
176.732114155516480
  0
LINE
  8
0
  6
CONTINUOUS
 62
3
 10
45.146486439852396
 20
160.084114155516490
 11
85.646486439854897
 21
160.084114155516490
  0
LINE
  8
0
  6
CONTINUOUS
 62
3
 10
45.146486439852396
 20
145.418114155516490
 11
85.646486439853973
 21
145.418114155516490
  0
ARC
  8
0
  6
CONTINUOUS
 62
3
 10
-451.210058207690740
 20
-85.948084247697579
 40
3.000000000000060
 50
73.284866328917929
 51
127.529310569733240
  0
ARC
  8
0
  6
CONTINUOUS
 62
3
 10
-410.395855681202870
 20
-139.081885844485730
 40
70.000000000000099
 50
127.529310569732630
 51
135.181622685887760
  0
ARC
  8
0
  6
CONTINUOUS
 62
4
 10
-359.905788443056510
 20
-100.018129213467830
 40
10.797000000000011
 50
5.752282731536912
 51
44.999999999998295
  0
ARC
  8
0
  6
CONTINUOUS
 62
3
 10
-359.905788443056510
 20
-100.018129213467830
 40
20.599999999999916
 50
5.752282731536487
 51
44.999999999997321
  0
ARC
  8
0
  6
CONTINUOUS
 62
3
 10
-359.905788443056510
 20
-156.145642475499070
 40
20.600000000000069
 50
315.000000000002670
 51
354.247717268463480
  0
ARC
  8
0
  6
CONTINUOUS
 62
3
 10
-433.885922919349240
 20
-156.145642475499070
 40
20.599999999999916
 50
185.752282731536500
 51
224.999999999997330
  0
ARC
  8
0
  6
CONTINUOUS
 62
3
 10
-433.885922919349240
 20
-100.018129213467830
 40
20.600000000000069
 50
135.000000000002670
 51
174.247717268463500
  0
LINE
  8
0
  6
CONTINUOUS
 62
3
 10
-345.339388750612900
 20
-85.451729521025584
 11
-352.798083925283890
 21
-77.993034346353909
  0
LINE
  8
0
  6
CONTINUOUS
 62
3
 10
-345.339388750612900
 20
-170.712042167941320
 11
-352.798083925283890
 21
-178.170737342612990
  0
LINE
  8
0
  6
CONTINUOUS
 62
3
 10
-448.452322611792850
 20
-170.712042167941320
 11
-440.993627437121860
 21
-178.170737342612990
  0
LINE
  8
0
  6
CONTINUOUS
 62
3
 10
-448.452322611792850
 20
-85.451729521025584
 11
-440.993627437121860
 21
-77.993034346353909
  0
ARC
  8
0
  6
CONTINUOUS
 62
3
 10
-393.395855681202870
 20
-110.425442261473840
 40
1.000000000000000
 50
180.000000000000000
 51
258.787728582356010
  0
LINE
  8
0
  6
CONTINUOUS
 62
3
 10
-394.395855681202870
 20
-107.375606603634930
 11
-394.395855681202870
 21
-110.425442261473840
  0
ARC
  8
0
  6
CONTINUOUS
 62
3
 10
-393.395855681202870
 20
-107.375606603634930
 40
1.000000000000268
 50
80.405931773124522
 51
180.000000000000000
  0
ARC
  8
0
  6
CONTINUOUS
 62
3
 10
-393.395855681202870
 20
-101.814034771356140
 40
1.000000000000000
 50
179.999999999986980
 51
262.410457608144040
  0
LINE
  8
0
  6
CONTINUOUS
 62
3
 10
-394.395855681202870
 20
-98.790248812729772
 11
-394.395855681202870
 21
-101.814034771355920
  0
ARC
  8
0
  6
CONTINUOUS
 62
3
 10
-393.395855681202870
 20
-98.790248812729772
 40
1.000000000000077
 50
83.186145655820312
 51
180.000000000000000
  0
ARC
  8
0
  6
CONTINUOUS
 62
3
 10
-393.395855681202870
 20
-93.257325545751712
 40
1.000000000000000
 50
180.000000000000000
 51
264.260829522738280
  0
LINE
  8
0
  6
CONTINUOUS
 62
3
 10
-394.395855681202870
 20
-90.243413359458430
 11
-394.395855681202870
 21
-93.257325545751712
  0
ARC
  8
0
  6
CONTINUOUS
 62
3
 10
-393.395855681202870
 20
-90.243413359458430
 40
1.000000000000042
 50
84.715267045464302
 51
180.000000000000000
  0
ARC
  8
0
  6
CONTINUOUS
 62
3
 10
-373.278553893271010
 20
-110.404978415361080
 40
1.000000000000082
 50
299.999999999997270
 51
36.813854344186687
  0
LINE
  8
0
  6
CONTINUOUS
 62
3
 10
-372.778553893271010
 20
-111.271003819145610
 11
-375.397229349048530
 21
-112.782896798458800
  0
ARC
  8
0
  6
CONTINUOUS
 62
3
 10
-375.897229349048530
 20
-111.916871394674270
 40
0.999999999999834
 50
217.589542391867670
 51
299.999999999997270
  0
ARC
  8
0
  6
CONTINUOUS
 62
3
 10
-365.876777268772680
 20
-106.131560688725410
 40
0.999999999999885
 50
300.000000000003810
 51
35.284732954544943
  0
LINE
  8
0
  6
CONTINUOUS
 62
3
 10
-365.376777268772680
 20
-106.997586092509720
 11
-367.986901786878430
 21
-108.504542185656470
  0
ARC
  8
0
  6
CONTINUOUS
 62
3
 10
-368.486901786878430
 20
-107.638516781872170
 40
0.999999999999940
 50
215.739170477274090
 51
300.000000000003810
  0
ARC
  8
0
  6
CONTINUOUS
 62
3
 10
-390.997326410813680
 20
-120.634916498073890
 40
0.999999999999961
 50
231.618272422159780
 51
299.999999999997270
  0
LINE
  8
0
  6
CONTINUOUS
 62
3
 10
-387.753550835789380
 20
-119.916822335022340
 11
-390.497326410813680
 21
-121.500941901858420
  0
ARC
  8
0
  6
CONTINUOUS
 62
3
 10
-383.354926997830030
 20
-116.222575139733230
 40
0.999999999999673
 50
221.212271417651210
 51
300.000000000003810
  0
LINE
  8
0
  6
CONTINUOUS
 62
3
 10
-380.213691840773890
 20
-115.563682714597970
 11
-382.854926997830030
 21
-117.088600543517540
  0
ARC
  8
0
  6
CONTINUOUS
 62
3
 10
-380.713691840773890
 20
-114.697657310813440
 40
1.000000000000082
 50
299.999999999997270
 51
39.594068226850403
  0
ARC
  8
0
  6
CONTINUOUS
 62
3
 10
-393.395855681202870
 20
-119.250124978155610
 40
1.000000000000000
 50
180.000000000000000
 51
248.381727577838030
  0
ARC
  8
0
  6
CONTINUOUS
 62
3
 10
-396.895855681202870
 20
-128.081885844483450
 40
8.500000000000128
 50
51.618272422158320
 51
68.381727577842284
  0
ARC
  8
0
  6
CONTINUOUS
 62
3
 10
-388.253550835789380
 20
-119.050796931238040
 40
0.999999999999885
 50
300.000000000003810
 51
46.260204708328693
  0
LINE
  8
0
  6
CONTINUOUS
 62
3
 10
-394.395855681202870
 20
-116.081885844483450
 11
-394.395855681202870
 21
-119.250124978155610
  0
ARC
  8
0
  6
CONTINUOUS
 62
3
 10
-393.395855681202870
 20
-116.081885844483450
 40
0.999999999999964
 50
73.739795291702634
 51
180.000000000000000
  0
ARC
  8
0
  6
CONTINUOUS
 62
3
 10
-396.895855681202870
 20
-128.081885844483450
 40
13.499999999999927
 50
46.260204708312145
 51
73.739795291689134
  0
ARC
  8
0
  6
CONTINUOUS
 62
3
 10
-396.895855681202870
 20
-128.081885844483450
 40
17.000000000000114
 50
41.212271417649760
 51
78.787728582349985
  0
ARC
  8
0
  6
CONTINUOUS
 62
3
 10
-396.895855681202870
 20
-128.081885844483450
 40
22.000000000000025
 50
39.594068226860820
 51
80.405931773138789
  0
ARC
  8
0
  6
CONTINUOUS
 62
3
 10
-396.895855681202870
 20
-128.081885844483450
 40
30.499999999999964
 50
36.813854344181067
 51
83.186145655818962
  0
ARC
  8
0
  6
CONTINUOUS
 62
3
 10
-396.895855681202870
 20
-128.081885844483450
 40
25.499999999999890
 50
37.589542391857961
 51
82.410457608141883
  0
ARC
  8
0
  6
CONTINUOUS
 62
3
 10
-396.895855681202870
 20
-128.081885844483450
 40
33.999999999999829
 50
35.739170477266640
 51
84.260829522733076
  0
ARC
  8
0
  6
CONTINUOUS
 62
3
 10
-396.895855681202870
 20
-128.081885844483450
 40
38.999999999999865
 50
35.284732954534789
 51
84.715267045465410
  0
ARC
  8
0
  6
CONTINUOUS
 62
3
 10
-369.778553893271010
 20
-116.467156241852130
 40
0.999999999999730
 50
23.186145655819850
 51
119.999999999997270
  0
LINE
  8
0
  6
CONTINUOUS
 62
3
 10
-370.278553893271010
 20
-115.601130838067600
 11
-372.897229349048530
 21
-117.113023817380790
  0
ARC
  8
0
  6
CONTINUOUS
 62
3
 10
-372.397229349048530
 20
-117.979049221165320
 40
1.000000000000082
 50
119.999999999997270
 51
202.410457608146060
  0
ARC
  8
0
  6
CONTINUOUS
 62
3
 10
-362.376777268772680
 20
-112.193738515216460
 40
1.000000000000248
 50
24.715267045455477
 51
119.999999999997270
  0
LINE
  8
0
  6
CONTINUOUS
 62
3
 10
-362.876777268772680
 20
-111.327713111431930
 11
-365.486901786878430
 21
-112.834669204578680
  0
ARC
  8
0
  6
CONTINUOUS
 62
3
 10
-364.986901786878430
 20
-113.700694608362990
 40
0.999999999999885
 50
120.000000000003780
 51
204.260829522745610
  0
ARC
  8
0
  6
CONTINUOUS
 62
3
 10
-387.497326410813680
 20
-126.697094324565170
 40
1.000000000000082
 50
119.999999999997270
 51
188.381727577832660
  0
LINE
  8
0
  6
CONTINUOUS
 62
3
 10
-385.253550835789380
 20
-124.246949353944550
 11
-387.997326410813680
 21
-125.831068920780630
  0
ARC
  8
0
  6
CONTINUOUS
 62
3
 10
-379.854926997830030
 20
-122.284752966224280
 40
1.000000000000082
 50
119.999999999997270
 51
198.787728582347000
  0
LINE
  8
0
  6
CONTINUOUS
 62
3
 10
-377.713691840773440
 20
-119.893809733520410
 11
-380.354926997830030
 21
-121.418727562439750
  0
ARC
  8
0
  6
CONTINUOUS
 62
3
 10
-377.213691840773440
 20
-120.759835137304710
 40
1.000000000000094
 50
20.405931773138686
 51
120.000000000003780
  0
ARC
  8
0
  6
CONTINUOUS
 62
3
 10
-387.497326410813680
 20
-129.466677364401960
 40
1.000000000000059
 50
171.618272422154460
 51
239.999999999996220
  0
ARC
  8
0
  6
CONTINUOUS
 62
3
 10
-396.895855681202870
 20
-128.081885844483450
 40
8.499999999999972
 50
351.618272422157820
 51
8.381727577842204
  0
ARC
  8
0
  6
CONTINUOUS
 62
3
 10
-384.753550835789380
 20
-125.112974757728860
 40
0.999999999999879
 50
13.739795291686027
 51
120.000000000003780
  0
LINE
  8
0
  6
CONTINUOUS
 62
3
 10
-385.253550835789380
 20
-131.916822335022350
 11
-387.997326410813680
 21
-130.332702768186270
  0
ARC
  8
0
  6
CONTINUOUS
 62
3
 10
-384.753550835789380
 20
-131.050796931238040
 40
0.999999999999885
 50
239.999999999996220
 51
346.260204708314010
  0
ARC
  8
0
  6
CONTINUOUS
 62
3
 10
-396.895855681202870
 20
-128.081885844483450
 40
13.500000000000130
 50
346.260204708311850
 51
13.739795291688171
  0
ARC
  8
0
  6
CONTINUOUS
 62
3
 10
-379.854926997830030
 20
-133.879018722742610
 40
0.999999999999646
 50
161.212271417644620
 51
239.999999999996220
  0
LINE
  8
0
  6
CONTINUOUS
 62
3
 10
-377.713691840773440
 20
-136.269961955446490
 11
-380.354926997830030
 21
-134.745044126526920
  0
ARC
  8
0
  6
CONTINUOUS
 62
3
 10
-396.895855681202870
 20
-128.081885844483450
 40
17.000000000000146
 50
341.212271417650070
 51
18.787728582350418
  0
ARC
  8
0
  6
CONTINUOUS
 62
3
 10
-377.213691840773440
 20
-135.403936551662180
 40
0.999999999999885
 50
239.999999999996220
 51
339.594068226861340
  0
ARC
  8
0
  6
CONTINUOUS
 62
3
 10
-372.397229349048530
 20
-138.184722467801810
 40
0.999999999999701
 50
157.589542391853940
 51
240.000000000002730
  0
ARC
  8
0
  6
CONTINUOUS
 62
3
 10
-364.986901786878430
 20
-142.463077080603680
 40
0.999999999999769
 50
155.739170477266270
 51
240.000000000002730
  0
ARC
  8
0
  6
CONTINUOUS
 62
3
 10
-396.895855681202870
 20
-128.081885844483450
 40
22.000000000000206
 50
339.594068226860770
 51
20.405931773139226
  0
LINE
  8
0
  6
CONTINUOUS
 62
3
 10
-370.278553893271010
 20
-140.562640850899300
 11
-372.897229349048530
 21
-139.050747871586340
  0
ARC
  8
0
  6
CONTINUOUS
 62
3
 10
-369.778553893271010
 20
-139.696615447114770
 40
1.000000000000082
 50
240.000000000002730
 51
336.813854344180130
  0
ARC
  8
0
  6
CONTINUOUS
 62
3
 10
-396.895855681202870
 20
-128.081885844483450
 40
30.499999999999947
 50
336.813854344181150
 51
23.186145655818844
  0
ARC
  8
0
  6
CONTINUOUS
 62
3
 10
-396.895855681202870
 20
-128.081885844483450
 40
25.500000000000085
 50
337.589542391857490
 51
22.410457608142021
  0
ARC
  8
0
  6
CONTINUOUS
 62
3
 10
-396.895855681202870
 20
-128.081885844483450
 40
34.000000000000007
 50
335.739170477266780
 51
24.260829522733218
  0
ARC
  8
0
  6
CONTINUOUS
 62
3
 10
-396.895855681202870
 20
-128.081885844483450
 40
39.000000000000220
 50
335.284732954534830
 51
24.715267045465190
  0
LINE
  8
0
  6
CONTINUOUS
 62
3
 10
-362.876777268772680
 20
-144.836058577534740
 11
-365.486901786878430
 21
-143.329102484388220
  0
ARC
  8
0
  6
CONTINUOUS
 62
3
 10
-362.376777268772680
 20
-143.970033173750440
 40
0.999999999999885
 50
239.999999999996220
 51
335.284732954544490
  0
CIRCLE
  8
0
  6
CONTINUOUS
 62
3
 10
-396.895855681202870
 20
-128.081885844483450
 40
5.000000000000000
  0
ARC
  8
0
  6
CONTINUOUS
 62
3
 10
-365.876777268772680
 20
-150.032211000241720
 40
0.999999999999776
 50
324.715267045465680
 51
60.000000000002721
  0
ARC
  8
0
  6
CONTINUOUS
 62
3
 10
-368.486901786878430
 20
-148.525254907094730
 40
0.999999999999885
 50
59.999999999996206
 51
144.260829522736490
  0
ARC
  8
0
  6
CONTINUOUS
 62
3
 10
-393.395855681202870
 20
-162.906446143215190
 40
0.999999999999973
 50
95.739170477261709
 51
180.000000000000000
  0
ARC
  8
0
  6
CONTINUOUS
 62
3
 10
-393.395855681202870
 20
-165.920358329508470
 40
1.000000000000000
 50
180.000000000000000
 51
275.284732954535740
  0
ARC
  8
0
  6
CONTINUOUS
 62
3
 10
-393.395855681202870
 20
-154.349736917610760
 40
0.999999999999975
 50
97.589542391854238
 51
180.000000000000000
  0
ARC
  8
0
  6
CONTINUOUS
 62
3
 10
-373.278553893271010
 20
-145.758793273605590
 40
0.999999999999911
 50
323.186145655802870
 51
59.999999999996206
  0
ARC
  8
0
  6
CONTINUOUS
 62
3
 10
-375.897229349048080
 20
-144.246900294292630
 40
1.000000000000082
 50
60.000000000002721
 51
142.410457608148220
  0
ARC
  8
0
  6
CONTINUOUS
 62
3
 10
-393.395855681202870
 20
-157.373522876237130
 40
1.000000000000000
 50
180.000000000000000
 51
276.813854344179670
  0
ARC
  8
0
  6
CONTINUOUS
 62
3
 10
-393.395855681202870
 20
-148.788165085331970
 40
1.000000000000000
 50
180.000000000000000
 51
279.594068226875490
  0
ARC
  8
0
  6
CONTINUOUS
 62
3
 10
-393.395855681202870
 20
-145.738329427493060
 40
0.999999999999982
 50
101.212271417644000
 51
180.000000000000000
  0
ARC
  8
0
  6
CONTINUOUS
 62
3
 10
-380.713691840773890
 20
-141.466114378153240
 40
1.000000000000318
 50
320.405931773139570
 51
59.999999999996206
  0
ARC
  8
0
  6
CONTINUOUS
 62
3
 10
-383.354926997830030
 20
-139.941196549233890
 40
1.000000000000082
 50
60.000000000002721
 51
138.787728582338990
  0
ARC
  8
0
  6
CONTINUOUS
 62
3
 10
-388.253550835789380
 20
-137.112974757728860
 40
0.999999999999858
 50
313.739795291671330
 51
59.999999999996206
  0
ARC
  8
0
  6
CONTINUOUS
 62
3
 10
-393.395855681202870
 20
-140.081885844483450
 40
1.000000000000000
 50
180.000000000000000
 51
286.260204708297350
  0
ARC
  8
0
  6
CONTINUOUS
 62
3
 10
-393.395855681202870
 20
-136.913646710811290
 40
1.000000000000090
 50
111.618272422161970
 51
180.000000000000000
  0
ARC
  8
0
  6
CONTINUOUS
 62
3
 10
-390.997326410813680
 20
-135.528855190892780
 40
0.999999999999885
 50
59.999999999996206
 51
128.381727577840220
  0
ARC
  8
0
  6
CONTINUOUS
 62
3
 10
-396.895855681202870
 20
-128.081885844483450
 40
38.999999999999986
 50
275.284732954534600
 51
324.715267045465230
  0
ARC
  8
0
  6
CONTINUOUS
 62
3
 10
-396.895855681202870
 20
-128.081885844483450
 40
30.500000000000135
 50
276.813854344181040
 51
323.186145655818900
  0
ARC
  8
0
  6
CONTINUOUS
 62
3
 10
-396.895855681202870
 20
-128.081885844483450
 40
34.000000000000071
 50
275.739170477266950
 51
324.260829522733050
  0
ARC
  8
0
  6
CONTINUOUS
 62
3
 10
-396.895855681202870
 20
-128.081885844483450
 40
25.499999999999932
 50
277.589542391858170
 51
322.410457608142050
  0
ARC
  8
0
  6
CONTINUOUS
 62
3
 10
-396.895855681202870
 20
-128.081885844483450
 40
22.000000000000131
 50
279.594068226861170
 51
320.405931773139170
  0
ARC
  8
0
  6
CONTINUOUS
 62
3
 10
-396.895855681202870
 20
-128.081885844483450
 40
17.000000000000046
 50
281.212271417650020
 51
318.787728582350210
  0
ARC
  8
0
  6
CONTINUOUS
 62
3
 10
-396.895855681202870
 20
-128.081885844483450
 40
13.499999999999963
 50
286.260204708310820
 51
313.739795291687870
  0
ARC
  8
0
  6
CONTINUOUS
 62
3
 10
-396.895855681202870
 20
-128.081885844483450
 40
8.499999999999904
 50
291.618272422157700
 51
308.381727577842640
  0
LINE
  8
0
  6
CONTINUOUS
 62
3
 10
-372.778553893271010
 20
-144.892767869821280
 11
-375.397229349048080
 21
-143.380874890508100
  0
LINE
  8
0
  6
CONTINUOUS
 62
3
 10
-394.395855681202870
 20
-165.920358329508470
 11
-394.395855681202870
 21
-162.906446143215190
  0
LINE
  8
0
  6
CONTINUOUS
 62
3
 10
-365.376777268772680
 20
-149.166185596457180
 11
-367.986901786878430
 21
-147.659229503310430
  0
LINE
  8
0
  6
CONTINUOUS
 62
3
 10
-380.213691840773890
 20
-140.600088974368930
 11
-382.854926997830030
 21
-139.075171145449360
  0
LINE
  8
0
  6
CONTINUOUS
 62
3
 10
-387.753550835789380
 20
-136.246949353944560
 11
-390.497326410813680
 21
-134.662829787108480
  0
LINE
  8
0
  6
CONTINUOUS
 62
3
 10
-394.395855681202870
 20
-140.081885844483450
 11
-394.395855681202870
 21
-136.913646710811290
  0
LINE
  8
0
  6
CONTINUOUS
 62
3
 10
-394.395855681202870
 20
-148.788165085331970
 11
-394.395855681202870
 21
-145.738329427493060
  0
LINE
  8
0
  6
CONTINUOUS
 62
3
 10
-394.395855681202870
 20
-157.373522876237130
 11
-394.395855681202870
 21
-154.349736917610760
  0
ARC
  8
0
  6
CONTINUOUS
 62
3
 10
-396.895855681202870
 20
-128.081885844483450
 40
39.000000000000220
 50
155.284732954534800
 51
204.715267045465200
  0
ARC
  8
0
  6
CONTINUOUS
 62
3
 10
-396.895855681202870
 20
-128.081885844483450
 40
34.000000000000007
 50
155.739170477266780
 51
204.260829522733220
  0
ARC
  8
0
  6
CONTINUOUS
 62
3
 10
-396.895855681202870
 20
-128.081885844483450
 40
25.500000000000000
 50
157.589542391857980
 51
202.410457608142480
  0
ARC
  8
0
  6
CONTINUOUS
 62
3
 10
-396.895855681202870
 20
-128.081885844483450
 40
30.499999999999947
 50
156.813854344181150
 51
203.186145655818850
  0
ARC
  8
0
  6
CONTINUOUS
 62
3
 10
-396.895855681202870
 20
-128.081885844483450
 40
22.000000000000206
 50
159.594068226860770
 51
200.405931773139230
  0
ARC
  8
0
  6
CONTINUOUS
 62
3
 10
-396.895855681202870
 20
-128.081885844483450
 40
16.999999999999716
 50
161.212271417649560
 51
198.787728582350440
  0
ARC
  8
0
  6
CONTINUOUS
 62
3
 10
-396.895855681202870
 20
-128.081885844483450
 40
13.499999999999687
 50
166.260204708311360
 51
193.739795291688180
  0
ARC
  8
0
  6
CONTINUOUS
 62
3
 10
-409.038160526616370
 20
-125.112974757728860
 40
0.999999999999885
 50
59.999999999996206
 51
166.260204708307780
  0
ARC
  8
0
  6
CONTINUOUS
 62
3
 10
-416.578019521632310
 20
-120.759835137304710
 40
0.999999999999885
 50
59.999999999996206
 51
159.594068226861310
  0
LINE
  8
0
  6
CONTINUOUS
 62
3
 10
-416.078019521632310
 20
-119.893809733520410
 11
-413.436784364575710
 21
-121.418727562439750
  0
ARC
  8
0
  6
CONTINUOUS
 62
3
 10
-413.936784364575710
 20
-122.284752966224280
 40
1.000000000000076
 50
341.212271417652970
 51
60.000000000002721
  0
LINE
  8
0
  6
CONTINUOUS
 62
3
 10
-408.538160526616370
 20
-124.246949353944550
 11
-405.794384951592060
 21
-125.831068920780630
  0
ARC
  8
0
  6
CONTINUOUS
 62
3
 10
-406.294384951592060
 20
-126.697094324565170
 40
1.000000000000026
 50
351.618272422167310
 51
60.000000000002721
  0
ARC
  8
0
  6
CONTINUOUS
 62
3
 10
-428.804809575527320
 20
-113.700694608362990
 40
0.999999999999863
 50
335.739170477254390
 51
59.999999999996206
  0
LINE
  8
0
  6
CONTINUOUS
 62
3
 10
-430.914934093633060
 20
-111.327713111431930
 11
-428.304809575527320
 21
-112.834669204578680
  0
ARC
  8
0
  6
CONTINUOUS
 62
3
 10
-431.414934093633060
 20
-112.193738515216460
 40
1.000000000000082
 50
60.000000000002721
 51
155.284732954544520
  0
ARC
  8
0
  6
CONTINUOUS
 62
3
 10
-421.394482013357220
 20
-117.979049221165320
 40
0.999999999999701
 50
337.589542391853970
 51
60.000000000002721
  0
LINE
  8
0
  6
CONTINUOUS
 62
3
 10
-423.513157469134740
 20
-115.601130838067600
 11
-420.894482013357220
 21
-117.113023817380790
  0
ARC
  8
0
  6
CONTINUOUS
 62
3
 10
-424.013157469134740
 20
-116.467156241852130
 40
1.000000000000082
 50
60.000000000002721
 51
156.813854344180160
  0
ARC
  8
0
  6
CONTINUOUS
 62
3
 10
-396.895855681202870
 20
-128.081885844483450
 40
38.999999999999986
 50
95.284732954534590
 51
144.715267045465200
  0
ARC
  8
0
  6
CONTINUOUS
 62
3
 10
-396.895855681202870
 20
-128.081885844483450
 40
34.000000000000071
 50
95.739170477266924
 51
144.260829522733360
  0
ARC
  8
0
  6
CONTINUOUS
 62
3
 10
-396.895855681202870
 20
-128.081885844483450
 40
25.500000000000160
 50
97.589542391858117
 51
142.410457608142050
  0
ARC
  8
0
  6
CONTINUOUS
 62
3
 10
-396.895855681202870
 20
-128.081885844483450
 40
30.500000000000135
 50
96.813854344181038
 51
143.186145655818930
  0
ARC
  8
0
  6
CONTINUOUS
 62
3
 10
-396.895855681202870
 20
-128.081885844483450
 40
22.000000000000131
 50
99.594068226861211
 51
140.405931773139200
  0
ARC
  8
0
  6
CONTINUOUS
 62
3
 10
-396.895855681202870
 20
-128.081885844483450
 40
17.000000000000046
 50
101.212271417650010
 51
138.787728582350240
  0
ARC
  8
0
  6
CONTINUOUS
 62
3
 10
-396.895855681202870
 20
-128.081885844483450
 40
13.499999999999963
 50
106.260204708310860
 51
133.739795291687870
  0
ARC
  8
0
  6
CONTINUOUS
 62
3
 10
-400.395855681202870
 20
-116.081885844483450
 40
1.000000000000000
 50
0.000000000000000
 51
106.260204708297360
  0
LINE
  8
0
  6
CONTINUOUS
 62
3
 10
-399.395855681202870
 20
-116.081885844483450
 11
-399.395855681202870
 21
-119.250124978155610
  0
ARC
  8
0
  6
CONTINUOUS
 62
3
 10
-405.538160526616370
 20
-119.050796931238040
 40
0.999999999999858
 50
133.739795291671300
 51
239.999999999996220
  0
ARC
  8
0
  6
CONTINUOUS
 62
3
 10
-396.895855681202870
 20
-128.081885844483450
 40
8.499999999999904
 50
111.618272422157710
 51
128.381727577841670
  0
ARC
  8
0
  6
CONTINUOUS
 62
3
 10
-400.395855681202870
 20
-119.250124978155610
 40
1.000000000000090
 50
291.618272422161970
 51
0.000000000000000
  0
ARC
  8
0
  6
CONTINUOUS
 62
3
 10
-413.078019521631860
 20
-114.697657310813440
 40
1.000000000000173
 50
140.405931773149600
 51
240.000000000002730
  0
LINE
  8
0
  6
CONTINUOUS
 62
3
 10
-413.578019521631860
 20
-115.563682714597970
 11
-410.936784364575710
 21
-117.088600543517540
  0
ARC
  8
0
  6
CONTINUOUS
 62
3
 10
-410.436784364575710
 20
-116.222575139733230
 40
0.999999999999885
 50
239.999999999996220
 51
318.787728582348790
  0
LINE
  8
0
  6
CONTINUOUS
 62
3
 10
-406.038160526616370
 20
-119.916822335022340
 11
-403.294384951592060
 21
-121.500941901858420
  0
ARC
  8
0
  6
CONTINUOUS
 62
3
 10
-402.794384951592060
 20
-120.634916498073890
 40
1.000000000000082
 50
240.000000000002730
 51
308.381727577840190
  0
ARC
  8
0
  6
CONTINUOUS
 62
3
 10
-425.304809575527320
 20
-107.638516781872170
 40
0.999999999999885
 50
239.999999999996220
 51
324.260829522725940
  0
LINE
  8
0
  6
CONTINUOUS
 62
3
 10
-428.414934093633060
 20
-106.997586092509720
 11
-425.804809575527320
 21
-108.504542185656470
  0
ARC
  8
0
  6
CONTINUOUS
 62
3
 10
-427.914934093633060
 20
-106.131560688725410
 40
0.999999999999908
 50
144.715267045455050
 51
239.999999999996220
  0
ARC
  8
0
  6
CONTINUOUS
 62
3
 10
-417.894482013357220
 20
-111.916871394674270
 40
1.000000000000082
 50
240.000000000002730
 51
322.410457608132330
  0
LINE
  8
0
  6
CONTINUOUS
 62
3
 10
-421.013157469134740
 20
-111.271003819145610
 11
-418.394482013357220
 21
-112.782896798458800
  0
ARC
  8
0
  6
CONTINUOUS
 62
3
 10
-420.513157469134740
 20
-110.404978415361080
 40
0.999999999999774
 50
143.186145655813330
 51
240.000000000002730
  0
ARC
  8
0
  6
CONTINUOUS
 62
3
 10
-400.395855681202870
 20
-90.243413359458430
 40
1.000000000000000
 50
0.000000000000000
 51
95.284732954535698
  0
LINE
  8
0
  6
CONTINUOUS
 62
3
 10
-399.395855681202870
 20
-90.243413359458430
 11
-399.395855681202870
 21
-93.257325545751712
  0
ARC
  8
0
  6
CONTINUOUS
 62
3
 10
-400.395855681202870
 20
-93.257325545751712
 40
0.999999999999973
 50
275.739170477261670
 51
0.000000000000000
  0
ARC
  8
0
  6
CONTINUOUS
 62
3
 10
-400.395855681202870
 20
-98.790248812729772
 40
1.000000000000000
 50
0.000000000000000
 51
96.813854344179688
  0
LINE
  8
0
  6
CONTINUOUS
 62
3
 10
-399.395855681202870
 20
-98.790248812729772
 11
-399.395855681202870
 21
-101.814034771355920
  0
ARC
  8
0
  6
CONTINUOUS
 62
3
 10
-400.395855681202870
 20
-101.814034771356140
 40
0.999999999999749
 50
277.589542391855960
 51
0.000000000013028
  0
ARC
  8
0
  6
CONTINUOUS
 62
3
 10
-400.395855681202870
 20
-107.375606603634930
 40
1.000000000000000
 50
0.000000000000000
 51
99.594068226875478
  0
LINE
  8
0
  6
CONTINUOUS
 62
3
 10
-399.395855681202870
 20
-107.375606603634930
 11
-399.395855681202870
 21
-110.425442261473840
  0
ARC
  8
0
  6
CONTINUOUS
 62
3
 10
-400.395855681202870
 20
-110.425442261473840
 40
0.999999999999982
 50
281.212271417643990
 51
0.000000000000000
  0
ARC
  8
0
  6
CONTINUOUS
 62
3
 10
-409.038160526616370
 20
-131.050796931238040
 40
0.999999999999879
 50
193.739795291686050
 51
300.000000000003810
  0
LINE
  8
0
  6
CONTINUOUS
 62
3
 10
-408.538160526616370
 20
-131.916822335022350
 11
-405.794384951592060
 21
-130.332702768186270
  0
ARC
  8
0
  6
CONTINUOUS
 62
3
 10
-396.895855681202870
 20
-128.081885844483450
 40
8.499999999999972
 50
171.618272422157790
 51
188.381727577842210
  0
ARC
  8
0
  6
CONTINUOUS
 62
3
 10
-406.294384951592060
 20
-129.466677364401960
 40
0.999999999999885
 50
300.000000000003810
 51
8.381727577845549
  0
LINE
  8
0
  6
CONTINUOUS
 62
3
 10
-399.395855681202870
 20
-157.373522876237130
 11
-399.395855681202870
 21
-154.349736917610760
  0
LINE
  8
0
  6
CONTINUOUS
 62
3
 10
-399.395855681202870
 20
-148.788165085331970
 11
-399.395855681202870
 21
-145.738329427493060
  0
LINE
  8
0
  6
CONTINUOUS
 62
3
 10
-399.395855681202870
 20
-140.081885844483450
 11
-399.395855681202870
 21
-136.913646710811290
  0
LINE
  8
0
  6
CONTINUOUS
 62
3
 10
-406.038160526616370
 20
-136.246949353944560
 11
-403.294384951592060
 21
-134.662829787108480
  0
LINE
  8
0
  6
CONTINUOUS
 62
3
 10
-413.578019521631860
 20
-140.600088974368930
 11
-410.936784364575710
 21
-139.075171145449360
  0
LINE
  8
0
  6
CONTINUOUS
 62
3
 10
-428.414934093633060
 20
-149.166185596457180
 11
-425.804809575527320
 21
-147.659229503310430
  0
LINE
  8
0
  6
CONTINUOUS
 62
3
 10
-421.013157469134740
 20
-144.892767869821280
 11
-418.394482013357670
 21
-143.380874890508100
  0
ARC
  8
0
  6
CONTINUOUS
 62
3
 10
-396.895855681202870
 20
-128.081885844483450
 40
8.499999999999948
 50
231.618272422157330
 51
248.381727577842330
  0
ARC
  8
0
  6
CONTINUOUS
 62
3
 10
-396.895855681202870
 20
-128.081885844483450
 40
13.499999999999927
 50
226.260204708312130
 51
253.739795291689150
  0
ARC
  8
0
  6
CONTINUOUS
 62
3
 10
-396.895855681202870
 20
-128.081885844483450
 40
16.999999999999773
 50
221.212271417650780
 51
258.787728582349980
  0
ARC
  8
0
  6
CONTINUOUS
 62
3
 10
-396.895855681202870
 20
-128.081885844483450
 40
22.000000000000025
 50
219.594068226860800
 51
260.405931773138780
  0
ARC
  8
0
  6
CONTINUOUS
 62
3
 10
-396.895855681202870
 20
-128.081885844483450
 40
25.499999999999890
 50
217.589542391857950
 51
262.410457608141830
  0
ARC
  8
0
  6
CONTINUOUS
 62
3
 10
-396.895855681202870
 20
-128.081885844483450
 40
33.999999999999964
 50
215.739170477266950
 51
264.260829522733050
  0
ARC
  8
0
  6
CONTINUOUS
 62
3
 10
-396.895855681202870
 20
-128.081885844483450
 40
30.499999999999964
 50
216.813854344181070
 51
263.186145655818960
  0
ARC
  8
0
  6
CONTINUOUS
 62
3
 10
-396.895855681202870
 20
-128.081885844483450
 40
38.999999999999865
 50
215.284732954534800
 51
264.715267045465400
  0
ARC
  8
0
  6
CONTINUOUS
 62
3
 10
-402.794384951592060
 20
-135.528855190892780
 40
0.999999999999961
 50
51.618272422159777
 51
120.000000000003780
  0
ARC
  8
0
  6
CONTINUOUS
 62
3
 10
-400.395855681202870
 20
-136.913646710811290
 40
1.000000000000000
 50
0.000000000000000
 51
68.381727577838021
  0
ARC
  8
0
  6
CONTINUOUS
 62
3
 10
-400.395855681202870
 20
-140.081885844483450
 40
0.999999999999964
 50
253.739795291702650
 51
0.000000000000000
  0
ARC
  8
0
  6
CONTINUOUS
 62
3
 10
-405.538160526616370
 20
-137.112974757728860
 40
0.999999999999885
 50
120.000000000003780
 51
226.260204708328700
  0
ARC
  8
0
  6
CONTINUOUS
 62
3
 10
-410.436784364575710
 20
-139.941196549233890
 40
1.000000000000165
 50
41.212271417643841
 51
119.999999999997270
  0
ARC
  8
0
  6
CONTINUOUS
 62
3
 10
-413.078019521631860
 20
-141.466114378153240
 40
0.999999999999885
 50
120.000000000003780
 51
219.594068226860460
  0
ARC
  8
0
  6
CONTINUOUS
 62
3
 10
-400.395855681202870
 20
-145.738329427493060
 40
1.000000000000000
 50
0.000000000000000
 51
78.787728582355996
  0
ARC
  8
0
  6
CONTINUOUS
 62
3
 10
-400.395855681202870
 20
-148.788165085331970
 40
1.000000000000268
 50
260.405931773124510
 51
0.000000000000000
  0
ARC
  8
0
  6
CONTINUOUS
 62
3
 10
-417.894482013357670
 20
-144.246900294292630
 40
1.000000000000194
 50
37.589542391851793
 51
119.999999999997270
  0
ARC
  8
0
  6
CONTINUOUS
 62
3
 10
-420.513157469134740
 20
-145.758793273605590
 40
0.999999999999885
 50
120.000000000003780
 51
216.813854344197100
  0
ARC
  8
0
  6
CONTINUOUS
 62
3
 10
-400.395855681202870
 20
-154.349736917610760
 40
1.000000000000000
 50
0.000000000000000
 51
82.410457608145762
  0
ARC
  8
0
  6
CONTINUOUS
 62
3
 10
-425.304809575527320
 20
-148.525254907094730
 40
0.999999999999807
 50
35.739170477263521
 51
120.000000000003780
  0
ARC
  8
0
  6
CONTINUOUS
 62
3
 10
-427.914934093633060
 20
-150.032211000241720
 40
1.000000000000082
 50
119.999999999997270
 51
215.284732954534320
  0
ARC
  8
0
  6
CONTINUOUS
 62
3
 10
-431.414934093633060
 20
-143.970033173750440
 40
1.000000000000248
 50
204.715267045455480
 51
300.000000000003810
  0
LINE
  8
0
  6
CONTINUOUS
 62
3
 10
-430.914934093633060
 20
-144.836058577534740
 11
-428.304809575527320
 21
-143.329102484388220
  0
ARC
  8
0
  6
CONTINUOUS
 62
3
 10
-424.013157469134740
 20
-139.696615447114770
 40
0.999999999999730
 50
203.186145655819840
 51
299.999999999997270
  0
LINE
  8
0
  6
CONTINUOUS
 62
3
 10
-423.513157469134740
 20
-140.562640850899300
 11
-420.894482013357220
 21
-139.050747871586340
  0
ARC
  8
0
  6
CONTINUOUS
 62
3
 10
-428.804809575527320
 20
-142.463077080603680
 40
1.000000000000082
 50
299.999999999997270
 51
24.260829522733715
  0
ARC
  8
0
  6
CONTINUOUS
 62
3
 10
-421.394482013357220
 20
-138.184722467801810
 40
1.000000000000082
 50
299.999999999997270
 51
22.410457608146043
  0
ARC
  8
0
  6
CONTINUOUS
 62
3
 10
-416.578019521632310
 20
-135.403936551662180
 40
1.000000000000094
 50
200.405931773138690
 51
300.000000000003810
  0
LINE
  8
0
  6
CONTINUOUS
 62
3
 10
-416.078019521632310
 20
-136.269961955446490
 11
-413.436784364575710
 21
-134.745044126526920
  0
ARC
  8
0
  6
CONTINUOUS
 62
3
 10
-413.936784364575710
 20
-133.879018722742610
 40
0.999999999999885
 50
300.000000000003810
 51
18.787728582346993
  0
LINE
  8
0
  6
CONTINUOUS
 62
3
 10
-399.395855681202870
 20
-165.920358329508470
 11
-399.395855681202870
 21
-162.906446143215190
  0
ARC
  8
0
  6
CONTINUOUS
 62
3
 10
-400.395855681202870
 20
-157.373522876237130
 40
1.000000000000077
 50
263.186145655820330
 51
0.000000000000000
  0
ARC
  8
0
  6
CONTINUOUS
 62
3
 10
-400.395855681202870
 20
-165.920358329508470
 40
1.000000000000042
 50
264.715267045464260
 51
0.000000000000000
  0
ARC
  8
0
  6
CONTINUOUS
 62
3
 10
-400.395855681202870
 20
-162.906446143215190
 40
1.000000000000000
 50
0.000000000000000
 51
84.260829522738291
  0
ARC
  8
0
  6
CONTINUOUS
 62
3
 10
-638.495855681203240
 20
-128.081885844483450
 40
300.600000000000360
 50
0.000000000000000
 51
5.752282731536604
  0
ARC
  8
0
  6
CONTINUOUS
 62
3
 10
-638.495855681203240
 20
-128.081885844483450
 40
300.599999999999910
 50
354.247717268463420
 51
0.000000000000000
  0
ARC
  8
0
  6
CONTINUOUS
 62
3
 10
-155.295855681202400
 20
-128.081885844483450
 40
300.600000000000480
 50
180.000000000000000
 51
185.752282731536610
  0
ARC
  8
0
  6
CONTINUOUS
 62
3
 10
-155.295855681202400
 20
-128.081885844483450
 40
300.600000000000020
 50
174.247717268463390
 51
180.000000000000000
  0
ARC
  8
0
  6
CONTINUOUS
 62
3
 10
-396.895855681202870
 20
-474.681885844483590
 40
400.599999999999910
 50
84.256318189006564
 51
90.000000000000000
  0
ARC
  8
0
  6
CONTINUOUS
 62
3
 10
-396.895855681202870
 20
218.518114155516740
 40
400.599999999999970
 50
270.000000000000000
 51
275.743681810993450
  0
ARC
  8
0
  6
CONTINUOUS
 62
3
 10
-396.895855681202870
 20
218.518114155516740
 40
400.599999999999970
 50
264.256318189006550
 51
270.000000000000000
  0
ARC
  8
0
  6
CONTINUOUS
 62
3
 10
-396.895855681202870
 20
-474.681885844483590
 40
400.599999999999910
 50
90.000000000000000
 51
95.743681810993436
  0
ARC
  8
0
  6
CONTINUOUS
 62
3
 10
-357.464988681115530
 20
-82.659939102185092
 40
6.600000000000278
 50
44.999999999997215
 51
84.256318189004901
  0
ARC
  8
0
  6
CONTINUOUS
 62
3
 10
-357.464988681115530
 20
-173.503832586781810
 40
6.600000000000009
 50
275.743681810995100
 51
315.000000000002790
  0
ARC
  8
0
  6
CONTINUOUS
 62
3
 10
-436.326722681290220
 20
-173.503832586781810
 40
6.600000000000278
 50
224.999999999997190
 51
264.256318189004900
  0
ARC
  8
0
  6
CONTINUOUS
 62
3
 10
-436.326722681290220
 20
-82.659939102185092
 40
6.600000000000009
 50
95.743681810995099
 51
135.000000000002790
  0
LINE
  8
0
  6
CONTINUOUS
 62
4
 10
-352.271156526585170
 20
-92.383497296996950
 11
-358.158570398624530
 21
-86.496083424956907
  0
ARC
  8
0
  6
CONTINUOUS
 62
4
 10
-396.895855681202870
 20
-474.681885844483590
 40
390.797000000000030
 50
84.582036237639471
 51
90.000000000000000
  0
ARC
  8
0
  6
CONTINUOUS
 62
4
 10
-360.279890742184530
 20
-88.617403768516681
 40
3.000000000000346
 50
44.999999999996930
 51
84.582036237634313
  0
ARC
  8
0
  6
CONTINUOUS
 62
4
 10
-638.495855681203240
 20
-128.081885844483450
 40
290.797000000000480
 50
0.000000000000000
 51
5.752282731536624
  0
ARC
  8
0
  6
CONTINUOUS
 62
4
 10
-360.279890742184530
 20
-167.546367920450220
 40
3.000000000000067
 50
275.417963762365730
 51
315.000000000003070
  0
ARC
  8
0
  6
CONTINUOUS
 62
4
 10
-396.895855681202870
 20
218.518114155516740
 40
390.797000000000080
 50
270.000000000000000
 51
275.417963762360500
  0
ARC
  8
0
  6
CONTINUOUS
 62
4
 10
-369.523965093683500
 20
-151.621683502395460
 40
20.797000000000015
 50
315.000000000000000
 51
354.998349729064670
  0
LINE
  8
0
  6
CONTINUOUS
 62
4
 10
-354.818265365346860
 20
-166.327383230732100
 11
-358.158570398624530
 21
-169.667688264010000
  0
ARC
  8
0
  6
CONTINUOUS
 62
4
 10
-638.495855681203240
 20
-128.081885844483450
 40
290.797000000000140
 50
354.998349729065010
 51
0.000000000000000
  0
ARC
  8
0
  6
CONTINUOUS
 62
4
 10
-433.511820620221210
 20
-167.546367920450220
 40
3.000000000000346
 50
224.999999999996960
 51
264.582036237634270
  0
ARC
  8
0
  6
CONTINUOUS
 62
4
 10
-396.895855681202870
 20
218.518114155516740
 40
390.797000000000140
 50
264.582036237639500
 51
270.000000000000000
  0
ARC
  8
0
  6
CONTINUOUS
 62
4
 10
-424.267746268722250
 20
-151.621683502395460
 40
20.796999999999880
 50
185.001650270935330
 51
225.000000000000000
  0
LINE
  8
0
  6
CONTINUOUS
 62
4
 10
-438.973445997058890
 20
-166.327383230732100
 11
-435.633140963781220
 21
-169.667688264010000
  0
ARC
  8
0
  6
CONTINUOUS
 62
4
 10
-155.295855681202620
 20
-128.081885844483450
 40
290.797000000000370
 50
180.000000000000000
 51
185.001650270934930
  0
ARC
  8
0
  6
CONTINUOUS
 62
4
 10
-433.511820620221210
 20
-88.617403768516681
 40
3.000000000000067
 50
95.417963762365673
 51
135.000000000003040
  0
ARC
  8
0
  6
CONTINUOUS
 62
4
 10
-396.895855681202870
 20
-474.681885844483590
 40
390.797000000000030
 50
90.000000000000000
 51
95.417963762360529
  0
ARC
  8
0
  6
CONTINUOUS
 62
4
 10
-424.267746268722250
 20
-104.542088186571440
 40
20.797000000000015
 50
135.000000000000000
 51
174.998349729064670
  0
LINE
  8
0
  6
CONTINUOUS
 62
4
 10
-438.973445997058890
 20
-89.836388458234808
 11
-435.633140963781220
 21
-86.496083424956907
  0
ARC
  8
0
  6
CONTINUOUS
 62
4
 10
-155.295855681202620
 20
-128.081885844483450
 40
290.796999999999970
 50
174.998349729065040
 51
180.000000000000000
  0
LINE
  8
0
  6
CONTINUOUS
 62
3
 10
-471.898725301783770
 20
-72.201765771703265
 11
-476.992362230060730
 21
-174.074504337244040
  0
LINE
  8
0
  6
CONTINUOUS
 62
3
 10
-476.992362230060730
 20
-174.074504337244040
 11
-478.590365972265320
 21
-173.994604150133060
  0
LINE
  8
0
  6
CONTINUOUS
 62
3
 10
-473.496729043988350
 20
-72.121865584593081
 11
-478.590365972265320
 21
-173.994604150133060
  0
ARC
  8
0
  6
CONTINUOUS
 62
3
 10
-474.614358145838880
 20
-74.869481180837909
 40
1.299999237060474
 50
87.137594090651831
 51
160.536063666412870
  0
ARC
  8
0
  6
CONTINUOUS
 62
3
 10
-474.834083736590860
 20
-79.263992995875640
 40
1.299999237060493
 50
193.739143184211430
 51
267.137612759980240
  0
LINE
  8
0
  6
CONTINUOUS
 62
3
 10
-473.571635469403650
 20
-73.619994092909735
 11
-474.549439281911190
 21
-73.571103902284392
  0
LINE
  8
0
  6
CONTINUOUS
 62
3
 10
-473.921198788010770
 20
-80.611260465054613
 11
-474.899002600518540
 21
-80.562370274429270
  0
LINE
  8
0
  6
CONTINUOUS
 62
3
 10
-473.571635469403650
 20
-73.619994092909735
 11
-473.921198788010770
 21
-80.611260465054613
  0
LINE
  8
0
  6
CONTINUOUS
 62
3
 10
-473.571635469403650
 20
-73.619994092909735
 11
-473.921198788010770
 21
-80.611260465054613
  0
POINT
  8
0
  6
CONTINUOUS
 62
3
 10
-473.746417128707210
 20
-77.115627278982117
  0
ARC
  8
0
  6
CONTINUOUS
 62
3
 10
-467.354402540882800
 20
-77.435228008373372
 40
9.000000000000060
 50
160.536063666407810
 51
193.739143184213500
  0
INSERT
  8
0
  2
SYM1
 10
-478.340677887546240
 20
-169.000842455743910
 41
1.000000000000000
 42
1.000000000000000
 43
1.000000000000000
 50
357.137594773886350
  0
LINE
  8
0
  6
CONTINUOUS
 62
3
 10
-455.395855681202870
 20
-110.751277084263900
 11
-455.395855681202870
 21
-102.124385844483470
  0
LINE
  8
0
  6
CONTINUOUS
 62
3
 10
-473.496729043988350
 20
-72.121865584593081
 11
-471.898725301783770
 21
-72.201765771703265
  0
ARC
  8
0
  6
CONTINUOUS
 62
3
 10
-474.195855681202830
 20
-102.124385844483470
 40
18.799999999999933
 50
144.191373186504250
 51
174.275189547776390
  0
ARC
  8
0
  6
CONTINUOUS
 62
3
 10
-474.195855681202830
 20
-102.124385844483470
 40
18.800000000000036
 50
94.873974813842736
 51
144.191373186504250
  0
ARC
  8
0
  6
CONTINUOUS
 62
3
 10
-476.195855681202830
 20
-142.124385844483470
 40
20.800000000000082
 50
274.191726156007460
 51
354.952683218992210
  0
LINE
  8
0
  6
CONTINUOUS
 62
3
 10
-496.892115032823770
 20
-140.049572876902460
 11
-492.902090095167750
 21
-100.249074123785190
  0
ARC
  8
0
  6
CONTINUOUS
 62
3
 10
-480.122321512535110
 20
-164.583746166526960
 40
2.000000000000154
 50
357.137594773887600
 51
80.083463391767268
  0
LINE
  8
0
  6
CONTINUOUS
 62
3
 10
-472.697727172886060
 20
-72.161815678148230
 11
-477.791364101163030
 21
-174.034554243688320
  0
ARC
  8
0
  6
CONTINUOUS
 62
3
 10
-474.529308414819300
 20
-164.863396821412780
 40
1.999999999999962
 50
94.191726156001650
 51
177.137594773887290
  0
ARC
  8
0
  6
CONTINUOUS
 62
3
 10
-475.963114144831710
 20
-81.399598812459942
 40
1.999999999999928
 50
274.873974813840960
 51
357.137594773887320
  0
ARC
  8
0
  6
CONTINUOUS
 62
3
 10
-470.370101047115900
 20
-81.679249467345755
 40
1.999999999999927
 50
177.137594773887290
 51
259.401214733934010
  0
ARC
  8
0
  6
CONTINUOUS
 62
3
 10
-474.195855681202830
 20
-102.124385844483470
 40
18.799999999999955
 50
0.000000000000000
 51
79.401214733933941
  0
ARC
  8
0
  6
CONTINUOUS
 62
3
 10
-476.195855681202830
 20
-142.124385844483470
 40
20.799999999999986
 50
174.275189547776620
 51
205.640070215894870
  0
POINT
  8
0
  6
DASHDOT
 62
4
 10
-455.395855681202870
 20
-128.095616337609440
  0
ARC
  8
0
  6
CONTINUOUS
 62
3
 10
-476.195855681202830
 20
-142.124385844483470
 40
20.799999999999926
 50
205.640070215894870
 51
260.083463391769440
  0
POINT
  8
0
  6
DASHDOT
 62
4
 10
-455.395855681202870
 20
-128.095616337609440
  0
ARC
  8
0
  6
CONTINUOUS
 62
3
 10
-476.195855681202830
 20
-142.124385844483470
 40
20.799999999999986
 50
174.275189547776620
 51
205.640070215894870
  0
LINE
  8
0
  6
DASHDOT
 62
4
 10
-415.471400861442820
 20
-122.581885844485610
 11
-379.103012337723840
 21
-122.581885844485610
  0
ARC
  8
0
  6
CONTINUOUS
 62
3
 10
-451.696631223160470
 20
-97.781110302528248
 40
4.999999999999998
 50
108.289857495549320
 51
160.034302033855110
  0
LINE
  8
0
  6
CONTINUOUS
 62
3
 10
-456.686448189052270
 20
-94.888481031206254
 11
-453.210214815462110
 21
-92.881481350932859
  0
LINE
  8
0
  6
CONTINUOUS
 62
3
 10
-456.685760781302520
 20
-95.280660499579312
 11
-456.686452502430940
 21
-94.888480340969124
  0
LINE
  8
0
  6
CONTINUOUS
 62
3
 10
-454.742701604133000
 20
-101.777010501521880
 11
-455.410202657166340
 21
-101.390055904669330
  0
INSERT
  8
0
  2
SYM2
 10
-342.095080139245280
 20
-207.382661386443090
  0
INSERT
  8
0
  2
SYM3
 10
-451.696631223160470
 20
-207.382661386443090
  0
LINE
  8
0
  6
DASHDOT
 62
4
 10
-288.332468430118750
 20
-128.081885844483510
 11
-505.709001603805520
 21
-128.081885844483510
  0
ARC
  8
0
  6
CONTINUOUS
 62
3
 10
-371.395855681202870
 20
-182.081885844483170
 40
3.000000000000769
 50
167.756347132298490
 51
180.000000000000000
  0
ARC
  8
0
  6
CONTINUOUS
 62
3
 10
-382.395855681202870
 20
-182.556147302951620
 40
3.000000000000000
 50
0.000000000000000
 51
16.485334242756117
  0
ARC
  8
0
  6
CONTINUOUS
 62
3
 10
-411.395855681202870
 20
-182.556147302951620
 40
3.000000000000770
 50
163.514665757243880
 51
180.000000000000000
  0
ARC
  8
0
  6
CONTINUOUS
 62
3
 10
-422.395855681202870
 20
-182.081885844483390
 40
3.000000000000000
 50
0.000000000000000
 51
12.243652867701085
  0
ARC
  8
0
  6
CONTINUOUS
 62
3
 10
-457.052539956300960
 20
-105.322777335901370
 40
2.999999999999964
 50
54.618555413455020
 51
56.479995948265923
  0
ARC
  8
0
  6
CONTINUOUS
 62
3
 10
-451.696631223160470
 20
-97.781110302528305
 40
6.249999999999865
 50
234.618555413457640
 51
239.573505486895330
  0
LINE
  8
0
  6
CONTINUOUS
 62
3
 10
-419.395855681202870
 20
-182.081885844483390
 11
-419.395855681202870
 21
-229.198499835193730
  0
LINE
  8
0
  6
CONTINUOUS
 62
3
 10
-414.395855681202870
 20
-182.556147302951620
 11
-414.395855681202870
 21
-230.281885844485710
  0
LINE
  8
0
  6
CONTINUOUS
 62
3
 10
-379.395855681202870
 20
-182.556147302951620
 11
-379.395855681202870
 21
-230.281885844485710
  0
LINE
  8
0
  6
CONTINUOUS
 62
3
 10
-374.395855681202870
 20
-182.081885844483170
 11
-374.395855681202870
 21
-229.198499835193730
  0
ARC
  8
0
  6
CONTINUOUS
 62
3
 10
-382.395855681202870
 20
-230.281885844485710
 40
3.000000000000000
 50
270.000000000000000
 51
0.000000000000000
  0
ARC
  8
0
  6
CONTINUOUS
 62
3
 10
-371.395855681202870
 20
-229.198499835193730
 40
3.000000000000000
 50
180.000000000000000
 51
280.317602512868350
  0
ARC
  8
0
  6
CONTINUOUS
 62
3
 10
-411.395855681202870
 20
-230.281885844485710
 40
3.000000000000000
 50
180.000000000000000
 51
270.000000000000000
  0
ARC
  8
0
  6
CONTINUOUS
 62
3
 10
-422.395855681202870
 20
-229.198499835193730
 40
2.999999999999949
 50
259.682397487131650
 51
0.000000000000000
  0
ARC
  8
0
  6
CONTINUOUS
 62
3
 10
-383.395855681202870
 20
-139.081885844485730
 40
69.999999999999986
 50
42.177418600901596
 51
52.470689430267356
  0
ARC
  8
0
  6
CONTINUOUS
 62
3
 10
-342.581653154715010
 20
-85.948084247697579
 40
2.999999999999997
 50
52.470689430266766
 51
106.715133671082070
  0
ARC
  8
0
  6
CONTINUOUS
 62
3
 10
-346.895855681202870
 20
-71.581885844485726
 40
12.000000000000187
 50
196.481075114643770
 51
201.440250913326930
  0
ARC
  8
0
  6
CONTINUOUS
 62
3
 10
-361.279558080323800
 20
-75.837365287924115
 40
2.999999999999934
 50
16.481075114644117
 51
70.725519355451723
  0
ARC
  8
0
  6
CONTINUOUS
 62
3
 10
-383.395855681202870
 20
-139.081885844485730
 40
70.000000000000028
 50
70.725519355454594
 51
78.811944248677648
  0
ARC
  8
0
  6
CONTINUOUS
 62
3
 10
-370.395855681202870
 20
-73.355178943865781
 40
2.999999999999972
 50
78.811944248677420
 51
180.000000000000000
  0
LINE
  8
0
  6
CONTINUOUS
 62
3
 10
-373.395855681202870
 20
-74.771758440838028
 11
-373.395855681202870
 21
-73.355178943865781
  0
ARC
  8
0
  6
CONTINUOUS
 62
3
 10
-423.395855681202870
 20
-73.355178943865781
 40
3.000000000000000
 50
0.000000000000000
 51
101.188055751322580
  0
LINE
  8
0
  6
CONTINUOUS
 62
3
 10
-420.395855681202870
 20
-74.771758440838028
 11
-420.395855681202870
 21
-73.355178943865781
  0
ARC
  8
0
  6
CONTINUOUS
 62
3
 10
-410.395855681202870
 20
-139.081885844485730
 40
69.999999999999986
 50
101.188055751322350
 51
109.274480644545400
  0
ARC
  8
0
  6
CONTINUOUS
 62
3
 10
-432.512153282081950
 20
-75.837365287924115
 40
3.000000000000082
 50
109.274480644548270
 51
163.518924885355860
  0
ARC
  8
0
  6
CONTINUOUS
 62
3
 10
-446.895855681202870
 20
-71.581885844485726
 40
11.999999999999977
 50
253.284866328922110
 51
265.252798194501960
  0
ARC
  8
0
  6
CONTINUOUS
 62
3
 10
-451.210058207690740
 20
-85.948084247697579
 40
3.000000000000060
 50
73.284866328917929
 51
127.529310569733240
  0
LINE
  8
0
  6
CONTINUOUS
 62
3
 10
-480.395855681202870
 20
-162.495934631946820
 11
-480.395855681202870
 21
-166.081885844485730
  0
ARC
  8
0
  6
CONTINUOUS
 62
3
 10
-410.395855681202870
 20
-166.081885844485730
 40
70.000000000000000
 50
180.000000000000000
 51
180.116959156176880
  0
ARC
  8
0
  6
CONTINUOUS
 62
3
 10
-448.895855681202870
 20
-235.581885844485730
 40
11.999999999999920
 50
30.268861166779732
 51
91.762018045750480
  0
ARC
  8
0
  6
CONTINUOUS
 62
3
 10
-449.357078218799190
 20
-220.588978395601320
 40
3.000000000000101
 50
234.443126549155470
 51
271.762018045752650
  0
ARC
  8
0
  6
CONTINUOUS
 62
3
 10
-410.395855681202870
 20
-166.081885844485730
 40
70.000000000000043
 50
247.587752663374320
 51
270.000000000000000
  0
ARC
  8
0
  6
CONTINUOUS
 62
3
 10
-435.940811361427900
 20
-228.021011115152310
 40
3.000000000000296
 50
210.268861166777130
 51
247.587752663367870
  0
LINE
  8
0
  6
CONTINUOUS
 62
3
 10
-383.395855681202870
 20
-236.081885844485730
 11
-410.395855681202870
 21
-236.081885844485730
  0
ARC
  8
0
  6
CONTINUOUS
 62
3
 10
-383.395855681202870
 20
-166.081885844485730
 40
70.000000000000000
 50
270.000000000000000
 51
292.412247336625680
  0
ARC
  8
0
  6
CONTINUOUS
 62
3
 10
-344.895855681202870
 20
-235.581885844485730
 40
12.000000000000021
 50
88.237981954247360
 51
149.731138833220030
  0
ARC
  8
0
  6
CONTINUOUS
 62
3
 10
-357.850900000977390
 20
-228.021011115152310
 40
2.999999999999960
 50
292.412247336624090
 51
329.731138833219400
  0
ARC
  8
0
  6
CONTINUOUS
 62
3
 10
-383.395855681202870
 20
-166.081885844485730
 40
69.999999999999972
 50
305.556873450843000
 51
0.000000000000000
  0
LINE
  8
0
  6
CONTINUOUS
 62
3
 10
-313.395855681202870
 20
-164.081885844483540
 11
-313.395855681202870
 21
-166.081885844485730
  0
ARC
  8
0
  6
CONTINUOUS
 62
3
 10
-344.434633143606560
 20
-220.588978395601320
 40
2.999999999999992
 50
268.237981954255990
 51
305.556873450844530
  0
ARC
  8
0
  6
CONTINUOUS
 62
3
 10
-396.895855681202870
 20
-152.581885844485730
 40
29.999999999999918
 50
259.111672490974460
 51
280.888327509025540
  0
ARC
  8
0
  6
CONTINUOUS
 62
3
 10
-342.095080139245280
 20
-207.382661386443150
 40
6.249999999999865
 50
54.618555413457607
 51
215.381444586544720
  0
ARC
  8
0
  6
CONTINUOUS
 62
3
 10
-349.636747172618700
 20
-212.738570119583930
 40
3.000000000000177
 50
308.153187915559500
 51
35.381444586540852
  0
ARC
  8
0
  6
CONTINUOUS
 62
3
 10
-336.739171406104790
 20
-199.840994353070070
 40
2.999999999999964
 50
234.618555413455030
 51
321.846812084447610
  0
ARC
  8
0
  6
CONTINUOUS
 62
3
 10
-457.052539956300960
 20
-199.840994353070070
 40
3.000000000000101
 50
218.153187915552420
 51
305.381444586544940
  0
ARC
  8
0
  6
CONTINUOUS
 62
3
 10
-451.696631223160470
 20
-207.382661386443150
 40
6.249999999999936
 50
324.618555413454890
 51
125.381444586542400
  0
ARC
  8
0
  6
CONTINUOUS
 62
3
 10
-444.154964189787050
 20
-212.738570119583930
 40
3.000000000000335
 50
144.618555413460030
 51
231.846812084441130
  0
INSERT
  8
0
  2
SYM4
 10
-407.395855681202420
 20
-65.431406009914610
 41
-1.000000000000000
  0
ARC
  8
0
  6
CONTINUOUS
 62
3
 10
-412.395855681202870
 20
-70.581885844485726
 40
5.000000000000000
 50
180.000000000000000
 51
231.841677908089340
  0
INSERT
  8
0
  2
SYM5
 10
-386.395855681202870
 20
-65.431406009914610
  0
ARC
  8
0
  6
CONTINUOUS
 62
3
 10
-381.395855681202870
 20
-70.581885844485726
 40
4.999999999999647
 50
308.158322091910630
 51
0.000000000000000
  0
INSERT
  8
0
  2
SYM6
 10
-448.895855681202870
 20
-235.581885844485610
 41
-1.000000000000000
  0
INSERT
  8
0
  2
SYM7
 10
-446.895855681202870
 20
-71.581885844485612
 41
-1.000000000000000
  0
INSERT
  8
0
  2
SYM8
 10
-344.895855681202870
 20
-235.581885844485610
  0
INSERT
  8
0
  2
SYM9
 10
-346.895855681202870
 20
-71.581885844485612
  0
ARC
  8
0
  6
CONTINUOUS
 62
3
 10
-386.395855681202870
 20
-31.431406009913132
 40
10.000000000000000
 50
0.000000000000000
 51
90.000000000000000
  0
LINE
  8
0
  6
CONTINUOUS
 62
3
 10
-376.395855681202870
 20
-31.431406009913132
 11
-376.395855681202870
 21
-70.581885844485726
  0
LINE
  8
0
  6
DASHDOT
 62
4
 10
-373.727942682321330
 20
-41.431406009913132
 11
-420.750456583856020
 21
-41.431406009913132
  0
CIRCLE
  8
0
  6
CONTINUOUS
 62
3
 10
-396.895855681202870
 20
-41.431406009913132
 40
10.000000000000000
  0
LINE
  8
0
  6
CONTINUOUS
 62
3
 10
-417.395855681202870
 20
-31.431406009913132
 11
-417.395855681202870
 21
-70.581885844485726
  0
ARC
  8
0
  6
CONTINUOUS
 62
3
 10
-407.395855681202870
 20
-31.431406009913132
 40
10.000000000000000
 50
90.000000000000000
 51
180.000000000000000
  0
LINE
  8
0
  6
CONTINUOUS
 62
3
 10
-386.395855681202870
 20
-21.431406009913132
 11
-407.395855681202870
 21
-21.431406009913132
  0
LINE
  8
0
  6
DASHDOT
 62
4
 10
-396.895855681202870
 20
-8.008653530505569
 11
-396.895855681202870
 21
-255.304584485114900
  0
LINE
  8
0
  6
CONTINUOUS
 62
3
 10
-304.895855681202360
 20
-135.581885844485610
 11
-305.489620334219860
 21
-135.581885844485610
  0
ARC
  8
0
  6
CONTINUOUS
 62
3
 10
-306.397858454071130
 20
-117.581885844485610
 40
2.000000000000722
 50
295.969013693516050
 51
11.262247925641974
  0
ARC
  8
0
  6
CONTINUOUS
 62
3
 10
-304.895855681202360
 20
-137.581885844485610
 40
2.000000000000000
 50
0.000000000000000
 51
90.000000000000000
  0
ARC
  8
0
  6
CONTINUOUS
 62
3
 10
-396.895855681202420
 20
-152.581885844485610
 40
101.000000000000050
 50
309.950233661982400
 51
337.984630459603120
  0
ARC
  8
0
  6
CONTINUOUS
 62
3
 10
-396.895855681202870
 20
-152.581885844485610
 40
101.000000000000310
 50
202.015369540396850
 51
230.049766338017580
  0
ARC
  8
0
  6
CONTINUOUS
 62
3
 10
-485.895855681202870
 20
-188.567994275378790
 40
5.000000000000000
 50
180.000000000000000
 51
202.015369540398010
  0
ARC
  8
0
  6
CONTINUOUS
 62
3
 10
-307.895855681202360
 20
-188.567994275378790
 40
4.999999999999877
 50
337.984630459601990
 51
0.000000000000000
  0
ARC
  8
0
  6
CONTINUOUS
 62
3
 10
-466.887152751413620
 20
-236.141555149895740
 40
8.000000000000107
 50
1.781769897912753
 51
50.049766338017157
  0
ARC
  8
0
  6
CONTINUOUS
 62
3
 10
-448.895855681202870
 20
-235.581885844485610
 40
9.999999999999675
 50
181.781769897911860
 51
270.000000000000000
  0
ARC
  8
0
  6
CONTINUOUS
 62
3
 10
-344.895855681202870
 20
-235.581885844485610
 40
10.000000000000000
 50
270.000000000000000
 51
358.218230102088230
  0
ARC
  8
0
  6
CONTINUOUS
 62
3
 10
-326.904558610991670
 20
-236.141555149895740
 40
7.999999999999901
 50
129.950233661982820
 51
178.218230102087230
  0
ARC
  8
0
  6
CONTINUOUS
 62
3
 10
-396.895855681202870
 20
-152.581885844485610
 40
106.000000000000020
 50
311.146783655316030
 51
311.328658646343400
  0
ARC
  8
0
  6
CONTINUOUS
 62
3
 10
-305.895855681202820
 20
-212.581885844485610
 40
3.000000000000000
 50
0.000000000000000
 51
146.601511532010900
  0
LINE
  8
0
  6
CONTINUOUS
 62
3
 10
-329.884957740646090
 20
-238.426892630852480
 11
-329.884957740646090
 21
-243.711732701032760
  0
ARC
  8
0
  6
CONTINUOUS
 62
3
 10
-327.884957740646090
 20
-243.711732701032760
 40
2.000000000000000
 50
180.000000000000000
 51
255.361208056743180
  0
ARC
  8
0
  6
CONTINUOUS
 62
3
 10
-323.058195913303960
 20
-232.081885844485610
 40
2.500000000000000
 50
90.000000000000000
 51
132.885184548955720
  0
ARC
  8
0
  6
CONTINUOUS
 62
3
 10
-324.395855681202870
 20
-233.303630126927890
 40
2.499999999999884
 50
131.928504432615880
 51
180.000000000000000
  0
ARC
  8
0
  6
CONTINUOUS
 62
3
 10
-396.895855681202870
 20
-152.581885844485610
 40
106.000000000000010
 50
311.328658646343400
 51
326.601511532012810
  0
ARC
  8
0
  6
CONTINUOUS
 62
3
 10
-396.895855681203330
 20
-152.581885844485610
 40
106.000000000000070
 50
213.398488467987250
 51
228.671341353656600
  0
ARC
  8
0
  6
CONTINUOUS
 62
3
 10
-470.733515449102240
 20
-232.081885844485610
 40
2.499999999999925
 50
47.114815451044294
 51
90.000000000000000
  0
ARC
  8
0
  6
CONTINUOUS
 62
3
 10
-396.895855681203330
 20
-152.581885844485610
 40
106.000000000000010
 50
228.671341353656600
 51
228.853216344683940
  0
ARC
  8
0
  6
CONTINUOUS
 62
3
 10
-469.395855681203330
 20
-233.303630126927890
 40
2.500000000000000
 50
0.000000000000000
 51
48.071495567384105
  0
LINE
  8
0
  6
CONTINUOUS
 62
3
 10
-463.906753621760120
 20
-238.426892630852480
 11
-463.906753621760120
 21
-243.711732701032760
  0
ARC
  8
0
  6
CONTINUOUS
 62
3
 10
-465.906753621760120
 20
-243.711732701032760
 40
1.999999999999997
 50
284.638791943256820
 51
0.000000000000000
  0
ARC
  8
0
  6
CONTINUOUS
 62
3
 10
-487.895855681203330
 20
-212.581885844485610
 40
2.999999999999921
 50
33.398488467987271
 51
180.000000000000000
  0
ARC
  8
0
  6
CONTINUOUS
 62
3
 10
-471.906753621760120
 20
-238.426892630852480
 40
8.000000000000000
 50
0.000000000000000
 51
48.853216344683936
  0
ARC
  8
0
  6
CONTINUOUS
 62
3
 10
-321.884957740646090
 20
-238.426892630852480
 40
7.999999999999961
 50
131.146783655315550
 51
180.000000000000000
  0
LINE
  8
0
  6
CONTINUOUS
 62
3
 10
-490.895855681203330
 20
-156.840023785122870
 11
-490.895855681203330
 21
-226.581885844485610
  0
LINE
  8
0
  6
CONTINUOUS
 62
3
 10
-302.895855681202820
 20
-132.815284028667240
 11
-302.895855681202820
 21
-226.581885844485610
  0
LINE
  8
0
  6
CONTINUOUS
 62
3
 10
-464.895855681202870
 20
-245.581885844485610
 11
-396.895855681202870
 21
-245.581885844485610
  0
LINE
  8
0
  6
CONTINUOUS
 62
3
 10
-328.895855681202870
 20
-245.581885844485610
 11
-396.895855681202870
 21
-245.581885844485610
  0
LINE
  8
0
  6
CONTINUOUS
 62
3
 10
-496.895855681202870
 20
-247.581885844485610
 11
-466.895855681202870
 21
-247.581885844485610
  0
LINE
  8
0
  6
DASHDOT
 62
4
 10
-484.395855681202870
 20
-225.421606990115550
 11
-484.395855681202870
 21
-251.998677684085290
  0
LINE
  8
0
  6
CONTINUOUS
 62
3
 10
-496.895855681202870
 20
-232.081885844485610
 11
-496.895855681202870
 21
-247.581885844485610
  0
LINE
  8
0
  6
CONTINUOUS
 62
3
 10
-299.395855681202760
 20
-229.581885844485610
 11
-323.058195913303960
 21
-229.581885844485610
  0
LINE
  8
0
  6
CONTINUOUS
 62
3
 10
-296.895855681202760
 20
-247.581885844485610
 11
-326.895855681202870
 21
-247.581885844485610
  0
LINE
  8
0
  6
DASHDOT
 62
4
 10
-309.395855681202820
 20
-225.421606990115550
 11
-309.395855681202820
 21
-251.998677684085290
  0
LINE
  8
0
  6
CONTINUOUS
 62
3
 10
-296.895855681202760
 20
-232.081885844485610
 11
-296.895855681202760
 21
-247.581885844485610
  0
LINE
  8
0
  6
CONTINUOUS
 62
3
 10
-326.895855681202870
 20
-233.303630126927890
 11
-326.895855681202870
 21
-247.581885844485610
  0
ARC
  8
0
  6
CONTINUOUS
 62
3
 10
-410.895855681203330
 20
-132.815284028667240
 40
80.000000000000028
 50
94.660419384114462
 51
140.211934354291880
  0
ARC
  8
0
  6
CONTINUOUS
 62
3
 10
-382.895855681202870
 20
-132.815284028667240
 40
80.000000000000057
 50
0.000000000000000
 51
15.675342857761374
  0
ARC
  8
0
  6
CONTINUOUS
 62
3
 10
-493.895855681203330
 20
-226.581885844485610
 40
3.000000000000000
 50
270.000000000000000
 51
0.000000000000000
  0
ARC
  8
0
  6
CONTINUOUS
 62
3
 10
-299.895855681202820
 20
-226.581885844485610
 40
3.000000000000000
 50
180.000000000000000
 51
270.000000000000000
  0
ARC
  8
0
  6
CONTINUOUS
 62
3
 10
-494.395855681202870
 20
-232.081885844485610
 40
2.500000000000000
 50
90.000000000000000
 51
180.000000000000000
  0
ARC
  8
0
  6
CONTINUOUS
 62
3
 10
-464.895855681202870
 20
-247.581885844485610
 40
2.000000000000000
 50
90.000000000000000
 51
180.000000000000000
  0
ARC
  8
0
  6
CONTINUOUS
 62
3
 10
-299.395855681202760
 20
-232.081885844485610
 40
2.500000000000000
 50
0.000000000000000
 51
90.000000000000000
  0
ARC
  8
0
  6
CONTINUOUS
 62
3
 10
-328.895855681202870
 20
-247.581885844485610
 40
2.000000000000000
 50
0.000000000000000
 51
90.000000000000000
  0
LINE
  8
0
  6
CONTINUOUS
 62
3
 10
-494.395855681203330
 20
-229.581885844485610
 11
-470.733515449102240
 21
-229.581885844485610
  0
LINE
  8
0
  6
CONTINUOUS
 62
3
 10
-466.895855681203330
 20
-233.303630126927890
 11
-466.895855681203330
 21
-247.581885844485610
  0
TEXT
  8
0
  6
CONTINUOUS
 62
3
 10
-415.656982421875000
 20
141.884094238281250
 40
12.500000000000000
  1
S095
 50
0.000002504478167
 41
0.470000016689301
  7
STANDARD1
  0
TEXT
  8
0
  6
CONTINUOUS
 62
3
 10
-415.656982421875000
 20
127.759094238281250
 40
12.500000000000000
  1
三菱ギヤードモートル
 50
0.000002504478167
 41
0.625000000000000
  7
STANDARD1
  0
TEXT
  8
0
  6
CONTINUOUS
 62
3
 10
-415.656982421875000
 20
113.634094238281250
 40
12.500000000000000
  1
GM-SSB
 50
0.000002504478167
 41
0.470000016689301
  7
STANDARD1
  0
TEXT
  8
0
  6
CONTINUOUS
 62
3
 10
-415.656982421875000
 20
99.509094238281250
 40
12.500000000000000
  1
0.2kW
 50
0.000002504478167
 41
0.470000016689301
  7
STANDARD1
  0
TEXT
  8
0
  6
CONTINUOUS
 62
3
 10
-415.656982421875000
 20
85.384094238281250
 40
12.500000000000000
  1
1/270-1/450
 50
0.000002504478167
 41
0.470000016689301
  7
STANDARD1
  0
TEXT
  8
0
  6
CONTINUOUS
 62
3
 10
-415.656982421875000
 20
71.259094238281250
 40
12.500000000000000
  1
SCALE1/1
 50
0.000002504478167
 41
0.470000016689301
  7
STANDARD1
  0
ARC
  8
0
  6
CONTINUOUS
 62
3
 10
-410.395855681202870
 20
-166.081885844485730
 40
69.999999999999972
 50
185.053213672530060
 51
234.443126549156970
  0
ARC
  8
0
  6
CONTINUOUS
 62
3
 10
-451.696631223160470
 20
-97.781110302528248
 40
5.000000000000003
 50
221.817788613224310
 51
232.504024278707390
  0
ARC
  8
0
  6
CONTINUOUS
 62
3
 10
-446.895855681202870
 20
-71.581885844485726
 40
12.000000000000043
 50
338.559749086673040
 51
343.518924885356230
  0
ARC
  8
0
  6
CONTINUOUS
 62
3
 10
-346.895855681202870
 20
-71.581885844485726
 40
12.000000000000002
 50
274.413429774276040
 51
286.715133671077920
  0
ARC
  8
0
  6
CONTINUOUS
 62
3
 10
218.146486439876070
 20
-122.581885844485380
 40
5.000000000000000
 50
90.000000000000000
 51
270.000000000000000
  0
LINE
  8
0
  6
CONTINUOUS
 62
3
 10
258.146486439875160
 20
-117.581885844485380
 11
218.146486439876070
 21
-117.581885844485380
  0
LINE
  8
0
  6
CONTINUOUS
 62
3
 10
258.146486439875160
 20
-127.581885844485380
 11
218.146486439876070
 21
-127.581885844485380
  0
LINE
  8
0
  6
CONTINUOUS
 62
3
 10
258.146486439875160
 20
-122.581885844485380
 11
258.146486439875160
 21
-106.981885844485020
  0
LINE
  8
0
  6
DASHDOT
 62
4
 10
155.076108051960740
 20
-122.581885844485380
 11
273.965101861015000
 21
-122.581885844485380
  0
LINE
  8
0
  6
CONTINUOUS
 62
3
 10
206.146486439853310
 20
-105.581885844485380
 11
207.946486439875310
 21
-105.581885844485380
  0
LINE
  8
0
  6
CONTINUOUS
 62
3
 10
206.146486439853310
 20
-139.581885844485380
 11
207.946486439875310
 21
-139.581885844485380
  0
LINE
  8
0
  6
CONTINUOUS
 62
3
 10
257.746486439875070
 20
-106.581885844485380
 11
210.706294061010540
 21
-106.581885844485380
  0
LINE
  8
0
  6
CONTINUOUS
 62
3
 10
210.146486439875130
 20
-106.731885844485020
 11
210.706294061010540
 21
-106.581885844485380
  0
LINE
  8
0
  6
CONTINUOUS
 62
3
 10
210.146486439875130
 20
-106.731885844485020
 11
208.946486439875310
 21
-106.731885844485020
  0
LINE
  8
0
  6
CONTINUOUS
 62
3
 10
208.146486439875130
 20
-105.781885844485200
 11
208.146486439875130
 21
-122.581885844485380
  0
ARC
  8
0
  6
CONTINUOUS
 62
3
 10
208.946486439875310
 20
-105.931885844485290
 40
0.800000000000237
 50
183.703196634280290
 51
270.000000000000000
  0
LINE
  8
0
  6
CONTINUOUS
 62
3
 10
208.146486439875130
 20
-105.781885844485200
 11
207.946486439875310
 21
-105.581885844485380
  0
LINE
  8
0
  6
CONTINUOUS
 62
3
 10
210.146486439875130
 20
-138.431885844485290
 11
210.706294061010540
 21
-138.581885844485380
  0
LINE
  8
0
  6
CONTINUOUS
 62
3
 10
257.746486439875070
 20
-138.581885844485380
 11
210.706294061010540
 21
-138.581885844485380
  0
LINE
  8
0
  6
CONTINUOUS
 62
3
 10
210.146486439875130
 20
-138.431885844485290
 11
208.946486439875310
 21
-138.431885844485290
  0
LINE
  8
0
  6
CONTINUOUS
 62
3
 10
208.146486439875130
 20
-139.381885844485110
 11
208.146486439875130
 21
-122.581885844485380
  0
ARC
  8
0
  6
CONTINUOUS
 62
3
 10
208.946486439875310
 20
-139.231885844485020
 40
0.799999999999727
 50
90.000000000000000
 51
176.296803365752200
  0
LINE
  8
0
  6
CONTINUOUS
 62
3
 10
208.146486439875130
 20
-139.381885844485110
 11
207.946486439875310
 21
-139.581885844485380
  0
POLYLINE
  8
0
  6
CONTINUOUS
 62
3
 66
1
  0
VERTEX
  8
0
  6
CONTINUOUS
 62
3
 10
200.361371327518300
 20
-122.581885161628390
  0
VERTEX
  8
0
  6
CONTINUOUS
 62
3
 10
200.129557670536510
 20
-120.630982038305030
  0
VERTEX
  8
0
  6
CONTINUOUS
 62
3
 10
199.443025489094540
 20
-118.755051047676280
  0
VERTEX
  8
0
  6
CONTINUOUS
 62
3
 10
198.328157827627000
 20
-117.026183159430090
  0
VERTEX
  8
0
  6
CONTINUOUS
 62
3
 10
196.827798421426080
 20
-115.510817791193510
  0
VERTEX
  8
0
  6
CONTINUOUS
 62
3
 10
194.999605236063960
 20
-114.267189579194300
  0
VERTEX
  8
0
  6
CONTINUOUS
 62
3
 10
192.913834704302760
 20
-113.343090454043000
  0
VERTEX
  8
0
  6
CONTINUOUS
 62
3
 10
190.650641811017920
 20
-112.774033023800740
  0
VERTEX
  8
0
  6
CONTINUOUS
 62
3
 10
188.296999782347680
 20
-112.581885844485380
  0
VERTEX
  8
0
  6
CONTINUOUS
 62
3
 10
185.943357753677450
 20
-112.774033023800740
  0
VERTEX
  8
0
  6
CONTINUOUS
 62
3
 10
183.680164860392610
 20
-113.343090454043000
  0
VERTEX
  8
0
  6
CONTINUOUS
 62
3
 10
181.594394328631440
 20
-114.267189579194300
  0
VERTEX
  8
0
  6
CONTINUOUS
 62
3
 10
179.766201143269290
 20
-115.510817791193510
  0
VERTEX
  8
0
  6
CONTINUOUS
 62
3
 10
178.265841737068370
 20
-117.026183159430090
  0
VERTEX
  8
0
  6
CONTINUOUS
 62
3
 10
177.150974075600830
 20
-118.755051047676280
  0
VERTEX
  8
0
  6
CONTINUOUS
 62
3
 10
176.464441894158850
 20
-120.630982038305030
  0
VERTEX
  8
0
  6
CONTINUOUS
 62
3
 10
176.232628237177070
 20
-122.581885161628390
  0
SEQEND
  8
0
  6
CONTINUOUS
 62
3
  0
LINE
  8
0
  6
CONTINUOUS
 62
3
 10
204.146486439853310
 20
-92.831885844485384
 11
204.146486439853310
 21
-80.898074295655476
  0
LINE
  8
0
  6
CONTINUOUS
 62
3
 10
206.146486439853310
 20
-232.478952168906690
 11
206.146486439853310
 21
-247.581885844485380
  0
LINE
  8
0
  6
CONTINUOUS
 62
3
 10
204.146486439853310
 20
-156.831874560788440
 11
204.146486439853310
 21
-87.831885844485384
  0
LINE
  8
0
  6
CONTINUOUS
 62
3
 10
206.146486439853310
 20
-88.831885844485384
 11
206.146486439853310
 21
-155.831874560788440
  0
LINE
  8
0
  6
DASHDOT
 62
4
 10
193.146486439853310
 20
-225.359846621768100
 11
193.146486439853310
 21
-253.800570231692230
  0
LINE
  8
0
  6
CONTINUOUS
 62
3
 10
204.146486439853310
 20
-156.831874560788440
 11
204.146486439853310
 21
-228.478952168906690
  0
LINE
  8
0
  6
CONTINUOUS
 62
3
 10
206.146486439853310
 20
-232.428779544629780
 11
206.146486439853310
 21
-234.228058281627850
  0
LINE
  8
0
  6
CONTINUOUS
 62
3
 10
206.146486439853310
 20
-155.831874560788440
 11
205.146486439853310
 21
-155.831874560788440
  0
LINE
  8
0
  6
CONTINUOUS
 62
3
 10
205.146486439853310
 20
-88.831885844485384
 11
206.146486439853310
 21
-88.831885844485384
  0
LINE
  8
0
  6
CONTINUOUS
 62
3
 10
200.361371327518300
 20
-122.581885844485380
 11
200.361371327518300
 21
-226.482798848743130
  0
LINE
  8
0
  6
CONTINUOUS
 62
3
 10
176.232628237177070
 20
-122.581885844485380
 11
176.232628237177070
 21
-225.640204573159680
  0
ARC
  8
0
  6
CONTINUOUS
 62
3
 10
149.424817989243110
 20
-123.487615414164280
 40
70.000000000000341
 50
39.469308363517086
 51
88.999999999999716
  0
ARC
  8
0
  6
CONTINUOUS
 62
3
 10
205.146486439853310
 20
-156.831874560788440
 40
1.000000000000000
 50
90.000000000000000
 51
180.000000000000000
  0
ARC
  8
0
  6
CONTINUOUS
 62
3
 10
179.232628237177070
 20
-225.640204573159680
 40
3.000000000000000
 50
180.000000000000000
 51
268.000000000005000
  0
ARC
  8
0
  6
CONTINUOUS
 62
3
 10
203.361371327518300
 20
-226.482798848743130
 40
3.000000000000000
 50
180.000000000000000
 51
268.000000000005000
  0
ARC
  8
0
  6
CONTINUOUS
 62
3
 10
206.146486439853310
 20
-228.478952168906690
 40
2.000000000000000
 50
180.000000000000000
 51
233.130102354158570
  0
ARC
  8
0
  6
CONTINUOUS
 62
3
 10
203.146486439853310
 20
-232.478952168906690
 40
3.000000000000000
 50
0.000000000000000
 51
87.999999999996348
  0
ARC
  8
0
  6
CONTINUOUS
 62
3
 10
201.146486439853310
 20
-80.898074295655476
 40
3.000000000000000
 50
0.000000000000000
 51
39.469308363522465
  0
ARC
  8
0
  6
CONTINUOUS
 62
3
 10
205.146486439853310
 20
-87.831885844485384
 40
1.000000000000000
 50
180.000000000000000
 51
270.000000000000000
  0
LINE
  8
0
  6
CONTINUOUS
 62
3
 10
176.146486439853310
 20
-228.534262759732830
 11
203.251184929961000
 21
-229.480779687849410
  0
ARC
  8
0
  6
CONTINUOUS
 62
3
 10
257.746486439875070
 20
-106.981885844485020
 40
0.400000000000091
 50
0.000000000000000
 51
90.000000000000000
  0
LINE
  8
0
  6
CONTINUOUS
 62
3
 10
258.146486439875160
 20
-122.581885844485380
 11
258.146486439875160
 21
-138.181885844485290
  0
ARC
  8
0
  6
CONTINUOUS
 62
3
 10
257.746486439875070
 20
-138.181885844485290
 40
0.400000000000091
 50
270.000000000000000
 51
0.000000000000000
  0
LINE
  8
0
  6
DASHDOT
 62
4
 10
75.884446442799202
 20
-65.431406009913132
 11
47.305119690058604
 21
-65.431406009913132
  0
LINE
  8
0
  6
CONTINUOUS
 62
3
 10
55.146486439845120
 20
-82.573926151321700
 11
45.146486439840004
 21
-82.573926151321700
  0
LINE
  8
0
  6
CONTINUOUS
 62
3
 10
85.646486439845120
 20
-82.573926151321700
 11
55.146486439845120
 21
-82.573926151321700
  0
LINE
  8
0
  6
CONTINUOUS
 62
3
 10
45.146486439840004
 20
-220.374122928635980
 11
45.146486439840004
 21
-232.386346040692790
  0
LINE
  8
0
  6
CONTINUOUS
 62
3
 10
45.922909571283839
 20
-230.372467715281120
 11
45.146486439840004
 21
-230.372467715281120
  0
ARC
  8
0
  6
CONTINUOUS
 62
3
 10
8.146471085704974
 20
-83.581885844483736
 40
3.000000000000000
 50
180.000000000002160
 51
270.000000000000000
  0
LINE
  8
0
  6
CONTINUOUS
 62
3
 10
55.146486033946843
 20
-70.355178943863621
 11
48.146486439840004
 21
-70.355178943863621
  0
ARC
  8
0
  6
CONTINUOUS
 62
3
 10
48.146486439840004
 20
-73.355178943863621
 40
3.000000000000000
 50
90.000000000000000
 51
180.000000000000000
  0
ARC
  8
0
  6
CONTINUOUS
 62
3
 10
44.146486439840004
 20
-76.581885844483509
 40
1.000000000000000
 50
0.000000000000000
 51
90.000000000000000
  0
LINE
  8
0
  6
CONTINUOUS
 62
3
 10
44.146486439840004
 20
-75.581885844483509
 11
-11.353528914294458
 21
-75.581885844483509
  0
LINE
  8
0
  6
CONTINUOUS
 62
3
 10
45.146486439840004
 20
-77.581885844483509
 11
45.146486439840004
 21
-220.374122928635980
  0
LINE
  8
0
  6
CONTINUOUS
 62
3
 10
45.146486439840004
 20
-73.355178943863621
 11
45.146486439840004
 21
-77.581885844483509
  0
ARC
  8
0
  6
CONTINUOUS
 62
3
 10
42.146486439840004
 20
-83.581885844483736
 40
3.000000000000000
 50
270.000000000000000
 51
0.000000000000000
  0
LINE
  8
0
  6
CONTINUOUS
 62
3
 10
-11.353528914294458
 20
-75.581885844483509
 11
-11.353528914299801
 21
-180.590613108940150
  0
LINE
  8
0
  6
CONTINUOUS
 62
3
 10
4.146458142088335
 20
-91.081885844483963
 11
4.146456685237894
 21
-91.081885844483963
  0
ARC
  8
0
  6
CONTINUOUS
 62
3
 10
0.146471085704860
 20
-80.581885844483509
 40
5.000000000000000
 50
0.000000000001303
 51
90.000000000000000
  0
LINE
  8
0
  6
CONTINUOUS
 62
3
 10
5.146471085704860
 20
-80.581885844483395
 11
5.146471085705656
 21
-109.581885844483730
  0
LINE
  8
0
  6
DASHDOT
 62
4
 10
24.146486439840004
 20
-100.325997836202640
 11
24.146486439840004
 21
-71.686095575387185
  0
ARC
  8
0
  6
CONTINUOUS
 62
3
 10
-4.853528914299233
 20
-169.081885844481010
 40
5.000000000000000
 50
359.999999999997390
 51
90.000000000000000
  0
LINE
  8
0
  6
CONTINUOUS
 62
3
 10
55.146486439840004
 20
-73.571716981988288
 11
45.146486439840004
 21
-73.571716981988288
  0
ARC
  8
0
  6
CONTINUOUS
 62
3
 10
42.146486439840004
 20
-109.581885844483620
 40
3.000000000000000
 50
270.000000000000000
 51
0.000000000000000
  0
ARC
  8
0
  6
CONTINUOUS
 62
3
 10
42.146486439840004
 20
-151.081885844481230
 40
3.000000000000000
 50
0.000000000000000
 51
90.000000000000000
  0
ARC
  8
0
  6
CONTINUOUS
 62
3
 10
8.146471085705656
 20
-109.581885844483620
 40
3.000000000000000
 50
180.000000000002160
 51
270.000000000000000
  0
LINE
  8
0
  6
CONTINUOUS
 62
3
 10
42.146486439840004
 20
-86.581885844483736
 11
8.146471085704974
 21
-86.581885844483736
  0
LINE
  8
0
  6
CONTINUOUS
 62
3
 10
55.146486439840004
 20
-223.654393082596810
 11
45.146486439840004
 21
-223.654393082596810
  0
LINE
  8
0
  6
CONTINUOUS
 62
3
 10
45.146486439840004
 20
-157.569378022202610
 11
55.146486439840004
 21
-157.569378022202610
  0
LINE
  8
0
  6
CONTINUOUS
 62
3
 10
55.146486439840004
 20
-137.595196630531010
 11
45.146486439840004
 21
-137.595196630531010
  0
LINE
  8
0
  6
CONTINUOUS
 62
3
 10
-11.353528914298948
 20
-164.081885844481010
 11
-4.853528914299233
 21
-164.081885844481010
  0
LINE
  8
0
  6
CONTINUOUS
 62
3
 10
42.146486439840004
 20
-148.081885844481230
 11
-11.353528914298153
 21
-148.081885844481230
  0
POINT
  8
0
  6
CONTINUOUS
 62
3
 10
45.146486439840004
 20
-233.081885844483510
  0
POINT
  8
0
  6
CONTINUOUS
 62
3
 10
45.146486439840004
 20
-231.081885844483510
  0
LINE
  8
0
  6
CONTINUOUS
 62
3
 10
42.146486439840004
 20
-112.581885844483620
 11
8.146471085705656
 21
-112.581885844483620
  0
LINE
  8
0
  6
CONTINUOUS
 62
3
 10
-11.353528914296106
 20
-108.081885844481230
 11
5.146471085705656
 21
-108.081885844481230
  0
INSERT
  8
0
  2
SYM10
 10
45.146486439845120
 20
-207.382661386440760
  0
INSERT
  8
0
  2
SYM11
 10
45.146486439845120
 20
-97.781110302526031
  0
LINE
  8
0
  6
CONTINUOUS
 62
3
 10
66.646485490822869
 20
-58.931406009913132
 11
59.146486444497185
 21
-58.931406009913132
  0
LINE
  8
0
  6
CONTINUOUS
 62
3
 10
59.146486444497185
 20
-58.931406009913132
 11
59.146486444497185
 21
-68.581886136429546
  0
LINE
  8
0
  6
CONTINUOUS
 62
3
 10
58.646486444497185
 20
-59.797530163050340
 11
58.646486444497185
 21
-68.599346521175846
  0
LINE
  8
0
  6
CONTINUOUS
 62
3
 10
59.146487082354923
 20
-58.931405985845174
 11
58.646487056207860
 21
-59.797530125979335
  0
LINE
  8
0
  6
CONTINUOUS
 62
3
 10
55.146486439845120
 20
-68.651727675575444
 11
55.146486439845120
 21
-228.907363281329250
  0
LINE
  8
0
  6
CONTINUOUS
 62
3
 10
75.146486439853305
 20
-227.558318155015460
 11
47.944588448097619
 21
-229.393147550627820
  0
ARC
  8
0
  6
CONTINUOUS
 62
3
 10
48.146486439853305
 20
-232.386346040692790
 40
3.000000000000365
 50
93.858884296478166
 51
180.000000000000000
  0
LINE
  8
0
  6
CONTINUOUS
 62
3
 10
100.065678715636490
 20
-225.877462410449820
 11
75.146486439853305
 21
-227.558318155015460
  0
LINE
  8
0
  6
DASHDOT
 62
4
 10
58.146486439853305
 20
-225.359846621768100
 11
58.146486439853305
 21
-254.284027835146790
  0
LINE
  8
0
  6
CONTINUOUS
 62
3
 10
45.146486439853305
 20
-232.386346040692790
 11
45.146486439853305
 21
-247.581885844485380
  0
LINE
  8
0
  6
CONTINUOUS
 62
3
 10
89.146486439853305
 20
-247.581885844485380
 11
45.146486439853305
 21
-247.581885844485380
  0
LINE
  8
0
  6
CONTINUOUS
 62
3
 10
97.646486439851486
 20
-52.581885844485384
 11
74.146486439851486
 21
-52.581885844483566
  0
ARC
  8
0
  6
CONTINUOUS
 62
3
 10
74.146486439851486
 20
-55.581885844483566
 40
3.000000000000000
 50
90.000000000000000
 51
180.000000000000000
  0
LINE
  8
0
  6
CONTINUOUS
 62
3
 10
70.181385936553141
 20
-68.126697415919750
 11
55.146486439845120
 21
-68.651727675575444
  0
LINE
  8
0
  6
CONTINUOUS
 62
3
 10
71.146486439850577
 20
-67.127306588900808
 11
71.146486439851486
 21
-55.581885844483566
  0
ARC
  8
0
  6
CONTINUOUS
 62
3
 10
70.146486439850577
 20
-67.127306588900808
 40
0.999999999999849
 50
272.000000000003920
 51
0.000000000000000
  0
LINE
  8
0
  6
CONTINUOUS
 62
3
 10
71.146485490825597
 20
-21.431406009913132
 11
71.146485490825597
 21
-67.128684285909856
  0
LINE
  8
0
  6
CONTINUOUS
 62
3
 10
66.646485490821959
 20
-68.250138859561446
 11
66.646485490825597
 21
-21.431406009913132
  0
LINE
  8
0
  6
CONTINUOUS
 62
3
 10
85.646486439845120
 20
-137.595196630532830
 11
55.146486439845120
 21
-137.595196630532830
  0
LINE
  8
0
  6
CONTINUOUS
 62
3
 10
85.646486439845120
 20
-157.569378022204490
 11
55.146486439845120
 21
-157.569378022204490
  0
LINE
  8
0
  6
CONTINUOUS
 62
3
 10
84.190512981672072
 20
-223.654393082598690
 11
55.146486439845120
 21
-223.654393082598690
  0
LINE
  8
0
  6
CONTINUOUS
 62
3
 10
77.646487393519436
 20
-73.571716981989937
 11
55.146486439845120
 21
-73.571716981989937
  0
INSERT
  8
0
  2
SYM12
 10
85.646486439845120
 20
-147.581885844485380
  0
INSERT
  8
0
  2
SYM13
 10
85.646486439845120
 20
-71.581885844485384
  0
LINE
  8
0
  6
CONTINUOUS
 62
3
 10
97.646486439846939
 20
-152.581885844485380
 11
97.646486439851486
 21
-52.581885844485384
  0
LINE
  8
0
  6
CONTINUOUS
 62
3
 10
83.646486439845120
 20
-121.581885844485380
 11
83.646486439845120
 21
-133.581885844485380
  0
ARC
  8
0
  6
CONTINUOUS
 62
3
 10
85.646486439845120
 20
-133.581885844485380
 40
2.000000000000000
 50
180.000000000000000
 51
240.000000000002730
  0
ARC
  8
0
  6
CONTINUOUS
 62
3
 10
83.646486439845120
 20
-137.045987459623060
 40
2.000000000000000
 50
0.000000000000000
 51
59.999999999996206
  0
ARC
  8
0
  6
CONTINUOUS
 62
3
 10
85.646486439845120
 20
-121.581885844485380
 40
2.000000000000164
 50
119.999999999997270
 51
180.000000000000000
  0
ARC
  8
0
  6
CONTINUOUS
 62
3
 10
83.646486439845120
 20
-118.117784229347700
 40
1.999999999999770
 50
300.000000000003810
 51
0.000000000000000
  0
LINE
  8
0
  6
CONTINUOUS
 62
3
 10
85.646486439845120
 20
-55.581885844484475
 11
85.646486439845120
 21
-118.117784229347700
  0
LINE
  8
0
  6
CONTINUOUS
 62
3
 10
85.646486439845120
 20
-137.045987459623060
 11
85.646486439844665
 21
-222.370284840482270
  0
ARC
  8
0
  6
CONTINUOUS
 62
3
 10
98.146486439853305
 20
-191.527792248307780
 40
2.000000000000000
 50
0.000000000000000
 51
90.000000000000000
  0
LINE
  8
0
  6
CONTINUOUS
 62
3
 10
100.146486439853300
 20
-191.527792248307780
 11
100.146486439853300
 21
-208.679081449757120
  0
LINE
  8
0
  6
CONTINUOUS
 62
3
 10
98.146486439853305
 20
-52.581885844485384
 11
98.146486439853305
 21
-211.345802947380380
  0
LINE
  8
0
  6
CONTINUOUS
 62
3
 10
100.065678715636490
 20
-225.877462410449820
 11
176.146486439853310
 21
-228.534262759732830
  0
LINE
  8
0
  6
CONTINUOUS
 62
3
 10
98.146486439853305
 20
-52.581885844485384
 11
150.646486439853310
 21
-53.498276753216885
  0
ARC
  8
0
  6
CONTINUOUS
 62
3
 10
78.114037893584026
 20
-222.346788505138140
 40
4.999999999999822
 50
273.858884296473550
 51
311.410957896502510
  0
LINE
  8
0
  6
CONTINUOUS
 62
3
 10
99.469397065853826
 20
-210.179050607978240
 11
81.421314458585783
 21
-226.096711400690710
  0
ARC
  8
0
  6
CONTINUOUS
 62
3
 10
98.146486439853305
 20
-208.679081449757120
 40
1.999999999999916
 50
311.410957896496880
 51
0.000000000000000
  0
LINE
  8
0
  6
CONTINUOUS
 62
3
 10
206.146486439853310
 20
-247.581885844485380
 11
89.146486439853305
 21
-247.581885844485380
  0
LINE
  8
0
  6
CONTINUOUS
 62
3
 10
97.646486439845120
 20
-152.581885844485380
 11
97.646486439845120
 21
-211.786782223111860
  0
LINE
  8
0
  6
DASHDOT
 62
4
 10
60.916238090009045
 20
-41.431406009913132
 11
79.015504105300550
 21
-41.431406009913132
  0
LINE
  8
0
  6
CONTINUOUS
 62
3
 10
66.646485490825597
 20
-21.431406009913132
 11
71.146485490825597
 21
-21.431406009913132
  0
ARC
  8
0
  6
CONTINUOUS
 62
3
 10
88.646486439851486
 20
-55.581885844484475
 40
3.000000000000000
 50
90.000000000000000
 51
180.000000000000000
  0
LINE
  8
0
  6
CONTINUOUS
 62
3
 10
-11.353528914289797
 20
68.418114155516491
 11
-11.353528914289797
 21
121.918114155516490
  0
LINE
  8
0
  6
CONTINUOUS
 62
3
 10
-11.353528914289797
 20
175.418114155516490
 11
-11.353528914289797
 21
121.918114155516490
  0
LINE
  8
0
  6
CONTINUOUS
 62
3
 10
48.146486439852396
 20
38.418114155516491
 11
55.146486439852396
 21
38.418114155516491
  0
ARC
  8
0
  6
CONTINUOUS
 62
3
 10
48.146486439852396
 20
41.418114155516491
 40
3.000000000000000
 50
180.000000000000000
 51
270.000000000000000
  0
ARC
  8
0
  6
CONTINUOUS
 62
3
 10
0.146471085714637
 20
73.418114155516491
 40
5.000000000000000
 50
270.000000000000000
 51
0.000000000000000
  0
INSERT
  8
0
  2
SYM14
 10
45.146486439852396
 20
67.117338613559127
  0
LINE
  8
0
  6
CONTINUOUS
 62
3
 10
41.146945345693297
 20
68.418114155516491
 11
-11.353528914295140
 21
68.418114155516491
  0
LINE
  8
0
  6
CONTINUOUS
 62
3
 10
45.146486439852396
 20
121.918114155516490
 11
45.146486439852396
 21
41.418114155516491
  0
ARC
  8
0
  6
CONTINUOUS
 62
3
 10
42.146486439852396
 20
103.918114155516490
 40
3.000000000000000
 50
0.000000000000000
 51
90.000000000000000
  0
LINE
  8
0
  6
CONTINUOUS
 62
3
 10
5.146471085714637
 20
103.918114155516490
 11
5.146471085714637
 21
73.418114155516491
  0
LINE
  8
0
  6
CONTINUOUS
 62
3
 10
8.146471085714637
 20
106.918114155516490
 11
42.146486439852396
 21
106.918114155516490
  0
ARC
  8
0
  6
CONTINUOUS
 62
3
 10
8.146471085714637
 20
103.918114155516490
 40
3.000000000000000
 50
90.000000000000000
 51
180.000000000000000
  0
CIRCLE
  8
0
  6
CONTINUOUS
 62
3
 10
24.146486439852396
 20
121.918114155516490
 40
10.500000000000000
  0
LINE
  8
0
  6
DASHDOT
 62
4
 10
24.146486439852396
 20
108.167349347366660
 11
24.146486439852396
 21
135.943432119007750
  0
ARC
  8
0
  6
CONTINUOUS
 62
3
 10
8.146471085714637
 20
139.918114155516490
 40
3.000000000000000
 50
180.000000000000000
 51
270.000000000000000
  0
ARC
  8
0
  6
CONTINUOUS
 62
3
 10
42.146486439852396
 20
139.918114155516490
 40
3.000000000000000
 50
270.000000000000000
 51
0.000000000000000
  0
LINE
  8
0
  6
CONTINUOUS
 62
3
 10
8.146471085714637
 20
136.918114155516490
 11
42.146486439852396
 21
136.918114155516490
  0
LINE
  8
0
  6
CONTINUOUS
 62
3
 10
48.146486439852396
 20
205.418114155516490
 11
55.146486439852396
 21
205.418114155516490
  0
ARC
  8
0
  6
CONTINUOUS
 62
3
 10
48.146486439852396
 20
202.418114155516490
 40
3.000000000000000
 50
90.000000000000000
 51
180.000000000000000
  0
ARC
  8
0
  6
CONTINUOUS
 62
3
 10
0.146471085714637
 20
170.418114155516490
 40
5.000000000000000
 50
0.000000000000000
 51
90.000000000000000
  0
INSERT
  8
0
  2
SYM15
 10
45.146486439852396
 20
176.718889697473860
 41
-1.000000000000000
 50
180.000000000000000
  0
LINE
  8
0
  6
CONTINUOUS
 62
3
 10
41.146497604914742
 20
175.418114155516490
 11
-11.353528914295140
 21
175.418114155516490
  0
LINE
  8
0
  6
CONTINUOUS
 62
3
 10
45.146486439852396
 20
121.918114155516490
 11
45.146486439852396
 21
202.418114155516490
  0
LINE
  8
0
  6
CONTINUOUS
 62
3
 10
5.146471085714637
 20
139.918114155516490
 11
5.146471085714637
 21
170.418114155516490
  0
LINE
  8
0
  6
CONTINUOUS
 62
3
 10
55.146486439852396
 20
38.418114155520584
 11
55.146486439852396
 21
205.418114155516490
  0
INSERT
  8
0
  2
SYM16
 10
85.646486439852396
 20
71.918114155517856
  0
LINE
  8
0
  6
CONTINUOUS
 62
3
 10
97.646486439852396
 20
121.918114155516030
 11
97.646486439852396
 21
27.918114155517856
  0
ARC
  8
0
  6
CONTINUOUS
 62
3
 10
87.646486439852396
 20
29.918114155517856
 40
2.000000000000000
 50
180.000000000000000
 51
270.000000000000000
  0
ARC
  8
0
  6
CONTINUOUS
 62
3
 10
82.646486439852396
 20
98.418114155517856
 40
3.000000000000000
 50
0.000000000000000
 51
90.000000000000000
  0
LINE
  8
0
  6
CONTINUOUS
 62
3
 10
98.146486439852396
 20
27.918114155517856
 11
85.646486439852396
 21
27.918114155517856
  0
ARC
  8
0
  6
CONTINUOUS
 62
3
 10
85.646486439852396
 20
29.918114155517856
 40
2.000000000000000
 50
180.000000000000000
 51
270.000000000000000
  0
LINE
  8
0
  6
CONTINUOUS
 62
3
 10
83.646486439852396
 20
31.418114155517856
 11
78.146488347201029
 21
31.418114155517856
  0
LINE
  8
0
  6
CONTINUOUS
 62
3
 10
78.146488658011748
 20
31.418114178218843
 11
77.646487707818977
 21
32.284043749287434
  0
LINE
  8
0
  6
CONTINUOUS
 62
3
 10
85.646486439852396
 20
98.418114155517856
 11
85.646486439852396
 21
29.918114155517856
  0
INSERT
  8
0
  2
SYM17
 10
66.646486439857853
 20
111.418114155517850
  0
ARC
  8
0
  6
CONTINUOUS
 62
3
 10
74.146486439858762
 20
104.418114155517850
 40
3.000000000000000
 50
180.000000000000000
 51
270.000000000000000
  0
LINE
  8
0
  6
CONTINUOUS
 62
3
 10
71.146486439858762
 20
121.918114155516940
 11
71.146486439858762
 21
101.418114155517850
  0
LINE
  8
0
  6
CONTINUOUS
 62
3
 10
66.646486439857853
 20
121.918114155517850
 11
66.646486439857853
 21
101.418114155517850
  0
LINE
  8
0
  6
CONTINUOUS
 62
3
 10
71.146486439858762
 20
101.418114155517850
 11
66.646486439857853
 21
101.418114155517850
  0
LINE
  8
0
  6
CONTINUOUS
 62
3
 10
82.646486439852396
 20
101.418114155517850
 11
74.146486439858762
 21
101.418114155517850
  0
ARC
  8
0
  6
CONTINUOUS
 62
3
 10
82.646486439852396
 20
34.455964361600877
 40
3.000000000000000
 50
0.000000000000000
 51
87.999999999996646
  0
LINE
  8
0
  6
CONTINUOUS
 62
3
 10
55.146486439852396
 20
38.418114155520584
 11
82.751184929960090
 21
37.454136842658613
  0
LINE
  8
0
  6
CONTINUOUS
 62
3
 10
83.646486439852396
 20
34.525805900584260
 11
83.646486439852396
 21
29.918114155517856
  0
ARC
  8
0
  6
CONTINUOUS
 62
3
 10
80.646486439852396
 20
34.525805900584260
 40
3.000000000000000
 50
0.000000000000000
 51
87.999999999996646
  0
LINE
  8
0
  6
CONTINUOUS
 62
3
 10
78.146487393526712
 20
37.684777962890735
 11
78.146487393526712
 21
31.418114155517856
  0
LINE
  8
0
  6
CONTINUOUS
 62
3
 10
77.646487393527167
 20
37.702238347636580
 11
77.646487393526712
 21
32.284043759094516
  0
INSERT
  8
0
  2
SYM18
 10
85.646486439855579
 20
171.918114155515580
 41
-1.000000000000000
 50
179.999999999996310
  0
LINE
  8
0
  6
CONTINUOUS
 62
3
 10
97.646486439852396
 20
121.918114155516490
 11
97.646486439858535
 21
215.918114155514670
  0
ARC
  8
0
  6
CONTINUOUS
 62
3
 10
87.646486439858307
 20
213.918114155515130
 40
2.000000000000000
 50
90.000000000000000
 51
179.999999999986980
  0
ARC
  8
0
  6
CONTINUOUS
 62
3
 10
82.646486439853987
 20
145.418114155515580
 40
3.000000000000000
 50
270.000000000000000
 51
0.000000000000000
  0
LINE
  8
0
  6
CONTINUOUS
 62
3
 10
98.146486439852396
 20
215.918114155514670
 11
85.646486439858535
 21
215.918114155515580
  0
ARC
  8
0
  6
CONTINUOUS
 62
3
 10
85.646486439858307
 20
213.918114155515580
 40
2.000000000000000
 50
90.000000000000000
 51
180.000000000000000
  0
LINE
  8
0
  6
CONTINUOUS
 62
3
 10
83.646486439858194
 20
212.418114155515700
 11
78.146488347206940
 21
212.418114155516040
  0
LINE
  8
0
  6
CONTINUOUS
 62
3
 10
78.146488658017660
 20
212.418114132815050
 11
77.646487707824662
 21
211.552184561746460
  0
LINE
  8
0
  6
CONTINUOUS
 62
3
 10
85.646486439853987
 20
145.418114155515580
 11
85.646486439858307
 21
213.918114155515580
  0
INSERT
  8
0
  2
SYM19
 10
66.646486439858535
 20
132.418114155516490
 41
-1.000000000000000
 50
179.999999999996310
  0
ARC
  8
0
  6
CONTINUOUS
 62
3
 10
74.146486439859899
 20
139.418114155516040
 40
3.000000000000000
 50
90.000000000000000
 51
179.999999999991330
  0
LINE
  8
0
  6
CONTINUOUS
 62
3
 10
71.146486439858762
 20
121.918114155517400
 11
71.146486439860126
 21
142.418114155516490
  0
LINE
  8
0
  6
CONTINUOUS
 62
3
 10
66.646486439857853
 20
121.918114155516490
 11
66.646486439859217
 21
142.418114155516490
  0
LINE
  8
0
  6
CONTINUOUS
 62
3
 10
71.146486439860126
 20
142.418114155516490
 11
66.646486439859217
 21
142.418114155516490
  0
LINE
  8
0
  6
CONTINUOUS
 62
3
 10
82.646486439853760
 20
142.418114155515580
 11
74.146486439860126
 21
142.418114155516040
  0
ARC
  8
0
  6
CONTINUOUS
 62
3
 10
82.646486439858080
 20
209.380263949432560
 40
3.000000000000447
 50
271.999999999999030
 51
0.000000000000000
  0
LINE
  8
0
  6
CONTINUOUS
 62
3
 10
55.146486439857853
 20
205.418114155514670
 11
82.751184929965547
 21
206.382091468374820
  0
LINE
  8
0
  6
CONTINUOUS
 62
3
 10
83.646486439858080
 20
209.310422410449180
 11
83.646486439858307
 21
213.918114155515580
  0
ARC
  8
0
  6
CONTINUOUS
 62
3
 10
80.646486439858080
 20
209.310422410449180
 40
3.000000000000447
 50
271.999999999999030
 51
0.000000000000000
  0
LINE
  8
0
  6
CONTINUOUS
 62
3
 10
78.146487393532169
 20
206.151450348143160
 11
78.146487393532624
 21
212.418114155516040
  0
LINE
  8
0
  6
CONTINUOUS
 62
3
 10
77.646487393532624
 20
206.133989963397310
 11
77.646487393532396
 21
211.552184551939380
  0
ARC
  8
0
  6
CONTINUOUS
 62
3
 10
257.746486439875070
 20
106.318114155516120
 40
0.400000000000091
 50
270.000000000000000
 51
0.000000000000000
  0
ARC
  8
0
  6
CONTINUOUS
 62
3
 10
257.746486439875070
 20
137.518114155515950
 40
0.400000000000091
 50
0.000000000000000
 51
90.000000000000000
  0
LINE
  8
0
  6
CONTINUOUS
 62
3
 10
258.146486439875160
 20
121.918114155516490
 11
258.146486439875160
 21
137.518114155516400
  0
LINE
  8
0
  6
CONTINUOUS
 62
3
 10
258.146486439875160
 20
121.918114155516490
 11
258.146486439875160
 21
102.918114155516490
  0
LINE
  8
0
  6
CONTINUOUS
 62
3
 10
103.146486439852390
 20
20.120242467909634
 11
201.233748472038060
 21
21.832361995312681
  0
ARC
  8
0
  6
CONTINUOUS
 62
3
 10
201.146486439852400
 20
187.654290899130610
 40
3.000000000000000
 50
0.000000000000000
 51
39.469308363515758
  0
ARC
  8
0
  6
CONTINUOUS
 62
3
 10
199.746328412401650
 20
189.299866924491310
 40
3.000000000000300
 50
41.317082812093204
 51
88.999999999989555
  0
ARC
  8
0
  6
CONTINUOUS
 62
3
 10
173.220709717840890
 20
207.696654883699130
 40
2.999999999999899
 50
4.937727294942317
 51
69.196592175621532
  0
ARC
  8
0
  6
CONTINUOUS
 62
3
 10
149.424817989242200
 20
145.064749780621810
 40
70.000000000000043
 50
39.469308363516802
 51
41.317082812097503
  0
ARC
  8
0
  6
CONTINUOUS
 62
3
 10
149.424817989242200
 20
145.064749780621810
 40
70.000000000000156
 50
69.196592175610675
 51
88.999999999999716
  0
ARC
  8
0
  6
CONTINUOUS
 62
3
 10
58.146486439852396
 20
209.418114155516490
 40
5.999999999999969
 50
320.220895731258050
 51
221.810314895778110
  0
ARC
  8
0
  6
CONTINUOUS
 62
3
 10
205.146486439853310
 20
156.418114155516490
 40
1.000000000000000
 50
180.000000000000000
 51
270.000000000000000
  0
ARC
  8
0
  6
CONTINUOUS
 62
3
 10
193.146486439852400
 20
209.418114155516490
 40
16.999999999999638
 50
184.937727294950460
 51
268.999999999999770
  0
ARC
  8
0
  6
CONTINUOUS
 62
3
 10
193.146486439852400
 20
34.418114155516491
 40
16.999999999999773
 50
91.000000000000256
 51
175.062272705051070
  0
ARC
  8
0
  6
CONTINUOUS
 62
3
 10
205.146486439852400
 20
87.418114155516491
 40
1.000000000000000
 50
90.000000000000000
 51
180.000000000000000
  0
CIRCLE
  8
0
  6
CONTINUOUS
 62
3
 10
193.146486439852400
 20
34.418114155516491
 40
6.000000000000000
  0
ARC
  8
0
  6
CONTINUOUS
 62
3
 10
58.146486439852396
 20
34.418114155516491
 40
6.000000000000058
 50
138.189685104221890
 51
39.779104268765877
  0
ARC
  8
0
  6
CONTINUOUS
 62
3
 10
149.424817989242200
 20
98.771478530410718
 40
70.000000000000014
 50
271.000000000000280
 51
290.803407824389690
  0
ARC
  8
0
  6
CONTINUOUS
 62
3
 10
149.424817989242200
 20
98.771478530410718
 40
70.000000000000327
 50
318.682917187902550
 51
320.530691636482910
  0
ARC
  8
0
  6
CONTINUOUS
 62
3
 10
173.220709717840890
 20
36.139573427333858
 40
3.000000000000189
 50
290.803407824383500
 51
355.062272705049050
  0
ARC
  8
0
  6
CONTINUOUS
 62
3
 10
199.746328412401650
 20
54.536361386541216
 40
3.000000000000049
 50
271.000000000010400
 51
318.682917187906810
  0
ARC
  8
0
  6
CONTINUOUS
 62
3
 10
201.146486439852400
 20
56.181937411901458
 40
3.000000000000058
 50
320.530691636484220
 51
0.000000000000000
  0
CIRCLE
  8
0
  6
CONTINUOUS
 62
3
 10
193.146486439852400
 20
209.418114155516490
 40
6.000000000000000
  0
LINE
  8
0
  6
DASHDOT
 62
4
 10
58.146486439852396
 20
221.442210541058670
 11
58.146486439852396
 21
197.394017769974310
  0
LINE
  8
0
  6
DASHDOT
 62
4
 10
70.170582825394575
 20
209.418114155516490
 11
46.122390054310216
 21
209.418114155516490
  0
LINE
  8
0
  6
CONTINUOUS
 62
3
 10
98.146486439852396
 20
121.918114155516490
 11
98.146486439852396
 21
215.970479350301160
  0
LINE
  8
0
  6
CONTINUOUS
 62
3
 10
98.146486439852396
 20
215.970479350301160
 11
150.646486439852400
 21
215.054088441569210
  0
LINE
  8
0
  6
CONTINUOUS
 62
3
 10
192.849795530418500
 20
192.420703337857620
 11
199.798685631714050
 21
192.299410009960520
  0
LINE
  8
0
  6
CONTINUOUS
 62
3
 10
204.146486439852400
 20
121.918114155516490
 11
204.146486439852400
 21
187.654290899130610
  0
LINE
  8
0
  6
CONTINUOUS
 62
3
 10
206.146486439853760
 20
121.918114155516490
 11
206.146486439851490
 21
217.004627839937830
  0
LINE
  8
0
  6
CONTINUOUS
 62
3
 10
206.146486439852400
 20
46.918114155516037
 11
206.146486439851490
 21
26.918117127112168
  0
LINE
  8
0
  6
CONTINUOUS
 62
3
 10
206.146486439853310
 20
121.918114155516490
 11
206.146486439851490
 21
26.831600471094703
  0
LINE
  8
0
  6
CONTINUOUS
 62
3
 10
204.146486439852400
 20
121.918114155516490
 11
204.146486439852400
 21
56.181937411901458
  0
LINE
  8
0
  6
CONTINUOUS
 62
3
 10
192.849795530418500
 20
51.415524973174911
 11
199.798685631714050
 21
51.536818301072003
  0
LINE
  8
0
  6
CONTINUOUS
 62
3
 10
98.146486439852396
 20
27.865748960731935
 11
150.646486439852400
 21
28.782139869463322
  0
LINE
  8
0
  6
DASHDOT
 62
4
 10
193.146486439852400
 20
23.128979123335739
 11
193.146486439852400
 21
47.028414821652404
  0
LINE
  8
0
  6
DASHDOT
 62
4
 10
204.224502806584500
 20
34.418114155516491
 11
181.756543725612570
 21
34.418114155516491
  0
LINE
  8
0
  6
CONTINUOUS
 62
3
 10
98.146486439852396
 20
121.918114155516490
 11
98.146486439852396
 21
27.865748960731935
  0
LINE
  8
0
  6
DASHDOT
 62
4
 10
70.170582825394575
 20
34.418114155516491
 11
46.122390054310216
 21
34.418114155516491
  0
LINE
  8
0
  6
DASHDOT
 62
4
 10
58.146486439852396
 20
22.394017769974312
 11
58.146486439852396
 21
42.101124034834470
  0
LINE
  8
0
  6
DASHDOT
 62
4
 10
204.260771479010150
 20
209.418114155516490
 11
182.117032180009120
 21
209.418114155516490
  0
LINE
  8
0
  6
DASHDOT
 62
4
 10
193.146486439852400
 20
220.013375519098190
 11
193.146486439852400
 21
197.575171601762120
  0
LINE
  8
0
  6
CONTINUOUS
 62
3
 10
45.146486439852396
 20
202.418114155516490
 11
45.146486439852396
 21
217.070701513753310
  0
LINE
  8
0
  6
CONTINUOUS
 62
3
 10
103.146486439852390
 20
223.715985843122440
 11
201.233748472038060
 21
222.003866315719850
  0
LINE
  8
0
  6
CONTINUOUS
 62
3
 10
45.146486439852396
 20
41.418114155516491
 11
45.146486439852396
 21
26.765526797278767
  0
ARC
  8
0
  6
CONTINUOUS
 62
3
 10
50.146486439852396
 20
26.765526797278767
 40
5.000000000000000
 50
180.000000000000000
 51
268.224526106217870
  0
LINE
  8
0
  6
CONTINUOUS
 62
3
 10
49.991571909204339
 20
21.767927224665186
 11
103.146486439852390
 21
20.120242467909634
  0
ARC
  8
0
  6
CONTINUOUS
 62
3
 10
201.146486439851490
 20
26.831600471094703
 40
5.000000000000068
 50
271.000000000001760
 51
359.999999999994830
  0
LINE
  8
0
  6
CONTINUOUS
 62
3
 10
205.146486439852400
 20
88.418114155516491
 11
206.146486439852400
 21
88.418114155516491
  0
LINE
  8
0
  6
CONTINUOUS
 62
3
 10
205.146486439853310
 20
155.418114155516490
 11
206.146486439853310
 21
155.418114155516490
  0
LINE
  8
0
  6
CONTINUOUS
 62
3
 10
49.991571909204339
 20
222.068301086367800
 11
103.146486439852390
 21
223.715985843122440
  0
ARC
  8
0
  6
CONTINUOUS
 62
3
 10
50.146486439852396
 20
217.070701513753310
 40
5.000000000000244
 50
91.775473893781850
 51
180.000000000000000
  0
ARC
  8
0
  6
CONTINUOUS
 62
3
 10
201.146486439851490
 20
217.004627839937830
 40
5.000000000000000
 50
0.000000000000000
 51
88.999999999998238
  0
LINE
  8
0
  6
CONTINUOUS
 62
3
 10
208.146486439875130
 20
105.118114155516300
 11
207.946486439875310
 21
104.918114155516030
  0
ARC
  8
0
  6
CONTINUOUS
 62
3
 10
208.946486439875310
 20
105.268114155515940
 40
0.800000000000182
 50
90.000000000000000
 51
176.296803365719710
  0
LINE
  8
0
  6
CONTINUOUS
 62
3
 10
208.146486439875130
 20
105.118114155516300
 11
208.146486439875130
 21
121.918114155516030
  0
LINE
  8
0
  6
CONTINUOUS
 62
3
 10
210.146486439875130
 20
106.068114155516120
 11
208.946486439875310
 21
106.068114155516120
  0
LINE
  8
0
  6
CONTINUOUS
 62
3
 10
257.746486439875070
 20
105.918114155516030
 11
210.706294061010540
 21
105.918114155516030
  0
LINE
  8
0
  6
CONTINUOUS
 62
3
 10
210.146486439875130
 20
106.068114155516120
 11
210.706294061010540
 21
105.918114155516030
  0
LINE
  8
0
  6
CONTINUOUS
 62
3
 10
208.146486439875130
 20
138.718114155516220
 11
207.946486439875310
 21
138.918114155516040
  0
ARC
  8
0
  6
CONTINUOUS
 62
3
 10
208.946486439875310
 20
138.568114155516130
 40
0.800000000000237
 50
183.703196634280290
 51
270.000000000000000
  0
LINE
  8
0
  6
CONTINUOUS
 62
3
 10
208.146486439875130
 20
138.718114155516220
 11
208.146486439875130
 21
121.918114155516030
  0
LINE
  8
0
  6
CONTINUOUS
 62
3
 10
210.146486439875130
 20
137.768114155515950
 11
208.946486439875310
 21
137.768114155515950
  0
LINE
  8
0
  6
CONTINUOUS
 62
3
 10
210.146486439875130
 20
137.768114155515950
 11
210.706294061010540
 21
137.918114155516040
  0
LINE
  8
0
  6
CONTINUOUS
 62
3
 10
257.746486439875070
 20
137.918114155516040
 11
210.706294061010540
 21
137.918114155516040
  0
LINE
  8
0
  6
CONTINUOUS
 62
3
 10
206.146486439852850
 20
104.918114155515580
 11
207.946486439875310
 21
104.918114155516030
  0
LINE
  8
0
  6
CONTINUOUS
 62
3
 10
206.146486439852850
 20
138.918114155516490
 11
207.946486439875310
 21
138.918114155516040
  0
LINE
  8
0
  6
DASHDOT
 62
4
 10
-258.628015026275760
 20
121.918114155516490
 11
276.227184652217370
 21
121.918114155516490
  0
LINE
  8
0
  6
CONTINUOUS
 62
3
 10
213.146486439875160
 20
105.918114155516490
 11
213.146486439875160
 21
102.918114155516490
  0
LINE
  8
0
  6
CONTINUOUS
 62
3
 10
258.146486439875160
 20
102.918114155516490
 11
213.146486439875160
 21
102.918114155516490
  0
ARC
  8
0
  6
CONTINUOUS
 62
3
 10
-146.353528914289770
 20
185.418114155516490
 40
5.000000000000000
 50
180.000000000000000
 51
270.000000000000000
  0
LINE
  8
0
  6
CONTINUOUS
 62
3
 10
-151.353528914289770
 20
175.418114155516490
 11
-151.353528914289770
 21
180.418114155516490
  0
LINE
  8
0
  6
DASHDOT
 62
3
 10
-27.353528914289797
 20
175.418114155516490
 11
-27.353528914289797
 21
180.418114155516490
  0
LINE
  8
0
  6
DASHDOT
 62
3
 10
-27.353528914289797
 20
175.418114155516490
 11
-27.353528914289797
 21
180.418114155516490
  0
ARC
  8
0
  6
CONTINUOUS
 62
3
 10
-32.353528914289797
 20
185.418114155516490
 40
5.000000000000000
 50
270.000000000000000
 51
0.000000000000000
  0
LINE
  8
0
  6
CONTINUOUS
 62
3
 10
-151.353528914289770
 20
180.418114155516490
 11
-27.353528914289797
 21
180.418114155516490
  0
LINE
  8
0
  6
CONTINUOUS
 62
3
 10
-37.853528914289797
 20
199.079139215203330
 11
-140.853528914289770
 21
199.079139215203330
  0
ARC
  8
0
  6
CONTINUOUS
 62
3
 10
-32.353528914289797
 20
204.079139215203330
 40
5.000000000000072
 50
287.457603123721870
 51
0.000000000000000
  0
ARC
  8
0
  6
CONTINUOUS
 62
3
 10
-32.153528914289979
 20
199.755685340945660
 40
1.300000000000182
 50
0.000000000000000
 51
73.398450400977637
  0
ARC
  8
0
  6
CONTINUOUS
 62
3
 10
-34.353528914289797
 20
192.376661015196190
 40
9.000000000000123
 50
73.398450400980877
 51
106.601549599019120
  0
ARC
  8
0
  6
CONTINUOUS
 62
3
 10
-36.553528914289615
 20
199.755685340945660
 40
1.300000000000019
 50
106.601549599022360
 51
180.000000000000000
  0
LINE
  8
0
  6
CONTINUOUS
 62
3
 10
-30.853528914289797
 20
199.755685340945660
 11
-30.853528914289797
 21
198.768675603021280
  0
POLYLINE
  8
0
  6
CONTINUOUS
 62
3
 66
1
  0
VERTEX
  8
0
  6
CONTINUOUS
 62
3
 10
-37.853528914289797
 20
198.768675603021280
  0
VERTEX
  8
0
  6
CONTINUOUS
 62
3
 10
-37.786277395701106
 20
198.734577392825290
  0
VERTEX
  8
0
  6
CONTINUOUS
 62
3
 10
-37.587107278079301
 20
198.701789557724650
  0
VERTEX
  8
0
  6
CONTINUOUS
 62
3
 10
-37.263672557348706
 20
198.671572115834640
  0
VERTEX
  8
0
  6
CONTINUOUS
 62
3
 10
-36.828402648442712
 20
198.645086306500930
  0
VERTEX
  8
0
  6
CONTINUOUS
 62
3
 10
-36.298024729858405
 20
198.623349964522840
  0
VERTEX
  8
0
  6
CONTINUOUS
 62
3
 10
-35.692920927567613
 20
198.607198405332670
  0
VERTEX
  8
0
  6
CONTINUOUS
 62
3
 10
-35.036345041346244
 20
198.597252324292210
  0
VERTEX
  8
0
  6
CONTINUOUS
 62
3
 10
-34.353528914289797
 20
198.593893943718060
  0
VERTEX
  8
0
  6
CONTINUOUS
 62
3
 10
-33.670712787233349
 20
198.597252324292210
  0
VERTEX
  8
0
  6
CONTINUOUS
 62
3
 10
-33.014136901011980
 20
198.607198405332670
  0
VERTEX
  8
0
  6
CONTINUOUS
 62
3
 10
-32.409033098721189
 20
198.623349964522840
  0
VERTEX
  8
0
  6
CONTINUOUS
 62
3
 10
-31.878655180136882
 20
198.645086306500930
  0
VERTEX
  8
0
  6
CONTINUOUS
 62
3
 10
-31.443385271230891
 20
198.671572115834640
  0
VERTEX
  8
0
  6
CONTINUOUS
 62
3
 10
-31.119950550500295
 20
198.701789557724650
  0
VERTEX
  8
0
  6
CONTINUOUS
 62
3
 10
-30.920780432878491
 20
198.734577392825290
  0
VERTEX
  8
0
  6
CONTINUOUS
 62
3
 10
-30.853528914289800
 20
198.768675603021280
  0
SEQEND
  8
0
  6
CONTINUOUS
 62
3
  0
LINE
  8
0
  6
CONTINUOUS
 62
3
 10
-37.853528914289797
 20
199.755685340945660
 11
-37.853528914289797
 21
198.768675603021280
  0
ARC
  8
0
  6
CONTINUOUS
 62
3
 10
-146.353528914289770
 20
204.079139215203330
 40
5.000000000000000
 50
180.000000000000000
 51
252.542396876278160
  0
LINE
  8
0
  6
CONTINUOUS
 62
3
 10
-147.853528914289770
 20
199.755685340945660
 11
-147.853528914289770
 21
198.768675603021280
  0
LINE
  8
0
  6
CONTINUOUS
 62
3
 10
-140.853528914289770
 20
199.755685340945660
 11
-140.853528914289770
 21
198.768675603021280
  0
ARC
  8
0
  6
CONTINUOUS
 62
3
 10
-146.553528914289590
 20
199.755685340945660
 40
1.300000000000019
 50
106.601549599022360
 51
180.000000000000000
  0
ARC
  8
0
  6
CONTINUOUS
 62
3
 10
-144.353528914289770
 20
192.376661015196190
 40
9.000000000000123
 50
73.398450400980877
 51
106.601549599019120
  0
ARC
  8
0
  6
CONTINUOUS
 62
3
 10
-142.153528914289950
 20
199.755685340945660
 40
1.300000000000182
 50
0.000000000000000
 51
73.398450400977637
  0
POLYLINE
  8
0
  6
CONTINUOUS
 62
3
 66
1
  0
VERTEX
  8
0
  6
CONTINUOUS
 62
3
 10
-147.853528914289770
 20
198.768675603021280
  0
VERTEX
  8
0
  6
CONTINUOUS
 62
3
 10
-147.786277395701060
 20
198.734577392825290
  0
VERTEX
  8
0
  6
CONTINUOUS
 62
3
 10
-147.587107278079260
 20
198.701789557724650
  0
VERTEX
  8
0
  6
CONTINUOUS
 62
3
 10
-147.263672557348680
 20
198.671572115834640
  0
VERTEX
  8
0
  6
CONTINUOUS
 62
3
 10
-146.828402648442680
 20
198.645086306500930
  0
VERTEX
  8
0
  6
CONTINUOUS
 62
3
 10
-146.298024729858380
 20
198.623349964522840
  0
VERTEX
  8
0
  6
CONTINUOUS
 62
3
 10
-145.692920927567570
 20
198.607198405332670
  0
VERTEX
  8
0
  6
CONTINUOUS
 62
3
 10
-145.036345041346210
 20
198.597252324292210
  0
VERTEX
  8
0
  6
CONTINUOUS
 62
3
 10
-144.353528914289770
 20
198.593893943718060
  0
VERTEX
  8
0
  6
CONTINUOUS
 62
3
 10
-143.670712787233330
 20
198.597252324292210
  0
VERTEX
  8
0
  6
CONTINUOUS
 62
3
 10
-143.014136901011970
 20
198.607198405332670
  0
VERTEX
  8
0
  6
CONTINUOUS
 62
3
 10
-142.409033098721150
 20
198.623349964522840
  0
VERTEX
  8
0
  6
CONTINUOUS
 62
3
 10
-141.878655180136860
 20
198.645086306500930
  0
VERTEX
  8
0
  6
CONTINUOUS
 62
3
 10
-141.443385271230850
 20
198.671572115834640
  0
VERTEX
  8
0
  6
CONTINUOUS
 62
3
 10
-141.119950550500280
 20
198.701789557724650
  0
VERTEX
  8
0
  6
CONTINUOUS
 62
3
 10
-140.920780432878470
 20
198.734577392825290
  0
VERTEX
  8
0
  6
CONTINUOUS
 62
3
 10
-140.853528914289770
 20
198.768675603021280
  0
SEQEND
  8
0
  6
CONTINUOUS
 62
3
  0
LINE
  8
0
  6
CONTINUOUS
 62
3
 10
-27.353528914289797
 20
204.079139215203330
 11
-27.353528914289797
 21
217.018114155516400
  0
LINE
  8
0
  6
CONTINUOUS
 62
3
 10
-151.353528914289770
 20
204.079139215203330
 11
-151.353528914289770
 21
217.018114155516400
  0
LINE
  8
0
  6
CONTINUOUS
 62
3
 10
-151.353528914289770
 20
203.612624446578710
 11
-152.353528914289770
 21
203.612624446578710
  0
LINE
  8
0
  6
CONTINUOUS
 62
3
 10
-26.353528914289797
 20
198.518987518301510
 11
-152.353528914289770
 21
198.518987518301510
  0
ARC
  8
0
  6
CONTINUOUS
 62
3
 10
-146.353528914289770
 20
217.018114155516400
 40
5.000000000000000
 50
90.000000000000000
 51
180.000000000000000
  0
ARC
  8
0
  6
CONTINUOUS
 62
3
 10
-152.353528914289770
 20
201.612624446578710
 40
2.000000000000000
 50
90.000000000000000
 51
180.000000000000000
  0
ARC
  8
0
  6
CONTINUOUS
 62
3
 10
-152.353528914289770
 20
200.518987518301510
 40
2.000000000000000
 50
180.000000000000000
 51
270.000000000000000
  0
ARC
  8
0
  6
CONTINUOUS
 62
3
 10
-152.353528914289770
 20
199.719985647216280
 40
2.000000000000000
 50
180.000000000000000
 51
270.000000000000000
  0
LINE
  8
0
  6
CONTINUOUS
 62
3
 10
-154.353528914289770
 20
201.612624446578710
 11
-154.353528914289770
 21
198.920983776097390
  0
ARC
  8
0
  6
CONTINUOUS
 62
3
 10
-152.353528914289770
 20
198.920983776097390
 40
2.000000000000000
 50
180.000000000000000
 51
270.000000000000000
  0
LINE
  8
0
  6
CONTINUOUS
 62
3
 10
-151.353528914289770
 20
185.418114155516490
 11
-151.353528914289770
 21
196.920983776097390
  0
ARC
  8
0
  6
CONTINUOUS
 62
3
 10
-32.353528914289797
 20
217.018114155516400
 40
5.000000000000000
 50
0.000000000000000
 51
90.000000000000000
  0
LINE
  8
0
  6
CONTINUOUS
 62
3
 10
-146.353528914289770
 20
222.018114155516400
 11
-32.353528914289797
 21
222.018114155516400
  0
LINE
  8
0
  6
CONTINUOUS
 62
3
 10
-27.353528914289797
 20
185.418114155516490
 11
-27.353528914289797
 21
196.719985647216280
  0
LINE
  8
0
  6
CONTINUOUS
 62
3
 10
-24.353528914289797
 20
201.612624446578710
 11
-24.353528914289797
 21
198.920983776097390
  0
LINE
  8
0
  6
CONTINUOUS
 62
3
 10
-26.353528914289797
 20
197.719985647199450
 11
-152.353528914289770
 21
197.719985647199450
  0
LINE
  8
0
  6
CONTINUOUS
 62
3
 10
-26.353528914289797
 20
196.920983776097390
 11
-152.353528914289770
 21
196.920983776097390
  0
LINE
  8
0
  6
CONTINUOUS
 62
3
 10
-27.353528914289797
 20
203.612624446578710
 11
-26.353528914289797
 21
203.612624446578710
  0
ARC
  8
0
  6
CONTINUOUS
 62
3
 10
-26.353528914289797
 20
201.612624446578710
 40
2.000000000000000
 50
0.000000000000000
 51
90.000000000000000
  0
ARC
  8
0
  6
CONTINUOUS
 62
3
 10
-26.353528914289797
 20
200.518987518301510
 40
2.000000000000000
 50
270.000000000000000
 51
0.000000000000000
  0
ARC
  8
0
  6
CONTINUOUS
 62
3
 10
-26.353528914289797
 20
199.719985647216280
 40
2.000000000000000
 50
270.000000000000000
 51
0.000000000000000
  0
ARC
  8
0
  6
CONTINUOUS
 62
3
 10
-26.353528914289797
 20
198.920983776097390
 40
2.000000000000000
 50
270.000000000000000
 51
0.000000000000000
  0
ARC
  8
0
  6
CONTINUOUS
 62
3
 10
-229.358373863403700
 20
83.518114155516514
 40
20.599999999999891
 50
235.000000000000400
 51
270.000000000000000
  0
ARC
  8
0
  6
CONTINUOUS
 62
3
 10
-247.253528914311000
 20
74.074494021887176
 40
2.599999999999909
 50
180.000000000000000
 51
234.999999999998810
  0
LINE
  8
0
  6
CONTINUOUS
 62
3
 10
-241.174048452235070
 20
66.643582043163292
 11
-248.744827648823840
 21
71.944698706735835
  0
LINE
  8
0
  6
CONTINUOUS
 62
3
 10
-249.853528914310910
 20
74.074494021887176
 11
-249.853528914310910
 21
121.918114155516490
  0
LINE
  8
0
  6
CONTINUOUS
 62
3
 10
-69.653528914289723
 20
69.418114155516491
 11
-69.653528914289723
 21
31.418114155516491
  0
ARC
  8
0
  6
CONTINUOUS
 62
3
 10
-70.653528914289723
 20
31.418114155516491
 40
1.000000000000000
 50
270.000000000000000
 51
0.000000000000000
  0
LINE
  8
0
  6
CONTINUOUS
 62
3
 10
-158.653528914289720
 20
30.418114155516491
 11
-70.653528914289723
 21
30.418114155516491
  0
ARC
  8
0
  6
CONTINUOUS
 62
3
 10
-158.653528914289720
 20
31.418114155516491
 40
1.000000000000000
 50
180.000000000000000
 51
270.000000000000000
  0
LINE
  8
0
  6
CONTINUOUS
 62
3
 10
-152.653528914289720
 20
29.918114155516491
 11
-144.653528914289720
 21
29.918114155516491
  0
LINE
  8
0
  6
CONTINUOUS
 62
3
 10
-84.653528914289723
 20
29.918114155516491
 11
-76.653528914289723
 21
29.918114155516491
  0
LINE
  8
0
  6
CONTINUOUS
 62
3
 10
-84.653528914289723
 20
30.418114155516491
 11
-84.653528914289723
 21
29.918114155516491
  0
LINE
  8
0
  6
CONTINUOUS
 62
3
 10
-76.653528914289723
 20
30.418114155516491
 11
-76.653528914289723
 21
29.918114155516491
  0
LINE
  8
0
  6
CONTINUOUS
 62
3
 10
-144.653528914289720
 20
30.418114155516491
 11
-144.653528914289720
 21
29.918114155516491
  0
LINE
  8
0
  6
CONTINUOUS
 62
3
 10
-152.653528914289720
 20
30.418114155516491
 11
-152.653528914289720
 21
29.918114155516491
  0
LINE
  8
0
  6
CONTINUOUS
 62
3
 10
-69.653528914289723
 20
69.418114155516491
 11
-151.853528914310910
 21
69.418114155516491
  0
POLYLINE
  8
0
  6
CONTINUOUS
 62
3
 66
1
 70
1
  0
VERTEX
  8
0
  6
CONTINUOUS
 62
3
 10
-158.153528914310700
 20
74.590783201168961
  0
VERTEX
  8
0
  6
CONTINUOUS
 62
3
 10
-158.243838096415520
 20
75.293740167369322
  0
VERTEX
  8
0
  6
CONTINUOUS
 62
3
 10
-158.511295111507650
 20
75.969682891581414
  0
VERTEX
  8
0
  6
CONTINUOUS
 62
3
 10
-158.945621736488730
 20
76.592635273986815
  0
VERTEX
  8
0
  6
CONTINUOUS
 62
3
 10
-159.530127042733910
 20
77.138657603885392
  0
VERTEX
  8
0
  6
CONTINUOUS
 62
3
 10
-160.242348819118580
 20
77.586766549352006
  0
VERTEX
  8
0
  6
CONTINUOUS
 62
3
 10
-161.054916782194770
 20
77.919741534914778
  0
VERTEX
  8
0
  6
CONTINUOUS
 62
3
 10
-161.936604400834880
 20
78.124786518613021
  0
VERTEX
  8
0
  6
CONTINUOUS
 62
3
 10
-162.853528914310690
 20
78.194021736713793
  0
VERTEX
  8
0
  6
CONTINUOUS
 62
3
 10
-163.770453427786490
 20
78.124786518613021
  0
VERTEX
  8
0
  6
CONTINUOUS
 62
3
 10
-164.652141046426610
 20
77.919741534914778
  0
VERTEX
  8
0
  6
CONTINUOUS
 62
3
 10
-165.464709009502800
 20
77.586766549352006
  0
VERTEX
  8
0
  6
CONTINUOUS
 62
3
 10
-166.176930785887460
 20
77.138657603885392
  0
VERTEX
  8
0
  6
CONTINUOUS
 62
3
 10
-166.761436092132640
 20
76.592635273986815
  0
VERTEX
  8
0
  6
CONTINUOUS
 62
3
 10
-167.195762717113720
 20
75.969682891581414
  0
VERTEX
  8
0
  6
CONTINUOUS
 62
3
 10
-167.463219732205860
 20
75.293740167369322
  0
VERTEX
  8
0
  6
CONTINUOUS
 62
3
 10
-167.553528914310680
 20
74.590783201168961
  0
VERTEX
  8
0
  6
CONTINUOUS
 62
3
 10
-167.463219732205860
 20
73.887826234968600
  0
VERTEX
  8
0
  6
CONTINUOUS
 62
3
 10
-167.195762717113720
 20
73.211883510756508
  0
VERTEX
  8
0
  6
CONTINUOUS
 62
3
 10
-166.761436092132640
 20
72.588931128351106
  0
VERTEX
  8
0
  6
CONTINUOUS
 62
3
 10
-166.176930785887440
 20
72.042908798452530
  0
VERTEX
  8
0
  6
CONTINUOUS
 62
3
 10
-165.464709009502800
 20
71.594799852985915
  0
VERTEX
  8
0
  6
CONTINUOUS
 62
3
 10
-164.652141046426610
 20
71.261824867423144
  0
VERTEX
  8
0
  6
CONTINUOUS
 62
3
 10
-163.770453427786490
 20
71.056779883724900
  0
VERTEX
  8
0
  6
CONTINUOUS
 62
3
 10
-162.853528914310690
 20
70.987544665624128
  0
VERTEX
  8
0
  6
CONTINUOUS
 62
3
 10
-161.936604400834880
 20
71.056779883724900
  0
VERTEX
  8
0
  6
CONTINUOUS
 62
3
 10
-161.054916782194770
 20
71.261824867423144
  0
VERTEX
  8
0
  6
CONTINUOUS
 62
3
 10
-160.242348819118580
 20
71.594799852985915
  0
VERTEX
  8
0
  6
CONTINUOUS
 62
3
 10
-159.530127042733940
 20
72.042908798452530
  0
VERTEX
  8
0
  6
CONTINUOUS
 62
3
 10
-158.945621736488730
 20
72.588931128351106
  0
VERTEX
  8
0
  6
CONTINUOUS
 62
3
 10
-158.511295111507650
 20
73.211883510756508
  0
VERTEX
  8
0
  6
CONTINUOUS
 62
3
 10
-158.243838096415520
 20
73.887826234968600
  0
SEQEND
  8
0
  6
CONTINUOUS
 62
3
  0
LINE
  8
0
  6
CONTINUOUS
 62
3
 10
-164.853528914310910
 20
71.598407647168528
 11
-162.853528914310910
 21
72.774193132791424
  0
LINE
  8
0
  6
CONTINUOUS
 62
3
 10
-162.853528914310910
 20
72.774193132791424
 11
-160.853528914310910
 21
74.426834771914741
  0
LINE
  8
0
  6
CONTINUOUS
 62
3
 10
-160.853528914310910
 20
71.598407647168528
 11
-162.853528914310910
 21
72.774193132791424
  0
LINE
  8
0
  6
CONTINUOUS
 62
3
 10
-162.853528914310910
 20
72.774193132791424
 11
-164.853528914310910
 21
74.426834771914741
  0
LINE
  8
0
  6
CONTINUOUS
 62
3
 10
-151.853528914310910
 20
70.578417794707434
 11
-151.853528914310690
 21
121.918114155516490
  0
ARC
  8
0
  6
CONTINUOUS
 62
3
 10
-154.853528914310910
 20
70.578417794707548
 40
3.000000000000000
 50
270.000000000000000
 51
359.999999999997780
  0
LINE
  8
0
  6
CONTINUOUS
 62
3
 10
-158.853528914310910
 20
67.578417794707548
 11
-154.853528914310910
 21
67.578417794707548
  0
ARC
  8
0
  6
CONTINUOUS
 62
3
 10
-158.853528914310910
 20
64.578417794707548
 40
3.000000000000000
 50
90.000000000000000
 51
180.000000000000000
  0
LINE
  8
0
  6
CONTINUOUS
 62
3
 10
-161.853528914310910
 20
62.918114155516491
 11
-229.358373863403700
 21
62.918114155516491
  0
LINE
  8
0
  6
CONTINUOUS
 62
3
 10
-161.853528914310910
 20
62.918114155516491
 11
-161.853528914310910
 21
64.578417794707548
  0
LINE
  8
0
  6
CONTINUOUS
 62
3
 10
-159.653528914289720
 20
67.469784253673538
 11
-159.653528914289720
 21
31.418114155516491
  0
LINE
  8
0
  6
CONTINUOUS
 62
3
 10
-159.653528914289720
 20
64.418114155516491
 11
-69.653528914289723
 21
64.418114155516491
  0
POLYLINE
  8
0
  6
CONTINUOUS
 62
3
 66
1
 70
1
  0
VERTEX
  8
0
  6
CONTINUOUS
 62
3
 10
-158.153528914310700
 20
169.245445109864020
  0
VERTEX
  8
0
  6
CONTINUOUS
 62
3
 10
-158.243838096415520
 20
169.948402076064380
  0
VERTEX
  8
0
  6
CONTINUOUS
 62
3
 10
-158.511295111507650
 20
170.624344800276480
  0
VERTEX
  8
0
  6
CONTINUOUS
 62
3
 10
-158.945621736488730
 20
171.247297182681880
  0
VERTEX
  8
0
  6
CONTINUOUS
 62
3
 10
-159.530127042733910
 20
171.793319512580470
  0
VERTEX
  8
0
  6
CONTINUOUS
 62
3
 10
-160.242348819118580
 20
172.241428458047100
  0
VERTEX
  8
0
  6
CONTINUOUS
 62
3
 10
-161.054916782194770
 20
172.574403443609840
  0
VERTEX
  8
0
  6
CONTINUOUS
 62
3
 10
-161.936604400834880
 20
172.779448427308100
  0
VERTEX
  8
0
  6
CONTINUOUS
 62
3
 10
-162.853528914310690
 20
172.848683645408870
  0
VERTEX
  8
0
  6
CONTINUOUS
 62
3
 10
-163.770453427786490
 20
172.779448427308100
  0
VERTEX
  8
0
  6
CONTINUOUS
 62
3
 10
-164.652141046426610
 20
172.574403443609840
  0
VERTEX
  8
0
  6
CONTINUOUS
 62
3
 10
-165.464709009502800
 20
172.241428458047100
  0
VERTEX
  8
0
  6
CONTINUOUS
 62
3
 10
-166.176930785887460
 20
171.793319512580470
  0
VERTEX
  8
0
  6
CONTINUOUS
 62
3
 10
-166.761436092132640
 20
171.247297182681880
  0
VERTEX
  8
0
  6
CONTINUOUS
 62
3
 10
-167.195762717113720
 20
170.624344800276480
  0
VERTEX
  8
0
  6
CONTINUOUS
 62
3
 10
-167.463219732205860
 20
169.948402076064380
  0
VERTEX
  8
0
  6
CONTINUOUS
 62
3
 10
-167.553528914310680
 20
169.245445109864020
  0
VERTEX
  8
0
  6
CONTINUOUS
 62
3
 10
-167.463219732205860
 20
168.542488143663660
  0
VERTEX
  8
0
  6
CONTINUOUS
 62
3
 10
-167.195762717113720
 20
167.866545419451570
  0
VERTEX
  8
0
  6
CONTINUOUS
 62
3
 10
-166.761436092132640
 20
167.243593037046170
  0
VERTEX
  8
0
  6
CONTINUOUS
 62
3
 10
-166.176930785887440
 20
166.697570707147580
  0
VERTEX
  8
0
  6
CONTINUOUS
 62
3
 10
-165.464709009502800
 20
166.249461761680950
  0
VERTEX
  8
0
  6
CONTINUOUS
 62
3
 10
-164.652141046426610
 20
165.916486776118210
  0
VERTEX
  8
0
  6
CONTINUOUS
 62
3
 10
-163.770453427786490
 20
165.711441792419950
  0
VERTEX
  8
0
  6
CONTINUOUS
 62
3
 10
-162.853528914310690
 20
165.642206574319180
  0
VERTEX
  8
0
  6
CONTINUOUS
 62
3
 10
-161.936604400834880
 20
165.711441792419950
  0
VERTEX
  8
0
  6
CONTINUOUS
 62
3
 10
-161.054916782194770
 20
165.916486776118210
  0
VERTEX
  8
0
  6
CONTINUOUS
 62
3
 10
-160.242348819118580
 20
166.249461761680950
  0
VERTEX
  8
0
  6
CONTINUOUS
 62
3
 10
-159.530127042733940
 20
166.697570707147580
  0
VERTEX
  8
0
  6
CONTINUOUS
 62
3
 10
-158.945621736488730
 20
167.243593037046170
  0
VERTEX
  8
0
  6
CONTINUOUS
 62
3
 10
-158.511295111507650
 20
167.866545419451570
  0
VERTEX
  8
0
  6
CONTINUOUS
 62
3
 10
-158.243838096415520
 20
168.542488143663660
  0
SEQEND
  8
0
  6
CONTINUOUS
 62
3
  0
LINE
  8
0
  6
CONTINUOUS
 62
3
 10
-164.853528914310910
 20
172.237820663864450
 11
-162.853528914310910
 21
171.062035178241670
  0
LINE
  8
0
  6
CONTINUOUS
 62
3
 10
-162.853528914310910
 20
171.062035178241670
 11
-160.853528914310910
 21
169.409393539118240
  0
LINE
  8
0
  6
CONTINUOUS
 62
3
 10
-160.853528914310910
 20
172.237820663864450
 11
-162.853528914310910
 21
171.062035178241670
  0
LINE
  8
0
  6
CONTINUOUS
 62
3
 10
-162.853528914310910
 20
171.062035178241670
 11
-164.853528914310910
 21
169.409393539118240
  0
LINE
  8
0
  6
CONTINUOUS
 62
3
 10
-151.853528914310910
 20
180.918114155516490
 11
-151.853528914310690
 21
121.918114155516490
  0
ARC
  8
0
  6
CONTINUOUS
 62
3
 10
-229.358373863403700
 20
160.318114155516470
 40
20.600000000000023
 50
90.000000000000000
 51
124.999999999999600
  0
ARC
  8
0
  6
CONTINUOUS
 62
3
 10
-247.253528914311000
 20
169.761734289145810
 40
2.600000000000131
 50
125.000000000001180
 51
180.000000000000000
  0
LINE
  8
0
  6
CONTINUOUS
 62
3
 10
-249.853528914310910
 20
169.761734289145810
 11
-249.853528914310910
 21
121.918114155516490
  0
LINE
  8
0
  6
CONTINUOUS
 62
3
 10
-241.174048452235070
 20
177.192646267869690
 11
-248.744827648823840
 21
171.891529604297150
  0
LINE
  8
0
  6
CONTINUOUS
 62
3
 10
-151.853528914310910
 20
180.918114155516490
 11
-229.358373863403700
 21
180.918114155516490
  0
LINE
  8
0
  6
CONTINUOUS
 62
3
 10
-11.353528914289797
 20
175.418114155516490
 11
-151.853528914310910
 21
175.418114155516490
  0
LINE
  8
0
  6
CONTINUOUS
 62
4
 10
-151.853528914310910
 20
135.918114155516490
 11
-11.353528914289797
 21
135.918114155516490
  0
LINE
  8
0
  6
CONTINUOUS
 62
4
 10
-151.853528914310910
 20
141.546148812154340
 11
-11.353528914289797
 21
141.546148812154340
  0
LINE
  8
0
  6
CONTINUOUS
 62
4
 10
-151.853528914310910
 20
140.304228947266440
 11
-11.353528914289797
 21
140.304228947266440
  0
LINE
  8
0
  6
CONTINUOUS
 62
4
 10
-151.853528914310910
 20
144.756353835512640
 11
-11.353528914289797
 21
144.756353835512640
  0
LINE
  8
0
  6
CONTINUOUS
 62
4
 10
-151.853528914310910
 20
146.102755561011240
 11
-11.353528914289797
 21
146.102755561011240
  0
LINE
  8
0
  6
CONTINUOUS
 62
4
 10
-151.853528914310910
 20
149.195486552676470
 11
-11.353528914289797
 21
149.195486552676470
  0
LINE
  8
0
  6
CONTINUOUS
 62
4
 10
-151.853528914310910
 20
150.674509706153570
 11
-11.353528914289797
 21
150.674509706153570
  0
LINE
  8
0
  6
CONTINUOUS
 62
4
 10
-151.853528914310910
 20
153.632505314286500
 11
-11.353528914289797
 21
153.632505314286500
  0
LINE
  8
0
  6
CONTINUOUS
 62
4
 10
-151.853528914310910
 20
155.221715107025260
 11
-11.353528914289797
 21
155.221715107025260
  0
LINE
  8
0
  6
CONTINUOUS
 62
4
 10
-151.853528914310910
 20
162.960027925856250
 11
-11.353528914289797
 21
162.960027925856250
  0
LINE
  8
0
  6
CONTINUOUS
 62
4
 10
-151.853528914310910
 20
168.051196750399190
 11
-11.353528914289797
 21
168.051196750399190
  0
LINE
  8
0
  6
CONTINUOUS
 62
4
 10
-151.853528914310910
 20
172.418114155516490
 11
-11.353528914289797
 21
172.418114155516490
  0
LINE
  8
0
  6
CONTINUOUS
 62
4
 10
-151.853528914310910
 20
172.918114155516490
 11
-11.353528914289797
 21
172.918114155516490
  0
LINE
  8
0
  6
CONTINUOUS
 62
4
 10
-151.853528914310910
 20
88.614513204007721
 11
-11.353528914289797
 21
88.614513204007721
  0
LINE
  8
0
  6
CONTINUOUS
 62
4
 10
-151.853528914310910
 20
90.203722996746478
 11
-11.353528914289797
 21
90.203722996746478
  0
LINE
  8
0
  6
CONTINUOUS
 62
4
 10
-151.853528914310910
 20
93.161718604879411
 11
-11.353528914289797
 21
93.161718604879411
  0
LINE
  8
0
  6
CONTINUOUS
 62
4
 10
-151.853528914310910
 20
94.640741758356512
 11
-11.353528914289797
 21
94.640741758356512
  0
LINE
  8
0
  6
CONTINUOUS
 62
4
 10
-151.853528914310910
 20
97.733472750021747
 11
-11.353528914289797
 21
97.733472750021747
  0
LINE
  8
0
  6
CONTINUOUS
 62
4
 10
-151.853528914310690
 20
99.079874475520342
 11
-11.353528914289797
 21
99.079874475520342
  0
LINE
  8
0
  6
CONTINUOUS
 62
4
 10
-151.853528914310690
 20
102.290079498878640
 11
-11.353528914289797
 21
102.290079498878640
  0
LINE
  8
0
  6
CONTINUOUS
 62
4
 10
-151.853528914310690
 20
103.531999363766540
 11
-11.353528914289797
 21
103.531999363766540
  0
LINE
  8
0
  6
CONTINUOUS
 62
4
 10
-151.853528914310910
 20
107.918114155516490
 11
-11.353528914289797
 21
107.918114155516490
  0
LINE
  8
0
  6
CONTINUOUS
 62
3
 10
-11.353528914289797
 20
68.418114155516491
 11
-69.653528914289723
 21
68.418114155516491
  0
LINE
  8
0
  6
CONTINUOUS
 62
4
 10
-151.853528914310910
 20
70.918114155516491
 11
-11.353528914289797
 21
70.918114155516491
  0
LINE
  8
0
  6
CONTINUOUS
 62
4
 10
-151.853528914310910
 20
71.418114155516491
 11
-11.353528914289797
 21
71.418114155516491
  0
LINE
  8
0
  6
CONTINUOUS
 62
4
 10
-151.853528914310910
 20
75.785031560633797
 11
-11.353528914289797
 21
75.785031560633797
  0
LINE
  8
0
  6
CONTINUOUS
 62
4
 10
-151.853528914310910
 20
80.876200385176730
 11
-11.353528914289797
 21
80.876200385176730
  0
ARC
  8
0
  6
CONTINUOUS
 62
3
 10
-154.853528914318190
 20
-169.081885844483510
 40
3.000000000000000
 50
0.000000000000000
 51
90.000000000000000
  0
LINE
  8
0
  6
CONTINUOUS
 62
3
 10
-154.853528914318190
 20
-166.081885844483510
 11
-158.853528914318190
 21
-166.081885844483510
  0
ARC
  8
0
  6
CONTINUOUS
 62
3
 10
-158.853528914318190
 20
-163.081885844483510
 40
3.000000000000000
 50
180.000000000000000
 51
270.000000000000000
  0
LINE
  8
0
  6
CONTINUOUS
 62
3
 10
-159.653528914296320
 20
-163.081885844483510
 11
-159.653528914297000
 21
-128.081885844483280
  0
ARC
  8
0
  6
CONTINUOUS
 62
3
 10
-158.653528914296540
 20
-163.081885844483510
 40
0.999999999999773
 50
180.000000000000000
 51
270.000000000000000
  0
LINE
  8
0
  6
CONTINUOUS
 62
3
 10
-69.653528914296317
 20
-163.081885844483510
 11
-69.653528914296999
 21
-128.081885844481920
  0
LINE
  8
0
  6
CONTINUOUS
 62
3
 10
-70.653528914296544
 20
-164.081885844483510
 11
-158.653528914296540
 21
-164.081885844483510
  0
ARC
  8
0
  6
CONTINUOUS
 62
3
 10
-70.653528914296544
 20
-163.081885844483510
 40
1.000000000000000
 50
270.000000000000000
 51
0.000000000000000
  0
LINE
  8
0
  6
CONTINUOUS
 62
4
 10
-161.853528914318190
 20
-148.081885844483510
 11
-159.653528914296540
 21
-148.081885844483510
  0
LINE
  8
0
  6
CONTINUOUS
 62
4
 10
-161.853528914318190
 20
-150.920125524479660
 11
-159.653528914296540
 21
-150.920125524479660
  0
LINE
  8
0
  6
CONTINUOUS
 62
4
 10
-161.853528914318190
 20
-152.266527249978140
 11
-159.653528914296540
 21
-152.266527249978140
  0
LINE
  8
0
  6
CONTINUOUS
 62
4
 10
-161.853528914318190
 20
-155.359258241643490
 11
-159.653528914296540
 21
-155.359258241643490
  0
LINE
  8
0
  6
CONTINUOUS
 62
4
 10
-161.853528914318190
 20
-156.838281395120590
 11
-159.653528914296540
 21
-156.838281395120590
  0
LINE
  8
0
  6
CONTINUOUS
 62
4
 10
-161.853528914318190
 20
-159.796277003253520
 11
-159.653528914296540
 21
-159.796277003253520
  0
LINE
  8
0
  6
CONTINUOUS
 62
4
 10
-161.853528914318190
 20
-161.385486795992280
 11
-159.653528914296540
 21
-161.385486795992280
  0
LINE
  8
0
  6
CONTINUOUS
 62
3
 10
-161.853528914318190
 20
-128.081885844483510
 11
-161.853528914318190
 21
-163.081885844483510
  0
ARC
  8
0
  6
CONTINUOUS
 62
3
 10
-158.853528914318190
 20
-93.081885844483509
 40
3.000000000000000
 50
90.000000000000000
 51
180.000000000000000
  0
LINE
  8
0
  6
CONTINUOUS
 62
3
 10
-154.853528914318190
 20
-90.081885844483509
 11
-158.853528914318190
 21
-90.081885844483509
  0
ARC
  8
0
  6
CONTINUOUS
 62
3
 10
-154.853528914318190
 20
-87.081885844483509
 40
3.000000000000000
 50
270.000000000000000
 51
0.000000000000000
  0
LINE
  8
0
  6
CONTINUOUS
 62
3
 10
-159.653528914296320
 20
-93.081885844483509
 11
-159.653528914297000
 21
-128.081885844483740
  0
ARC
  8
0
  6
CONTINUOUS
 62
3
 10
-158.653528914296540
 20
-93.081885844483509
 40
1.000000000000000
 50
90.000000000000000
 51
180.000000000000000
  0
LINE
  8
0
  6
CONTINUOUS
 62
3
 10
-69.653528914296317
 20
-93.081885844483509
 11
-69.653528914296999
 21
-128.081885844485100
  0
LINE
  8
0
  6
CONTINUOUS
 62
3
 10
-70.653528914296544
 20
-92.081885844483509
 11
-158.653528914296540
 21
-92.081885844483509
  0
ARC
  8
0
  6
CONTINUOUS
 62
3
 10
-70.653528914296544
 20
-93.081885844483509
 40
1.000000000000227
 50
0.000000000000000
 51
90.000000000000000
  0
LINE
  8
0
  6
CONTINUOUS
 62
4
 10
-161.853528914318190
 20
-108.081885844483500
 11
-159.653528914296540
 21
-108.081885844483500
  0
LINE
  8
0
  6
CONTINUOUS
 62
4
 10
-161.853528914318190
 20
-105.243646164487350
 11
-159.653528914296540
 21
-105.243646164487350
  0
LINE
  8
0
  6
CONTINUOUS
 62
4
 10
-161.853528914318190
 20
-103.897244438988870
 11
-159.653528914296540
 21
-103.897244438988870
  0
LINE
  8
0
  6
CONTINUOUS
 62
4
 10
-161.853528914318190
 20
-100.804513447323520
 11
-159.653528914296540
 21
-100.804513447323520
  0
LINE
  8
0
  6
CONTINUOUS
 62
4
 10
-161.853528914318190
 20
-99.325490293846428
 11
-159.653528914296540
 21
-99.325490293846428
  0
LINE
  8
0
  6
CONTINUOUS
 62
4
 10
-161.853528914318190
 20
-96.367494685713496
 11
-159.653528914296540
 21
-96.367494685713496
  0
LINE
  8
0
  6
CONTINUOUS
 62
4
 10
-161.853528914318190
 20
-94.778284892974739
 11
-159.653528914296540
 21
-94.778284892974739
  0
LINE
  8
0
  6
CONTINUOUS
 62
3
 10
-161.853528914318190
 20
-128.081885844483510
 11
-161.853528914318190
 21
-93.081885844483509
  0
LINE
  8
0
  6
DASHDOT
 62
4
 10
62.792084710978088
 20
-128.081885844483510
 11
-262.697469916700360
 21
-128.081885844483510
  0
LINE
  8
0
  6
CONTINUOUS
 62
4
 10
-69.653528914296544
 20
-99.325490293846428
 11
-11.353528914297073
 21
-99.325490293846428
  0
LINE
  8
0
  6
CONTINUOUS
 62
4
 10
-69.653528914296544
 20
-100.804513447323520
 11
-11.353528914297073
 21
-100.804513447323520
  0
LINE
  8
0
  6
CONTINUOUS
 62
4
 10
-69.653528914296544
 20
-103.897244438988870
 11
-11.353528914297073
 21
-103.897244438988870
  0
LINE
  8
0
  6
CONTINUOUS
 62
4
 10
-69.653528914296544
 20
-105.243646164487350
 11
-11.353528914297073
 21
-105.243646164487350
  0
LINE
  8
0
  6
CONTINUOUS
 62
4
 10
-69.653528914296544
 20
-108.081885844483500
 11
-11.353528914297073
 21
-108.081885844483500
  0
LINE
  8
0
  6
CONTINUOUS
 62
4
 10
-69.653528914296544
 20
-96.367494685713496
 11
-11.353528914297073
 21
-96.367494685713496
  0
LINE
  8
0
  6
CONTINUOUS
 62
4
 10
-69.653528914296544
 20
-94.778284892974739
 11
-11.353528914297073
 21
-94.778284892974739
  0
LINE
  8
0
  6
CONTINUOUS
 62
4
 10
-69.653528914296544
 20
-156.838281395120590
 11
-11.353528914297073
 21
-156.838281395120590
  0
LINE
  8
0
  6
CONTINUOUS
 62
4
 10
-69.653528914296544
 20
-155.359258241643490
 11
-11.353528914297073
 21
-155.359258241643490
  0
LINE
  8
0
  6
CONTINUOUS
 62
4
 10
-69.653528914296544
 20
-152.266527249978140
 11
-11.353528914297073
 21
-152.266527249978140
  0
LINE
  8
0
  6
CONTINUOUS
 62
4
 10
-69.653528914296544
 20
-150.920125524479660
 11
-11.353528914297073
 21
-150.920125524479660
  0
LINE
  8
0
  6
CONTINUOUS
 62
4
 10
-69.653528914296544
 20
-148.081885844483510
 11
-11.353528914297073
 21
-148.081885844483510
  0
LINE
  8
0
  6
CONTINUOUS
 62
4
 10
-69.653528914296544
 20
-159.796277003253520
 11
-11.353528914297073
 21
-159.796277003253520
  0
LINE
  8
0
  6
CONTINUOUS
 62
4
 10
-69.653528914296544
 20
-161.385486795992280
 11
-11.353528914297073
 21
-161.385486795992280
  0
LINE
  8
0
  6
CONTINUOUS
 62
3
 10
319.377324931603080
 20
-92.081885844483907
 11
317.364057114576100
 21
-92.081885844483907
  0
ARC
  8
0
  6
CONTINUOUS
 62
3
 10
610.730721887518480
 20
-128.081885844483910
 40
300.000000000000060
 50
173.967950853630190
 51
176.774168547560350
  0
LINE
  8
0
  6
DASHED
 62
3
 10
326.067346223760980
 20
-130.687582522645580
 11
326.066969522406000
 21
-130.687582522645580
  0
ARC
  8
0
  6
CONTINUOUS
 62
3
 10
317.364057114576100
 20
-97.081885844483907
 40
5.000000000000000
 50
90.000000000000000
 51
173.967950853630300
  0
POLYLINE
  8
0
  6
CONTINUOUS
 62
3
 66
1
  0
VERTEX
  8
0
  6
CONTINUOUS
 62
3
 10
331.859247748428690
 20
-122.581886445414900
  0
VERTEX
  8
0
  6
CONTINUOUS
 62
3
 10
331.727976256169650
 20
-120.744391222270320
  0
VERTEX
  8
0
  6
CONTINUOUS
 62
3
 10
331.338631902528280
 20
-118.969469677040400
  0
VERTEX
  8
0
  6
CONTINUOUS
 62
3
 10
330.704473343006550
 20
-117.317564636469950
  0
VERTEX
  8
0
  6
CONTINUOUS
 62
3
 10
329.847096087583450
 20
-115.844929747619800
  0
VERTEX
  8
0
  6
CONTINUOUS
 62
3
 10
328.795697091495530
 20
-114.601713827311890
  0
VERTEX
  8
0
  6
CONTINUOUS
 62
3
 10
327.586080487906200
 20
-113.630253104254220
  0
VERTEX
  8
0
  6
CONTINUOUS
 62
3
 10
326.259438321046960
 20
-112.963629509493770
  0
VERTEX
  8
0
  6
CONTINUOUS
 62
3
 10
324.860947800501610
 20
-112.624544110889210
  0
VERTEX
  8
0
  6
CONTINUOUS
 62
3
 10
323.438232845459650
 20
-112.624544055442440
  0
VERTEX
  8
0
  6
CONTINUOUS
 62
3
 10
322.039742309204600
 20
-112.963629345041590
  0
VERTEX
  8
0
  6
CONTINUOUS
 62
3
 10
320.713100111460960
 20
-113.630252836396870
  0
VERTEX
  8
0
  6
CONTINUOUS
 62
3
 10
319.503483462864270
 20
-114.601713465170940
  0
VERTEX
  8
0
  6
CONTINUOUS
 62
3
 10
318.452084409178610
 20
-115.844929303527500
  0
VERTEX
  8
0
  6
CONTINUOUS
 62
3
 10
317.594707085528850
 20
-117.317564125549360
  0
VERTEX
  8
0
  6
CONTINUOUS
 62
3
 10
316.960548449475030
 20
-118.969469116690320
  0
VERTEX
  8
0
  6
CONTINUOUS
 62
3
 10
316.571204013602260
 20
-120.744390631572770
  0
VERTEX
  8
0
  6
CONTINUOUS
 62
3
 10
316.439932436212810
 20
-122.581885844485380
  0
SEQEND
  8
0
  6
CONTINUOUS
 62
3
  0
LINE
  8
0
  6
CONTINUOUS
 62
3
 10
359.335500708463540
 20
-122.581885844485380
 11
345.730721887518260
 21
-122.581885844485380
  0
ARC
  8
0
  6
CONTINUOUS
 62
3
 10
345.730721887518260
 20
-126.081885844485380
 40
3.500000000000000
 50
90.000000000000000
 51
180.000000000000000
  0
LINE
  8
0
  6
CONTINUOUS
 62
3
 10
342.230721887518260
 20
-126.081885844485380
 11
342.230721887518260
 21
-215.981885844485480
  0
LINE
  8
0
  6
CONTINUOUS
 62
3
 10
308.230721887518260
 20
-132.815284028666550
 11
308.230721887518260
 21
-226.581885844485380
  0
LINE
  8
0
  6
CONTINUOUS
 62
3
 10
316.439932436212760
 20
-122.581885844485380
 11
316.439932436212760
 21
-226.581885844485380
  0
LINE
  8
0
  6
CONTINUOUS
 62
3
 10
331.859247748428740
 20
-122.581886445414900
 11
331.859247748428740
 21
-226.581885844485380
  0
LINE
  8
0
  6
CONTINUOUS
 62
3
 10
335.483721887517960
 20
-132.581885844485380
 11
335.483721887517960
 21
-226.581885844485380
  0
ARC
  8
0
  6
CONTINUOUS
 62
3
 10
388.230721887518260
 20
-132.815284028666550
 40
52.746750336799941
 50
91.910213171710112
 51
180.000000000000000
  0
ARC
  8
0
  6
CONTINUOUS
 62
3
 10
388.230721887518260
 20
-132.815284028666550
 40
79.999999999999844
 50
91.910213171710154
 51
180.000000000000000
  0
POLYLINE
  8
0
  6
CONTINUOUS
 62
3
 66
1
  0
VERTEX
  8
0
  6
CONTINUOUS
 62
3
 10
488.021511338823700
 20
-122.581885844485380
  0
VERTEX
  8
0
  6
CONTINUOUS
 62
3
 10
487.890239761434260
 20
-120.744390631572770
  0
VERTEX
  8
0
  6
CONTINUOUS
 62
3
 10
487.500895325561490
 20
-118.969469116690320
  0
VERTEX
  8
0
  6
CONTINUOUS
 62
3
 10
486.866736689507600
 20
-117.317564125549360
  0
VERTEX
  8
0
  6
CONTINUOUS
 62
3
 10
486.009359365857900
 20
-115.844929303527500
  0
VERTEX
  8
0
  6
CONTINUOUS
 62
3
 10
484.957960312172250
 20
-114.601713465170940
  0
VERTEX
  8
0
  6
CONTINUOUS
 62
3
 10
483.748343663575550
 20
-113.630252836396870
  0
VERTEX
  8
0
  6
CONTINUOUS
 62
3
 10
482.421701465831920
 20
-112.963629345041590
  0
VERTEX
  8
0
  6
CONTINUOUS
 62
3
 10
481.023210929576860
 20
-112.624544055442440
  0
VERTEX
  8
0
  6
CONTINUOUS
 62
3
 10
479.600495974534910
 20
-112.624544110889210
  0
VERTEX
  8
0
  6
CONTINUOUS
 62
3
 10
478.202005453989560
 20
-112.963629509493770
  0
VERTEX
  8
0
  6
CONTINUOUS
 62
3
 10
476.875363287130310
 20
-113.630253104254220
  0
VERTEX
  8
0
  6
CONTINUOUS
 62
3
 10
475.665746683540990
 20
-114.601713827311890
  0
VERTEX
  8
0
  6
CONTINUOUS
 62
3
 10
474.614347687453060
 20
-115.844929747619800
  0
VERTEX
  8
0
  6
CONTINUOUS
 62
3
 10
473.756970432029960
 20
-117.317564636469960
  0
VERTEX
  8
0
  6
CONTINUOUS
 62
3
 10
473.122811872508240
 20
-118.969469677040420
  0
VERTEX
  8
0
  6
CONTINUOUS
 62
3
 10
472.733467518866860
 20
-120.744391222270330
  0
VERTEX
  8
0
  6
CONTINUOUS
 62
3
 10
472.602196026607830
 20
-122.581886445414900
  0
SEQEND
  8
0
  6
CONTINUOUS
 62
3
  0
LINE
  8
0
  6
CONTINUOUS
 62
3
 10
462.230721887518260
 20
-126.081885844485380
 11
462.230721887518260
 21
-215.981885844485480
  0
LINE
  8
0
  6
CONTINUOUS
 62
3
 10
445.125943066572970
 20
-122.581885844485380
 11
458.730721887518260
 21
-122.581885844485380
  0
ARC
  8
0
  6
CONTINUOUS
 62
3
 10
458.730721887518260
 20
-126.081885844485380
 40
3.500000000000000
 50
0.000000000000000
 51
90.000000000000000
  0
LINE
  8
0
  6
CONTINUOUS
 62
3
 10
496.230721887518260
 20
-132.815284028666550
 11
496.230721887518260
 21
-226.581885844485380
  0
LINE
  8
0
  6
CONTINUOUS
 62
3
 10
472.602196026607770
 20
-122.581886445414900
 11
472.602196026607770
 21
-226.581885844485380
  0
LINE
  8
0
  6
CONTINUOUS
 62
3
 10
488.021511338823760
 20
-122.581885844485380
 11
488.021511338823760
 21
-226.581885844485380
  0
LINE
  8
0
  6
CONTINUOUS
 62
3
 10
468.977721887518560
 20
-132.581885844485380
 11
468.977721887518560
 21
-226.581885844485380
  0
ARC
  8
0
  6
CONTINUOUS
 62
3
 10
416.230721887518260
 20
-132.815284028666550
 40
52.746750336800233
 50
0.000000000000000
 51
88.089786828289888
  0
ARC
  8
0
  6
CONTINUOUS
 62
3
 10
416.230721887518260
 20
-132.815284028666550
 40
80.000000000000000
 50
0.000000000000000
 51
88.089786828289846
  0
ARC
  8
0
  6
DASHED
 62
3
 10
479.864174621134910
 20
-164.863396821413230
 40
1.999999999999927
 50
2.862405226112724
 51
85.808273843998350
  0
ARC
  8
0
  6
DASHED
 62
3
 10
485.457187718850720
 20
-164.583746166527420
 40
1.999999999999995
 50
99.916536608232732
 51
182.862405226112400
  0
INSERT
  8
0
  2
SYM20
 10
483.675544093861840
 20
-169.000842455744360
 41
-1.000000000000000
 42
1.000000000000000
 43
1.000000000000000
 50
2.862405226113666
  0
ARC
  8
0
  6
CONTINUOUS
 62
3
 10
479.530721887518440
 20
-102.124385844483920
 40
18.799999999999837
 50
5.724810452223617
 51
35.808626813495749
  0
LINE
  8
0
  6
CONTINUOUS
 62
3
 10
502.226981239139380
 20
-140.049572876902910
 11
498.236956301483360
 21
-100.249074123785640
  0
ARC
  8
0
  6
DASHED
 62
3
 10
481.530721887518440
 20
-142.124385844483920
 40
20.799999999999926
 50
334.359929784105190
 51
5.724810452223396
  0
ARC
  8
0
  6
DASHED
 62
3
 10
481.530721887518440
 20
-142.124385844483920
 40
20.800000000000040
 50
279.916536608230560
 51
314.969540422126390
  0
ARC
  8
0
  6
CONTINUOUS
 62
3
 10
481.530721887518440
 20
-142.124385844483920
 40
20.799999999999926
 50
334.359929784105190
 51
5.724810452223396
  0
ARC
  8
0
  6
DASHED
 62
3
 10
481.530721887518440
 20
-142.124385844483920
 40
20.799999999999862
 50
185.047316781007880
 51
265.808273843992540
  0
LINE
  8
0
  6
DASHED
 62
3
 10
460.730721887518480
 20
-143.954336647845540
 11
460.730721887518480
 21
-102.124385844483920
  0
ARC
  8
0
  6
DASHED
 62
3
 10
479.530721887518440
 20
-102.124385844483920
 40
18.799999999999983
 50
100.598785266066050
 51
180.000000000000000
  0
ARC
  8
0
  6
DASHED
 62
3
 10
475.704967253431510
 20
-81.679249467346210
 40
1.999999999999958
 50
280.598785266065990
 51
2.862405226112724
  0
ARC
  8
0
  6
CONTINUOUS
 62
3
 10
481.297980351147320
 20
-81.399598812460397
 40
1.999999999999927
 50
182.862405226112710
 51
265.126025186159040
  0
LINE
  8
0
  6
CONTINUOUS
 62
3
 10
478.032593379201670
 20
-72.161815678148685
 11
478.557598320796840
 21
-82.661914510050693
  0
ARC
  8
0
  6
CONTINUOUS
 62
3
 10
479.530721887518440
 20
-102.124385844483920
 40
18.799999999999933
 50
35.808626813495749
 51
85.126025186157264
  0
LINE
  8
0
  6
CONTINUOUS
 62
3
 10
478.831595250303960
 20
-72.121865584593536
 11
477.233591508099380
 21
-72.201765771703720
  0
ARC
  8
0
  6
CONTINUOUS
 62
3
 10
472.689268747198410
 20
-77.435228008373826
 40
8.999999999999948
 50
346.260856815786500
 51
19.463936333592187
  0
LINE
  8
0
  6
CONTINUOUS
 62
3
 10
478.906501675719260
 20
-73.619994092910190
 11
479.256064994326380
 21
-80.611260465055068
  0
LINE
  8
0
  6
CONTINUOUS
 62
3
 10
478.906501675719260
 20
-73.619994092910190
 11
479.256064994326380
 21
-80.611260465055068
  0
LINE
  8
0
  6
CONTINUOUS
 62
3
 10
479.256064994326380
 20
-80.611260465055068
 11
480.233868806834150
 21
-80.562370274429725
  0
LINE
  8
0
  6
CONTINUOUS
 62
3
 10
478.906501675719260
 20
-73.619994092910190
 11
479.884305488226800
 21
-73.571103902284847
  0
ARC
  8
0
  6
CONTINUOUS
 62
3
 10
480.168949942906470
 20
-79.263992995876094
 40
1.299999237060550
 50
272.862387240019760
 51
346.260856815788600
  0
ARC
  8
0
  6
CONTINUOUS
 62
3
 10
479.949224352154490
 20
-74.869481180838363
 40
1.299999237060645
 50
19.463936333587132
 51
92.862405909348169
  0
LINE
  8
0
  6
CONTINUOUS
 62
3
 10
478.831595250303960
 20
-72.121865584593536
 11
479.412676663935140
 21
-83.743493857216635
  0
LINE
  8
0
  6
CONTINUOUS
 62
3
 10
477.233591508099380
 20
-72.201765771703720
 11
477.704494334761760
 21
-81.619822304949992
  0
LINE
  8
0
  6
DASHED
 62
3
 10
477.704494334761760
 20
-81.619822304949992
 11
482.327228436376340
 21
-174.074504337244490
  0
LINE
  8
0
  6
DASHED
 62
3
 10
478.557598320796840
 20
-82.661914510050693
 11
483.126230307478640
 21
-174.034554243688770
  0
LINE
  8
0
  6
DASHED
 62
3
 10
479.412676663935140
 20
-83.743493857216635
 11
483.925232178580930
 21
-173.994604150133510
  0
ARC
  8
0
  6
CONTINUOUS
 62
3
 10
481.530721887518440
 20
-142.124385844483920
 40
20.800000000000011
 50
314.969540422126390
 51
334.359929784105190
  0
LINE
  8
0
  6
DASHDOT
 62
4
 10
294.199547752847140
 20
-122.581885844485380
 11
512.007412327715430
 21
-122.581885844485380
  0
LINE
  8
0
  6
CONTINUOUS
 62
3
 10
-151.853528914318190
 20
-182.081885844483740
 11
-151.853528914318190
 21
-169.081885844483510
  0
LINE
  8
0
  6
DASHDOT
 62
4
 10
437.512423983688450
 20
-128.081885844483910
 11
366.642637135748370
 21
-128.081885844483910
  0
CIRCLE
  8
0
  6
CONTINUOUS
 62
3
 10
402.230721887518260
 20
-122.581885844485380
 40
33.500000000000000
  0
ARC
  8
0
  6
CONTINUOUS
 62
3
 10
402.230721887518260
 20
-122.581885844485380
 40
40.000000000000249
 50
184.000629961571520
 51
270.000000000000000
  0
ARC
  8
0
  6
CONTINUOUS
 62
3
 10
359.335500708463540
 20
-125.581885844485380
 40
3.000000000000032
 50
4.000629961575198
 51
90.000000000000000
  0
LINE
  8
0
  6
DASHDOT
 62
4
 10
402.230721887518480
 20
-258.908589727332580
 11
402.230721887518480
 21
-5.259940416879545
  0
ARC
  8
0
  6
CONTINUOUS
 62
3
 10
-229.358373863410970
 20
-161.481885844483830
 40
20.599999999999795
 50
235.000000000000260
 51
270.000000000000000
  0
ARC
  8
0
  6
CONTINUOUS
 62
3
 10
-247.253528914318280
 20
-170.925505978113160
 40
2.599999999999909
 50
180.000000000000000
 51
234.999999999994540
  0
LINE
  8
0
  6
CONTINUOUS
 62
3
 10
-249.853528914318190
 20
-170.925505978113160
 11
-249.853528914318190
 21
-128.081885844483510
  0
LINE
  8
0
  6
CONTINUOUS
 62
3
 10
-241.174048452242350
 20
-178.356417956836940
 11
-248.744827648831120
 21
-173.055301293264280
  0
ARC
  8
0
  6
CONTINUOUS
 62
3
 10
-229.358373863410970
 20
-94.681885844483190
 40
20.599999999999909
 50
90.000000000000000
 51
124.999999999999780
  0
ARC
  8
0
  6
CONTINUOUS
 62
3
 10
-247.253528914318280
 20
-85.238265710853852
 40
2.600000000000037
 50
125.000000000002600
 51
180.000000000000000
  0
LINE
  8
0
  6
CONTINUOUS
 62
3
 10
-249.853528914318190
 20
-85.238265710853852
 11
-249.853528914318190
 21
-128.081885844483510
  0
LINE
  8
0
  6
CONTINUOUS
 62
3
 10
-241.174048452242350
 20
-77.807353732129855
 11
-248.744827648831120
 21
-83.108470395702739
  0
POLYLINE
  8
0
  6
CONTINUOUS
 62
3
 66
1
 70
1
  0
VERTEX
  8
0
  6
CONTINUOUS
 62
3
 10
-158.153528914317970
 20
-80.754554890135864
  0
VERTEX
  8
0
  6
CONTINUOUS
 62
3
 10
-158.243838096422790
 20
-80.051597923935503
  0
VERTEX
  8
0
  6
CONTINUOUS
 62
3
 10
-158.511295111514930
 20
-79.375655199723411
  0
VERTEX
  8
0
  6
CONTINUOUS
 62
3
 10
-158.945621736496010
 20
-78.752702817318010
  0
VERTEX
  8
0
  6
CONTINUOUS
 62
3
 10
-159.530127042741190
 20
-78.206680487419433
  0
VERTEX
  8
0
  6
CONTINUOUS
 62
3
 10
-160.242348819125850
 20
-77.758571541952819
  0
VERTEX
  8
0
  6
CONTINUOUS
 62
3
 10
-161.054916782202040
 20
-77.425596556390047
  0
VERTEX
  8
0
  6
CONTINUOUS
 62
3
 10
-161.936604400842160
 20
-77.220551572691804
  0
VERTEX
  8
0
  6
CONTINUOUS
 62
3
 10
-162.853528914317960
 20
-77.151316354591032
  0
VERTEX
  8
0
  6
CONTINUOUS
 62
3
 10
-163.770453427793770
 20
-77.220551572691804
  0
VERTEX
  8
0
  6
CONTINUOUS
 62
3
 10
-164.652141046433880
 20
-77.425596556390047
  0
VERTEX
  8
0
  6
CONTINUOUS
 62
3
 10
-165.464709009510070
 20
-77.758571541952819
  0
VERTEX
  8
0
  6
CONTINUOUS
 62
3
 10
-166.176930785894740
 20
-78.206680487419433
  0
VERTEX
  8
0
  6
CONTINUOUS
 62
3
 10
-166.761436092139920
 20
-78.752702817318010
  0
VERTEX
  8
0
  6
CONTINUOUS
 62
3
 10
-167.195762717121000
 20
-79.375655199723411
  0
VERTEX
  8
0
  6
CONTINUOUS
 62
3
 10
-167.463219732213130
 20
-80.051597923935503
  0
VERTEX
  8
0
  6
CONTINUOUS
 62
3
 10
-167.553528914317950
 20
-80.754554890135864
  0
VERTEX
  8
0
  6
CONTINUOUS
 62
3
 10
-167.463219732213130
 20
-81.457511856336225
  0
VERTEX
  8
0
  6
CONTINUOUS
 62
3
 10
-167.195762717121000
 20
-82.133454580548317
  0
VERTEX
  8
0
  6
CONTINUOUS
 62
3
 10
-166.761436092139920
 20
-82.756406962953719
  0
VERTEX
  8
0
  6
CONTINUOUS
 62
3
 10
-166.176930785894710
 20
-83.302429292852295
  0
VERTEX
  8
0
  6
CONTINUOUS
 62
3
 10
-165.464709009510070
 20
-83.750538238318910
  0
VERTEX
  8
0
  6
CONTINUOUS
 62
3
 10
-164.652141046433880
 20
-84.083513223881681
  0
VERTEX
  8
0
  6
CONTINUOUS
 62
3
 10
-163.770453427793770
 20
-84.288558207579925
  0
VERTEX
  8
0
  6
CONTINUOUS
 62
3
 10
-162.853528914317960
 20
-84.357793425680697
  0
VERTEX
  8
0
  6
CONTINUOUS
 62
3
 10
-161.936604400842160
 20
-84.288558207579925
  0
VERTEX
  8
0
  6
CONTINUOUS
 62
3
 10
-161.054916782202040
 20
-84.083513223881681
  0
VERTEX
  8
0
  6
CONTINUOUS
 62
3
 10
-160.242348819125850
 20
-83.750538238318910
  0
VERTEX
  8
0
  6
CONTINUOUS
 62
3
 10
-159.530127042741210
 20
-83.302429292852295
  0
VERTEX
  8
0
  6
CONTINUOUS
 62
3
 10
-158.945621736496010
 20
-82.756406962953719
  0
VERTEX
  8
0
  6
CONTINUOUS
 62
3
 10
-158.511295111514930
 20
-82.133454580548317
  0
VERTEX
  8
0
  6
CONTINUOUS
 62
3
 10
-158.243838096422790
 20
-81.457511856336225
  0
SEQEND
  8
0
  6
CONTINUOUS
 62
3
  0
LINE
  8
0
  6
CONTINUOUS
 62
3
 10
-164.853528914318190
 20
-77.762179336135546
 11
-162.853528914318190
 21
-78.937964821758328
  0
LINE
  8
0
  6
CONTINUOUS
 62
3
 10
-162.853528914318190
 20
-78.937964821758328
 11
-160.853528914318190
 21
-80.590606460881759
  0
LINE
  8
0
  6
CONTINUOUS
 62
3
 10
-160.853528914318190
 20
-77.762179336135546
 11
-162.853528914318190
 21
-78.937964821758328
  0
LINE
  8
0
  6
CONTINUOUS
 62
3
 10
-162.853528914318190
 20
-78.937964821758328
 11
-164.853528914318190
 21
-80.590606460881759
  0
POLYLINE
  8
0
  6
CONTINUOUS
 62
3
 66
1
 70
1
  0
VERTEX
  8
0
  6
CONTINUOUS
 62
3
 10
-158.153528914317970
 20
-175.409216798831150
  0
VERTEX
  8
0
  6
CONTINUOUS
 62
3
 10
-158.243838096422790
 20
-174.706259832630790
  0
VERTEX
  8
0
  6
CONTINUOUS
 62
3
 10
-158.511295111514930
 20
-174.030317108418700
  0
VERTEX
  8
0
  6
CONTINUOUS
 62
3
 10
-158.945621736496010
 20
-173.407364726013300
  0
VERTEX
  8
0
  6
CONTINUOUS
 62
3
 10
-159.530127042741190
 20
-172.861342396114710
  0
VERTEX
  8
0
  6
CONTINUOUS
 62
3
 10
-160.242348819125850
 20
-172.413233450648080
  0
VERTEX
  8
0
  6
CONTINUOUS
 62
3
 10
-161.054916782202040
 20
-172.080258465085340
  0
VERTEX
  8
0
  6
CONTINUOUS
 62
3
 10
-161.936604400842160
 20
-171.875213481387080
  0
VERTEX
  8
0
  6
CONTINUOUS
 62
3
 10
-162.853528914317960
 20
-171.805978263286310
  0
VERTEX
  8
0
  6
CONTINUOUS
 62
3
 10
-163.770453427793770
 20
-171.875213481387080
  0
VERTEX
  8
0
  6
CONTINUOUS
 62
3
 10
-164.652141046433880
 20
-172.080258465085340
  0
VERTEX
  8
0
  6
CONTINUOUS
 62
3
 10
-165.464709009510070
 20
-172.413233450648080
  0
VERTEX
  8
0
  6
CONTINUOUS
 62
3
 10
-166.176930785894740
 20
-172.861342396114710
  0
VERTEX
  8
0
  6
CONTINUOUS
 62
3
 10
-166.761436092139920
 20
-173.407364726013300
  0
VERTEX
  8
0
  6
CONTINUOUS
 62
3
 10
-167.195762717121000
 20
-174.030317108418700
  0
VERTEX
  8
0
  6
CONTINUOUS
 62
3
 10
-167.463219732213130
 20
-174.706259832630790
  0
VERTEX
  8
0
  6
CONTINUOUS
 62
3
 10
-167.553528914317950
 20
-175.409216798831150
  0
VERTEX
  8
0
  6
CONTINUOUS
 62
3
 10
-167.463219732213130
 20
-176.112173765031510
  0
VERTEX
  8
0
  6
CONTINUOUS
 62
3
 10
-167.195762717121000
 20
-176.788116489243610
  0
VERTEX
  8
0
  6
CONTINUOUS
 62
3
 10
-166.761436092139920
 20
-177.411068871649010
  0
VERTEX
  8
0
  6
CONTINUOUS
 62
3
 10
-166.176930785894710
 20
-177.957091201547600
  0
VERTEX
  8
0
  6
CONTINUOUS
 62
3
 10
-165.464709009510070
 20
-178.405200147014230
  0
VERTEX
  8
0
  6
CONTINUOUS
 62
3
 10
-164.652141046433880
 20
-178.738175132576970
  0
VERTEX
  8
0
  6
CONTINUOUS
 62
3
 10
-163.770453427793770
 20
-178.943220116275230
  0
VERTEX
  8
0
  6
CONTINUOUS
 62
3
 10
-162.853528914317960
 20
-179.012455334376000
  0
VERTEX
  8
0
  6
CONTINUOUS
 62
3
 10
-161.936604400842160
 20
-178.943220116275230
  0
VERTEX
  8
0
  6
CONTINUOUS
 62
3
 10
-161.054916782202040
 20
-178.738175132576970
  0
VERTEX
  8
0
  6
CONTINUOUS
 62
3
 10
-160.242348819125850
 20
-178.405200147014230
  0
VERTEX
  8
0
  6
CONTINUOUS
 62
3
 10
-159.530127042741210
 20
-177.957091201547600
  0
VERTEX
  8
0
  6
CONTINUOUS
 62
3
 10
-158.945621736496010
 20
-177.411068871649010
  0
VERTEX
  8
0
  6
CONTINUOUS
 62
3
 10
-158.511295111514930
 20
-176.788116489243610
  0
VERTEX
  8
0
  6
CONTINUOUS
 62
3
 10
-158.243838096422790
 20
-176.112173765031510
  0
SEQEND
  8
0
  6
CONTINUOUS
 62
3
  0
LINE
  8
0
  6
CONTINUOUS
 62
3
 10
-164.853528914318190
 20
-178.401592352831470
 11
-162.853528914318190
 21
-177.225806867208690
  0
LINE
  8
0
  6
CONTINUOUS
 62
3
 10
-162.853528914318190
 20
-177.225806867208690
 11
-160.853528914318190
 21
-175.573165228085260
  0
LINE
  8
0
  6
CONTINUOUS
 62
3
 10
-160.853528914318190
 20
-178.401592352831470
 11
-162.853528914318190
 21
-177.225806867208690
  0
LINE
  8
0
  6
CONTINUOUS
 62
3
 10
-162.853528914318190
 20
-177.225806867208690
 11
-164.853528914318190
 21
-175.573165228085260
  0
LINE
  8
0
  6
CONTINUOUS
 62
3
 10
-151.853528914318190
 20
-74.081885844483281
 11
-229.358373863410970
 21
-74.081885844483281
  0
LINE
  8
0
  6
CONTINUOUS
 62
3
 10
-151.853528914318190
 20
-74.081885844483281
 11
-151.853528914318190
 21
-87.081885844483509
  0
LINE
  8
0
  6
CONTINUOUS
 62
3
 10
-151.853528914318190
 20
-182.081885844483740
 11
-229.358373863410970
 21
-182.081885844483740
  0
LINE
  8
0
  6
CONTINUOUS
 62
3
 10
-11.353528914297073
 20
-75.581885844483509
 11
-151.853528914318190
 21
-75.581885844483509
  0
LINE
  8
0
  6
CONTINUOUS
 62
4
 10
-151.853528914318190
 20
-77.581885844483509
 11
-11.353528914297073
 21
-77.581885844483509
  0
LINE
  8
0
  6
CONTINUOUS
 62
4
 10
-151.853528914318190
 20
-77.081885844483281
 11
-11.353528914297073
 21
-77.081885844483281
  0
LINE
  8
0
  6
CONTINUOUS
 62
4
 10
-151.853528914318190
 20
-81.948803249600701
 11
-11.353528914297073
 21
-81.948803249600701
  0
LINE
  8
0
  6
CONTINUOUS
 62
4
 10
-151.853528914318190
 20
-83.577230317378621
 11
-11.353528914297073
 21
-83.577230317378621
  0
LINE
  8
0
  6
CONTINUOUS
 62
4
 10
-151.853528914318190
 20
-87.039972074143748
 11
-11.353528914297073
 21
-87.039972074143748
  0
LINE
  8
0
  6
CONTINUOUS
 62
4
 10
-152.011129260689470
 20
-88.041450437959043
 11
-11.353528914297073
 21
-88.041450437959043
  0
LINE
  8
0
  6
CONTINUOUS
 62
3
 10
-11.353528914297073
 20
-180.581885844483510
 11
-151.853528914318190
 21
-180.581885844483510
  0
LINE
  8
0
  6
CONTINUOUS
 62
4
 10
-151.853528914318190
 20
-178.581885844483510
 11
-11.353528914297073
 21
-178.581885844483510
  0
LINE
  8
0
  6
CONTINUOUS
 62
4
 10
-151.853528914318190
 20
-179.081885844483740
 11
-11.353528914297073
 21
-179.081885844483740
  0
LINE
  8
0
  6
CONTINUOUS
 62
4
 10
-151.853528914318190
 20
-174.214968439366320
 11
-11.353528914297073
 21
-174.214968439366320
  0
LINE
  8
0
  6
CONTINUOUS
 62
4
 10
-151.853528914318190
 20
-172.586541371588400
 11
-11.353528914297073
 21
-172.586541371588400
  0
LINE
  8
0
  6
CONTINUOUS
 62
4
 10
-151.853528914318190
 20
-169.123799614823040
 11
-11.353528914297073
 21
-169.123799614823040
  0
LINE
  8
0
  6
CONTINUOUS
 62
4
 10
-152.011129260689470
 20
-168.122321251007750
 11
-11.353528914297073
 21
-168.122321251007750
  0
ARC
  8
0
  6
CONTINUOUS
 62
3
 10
471.977721887518560
 20
-226.581885844485380
 40
3.000000000000000
 50
180.000000000000000
 51
270.000000000000000
  0
ARC
  8
0
  6
CONTINUOUS
 62
3
 10
332.483721887517960
 20
-226.581885844485380
 40
3.000000000000000
 50
270.000000000000000
 51
0.000000000000000
  0
ARC
  8
0
  6
CONTINUOUS
 62
3
 10
491.021511338823760
 20
-226.581885844485380
 40
3.000000000000000
 50
180.000000000000000
 51
270.000000000000000
  0
ARC
  8
0
  6
CONTINUOUS
 62
3
 10
475.602196026607770
 20
-226.581885844485380
 40
3.000000000000000
 50
180.000000000000000
 51
270.000000000000000
  0
ARC
  8
0
  6
CONTINUOUS
 62
3
 10
328.859247748428740
 20
-226.581885844485380
 40
3.000000000000000
 50
270.000000000000000
 51
0.000000000000000
  0
ARC
  8
0
  6
CONTINUOUS
 62
3
 10
313.439932436212760
 20
-226.581885844485380
 40
3.000000000000000
 50
270.000000000000000
 51
0.000000000000000
  0
ARC
  8
0
  6
CONTINUOUS
 62
3
 10
334.230721887518260
 20
-247.581885844485380
 40
2.000000000000000
 50
90.000000000000000
 51
180.000000000000000
  0
ARC
  8
0
  6
CONTINUOUS
 62
3
 10
304.730721887518260
 20
-232.081885844485380
 40
2.500000000000000
 50
90.000000000000000
 51
180.000000000000000
  0
ARC
  8
0
  6
CONTINUOUS
 62
3
 10
470.230721887518260
 20
-247.581885844485380
 40
2.000000000000000
 50
0.000000000000000
 51
90.000000000000000
  0
ARC
  8
0
  6
CONTINUOUS
 62
3
 10
499.730721887518260
 20
-232.081885844485380
 40
2.500000000000000
 50
0.000000000000000
 51
90.000000000000000
  0
ARC
  8
0
  6
CONTINUOUS
 62
3
 10
305.230721887518260
 20
-226.581885844485380
 40
3.000000000000000
 50
270.000000000000000
 51
0.000000000000000
  0
ARC
  8
0
  6
CONTINUOUS
 62
3
 10
499.230721887518260
 20
-226.581885844485380
 40
3.000000000000000
 50
180.000000000000000
 51
270.000000000000000
  0
ARC
  8
0
  6
CONTINUOUS
 62
3
 10
402.230721887518260
 20
-552.581885844485440
 40
500.000000000000110
 50
88.089786828290030
 51
90.000000000000000
  0
ARC
  8
0
  6
CONTINUOUS
 62
3
 10
402.230721887518260
 20
-552.581885844485440
 40
500.000000000000060
 50
90.000000000000000
 51
91.910213171709970
  0
ARC
  8
0
  6
CONTINUOUS
 62
3
 10
402.230721887518260
 20
-552.581885844485440
 40
472.746750336800230
 50
88.089786828290045
 51
90.000000000000000
  0
ARC
  8
0
  6
CONTINUOUS
 62
3
 10
402.230721887518260
 20
-552.581885844485440
 40
472.746750336799830
 50
90.000000000000000
 51
91.910213171709955
  0
LINE
  8
0
  6
CONTINUOUS
 62
3
 10
304.730721887518260
 20
-229.581885844485380
 11
402.230721887518260
 21
-229.581885844485380
  0
LINE
  8
0
  6
CONTINUOUS
 62
3
 10
302.230721887518260
 20
-232.081885844485380
 11
302.230721887518260
 21
-247.581885844485380
  0
LINE
  8
0
  6
DASHDOT
 62
4
 10
489.730721887518260
 20
-225.421606990115320
 11
489.730721887518260
 21
-251.998677684085070
  0
LINE
  8
0
  6
CONTINUOUS
 62
3
 10
502.230721887518260
 20
-232.081885844485380
 11
502.230721887518260
 21
-247.581885844485380
  0
LINE
  8
0
  6
CONTINUOUS
 62
3
 10
334.230721887518260
 20
-245.581885844485380
 11
402.230721887518260
 21
-245.581885844485380
  0
LINE
  8
0
  6
CONTINUOUS
 62
3
 10
499.730721887518260
 20
-229.581885844485380
 11
402.230721887518260
 21
-229.581885844485380
  0
LINE
  8
0
  6
CONTINUOUS
 62
3
 10
470.230721887518260
 20
-245.581885844485380
 11
402.230721887518260
 21
-245.581885844485380
  0
LINE
  8
0
  6
DASHDOT
 62
4
 10
314.730721887518260
 20
-225.421606990115320
 11
314.730721887518260
 21
-251.998677684085070
  0
LINE
  8
0
  6
CONTINUOUS
 62
3
 10
349.230721887518260
 20
-222.981885844485480
 11
402.230721887518260
 21
-222.981885844485480
  0
ARC
  8
0
  6
CONTINUOUS
 62
3
 10
349.230721887518260
 20
-215.981885844485480
 40
7.000000000000000
 50
180.000000000000000
 51
270.000000000000000
  0
ARC
  8
0
  6
CONTINUOUS
 62
3
 10
445.125943066572970
 20
-125.581885844485380
 40
3.000000000000000
 50
90.000000000000000
 51
175.999370038424810
  0
ARC
  8
0
  6
CONTINUOUS
 62
3
 10
455.230721887518260
 20
-215.981885844485480
 40
7.000000000000000
 50
270.000000000000000
 51
0.000000000000000
  0
ARC
  8
0
  6
CONTINUOUS
 62
3
 10
402.230721887518260
 20
-122.581885844485380
 40
40.000000000000000
 50
270.000000000000000
 51
355.999370038428480
  0
LINE
  8
0
  6
CONTINUOUS
 62
3
 10
455.230721887518260
 20
-222.981885844485480
 11
402.230721887518260
 21
-222.981885844485480
  0
LINE
  8
0
  6
CONTINUOUS
 62
3
 10
302.230721887518260
 20
-247.581885844485380
 11
332.230721887518260
 21
-247.581885844485380
  0
LINE
  8
0
  6
CONTINUOUS
 62
3
 10
502.230721887518260
 20
-247.581885844485380
 11
472.230721887518260
 21
-247.581885844485380
  0
LINE
  8
0
  6
CONTINUOUS
 62
3
 10
302.230721887518260
 20
-247.581885844485380
 11
332.230721887518260
 21
-247.581885844485380
  0
CIRCLE
  8
0
  6
CONTINUOUS
 62
3
 10
402.230721887518260
 20
-122.581885844485380
 40
23.500000000000000
  0
CIRCLE
  8
0
  6
CONTINUOUS
 62
3
 10
402.230721887518260
 20
-122.581885844485380
 40
3.323500000000024
  0
CIRCLE
  8
0
  6
CONTINUOUS
 62
4
 10
402.230721887518260
 20
-122.581885844485380
 40
4.000000000000000
  0
LINE
  8
0
  6
DASHDOT
 62
4
 10
425.398634886399800
 20
-41.431406009913132
 11
378.376120984865110
 21
-41.431406009913132
  0
ARC
  8
0
  6
CONTINUOUS
 62
3
 10
412.730721887518260
 20
-31.431406009913132
 40
10.000000000000000
 50
0.000000000000000
 51
90.000000000000000
  0
LINE
  8
0
  6
CONTINUOUS
 62
3
 10
422.730721887518260
 20
-31.431406009913132
 11
422.730721887518260
 21
-52.581878883620845
  0
CIRCLE
  8
0
  6
CONTINUOUS
 62
3
 10
402.230721887518260
 20
-41.431406009913132
 40
10.000000000000000
  0
LINE
  8
0
  6
CONTINUOUS
 62
3
 10
381.730721887518260
 20
-31.431406009913132
 11
381.730721887518260
 21
-53.079783779405204
  0
ARC
  8
0
  6
CONTINUOUS
 62
3
 10
391.730721887518260
 20
-31.431406009913132
 40
10.000000000000000
 50
90.000000000000000
 51
180.000000000000000
  0
LINE
  8
0
  6
CONTINUOUS
 62
3
 10
412.730721887518260
 20
-21.431406009913132
 11
391.730721887518260
 21
-21.431406009913132
  0
LINE
  8
0
  6
CONTINUOUS
 62
3
 10
383.230721887517350
 20
-127.581885844485380
 11
391.230721887517350
 21
-127.581885844485380
  0
LINE
  8
0
  6
CONTINUOUS
 62
3
 10
391.230721887517350
 20
-127.581885844485380
 11
391.230721887517350
 21
-117.581885844485380
  0
ARC
  8
0
  6
CONTINUOUS
 62
3
 10
402.230721887517350
 20
-122.581885844485380
 40
16.000000000000192
 50
198.209956864282790
 51
161.790043135717210
  0
LINE
  8
0
  6
CONTINUOUS
 62
3
 10
383.230721887517350
 20
-127.581885844485380
 11
383.230721887517350
 21
-117.581885844485380
  0
LINE
  8
0
  6
CONTINUOUS
 62
3
 10
383.230721887517350
 20
-117.581885844485380
 11
391.230721887517350
 21
-117.581885844485380
  0
ENDSEC
  0
EOF
