  0
SECTION
  2
HEADER
  9
$FILLMODE
 70
1
  9
$TEXTSTYLE
  7
STANDARD1
  9
$ACADVER
  1
AC1009
  9
$DIMASZ
 40
1.931851648807023
  9
$DIMEXE
 40
2.000000000000000
  9
$DIMEXO
 40
1.000000000000000
  9
$DIMLFAC
 40
1.000000000000000
  9
$DIMSCALE
 40
1.000000000000000
  9
$DIMTAD
 70
1
  9
$DIMTFAC
 40
0.714285731315613
  9
$DIMTXT
 40
3.200000047683716
  9
$LUPREC
 70
3
  9
$TEXTSIZE
 40
2.799999952316284
  9
$REGENMODE
 70
1
  0
ENDSEC
  0
SECTION
  2
TABLES
  0
TABLE
  2
LTYPE
 70
4
  0
LTYPE
  2
CONTINUOUS
 70
64
  3
Solid line
 72
65
 73
0
 40
0.0
  0
LTYPE
  2
DASHED
 70
64
  3
-- -- -- -- -- -- -- -- -- -- -- -- -- -- --
 72
65
 73
2
 40
0.75
 49
0.5
 49
-0.25
  0
LTYPE
  2
DASHDOT
 70
64
  3
__ . __ . __ . __ . __ . __ . __ . __ . __ . __
 72
65
 73
4
 40
1.0
 49
0.5
 49
-0.25
 49
0.0
 49
-0.25
  0
LTYPE
  2
DIVIDE
 70
64
  3
__ . . __ . . __ . . __ . . __ . . __ . . __
 72
65
 73
6
 40
1.25
 49
0.5
 49
-0.25
 49
0.0
 49
-0.25
 49
0.0
 49
-0.25
  0
ENDTAB
  0
TABLE
  2
LAYER
 70
1
  0
LAYER
  2
0
 70
64
 62
2
  6
CONTINUOUS
  0
ENDTAB
  0
TABLE
  2
STYLE
 70
4
  0
STYLE
  2
STANDARD1
 70
64
 40
0.0
 41
1.0
 50
0.0
 71
0
 42
2.799999952316284
  3
MONOTXT
  4
BIGFONT
  0
STYLE
  2
STANDARD2
 70
68
 40
0.0
 41
1.0
 50
0.0
 71
0
 42
2.799999952316284
  3
MONOTXT
  4
BIGFONT
  0
STYLE
  2
STANDARD3
 70
64
 40
0.0
 41
1.0
 50
0.0
 71
0
 42
2.799999952316284
  3
MONOTXT
  4

  0
STYLE
  2
STANDARD4
 70
68
 40
0.0
 41
1.0
 50
0.0
 71
0
 42
2.799999952316284
  3
MONOTXT
  4

  0
ENDTAB
  0
TABLE
  2
VIEW
 70
0
  0
ENDTAB
  0
ENDSEC
  0
SECTION
  2
BLOCKS
  0
BLOCK
  8
0
  2
SYM1
 70
64
 10
0.000000000000000
 20
0.000000000000000
  0
CIRCLE
  8
0
  6
CONTINUOUS
 62
3
 10
0.000000000000000
 20
0.000000000000000
 40
5.633955001831055
  0
CIRCLE
  8
0
  6
CONTINUOUS
 62
3
 10
0.000000000000000
 20
0.000000000000000
 40
6.500000000000000
  0
POINT
  8
0
  6
CONTINUOUS
 62
3
 10
0.000000000000000
 20
0.000000000000000
  0
LINE
  8
0
  6
CONTINUOUS
 62
3
 10
-2.999996662140960
 20
-1.732045999551255
 11
-2.999997615815242
 21
1.732051977133316
  0
LINE
  8
0
  6
CONTINUOUS
 62
3
 10
2.999996662140697
 20
1.732046953225571
 11
2.999997615814979
 21
-1.732051023458999
  0
LINE
  8
0
  6
CONTINUOUS
 62
3
 10
0.000006701720849
 20
3.464096999935236
 11
-2.999997939551520
 21
1.732051821705568
  0
LINE
  8
0
  6
CONTINUOUS
 62
3
 10
2.999998112093635
 20
-1.732051392778772
 11
-0.000004464412200
 21
-3.464098365415111
  0
LINE
  8
0
  6
CONTINUOUS
 62
3
 10
0.000006618601731
 20
3.464096896385627
 11
2.999997425948948
 21
1.732046782136365
  0
LINE
  8
0
  6
CONTINUOUS
 62
3
 10
-0.000004704988612
 20
-3.464098175748802
 11
-2.999997577100373
 21
-1.732046218032735
  0
POINT
  8
0
  6
CONTINUOUS
 62
3
 10
0.500000119209290
 20
6.500000000000000
  0
POINT
  8
0
  6
CONTINUOUS
 62
3
 10
0.000000000000000
 20
5.633955001831055
  0
ENDBLK
  8
0
  0
BLOCK
  8
0
  2
SYM2
 70
64
 10
0.000000000000000
 20
0.000000000000000
  0
CIRCLE
  8
0
  6
CONTINUOUS
 62
3
 10
0.000000000000000
 20
0.000000000000000
 40
5.633955001831055
  0
CIRCLE
  8
0
  6
CONTINUOUS
 62
3
 10
0.000000000000000
 20
0.000000000000000
 40
6.500000000000000
  0
POINT
  8
0
  6
CONTINUOUS
 62
3
 10
0.000000000000000
 20
0.000000000000000
  0
LINE
  8
0
  6
CONTINUOUS
 62
3
 10
-2.999996662140960
 20
-1.732045999551255
 11
-2.999997615815242
 21
1.732051977133316
  0
LINE
  8
0
  6
CONTINUOUS
 62
3
 10
2.999996662140697
 20
1.732046953225571
 11
2.999997615814979
 21
-1.732051023458999
  0
LINE
  8
0
  6
CONTINUOUS
 62
3
 10
0.000006701720849
 20
3.464096999935236
 11
-2.999997939551520
 21
1.732051821705568
  0
LINE
  8
0
  6
CONTINUOUS
 62
3
 10
2.999998112093635
 20
-1.732051392778772
 11
-0.000004464412200
 21
-3.464098365415111
  0
LINE
  8
0
  6
CONTINUOUS
 62
3
 10
0.000006618601731
 20
3.464096896385627
 11
2.999997425948948
 21
1.732046782136365
  0
LINE
  8
0
  6
CONTINUOUS
 62
3
 10
-0.000004704988612
 20
-3.464098175748802
 11
-2.999997577100373
 21
-1.732046218032735
  0
POINT
  8
0
  6
CONTINUOUS
 62
3
 10
0.500000119209290
 20
6.500000000000000
  0
POINT
  8
0
  6
CONTINUOUS
 62
3
 10
0.000000000000000
 20
5.633955001831055
  0
ENDBLK
  8
0
  0
BLOCK
  8
0
  2
SYM3
 70
64
 10
0.000000000000000
 20
0.000000000000000
  0
CIRCLE
  8
0
  6
CONTINUOUS
 62
3
 10
0.000000000000000
 20
0.000000000000000
 40
5.633955001831055
  0
CIRCLE
  8
0
  6
CONTINUOUS
 62
3
 10
0.000000000000000
 20
0.000000000000000
 40
6.500000000000000
  0
POINT
  8
0
  6
CONTINUOUS
 62
3
 10
0.000000000000000
 20
0.000000000000000
  0
LINE
  8
0
  6
CONTINUOUS
 62
3
 10
-2.999996662140960
 20
-1.732045999551255
 11
-2.999997615815242
 21
1.732051977133316
  0
LINE
  8
0
  6
CONTINUOUS
 62
3
 10
2.999996662140697
 20
1.732046953225571
 11
2.999997615814979
 21
-1.732051023458999
  0
LINE
  8
0
  6
CONTINUOUS
 62
3
 10
0.000006701720849
 20
3.464096999935236
 11
-2.999997939551520
 21
1.732051821705568
  0
LINE
  8
0
  6
CONTINUOUS
 62
3
 10
2.999998112093635
 20
-1.732051392778772
 11
-0.000004464412200
 21
-3.464098365415111
  0
LINE
  8
0
  6
CONTINUOUS
 62
3
 10
0.000006618601731
 20
3.464096896385627
 11
2.999997425948948
 21
1.732046782136365
  0
LINE
  8
0
  6
CONTINUOUS
 62
3
 10
-0.000004704988612
 20
-3.464098175748802
 11
-2.999997577100373
 21
-1.732046218032735
  0
POINT
  8
0
  6
CONTINUOUS
 62
3
 10
0.500000119209290
 20
6.500000000000000
  0
POINT
  8
0
  6
CONTINUOUS
 62
3
 10
0.000000000000000
 20
5.633955001831055
  0
ENDBLK
  8
0
  0
BLOCK
  8
0
  2
SYM4
 70
64
 10
0.000000000000000
 20
0.000000000000000
  0
CIRCLE
  8
0
  6
CONTINUOUS
 62
3
 10
0.000000000000000
 20
0.000000000000000
 40
5.633955001831055
  0
CIRCLE
  8
0
  6
CONTINUOUS
 62
3
 10
0.000000000000000
 20
0.000000000000000
 40
6.500000000000000
  0
POINT
  8
0
  6
CONTINUOUS
 62
3
 10
0.000000000000000
 20
0.000000000000000
  0
LINE
  8
0
  6
CONTINUOUS
 62
3
 10
-2.999996662140960
 20
-1.732045999551255
 11
-2.999997615815242
 21
1.732051977133316
  0
LINE
  8
0
  6
CONTINUOUS
 62
3
 10
2.999996662140697
 20
1.732046953225571
 11
2.999997615814979
 21
-1.732051023458999
  0
LINE
  8
0
  6
CONTINUOUS
 62
3
 10
0.000006701720849
 20
3.464096999935236
 11
-2.999997939551520
 21
1.732051821705568
  0
LINE
  8
0
  6
CONTINUOUS
 62
3
 10
2.999998112093635
 20
-1.732051392778772
 11
-0.000004464412200
 21
-3.464098365415111
  0
LINE
  8
0
  6
CONTINUOUS
 62
3
 10
0.000006618601731
 20
3.464096896385627
 11
2.999997425948948
 21
1.732046782136365
  0
LINE
  8
0
  6
CONTINUOUS
 62
3
 10
-0.000004704988612
 20
-3.464098175748802
 11
-2.999997577100373
 21
-1.732046218032735
  0
POINT
  8
0
  6
CONTINUOUS
 62
3
 10
0.500000119209290
 20
6.500000000000000
  0
POINT
  8
0
  6
CONTINUOUS
 62
3
 10
0.000000000000000
 20
5.633955001831055
  0
ENDBLK
  8
0
  0
BLOCK
  8
0
  2
SYM5
 70
64
 10
0.000000000000000
 20
0.000000000000000
  0
CIRCLE
  8
0
  6
CONTINUOUS
 62
3
 10
0.000000000000000
 20
0.000000000000000
 40
5.633955001831055
  0
CIRCLE
  8
0
  6
CONTINUOUS
 62
3
 10
0.000000000000000
 20
0.000000000000000
 40
6.500000000000000
  0
POINT
  8
0
  6
CONTINUOUS
 62
3
 10
0.000000000000000
 20
0.000000000000000
  0
LINE
  8
0
  6
CONTINUOUS
 62
3
 10
-2.999996662140960
 20
-1.732045999551255
 11
-2.999997615815242
 21
1.732051977133316
  0
LINE
  8
0
  6
CONTINUOUS
 62
3
 10
2.999996662140697
 20
1.732046953225571
 11
2.999997615814979
 21
-1.732051023458999
  0
LINE
  8
0
  6
CONTINUOUS
 62
3
 10
0.000006701720849
 20
3.464096999935236
 11
-2.999997939551520
 21
1.732051821705568
  0
LINE
  8
0
  6
CONTINUOUS
 62
3
 10
2.999998112093635
 20
-1.732051392778772
 11
-0.000004464412200
 21
-3.464098365415111
  0
LINE
  8
0
  6
CONTINUOUS
 62
3
 10
0.000006618601731
 20
3.464096896385627
 11
2.999997425948948
 21
1.732046782136365
  0
LINE
  8
0
  6
CONTINUOUS
 62
3
 10
-0.000004704988612
 20
-3.464098175748802
 11
-2.999997577100373
 21
-1.732046218032735
  0
POINT
  8
0
  6
CONTINUOUS
 62
3
 10
0.500000119209290
 20
6.500000000000000
  0
POINT
  8
0
  6
CONTINUOUS
 62
3
 10
0.000000000000000
 20
5.633955001831055
  0
ENDBLK
  8
0
  0
BLOCK
  8
0
  2
SYM6
 70
64
 10
0.000000000000000
 20
0.000000000000000
  0
CIRCLE
  8
0
  6
CONTINUOUS
 62
3
 10
0.000000000000000
 20
0.000000000000000
 40
5.633955001831055
  0
CIRCLE
  8
0
  6
CONTINUOUS
 62
3
 10
0.000000000000000
 20
0.000000000000000
 40
6.500000000000000
  0
POINT
  8
0
  6
CONTINUOUS
 62
3
 10
0.000000000000000
 20
0.000000000000000
  0
LINE
  8
0
  6
CONTINUOUS
 62
3
 10
-2.999996662140960
 20
-1.732045999551255
 11
-2.999997615815242
 21
1.732051977133316
  0
LINE
  8
0
  6
CONTINUOUS
 62
3
 10
2.999996662140697
 20
1.732046953225571
 11
2.999997615814979
 21
-1.732051023458999
  0
LINE
  8
0
  6
CONTINUOUS
 62
3
 10
0.000006701720849
 20
3.464096999935236
 11
-2.999997939551520
 21
1.732051821705568
  0
LINE
  8
0
  6
CONTINUOUS
 62
3
 10
2.999998112093635
 20
-1.732051392778772
 11
-0.000004464412200
 21
-3.464098365415111
  0
LINE
  8
0
  6
CONTINUOUS
 62
3
 10
0.000006618601731
 20
3.464096896385627
 11
2.999997425948948
 21
1.732046782136365
  0
LINE
  8
0
  6
CONTINUOUS
 62
3
 10
-0.000004704988612
 20
-3.464098175748802
 11
-2.999997577100373
 21
-1.732046218032735
  0
POINT
  8
0
  6
CONTINUOUS
 62
3
 10
0.500000119209290
 20
6.500000000000000
  0
POINT
  8
0
  6
CONTINUOUS
 62
3
 10
0.000000000000000
 20
5.633955001831055
  0
ENDBLK
  8
0
  0
BLOCK
  8
0
  2
SYM7
 70
64
 10
0.000000000000000
 20
0.000000000000000
  0
CIRCLE
  8
0
  6
CONTINUOUS
 62
3
 10
0.000000000000000
 20
0.000000000000000
 40
5.633955001831055
  0
CIRCLE
  8
0
  6
CONTINUOUS
 62
3
 10
0.000000000000000
 20
0.000000000000000
 40
6.500000000000000
  0
POINT
  8
0
  6
CONTINUOUS
 62
3
 10
0.000000000000000
 20
0.000000000000000
  0
LINE
  8
0
  6
CONTINUOUS
 62
3
 10
-2.999996662140960
 20
-1.732045999551255
 11
-2.999997615815242
 21
1.732051977133316
  0
LINE
  8
0
  6
CONTINUOUS
 62
3
 10
2.999996662140697
 20
1.732046953225571
 11
2.999997615814979
 21
-1.732051023458999
  0
LINE
  8
0
  6
CONTINUOUS
 62
3
 10
0.000006701720849
 20
3.464096999935236
 11
-2.999997939551520
 21
1.732051821705568
  0
LINE
  8
0
  6
CONTINUOUS
 62
3
 10
2.999998112093635
 20
-1.732051392778772
 11
-0.000004464412200
 21
-3.464098365415111
  0
LINE
  8
0
  6
CONTINUOUS
 62
3
 10
0.000006618601731
 20
3.464096896385627
 11
2.999997425948948
 21
1.732046782136365
  0
LINE
  8
0
  6
CONTINUOUS
 62
3
 10
-0.000004704988612
 20
-3.464098175748802
 11
-2.999997577100373
 21
-1.732046218032735
  0
POINT
  8
0
  6
CONTINUOUS
 62
3
 10
0.500000119209290
 20
6.500000000000000
  0
POINT
  8
0
  6
CONTINUOUS
 62
3
 10
0.000000000000000
 20
5.633955001831055
  0
ENDBLK
  8
0
  0
BLOCK
  8
0
  2
SYM8
 70
64
 10
0.000000000000000
 20
0.000000000000000
  0
CIRCLE
  8
0
  6
CONTINUOUS
 62
3
 10
0.000000000000000
 20
0.000000000000000
 40
5.633955001831055
  0
CIRCLE
  8
0
  6
CONTINUOUS
 62
3
 10
0.000000000000000
 20
0.000000000000000
 40
6.500000000000000
  0
POINT
  8
0
  6
CONTINUOUS
 62
3
 10
0.000000000000000
 20
0.000000000000000
  0
LINE
  8
0
  6
CONTINUOUS
 62
3
 10
-2.999996662140960
 20
-1.732045999551255
 11
-2.999997615815242
 21
1.732051977133316
  0
LINE
  8
0
  6
CONTINUOUS
 62
3
 10
2.999996662140697
 20
1.732046953225571
 11
2.999997615814979
 21
-1.732051023458999
  0
LINE
  8
0
  6
CONTINUOUS
 62
3
 10
0.000006701720849
 20
3.464096999935236
 11
-2.999997939551520
 21
1.732051821705568
  0
LINE
  8
0
  6
CONTINUOUS
 62
3
 10
2.999998112093635
 20
-1.732051392778772
 11
-0.000004464412200
 21
-3.464098365415111
  0
LINE
  8
0
  6
CONTINUOUS
 62
3
 10
0.000006618601731
 20
3.464096896385627
 11
2.999997425948948
 21
1.732046782136365
  0
LINE
  8
0
  6
CONTINUOUS
 62
3
 10
-0.000004704988612
 20
-3.464098175748802
 11
-2.999997577100373
 21
-1.732046218032735
  0
POINT
  8
0
  6
CONTINUOUS
 62
3
 10
0.500000119209290
 20
6.500000000000000
  0
POINT
  8
0
  6
CONTINUOUS
 62
3
 10
0.000000000000000
 20
5.633955001831055
  0
ENDBLK
  8
0
  0
BLOCK
  8
0
  2
SYM9
 70
64
 10
0.000000000000000
 20
0.000000000000000
  0
CIRCLE
  8
0
  6
CONTINUOUS
 62
3
 10
0.000000000000000
 20
0.000000000000000
 40
5.633955001831055
  0
CIRCLE
  8
0
  6
CONTINUOUS
 62
3
 10
0.000000000000000
 20
0.000000000000000
 40
6.500000000000000
  0
POINT
  8
0
  6
CONTINUOUS
 62
3
 10
0.000000000000000
 20
0.000000000000000
  0
LINE
  8
0
  6
CONTINUOUS
 62
3
 10
-2.999996662140960
 20
-1.732045999551255
 11
-2.999997615815242
 21
1.732051977133316
  0
LINE
  8
0
  6
CONTINUOUS
 62
3
 10
2.999996662140697
 20
1.732046953225571
 11
2.999997615814979
 21
-1.732051023458999
  0
LINE
  8
0
  6
CONTINUOUS
 62
3
 10
0.000006701720849
 20
3.464096999935236
 11
-2.999997939551520
 21
1.732051821705568
  0
LINE
  8
0
  6
CONTINUOUS
 62
3
 10
2.999998112093635
 20
-1.732051392778772
 11
-0.000004464412200
 21
-3.464098365415111
  0
LINE
  8
0
  6
CONTINUOUS
 62
3
 10
0.000006618601731
 20
3.464096896385627
 11
2.999997425948948
 21
1.732046782136365
  0
LINE
  8
0
  6
CONTINUOUS
 62
3
 10
-0.000004704988612
 20
-3.464098175748802
 11
-2.999997577100373
 21
-1.732046218032735
  0
POINT
  8
0
  6
CONTINUOUS
 62
3
 10
0.500000119209290
 20
6.500000000000000
  0
POINT
  8
0
  6
CONTINUOUS
 62
3
 10
0.000000000000000
 20
5.633955001831055
  0
ENDBLK
  8
0
  0
BLOCK
  8
0
  2
SYM10
 70
64
 10
0.000000000000000
 20
0.000000000000000
  0
CIRCLE
  8
0
  6
CONTINUOUS
 62
3
 10
0.000000000000000
 20
0.000000000000000
 40
5.633955001831055
  0
CIRCLE
  8
0
  6
CONTINUOUS
 62
3
 10
0.000000000000000
 20
0.000000000000000
 40
6.500000000000000
  0
POINT
  8
0
  6
CONTINUOUS
 62
3
 10
0.000000000000000
 20
0.000000000000000
  0
LINE
  8
0
  6
CONTINUOUS
 62
3
 10
-2.999996662140960
 20
-1.732045999551255
 11
-2.999997615815242
 21
1.732051977133316
  0
LINE
  8
0
  6
CONTINUOUS
 62
3
 10
2.999996662140697
 20
1.732046953225571
 11
2.999997615814979
 21
-1.732051023458999
  0
LINE
  8
0
  6
CONTINUOUS
 62
3
 10
0.000006701720849
 20
3.464096999935236
 11
-2.999997939551520
 21
1.732051821705568
  0
LINE
  8
0
  6
CONTINUOUS
 62
3
 10
2.999998112093635
 20
-1.732051392778772
 11
-0.000004464412200
 21
-3.464098365415111
  0
LINE
  8
0
  6
CONTINUOUS
 62
3
 10
0.000006618601731
 20
3.464096896385627
 11
2.999997425948948
 21
1.732046782136365
  0
LINE
  8
0
  6
CONTINUOUS
 62
3
 10
-0.000004704988612
 20
-3.464098175748802
 11
-2.999997577100373
 21
-1.732046218032735
  0
POINT
  8
0
  6
CONTINUOUS
 62
3
 10
0.500000119209290
 20
6.500000000000000
  0
POINT
  8
0
  6
CONTINUOUS
 62
3
 10
0.000000000000000
 20
5.633955001831055
  0
ENDBLK
  8
0
  0
BLOCK
  8
0
  2
SYM11
 70
64
 10
0.000000000000000
 20
0.000000000000000
  0
POINT
  8
0
  6
CONTINUOUS
 62
3
 10
0.000000000000000
 20
0.000000000000000
  0
LINE
  8
0
  6
CONTINUOUS
 62
3
 10
0.010171198458579
 20
-5.767622839547471
 11
-4.979645433681753
 21
-2.874994469174567
  0
LINE
  8
0
  6
CONTINUOUS
 62
3
 10
-4.979648434603448
 20
-2.874994693650046
 11
-4.989821279270270
 21
2.892629961559101
  0
LINE
  8
0
  6
CONTINUOUS
 62
3
 10
-4.989816965891634
 20
2.892629271321994
 11
-0.010171343047148
 21
5.767622431692701
  0
LINE
  8
0
  6
CONTINUOUS
 62
3
 10
-0.010171198458579
 20
5.767622839547471
 11
4.979645433681753
 21
2.874994469174567
  0
LINE
  8
0
  6
CONTINUOUS
 62
3
 10
4.979648434603448
 20
2.874994693650046
 11
4.989821279270270
 21
-2.892629961559101
  0
LINE
  8
0
  6
CONTINUOUS
 62
3
 10
4.989816965891634
 20
-2.892629271321994
 11
0.010171343047148
 21
-5.767622431692701
  0
CIRCLE
  8
0
  6
CONTINUOUS
 62
3
 10
0.000000000000000
 20
0.000000000000000
 40
5.000000000000000
  0
ENDBLK
  8
0
  0
BLOCK
  8
0
  2
SYM12
 70
64
 10
0.000000000000000
 20
0.000000000000000
  0
POINT
  8
0
  6
CONTINUOUS
 62
3
 10
0.000000000000000
 20
0.000000000000000
  0
LINE
  8
0
  6
CONTINUOUS
 62
3
 10
0.010171198458579
 20
-5.767622839547471
 11
-4.979645433681753
 21
-2.874994469174567
  0
LINE
  8
0
  6
CONTINUOUS
 62
3
 10
-4.979648434603448
 20
-2.874994693650046
 11
-4.989821279270270
 21
2.892629961559101
  0
LINE
  8
0
  6
CONTINUOUS
 62
3
 10
-4.989816965891634
 20
2.892629271321994
 11
-0.010171343047148
 21
5.767622431692701
  0
LINE
  8
0
  6
CONTINUOUS
 62
3
 10
-0.010171198458579
 20
5.767622839547471
 11
4.979645433681753
 21
2.874994469174567
  0
LINE
  8
0
  6
CONTINUOUS
 62
3
 10
4.979648434603448
 20
2.874994693650046
 11
4.989821279270270
 21
-2.892629961559101
  0
LINE
  8
0
  6
CONTINUOUS
 62
3
 10
4.989816965891634
 20
-2.892629271321994
 11
0.010171343047148
 21
-5.767622431692701
  0
CIRCLE
  8
0
  6
CONTINUOUS
 62
3
 10
0.000000000000000
 20
0.000000000000000
 40
5.000000000000000
  0
ENDBLK
  8
0
  0
BLOCK
  8
0
  2
SYM13
 70
64
 10
0.000000000000000
 20
0.000000000000000
  0
ARC
  8
0
  6
CONTINUOUS
 62
3
 10
6.399999618530273
 20
0.000000000000000
 40
9.000000000000000
 50
163.398451589674950
 51
196.601531107481040
  0
POINT
  8
0
  6
CONTINUOUS
 62
3
 10
0.000000000000000
 20
0.000000000000000
  0
LINE
  8
0
  6
CONTINUOUS
 62
3
 10
0.000000000000000
 20
-3.500000000000000
 11
-0.000000000000000
 21
3.500000000000000
  0
LINE
  8
0
  6
CONTINUOUS
 62
3
 10
0.000000000000000
 20
-3.500000000000000
 11
-0.000000000000000
 21
3.500000000000000
  0
LINE
  8
0
  6
CONTINUOUS
 62
3
 10
0.000000000000000
 20
3.500000000000000
 11
-0.979025304317474
 21
3.500000000000000
  0
LINE
  8
0
  6
CONTINUOUS
 62
3
 10
-0.000000000000000
 20
-3.500000000000000
 11
-0.979025304317474
 21
-3.500000000000000
  0
ARC
  8
0
  6
CONTINUOUS
 62
3
 10
-0.979025304317474
 20
2.200000762939453
 40
1.299999237060547
 50
90.000000000000000
 51
163.398451589674950
  0
ARC
  8
0
  6
CONTINUOUS
 62
3
 10
-0.979025304317474
 20
-2.200000762939453
 40
1.299999237060547
 50
196.601531107481040
 51
270.000000000000000
  0
ENDBLK
  8
0
  0
BLOCK
  8
0
  2
SYM14
 70
64
 10
0.000000000000000
 20
0.000000000000000
  0
POINT
  8
0
  6
CONTINUOUS
 62
3
 10
0.000000000000000
 20
0.000000000000000
  0
LINE
  8
0
  6
CONTINUOUS
 62
3
 10
0.000000000000000
 20
-6.500000000000000
 11
-0.000000000000000
 21
6.500000000000000
  0
LINE
  8
0
  6
CONTINUOUS
 62
3
 10
-7.999999046325684
 20
5.633875846862793
 11
-7.999999046325684
 21
-5.634070396423340
  0
LINE
  8
0
  6
CONTINUOUS
 62
3
 10
0.000000000000000
 20
6.500000000000000
 11
-7.499999046325684
 21
6.500000000000000
  0
LINE
  8
0
  6
CONTINUOUS
 62
3
 10
-0.000000000000000
 20
-6.500000000000000
 11
-7.499998092651367
 21
-6.500000000000000
  0
LINE
  8
0
  6
CONTINUOUS
 62
3
 10
-7.499999203818277
 20
6.499999909101064
 11
-7.999999021366804
 21
5.633876130311293
  0
LINE
  8
0
  6
CONTINUOUS
 62
3
 10
-7.499997911632022
 20
-6.499999445138201
 11
-7.999998623386432
 21
-5.634070287011241
  0
LINE
  8
0
  6
CONTINUOUS
 62
3
 10
-7.499999046325684
 20
6.500000000000000
 11
-7.499999046325684
 21
-6.500000000000000
  0
ENDBLK
  8
0
  0
BLOCK
  8
0
  2
SYM15
 70
64
 10
0.000000000000000
 20
0.000000000000000
  0
POINT
  8
0
  6
CONTINUOUS
 62
3
 10
0.000000000000000
 20
0.000000000000000
  0
LINE
  8
0
  6
CONTINUOUS
 62
3
 10
0.000000000000000
 20
-6.500000000000000
 11
-0.000000000000000
 21
6.500000000000000
  0
LINE
  8
0
  6
CONTINUOUS
 62
3
 10
-7.999999046325684
 20
5.633875846862793
 11
-7.999999046325684
 21
-5.634070396423340
  0
LINE
  8
0
  6
CONTINUOUS
 62
3
 10
0.000000000000000
 20
6.500000000000000
 11
-7.499999046325684
 21
6.500000000000000
  0
LINE
  8
0
  6
CONTINUOUS
 62
3
 10
-0.000000000000000
 20
-6.500000000000000
 11
-7.499998092651367
 21
-6.500000000000000
  0
LINE
  8
0
  6
CONTINUOUS
 62
3
 10
-7.499999203818277
 20
6.499999909101064
 11
-7.999999021366804
 21
5.633876130311293
  0
LINE
  8
0
  6
CONTINUOUS
 62
3
 10
-7.499997911632022
 20
-6.499999445138201
 11
-7.999998623386432
 21
-5.634070287011241
  0
LINE
  8
0
  6
CONTINUOUS
 62
3
 10
-7.499999046325684
 20
6.500000000000000
 11
-7.499999046325684
 21
-6.500000000000000
  0
ENDBLK
  8
0
  0
BLOCK
  8
0
  2
SYM16
 70
64
 10
0.000000000000000
 20
0.000000000000000
  0
POINT
  8
0
  6
CONTINUOUS
 62
3
 10
0.000000000000000
 20
0.000000000000000
  0
LINE
  8
0
  6
CONTINUOUS
 62
3
 10
-0.000027060931608
 20
-5.749995231614290
 11
-3.250020760774497
 21
-5.749981880178368
  0
LINE
  8
0
  6
CONTINUOUS
 62
3
 10
-3.250024308998832
 20
-5.749987011620533
 11
-4.000020133420207
 21
-4.899982163000686
  0
LINE
  8
0
  6
CONTINUOUS
 62
3
 10
-4.000014781949545
 20
-4.899978112209579
 11
-3.999973773958658
 21
4.900011588107803
  0
LINE
  8
0
  6
CONTINUOUS
 62
3
 10
-3.999972830514309
 20
4.900008662670757
 11
-3.249970339875063
 21
5.750006850331147
  0
LINE
  8
0
  6
CONTINUOUS
 62
3
 10
-3.249972343459831
 20
5.750005722029982
 11
0.000027906669402
 21
5.749993324257003
  0
LINE
  8
0
  6
CONTINUOUS
 62
3
 10
0.000023687533422
 20
5.749999046325684
 11
-0.000023687533422
 21
-5.749999046325684
  0
LINE
  8
0
  6
CONTINUOUS
 62
3
 10
-3.250009052584916
 20
-2.899986267083180
 11
-0.000013285950788
 21
-2.899999618524636
  0
LINE
  8
0
  6
CONTINUOUS
 62
3
 10
-3.249984168999890
 20
2.900012016287064
 11
0.000013133145058
 21
2.899999618522375
  0
ARC
  8
0
  6
CONTINUOUS
 62
3
 10
-2.270017623901367
 20
-4.324990272521973
 40
1.729999542236328
 50
124.499759285265280
 51
179.999745461767870
  0
ARC
  8
0
  6
CONTINUOUS
 62
3
 10
-2.269982337951660
 20
4.325008392333984
 40
1.729999542236328
 50
179.999745461767870
 51
235.499786279783790
  0
ARC
  8
0
  6
CONTINUOUS
 62
3
 10
1.981662750244141
 20
-0.000008163610801
 40
5.981661796569824
 50
150.999363302540700
 51
209.000072979481700
  0
ENDBLK
  8
0
  0
BLOCK
  8
0
  2
SYM17
 70
64
 10
0.000000000000000
 20
0.000000000000000
  0
POINT
  8
0
  6
CONTINUOUS
 62
3
 10
0.000000000000000
 20
0.000000000000000
  0
LINE
  8
0
  6
CONTINUOUS
 62
3
 10
0.000000000000000
 20
-6.500000000000000
 11
-0.000000000000000
 21
6.500000000000000
  0
LINE
  8
0
  6
CONTINUOUS
 62
3
 10
-7.999999046325684
 20
5.633875846862793
 11
-7.999999046325684
 21
-5.634070396423340
  0
LINE
  8
0
  6
CONTINUOUS
 62
3
 10
0.000000000000000
 20
6.500000000000000
 11
-7.499999046325684
 21
6.500000000000000
  0
LINE
  8
0
  6
CONTINUOUS
 62
3
 10
-0.000000000000000
 20
-6.500000000000000
 11
-7.499998092651367
 21
-6.500000000000000
  0
LINE
  8
0
  6
CONTINUOUS
 62
3
 10
-7.499999203818277
 20
6.499999909101064
 11
-7.999999021366804
 21
5.633876130311293
  0
LINE
  8
0
  6
CONTINUOUS
 62
3
 10
-7.499997911632022
 20
-6.499999445138201
 11
-7.999998623386432
 21
-5.634070287011241
  0
LINE
  8
0
  6
CONTINUOUS
 62
3
 10
-7.499999046325684
 20
6.500000000000000
 11
-7.499999046325684
 21
-6.500000000000000
  0
ENDBLK
  8
0
  0
BLOCK
  8
0
  2
SYM18
 70
64
 10
0.000000000000000
 20
0.000000000000000
  0
POINT
  8
0
  6
CONTINUOUS
 62
3
 10
0.000000000000000
 20
0.000000000000000
  0
LINE
  8
0
  6
CONTINUOUS
 62
3
 10
0.000000000000000
 20
-6.500000000000000
 11
-0.000000000000000
 21
6.500000000000000
  0
LINE
  8
0
  6
CONTINUOUS
 62
3
 10
-7.999999046325684
 20
5.633875846862793
 11
-7.999999046325684
 21
-5.634070396423340
  0
LINE
  8
0
  6
CONTINUOUS
 62
3
 10
0.000000000000000
 20
6.500000000000000
 11
-7.499999046325684
 21
6.500000000000000
  0
LINE
  8
0
  6
CONTINUOUS
 62
3
 10
-0.000000000000000
 20
-6.500000000000000
 11
-7.499998092651367
 21
-6.500000000000000
  0
LINE
  8
0
  6
CONTINUOUS
 62
3
 10
-7.499999203818277
 20
6.499999909101064
 11
-7.999999021366804
 21
5.633876130311293
  0
LINE
  8
0
  6
CONTINUOUS
 62
3
 10
-7.499997911632022
 20
-6.499999445138201
 11
-7.999998623386432
 21
-5.634070287011241
  0
LINE
  8
0
  6
CONTINUOUS
 62
3
 10
-7.499999046325684
 20
6.500000000000000
 11
-7.499999046325684
 21
-6.500000000000000
  0
ENDBLK
  8
0
  0
BLOCK
  8
0
  2
SYM19
 70
64
 10
0.000000000000000
 20
0.000000000000000
  0
POINT
  8
0
  6
CONTINUOUS
 62
3
 10
0.000000000000000
 20
0.000000000000000
  0
LINE
  8
0
  6
CONTINUOUS
 62
3
 10
-0.000027060931608
 20
-5.749995231614290
 11
-3.250020760774497
 21
-5.749981880178368
  0
LINE
  8
0
  6
CONTINUOUS
 62
3
 10
-3.250024308998832
 20
-5.749987011620533
 11
-4.000020133420207
 21
-4.899982163000686
  0
LINE
  8
0
  6
CONTINUOUS
 62
3
 10
-4.000014781949545
 20
-4.899978112209579
 11
-3.999973773958658
 21
4.900011588107803
  0
LINE
  8
0
  6
CONTINUOUS
 62
3
 10
-3.999972830514309
 20
4.900008662670757
 11
-3.249970339875063
 21
5.750006850331147
  0
LINE
  8
0
  6
CONTINUOUS
 62
3
 10
-3.249972343459831
 20
5.750005722029982
 11
0.000027906669402
 21
5.749993324257003
  0
LINE
  8
0
  6
CONTINUOUS
 62
3
 10
0.000023687533422
 20
5.749999046325684
 11
-0.000023687533422
 21
-5.749999046325684
  0
LINE
  8
0
  6
CONTINUOUS
 62
3
 10
-3.250009052584916
 20
-2.899986267083180
 11
-0.000013285950788
 21
-2.899999618524636
  0
LINE
  8
0
  6
CONTINUOUS
 62
3
 10
-3.249984168999890
 20
2.900012016287064
 11
0.000013133145058
 21
2.899999618522375
  0
ARC
  8
0
  6
CONTINUOUS
 62
3
 10
-2.270017623901367
 20
-4.324990272521973
 40
1.729999542236328
 50
124.499759285265280
 51
179.999745461767870
  0
ARC
  8
0
  6
CONTINUOUS
 62
3
 10
-2.269982337951660
 20
4.325008392333984
 40
1.729999542236328
 50
179.999745461767870
 51
235.499786279783790
  0
ARC
  8
0
  6
CONTINUOUS
 62
3
 10
1.981662750244141
 20
-0.000008163610801
 40
5.981661796569824
 50
150.999363302540700
 51
209.000072979481700
  0
ENDBLK
  8
0
  0
BLOCK
  8
0
  2
SYM20
 70
64
 10
0.000000000000000
 20
0.000000000000000
  0
POINT
  8
0
  6
CONTINUOUS
 62
3
 10
0.000000000000000
 20
0.000000000000000
  0
LINE
  8
0
  6
CONTINUOUS
 62
3
 10
0.000000000000000
 20
-6.500000000000000
 11
-0.000000000000000
 21
6.500000000000000
  0
LINE
  8
0
  6
CONTINUOUS
 62
3
 10
-7.999999046325684
 20
5.633875846862793
 11
-7.999999046325684
 21
-5.634070396423340
  0
LINE
  8
0
  6
CONTINUOUS
 62
3
 10
0.000000000000000
 20
6.500000000000000
 11
-7.499999046325684
 21
6.500000000000000
  0
LINE
  8
0
  6
CONTINUOUS
 62
3
 10
-0.000000000000000
 20
-6.500000000000000
 11
-7.499998092651367
 21
-6.500000000000000
  0
LINE
  8
0
  6
CONTINUOUS
 62
3
 10
-7.499999203818277
 20
6.499999909101064
 11
-7.999999021366804
 21
5.633876130311293
  0
LINE
  8
0
  6
CONTINUOUS
 62
3
 10
-7.499997911632022
 20
-6.499999445138201
 11
-7.999998623386432
 21
-5.634070287011241
  0
LINE
  8
0
  6
CONTINUOUS
 62
3
 10
-7.499999046325684
 20
6.500000000000000
 11
-7.499999046325684
 21
-6.500000000000000
  0
ENDBLK
  8
0
  0
BLOCK
  8
0
  2
SYM21
 70
64
 10
0.000000000000000
 20
0.000000000000000
  0
POINT
  8
0
  6
CONTINUOUS
 62
3
 10
0.000000000000000
 20
0.000000000000000
  0
LINE
  8
0
  6
CONTINUOUS
 62
3
 10
0.000000000000000
 20
-6.500000000000000
 11
-0.000000000000000
 21
6.500000000000000
  0
LINE
  8
0
  6
CONTINUOUS
 62
3
 10
-7.999999046325684
 20
5.633875846862793
 11
-7.999999046325684
 21
-5.634070396423340
  0
LINE
  8
0
  6
CONTINUOUS
 62
3
 10
0.000000000000000
 20
6.500000000000000
 11
-7.499999046325684
 21
6.500000000000000
  0
LINE
  8
0
  6
CONTINUOUS
 62
3
 10
-0.000000000000000
 20
-6.500000000000000
 11
-7.499998092651367
 21
-6.500000000000000
  0
LINE
  8
0
  6
CONTINUOUS
 62
3
 10
-7.499999203818277
 20
6.499999909101064
 11
-7.999999021366804
 21
5.633876130311293
  0
LINE
  8
0
  6
CONTINUOUS
 62
3
 10
-7.499997911632022
 20
-6.499999445138201
 11
-7.999998623386432
 21
-5.634070287011241
  0
LINE
  8
0
  6
CONTINUOUS
 62
3
 10
-7.499999046325684
 20
6.500000000000000
 11
-7.499999046325684
 21
-6.500000000000000
  0
ENDBLK
  8
0
  0
BLOCK
  8
0
  2
SYM22
 70
64
 10
0.000000000000000
 20
0.000000000000000
  0
POINT
  8
0
  6
CONTINUOUS
 62
3
 10
0.000000000000000
 20
0.000000000000000
  0
LINE
  8
0
  6
CONTINUOUS
 62
3
 10
0.000000000000000
 20
-6.500000000000000
 11
-0.000000000000000
 21
6.500000000000000
  0
LINE
  8
0
  6
CONTINUOUS
 62
3
 10
-7.999999046325684
 20
5.633875846862793
 11
-7.999999046325684
 21
-5.634070396423340
  0
LINE
  8
0
  6
CONTINUOUS
 62
3
 10
0.000000000000000
 20
6.500000000000000
 11
-7.499999046325684
 21
6.500000000000000
  0
LINE
  8
0
  6
CONTINUOUS
 62
3
 10
-0.000000000000000
 20
-6.500000000000000
 11
-7.499998092651367
 21
-6.500000000000000
  0
LINE
  8
0
  6
CONTINUOUS
 62
3
 10
-7.499999203818277
 20
6.499999909101064
 11
-7.999999021366804
 21
5.633876130311293
  0
LINE
  8
0
  6
CONTINUOUS
 62
3
 10
-7.499997911632022
 20
-6.499999445138201
 11
-7.999998623386432
 21
-5.634070287011241
  0
LINE
  8
0
  6
CONTINUOUS
 62
3
 10
-7.499999046325684
 20
6.500000000000000
 11
-7.499999046325684
 21
-6.500000000000000
  0
ENDBLK
  8
0
  0
BLOCK
  8
0
  2
SYM23
 70
64
 10
0.000000000000000
 20
0.000000000000000
  0
POINT
  8
0
  6
CONTINUOUS
 62
3
 10
0.000000000000000
 20
0.000000000000000
  0
LINE
  8
0
  6
CONTINUOUS
 62
3
 10
0.000000000000000
 20
-6.500000000000000
 11
-0.000000000000000
 21
6.500000000000000
  0
LINE
  8
0
  6
CONTINUOUS
 62
3
 10
-7.999999046325684
 20
5.633875846862793
 11
-7.999999046325684
 21
-5.634070396423340
  0
LINE
  8
0
  6
CONTINUOUS
 62
3
 10
0.000000000000000
 20
6.500000000000000
 11
-7.499999046325684
 21
6.500000000000000
  0
LINE
  8
0
  6
CONTINUOUS
 62
3
 10
-0.000000000000000
 20
-6.500000000000000
 11
-7.499998092651367
 21
-6.500000000000000
  0
LINE
  8
0
  6
CONTINUOUS
 62
3
 10
-7.499999203818277
 20
6.499999909101064
 11
-7.999999021366804
 21
5.633876130311293
  0
LINE
  8
0
  6
CONTINUOUS
 62
3
 10
-7.499997911632022
 20
-6.499999445138201
 11
-7.999998623386432
 21
-5.634070287011241
  0
LINE
  8
0
  6
CONTINUOUS
 62
3
 10
-7.499999046325684
 20
6.500000000000000
 11
-7.499999046325684
 21
-6.500000000000000
  0
ENDBLK
  8
0
  0
BLOCK
  8
0
  2
SYM24
 70
64
 10
0.000000000000000
 20
0.000000000000000
  0
POINT
  8
0
  6
CONTINUOUS
 62
3
 10
0.000000000000000
 20
0.000000000000000
  0
LINE
  8
0
  6
CONTINUOUS
 62
3
 10
-0.000027060931608
 20
-5.749995231614290
 11
-3.250020760774497
 21
-5.749981880178368
  0
LINE
  8
0
  6
CONTINUOUS
 62
3
 10
-3.250024308998832
 20
-5.749987011620533
 11
-4.000020133420207
 21
-4.899982163000686
  0
LINE
  8
0
  6
CONTINUOUS
 62
3
 10
-4.000014781949545
 20
-4.899978112209579
 11
-3.999973773958658
 21
4.900011588107803
  0
LINE
  8
0
  6
CONTINUOUS
 62
3
 10
-3.999972830514309
 20
4.900008662670757
 11
-3.249970339875063
 21
5.750006850331147
  0
LINE
  8
0
  6
CONTINUOUS
 62
3
 10
-3.249972343459831
 20
5.750005722029982
 11
0.000027906669402
 21
5.749993324257003
  0
LINE
  8
0
  6
CONTINUOUS
 62
3
 10
0.000023687533422
 20
5.749999046325684
 11
-0.000023687533422
 21
-5.749999046325684
  0
LINE
  8
0
  6
CONTINUOUS
 62
3
 10
-3.250009052584916
 20
-2.899986267083180
 11
-0.000013285950788
 21
-2.899999618524636
  0
LINE
  8
0
  6
CONTINUOUS
 62
3
 10
-3.249984168999890
 20
2.900012016287064
 11
0.000013133145058
 21
2.899999618522375
  0
ARC
  8
0
  6
CONTINUOUS
 62
3
 10
-2.270017623901367
 20
-4.324990272521973
 40
1.729999542236328
 50
124.499759285265280
 51
179.999745461767870
  0
ARC
  8
0
  6
CONTINUOUS
 62
3
 10
-2.269982337951660
 20
4.325008392333984
 40
1.729999542236328
 50
179.999745461767870
 51
235.499786279783790
  0
ARC
  8
0
  6
CONTINUOUS
 62
3
 10
1.981662750244141
 20
-0.000008163610801
 40
5.981661796569824
 50
150.999363302540700
 51
209.000072979481700
  0
ENDBLK
  8
0
  0
BLOCK
  8
0
  2
SYM25
 70
64
 10
0.000000000000000
 20
0.000000000000000
  0
POINT
  8
0
  6
CONTINUOUS
 62
3
 10
0.000000000000000
 20
0.000000000000000
  0
LINE
  8
0
  6
CONTINUOUS
 62
3
 10
-0.000027060931608
 20
-5.749995231614290
 11
-3.250020760774497
 21
-5.749981880178368
  0
LINE
  8
0
  6
CONTINUOUS
 62
3
 10
-3.250024308998832
 20
-5.749987011620533
 11
-4.000020133420207
 21
-4.899982163000686
  0
LINE
  8
0
  6
CONTINUOUS
 62
3
 10
-4.000014781949545
 20
-4.899978112209579
 11
-3.999973773958658
 21
4.900011588107803
  0
LINE
  8
0
  6
CONTINUOUS
 62
3
 10
-3.999972830514309
 20
4.900008662670757
 11
-3.249970339875063
 21
5.750006850331147
  0
LINE
  8
0
  6
CONTINUOUS
 62
3
 10
-3.249972343459831
 20
5.750005722029982
 11
0.000027906669402
 21
5.749993324257003
  0
LINE
  8
0
  6
CONTINUOUS
 62
3
 10
0.000023687533422
 20
5.749999046325684
 11
-0.000023687533422
 21
-5.749999046325684
  0
LINE
  8
0
  6
CONTINUOUS
 62
3
 10
-3.250009052584916
 20
-2.899986267083180
 11
-0.000013285950788
 21
-2.899999618524636
  0
LINE
  8
0
  6
CONTINUOUS
 62
3
 10
-3.249984168999890
 20
2.900012016287064
 11
0.000013133145058
 21
2.899999618522375
  0
ARC
  8
0
  6
CONTINUOUS
 62
3
 10
-2.270017623901367
 20
-4.324990272521973
 40
1.729999542236328
 50
124.499759285265280
 51
179.999745461767870
  0
ARC
  8
0
  6
CONTINUOUS
 62
3
 10
-2.269982337951660
 20
4.325008392333984
 40
1.729999542236328
 50
179.999745461767870
 51
235.499786279783790
  0
ARC
  8
0
  6
CONTINUOUS
 62
3
 10
1.981662750244141
 20
-0.000008163610801
 40
5.981661796569824
 50
150.999363302540700
 51
209.000072979481700
  0
ENDBLK
  8
0
  0
BLOCK
  8
0
  2
SYM26
 70
64
 10
0.000000000000000
 20
0.000000000000000
  0
ARC
  8
0
  6
CONTINUOUS
 62
3
 10
-0.979025304317474
 20
-2.200000762939453
 40
1.299999237060547
 50
196.601531107481040
 51
270.000000000000000
  0
ARC
  8
0
  6
CONTINUOUS
 62
3
 10
-0.979025304317474
 20
2.200000762939453
 40
1.299999237060547
 50
90.000000000000000
 51
163.398451589674950
  0
LINE
  8
0
  6
CONTINUOUS
 62
3
 10
-0.000000000000000
 20
-3.500000000000000
 11
-0.979025304317474
 21
-3.500000000000000
  0
LINE
  8
0
  6
CONTINUOUS
 62
3
 10
0.000000000000000
 20
3.500000000000000
 11
-0.979025304317474
 21
3.500000000000000
  0
LINE
  8
0
  6
CONTINUOUS
 62
3
 10
0.000000000000000
 20
-3.500000000000000
 11
-0.000000000000000
 21
3.500000000000000
  0
LINE
  8
0
  6
CONTINUOUS
 62
3
 10
0.000000000000000
 20
-3.500000000000000
 11
-0.000000000000000
 21
3.500000000000000
  0
POINT
  8
0
  6
CONTINUOUS
 62
3
 10
0.000000000000000
 20
0.000000000000000
  0
ARC
  8
0
  6
CONTINUOUS
 62
3
 10
6.399999618530273
 20
0.000000000000000
 40
9.000000000000000
 50
163.398451589674950
 51
196.601531107481040
  0
ENDBLK
  8
0
  0
ENDSEC
  0
SECTION
  2
ENTITIES
  0
LINE
  8
0
  6
CONTINUOUS
 62
3
 10
284.017167136049240
 20
-151.203498099166610
 11
235.017167136049240
 21
-151.203498099166610
  0
LINE
  8
0
  6
CONTINUOUS
 62
3
 10
284.017167136049240
 20
-151.203498099166610
 11
235.017167136049240
 21
-151.203498099166610
  0
LINE
  8
0
  6
CONTINUOUS
 62
3
 10
284.017167136049240
 20
-139.203498099166610
 11
235.017167136049240
 21
-139.203498099166610
  0
ARC
  8
0
  6
CONTINUOUS
 62
3
 10
235.017167136049240
 20
-145.203498099166610
 40
6.000000000000000
 50
90.000000000000000
 51
270.000000000000000
  0
LINE
  8
0
  6
CONTINUOUS
 62
3
 10
284.017167136049240
 20
-139.203498099166610
 11
235.017167136049240
 21
-139.203498099166610
  0
ARC
  8
0
  6
CONTINUOUS
 62
3
 10
235.017167136049240
 20
-145.203498099166610
 40
6.000000000000000
 50
90.000000000000000
 51
270.000000000000000
  0
LINE
  8
0
  6
CONTINUOUS
 62
3
 10
428.194923368014830
 20
-151.203498099166610
 11
436.194923368014830
 21
-151.203498099166610
  0
LINE
  8
0
  6
CONTINUOUS
 62
3
 10
428.194923368014830
 20
-151.203498099166610
 11
436.194923368014830
 21
-151.203498099166610
  0
LINE
  8
0
  6
CONTINUOUS
 62
3
 10
428.194923368014830
 20
-139.203498099166610
 11
436.194923368014830
 21
-139.203498099166610
  0
ARC
  8
0
  6
CONTINUOUS
 62
3
 10
451.194923368014830
 20
-145.203498099166610
 40
20.000000000000014
 50
197.457603123722070
 51
162.542396876277930
  0
LINE
  8
0
  6
CONTINUOUS
 62
3
 10
436.194923368014830
 20
-139.203498099166610
 11
436.194923368014830
 21
-151.203498099166610
  0
LINE
  8
0
  6
CONTINUOUS
 62
3
 10
428.194923368014830
 20
-139.203498099166610
 11
428.194923368014830
 21
-151.203498099166610
  0
LINE
  8
0
  6
CONTINUOUS
 62
3
 10
428.194923368014830
 20
-139.203498099166610
 11
436.194923368014830
 21
-139.203498099166610
  0
ARC
  8
0
  6
CONTINUOUS
 62
3
 10
451.194923368014830
 20
-145.203498099166610
 40
20.000000000000014
 50
197.457603123722070
 51
162.542396876277930
  0
LINE
  8
0
  6
CONTINUOUS
 62
3
 10
436.194923368014830
 20
-139.203498099166610
 11
436.194923368014830
 21
-151.203498099166610
  0
LINE
  8
0
  6
CONTINUOUS
 62
3
 10
428.194923368014830
 20
-139.203498099166610
 11
428.194923368014830
 21
-151.203498099166610
  0
LINE
  8
0
  6
CONTINUOUS
 62
3
 10
284.017167136049240
 20
-151.203498099166610
 11
235.017167136049240
 21
-151.203498099166610
  0
LINE
  8
0
  6
CONTINUOUS
 62
3
 10
284.017167136049240
 20
-139.203498099166610
 11
235.017167136049240
 21
-139.203498099166610
  0
ARC
  8
0
  6
CONTINUOUS
 62
3
 10
235.017167136049240
 20
-145.203498099166610
 40
6.000000000000000
 50
90.000000000000000
 51
270.000000000000000
  0
LINE
  8
0
  6
CONTINUOUS
 62
3
 10
428.194923368014830
 20
-151.203498099166610
 11
436.194923368014830
 21
-151.203498099166610
  0
LINE
  8
0
  6
CONTINUOUS
 62
3
 10
428.194923368014830
 20
-139.203498099166610
 11
436.194923368014830
 21
-139.203498099166610
  0
ARC
  8
0
  6
CONTINUOUS
 62
3
 10
451.194923368014830
 20
-145.203498099166610
 40
20.000000000000014
 50
197.457603123722070
 51
162.542396876277930
  0
LINE
  8
0
  6
CONTINUOUS
 62
3
 10
436.194923368014830
 20
-139.203498099166610
 11
436.194923368014830
 21
-151.203498099166610
  0
LINE
  8
0
  6
CONTINUOUS
 62
3
 10
428.194923368014830
 20
-139.203498099166610
 11
428.194923368014830
 21
-151.203498099166610
  0
LINE
  8
0
  6
CONTINUOUS
 62
3
 10
-467.474476784030120
 20
-196.473407989483660
 11
-467.961280175735740
 21
-196.960211381189280
  0
LINE
  8
0
  6
CONTINUOUS
 62
3
 10
-460.827673310616430
 20
-203.120211462897400
 11
-461.314476702322050
 21
-203.607014854602990
  0
LINE
  8
0
  6
CONTINUOUS
 62
3
 10
-467.787615392998930
 20
-196.725954940334050
 11
-461.110516090526000
 21
-203.403054242806970
  0
LINE
  8
0
  6
CONTINUOUS
 62
3
 10
-467.474476784030120
 20
-196.473407989483660
 11
-460.827673310616430
 21
-203.120211462897400
  0
POINT
  8
0
  6
CONTINUOUS
 62
3
 10
-464.151075047323270
 20
-199.796809726190530
  0
ARC
  8
0
  6
CONTINUOUS
 62
3
 10
-461.888333482396260
 20
-197.534068161263490
 40
6.099999427795398
 50
174.601910595264880
 51
275.398072101891500
  0
LINE
  8
0
  6
CONTINUOUS
 62
3
 10
-366.641050056568590
 20
-196.473407989483660
 11
-366.154246664862970
 21
-196.960211381189280
  0
LINE
  8
0
  6
CONTINUOUS
 62
3
 10
-373.287853529982270
 20
-203.120211462897400
 11
-372.801050138276650
 21
-203.607014854602990
  0
LINE
  8
0
  6
CONTINUOUS
 62
3
 10
-366.327911447599770
 20
-196.725954940334050
 11
-373.005010750072700
 21
-203.403054242806970
  0
LINE
  8
0
  6
CONTINUOUS
 62
3
 10
-366.641050056568590
 20
-196.473407989483660
 11
-373.287853529982270
 21
-203.120211462897400
  0
POINT
  8
0
  6
CONTINUOUS
 62
3
 10
-369.964451793275430
 20
-199.796809726190530
  0
ARC
  8
0
  6
CONTINUOUS
 62
3
 10
-372.227193358202440
 20
-197.534068161263490
 40
6.099999427795406
 50
264.601927898108500
 51
5.398089404735109
  0
LINE
  8
0
  6
CONTINUOUS
 62
3
 10
4.460508318573488
 20
-205.490517792768860
 11
-11.482838915162461
 21
-205.212225631630870
  0
LINE
  8
0
  6
CONTINUOUS
 62
3
 10
0.017145730698417
 20
-193.703498099164450
 11
0.017145730697735
 21
-205.412958610297890
  0
ARC
  8
0
  6
CONTINUOUS
 62
3
 10
1.583890298291408
 20
-206.703498099164220
 40
3.000000000000041
 50
38.927553831334741
 51
90.000000000000000
  0
LINE
  8
0
  6
CONTINUOUS
 62
3
 10
44.350984288604195
 20
-254.878708081542870
 11
3.917713502058064
 21
-204.818486360855790
  0
LINE
  8
0
  6
CONTINUOUS
 62
3
 10
33.952939504463757
 20
-203.703498099164220
 11
5.905953907236949
 21
-203.703498099164220
  0
LINE
  8
0
  6
CONTINUOUS
 62
3
 10
41.017174910885160
 20
-230.067583552555790
 11
35.157708814420175
 21
-208.199758375321270
  0
LINE
  8
0
  6
CONTINUOUS
 62
3
 10
45.017161084837539
 20
-244.995735183319200
 11
43.076813899047465
 21
-237.754260901627500
  0
ARC
  8
0
  6
CONTINUOUS
 62
3
 10
42.017161084837539
 20
-256.763719819851420
 40
3.000000000000000
 50
0.000000000000000
 51
38.927553831336432
  0
ARC
  8
0
  6
CONTINUOUS
 62
3
 10
-315.057763420299350
 20
-130.203497302067830
 40
12.999999999999774
 50
213.054243145664690
 51
270.000000000000000
  0
LINE
  8
0
  6
CONTINUOUS
 62
3
 10
-359.557763420299350
 20
-188.703498099166720
 11
-359.557763420299350
 21
-182.695997161429090
  0
LINE
  8
0
  6
CONTINUOUS
 62
3
 10
-361.057802937101540
 20
-188.703498099166500
 11
-359.557763420299350
 21
-188.703498099166500
  0
ARC
  8
0
  6
CONTINUOUS
 62
3
 10
-332.191098647356970
 20
-183.703498099166720
 40
5.000000000000000
 50
270.000000000000000
 51
353.967950853629650
  0
LINE
  8
0
  6
CONTINUOUS
 62
3
 10
-359.557763420299350
 20
-188.703498099166720
 11
-332.191098647356970
 21
-188.703498099166720
  0
LINE
  8
0
  6
CONTINUOUS
 62
3
 10
-325.057763420299350
 20
-155.203498099166720
 11
-325.568180267817070
 21
-155.203498099166720
  0
LINE
  8
0
  6
CONTINUOUS
 62
3
 10
-325.057763420299350
 20
-155.203498099166720
 11
-325.057763420299350
 21
-150.203498099166720
  0
LINE
  8
0
  6
CONTINUOUS
 62
3
 10
-325.057763420299350
 20
-150.203498099166500
 11
-325.568180267817070
 21
-150.203498099166500
  0
LINE
  8
0
  6
CONTINUOUS
 62
3
 10
-361.057802937101540
 20
-116.703498099166950
 11
-359.557763420299350
 21
-116.703498099166950
  0
LINE
  8
0
  6
CONTINUOUS
 62
3
 10
-359.557763420299350
 20
-122.715512244736480
 11
-359.557763420299350
 21
-116.703498099166950
  0
ARC
  8
0
  6
CONTINUOUS
 62
3
 10
-625.557763420299350
 20
-152.703498099166720
 40
300.000000000000060
 50
353.967950853630210
 51
6.032049146369772
  0
ARC
  8
0
  6
CONTINUOUS
 62
3
 10
-332.191098647356970
 20
-121.703498099166950
 40
5.000000000000143
 50
6.032049146370342
 51
90.000000000000000
  0
LINE
  8
0
  6
CONTINUOUS
 62
3
 10
-359.557763420299350
 20
-116.703498099166950
 11
-332.191098647356970
 21
-116.703498099166950
  0
ARC
  8
0
  6
CONTINUOUS
 62
3
 10
-372.227193358202440
 20
-107.872928037069490
 40
6.099999427795399
 50
72.647887166372414
 51
95.398072101891515
  0
LINE
  8
0
  6
CONTINUOUS
 62
3
 10
-366.641050056568590
 20
-108.933588208849310
 11
-366.154246664862970
 21
-108.446784817143690
  0
LINE
  8
0
  6
CONTINUOUS
 62
3
 10
-373.287853529982270
 20
-102.286784735435600
 11
-372.801050138276650
 21
-101.799981343729980
  0
LINE
  8
0
  6
CONTINUOUS
 62
3
 10
-366.327911447599770
 20
-108.681041257998940
 11
-373.005010750072700
 21
-102.003941955526030
  0
LINE
  8
0
  6
CONTINUOUS
 62
3
 10
-366.641050056568590
 20
-108.933588208849310
 11
-373.287853529982270
 21
-102.286784735435600
  0
POINT
  8
0
  6
CONTINUOUS
 62
3
 10
-369.964451793275430
 20
-105.610186472142450
  0
ARC
  8
0
  6
CONTINUOUS
 62
3
 10
-372.227193358202440
 20
-107.872928037069490
 40
6.099999427795398
 50
354.601910595264880
 51
48.752244966033089
  0
ARC
  8
0
  6
CONTINUOUS
 62
3
 10
-461.888333482396260
 20
-107.872928037069490
 40
6.099999427795455
 50
131.247755033979810
 51
185.398089404735120
  0
LINE
  8
0
  6
CONTINUOUS
 62
3
 10
-467.474476784030120
 20
-108.933588208849310
 11
-467.961280175735740
 21
-108.446784817143690
  0
LINE
  8
0
  6
CONTINUOUS
 62
3
 10
-460.827673310616430
 20
-102.286784735435600
 11
-461.314476702322050
 21
-101.799981343729980
  0
LINE
  8
0
  6
CONTINUOUS
 62
3
 10
-467.787615392998930
 20
-108.681041257998940
 11
-461.110516090526000
 21
-102.003941955526030
  0
LINE
  8
0
  6
CONTINUOUS
 62
3
 10
-467.474476784030120
 20
-108.933588208849310
 11
-460.827673310616430
 21
-102.286784735435600
  0
POINT
  8
0
  6
CONTINUOUS
 62
3
 10
-464.151075047323270
 20
-105.610186472142450
  0
ARC
  8
0
  6
CONTINUOUS
 62
3
 10
-461.888333482396260
 20
-107.872928037069490
 40
6.099999427795419
 50
84.601927898108485
 51
107.352112833615760
  0
LINE
  8
0
  6
CONTINUOUS
 62
3
 10
-413.807763420299350
 20
-90.773307515694796
 11
-413.807763420299350
 21
-88.203497302068058
  0
LINE
  8
0
  6
CONTINUOUS
 62
3
 10
-420.307763420299350
 20
-90.773307515694796
 11
-420.307763420299350
 21
-88.203497302068058
  0
ARC
  8
0
  6
CONTINUOUS
 62
3
 10
-423.307763420299350
 20
-90.773307515694796
 40
2.999999999999978
 50
282.384537293971110
 51
0.000000000000000
  0
ARC
  8
0
  6
CONTINUOUS
 62
3
 10
-410.807763420299350
 20
-90.773307515694796
 40
3.000000000000000
 50
180.000000000000000
 51
257.615462706028890
  0
LINE
  8
0
  6
CONTINUOUS
 62
3
 10
-403.627633550236170
 20
-93.703498099168769
 11
-430.627633550236170
 21
-93.703498099168769
  0
LINE
  8
0
  6
DASHDOT
 62
4
 10
-138.782848218093250
 20
69.796501900833277
 11
-156.782848218093250
 21
69.796501900833277
  0
LINE
  8
0
  6
DASHDOT
 62
4
 10
-147.782848218093250
 20
60.796501900833277
 11
-147.782848218093250
 21
87.798101223383014
  0
LINE
  8
0
  6
DASHED
 62
4
 10
-154.782848218093250
 20
89.796501900833277
 11
-154.782848218093250
 21
69.796501900833277
  0
LINE
  8
0
  6
DASHED
 62
4
 10
-140.782848218093250
 20
89.796501900833277
 11
-140.782848218093250
 21
69.796501900833277
  0
ARC
  8
0
  6
DASHED
 62
4
 10
-147.782848218093250
 20
69.796501900833277
 40
7.000000000000000
 50
180.000000000000000
 51
0.000000000000000
  0
CIRCLE
  8
0
  6
DASHED
 62
4
 10
-147.782848218093250
 20
69.796501900833277
 40
6.000000000000000
  0
LINE
  8
0
  6
CONTINUOUS
 62
3
 10
45.017167136049018
 20
123.796501900833270
 11
55.017167136047469
 21
123.796501900833270
  0
LINE
  8
0
  6
CONTINUOUS
 62
3
 10
45.017167136049018
 20
109.130501900833280
 11
55.017167136046510
 21
109.130501900833280
  0
LINE
  8
0
  6
CONTINUOUS
 62
3
 10
45.017167136049011
 20
92.482501900833284
 11
55.017167136045423
 21
92.482501900833284
  0
LINE
  8
0
  6
CONTINUOUS
 62
3
 10
45.017167136049011
 20
202.110501900833270
 11
55.017167136045423
 21
202.110501900833270
  0
LINE
  8
0
  6
CONTINUOUS
 62
3
 10
45.017167136049018
 20
185.462501900833270
 11
55.017167136046510
 21
185.462501900833270
  0
LINE
  8
0
  6
CONTINUOUS
 62
3
 10
45.017167136049018
 20
170.796501900833280
 11
55.017167136047469
 21
170.796501900833280
  0
ARC
  8
0
  6
CONTINUOUS
 62
3
 10
-427.557763420299350
 20
-73.203486089276339
 40
10.000000000000000
 50
180.000000000000000
 51
270.000000000000000
  0
LINE
  8
0
  6
CONTINUOUS
 62
3
 10
-406.557763420299350
 20
-83.203486089276339
 11
-427.557763420299350
 21
-83.203486089276339
  0
ARC
  8
0
  6
CONTINUOUS
 62
3
 10
-406.557763420299350
 20
-73.203486089276339
 40
10.000000000000000
 50
270.000000000000000
 51
0.000000000000000
  0
ARC
  8
0
  6
CONTINUOUS
 62
3
 10
-430.557763420299120
 20
-190.703498099168770
 40
69.999999999999986
 50
185.053213672530210
 51
247.587752663374630
  0
ARC
  8
0
  6
CONTINUOUS
 62
3
 10
-519.057763420299350
 20
-130.203497302067830
 40
13.000000000000036
 50
55.527135506002708
 51
90.000000000000000
  0
LINE
  8
0
  6
CONTINUOUS
 62
3
 10
-496.511670809823390
 20
-102.345784787357670
 11
-508.596068887184400
 21
-90.261386709996827
  0
LINE
  8
0
  6
CONTINUOUS
 62
3
 10
-492.882797645605820
 20
-96.782269796150160
 11
-503.905419829866560
 21
-85.759647611889591
  0
ARC
  8
0
  6
CONTINUOUS
 62
3
 10
-471.858538962256940
 20
-122.402722557211410
 40
5.000000000000003
 50
221.817788613224310
 51
232.504024278707390
  0
ARC
  8
0
  6
CONTINUOUS
 62
3
 10
-430.557763420299120
 20
-163.703498099168770
 40
70.000000000000000
 50
109.274480644545300
 51
135.181622685887930
  0
ARC
  8
0
  6
CONTINUOUS
 62
3
 10
-403.557763420299120
 20
-163.703498099168770
 40
70.000000000000000
 50
70.725519355454693
 51
90.000000000000000
  0
ARC
  8
0
  6
CONTINUOUS
 62
3
 10
-467.057763420299350
 20
-96.203498099168883
 40
12.000000000000043
 50
338.559749086673040
 51
343.518924885356280
  0
ARC
  8
0
  6
CONTINUOUS
 62
3
 10
-367.057763420299120
 20
-96.203498099168883
 40
12.000000000000032
 50
274.413429774274330
 51
286.715133671077920
  0
TEXT
  8
0
  6
CONTINUOUS
 62
3
 10
-430.196899414062500
 20
155.637771606445310
 40
12.500000000000000
  1
S096
 50
0.000002504478167
 41
0.470000016689301
  7
STANDARD1
  0
TEXT
  8
0
  6
CONTINUOUS
 62
3
 10
-430.196899414062500
 20
141.512771606445310
 40
12.500000000000000
  1
三菱ギヤードモートル
 50
0.000002504478167
 41
0.625000000000000
  7
STANDARD1
  0
TEXT
  8
0
  6
CONTINUOUS
 62
3
 10
-430.196899414062500
 20
127.387779235839840
 40
12.500000000000000
  1
GM-SSB
 50
0.000002504478167
 41
0.470000016689301
  7
STANDARD1
  0
TEXT
  8
0
  6
CONTINUOUS
 62
3
 10
-430.196899414062500
 20
113.262779235839840
 40
12.500000000000000
  1
0.2kW
 50
0.000002504478167
 41
0.470000016689301
  7
STANDARD1
  0
TEXT
  8
0
  6
CONTINUOUS
 62
3
 10
-430.196899414062500
 20
99.137779235839844
 40
12.500000000000000
  1
1/540-1/900
 50
0.000002504478167
 41
0.470000016689301
  7
STANDARD1
  0
TEXT
  8
0
  6
CONTINUOUS
 62
3
 10
-430.196899414062500
 20
85.012779235839844
 40
12.500000000000000
  1
SCALE1/1
 50
0.000002504478167
 41
0.470000016689301
  7
STANDARD1
  0
ARC
  8
0
  6
CONTINUOUS
 62
3
 10
-505.057765413051810
 20
-283.504954576846440
 40
8.000000000000000
 50
0.000000000000000
 51
50.380873009517259
  0
ARC
  8
0
  6
CONTINUOUS
 62
3
 10
-329.057761427546890
 20
-283.504954576846560
 40
8.000000000000055
 50
129.619126990482750
 51
180.000000000000000
  0
ARC
  8
0
  6
CONTINUOUS
 62
3
 10
-306.057763420299350
 20
-220.098719278223260
 40
6.000000000000148
 50
338.871302745699890
 51
0.000000000000000
  0
LINE
  8
0
  6
CONTINUOUS
 62
3
 10
-300.057763420299350
 20
-265.203500365924700
 11
-300.057763420299350
 21
-146.439071571677350
  0
LINE
  8
0
  6
CONTINUOUS
 62
3
 10
-534.057763420299350
 20
-265.203500365924700
 11
-534.057763420299350
 21
-146.439071571677350
  0
LINE
  8
0
  6
CONTINUOUS
 62
3
 10
-322.967383604667020
 20
-268.203501163024730
 11
-295.057760306623780
 21
-268.203501163024730
  0
LINE
  8
0
  6
CONTINUOUS
 62
3
 10
-292.057760306623780
 20
-290.203501711031660
 11
-292.057760306623780
 21
-271.203501163024730
  0
LINE
  8
0
  6
CONTINUOUS
 62
3
 10
-337.057761427546890
 20
-290.203501711031660
 11
-292.057760306623780
 21
-290.203501711031660
  0
LINE
  8
0
  6
DASHDOT
 62
4
 10
-309.557760742538680
 20
-298.027959605542830
 11
-309.557760742538680
 21
-262.489922405070390
  0
LINE
  8
0
  6
CONTINUOUS
 62
3
 10
-337.057761427546890
 20
-290.203500913931630
 11
-337.057761427546890
 21
-283.504954576846560
  0
LINE
  8
0
  6
CONTINUOUS
 62
3
 10
-417.057763420299350
 20
-287.203500789384520
 11
-357.199188430586450
 21
-287.203500789384520
  0
LINE
  8
0
  6
CONTINUOUS
 62
3
 10
-356.057758770541340
 20
-288.203500789384520
 11
-339.057761427546890
 21
-288.203500789384520
  0
LINE
  8
0
  6
CONTINUOUS
 62
3
 10
-417.057763420299350
 20
-287.203500789384520
 11
-476.916338410012260
 21
-287.203500789384520
  0
LINE
  8
0
  6
CONTINUOUS
 62
3
 10
-497.057765413051810
 20
-290.203500913931630
 11
-497.057765413051810
 21
-283.504954576846440
  0
LINE
  8
0
  6
CONTINUOUS
 62
3
 10
-478.057768070057360
 20
-288.203500789384520
 11
-495.057765413051810
 21
-288.203500789384520
  0
LINE
  8
0
  6
CONTINUOUS
 62
3
 10
-511.148143235931680
 20
-268.203501163024730
 11
-539.057766533974930
 21
-268.203501163024730
  0
LINE
  8
0
  6
CONTINUOUS
 62
3
 10
-542.057766533974930
 20
-290.203501711031660
 11
-542.057766533974930
 21
-271.203501163024730
  0
LINE
  8
0
  6
CONTINUOUS
 62
3
 10
-497.057765413051810
 20
-290.203501711031660
 11
-542.057766533974930
 21
-290.203501711031660
  0
LINE
  8
0
  6
DASHDOT
 62
4
 10
-524.557766098060030
 20
-298.027959605542830
 11
-524.557766098060030
 21
-262.489922405070390
  0
ARC
  8
0
  6
CONTINUOUS
 62
3
 10
-322.967383604667020
 20
-271.203501163024730
 40
3.000000000000000
 50
90.000000000000000
 51
135.027530656572850
  0
ARC
  8
0
  6
CONTINUOUS
 62
3
 10
-295.057760306623780
 20
-271.203501163024730
 40
3.000000000000000
 50
0.000000000000000
 51
90.000000000000000
  0
ARC
  8
0
  6
CONTINUOUS
 62
3
 10
-297.057763420299350
 20
-265.203500365924700
 40
3.000000000000000
 50
180.000000000000000
 51
270.000000000000000
  0
ARC
  8
0
  6
CONTINUOUS
 62
3
 10
-385.057763420299350
 20
-146.439071571677350
 40
85.000000000000000
 50
0.000000000000000
 51
85.577622414021803
  0
ARC
  8
0
  6
CONTINUOUS
 62
3
 10
-339.057761427546890
 20
-290.203500789384520
 40
2.000000000000000
 50
0.000000000000000
 51
90.000000000000000
  0
ARC
  8
0
  6
CONTINUOUS
 62
3
 10
-484.057763420299350
 20
-280.203497302068060
 40
10.000000000000053
 50
306.869864344412290
 51
315.572968020398260
  0
ARC
  8
0
  6
CONTINUOUS
 62
3
 10
-511.148143235931680
 20
-271.203501163024730
 40
3.000000000000004
 50
44.972469343427150
 51
90.000000000000000
  0
ARC
  8
0
  6
CONTINUOUS
 62
3
 10
-495.057765413051810
 20
-290.203500789384520
 40
2.000000000000000
 50
90.000000000000000
 51
180.000000000000000
  0
ARC
  8
0
  6
CONTINUOUS
 62
3
 10
-539.057766533974930
 20
-271.203501163024730
 40
3.000000000000000
 50
90.000000000000000
 51
180.000000000000000
  0
ARC
  8
0
  6
CONTINUOUS
 62
3
 10
-537.057763420299350
 20
-265.203500365924700
 40
3.000000000000000
 50
270.000000000000000
 51
0.000000000000000
  0
ARC
  8
0
  6
CONTINUOUS
 62
3
 10
-449.057763420299350
 20
-146.439071571677350
 40
84.999999999999957
 50
94.422377585978197
 51
180.000000000000000
  0
ARC
  8
0
  6
CONTINUOUS
 62
3
 10
-350.057763420299350
 20
-280.203497302068060
 40
9.999999999999833
 50
224.427031979601790
 51
233.130135655587680
  0
ARC
  8
0
  6
CONTINUOUS
 62
3
 10
-417.057763420299350
 20
-177.203498099168770
 40
130.000000000000170
 50
309.619126990482750
 51
326.060710791335000
  0
ARC
  8
0
  6
CONTINUOUS
 62
3
 10
-305.057763420299350
 20
-252.575906844013960
 40
5.000000000000000
 50
0.000000000000000
 51
146.060710791332530
  0
ARC
  8
0
  6
CONTINUOUS
 62
3
 10
-417.057763420299350
 20
-177.203498099168770
 40
129.999999999999940
 50
213.939289208665090
 51
230.380873009517220
  0
ARC
  8
0
  6
CONTINUOUS
 62
3
 10
-529.057763420299350
 20
-252.575906844013960
 40
5.000000000000114
 50
33.939289208664569
 51
180.000000000000000
  0
LINE
  8
0
  6
CONTINUOUS
 62
3
 10
-437.557763420299350
 20
-60.623924060727532
 11
-437.557763420299350
 21
-82.203497302068058
  0
LINE
  8
0
  6
CONTINUOUS
 62
3
 10
-396.557763420299350
 20
-60.623924060727532
 11
-396.557763420299350
 21
-82.203497302068058
  0
LINE
  8
0
  6
DASHDOT
 62
4
 10
-417.057763420299350
 20
-301.274148988861270
 11
-417.057763420299350
 21
-17.220959328859308
  0
ARC
  8
0
  6
CONTINUOUS
 62
3
 10
-417.057763420299350
 20
-560.203497302068060
 40
499.999999999999940
 50
92.349785605460426
 51
94.422377585978055
  0
ARC
  8
0
  6
CONTINUOUS
 62
3
 10
-417.057763420299350
 20
-560.203497302068060
 40
499.999999999999940
 50
85.577622414021945
 51
87.650214394539574
  0
ARC
  8
0
  6
CONTINUOUS
 62
3
 10
-343.899789247283250
 20
-241.522637507352900
 40
2.999999999999677
 50
148.296383256597580
 51
225.000000000003070
  0
ARC
  8
0
  6
CONTINUOUS
 62
3
 10
-352.042876521463090
 20
-251.057219762836780
 40
3.000000000000185
 50
44.999999999993868
 51
130.705112768216340
  0
ARC
  8
0
  6
CONTINUOUS
 62
3
 10
-325.776566468270400
 20
-259.645860286365520
 40
2.999999999999864
 50
225.000000000000000
 51
317.912625209518070
  0
ARC
  8
0
  6
CONTINUOUS
 62
3
 10
-334.615401233102380
 20
-268.484695051197260
 40
3.000000000000218
 50
312.087374790476080
 51
45.000000000000000
  0
ARC
  8
0
  6
CONTINUOUS
 62
3
 10
-499.500125607496330
 20
-268.484695051197490
 40
3.000000000000024
 50
134.999999999996930
 51
227.912625209521000
  0
ARC
  8
0
  6
CONTINUOUS
 62
3
 10
-508.338960372328300
 20
-259.645860286365520
 40
3.000000000000218
 50
222.087374790476100
 51
314.999999999996870
  0
ARC
  8
0
  6
CONTINUOUS
 62
3
 10
-477.567605705897450
 20
-246.552175149598380
 40
3.000000000000124
 50
49.911473410096967
 51
135.000000000000000
  0
ARC
  8
0
  6
CONTINUOUS
 62
3
 10
-486.406440470728970
 20
-237.713340384766640
 40
3.000000000000024
 50
314.999999999996870
 51
40.088526589902528
  0
ARC
  8
0
  6
CONTINUOUS
 62
3
 10
-303.057763420299350
 20
-146.203497302067830
 40
3.000000000000000
 50
0.000000000000000
 51
90.000000000000000
  0
ARC
  8
0
  6
CONTINUOUS
 62
3
 10
-309.659701432550040
 20
-114.203497302067830
 40
3.000000000000000
 50
270.000000000000000
 51
23.148572820069919
  0
ARC
  8
0
  6
CONTINUOUS
 62
3
 10
-510.717389230743950
 20
-92.382707053556373
 40
2.999999999999864
 50
45.000000000000000
 51
138.759285791780480
  0
ARC
  8
0
  6
CONTINUOUS
 62
3
 10
-477.567605705897450
 20
-107.854821048739150
 40
2.999999999999864
 50
225.000000000000000
 51
310.088526589903040
  0
ARC
  8
0
  6
CONTINUOUS
 62
3
 10
-501.784099486307010
 20
-83.638327268329817
 40
2.999999999999794
 50
130.016194045864520
 51
225.000000000003070
  0
ARC
  8
0
  6
CONTINUOUS
 62
3
 10
-332.331427354291690
 20
-83.638327268329817
 40
3.000000000000024
 50
314.999999999996870
 51
49.983805954135455
  0
ARC
  8
0
  6
CONTINUOUS
 62
3
 10
-356.547921134701260
 20
-107.854821048739150
 40
3.000000000000124
 50
229.911473410096960
 51
315.000000000000000
  0
ARC
  8
0
  6
CONTINUOUS
 62
3
 10
-323.398137609854760
 20
-92.382707053556373
 40
3.000000000000097
 50
41.240714208219508
 51
135.000000000000000
  0
ARC
  8
0
  6
CONTINUOUS
 62
3
 10
-347.709086369869740
 20
-116.693655813570890
 40
2.999999999999864
 50
135.000000000000000
 51
180.187974145679820
  0
ARC
  8
0
  6
CONTINUOUS
 62
3
 10
-423.307763420299350
 20
-88.203497302068058
 40
3.000000000000000
 50
0.000000000000000
 51
90.000000000000000
  0
ARC
  8
0
  6
CONTINUOUS
 62
3
 10
-410.807763420299350
 20
-88.203497302068058
 40
3.000000000000000
 50
90.000000000000000
 51
180.000000000000000
  0
ARC
  8
0
  6
CONTINUOUS
 62
3
 10
-382.837229858579800
 20
-262.784421296070720
 40
5.000000000000205
 50
84.588104602569331
 51
106.037937568522150
  0
ARC
  8
0
  6
CONTINUOUS
 62
3
 10
-335.891705362893160
 20
-223.050129870834210
 40
4.999999999999917
 50
154.450645436618710
 51
175.900478402575570
  0
ARC
  8
0
  6
CONTINUOUS
 62
3
 10
-378.781684697664100
 20
-219.976097882886390
 40
37.999999999999936
 50
264.588104602568250
 51
355.900478402576140
  0
ARC
  8
0
  6
CONTINUOUS
 62
3
 10
-434.557763420299350
 20
-82.203497302068058
 40
3.000000000000000
 50
180.000000000000000
 51
270.000000000000000
  0
ARC
  8
0
  6
CONTINUOUS
 62
3
 10
-399.557763420299350
 20
-82.203497302068058
 40
3.000000000000000
 50
270.000000000000000
 51
0.000000000000000
  0
ARC
  8
0
  6
CONTINUOUS
 62
3
 10
-350.057763420299350
 20
-280.203497302068060
 40
10.000000000000053
 50
306.869864344412290
 51
358.093887109017660
  0
ARC
  8
0
  6
CONTINUOUS
 62
3
 10
-350.057763420299350
 20
-280.203497302068060
 40
10.000000000000158
 50
224.427031979599950
 51
233.130135655587680
  0
ARC
  8
0
  6
CONTINUOUS
 62
3
 10
-484.057763420299350
 20
-280.203497302068060
 40
10.000000000000130
 50
181.906112890982260
 51
233.130135655587680
  0
ARC
  8
0
  6
CONTINUOUS
 62
3
 10
-502.047803532950410
 20
-280.802209875184530
 40
7.999999999999923
 50
1.906112890982627
 51
50.635320748643942
  0
ARC
  8
0
  6
CONTINUOUS
 62
3
 10
-484.057763420299350
 20
-280.203497302068060
 40
10.000000000000053
 50
306.869864344412290
 51
315.572968020398260
  0
ARC
  8
0
  6
CONTINUOUS
 62
3
 10
-332.067723307648290
 20
-280.802209875184530
 40
8.000000000000215
 50
129.364679251358580
 51
178.093887109017460
  0
ARC
  8
0
  6
CONTINUOUS
 62
3
 10
-417.057763420299350
 20
-177.203498099168770
 40
126.000000000000180
 50
202.331645009221490
 51
230.635320748643100
  0
ARC
  8
0
  6
CONTINUOUS
 62
3
 10
-306.057763420299350
 20
-222.799550559880690
 40
6.000000000000214
 50
337.668354990778080
 51
0.000000000000000
  0
ARC
  8
0
  6
CONTINUOUS
 62
3
 10
-417.057763420299350
 20
-177.203498099168770
 40
125.999999999999870
 50
309.364679251356730
 51
337.668354990778480
  0
ARC
  8
0
  6
CONTINUOUS
 62
3
 10
-315.057763420299350
 20
-130.203497302067830
 40
13.000000000000000
 50
90.000000000000000
 51
155.235004629180650
  0
ARC
  8
0
  6
CONTINUOUS
 62
3
 10
-525.956000721603460
 20
-115.203497302067830
 40
2.000000000000116
 50
157.893323870137750
 51
270.000000000000000
  0
ARC
  8
0
  6
CONTINUOUS
 62
3
 10
-519.057763420299350
 20
-130.203497302067830
 40
13.000000000000000
 50
270.000000000000000
 51
288.973483482546780
  0
LINE
  8
0
  6
CONTINUOUS
 62
3
 10
-349.921556177903080
 20
-248.935899419277230
 11
-332.494080889542830
 21
-266.363374707637720
  0
LINE
  8
0
  6
CONTINUOUS
 62
3
 10
-346.021109590842800
 20
-243.643957850912670
 11
-327.897886811829950
 21
-261.767180629925060
  0
LINE
  8
0
  6
CONTINUOUS
 62
3
 10
-479.688926049457000
 20
-244.430854806038840
 11
-501.621445951055880
 21
-266.363374707637720
  0
LINE
  8
0
  6
CONTINUOUS
 62
3
 10
-484.285120127169420
 20
-239.834660728326410
 11
-506.217640028768760
 21
-261.767180629925290
  0
LINE
  8
0
  6
CONTINUOUS
 62
3
 10
-490.514409096689750
 20
-108.343046500491140
 11
-492.535558970876080
 21
-106.321896626304800
  0
LINE
  8
0
  6
CONTINUOUS
 62
3
 10
-479.688926049457000
 20
-109.976141392298700
 11
-492.097826201570110
 21
-97.567241240185808
  0
LINE
  8
0
  6
CONTINUOUS
 62
3
 10
-354.426600791141710
 20
-109.976141392298700
 11
-330.210107010732140
 21
-85.759647611889591
  0
LINE
  8
0
  6
CONTINUOUS
 62
3
 10
-349.830406713429280
 20
-114.572335470011350
 11
-325.519457953414300
 21
-90.261386709996827
  0
LINE
  8
0
  6
CONTINUOUS
 62
3
 10
-417.057763420299350
 20
-85.203497302068058
 11
-434.557763420299350
 21
-85.203497302068058
  0
LINE
  8
0
  6
CONTINUOUS
 62
3
 10
-417.057763420299350
 20
-85.203497302068058
 11
-399.557763420299350
 21
-85.203497302068058
  0
LINE
  8
0
  6
CONTINUOUS
 62
3
 10
-315.057763420299350
 20
-117.203497302067830
 11
-309.659701432550040
 21
-117.203497302067830
  0
LINE
  8
0
  6
CONTINUOUS
 62
3
 10
-315.057763420299350
 20
-143.203497302067830
 11
-303.057763420299350
 21
-143.203497302067830
  0
LINE
  8
0
  6
CONTINUOUS
 62
3
 10
-519.057763420299350
 20
-117.203497302067830
 11
-525.956000721603460
 21
-117.203497302067830
  0
LINE
  8
0
  6
CONTINUOUS
 62
3
 10
-519.057763420299350
 20
-143.203497302067830
 11
-532.057763420299350
 21
-143.203497302067830
  0
ARC
  8
0
  6
CONTINUOUS
 62
3
 10
-528.057763420299350
 20
-222.799550559880690
 40
6.000000000000000
 50
180.000000000000000
 51
202.331645009221920
  0
ARC
  8
0
  6
CONTINUOUS
 62
3
 10
-532.057763420299350
 20
-145.203497302067830
 40
2.000000000000000
 50
90.000000000000000
 51
180.000000000000000
  0
LINE
  8
0
  6
DASHDOT
 62
4
 10
-385.258711629037180
 20
-145.203498099168090
 11
-450.693272064795790
 21
-145.203498099168090
  0
LINE
  8
0
  6
CONTINUOUS
 62
3
 10
-437.557763420299350
 20
-35.203497302068072
 11
-437.557763420299350
 21
-60.623924060727305
  0
CIRCLE
  8
0
  6
CONTINUOUS
 62
3
 10
-417.057763420299350
 20
-45.203497302068072
 40
10.000000000000000
  0
LINE
  8
0
  6
DASHDOT
 62
4
 10
-393.889850421417800
 20
-45.203497302068072
 11
-440.912364322952500
 21
-45.203497302068072
  0
ARC
  8
0
  6
CONTINUOUS
 62
3
 10
-427.557763420299350
 20
-35.203497302068072
 40
10.000000000000000
 50
90.000000000000000
 51
180.000000000000000
  0
LINE
  8
0
  6
CONTINUOUS
 62
3
 10
-406.557763420299350
 20
-25.203497302068072
 11
-427.557763420299350
 21
-25.203497302068072
  0
LINE
  8
0
  6
CONTINUOUS
 62
3
 10
-396.557763420299350
 20
-35.203497302068072
 11
-396.557763420299350
 21
-60.623924060727305
  0
ARC
  8
0
  6
CONTINUOUS
 62
3
 10
-406.557763420299350
 20
-35.203497302068072
 40
10.000000000000000
 50
0.000000000000000
 51
90.000000000000000
  0
INSERT
  8
0
  2
SYM1
 10
-406.557763420299350
 20
-73.203497302068058
  0
INSERT
  8
0
  2
SYM2
 10
-350.057763420299350
 20
-80.203497302067831
  0
INSERT
  8
0
  2
SYM3
 10
-311.057763420299350
 20
-156.203497302067830
  0
INSERT
  8
0
  2
SYM4
 10
-310.057763420299350
 20
-222.203497302068060
  0
INSERT
  8
0
  2
SYM5
 10
-350.057763420299350
 20
-280.203497302068060
  0
INSERT
  8
0
  2
SYM6
 10
-427.557763420299350
 20
-73.203497302068058
 41
-1.000000000000000
  0
INSERT
  8
0
  2
SYM7
 10
-484.057763420299350
 20
-80.203497302067831
 41
-1.000000000000000
  0
INSERT
  8
0
  2
SYM8
 10
-523.057763420299350
 20
-156.203497302067830
 41
-1.000000000000000
  0
INSERT
  8
0
  2
SYM9
 10
-524.057763420299350
 20
-222.203497302068060
 41
-1.000000000000000
  0
INSERT
  8
0
  2
SYM10
 10
-484.057763420299350
 20
-280.203497302068060
 41
-1.000000000000000
  0
ARC
  8
0
  6
CONTINUOUS
 62
3
 10
-471.858538962256940
 20
-122.402722557211410
 40
5.000000000000012
 50
108.289857495549270
 51
160.034302033855110
  0
LINE
  8
0
  6
CONTINUOUS
 62
3
 10
-474.904609343229370
 20
-126.398622756205000
 11
-475.572110396262810
 21
-126.011668159352450
  0
LINE
  8
0
  6
CONTINUOUS
 62
3
 10
-476.847668520399000
 20
-119.902272754262420
 11
-476.848360241527420
 21
-119.510092595652290
  0
LINE
  8
0
  6
CONTINUOUS
 62
3
 10
-476.848360235923450
 20
-119.510095772978510
 11
-473.372122554558700
 21
-117.503093605616300
  0
ARC
  8
0
  6
CONTINUOUS
 62
3
 10
-464.316871928883530
 20
-237.360182374267080
 40
2.999999999999964
 50
144.618555413455000
 51
231.846812084446610
  0
ARC
  8
0
  6
CONTINUOUS
 62
3
 10
-471.858538962256940
 20
-232.004273641126360
 40
6.250000000000274
 50
324.618555413457670
 51
125.381444586538400
  0
ARC
  8
0
  6
CONTINUOUS
 62
3
 10
-477.214447695397440
 20
-224.462606607753170
 40
2.999999999999813
 50
218.153187915559470
 51
305.381444586552050
  0
ARC
  8
0
  6
CONTINUOUS
 62
3
 10
-356.901079145201040
 20
-224.462606607753170
 40
2.999999999999964
 50
234.618555413455030
 51
321.846812084445900
  0
ARC
  8
0
  6
CONTINUOUS
 62
3
 10
-369.798654911714950
 20
-237.360182374267080
 40
3.000000000000133
 50
308.153187915560180
 51
35.381444586539963
  0
ARC
  8
0
  6
CONTINUOUS
 62
3
 10
-362.256987878341530
 20
-232.004273641126360
 40
6.249999999999958
 50
54.618555413458211
 51
215.381444586544720
  0
ARC
  8
0
  6
CONTINUOUS
 62
3
 10
-417.057763420299120
 20
-177.203498099168770
 40
29.999999999999975
 50
259.111672490974460
 51
280.888327509025540
  0
ARC
  8
0
  6
CONTINUOUS
 62
3
 10
-364.596540882702810
 20
-245.210590650284420
 40
2.999999999999935
 50
268.237981954255990
 51
305.556873450843280
  0
LINE
  8
0
  6
CONTINUOUS
 62
3
 10
-333.557763420299120
 20
-188.703498099166720
 11
-333.557763420299120
 21
-190.703498099168770
  0
ARC
  8
0
  6
CONTINUOUS
 62
3
 10
-403.557763420299120
 20
-190.703498099168770
 40
70.000000000000000
 50
270.000000000000000
 51
292.412247336625680
  0
ARC
  8
0
  6
CONTINUOUS
 62
3
 10
-378.012807740073640
 20
-252.642623369835410
 40
2.999999999999907
 50
292.412247336624550
 51
329.731138833218490
  0
ARC
  8
0
  6
CONTINUOUS
 62
3
 10
-365.057763420299120
 20
-260.203498099168770
 40
12.000000000000021
 50
88.237981954247360
 51
149.731138833220510
  0
LINE
  8
0
  6
CONTINUOUS
 62
3
 10
-403.557763420299120
 20
-260.703498099168770
 11
-430.557763420299120
 21
-260.703498099168770
  0
ARC
  8
0
  6
CONTINUOUS
 62
3
 10
-456.102719100524150
 20
-252.642623369835410
 40
3.000000000000099
 50
210.268861166779320
 51
247.587752663367470
  0
ARC
  8
0
  6
CONTINUOUS
 62
3
 10
-469.518985957895210
 20
-245.210590650284420
 40
3.000000000000193
 50
234.443126549156720
 51
271.762018045752540
  0
ARC
  8
0
  6
CONTINUOUS
 62
3
 10
-469.057763420299350
 20
-260.203498099168770
 40
12.000000000000282
 50
30.268861166778397
 51
91.762018045748349
  0
ARC
  8
0
  6
CONTINUOUS
 62
3
 10
-430.557763420299120
 20
-190.703498099168770
 40
70.000000000000227
 50
180.000000000000000
 51
180.108522628564430
  0
LINE
  8
0
  6
CONTINUOUS
 62
3
 10
-500.557763420299350
 20
-187.117546886629950
 11
-500.557763420299350
 21
-190.703498099168770
  0
ARC
  8
0
  6
CONTINUOUS
 62
3
 10
-430.557763420299120
 20
-163.703498099168770
 40
70.000000000000000
 50
90.000000000000000
 51
109.274480644545300
  0
ARC
  8
0
  6
CONTINUOUS
 62
3
 10
-471.371965946787210
 20
-110.569696502380680
 40
3.000000000000005
 50
73.284866328917616
 51
127.529310569726980
  0
ARC
  8
0
  6
CONTINUOUS
 62
3
 10
-467.057763420299350
 20
-96.203498099168883
 40
11.999999999999977
 50
253.284866328922110
 51
265.547337514764710
  0
ARC
  8
0
  6
CONTINUOUS
 62
3
 10
-452.674061021178200
 20
-100.458977542607270
 40
3.000000000000082
 50
109.274480644548270
 51
163.518924885356910
  0
LINE
  8
0
  6
CONTINUOUS
 62
3
 10
-440.557763420299120
 20
-99.393370695521185
 11
-440.557763420299120
 21
-97.976791198548995
  0
ARC
  8
0
  6
CONTINUOUS
 62
3
 10
-443.557763420299120
 20
-97.976791198548995
 40
3.000000000000000
 50
0.000000000000000
 51
101.188055751322360
  0
LINE
  8
0
  6
CONTINUOUS
 62
3
 10
-393.557763420299120
 20
-99.393370695521185
 11
-393.557763420299120
 21
-97.976791198548995
  0
ARC
  8
0
  6
CONTINUOUS
 62
3
 10
-390.557763420299120
 20
-97.976791198548995
 40
3.000000000000028
 50
78.811944248677634
 51
180.000000000000000
  0
ARC
  8
0
  6
CONTINUOUS
 62
3
 10
-381.441465819420050
 20
-100.458977542607270
 40
2.999999999999918
 50
16.481075114643080
 51
70.725519355451723
  0
ARC
  8
0
  6
CONTINUOUS
 62
3
 10
-367.057763420299120
 20
-96.203498099168883
 40
12.000000000000204
 50
196.481075114644030
 51
201.440250913326930
  0
ARC
  8
0
  6
CONTINUOUS
 62
3
 10
-362.743560893811260
 20
-110.569696502380680
 40
2.999999999999952
 50
52.470689430266106
 51
106.715133671082380
  0
ARC
  8
0
  6
CONTINUOUS
 62
3
 10
-403.557763420299120
 20
-163.703498099168770
 40
70.000000000000000
 50
42.177418600901397
 51
70.725519355454693
  0
ARC
  8
0
  6
CONTINUOUS
 62
3
 10
-442.557763420299120
 20
-253.820112089876940
 40
2.999999999999893
 50
259.682397487131420
 51
0.000000000000000
  0
ARC
  8
0
  6
CONTINUOUS
 62
3
 10
-431.557763420299120
 20
-254.903498099168810
 40
3.000000000000000
 50
180.000000000000000
 51
270.000000000000000
  0
ARC
  8
0
  6
CONTINUOUS
 62
3
 10
-391.557763420299120
 20
-253.820112089876940
 40
3.000000000000000
 50
180.000000000000000
 51
280.317602512868580
  0
ARC
  8
0
  6
CONTINUOUS
 62
3
 10
-402.557763420299120
 20
-254.903498099168810
 40
3.000000000000000
 50
270.000000000000000
 51
0.000000000000000
  0
LINE
  8
0
  6
CONTINUOUS
 62
3
 10
-394.557763420299120
 20
-206.703498099166270
 11
-394.557763420299120
 21
-253.820112089876940
  0
LINE
  8
0
  6
CONTINUOUS
 62
3
 10
-399.557763420299120
 20
-207.177759557634660
 11
-399.557763420299120
 21
-254.903498099168810
  0
LINE
  8
0
  6
CONTINUOUS
 62
3
 10
-434.557763420299120
 20
-207.177759557634660
 11
-434.557763420299120
 21
-254.903498099168810
  0
LINE
  8
0
  6
CONTINUOUS
 62
3
 10
-439.557763420299120
 20
-206.703498099166500
 11
-439.557763420299120
 21
-253.820112089876940
  0
ARC
  8
0
  6
CONTINUOUS
 62
3
 10
-471.858538962256940
 20
-122.402722557211410
 40
6.249999999999694
 50
234.618555413461590
 51
239.573505486895330
  0
ARC
  8
0
  6
CONTINUOUS
 62
3
 10
-477.214447695397440
 20
-129.944389590584590
 40
3.000000000000216
 50
54.618555413447780
 51
56.479995948265774
  0
ARC
  8
0
  6
CONTINUOUS
 62
3
 10
-442.557763420299120
 20
-206.703498099166500
 40
3.000000000000000
 50
0.000000000000000
 51
12.243652867704167
  0
ARC
  8
0
  6
CONTINUOUS
 62
3
 10
-431.557763420299120
 20
-207.177759557634660
 40
2.999999999999749
 50
163.514665757240950
 51
180.000000000000000
  0
ARC
  8
0
  6
CONTINUOUS
 62
3
 10
-402.557763420299120
 20
-207.177759557634660
 40
3.000000000000000
 50
0.000000000000000
 51
16.485334242759059
  0
ARC
  8
0
  6
CONTINUOUS
 62
3
 10
-391.557763420299120
 20
-206.703498099166270
 40
3.000000000000763
 50
167.756347132299030
 51
180.000000000000000
  0
LINE
  8
0
  6
DASHDOT
 62
4
 10
-283.283158379930680
 20
-152.703498099166980
 11
-539.208501227589300
 21
-152.703498099166500
  0
INSERT
  8
0
  2
SYM11
 10
-362.256987878341530
 20
-232.004273641126130
  0
INSERT
  8
0
  2
SYM12
 10
-471.858538962256940
 20
-232.004273641126130
  0
LINE
  8
0
  6
CONTINUOUS
 62
3
 10
-500.557763420299350
 20
-187.117546886629950
 11
-500.557763420299350
 21
-190.703498099168770
  0
ARC
  8
0
  6
CONTINUOUS
 62
3
 10
-496.357763420299310
 20
-166.745998099166630
 40
20.799999999999986
 50
174.275189547776620
 51
205.640070215894870
  0
POINT
  8
0
  6
DASHDOT
 62
4
 10
-475.557763420299350
 20
-152.717228592292600
  0
ARC
  8
0
  6
CONTINUOUS
 62
3
 10
-496.357763420299310
 20
-166.745998099166630
 40
20.799999999999926
 50
205.640070215894870
 51
260.083463391769440
  0
POINT
  8
0
  6
DASHDOT
 62
4
 10
-475.557763420299350
 20
-152.717228592292600
  0
ARC
  8
0
  6
CONTINUOUS
 62
3
 10
-496.357763420299310
 20
-166.745998099166630
 40
20.799999999999986
 50
174.275189547776620
 51
205.640070215894870
  0
ARC
  8
0
  6
CONTINUOUS
 62
3
 10
-494.357763420299310
 20
-126.745998099166640
 40
18.799999999999955
 50
0.000000000000000
 51
79.401214733933941
  0
ARC
  8
0
  6
CONTINUOUS
 62
3
 10
-490.532008786212370
 20
-106.300861722028910
 40
1.999999999999927
 50
177.137594773887290
 51
259.401214733934010
  0
ARC
  8
0
  6
CONTINUOUS
 62
3
 10
-496.125021883928180
 20
-106.021211067143090
 40
1.999999999999928
 50
274.873974813840960
 51
357.137594773887320
  0
ARC
  8
0
  6
CONTINUOUS
 62
3
 10
-494.691216153915780
 20
-189.485009076095930
 40
1.999999999999962
 50
94.191726156001650
 51
177.137594773887290
  0
LINE
  8
0
  6
CONTINUOUS
 62
3
 10
-492.859634911982540
 20
-96.783427932831387
 11
-497.953271840259500
 21
-198.656166498371480
  0
ARC
  8
0
  6
CONTINUOUS
 62
3
 10
-500.284229251631590
 20
-189.205358421210120
 40
2.000000000000154
 50
357.137594773887600
 51
80.083463391767268
  0
LINE
  8
0
  6
CONTINUOUS
 62
3
 10
-517.054022771920240
 20
-164.671185131585620
 11
-513.063997834264230
 21
-124.870686378468360
  0
ARC
  8
0
  6
CONTINUOUS
 62
3
 10
-496.357763420299310
 20
-166.745998099166630
 40
20.800000000000082
 50
274.191726156007460
 51
354.952683218992150
  0
ARC
  8
0
  6
CONTINUOUS
 62
3
 10
-494.357763420299310
 20
-126.745998099166640
 40
18.800000000000050
 50
94.873974813842736
 51
144.191373186504220
  0
ARC
  8
0
  6
CONTINUOUS
 62
3
 10
-494.357763420299310
 20
-126.745998099166640
 40
18.799999999999944
 50
144.191373186504220
 51
174.275189547776390
  0
LINE
  8
0
  6
CONTINUOUS
 62
3
 10
-493.658636783084830
 20
-96.743477839276238
 11
-492.060633040880250
 21
-96.823378026386422
  0
LINE
  8
0
  6
CONTINUOUS
 62
3
 10
-475.557763420299350
 20
-135.372889338947060
 11
-475.557763420299350
 21
-126.745998099166640
  0
INSERT
  8
0
  2
SYM13
 10
-498.502585626642710
 20
-193.622454710427060
 41
1.000000000000000
 42
1.000000000000000
 43
1.000000000000000
 50
357.137594773886350
  0
ARC
  8
0
  6
CONTINUOUS
 62
3
 10
-487.516310279979280
 20
-102.056840263056520
 40
9.000000000000060
 50
160.536063666407810
 51
193.739143184213500
  0
POINT
  8
0
  6
CONTINUOUS
 62
3
 10
-493.908324867803690
 20
-101.737239533665270
  0
LINE
  8
0
  6
CONTINUOUS
 62
3
 10
-493.733543208500120
 20
-98.241606347592892
 11
-494.083106527107250
 21
-105.232872719737770
  0
LINE
  8
0
  6
CONTINUOUS
 62
3
 10
-493.733543208500120
 20
-98.241606347592892
 11
-494.083106527107250
 21
-105.232872719737770
  0
LINE
  8
0
  6
CONTINUOUS
 62
3
 10
-494.083106527107250
 20
-105.232872719737770
 11
-495.060910339615020
 21
-105.183982529112420
  0
LINE
  8
0
  6
CONTINUOUS
 62
3
 10
-493.733543208500120
 20
-98.241606347592892
 11
-494.711347021007670
 21
-98.192716156967549
  0
ARC
  8
0
  6
CONTINUOUS
 62
3
 10
-494.995991475687330
 20
-103.885605250558790
 40
1.299999237060493
 50
193.739143184211430
 51
267.137612759980240
  0
ARC
  8
0
  6
CONTINUOUS
 62
3
 10
-494.776265884935360
 20
-99.491093435521066
 40
1.299999237060474
 50
87.137594090651831
 51
160.536063666412870
  0
LINE
  8
0
  6
CONTINUOUS
 62
3
 10
-493.658636783084830
 20
-96.743477839276238
 11
-498.752273711361790
 21
-198.616216404816210
  0
LINE
  8
0
  6
CONTINUOUS
 62
3
 10
-497.154269969157210
 20
-198.696116591927190
 11
-498.752273711361790
 21
-198.616216404816210
  0
LINE
  8
0
  6
CONTINUOUS
 62
3
 10
-492.060633040880250
 20
-96.823378026386422
 11
-497.154269969157210
 21
-198.696116591927190
  0
ARC
  8
0
  6
CONTINUOUS
 62
4
 10
-175.457763420299220
 20
-152.703498099166610
 40
290.796999999999910
 50
174.998349729065040
 51
180.000000000000000
  0
LINE
  8
0
  6
CONTINUOUS
 62
4
 10
-459.135353736155370
 20
-114.458000712917960
 11
-455.795048702877690
 21
-111.117695679640060
  0
ARC
  8
0
  6
CONTINUOUS
 62
4
 10
-444.429654007818730
 20
-129.163700441254600
 40
20.797000000000015
 50
135.000000000000000
 51
174.998349729064730
  0
ARC
  8
0
  6
CONTINUOUS
 62
4
 10
-417.057763420299350
 20
-499.303498099166750
 40
390.797000000000030
 50
90.000000000000000
 51
95.417963762360529
  0
ARC
  8
0
  6
CONTINUOUS
 62
4
 10
-453.673728359317690
 20
-113.239016023199830
 40
3.000000000000067
 50
95.417963762365673
 51
135.000000000003040
  0
ARC
  8
0
  6
CONTINUOUS
 62
4
 10
-175.457763420299220
 20
-152.703498099166610
 40
290.797000000000250
 50
180.000000000000000
 51
185.001650270934930
  0
LINE
  8
0
  6
CONTINUOUS
 62
4
 10
-459.135353736155370
 20
-190.948995485415250
 11
-455.795048702877690
 21
-194.289300518693150
  0
ARC
  8
0
  6
CONTINUOUS
 62
4
 10
-444.429654007818730
 20
-176.243295757078610
 40
20.796999999999880
 50
185.001650270935330
 51
225.000000000000000
  0
ARC
  8
0
  6
CONTINUOUS
 62
4
 10
-417.057763420299350
 20
193.896501900833530
 40
390.797000000000030
 50
264.582036237639500
 51
270.000000000000000
  0
ARC
  8
0
  6
CONTINUOUS
 62
4
 10
-453.673728359317690
 20
-192.167980175133380
 40
3.000000000000346
 50
224.999999999996960
 51
264.582036237634270
  0
ARC
  8
0
  6
CONTINUOUS
 62
4
 10
-658.657763420299720
 20
-152.703498099166610
 40
290.797000000000140
 50
354.998349729065010
 51
0.000000000000000
  0
LINE
  8
0
  6
CONTINUOUS
 62
4
 10
-374.980173104443340
 20
-190.948995485415250
 11
-378.320478137721010
 21
-194.289300518693150
  0
ARC
  8
0
  6
CONTINUOUS
 62
4
 10
-389.685872832779980
 20
-176.243295757078610
 40
20.797000000000015
 50
315.000000000000000
 51
354.998349729064670
  0
ARC
  8
0
  6
CONTINUOUS
 62
4
 10
-417.057763420299350
 20
193.896501900833530
 40
390.797000000000030
 50
270.000000000000000
 51
275.417963762360500
  0
ARC
  8
0
  6
CONTINUOUS
 62
4
 10
-380.441798481281010
 20
-192.167980175133380
 40
3.000000000000067
 50
275.417963762365730
 51
315.000000000003070
  0
ARC
  8
0
  6
CONTINUOUS
 62
4
 10
-658.657763420299720
 20
-152.703498099166610
 40
290.797000000000480
 50
0.000000000000000
 51
5.752282731536622
  0
ARC
  8
0
  6
CONTINUOUS
 62
4
 10
-380.441798481281010
 20
-113.239016023199830
 40
3.000000000000346
 50
44.999999999996930
 51
84.582036237634313
  0
ARC
  8
0
  6
CONTINUOUS
 62
4
 10
-417.057763420299350
 20
-499.303498099166750
 40
390.797000000000030
 50
84.582036237639471
 51
90.000000000000000
  0
LINE
  8
0
  6
CONTINUOUS
 62
4
 10
-372.433064265681650
 20
-117.005109551680100
 11
-378.320478137721010
 21
-111.117695679640060
  0
ARC
  8
0
  6
CONTINUOUS
 62
3
 10
-456.488630420386700
 20
-107.281551356868240
 40
6.600000000000009
 50
95.743681810995099
 51
135.000000000002790
  0
ARC
  8
0
  6
CONTINUOUS
 62
3
 10
-456.488630420386700
 20
-198.125444841464970
 40
6.600000000000278
 50
224.999999999997190
 51
264.256318189004900
  0
ARC
  8
0
  6
CONTINUOUS
 62
3
 10
-377.626896420212010
 20
-198.125444841464970
 40
6.600000000000009
 50
275.743681810995100
 51
315.000000000002790
  0
ARC
  8
0
  6
CONTINUOUS
 62
3
 10
-377.626896420212010
 20
-107.281551356868240
 40
6.600000000000278
 50
44.999999999997215
 51
84.256318189004901
  0
ARC
  8
0
  6
CONTINUOUS
 62
3
 10
-417.057763420299350
 20
-499.303498099166750
 40
400.599999999999910
 50
90.000000000000000
 51
95.743681810993436
  0
ARC
  8
0
  6
CONTINUOUS
 62
3
 10
-417.057763420299350
 20
193.896501900833530
 40
400.599999999999910
 50
264.256318189006550
 51
270.000000000000000
  0
ARC
  8
0
  6
CONTINUOUS
 62
3
 10
-417.057763420299350
 20
193.896501900833530
 40
400.599999999999910
 50
270.000000000000000
 51
275.743681810993450
  0
ARC
  8
0
  6
CONTINUOUS
 62
3
 10
-417.057763420299350
 20
-499.303498099166750
 40
400.599999999999910
 50
84.256318189006564
 51
90.000000000000000
  0
ARC
  8
0
  6
CONTINUOUS
 62
3
 10
-175.457763420298990
 20
-152.703498099166610
 40
300.599999999999910
 50
174.247717268463390
 51
180.000000000000000
  0
ARC
  8
0
  6
CONTINUOUS
 62
3
 10
-175.457763420298990
 20
-152.703498099166610
 40
300.600000000000360
 50
180.000000000000000
 51
185.752282731536610
  0
ARC
  8
0
  6
CONTINUOUS
 62
3
 10
-658.657763420299720
 20
-152.703498099166610
 40
300.599999999999910
 50
354.247717268463420
 51
0.000000000000000
  0
ARC
  8
0
  6
CONTINUOUS
 62
3
 10
-658.657763420299720
 20
-152.703498099166610
 40
300.600000000000360
 50
0.000000000000000
 51
5.752282731536601
  0
ARC
  8
0
  6
CONTINUOUS
 62
3
 10
-420.557763420299350
 20
-187.528058397898350
 40
1.000000000000000
 50
0.000000000000000
 51
84.260829522738291
  0
ARC
  8
0
  6
CONTINUOUS
 62
3
 10
-420.557763420299350
 20
-190.541970584191630
 40
1.000000000000042
 50
264.715267045464260
 51
0.000000000000000
  0
ARC
  8
0
  6
CONTINUOUS
 62
3
 10
-420.557763420299350
 20
-181.995135130920290
 40
1.000000000000077
 50
263.186145655820330
 51
0.000000000000000
  0
LINE
  8
0
  6
CONTINUOUS
 62
3
 10
-419.557763420299350
 20
-190.541970584191630
 11
-419.557763420299350
 21
-187.528058397898350
  0
ARC
  8
0
  6
CONTINUOUS
 62
3
 10
-434.098692103672190
 20
-158.500630977425770
 40
0.999999999999885
 50
300.000000000003810
 51
18.787728582346993
  0
LINE
  8
0
  6
CONTINUOUS
 62
3
 10
-436.239927260728790
 20
-160.891574210129650
 11
-433.598692103672190
 21
-159.366656381210080
  0
ARC
  8
0
  6
CONTINUOUS
 62
3
 10
-436.739927260728790
 20
-160.025548806345340
 40
1.000000000000094
 50
200.405931773138690
 51
300.000000000003810
  0
ARC
  8
0
  6
CONTINUOUS
 62
3
 10
-441.556389752453700
 20
-162.806334722484960
 40
1.000000000000082
 50
299.999999999997270
 51
22.410457608146043
  0
ARC
  8
0
  6
CONTINUOUS
 62
3
 10
-448.966717314623790
 20
-167.084689335286840
 40
1.000000000000082
 50
299.999999999997270
 51
24.260829522733715
  0
LINE
  8
0
  6
CONTINUOUS
 62
3
 10
-443.675065208231220
 20
-165.184253105582460
 11
-441.056389752453700
 21
-163.672360126269500
  0
ARC
  8
0
  6
CONTINUOUS
 62
3
 10
-444.175065208231220
 20
-164.318227701797920
 40
0.999999999999730
 50
203.186145655819840
 51
299.999999999997270
  0
LINE
  8
0
  6
CONTINUOUS
 62
3
 10
-451.076841832729540
 20
-169.457670832217900
 11
-448.466717314623790
 21
-167.950714739071370
  0
ARC
  8
0
  6
CONTINUOUS
 62
3
 10
-451.576841832729540
 20
-168.591645428433590
 40
1.000000000000248
 50
204.715267045455480
 51
300.000000000003810
  0
ARC
  8
0
  6
CONTINUOUS
 62
3
 10
-448.076841832729540
 20
-174.653823254924870
 40
1.000000000000082
 50
119.999999999997270
 51
215.284732954534320
  0
ARC
  8
0
  6
CONTINUOUS
 62
3
 10
-445.466717314623790
 20
-173.146867161777890
 40
0.999999999999807
 50
35.739170477263521
 51
120.000000000003780
  0
ARC
  8
0
  6
CONTINUOUS
 62
3
 10
-420.557763420299350
 20
-178.971349172293910
 40
1.000000000000000
 50
0.000000000000000
 51
82.410457608145762
  0
ARC
  8
0
  6
CONTINUOUS
 62
3
 10
-440.675065208231220
 20
-170.380405528288750
 40
0.999999999999885
 50
120.000000000003780
 51
216.813854344197100
  0
ARC
  8
0
  6
CONTINUOUS
 62
3
 10
-438.056389752454150
 20
-168.868512548975790
 40
1.000000000000194
 50
37.589542391851793
 51
119.999999999997270
  0
ARC
  8
0
  6
CONTINUOUS
 62
3
 10
-420.557763420299350
 20
-173.409777340015130
 40
1.000000000000268
 50
260.405931773124510
 51
0.000000000000000
  0
ARC
  8
0
  6
CONTINUOUS
 62
3
 10
-420.557763420299350
 20
-170.359941682176210
 40
1.000000000000000
 50
0.000000000000000
 51
78.787728582355996
  0
ARC
  8
0
  6
CONTINUOUS
 62
3
 10
-433.239927260728340
 20
-166.087726632836390
 40
0.999999999999885
 50
120.000000000003780
 51
219.594068226860460
  0
ARC
  8
0
  6
CONTINUOUS
 62
3
 10
-430.598692103672190
 20
-164.562808803917050
 40
1.000000000000165
 50
41.212271417643841
 51
119.999999999997270
  0
ARC
  8
0
  6
CONTINUOUS
 62
3
 10
-425.700068265712840
 20
-161.734587012412020
 40
0.999999999999885
 50
120.000000000003780
 51
226.260204708328700
  0
ARC
  8
0
  6
CONTINUOUS
 62
3
 10
-420.557763420299350
 20
-164.703498099166610
 40
0.999999999999964
 50
253.739795291702650
 51
0.000000000000000
  0
ARC
  8
0
  6
CONTINUOUS
 62
3
 10
-420.557763420299350
 20
-161.535258965494450
 40
1.000000000000000
 50
0.000000000000000
 51
68.381727577838021
  0
ARC
  8
0
  6
CONTINUOUS
 62
3
 10
-422.956292690688540
 20
-160.150467445575940
 40
0.999999999999961
 50
51.618272422159777
 51
120.000000000003780
  0
ARC
  8
0
  6
CONTINUOUS
 62
3
 10
-417.057763420299350
 20
-152.703498099166610
 40
38.999999999999865
 50
215.284732954534800
 51
264.715267045465400
  0
ARC
  8
0
  6
CONTINUOUS
 62
3
 10
-417.057763420299350
 20
-152.703498099166610
 40
30.499999999999964
 50
216.813854344181070
 51
263.186145655818960
  0
ARC
  8
0
  6
CONTINUOUS
 62
3
 10
-417.057763420299350
 20
-152.703498099166610
 40
33.999999999999964
 50
215.739170477266950
 51
264.260829522733050
  0
ARC
  8
0
  6
CONTINUOUS
 62
3
 10
-417.057763420299350
 20
-152.703498099166610
 40
25.499999999999890
 50
217.589542391857950
 51
262.410457608141830
  0
ARC
  8
0
  6
CONTINUOUS
 62
3
 10
-417.057763420299350
 20
-152.703498099166610
 40
22.000000000000025
 50
219.594068226860800
 51
260.405931773138780
  0
ARC
  8
0
  6
CONTINUOUS
 62
3
 10
-417.057763420299350
 20
-152.703498099166610
 40
16.999999999999773
 50
221.212271417650780
 51
258.787728582349980
  0
ARC
  8
0
  6
CONTINUOUS
 62
3
 10
-417.057763420299350
 20
-152.703498099166610
 40
13.499999999999927
 50
226.260204708312130
 51
253.739795291689150
  0
ARC
  8
0
  6
CONTINUOUS
 62
3
 10
-417.057763420299350
 20
-152.703498099166610
 40
8.499999999999948
 50
231.618272422157330
 51
248.381727577842330
  0
LINE
  8
0
  6
CONTINUOUS
 62
3
 10
-441.175065208231220
 20
-169.514380124504440
 11
-438.556389752454150
 21
-168.002487145191250
  0
LINE
  8
0
  6
CONTINUOUS
 62
3
 10
-448.576841832729540
 20
-173.787797851140340
 11
-445.966717314623790
 21
-172.280841757993580
  0
LINE
  8
0
  6
CONTINUOUS
 62
3
 10
-433.739927260728340
 20
-165.221701229052090
 11
-431.098692103672190
 21
-163.696783400132520
  0
LINE
  8
0
  6
CONTINUOUS
 62
3
 10
-426.200068265712840
 20
-160.868561608627720
 11
-423.456292690688540
 21
-159.284442041791640
  0
LINE
  8
0
  6
CONTINUOUS
 62
3
 10
-419.557763420299350
 20
-164.703498099166610
 11
-419.557763420299350
 21
-161.535258965494450
  0
LINE
  8
0
  6
CONTINUOUS
 62
3
 10
-419.557763420299350
 20
-173.409777340015130
 11
-419.557763420299350
 21
-170.359941682176210
  0
LINE
  8
0
  6
CONTINUOUS
 62
3
 10
-419.557763420299350
 20
-181.995135130920290
 11
-419.557763420299350
 21
-178.971349172293910
  0
ARC
  8
0
  6
CONTINUOUS
 62
3
 10
-426.456292690688540
 20
-154.088289619085120
 40
0.999999999999885
 50
300.000000000003810
 51
8.381727577845549
  0
ARC
  8
0
  6
CONTINUOUS
 62
3
 10
-417.057763420299350
 20
-152.703498099166610
 40
8.499999999999972
 50
171.618272422157790
 51
188.381727577842210
  0
LINE
  8
0
  6
CONTINUOUS
 62
3
 10
-428.700068265712840
 20
-156.538434589705500
 11
-425.956292690688540
 21
-154.954315022869420
  0
ARC
  8
0
  6
CONTINUOUS
 62
3
 10
-429.200068265712840
 20
-155.672409185921200
 40
0.999999999999879
 50
193.739795291686050
 51
300.000000000003810
  0
ARC
  8
0
  6
CONTINUOUS
 62
3
 10
-420.557763420299350
 20
-135.047054516157000
 40
0.999999999999982
 50
281.212271417643990
 51
0.000000000000000
  0
LINE
  8
0
  6
CONTINUOUS
 62
3
 10
-419.557763420299350
 20
-131.997218858318090
 11
-419.557763420299350
 21
-135.047054516157000
  0
ARC
  8
0
  6
CONTINUOUS
 62
3
 10
-420.557763420299350
 20
-131.997218858318090
 40
1.000000000000000
 50
0.000000000000000
 51
99.594068226875478
  0
ARC
  8
0
  6
CONTINUOUS
 62
3
 10
-420.557763420299350
 20
-126.435647026039310
 40
0.999999999999749
 50
277.589542391855960
 51
0.000000000013028
  0
LINE
  8
0
  6
CONTINUOUS
 62
3
 10
-419.557763420299350
 20
-123.411861067412940
 11
-419.557763420299350
 21
-126.435647026039090
  0
ARC
  8
0
  6
CONTINUOUS
 62
3
 10
-420.557763420299350
 20
-123.411861067412940
 40
1.000000000000000
 50
0.000000000000000
 51
96.813854344179688
  0
ARC
  8
0
  6
CONTINUOUS
 62
3
 10
-420.557763420299350
 20
-117.878937800434860
 40
0.999999999999973
 50
275.739170477261670
 51
0.000000000000000
  0
LINE
  8
0
  6
CONTINUOUS
 62
3
 10
-419.557763420299350
 20
-114.865025614141580
 11
-419.557763420299350
 21
-117.878937800434860
  0
ARC
  8
0
  6
CONTINUOUS
 62
3
 10
-420.557763420299350
 20
-114.865025614141580
 40
1.000000000000000
 50
0.000000000000000
 51
95.284732954535698
  0
ARC
  8
0
  6
CONTINUOUS
 62
3
 10
-440.675065208231220
 20
-135.026590670044240
 40
0.999999999999774
 50
143.186145655813330
 51
240.000000000002730
  0
LINE
  8
0
  6
CONTINUOUS
 62
3
 10
-441.175065208231220
 20
-135.892616073828780
 11
-438.556389752453700
 21
-137.404509053141960
  0
ARC
  8
0
  6
CONTINUOUS
 62
3
 10
-438.056389752453700
 20
-136.538483649357430
 40
1.000000000000082
 50
240.000000000002730
 51
322.410457608132330
  0
ARC
  8
0
  6
CONTINUOUS
 62
3
 10
-448.076841832729540
 20
-130.753172943408570
 40
0.999999999999908
 50
144.715267045455050
 51
239.999999999996220
  0
LINE
  8
0
  6
CONTINUOUS
 62
3
 10
-448.576841832729540
 20
-131.619198347192880
 11
-445.966717314623790
 21
-133.126154440339630
  0
ARC
  8
0
  6
CONTINUOUS
 62
3
 10
-445.466717314623790
 20
-132.260129036555330
 40
0.999999999999885
 50
239.999999999996220
 51
324.260829522725940
  0
ARC
  8
0
  6
CONTINUOUS
 62
3
 10
-422.956292690688540
 20
-145.256528752757050
 40
1.000000000000082
 50
240.000000000002730
 51
308.381727577840190
  0
LINE
  8
0
  6
CONTINUOUS
 62
3
 10
-426.200068265712840
 20
-144.538434589705500
 11
-423.456292690688540
 21
-146.122554156541580
  0
ARC
  8
0
  6
CONTINUOUS
 62
3
 10
-430.598692103672190
 20
-140.844187394416390
 40
0.999999999999885
 50
239.999999999996220
 51
318.787728582348790
  0
LINE
  8
0
  6
CONTINUOUS
 62
3
 10
-433.739927260728340
 20
-140.185294969281130
 11
-431.098692103672190
 21
-141.710212798200700
  0
ARC
  8
0
  6
CONTINUOUS
 62
3
 10
-433.239927260728340
 20
-139.319269565496600
 40
1.000000000000173
 50
140.405931773149600
 51
240.000000000002730
  0
ARC
  8
0
  6
CONTINUOUS
 62
3
 10
-420.557763420299350
 20
-143.871737232838770
 40
1.000000000000090
 50
291.618272422161970
 51
0.000000000000000
  0
ARC
  8
0
  6
CONTINUOUS
 62
3
 10
-417.057763420299350
 20
-152.703498099166610
 40
8.499999999999904
 50
111.618272422157710
 51
128.381727577841670
  0
ARC
  8
0
  6
CONTINUOUS
 62
3
 10
-425.700068265712840
 20
-143.672409185921200
 40
0.999999999999858
 50
133.739795291671300
 51
239.999999999996220
  0
LINE
  8
0
  6
CONTINUOUS
 62
3
 10
-419.557763420299350
 20
-140.703498099166610
 11
-419.557763420299350
 21
-143.871737232838770
  0
ARC
  8
0
  6
CONTINUOUS
 62
3
 10
-420.557763420299350
 20
-140.703498099166610
 40
1.000000000000000
 50
0.000000000000000
 51
106.260204708297360
  0
ARC
  8
0
  6
CONTINUOUS
 62
3
 10
-417.057763420299350
 20
-152.703498099166610
 40
13.499999999999963
 50
106.260204708310860
 51
133.739795291687870
  0
ARC
  8
0
  6
CONTINUOUS
 62
3
 10
-417.057763420299350
 20
-152.703498099166610
 40
17.000000000000046
 50
101.212271417650010
 51
138.787728582350240
  0
ARC
  8
0
  6
CONTINUOUS
 62
3
 10
-417.057763420299350
 20
-152.703498099166610
 40
22.000000000000131
 50
99.594068226861211
 51
140.405931773139200
  0
ARC
  8
0
  6
CONTINUOUS
 62
3
 10
-417.057763420299350
 20
-152.703498099166610
 40
30.500000000000124
 50
96.813854344181038
 51
143.186145655818930
  0
ARC
  8
0
  6
CONTINUOUS
 62
3
 10
-417.057763420299350
 20
-152.703498099166610
 40
25.500000000000146
 50
97.589542391858117
 51
142.410457608142050
  0
ARC
  8
0
  6
CONTINUOUS
 62
3
 10
-417.057763420299350
 20
-152.703498099166610
 40
34.000000000000071
 50
95.739170477266924
 51
144.260829522733360
  0
ARC
  8
0
  6
CONTINUOUS
 62
3
 10
-417.057763420299350
 20
-152.703498099166610
 40
38.999999999999986
 50
95.284732954534590
 51
144.715267045465200
  0
ARC
  8
0
  6
CONTINUOUS
 62
3
 10
-444.175065208231220
 20
-141.088768496535290
 40
1.000000000000082
 50
60.000000000002721
 51
156.813854344180160
  0
LINE
  8
0
  6
CONTINUOUS
 62
3
 10
-443.675065208231220
 20
-140.222743092750760
 11
-441.056389752453700
 21
-141.734636072063950
  0
ARC
  8
0
  6
CONTINUOUS
 62
3
 10
-441.556389752453700
 20
-142.600661475848480
 40
0.999999999999701
 50
337.589542391853970
 51
60.000000000002721
  0
ARC
  8
0
  6
CONTINUOUS
 62
3
 10
-451.576841832729540
 20
-136.815350769899620
 40
1.000000000000082
 50
60.000000000002721
 51
155.284732954544520
  0
LINE
  8
0
  6
CONTINUOUS
 62
3
 10
-451.076841832729540
 20
-135.949325366115090
 11
-448.466717314623790
 21
-137.456281459261850
  0
ARC
  8
0
  6
CONTINUOUS
 62
3
 10
-448.966717314623790
 20
-138.322306863046150
 40
0.999999999999863
 50
335.739170477254390
 51
59.999999999996206
  0
ARC
  8
0
  6
CONTINUOUS
 62
3
 10
-426.456292690688540
 20
-151.318706579248330
 40
1.000000000000026
 50
351.618272422167310
 51
60.000000000002721
  0
LINE
  8
0
  6
CONTINUOUS
 62
3
 10
-428.700068265712840
 20
-148.868561608627720
 11
-425.956292690688540
 21
-150.452681175463790
  0
ARC
  8
0
  6
CONTINUOUS
 62
3
 10
-434.098692103672190
 20
-146.906365220907450
 40
1.000000000000076
 50
341.212271417652970
 51
60.000000000002721
  0
LINE
  8
0
  6
CONTINUOUS
 62
3
 10
-436.239927260728790
 20
-144.515421988203570
 11
-433.598692103672190
 21
-146.040339817122910
  0
ARC
  8
0
  6
CONTINUOUS
 62
3
 10
-436.739927260728790
 20
-145.381447391987880
 40
0.999999999999885
 50
59.999999999996206
 51
159.594068226861310
  0
ARC
  8
0
  6
CONTINUOUS
 62
3
 10
-429.200068265712840
 20
-149.734587012412020
 40
0.999999999999885
 50
59.999999999996206
 51
166.260204708307780
  0
ARC
  8
0
  6
CONTINUOUS
 62
3
 10
-417.057763420299350
 20
-152.703498099166610
 40
13.499999999999687
 50
166.260204708311360
 51
193.739795291688180
  0
ARC
  8
0
  6
CONTINUOUS
 62
3
 10
-417.057763420299350
 20
-152.703498099166610
 40
16.999999999999716
 50
161.212271417649560
 51
198.787728582350440
  0
ARC
  8
0
  6
CONTINUOUS
 62
3
 10
-417.057763420299350
 20
-152.703498099166610
 40
22.000000000000206
 50
159.594068226860770
 51
200.405931773139230
  0
ARC
  8
0
  6
CONTINUOUS
 62
3
 10
-417.057763420299350
 20
-152.703498099166610
 40
30.499999999999947
 50
156.813854344181150
 51
203.186145655818850
  0
ARC
  8
0
  6
CONTINUOUS
 62
3
 10
-417.057763420299350
 20
-152.703498099166610
 40
25.500000000000000
 50
157.589542391857980
 51
202.410457608142480
  0
ARC
  8
0
  6
CONTINUOUS
 62
3
 10
-417.057763420299350
 20
-152.703498099166610
 40
34.000000000000007
 50
155.739170477266780
 51
204.260829522733220
  0
ARC
  8
0
  6
CONTINUOUS
 62
3
 10
-417.057763420299350
 20
-152.703498099166610
 40
39.000000000000220
 50
155.284732954534800
 51
204.715267045465200
  0
LINE
  8
0
  6
CONTINUOUS
 62
3
 10
-414.557763420299350
 20
-181.995135130920290
 11
-414.557763420299350
 21
-178.971349172293910
  0
LINE
  8
0
  6
CONTINUOUS
 62
3
 10
-414.557763420299350
 20
-173.409777340015130
 11
-414.557763420299350
 21
-170.359941682176210
  0
LINE
  8
0
  6
CONTINUOUS
 62
3
 10
-414.557763420299350
 20
-164.703498099166610
 11
-414.557763420299350
 21
-161.535258965494450
  0
LINE
  8
0
  6
CONTINUOUS
 62
3
 10
-407.915458574885860
 20
-160.868561608627720
 11
-410.659234149910160
 21
-159.284442041791640
  0
LINE
  8
0
  6
CONTINUOUS
 62
3
 10
-400.375599579870370
 20
-165.221701229052090
 11
-403.016834736926510
 21
-163.696783400132520
  0
LINE
  8
0
  6
CONTINUOUS
 62
3
 10
-385.538685007869160
 20
-173.787797851140340
 11
-388.148809525974910
 21
-172.280841757993580
  0
LINE
  8
0
  6
CONTINUOUS
 62
3
 10
-414.557763420299350
 20
-190.541970584191630
 11
-414.557763420299350
 21
-187.528058397898350
  0
LINE
  8
0
  6
CONTINUOUS
 62
3
 10
-392.940461632367490
 20
-169.514380124504440
 11
-395.559137088144550
 21
-168.002487145191250
  0
ARC
  8
0
  6
CONTINUOUS
 62
3
 10
-417.057763420299350
 20
-152.703498099166610
 40
8.499999999999904
 50
291.618272422157700
 51
308.381727577842640
  0
ARC
  8
0
  6
CONTINUOUS
 62
3
 10
-417.057763420299350
 20
-152.703498099166610
 40
13.499999999999963
 50
286.260204708310820
 51
313.739795291687870
  0
ARC
  8
0
  6
CONTINUOUS
 62
3
 10
-417.057763420299350
 20
-152.703498099166610
 40
17.000000000000046
 50
281.212271417650020
 51
318.787728582350210
  0
ARC
  8
0
  6
CONTINUOUS
 62
3
 10
-417.057763420299350
 20
-152.703498099166610
 40
22.000000000000131
 50
279.594068226861170
 51
320.405931773139170
  0
ARC
  8
0
  6
CONTINUOUS
 62
3
 10
-417.057763420299350
 20
-152.703498099166610
 40
25.499999999999932
 50
277.589542391858170
 51
322.410457608142050
  0
ARC
  8
0
  6
CONTINUOUS
 62
3
 10
-417.057763420299350
 20
-152.703498099166610
 40
34.000000000000071
 50
275.739170477266950
 51
324.260829522733050
  0
ARC
  8
0
  6
CONTINUOUS
 62
3
 10
-417.057763420299350
 20
-152.703498099166610
 40
30.500000000000135
 50
276.813854344181040
 51
323.186145655818900
  0
ARC
  8
0
  6
CONTINUOUS
 62
3
 10
-417.057763420299350
 20
-152.703498099166610
 40
38.999999999999986
 50
275.284732954534600
 51
324.715267045465230
  0
ARC
  8
0
  6
CONTINUOUS
 62
3
 10
-411.159234149910160
 20
-160.150467445575940
 40
0.999999999999885
 50
59.999999999996206
 51
128.381727577840220
  0
ARC
  8
0
  6
CONTINUOUS
 62
3
 10
-413.557763420299350
 20
-161.535258965494450
 40
1.000000000000090
 50
111.618272422161970
 51
180.000000000000000
  0
ARC
  8
0
  6
CONTINUOUS
 62
3
 10
-413.557763420299350
 20
-164.703498099166610
 40
1.000000000000000
 50
180.000000000000000
 51
286.260204708297350
  0
ARC
  8
0
  6
CONTINUOUS
 62
3
 10
-408.415458574885860
 20
-161.734587012412020
 40
0.999999999999858
 50
313.739795291671330
 51
59.999999999996206
  0
ARC
  8
0
  6
CONTINUOUS
 62
3
 10
-403.516834736926510
 20
-164.562808803917050
 40
1.000000000000082
 50
60.000000000002721
 51
138.787728582338990
  0
ARC
  8
0
  6
CONTINUOUS
 62
3
 10
-400.875599579870370
 20
-166.087726632836390
 40
1.000000000000318
 50
320.405931773139570
 51
59.999999999996206
  0
ARC
  8
0
  6
CONTINUOUS
 62
3
 10
-413.557763420299350
 20
-170.359941682176210
 40
0.999999999999982
 50
101.212271417644000
 51
180.000000000000000
  0
ARC
  8
0
  6
CONTINUOUS
 62
3
 10
-413.557763420299350
 20
-173.409777340015130
 40
1.000000000000000
 50
180.000000000000000
 51
279.594068226875490
  0
ARC
  8
0
  6
CONTINUOUS
 62
3
 10
-413.557763420299350
 20
-181.995135130920290
 40
1.000000000000000
 50
180.000000000000000
 51
276.813854344179670
  0
ARC
  8
0
  6
CONTINUOUS
 62
3
 10
-396.059137088144550
 20
-168.868512548975790
 40
1.000000000000082
 50
60.000000000002721
 51
142.410457608148220
  0
ARC
  8
0
  6
CONTINUOUS
 62
3
 10
-393.440461632367490
 20
-170.380405528288750
 40
0.999999999999911
 50
323.186145655802870
 51
59.999999999996206
  0
ARC
  8
0
  6
CONTINUOUS
 62
3
 10
-413.557763420299350
 20
-178.971349172293910
 40
0.999999999999975
 50
97.589542391854238
 51
180.000000000000000
  0
ARC
  8
0
  6
CONTINUOUS
 62
3
 10
-413.557763420299350
 20
-190.541970584191630
 40
1.000000000000000
 50
180.000000000000000
 51
275.284732954535740
  0
ARC
  8
0
  6
CONTINUOUS
 62
3
 10
-413.557763420299350
 20
-187.528058397898350
 40
0.999999999999973
 50
95.739170477261709
 51
180.000000000000000
  0
ARC
  8
0
  6
CONTINUOUS
 62
3
 10
-388.648809525974910
 20
-173.146867161777890
 40
0.999999999999885
 50
59.999999999996206
 51
144.260829522736490
  0
ARC
  8
0
  6
CONTINUOUS
 62
3
 10
-386.038685007869160
 20
-174.653823254924870
 40
0.999999999999776
 50
324.715267045465680
 51
60.000000000002721
  0
CIRCLE
  8
0
  6
CONTINUOUS
 62
3
 10
-417.057763420299350
 20
-152.703498099166610
 40
5.000000000000000
  0
ARC
  8
0
  6
CONTINUOUS
 62
3
 10
-382.538685007869160
 20
-168.591645428433590
 40
0.999999999999885
 50
239.999999999996220
 51
335.284732954544490
  0
LINE
  8
0
  6
CONTINUOUS
 62
3
 10
-383.038685007869160
 20
-169.457670832217900
 11
-385.648809525974910
 21
-167.950714739071370
  0
ARC
  8
0
  6
CONTINUOUS
 62
3
 10
-417.057763420299350
 20
-152.703498099166610
 40
39.000000000000220
 50
335.284732954534830
 51
24.715267045465190
  0
ARC
  8
0
  6
CONTINUOUS
 62
3
 10
-417.057763420299350
 20
-152.703498099166610
 40
34.000000000000007
 50
335.739170477266780
 51
24.260829522733218
  0
ARC
  8
0
  6
CONTINUOUS
 62
3
 10
-417.057763420299350
 20
-152.703498099166610
 40
25.500000000000085
 50
337.589542391857490
 51
22.410457608142021
  0
ARC
  8
0
  6
CONTINUOUS
 62
3
 10
-417.057763420299350
 20
-152.703498099166610
 40
30.499999999999947
 50
336.813854344181150
 51
23.186145655818844
  0
ARC
  8
0
  6
CONTINUOUS
 62
3
 10
-389.940461632367490
 20
-164.318227701797920
 40
1.000000000000082
 50
240.000000000002730
 51
336.813854344180130
  0
LINE
  8
0
  6
CONTINUOUS
 62
3
 10
-390.440461632367490
 20
-165.184253105582460
 11
-393.059137088145010
 21
-163.672360126269500
  0
ARC
  8
0
  6
CONTINUOUS
 62
3
 10
-417.057763420299350
 20
-152.703498099166610
 40
22.000000000000206
 50
339.594068226860770
 51
20.405931773139226
  0
ARC
  8
0
  6
CONTINUOUS
 62
3
 10
-385.148809525974910
 20
-167.084689335286840
 40
0.999999999999769
 50
155.739170477266270
 51
240.000000000002730
  0
ARC
  8
0
  6
CONTINUOUS
 62
3
 10
-392.559137088145010
 20
-162.806334722484960
 40
0.999999999999701
 50
157.589542391853940
 51
240.000000000002730
  0
ARC
  8
0
  6
CONTINUOUS
 62
3
 10
-397.375599579869910
 20
-160.025548806345340
 40
0.999999999999885
 50
239.999999999996220
 51
339.594068226861340
  0
ARC
  8
0
  6
CONTINUOUS
 62
3
 10
-417.057763420299350
 20
-152.703498099166610
 40
17.000000000000146
 50
341.212271417650070
 51
18.787728582350418
  0
LINE
  8
0
  6
CONTINUOUS
 62
3
 10
-397.875599579869910
 20
-160.891574210129650
 11
-400.516834736926510
 21
-159.366656381210080
  0
ARC
  8
0
  6
CONTINUOUS
 62
3
 10
-400.016834736926510
 20
-158.500630977425770
 40
0.999999999999646
 50
161.212271417644620
 51
239.999999999996220
  0
ARC
  8
0
  6
CONTINUOUS
 62
3
 10
-417.057763420299350
 20
-152.703498099166610
 40
13.500000000000130
 50
346.260204708311850
 51
13.739795291688171
  0
ARC
  8
0
  6
CONTINUOUS
 62
3
 10
-404.915458574885860
 20
-155.672409185921200
 40
0.999999999999885
 50
239.999999999996220
 51
346.260204708314010
  0
LINE
  8
0
  6
CONTINUOUS
 62
3
 10
-405.415458574885860
 20
-156.538434589705500
 11
-408.159234149910160
 21
-154.954315022869420
  0
ARC
  8
0
  6
CONTINUOUS
 62
3
 10
-404.915458574885860
 20
-149.734587012412020
 40
0.999999999999879
 50
13.739795291686027
 51
120.000000000003780
  0
ARC
  8
0
  6
CONTINUOUS
 62
3
 10
-417.057763420299350
 20
-152.703498099166610
 40
8.499999999999972
 50
351.618272422157820
 51
8.381727577842204
  0
ARC
  8
0
  6
CONTINUOUS
 62
3
 10
-407.659234149910160
 20
-154.088289619085120
 40
1.000000000000059
 50
171.618272422154460
 51
239.999999999996220
  0
ARC
  8
0
  6
CONTINUOUS
 62
3
 10
-397.375599579869910
 20
-145.381447391987880
 40
1.000000000000094
 50
20.405931773138686
 51
120.000000000003780
  0
LINE
  8
0
  6
CONTINUOUS
 62
3
 10
-397.875599579869910
 20
-144.515421988203570
 11
-400.516834736926510
 21
-146.040339817122910
  0
ARC
  8
0
  6
CONTINUOUS
 62
3
 10
-400.016834736926510
 20
-146.906365220907450
 40
1.000000000000082
 50
119.999999999997270
 51
198.787728582347000
  0
LINE
  8
0
  6
CONTINUOUS
 62
3
 10
-405.415458574885860
 20
-148.868561608627720
 11
-408.159234149910160
 21
-150.452681175463790
  0
ARC
  8
0
  6
CONTINUOUS
 62
3
 10
-407.659234149910160
 20
-151.318706579248330
 40
1.000000000000082
 50
119.999999999997270
 51
188.381727577832660
  0
ARC
  8
0
  6
CONTINUOUS
 62
3
 10
-385.148809525974910
 20
-138.322306863046150
 40
0.999999999999885
 50
120.000000000003780
 51
204.260829522745610
  0
LINE
  8
0
  6
CONTINUOUS
 62
3
 10
-383.038685007869160
 20
-135.949325366115090
 11
-385.648809525974910
 21
-137.456281459261850
  0
ARC
  8
0
  6
CONTINUOUS
 62
3
 10
-382.538685007869160
 20
-136.815350769899620
 40
1.000000000000248
 50
24.715267045455477
 51
119.999999999997270
  0
ARC
  8
0
  6
CONTINUOUS
 62
3
 10
-392.559137088145010
 20
-142.600661475848480
 40
1.000000000000082
 50
119.999999999997270
 51
202.410457608146060
  0
LINE
  8
0
  6
CONTINUOUS
 62
3
 10
-390.440461632367490
 20
-140.222743092750760
 11
-393.059137088145010
 21
-141.734636072063950
  0
ARC
  8
0
  6
CONTINUOUS
 62
3
 10
-389.940461632367490
 20
-141.088768496535290
 40
0.999999999999730
 50
23.186145655819850
 51
119.999999999997270
  0
ARC
  8
0
  6
CONTINUOUS
 62
3
 10
-417.057763420299350
 20
-152.703498099166610
 40
38.999999999999865
 50
35.284732954534789
 51
84.715267045465410
  0
ARC
  8
0
  6
CONTINUOUS
 62
3
 10
-417.057763420299350
 20
-152.703498099166610
 40
33.999999999999829
 50
35.739170477266640
 51
84.260829522733076
  0
ARC
  8
0
  6
CONTINUOUS
 62
3
 10
-417.057763420299350
 20
-152.703498099166610
 40
25.499999999999890
 50
37.589542391857961
 51
82.410457608141883
  0
ARC
  8
0
  6
CONTINUOUS
 62
3
 10
-417.057763420299350
 20
-152.703498099166610
 40
30.499999999999964
 50
36.813854344181067
 51
83.186145655818962
  0
ARC
  8
0
  6
CONTINUOUS
 62
3
 10
-417.057763420299350
 20
-152.703498099166610
 40
22.000000000000025
 50
39.594068226860820
 51
80.405931773138789
  0
ARC
  8
0
  6
CONTINUOUS
 62
3
 10
-417.057763420299350
 20
-152.703498099166610
 40
17.000000000000114
 50
41.212271417649760
 51
78.787728582349985
  0
ARC
  8
0
  6
CONTINUOUS
 62
3
 10
-417.057763420299350
 20
-152.703498099166610
 40
13.499999999999927
 50
46.260204708312145
 51
73.739795291689134
  0
ARC
  8
0
  6
CONTINUOUS
 62
3
 10
-413.557763420299350
 20
-140.703498099166610
 40
0.999999999999964
 50
73.739795291702634
 51
180.000000000000000
  0
LINE
  8
0
  6
CONTINUOUS
 62
3
 10
-414.557763420299350
 20
-140.703498099166610
 11
-414.557763420299350
 21
-143.871737232838770
  0
ARC
  8
0
  6
CONTINUOUS
 62
3
 10
-408.415458574885860
 20
-143.672409185921200
 40
0.999999999999885
 50
300.000000000003810
 51
46.260204708328693
  0
ARC
  8
0
  6
CONTINUOUS
 62
3
 10
-417.057763420299350
 20
-152.703498099166610
 40
8.500000000000128
 50
51.618272422158320
 51
68.381727577842284
  0
ARC
  8
0
  6
CONTINUOUS
 62
3
 10
-413.557763420299350
 20
-143.871737232838770
 40
1.000000000000000
 50
180.000000000000000
 51
248.381727577838030
  0
ARC
  8
0
  6
CONTINUOUS
 62
3
 10
-400.875599579870370
 20
-139.319269565496600
 40
1.000000000000082
 50
299.999999999997270
 51
39.594068226850403
  0
LINE
  8
0
  6
CONTINUOUS
 62
3
 10
-400.375599579870370
 20
-140.185294969281130
 11
-403.016834736926510
 21
-141.710212798200700
  0
ARC
  8
0
  6
CONTINUOUS
 62
3
 10
-403.516834736926510
 20
-140.844187394416390
 40
0.999999999999673
 50
221.212271417651210
 51
300.000000000003810
  0
LINE
  8
0
  6
CONTINUOUS
 62
3
 10
-407.915458574885860
 20
-144.538434589705500
 11
-410.659234149910160
 21
-146.122554156541580
  0
ARC
  8
0
  6
CONTINUOUS
 62
3
 10
-411.159234149910160
 20
-145.256528752757050
 40
0.999999999999961
 50
231.618272422159780
 51
299.999999999997270
  0
ARC
  8
0
  6
CONTINUOUS
 62
3
 10
-388.648809525974910
 20
-132.260129036555330
 40
0.999999999999940
 50
215.739170477274090
 51
300.000000000003810
  0
LINE
  8
0
  6
CONTINUOUS
 62
3
 10
-385.538685007869160
 20
-131.619198347192880
 11
-388.148809525974910
 21
-133.126154440339630
  0
ARC
  8
0
  6
CONTINUOUS
 62
3
 10
-386.038685007869160
 20
-130.753172943408570
 40
0.999999999999885
 50
300.000000000003810
 51
35.284732954544943
  0
ARC
  8
0
  6
CONTINUOUS
 62
3
 10
-396.059137088145010
 20
-136.538483649357430
 40
0.999999999999834
 50
217.589542391867670
 51
299.999999999997270
  0
LINE
  8
0
  6
CONTINUOUS
 62
3
 10
-392.940461632367490
 20
-135.892616073828780
 11
-395.559137088145010
 21
-137.404509053141960
  0
ARC
  8
0
  6
CONTINUOUS
 62
3
 10
-393.440461632367490
 20
-135.026590670044240
 40
1.000000000000082
 50
299.999999999997270
 51
36.813854344186687
  0
ARC
  8
0
  6
CONTINUOUS
 62
3
 10
-413.557763420299350
 20
-114.865025614141580
 40
1.000000000000042
 50
84.715267045464302
 51
180.000000000000000
  0
LINE
  8
0
  6
CONTINUOUS
 62
3
 10
-414.557763420299350
 20
-114.865025614141580
 11
-414.557763420299350
 21
-117.878937800434860
  0
ARC
  8
0
  6
CONTINUOUS
 62
3
 10
-413.557763420299350
 20
-117.878937800434860
 40
1.000000000000000
 50
180.000000000000000
 51
264.260829522738280
  0
ARC
  8
0
  6
CONTINUOUS
 62
3
 10
-413.557763420299350
 20
-123.411861067412940
 40
1.000000000000077
 50
83.186145655820312
 51
180.000000000000000
  0
LINE
  8
0
  6
CONTINUOUS
 62
3
 10
-414.557763420299350
 20
-123.411861067412940
 11
-414.557763420299350
 21
-126.435647026039090
  0
ARC
  8
0
  6
CONTINUOUS
 62
3
 10
-413.557763420299350
 20
-126.435647026039310
 40
1.000000000000000
 50
179.999999999986980
 51
262.410457608144040
  0
ARC
  8
0
  6
CONTINUOUS
 62
3
 10
-413.557763420299350
 20
-131.997218858318090
 40
1.000000000000268
 50
80.405931773124522
 51
180.000000000000000
  0
LINE
  8
0
  6
CONTINUOUS
 62
3
 10
-414.557763420299350
 20
-131.997218858318090
 11
-414.557763420299350
 21
-135.047054516157000
  0
ARC
  8
0
  6
CONTINUOUS
 62
3
 10
-413.557763420299350
 20
-135.047054516157000
 40
1.000000000000000
 50
180.000000000000000
 51
258.787728582356010
  0
LINE
  8
0
  6
CONTINUOUS
 62
3
 10
-468.614230350889330
 20
-110.073341775708740
 11
-461.155535176218340
 21
-102.614646601037060
  0
LINE
  8
0
  6
CONTINUOUS
 62
3
 10
-468.614230350889330
 20
-195.333654422624480
 11
-461.155535176218340
 21
-202.792349597296150
  0
LINE
  8
0
  6
CONTINUOUS
 62
3
 10
-365.501296489709380
 20
-195.333654422624480
 11
-372.959991664380370
 21
-202.792349597296150
  0
LINE
  8
0
  6
CONTINUOUS
 62
3
 10
-365.501296489709380
 20
-110.073341775708740
 11
-372.959991664380370
 21
-102.614646601037060
  0
ARC
  8
0
  6
CONTINUOUS
 62
3
 10
-454.047830658445720
 20
-124.639741468151000
 40
20.600000000000080
 50
135.000000000002640
 51
174.247717268463500
  0
ARC
  8
0
  6
CONTINUOUS
 62
3
 10
-454.047830658445720
 20
-180.767254730182230
 40
20.599999999999916
 50
185.752282731536500
 51
224.999999999997330
  0
ARC
  8
0
  6
CONTINUOUS
 62
3
 10
-380.067696182152990
 20
-180.767254730182230
 40
20.600000000000069
 50
315.000000000002670
 51
354.247717268463480
  0
ARC
  8
0
  6
CONTINUOUS
 62
3
 10
-380.067696182152990
 20
-124.639741468151000
 40
20.599999999999916
 50
5.752282731536487
 51
44.999999999997357
  0
ARC
  8
0
  6
CONTINUOUS
 62
4
 10
-380.067696182152990
 20
-124.639741468151000
 40
10.797000000000011
 50
5.752282731536912
 51
44.999999999998352
  0
ARC
  8
0
  6
CONTINUOUS
 62
3
 10
-430.557763420299120
 20
-190.703498099168770
 40
70.000000000000014
 50
247.587752663374630
 51
270.000000000000000
  0
ARC
  8
0
  6
CONTINUOUS
 62
3
 10
-403.557763420299120
 20
-190.703498099168770
 40
70.000000000000014
 50
292.412247336625740
 51
0.000000000000000
  0
LINE
  8
0
  6
CONTINUOUS
 62
3
 10
182.017148142629370
 20
-266.806680169191170
 11
218.639296381088340
 21
-268.085553766118210
  0
ARC
  8
0
  6
CONTINUOUS
 62
3
 10
223.017148092810880
 20
-266.893005853065920
 40
3.000000000000000
 50
180.000000000000000
 51
226.186939148152190
  0
ARC
  8
0
  6
CONTINUOUS
 62
3
 10
218.517148142629370
 20
-271.583421660685420
 40
3.500000000000175
 50
46.186939148157336
 51
87.999999999996561
  0
ARC
  8
0
  6
CONTINUOUS
 62
3
 10
218.517148142629370
 20
-271.583421660685420
 40
3.500000000000000
 50
0.000000000000000
 51
46.186939148157336
  0
ARC
  8
0
  6
CONTINUOUS
 62
3
 10
218.372946634541900
 20
-265.074423995118200
 40
3.000000000000000
 50
180.000000000000000
 51
267.999999999996650
  0
ARC
  8
0
  6
CONTINUOUS
 62
3
 10
183.502946634542010
 20
-263.856736762941180
 40
3.000000000000000
 50
180.000000000000000
 51
267.999999999996650
  0
LINE
  8
0
  6
DASHDOT
 62
4
 10
204.017161794761480
 20
-262.185536109578610
 11
204.017161794761480
 21
-295.655489995298010
  0
LINE
  8
0
  6
CONTINUOUS
 62
3
 10
222.017148142629370
 20
-271.583421660685420
 11
222.017148142629370
 21
-290.203524663266760
  0
ARC
  8
0
  6
CONTINUOUS
 62
3
 10
221.017167111140000
 20
-103.203498074257360
 40
1.000000024909241
 50
180.000000000000000
 51
270.000000000000000
  0
LINE
  8
0
  6
CONTINUOUS
 62
3
 10
222.017167136050150
 20
-104.203498099166600
 11
222.017167136050150
 21
-145.203498099166610
  0
LINE
  8
0
  6
CONTINUOUS
 62
3
 10
220.017148092810880
 20
-145.203498099166610
 11
220.017148092810880
 21
-266.893005853065920
  0
ARC
  8
0
  6
CONTINUOUS
 62
3
 10
155.737945132260170
 20
-136.327194034949570
 40
74.999999999999901
 50
31.668452967610172
 51
88.999999999999616
  0
LINE
  8
0
  6
CONTINUOUS
 62
3
 10
220.017167086229850
 20
-98.526969740427376
 11
220.017167086229850
 21
-145.203498099166610
  0
ARC
  8
0
  6
CONTINUOUS
 62
3
 10
217.017167086229850
 20
-98.526969740427376
 40
3.000000000000000
 50
0.000000000000000
 51
31.668452967603624
  0
ARC
  8
0
  6
CONTINUOUS
 62
3
 10
221.017167111140000
 20
-187.203498124075850
 40
1.000000024909241
 50
90.000000000000000
 51
180.000000000000000
  0
LINE
  8
0
  6
CONTINUOUS
 62
3
 10
222.017167136050150
 20
-186.203498099166610
 11
222.017167136050150
 21
-145.203498099166610
  0
POLYLINE
  8
0
  6
CONTINUOUS
 62
3
 66
1
  0
VERTEX
  8
0
  6
CONTINUOUS
 62
3
 10
215.372946634541510
 20
-145.203498099166610
  0
VERTEX
  8
0
  6
CONTINUOUS
 62
3
 10
215.037937998371830
 20
-141.301691658844050
  0
VERTEX
  8
0
  6
CONTINUOUS
 62
3
 10
214.045786283875800
 20
-137.549829451864810
  0
VERTEX
  8
0
  6
CONTINUOUS
 62
3
 10
212.434619325036380
 20
-134.092093438774550
  0
VERTEX
  8
0
  6
CONTINUOUS
 62
3
 10
210.266353364528950
 20
-131.061362475435660
  0
VERTEX
  8
0
  6
CONTINUOUS
 62
3
 10
207.624313647238270
 20
-128.574105853115700
  0
VERTEX
  8
0
  6
CONTINUOUS
 62
3
 10
204.610032277826830
 20
-126.725907448940880
  0
VERTEX
  8
0
  6
CONTINUOUS
 62
3
 10
201.339346398892700
 20
-125.587792491102000
  0
VERTEX
  8
0
  6
CONTINUOUS
 62
3
 10
197.937946634541500
 20
-125.203498099166600
  0
VERTEX
  8
0
  6
CONTINUOUS
 62
3
 10
194.536546870190310
 20
-125.587792491102000
  0
VERTEX
  8
0
  6
CONTINUOUS
 62
3
 10
191.265860991256180
 20
-126.725907448940880
  0
VERTEX
  8
0
  6
CONTINUOUS
 62
3
 10
188.251579621844740
 20
-128.574105853115730
  0
VERTEX
  8
0
  6
CONTINUOUS
 62
3
 10
185.609539904554050
 20
-131.061362475435660
  0
VERTEX
  8
0
  6
CONTINUOUS
 62
3
 10
183.441273944046630
 20
-134.092093438774550
  0
VERTEX
  8
0
  6
CONTINUOUS
 62
3
 10
181.830106985207240
 20
-137.549829451864810
  0
VERTEX
  8
0
  6
CONTINUOUS
 62
3
 10
180.837955270711180
 20
-141.301691658844050
  0
VERTEX
  8
0
  6
CONTINUOUS
 62
3
 10
180.502946634541500
 20
-145.203498099166610
  0
SEQEND
  8
0
  6
CONTINUOUS
 62
3
  0
LINE
  8
0
  6
CONTINUOUS
 62
3
 10
215.372946634541900
 20
-145.203498099166610
 11
215.372946634541900
 21
-265.074423995118200
  0
LINE
  8
0
  6
CONTINUOUS
 62
3
 10
180.502946634542010
 20
-145.203498099166610
 11
180.502946634542010
 21
-263.856736762941180
  0
LINE
  8
0
  6
CONTINUOUS
 62
3
 10
221.017167111140000
 20
-104.203498099166600
 11
222.017167136050150
 21
-104.203498099166600
  0
LINE
  8
0
  6
CONTINUOUS
 62
3
 10
221.017167111140000
 20
-186.203498099166610
 11
222.017167136050150
 21
-186.203498099166610
  0
ARC
  8
0
  6
CONTINUOUS
 62
3
 10
283.617167136049150
 20
-164.803498099166970
 40
0.399999999999636
 50
270.000000000000000
 51
0.000000000000000
  0
LINE
  8
0
  6
CONTINUOUS
 62
3
 10
284.017167136049240
 20
-145.203498099166610
 11
284.017167136049240
 21
-164.803498099166970
  0
LINE
  8
0
  6
CONTINUOUS
 62
3
 10
227.076981883053350
 20
-165.203498099166610
 11
226.517174261917940
 21
-165.053498099166970
  0
LINE
  8
0
  6
CONTINUOUS
 62
3
 10
283.617167136049150
 20
-165.203498099166610
 11
227.076981883053800
 21
-165.203498099166610
  0
LINE
  8
0
  6
CONTINUOUS
 62
3
 10
224.017167136049240
 20
-145.203498099166610
 11
224.017167136049240
 21
-167.303498099166970
  0
LINE
  8
0
  6
CONTINUOUS
 62
3
 10
223.617167136049150
 20
-167.703498099166610
 11
224.017167136049240
 21
-167.303498099166970
  0
LINE
  8
0
  6
CONTINUOUS
 62
3
 10
226.517174261917940
 20
-165.053498099166970
 11
225.617167136049150
 21
-165.053498099166970
  0
ARC
  8
0
  6
CONTINUOUS
 62
3
 10
225.617167136049150
 20
-166.653498099166430
 40
1.599999999999454
 50
90.000000000000000
 51
180.000000000000000
  0
LINE
  8
0
  6
CONTINUOUS
 62
3
 10
227.076981883053350
 20
-125.203498099166600
 11
226.517174261917940
 21
-125.353498099167150
  0
LINE
  8
0
  6
CONTINUOUS
 62
3
 10
224.017167136049240
 20
-145.203498099166610
 11
224.017167136049240
 21
-123.103498099167150
  0
LINE
  8
0
  6
CONTINUOUS
 62
3
 10
223.617167136049150
 20
-122.703498099166600
 11
224.017167136049240
 21
-123.103498099167150
  0
LINE
  8
0
  6
CONTINUOUS
 62
3
 10
226.517174261917940
 20
-125.353498099167150
 11
225.617167136049150
 21
-125.353498099167150
  0
ARC
  8
0
  6
CONTINUOUS
 62
3
 10
225.617167136049150
 20
-123.753498099166790
 40
1.599999999999909
 50
180.000000000000000
 51
270.000000000000000
  0
LINE
  8
0
  6
CONTINUOUS
 62
3
 10
283.617167136049150
 20
-125.203498099166600
 11
227.076981883053800
 21
-125.203498099166600
  0
ARC
  8
0
  6
CONTINUOUS
 62
3
 10
283.617167136049150
 20
-125.603498099167150
 40
0.400000000000091
 50
0.000000000000000
 51
90.000000000000000
  0
LINE
  8
0
  6
CONTINUOUS
 62
3
 10
223.617167136049150
 20
-122.703498099166600
 11
222.017167136050150
 21
-122.703498099166600
  0
LINE
  8
0
  6
CONTINUOUS
 62
3
 10
223.617167136049150
 20
-167.703498099166610
 11
222.017167136050150
 21
-167.703498099166610
  0
LINE
  8
0
  6
CONTINUOUS
 62
3
 10
284.017167136049240
 20
-145.203498099166610
 11
284.017167136049240
 21
-125.603498099167150
  0
LINE
  8
0
  6
DASHDOT
 62
4
 10
301.104855308971310
 20
-145.203498099166610
 11
152.354108409744870
 21
-145.203498099166610
  0
LINE
  8
0
  6
DASHDOT
 62
4
 10
58.286913684027013
 20
-45.203486089276339
 11
76.386179699318518
 21
-45.203486089276339
  0
LINE
  8
0
  6
CONTINUOUS
 62
3
 10
64.017161084843565
 20
-25.203486089276339
 11
68.517161084843565
 21
-25.203486089276339
  0
LINE
  8
0
  6
DASHDOT
 62
4
 10
75.223334299817850
 20
-73.203486089276339
 11
44.090714106520807
 21
-73.203486089276339
  0
LINE
  8
0
  6
CONTINUOUS
 62
3
 10
55.017161084837539
 20
-93.773307515694796
 11
55.017161084837539
 21
-248.203498099166500
  0
LINE
  8
0
  6
CONTINUOUS
 62
3
 10
-11.482854269298571
 20
-132.703498099164450
 11
5.017145730703191
 21
-132.703498099164450
  0
LINE
  8
0
  6
CONTINUOUS
 62
3
 10
42.017161084837539
 20
-137.203498099166840
 11
8.017145730703248
 21
-137.203498099166840
  0
POINT
  8
0
  6
CONTINUOUS
 62
3
 10
45.017161084837539
 20
-255.703498099166720
  0
POINT
  8
0
  6
CONTINUOUS
 62
3
 10
45.017161084837539
 20
-257.703498099166720
  0
LINE
  8
0
  6
CONTINUOUS
 62
3
 10
42.017161084837539
 20
-172.703498099164450
 11
-11.482854269300560
 21
-172.703498099164450
  0
LINE
  8
0
  6
CONTINUOUS
 62
3
 10
-11.482854269301413
 20
-188.703498099164220
 11
-4.982854269301640
 21
-188.703498099164220
  0
LINE
  8
0
  6
CONTINUOUS
 62
3
 10
55.017161084837539
 20
-162.216808885214220
 11
45.017161084837539
 21
-162.216808885214220
  0
LINE
  8
0
  6
CONTINUOUS
 62
3
 10
45.017161084837539
 20
-182.190990276885830
 11
55.017161084837539
 21
-182.190990276885830
  0
LINE
  8
0
  6
CONTINUOUS
 62
3
 10
55.017161084837539
 20
-248.276005337280030
 11
45.017161084837539
 21
-248.276005337280030
  0
LINE
  8
0
  6
CONTINUOUS
 62
3
 10
55.017161084837539
 20
-254.994079969964330
 11
45.017161084837539
 21
-254.994079969964330
  0
LINE
  8
0
  6
CONTINUOUS
 62
3
 10
42.017161084837539
 20
-111.203498099166950
 11
8.017145730702509
 21
-111.203498099166950
  0
ARC
  8
0
  6
CONTINUOUS
 62
3
 10
8.017145730703248
 20
-134.203498099166840
 40
3.000000000000000
 50
180.000000000002160
 51
270.000000000000000
  0
ARC
  8
0
  6
CONTINUOUS
 62
3
 10
42.017161084837539
 20
-175.703498099164450
 40
3.000000000000000
 50
0.000000000000000
 51
90.000000000000000
  0
ARC
  8
0
  6
CONTINUOUS
 62
3
 10
42.017161084837539
 20
-134.203498099166840
 40
3.000000000000000
 50
270.000000000000000
 51
0.000000000000000
  0
LINE
  8
0
  6
CONTINUOUS
 62
3
 10
45.017161084837539
 20
-244.995735183319200
 11
45.017161084837539
 21
-257.703498099166720
  0
LINE
  8
0
  6
CONTINUOUS
 62
3
 10
55.017161084837539
 20
-98.193329236671502
 11
45.017161084837539
 21
-98.193329236671502
  0
ARC
  8
0
  6
CONTINUOUS
 62
3
 10
-4.982854269301640
 20
-193.703498099164220
 40
5.000000000000000
 50
359.999999999997390
 51
90.000000000000000
  0
LINE
  8
0
  6
DASHDOT
 62
4
 10
24.017161084837539
 20
-124.947610090885860
 11
24.017161084837539
 21
-96.307707830070399
  0
LINE
  8
0
  6
CONTINUOUS
 62
3
 10
5.017145730702453
 20
-105.203498099166600
 11
5.017145730703248
 21
-134.203498099166950
  0
ARC
  8
0
  6
CONTINUOUS
 62
3
 10
0.017145730702396
 20
-105.203498099166720
 40
5.000000000000057
 50
0.000000000001303
 51
90.000000000000000
  0
LINE
  8
0
  6
CONTINUOUS
 62
3
 10
55.017161084837539
 20
-248.203498099166500
 11
55.017161084837539
 21
-260.703498099166720
  0
ARC
  8
0
  6
CONTINUOUS
 62
3
 10
48.017161084837483
 20
-257.703498099166720
 40
2.999999999999943
 50
180.000000000000000
 51
270.000000000000000
  0
LINE
  8
0
  6
CONTINUOUS
 62
3
 10
48.017161084837483
 20
-260.703498099166720
 11
55.017161084837539
 21
-260.703498099166720
  0
LINE
  8
0
  6
CONTINUOUS
 62
3
 10
4.017132787085870
 20
-115.703498099167170
 11
4.017131330235429
 21
-115.703498099167170
  0
LINE
  8
0
  6
CONTINUOUS
 62
3
 10
-11.482854269296922
 20
-100.203498099166720
 11
-11.482854269302209
 21
-205.212225363623360
  0
ARC
  8
0
  6
CONTINUOUS
 62
3
 10
42.017161084837539
 20
-108.203498099166950
 40
3.000000000000000
 50
270.000000000000000
 51
0.000000000000000
  0
LINE
  8
0
  6
CONTINUOUS
 62
3
 10
45.017161084837539
 20
-97.976791198546834
 11
45.017161084837539
 21
-102.203498099166720
  0
LINE
  8
0
  6
CONTINUOUS
 62
3
 10
45.017161084837539
 20
-102.203498099166720
 11
45.017161084837539
 21
-244.995735183319200
  0
LINE
  8
0
  6
CONTINUOUS
 62
3
 10
44.017161084837539
 20
-100.203498099166720
 11
-11.482854269296922
 21
-100.203498099166720
  0
ARC
  8
0
  6
CONTINUOUS
 62
3
 10
44.017161084837539
 20
-101.203498099166720
 40
1.000000000000000
 50
0.000000000000000
 51
90.000000000000000
  0
ARC
  8
0
  6
CONTINUOUS
 62
3
 10
48.017161084837539
 20
-97.976791198546834
 40
3.000000000000000
 50
90.000000000000000
 51
180.000000000000000
  0
LINE
  8
0
  6
CONTINUOUS
 62
3
 10
55.017160678944379
 20
-94.976791198546834
 11
48.017161084837539
 21
-94.976791198546834
  0
ARC
  8
0
  6
CONTINUOUS
 62
3
 10
8.017145730702509
 20
-108.203498099166950
 40
3.000000000000000
 50
180.000000000002160
 51
270.000000000000000
  0
LINE
  8
0
  6
CONTINUOUS
 62
3
 10
55.017161084842655
 20
-107.195538406004910
 11
45.017161084837539
 21
-107.195538406004910
  0
LINE
  8
0
  6
CONTINUOUS
 62
3
 10
91.517161084843565
 20
-250.289952594634090
 11
91.517161084843565
 21
-177.203498099166610
  0
LINE
  8
0
  6
CONTINUOUS
 62
3
 10
91.517161084843565
 20
-60.203519008831790
 11
91.517161084843565
 21
-177.203498099166610
  0
LINE
  8
0
  6
CONTINUOUS
 62
3
 10
80.517161084843565
 20
-262.231750390122220
 11
80.517161084843565
 21
-177.203498099166610
  0
ARC
  8
0
  6
CONTINUOUS
 62
3
 10
83.517161084843565
 20
-63.203498099166609
 40
3.000000000000000
 50
90.000000000000000
 51
180.000000000000000
  0
ARC
  8
0
  6
CONTINUOUS
 62
3
 10
78.517161084843565
 20
-115.471435281706360
 40
2.000000000000000
 50
270.000000000000000
 51
0.000000000000000
  0
ARC
  8
0
  6
CONTINUOUS
 62
3
 10
78.517161084843565
 20
-144.935536896844500
 40
2.000000000000000
 50
0.000000000000000
 51
90.000000000000000
  0
LINE
  8
0
  6
CONTINUOUS
 62
3
 10
78.517161084843565
 20
-142.935536896844500
 11
75.517161084843565
 21
-142.935536896844500
  0
ARC
  8
0
  6
CONTINUOUS
 62
3
 10
75.517161084843565
 20
-140.935536896844500
 40
2.000000000000000
 50
180.000000000000000
 51
270.000000000000000
  0
LINE
  8
0
  6
CONTINUOUS
 62
3
 10
73.517161084843565
 20
-119.471435281706360
 11
73.517161084843565
 21
-140.935536896844500
  0
LINE
  8
0
  6
CONTINUOUS
 62
3
 10
78.517161084843565
 20
-117.471435281706360
 11
75.517161084843565
 21
-117.471435281706360
  0
ARC
  8
0
  6
CONTINUOUS
 62
3
 10
75.517161084843565
 20
-119.471435281706360
 40
2.000000000000000
 50
90.000000000000000
 51
180.000000000000000
  0
LINE
  8
0
  6
CONTINUOUS
 62
3
 10
80.517161084843565
 20
-63.203498099166609
 11
80.517161084843565
 21
-115.471435281706360
  0
LINE
  8
0
  6
CONTINUOUS
 62
3
 10
80.517161084843565
 20
-144.935536896844500
 11
80.517161084843565
 21
-177.203498099166610
  0
LINE
  8
0
  6
CONTINUOUS
 62
3
 10
91.517161084843565
 20
-60.203498099166609
 11
71.517161084843565
 21
-60.203498099166609
  0
LINE
  8
0
  6
CONTINUOUS
 62
3
 10
55.017161084837198
 20
-260.633624437727120
 11
75.691658568356388
 21
-261.355593798707560
  0
ARC
  8
0
  6
CONTINUOUS
 62
3
 10
75.517161084843565
 20
-266.352547933802270
 40
4.999999999999993
 50
37.176115582706863
 51
87.999999999996049
  0
LINE
  8
0
  6
CONTINUOUS
 62
3
 10
68.517161084843565
 20
-63.203477189501427
 11
68.517161084843565
 21
-80.203465179611158
  0
ARC
  8
0
  6
CONTINUOUS
 62
3
 10
71.517161084843565
 20
-63.203477189501427
 40
3.000000000000000
 50
90.000000000000000
 51
180.000000000000000
  0
LINE
  8
0
  6
CONTINUOUS
 62
3
 10
55.017161084837198
 20
-93.773307515694796
 11
75.691658568356388
 21
-93.051338154715268
  0
ARC
  8
0
  6
CONTINUOUS
 62
3
 10
75.517161084843565
 20
-88.054384019619647
 40
5.000000000000153
 50
272.000000000003580
 51
356.081795638019740
  0
LINE
  8
0
  6
CONTINUOUS
 62
3
 10
68.517161084843565
 20
-63.203498099166609
 11
68.517161084843565
 21
-80.203486089276339
  0
LINE
  8
0
  6
CONTINUOUS
 62
3
 10
64.017161084839927
 20
-83.203486089276339
 11
68.517161084839927
 21
-83.203486089276339
  0
LINE
  8
0
  6
CONTINUOUS
 62
3
 10
68.517161084843565
 20
-25.203486089276339
 11
68.517161084843565
 21
-83.203486089276339
  0
LINE
  8
0
  6
CONTINUOUS
 62
3
 10
64.017161084839927
 20
-83.203486089276339
 11
64.017161084843565
 21
-25.203486089276339
  0
LINE
  8
0
  6
CONTINUOUS
 62
3
 10
92.017161084844020
 20
-60.203519008831790
 11
92.017161084843565
 21
-145.203498099166610
  0
LINE
  8
0
  6
CONTINUOUS
 62
3
 10
92.017161084844020
 20
-60.203519008831790
 11
157.046875615056930
 21
-61.338616898219698
  0
LINE
  8
0
  6
CONTINUOUS
 62
3
 10
222.017148142629370
 20
-290.203501711066790
 11
35.017152647673129
 21
-290.203501711066790
  0
ARC
  8
0
  6
CONTINUOUS
 62
3
 10
38.517152647673129
 20
-271.448379883984670
 40
3.499999999999234
 50
94.332468894025979
 51
180.000000000000000
  0
ARC
  8
0
  6
CONTINUOUS
 62
3
 10
92.017161084843565
 20
-225.968870700627120
 40
2.000000000000000
 50
0.000000000000000
 51
90.000000000000000
  0
ARC
  8
0
  6
CONTINUOUS
 62
3
 10
92.017161084843565
 20
-246.795150106946490
 40
1.999999999999826
 50
317.350764207258010
 51
0.000000000000000
  0
LINE
  8
0
  6
CONTINUOUS
 62
3
 10
94.017161084843565
 20
-225.968870700627120
 11
94.017161084843565
 21
-246.795150106946490
  0
LINE
  8
0
  6
CONTINUOUS
 62
3
 10
94.017161084846293
 20
-263.733652905869350
 11
75.017152647673129
 21
-265.173099149681550
  0
LINE
  8
0
  6
CONTINUOUS
 62
3
 10
93.488191400483402
 20
-248.150166642074510
 11
79.619154407904489
 21
-263.206642586032100
  0
LINE
  8
0
  6
CONTINUOUS
 62
3
 10
35.017152647673129
 20
-290.203524663266760
 11
35.017152647673129
 21
-271.448379883984670
  0
LINE
  8
0
  6
DASHDOT
 62
4
 10
54.017139020450259
 20
-262.993427841411180
 11
54.017139020450259
 21
-295.655489995298010
  0
LINE
  8
0
  6
CONTINUOUS
 62
3
 10
94.017161084843565
 20
-263.733652905869350
 11
182.017148142629370
 21
-266.806680169191170
  0
LINE
  8
0
  6
CONTINUOUS
 62
3
 10
92.017161084843565
 20
-145.203498099166610
 11
92.017161084843565
 21
-249.747143603928630
  0
ARC
  8
0
  6
CONTINUOUS
 62
3
 10
75.206063460984979
 20
-259.141592980649880
 40
5.999999999999782
 50
274.332468894032670
 51
317.350764207251640
  0
LINE
  8
0
  6
CONTINUOUS
 62
3
 10
75.017152647673129
 20
-265.173099149681550
 11
38.252749317195367
 21
-267.958381190743240
  0
INSERT
  8
0
  2
SYM14
 10
64.017161084840836
 20
-73.203486089276339
  0
INSERT
  8
0
  2
SYM15
 10
80.517161084843565
 20
-80.696045597937882
  0
INSERT
  8
0
  2
SYM16
 10
45.017161084842655
 20
-122.402722557209240
  0
INSERT
  8
0
  2
SYM17
 10
80.517161084843565
 20
-156.203486089275430
  0
INSERT
  8
0
  2
SYM18
 10
80.517161084843565
 20
-222.203486089275430
  0
INSERT
  8
0
  2
SYM19
 10
45.017161084842655
 20
-232.004273641123970
  0
ARC
  8
0
  6
CONTINUOUS
 62
3
 10
68.517161084843565
 20
-85.399638511982630
 40
3.000000000000000
 50
0.000000000000000
 51
59.999999999998380
  0
LINE
  8
0
  6
CONTINUOUS
 62
3
 10
71.517161084843565
 20
-85.399638511982630
 11
71.517161084843565
 21
-90.300048494659677
  0
ARC
  8
0
  6
CONTINUOUS
 62
3
 10
71.517161084843565
 20
-80.203465179611158
 40
3.000000000000000
 50
180.000000000000000
 51
239.999999999989710
  0
ARC
  8
0
  6
CONTINUOUS
 62
3
 10
68.517161084843565
 20
-90.300048494659677
 40
3.000000000000455
 50
272.000000000003350
 51
0.000000000000000
  0
INSERT
  8
0
  2
SYM20
 10
64.017167136039916
 20
136.796501900833390
 50
0.000000000000014
  0
INSERT
  8
0
  2
SYM21
 10
80.517167136050375
 20
80.296501900833391
 50
0.000000000000014
  0
LINE
  8
0
  6
CONTINUOUS
 62
3
 10
91.517167136050375
 20
30.296501900833846
 11
91.517167136049920
 21
147.296501900833280
  0
ARC
  8
0
  6
CONTINUOUS
 62
3
 10
75.517167136050375
 20
56.296501900833391
 40
2.000000000000000
 50
90.000000000000000
 51
180.000000000000000
  0
LINE
  8
0
  6
CONTINUOUS
 62
3
 10
78.517167136050375
 20
58.296501900832936
 11
75.517167136050375
 21
58.296501900833391
  0
ARC
  8
0
  6
CONTINUOUS
 62
3
 10
78.517167136050375
 20
60.296501900832936
 40
2.000000000000000
 50
270.000000000000000
 51
0.000000000000000
  0
LINE
  8
0
  6
CONTINUOUS
 62
3
 10
73.517167136050375
 20
56.296501900833391
 11
73.517167136050375
 21
33.296501900833391
  0
LINE
  8
0
  6
CONTINUOUS
 62
3
 10
91.517167136050375
 20
30.296501900833846
 11
76.517167136050375
 21
30.296501900833391
  0
ARC
  8
0
  6
CONTINUOUS
 62
3
 10
76.517167136050375
 20
33.296501900833391
 40
3.000000000000000
 50
180.000000000000000
 51
270.000000000000000
  0
LINE
  8
0
  6
CONTINUOUS
 62
3
 10
72.517168089724692
 20
46.930377747696184
 11
72.517168089724692
 21
35.662431504410051
  0
LINE
  8
0
  6
CONTINUOUS
 62
3
 10
73.017168727582430
 20
47.796501924901804
 11
72.517168701435367
 21
46.930377784767643
  0
LINE
  8
0
  6
CONTINUOUS
 62
3
 10
73.017169354209727
 20
34.796501923534379
 11
72.517168404016502
 21
35.662431494602970
  0
LINE
  8
0
  6
CONTINUOUS
 62
3
 10
73.017168089724692
 20
47.796501900833391
 11
73.017168089724692
 21
34.796501900833391
  0
LINE
  8
0
  6
CONTINUOUS
 62
3
 10
73.517167136050375
 20
34.796501900833277
 11
73.017169043399008
 21
34.796501900833391
  0
LINE
  8
0
  6
CONTINUOUS
 62
3
 10
73.517167136050375
 20
47.796501900833277
 11
73.017168089724692
 21
47.796501900833391
  0
ARC
  8
0
  6
CONTINUOUS
 62
3
 10
83.517167136050375
 20
33.296501900833391
 40
3.000000000000000
 50
180.000000000000000
 51
270.000000000000000
  0
ARC
  8
0
  6
CONTINUOUS
 62
3
 10
77.517167136050375
 20
123.796501900833390
 40
3.000000000000000
 50
0.000000000000000
 51
90.000000000000000
  0
ARC
  8
0
  6
CONTINUOUS
 62
3
 10
71.517167136050375
 20
129.796501900833390
 40
3.000000000000000
 50
180.000000000000000
 51
270.000000000000000
  0
LINE
  8
0
  6
CONTINUOUS
 62
3
 10
68.517167136050375
 20
147.296501900833280
 11
68.517167136050375
 21
126.796501900833390
  0
LINE
  8
0
  6
CONTINUOUS
 62
3
 10
64.017167136039461
 20
126.796501900833390
 11
64.017167136040825
 21
147.296501900833280
  0
LINE
  8
0
  6
CONTINUOUS
 62
3
 10
64.017167136039461
 20
126.796501900833390
 11
68.517167136050375
 21
126.796501900833390
  0
LINE
  8
0
  6
CONTINUOUS
 62
3
 10
71.517167136050375
 20
126.796501900833390
 11
77.517167136050375
 21
126.796501900833390
  0
LINE
  8
0
  6
CONTINUOUS
 62
3
 10
80.517167136050375
 20
33.296501900833391
 11
80.517167136050375
 21
123.796501900833390
  0
LINE
  8
0
  6
CONTINUOUS
 62
3
 10
55.017167136043554
 20
63.866375562272424
 11
75.691664619562744
 21
63.144406201291986
  0
LINE
  8
0
  6
CONTINUOUS
 62
3
 10
55.017167136043554
 20
63.866375562272424
 11
55.017167136049011
 21
147.296501900833280
  0
ARC
  8
0
  6
CONTINUOUS
 62
3
 10
75.517167136049920
 20
58.147452066197275
 40
4.999999999999970
 50
15.348930286009365
 51
87.999999999996049
  0
INSERT
  8
0
  2
SYM22
 10
64.017167136039916
 20
157.796501900833280
 41
-1.000000000000000
 50
180.000000000000000
  0
INSERT
  8
0
  2
SYM23
 10
80.517167136050375
 20
214.296501900833280
 41
-1.000000000000000
 50
180.000000000000000
  0
LINE
  8
0
  6
CONTINUOUS
 62
3
 10
91.517167136050148
 20
264.296501900832820
 11
91.517167136049920
 21
147.296501900833280
  0
ARC
  8
0
  6
CONTINUOUS
 62
3
 10
75.517167136050375
 20
238.296501900833280
 40
2.000000000000000
 50
180.000000000000000
 51
270.000000000000000
  0
LINE
  8
0
  6
CONTINUOUS
 62
3
 10
78.517167136050375
 20
236.296501900833730
 11
75.517167136050375
 21
236.296501900833280
  0
ARC
  8
0
  6
CONTINUOUS
 62
3
 10
78.517167136050375
 20
234.296501900833730
 40
2.000000000000000
 50
0.000000000000000
 51
90.000000000000000
  0
LINE
  8
0
  6
CONTINUOUS
 62
3
 10
73.517167136050375
 20
238.296501900833280
 11
73.517167136050148
 21
261.296501900833280
  0
LINE
  8
0
  6
CONTINUOUS
 62
3
 10
91.517167136050148
 20
264.296501900832820
 11
76.517167136050148
 21
264.296501900833280
  0
ARC
  8
0
  6
CONTINUOUS
 62
3
 10
76.517167136050148
 20
261.296501900833280
 40
3.000000000000000
 50
90.000000000000000
 51
180.000000000000000
  0
LINE
  8
0
  6
CONTINUOUS
 62
3
 10
72.517168089724464
 20
247.662626053970480
 11
72.517168089724464
 21
258.930572297256620
  0
LINE
  8
0
  6
CONTINUOUS
 62
3
 10
73.017168727582202
 20
246.796501876764860
 11
72.517168701435139
 21
247.662626016899030
  0
LINE
  8
0
  6
CONTINUOUS
 62
3
 10
73.017169354209500
 20
259.796501878132290
 11
72.517168404016275
 21
258.930572307063700
  0
LINE
  8
0
  6
CONTINUOUS
 62
3
 10
73.017168089724464
 20
246.796501900833280
 11
73.017168089724464
 21
259.796501900833280
  0
LINE
  8
0
  6
CONTINUOUS
 62
3
 10
73.517167136050375
 20
259.796501900833280
 11
73.017169043398781
 21
259.796501900833280
  0
LINE
  8
0
  6
CONTINUOUS
 62
3
 10
73.517167136050375
 20
246.796501900833280
 11
73.017168089724464
 21
246.796501900833280
  0
ARC
  8
0
  6
CONTINUOUS
 62
3
 10
83.517167136050148
 20
261.296501900833280
 40
3.000000000000000
 50
90.000000000000000
 51
180.000000000000000
  0
ARC
  8
0
  6
CONTINUOUS
 62
3
 10
77.517167136050375
 20
170.796501900833280
 40
3.000000000000000
 50
270.000000000000000
 51
0.000000000000000
  0
ARC
  8
0
  6
CONTINUOUS
 62
3
 10
71.517167136050375
 20
164.796501900833280
 40
3.000000000000000
 50
90.000000000000000
 51
180.000000000000000
  0
LINE
  8
0
  6
CONTINUOUS
 62
3
 10
68.517167136050375
 20
147.296501900833280
 11
68.517167136050375
 21
167.796501900833280
  0
LINE
  8
0
  6
CONTINUOUS
 62
3
 10
64.017167136039461
 20
167.796501900833280
 11
64.017167136040825
 21
147.296501900833280
  0
LINE
  8
0
  6
CONTINUOUS
 62
3
 10
64.017167136039461
 20
167.796501900833280
 11
68.517167136050375
 21
167.796501900833280
  0
LINE
  8
0
  6
CONTINUOUS
 62
3
 10
71.517167136050375
 20
167.796501900833280
 11
77.517167136050375
 21
167.796501900833280
  0
LINE
  8
0
  6
CONTINUOUS
 62
3
 10
80.517167136050148
 20
261.296501900833280
 11
80.517167136050375
 21
170.796501900833280
  0
LINE
  8
0
  6
CONTINUOUS
 62
3
 10
55.017167136043554
 20
230.726628239394240
 11
75.691664619562744
 21
231.448597600374680
  0
LINE
  8
0
  6
CONTINUOUS
 62
3
 10
55.017167136043554
 20
230.726628239394240
 11
55.017167136049011
 21
147.296501900833280
  0
ARC
  8
0
  6
CONTINUOUS
 62
3
 10
75.517167136049920
 20
236.445551735469390
 40
4.999999999999244
 50
272.000000000003920
 51
344.651069713993190
  0
LINE
  8
0
  6
CONTINUOUS
 62
3
 10
35.017167136050148
 20
234.713347037092600
 11
35.017167136050148
 21
264.593719864842460
  0
LINE
  8
0
  6
DASHDOT
 62
4
 10
71.517167136050148
 20
254.796504578593950
 11
36.517167136050148
 21
254.796504578593950
  0
LINE
  8
0
  6
DASHDOT
 62
4
 10
54.017167136050148
 20
272.296504578593950
 11
54.017167136050148
 21
240.833271847153700
  0
LINE
  8
0
  6
CONTINUOUS
 62
3
 10
92.017167136050148
 20
264.296501900833280
 11
157.052974324578600
 21
263.161297663698750
  0
LINE
  8
0
  6
DASHDOT
 62
4
 10
221.517167136050150
 20
254.796504578593950
 11
186.517167136050150
 21
254.796504578593950
  0
LINE
  8
0
  6
DASHDOT
 62
4
 10
204.017167136050150
 20
272.296504578593950
 11
204.017167136050150
 21
237.296504578593950
  0
LINE
  8
0
  6
CONTINUOUS
 62
3
 10
43.024934683073980
 20
241.025141978327040
 11
72.280287443573116
 21
240.514487896394600
  0
LINE
  8
0
  6
CONTINUOUS
 62
3
 10
92.017167136050148
 20
147.296501900833280
 11
92.017167136050148
 21
264.296501900833280
  0
LINE
  8
0
  6
CONTINUOUS
 62
3
 10
43.024934683073980
 20
53.567861823339513
 11
72.280287443573116
 21
54.078515905271956
  0
ARC
  8
0
  6
CONTINUOUS
 62
3
 10
155.744043841782290
 20
188.172720526968870
 40
75.000000000000327
 50
71.103485179946389
 51
88.999999999999972
  0
ARC
  8
0
  6
CONTINUOUS
 62
3
 10
217.017167136050150
 20
225.982829780520550
 40
3.000000000000000
 50
0.000000000000000
 51
31.677695816961705
  0
ARC
  8
0
  6
CONTINUOUS
 62
3
 10
155.744043841782290
 20
188.172720526968870
 40
75.000000000000767
 50
31.677695816952838
 51
35.133474768257869
  0
CIRCLE
  8
0
  6
CONTINUOUS
 62
3
 10
54.017167136050148
 20
254.796504578593950
 40
7.500000000000000
  0
CIRCLE
  8
0
  6
CONTINUOUS
 62
3
 10
204.017167136050150
 20
254.796504578593950
 40
7.500000000000000
  0
ARC
  8
0
  6
CONTINUOUS
 62
3
 10
204.017167136050150
 20
254.796504578593950
 40
22.000000000000316
 50
176.569875503928870
 51
269.000000000000570
  0
ARC
  8
0
  6
CONTINUOUS
 62
3
 10
179.061954427520280
 20
256.292284867293230
 40
3.000000000000326
 50
356.569875503924440
 51
71.103485179939781
  0
LINE
  8
0
  6
CONTINUOUS
 62
3
 10
203.633214194430140
 20
232.799855285153970
 11
214.678982702670280
 21
232.607050678660810
  0
ARC
  8
0
  6
CONTINUOUS
 62
3
 10
214.626625483357880
 20
229.607507593191140
 40
3.000000000000104
 50
35.133474768258203
 51
88.999999999989711
  0
ARC
  8
0
  6
CONTINUOUS
 62
3
 10
214.017167136050150
 20
264.434926909582710
 40
8.000000000000000
 50
0.000000000000000
 51
89.000000000004761
  0
LINE
  8
0
  6
CONTINUOUS
 62
3
 10
214.156786387547750
 20
272.433708470833950
 11
94.017167136050148
 21
274.530753325317050
  0
ARC
  8
0
  6
CONTINUOUS
 62
3
 10
43.017167136050148
 20
264.593719864842460
 40
7.999999999999988
 50
92.168675586611627
 51
180.000000000000000
  0
LINE
  8
0
  6
CONTINUOUS
 62
3
 10
42.714435198435012
 20
272.587989898682170
 11
94.017167136050148
 21
274.530753325317050
  0
LINE
  8
0
  6
DASHDOT
 62
4
 10
221.517167136050150
 20
39.796499223072601
 11
186.517167136050150
 21
39.796499223072601
  0
LINE
  8
0
  6
DASHDOT
 62
4
 10
71.517167136050148
 20
39.796499223072601
 11
36.517167136050148
 21
39.796499223072601
  0
LINE
  8
0
  6
DASHDOT
 62
4
 10
54.017167136050148
 20
240.833271847153700
 11
54.017167136050148
 21
237.296504578593950
  0
ARC
  8
0
  6
CONTINUOUS
 62
3
 10
43.017167136050148
 20
59.434921803155589
 40
8.000000000000108
 50
91.000000000001762
 51
180.000000000000000
  0
LINE
  8
0
  6
CONTINUOUS
 62
3
 10
42.877547884551632
 20
67.433703364406824
 11
45.094297658458345
 21
67.472396875639902
  0
LINE
  8
0
  6
CONTINUOUS
 62
3
 10
42.877547884551632
 20
227.159300437259730
 11
45.094297658458345
 21
227.120606926026650
  0
ARC
  8
0
  6
CONTINUOUS
 62
3
 10
43.017167136050148
 20
235.158081998510970
 40
8.000000000000000
 50
180.000000000000000
 51
268.999999999998240
  0
LINE
  8
0
  6
CONTINUOUS
 62
3
 10
92.017167136050148
 20
30.296501900833277
 11
157.052974324578600
 21
31.431706137967808
  0
LINE
  8
0
  6
CONTINUOUS
 62
3
 10
35.017167136050148
 20
59.434921803155589
 11
35.017167136050148
 21
29.713341930666388
  0
LINE
  8
0
  6
CONTINUOUS
 62
3
 10
92.017167136050148
 20
147.296501900833280
 11
92.017167136050148
 21
30.296501900833277
  0
ARC
  8
0
  6
CONTINUOUS
 62
3
 10
155.744043841782290
 20
106.420283274697680
 40
75.000000000000526
 50
271.000000000000060
 51
288.896514820053600
  0
ARC
  8
0
  6
CONTINUOUS
 62
3
 10
179.061954427520280
 20
38.300718934373322
 40
2.999999999999901
 50
288.896514820060250
 51
3.430124496075548
  0
ARC
  8
0
  6
CONTINUOUS
 62
3
 10
214.017167136050150
 20
30.158076892083841
 40
8.000000000000092
 50
270.999999999995280
 51
0.000000000000000
  0
LINE
  8
0
  6
CONTINUOUS
 62
3
 10
214.156786387547750
 20
22.159295330832606
 11
94.017167136050148
 21
20.062250476349504
  0
LINE
  8
0
  6
DASHDOT
 62
4
 10
54.017167136050148
 20
22.296499223072601
 11
54.017167136050148
 21
57.296499223072601
  0
CIRCLE
  8
0
  6
CONTINUOUS
 62
3
 10
54.017167136050148
 20
39.796499223072601
 40
7.500000000000000
  0
LINE
  8
0
  6
CONTINUOUS
 62
3
 10
42.714435198435012
 20
22.005013902984388
 11
94.017167136050148
 21
20.062250476349504
  0
ARC
  8
0
  6
CONTINUOUS
 62
3
 10
43.017167136050148
 20
29.999283936824099
 40
8.000000000000000
 50
180.000000000000000
 51
267.831324413388360
  0
ARC
  8
0
  6
CONTINUOUS
 62
3
 10
283.617167136049150
 20
127.696501900832910
 40
0.399999999999636
 50
270.000000000000000
 51
0.000000000000000
  0
LINE
  8
0
  6
CONTINUOUS
 62
3
 10
284.017167136049240
 20
147.296501900833280
 11
284.017167136049240
 21
124.296501900833270
  0
LINE
  8
0
  6
CONTINUOUS
 62
3
 10
227.076981883053350
 20
127.296501900833270
 11
226.517174261917940
 21
127.446501900832910
  0
LINE
  8
0
  6
CONTINUOUS
 62
3
 10
283.617167136049150
 20
127.296501900833270
 11
227.076981883053800
 21
127.296501900833270
  0
LINE
  8
0
  6
CONTINUOUS
 62
3
 10
224.017167136049240
 20
147.296501900833280
 11
224.017167136049240
 21
125.196501900832910
  0
LINE
  8
0
  6
CONTINUOUS
 62
3
 10
223.617167136049150
 20
124.796501900833270
 11
224.017167136049240
 21
125.196501900832910
  0
LINE
  8
0
  6
CONTINUOUS
 62
3
 10
226.517174261917940
 20
127.446501900832910
 11
225.617167136049150
 21
127.446501900832910
  0
ARC
  8
0
  6
CONTINUOUS
 62
3
 10
225.617167136049150
 20
125.846501900833450
 40
1.599999999999454
 50
90.000000000000000
 51
180.000000000000000
  0
LINE
  8
0
  6
CONTINUOUS
 62
3
 10
223.617167136049150
 20
124.796501900833270
 11
222.017167136050150
 21
124.796501900833270
  0
LINE
  8
0
  6
CONTINUOUS
 62
3
 10
227.076981883053350
 20
167.296501900832370
 11
226.517174261917940
 21
167.146501900832730
  0
LINE
  8
0
  6
CONTINUOUS
 62
3
 10
224.017167136049240
 20
147.296501900833280
 11
224.017167136049240
 21
169.396501900832730
  0
LINE
  8
0
  6
CONTINUOUS
 62
3
 10
223.617167136049150
 20
169.796501900833280
 11
222.017167136050150
 21
169.796501900833280
  0
LINE
  8
0
  6
CONTINUOUS
 62
3
 10
223.617167136049150
 20
169.796501900833280
 11
224.017167136049240
 21
169.396501900832730
  0
LINE
  8
0
  6
CONTINUOUS
 62
3
 10
226.517174261917940
 20
167.146501900832730
 11
225.617167136049150
 21
167.146501900832730
  0
ARC
  8
0
  6
CONTINUOUS
 62
3
 10
225.617167136049150
 20
168.746501900833100
 40
1.599999999999909
 50
180.000000000000000
 51
270.000000000000000
  0
LINE
  8
0
  6
CONTINUOUS
 62
3
 10
284.017167136049240
 20
147.296501900833280
 11
284.017167136049240
 21
166.896501900832730
  0
LINE
  8
0
  6
CONTINUOUS
 62
3
 10
283.617167136049150
 20
167.296501900833280
 11
227.076981883053800
 21
167.296501900832370
  0
ARC
  8
0
  6
CONTINUOUS
 62
3
 10
283.617167136049150
 20
166.896501900832730
 40
0.400000000000091
 50
0.000000000000000
 51
90.000000000000000
  0
LINE
  8
0
  6
CONTINUOUS
 62
3
 10
229.017167136049240
 20
127.296501900833270
 11
229.017167136049240
 21
124.296501900833270
  0
LINE
  8
0
  6
CONTINUOUS
 62
3
 10
284.017174261917940
 20
124.296501900833270
 11
229.017174261917940
 21
124.296501900833270
  0
CIRCLE
  8
0
  6
CONTINUOUS
 62
3
 10
204.017167136050150
 20
39.796499223072601
 40
7.500000000000000
  0
LINE
  8
0
  6
DASHDOT
 62
4
 10
204.017167136050150
 20
22.296499223072601
 11
204.017167136050150
 21
57.296499223072601
  0
LINE
  8
0
  6
CONTINUOUS
 62
3
 10
222.017167136050150
 20
147.296501900833280
 11
222.017167136050150
 21
30.022008985614661
  0
ARC
  8
0
  6
CONTINUOUS
 62
3
 10
155.744043841782290
 20
106.420283274697680
 40
75.000000000000071
 50
324.866525231742120
 51
328.322304183047150
  0
LINE
  8
0
  6
CONTINUOUS
 62
3
 10
203.633214194430140
 20
61.793148516512588
 11
214.678982702670280
 21
61.985953123005743
  0
ARC
  8
0
  6
CONTINUOUS
 62
3
 10
214.626625483357880
 20
64.985496208475411
 40
3.000000000000504
 50
271.000000000010350
 51
324.866525231741780
  0
ARC
  8
0
  6
CONTINUOUS
 62
3
 10
204.017167136050150
 20
39.796499223072601
 40
21.999999999999375
 50
90.999999999999432
 51
183.430124496071130
  0
ARC
  8
0
  6
CONTINUOUS
 62
3
 10
221.017167136050150
 20
105.296501900833270
 40
1.000000000000000
 50
90.000000000000000
 51
180.000000000000000
  0
ARC
  8
0
  6
CONTINUOUS
 62
3
 10
221.017167136050150
 20
189.296501900833280
 40
1.000000000000000
 50
180.000000000000000
 51
270.000000000000000
  0
ARC
  8
0
  6
CONTINUOUS
 62
3
 10
217.017167136050150
 20
68.610174021146008
 40
3.000000000000318
 50
328.322304183038280
 51
0.000000000000000
  0
LINE
  8
0
  6
DASHDOT
 62
4
 10
-269.810892694007630
 20
147.296501900833280
 11
301.032157377551580
 21
147.296501900833280
  0
LINE
  8
0
  6
CONTINUOUS
 62
3
 10
220.017167136050150
 20
147.296501900833280
 11
220.017167136050150
 21
68.610174021146008
  0
LINE
  8
0
  6
CONTINUOUS
 62
3
 10
222.017167136050150
 20
147.296501900833280
 11
222.017167136050150
 21
264.434926909582710
  0
LINE
  8
0
  6
CONTINUOUS
 62
3
 10
220.017167136050150
 20
147.296501900833280
 11
220.017167136050150
 21
225.982829780520550
  0
LINE
  8
0
  6
CONTINUOUS
 62
3
 10
221.017167136050150
 20
106.296501900833270
 11
222.017167136050150
 21
106.296501900833270
  0
LINE
  8
0
  6
CONTINUOUS
 62
3
 10
221.017167136050150
 20
188.296501900833280
 11
222.017167136050150
 21
188.296501900833280
  0
ARC
  8
0
  6
CONTINUOUS
 62
3
 10
8.017151781911252
 20
165.296501900833280
 40
3.000000000000000
 50
180.000000000000000
 51
270.000000000000000
  0
ARC
  8
0
  6
CONTINUOUS
 62
3
 10
42.017167136049011
 20
165.296501900833280
 40
3.000000000000000
 50
270.000000000000000
 51
0.000000000000000
  0
LINE
  8
0
  6
CONTINUOUS
 62
3
 10
8.017151781911252
 20
162.296501900833280
 11
42.017167136049011
 21
162.296501900833280
  0
LINE
  8
0
  6
CONTINUOUS
 62
3
 10
48.017167136049011
 20
230.796501900833280
 11
55.017167136049011
 21
230.796501900833280
  0
ARC
  8
0
  6
CONTINUOUS
 62
3
 10
48.017167136049011
 20
227.796501900833280
 40
3.000000000000000
 50
90.000000000000000
 51
180.000000000000000
  0
ARC
  8
0
  6
CONTINUOUS
 62
3
 10
0.017151781911252
 20
195.796501900833280
 40
5.000000000000000
 50
0.000000000000000
 51
90.000000000000000
  0
INSERT
  8
0
  2
SYM24
 10
45.017167136049011
 20
202.097277442790640
 41
-1.000000000000000
 50
180.000000000000000
  0
LINE
  8
0
  6
CONTINUOUS
 62
3
 10
41.017178301111471
 20
200.796501900833280
 11
-11.482848218098752
 21
200.796501900833280
  0
LINE
  8
0
  6
CONTINUOUS
 62
3
 10
45.017167136049018
 20
147.296501900833280
 11
45.017167136049011
 21
227.796501900833280
  0
LINE
  8
0
  6
CONTINUOUS
 62
3
 10
5.017151781911252
 20
165.296501900833280
 11
5.017151781911252
 21
195.796501900833280
  0
CIRCLE
  8
0
  6
CONTINUOUS
 62
3
 10
24.017167136049011
 20
147.296501900833280
 40
10.500000000000000
  0
ARC
  8
0
  6
CONTINUOUS
 62
3
 10
8.017151781911252
 20
129.296501900833280
 40
3.000000000000000
 50
90.000000000000000
 51
180.000000000000000
  0
ARC
  8
0
  6
CONTINUOUS
 62
3
 10
42.017167136049011
 20
129.296501900833280
 40
3.000000000000000
 50
0.000000000000000
 51
90.000000000000000
  0
LINE
  8
0
  6
CONTINUOUS
 62
3
 10
8.017151781911252
 20
132.296501900833280
 11
42.017167136049011
 21
132.296501900833280
  0
LINE
  8
0
  6
CONTINUOUS
 62
3
 10
41.017626041892754
 20
93.796501900833277
 11
-11.482848218098752
 21
93.796501900833277
  0
ARC
  8
0
  6
CONTINUOUS
 62
3
 10
0.017151781911252
 20
98.796501900833277
 40
5.000000000000000
 50
270.000000000000000
 51
0.000000000000000
  0
LINE
  8
0
  6
DASHDOT
 62
4
 10
24.017167136049011
 20
133.545737092683450
 11
24.017167136049011
 21
161.321819864324540
  0
LINE
  8
0
  6
CONTINUOUS
 62
3
 10
48.017167136049011
 20
63.796501900833277
 11
55.017167136049011
 21
63.796501900833277
  0
ARC
  8
0
  6
CONTINUOUS
 62
3
 10
48.017167136049011
 20
66.796501900833277
 40
3.000000000000000
 50
180.000000000000000
 51
270.000000000000000
  0
LINE
  8
0
  6
CONTINUOUS
 62
3
 10
5.017151781911252
 20
129.296501900833280
 11
5.017151781911252
 21
98.796501900833277
  0
LINE
  8
0
  6
CONTINUOUS
 62
3
 10
45.017167136049018
 20
147.296501900833280
 11
45.017167136049011
 21
66.796501900833277
  0
INSERT
  8
0
  2
SYM25
 10
45.017167136049011
 20
92.495726358875913
  0
LINE
  8
0
  6
CONTINUOUS
 62
3
 10
-11.482848218093295
 20
200.796501900833280
 11
-11.482848218093295
 21
147.296501900833280
  0
LINE
  8
0
  6
CONTINUOUS
 62
3
 10
-11.482848218093295
 20
93.796501900833277
 11
-11.482848218093295
 21
147.296501900833280
  0
ARC
  8
0
  6
CONTINUOUS
 62
3
 10
-146.482848218093300
 20
210.796501900833280
 40
5.000000000000000
 50
180.000000000000000
 51
270.000000000000000
  0
LINE
  8
0
  6
CONTINUOUS
 62
3
 10
-151.482848218093300
 20
200.796501900833280
 11
-151.482848218093300
 21
205.796501900833280
  0
LINE
  8
0
  6
DASHDOT
 62
3
 10
-27.482848218093295
 20
200.796501900833280
 11
-27.482848218093295
 21
205.796501900833280
  0
LINE
  8
0
  6
DASHDOT
 62
3
 10
-27.482848218093295
 20
200.796501900833280
 11
-27.482848218093295
 21
205.796501900833280
  0
ARC
  8
0
  6
CONTINUOUS
 62
3
 10
-32.482848218093295
 20
210.796501900833280
 40
5.000000000000000
 50
270.000000000000000
 51
0.000000000000000
  0
LINE
  8
0
  6
CONTINUOUS
 62
3
 10
-151.482848218093300
 20
205.796501900833280
 11
-27.482848218093295
 21
205.796501900833280
  0
LINE
  8
0
  6
CONTINUOUS
 62
3
 10
-37.982848218093295
 20
224.457526960520110
 11
-140.982848218093300
 21
224.457526960520110
  0
ARC
  8
0
  6
CONTINUOUS
 62
3
 10
-32.482848218093295
 20
229.457526960520110
 40
5.000000000000072
 50
287.457603123721870
 51
0.000000000000000
  0
ARC
  8
0
  6
CONTINUOUS
 62
3
 10
-32.282848218093477
 20
225.134073086262450
 40
1.300000000000182
 50
0.000000000000000
 51
73.398450400977637
  0
ARC
  8
0
  6
CONTINUOUS
 62
3
 10
-34.482848218093295
 20
217.755048760512980
 40
9.000000000000123
 50
73.398450400980877
 51
106.601549599019120
  0
ARC
  8
0
  6
CONTINUOUS
 62
3
 10
-36.682848218093113
 20
225.134073086262450
 40
1.300000000000019
 50
106.601549599022360
 51
180.000000000000000
  0
LINE
  8
0
  6
CONTINUOUS
 62
3
 10
-30.982848218093295
 20
225.134073086262450
 11
-30.982848218093295
 21
224.147063348338070
  0
POLYLINE
  8
0
  6
CONTINUOUS
 62
3
 66
1
  0
VERTEX
  8
0
  6
CONTINUOUS
 62
3
 10
-37.982848218093295
 20
224.147063348338070
  0
VERTEX
  8
0
  6
CONTINUOUS
 62
3
 10
-37.915596699504604
 20
224.112965138142070
  0
VERTEX
  8
0
  6
CONTINUOUS
 62
3
 10
-37.716426581882800
 20
224.080177303041440
  0
VERTEX
  8
0
  6
CONTINUOUS
 62
3
 10
-37.392991861152204
 20
224.049959861151420
  0
VERTEX
  8
0
  6
CONTINUOUS
 62
3
 10
-36.957721952246210
 20
224.023474051817710
  0
VERTEX
  8
0
  6
CONTINUOUS
 62
3
 10
-36.427344033661903
 20
224.001737709839630
  0
VERTEX
  8
0
  6
CONTINUOUS
 62
3
 10
-35.822240231371111
 20
223.985586150649450
  0
VERTEX
  8
0
  6
CONTINUOUS
 62
3
 10
-35.165664345149743
 20
223.975640069609000
  0
VERTEX
  8
0
  6
CONTINUOUS
 62
3
 10
-34.482848218093295
 20
223.972281689034840
  0
VERTEX
  8
0
  6
CONTINUOUS
 62
3
 10
-33.800032091036847
 20
223.975640069609000
  0
VERTEX
  8
0
  6
CONTINUOUS
 62
3
 10
-33.143456204815479
 20
223.985586150649450
  0
VERTEX
  8
0
  6
CONTINUOUS
 62
3
 10
-32.538352402524687
 20
224.001737709839630
  0
VERTEX
  8
0
  6
CONTINUOUS
 62
3
 10
-32.007974483940380
 20
224.023474051817710
  0
VERTEX
  8
0
  6
CONTINUOUS
 62
3
 10
-31.572704575034390
 20
224.049959861151420
  0
VERTEX
  8
0
  6
CONTINUOUS
 62
3
 10
-31.249269854303794
 20
224.080177303041440
  0
VERTEX
  8
0
  6
CONTINUOUS
 62
3
 10
-31.050099736681990
 20
224.112965138142070
  0
VERTEX
  8
0
  6
CONTINUOUS
 62
3
 10
-30.982848218093299
 20
224.147063348338070
  0
SEQEND
  8
0
  6
CONTINUOUS
 62
3
  0
LINE
  8
0
  6
CONTINUOUS
 62
3
 10
-37.982848218093295
 20
225.134073086262450
 11
-37.982848218093295
 21
224.147063348338070
  0
ARC
  8
0
  6
CONTINUOUS
 62
3
 10
-146.482848218093300
 20
229.457526960520110
 40
5.000000000000000
 50
180.000000000000000
 51
252.542396876278160
  0
LINE
  8
0
  6
CONTINUOUS
 62
3
 10
-147.982848218093300
 20
225.134073086262450
 11
-147.982848218093300
 21
224.147063348338070
  0
LINE
  8
0
  6
CONTINUOUS
 62
3
 10
-140.982848218093300
 20
225.134073086262450
 11
-140.982848218093300
 21
224.147063348338070
  0
ARC
  8
0
  6
CONTINUOUS
 62
3
 10
-146.682848218093110
 20
225.134073086262450
 40
1.300000000000019
 50
106.601549599022360
 51
180.000000000000000
  0
ARC
  8
0
  6
CONTINUOUS
 62
3
 10
-144.482848218093300
 20
217.755048760512980
 40
9.000000000000123
 50
73.398450400980877
 51
106.601549599019120
  0
ARC
  8
0
  6
CONTINUOUS
 62
3
 10
-142.282848218093480
 20
225.134073086262450
 40
1.300000000000182
 50
0.000000000000000
 51
73.398450400977637
  0
POLYLINE
  8
0
  6
CONTINUOUS
 62
3
 66
1
  0
VERTEX
  8
0
  6
CONTINUOUS
 62
3
 10
-147.982848218093300
 20
224.147063348338070
  0
VERTEX
  8
0
  6
CONTINUOUS
 62
3
 10
-147.915596699504590
 20
224.112965138142070
  0
VERTEX
  8
0
  6
CONTINUOUS
 62
3
 10
-147.716426581882790
 20
224.080177303041440
  0
VERTEX
  8
0
  6
CONTINUOUS
 62
3
 10
-147.392991861152210
 20
224.049959861151420
  0
VERTEX
  8
0
  6
CONTINUOUS
 62
3
 10
-146.957721952246200
 20
224.023474051817710
  0
VERTEX
  8
0
  6
CONTINUOUS
 62
3
 10
-146.427344033661910
 20
224.001737709839630
  0
VERTEX
  8
0
  6
CONTINUOUS
 62
3
 10
-145.822240231371100
 20
223.985586150649450
  0
VERTEX
  8
0
  6
CONTINUOUS
 62
3
 10
-145.165664345149740
 20
223.975640069609000
  0
VERTEX
  8
0
  6
CONTINUOUS
 62
3
 10
-144.482848218093300
 20
223.972281689034840
  0
VERTEX
  8
0
  6
CONTINUOUS
 62
3
 10
-143.800032091036850
 20
223.975640069609000
  0
VERTEX
  8
0
  6
CONTINUOUS
 62
3
 10
-143.143456204815490
 20
223.985586150649450
  0
VERTEX
  8
0
  6
CONTINUOUS
 62
3
 10
-142.538352402524680
 20
224.001737709839630
  0
VERTEX
  8
0
  6
CONTINUOUS
 62
3
 10
-142.007974483940390
 20
224.023474051817710
  0
VERTEX
  8
0
  6
CONTINUOUS
 62
3
 10
-141.572704575034380
 20
224.049959861151420
  0
VERTEX
  8
0
  6
CONTINUOUS
 62
3
 10
-141.249269854303800
 20
224.080177303041440
  0
VERTEX
  8
0
  6
CONTINUOUS
 62
3
 10
-141.050099736682000
 20
224.112965138142070
  0
VERTEX
  8
0
  6
CONTINUOUS
 62
3
 10
-140.982848218093300
 20
224.147063348338070
  0
SEQEND
  8
0
  6
CONTINUOUS
 62
3
  0
LINE
  8
0
  6
CONTINUOUS
 62
3
 10
-27.482848218093295
 20
229.457526960520110
 11
-27.482848218093295
 21
242.396501900833190
  0
LINE
  8
0
  6
CONTINUOUS
 62
3
 10
-151.482848218093300
 20
229.457526960520110
 11
-151.482848218093300
 21
242.396501900833190
  0
LINE
  8
0
  6
CONTINUOUS
 62
3
 10
-151.482848218093300
 20
228.991012191895490
 11
-152.482848218093300
 21
228.991012191895490
  0
LINE
  8
0
  6
CONTINUOUS
 62
3
 10
-26.482848218093295
 20
223.897375263618300
 11
-152.482848218093300
 21
223.897375263618300
  0
ARC
  8
0
  6
CONTINUOUS
 62
3
 10
-146.482848218093300
 20
242.396501900833190
 40
5.000000000000000
 50
90.000000000000000
 51
180.000000000000000
  0
ARC
  8
0
  6
CONTINUOUS
 62
3
 10
-152.482848218093300
 20
226.991012191895490
 40
2.000000000000000
 50
90.000000000000000
 51
180.000000000000000
  0
ARC
  8
0
  6
CONTINUOUS
 62
3
 10
-152.482848218093300
 20
225.897375263618300
 40
2.000000000000000
 50
180.000000000000000
 51
270.000000000000000
  0
ARC
  8
0
  6
CONTINUOUS
 62
3
 10
-152.482848218093300
 20
225.098373392533060
 40
2.000000000000000
 50
180.000000000000000
 51
270.000000000000000
  0
LINE
  8
0
  6
CONTINUOUS
 62
3
 10
-154.482848218093300
 20
226.991012191895490
 11
-154.482848218093300
 21
224.299371521414170
  0
ARC
  8
0
  6
CONTINUOUS
 62
3
 10
-152.482848218093300
 20
224.299371521414170
 40
2.000000000000000
 50
180.000000000000000
 51
270.000000000000000
  0
LINE
  8
0
  6
CONTINUOUS
 62
3
 10
-151.482848218093300
 20
210.796501900833280
 11
-151.482848218093300
 21
222.299371521414170
  0
ARC
  8
0
  6
CONTINUOUS
 62
3
 10
-32.482848218093295
 20
242.396501900833190
 40
5.000000000000000
 50
0.000000000000000
 51
90.000000000000000
  0
LINE
  8
0
  6
CONTINUOUS
 62
3
 10
-146.482848218093300
 20
247.396501900833190
 11
-32.482848218093295
 21
247.396501900833190
  0
LINE
  8
0
  6
CONTINUOUS
 62
3
 10
-27.482848218093295
 20
210.796501900833280
 11
-27.482848218093295
 21
222.098373392533060
  0
LINE
  8
0
  6
CONTINUOUS
 62
3
 10
-24.482848218093295
 20
226.991012191895490
 11
-24.482848218093295
 21
224.299371521414170
  0
LINE
  8
0
  6
CONTINUOUS
 62
3
 10
-26.482848218093295
 20
223.098373392516240
 11
-152.482848218093300
 21
223.098373392516240
  0
LINE
  8
0
  6
CONTINUOUS
 62
3
 10
-26.482848218093295
 20
222.299371521414170
 11
-152.482848218093300
 21
222.299371521414170
  0
LINE
  8
0
  6
CONTINUOUS
 62
3
 10
-27.482848218093295
 20
228.991012191895490
 11
-26.482848218093295
 21
228.991012191895490
  0
ARC
  8
0
  6
CONTINUOUS
 62
3
 10
-26.482848218093295
 20
226.991012191895490
 40
2.000000000000000
 50
0.000000000000000
 51
90.000000000000000
  0
ARC
  8
0
  6
CONTINUOUS
 62
3
 10
-26.482848218093295
 20
225.897375263618300
 40
2.000000000000000
 50
270.000000000000000
 51
0.000000000000000
  0
ARC
  8
0
  6
CONTINUOUS
 62
3
 10
-26.482848218093295
 20
225.098373392533060
 40
2.000000000000000
 50
270.000000000000000
 51
0.000000000000000
  0
ARC
  8
0
  6
CONTINUOUS
 62
3
 10
-26.482848218093295
 20
224.299371521414170
 40
2.000000000000000
 50
270.000000000000000
 51
0.000000000000000
  0
ARC
  8
0
  6
CONTINUOUS
 62
3
 10
-229.487693167207230
 20
108.896501900833300
 40
20.599999999999891
 50
235.000000000000400
 51
270.000000000000000
  0
ARC
  8
0
  6
CONTINUOUS
 62
3
 10
-247.382848218114530
 20
99.452881767203962
 40
2.599999999999909
 50
180.000000000000000
 51
234.999999999998810
  0
LINE
  8
0
  6
CONTINUOUS
 62
3
 10
-241.303367756038600
 20
92.021969788480078
 11
-248.874146952627370
 21
97.323086452052621
  0
LINE
  8
0
  6
CONTINUOUS
 62
3
 10
-249.982848218114440
 20
99.452881767203962
 11
-249.982848218114440
 21
147.296501900833280
  0
LINE
  8
0
  6
CONTINUOUS
 62
3
 10
-69.782848218093250
 20
94.796501900833277
 11
-69.782848218093250
 21
56.796501900833277
  0
ARC
  8
0
  6
CONTINUOUS
 62
3
 10
-70.782848218093250
 20
56.796501900833277
 40
1.000000000000000
 50
270.000000000000000
 51
0.000000000000000
  0
LINE
  8
0
  6
CONTINUOUS
 62
3
 10
-158.782848218093250
 20
55.796501900833277
 11
-70.782848218093250
 21
55.796501900833277
  0
ARC
  8
0
  6
CONTINUOUS
 62
3
 10
-158.782848218093250
 20
56.796501900833277
 40
1.000000000000000
 50
180.000000000000000
 51
270.000000000000000
  0
LINE
  8
0
  6
CONTINUOUS
 62
3
 10
-152.782848218093250
 20
55.296501900833277
 11
-144.782848218093250
 21
55.296501900833277
  0
LINE
  8
0
  6
CONTINUOUS
 62
3
 10
-84.782848218093250
 20
55.296501900833277
 11
-76.782848218093250
 21
55.296501900833277
  0
LINE
  8
0
  6
CONTINUOUS
 62
3
 10
-84.782848218093250
 20
55.796501900833277
 11
-84.782848218093250
 21
55.296501900833277
  0
LINE
  8
0
  6
CONTINUOUS
 62
3
 10
-76.782848218093250
 20
55.796501900833277
 11
-76.782848218093250
 21
55.296501900833277
  0
LINE
  8
0
  6
CONTINUOUS
 62
3
 10
-144.782848218093250
 20
55.796501900833277
 11
-144.782848218093250
 21
55.296501900833277
  0
LINE
  8
0
  6
CONTINUOUS
 62
3
 10
-152.782848218093250
 20
55.796501900833277
 11
-152.782848218093250
 21
55.296501900833277
  0
LINE
  8
0
  6
CONTINUOUS
 62
3
 10
-69.782848218093250
 20
94.796501900833277
 11
-151.982848218114440
 21
94.796501900833277
  0
POLYLINE
  8
0
  6
CONTINUOUS
 62
3
 66
1
 70
1
  0
VERTEX
  8
0
  6
CONTINUOUS
 62
3
 10
-158.282848218114220
 20
99.969170946485747
  0
VERTEX
  8
0
  6
CONTINUOUS
 62
3
 10
-158.373157400219040
 20
100.672127912686100
  0
VERTEX
  8
0
  6
CONTINUOUS
 62
3
 10
-158.640614415311180
 20
101.348070636898200
  0
VERTEX
  8
0
  6
CONTINUOUS
 62
3
 10
-159.074941040292260
 20
101.971023019303600
  0
VERTEX
  8
0
  6
CONTINUOUS
 62
3
 10
-159.659446346537440
 20
102.517045349202170
  0
VERTEX
  8
0
  6
CONTINUOUS
 62
3
 10
-160.371668122922100
 20
102.965154294668790
  0
VERTEX
  8
0
  6
CONTINUOUS
 62
3
 10
-161.184236085998290
 20
103.298129280231560
  0
VERTEX
  8
0
  6
CONTINUOUS
 62
3
 10
-162.065923704638410
 20
103.503174263929800
  0
VERTEX
  8
0
  6
CONTINUOUS
 62
3
 10
-162.982848218114210
 20
103.572409482030570
  0
VERTEX
  8
0
  6
CONTINUOUS
 62
3
 10
-163.899772731590020
 20
103.503174263929800
  0
VERTEX
  8
0
  6
CONTINUOUS
 62
3
 10
-164.781460350230130
 20
103.298129280231560
  0
VERTEX
  8
0
  6
CONTINUOUS
 62
3
 10
-165.594028313306320
 20
102.965154294668790
  0
VERTEX
  8
0
  6
CONTINUOUS
 62
3
 10
-166.306250089690990
 20
102.517045349202170
  0
VERTEX
  8
0
  6
CONTINUOUS
 62
3
 10
-166.890755395936170
 20
101.971023019303600
  0
VERTEX
  8
0
  6
CONTINUOUS
 62
3
 10
-167.325082020917250
 20
101.348070636898200
  0
VERTEX
  8
0
  6
CONTINUOUS
 62
3
 10
-167.592539036009380
 20
100.672127912686100
  0
VERTEX
  8
0
  6
CONTINUOUS
 62
3
 10
-167.682848218114200
 20
99.969170946485747
  0
VERTEX
  8
0
  6
CONTINUOUS
 62
3
 10
-167.592539036009380
 20
99.266213980285386
  0
VERTEX
  8
0
  6
CONTINUOUS
 62
3
 10
-167.325082020917250
 20
98.590271256073294
  0
VERTEX
  8
0
  6
CONTINUOUS
 62
3
 10
-166.890755395936170
 20
97.967318873667892
  0
VERTEX
  8
0
  6
CONTINUOUS
 62
3
 10
-166.306250089690960
 20
97.421296543769316
  0
VERTEX
  8
0
  6
CONTINUOUS
 62
3
 10
-165.594028313306320
 20
96.973187598302701
  0
VERTEX
  8
0
  6
CONTINUOUS
 62
3
 10
-164.781460350230130
 20
96.640212612739930
  0
VERTEX
  8
0
  6
CONTINUOUS
 62
3
 10
-163.899772731590020
 20
96.435167629041686
  0
VERTEX
  8
0
  6
CONTINUOUS
 62
3
 10
-162.982848218114210
 20
96.365932410940914
  0
VERTEX
  8
0
  6
CONTINUOUS
 62
3
 10
-162.065923704638410
 20
96.435167629041686
  0
VERTEX
  8
0
  6
CONTINUOUS
 62
3
 10
-161.184236085998290
 20
96.640212612739930
  0
VERTEX
  8
0
  6
CONTINUOUS
 62
3
 10
-160.371668122922100
 20
96.973187598302701
  0
VERTEX
  8
0
  6
CONTINUOUS
 62
3
 10
-159.659446346537460
 20
97.421296543769316
  0
VERTEX
  8
0
  6
CONTINUOUS
 62
3
 10
-159.074941040292260
 20
97.967318873667892
  0
VERTEX
  8
0
  6
CONTINUOUS
 62
3
 10
-158.640614415311180
 20
98.590271256073294
  0
VERTEX
  8
0
  6
CONTINUOUS
 62
3
 10
-158.373157400219040
 20
99.266213980285386
  0
SEQEND
  8
0
  6
CONTINUOUS
 62
3
  0
LINE
  8
0
  6
CONTINUOUS
 62
3
 10
-164.982848218114440
 20
96.976795392485315
 11
-162.982848218114440
 21
98.152580878108211
  0
LINE
  8
0
  6
CONTINUOUS
 62
3
 10
-162.982848218114440
 20
98.152580878108211
 11
-160.982848218114440
 21
99.805222517231527
  0
LINE
  8
0
  6
CONTINUOUS
 62
3
 10
-160.982848218114440
 20
96.976795392485315
 11
-162.982848218114440
 21
98.152580878108211
  0
LINE
  8
0
  6
CONTINUOUS
 62
3
 10
-162.982848218114440
 20
98.152580878108211
 11
-164.982848218114440
 21
99.805222517231527
  0
LINE
  8
0
  6
CONTINUOUS
 62
3
 10
-151.982848218114440
 20
95.956805540024220
 11
-151.982848218114210
 21
147.296501900833280
  0
ARC
  8
0
  6
CONTINUOUS
 62
3
 10
-154.982848218114440
 20
95.956805540024334
 40
3.000000000000000
 50
270.000000000000000
 51
359.999999999997780
  0
LINE
  8
0
  6
CONTINUOUS
 62
3
 10
-158.982848218114440
 20
92.956805540024334
 11
-154.982848218114440
 21
92.956805540024334
  0
ARC
  8
0
  6
CONTINUOUS
 62
3
 10
-158.982848218114440
 20
89.956805540024334
 40
3.000000000000000
 50
90.000000000000000
 51
180.000000000000000
  0
LINE
  8
0
  6
CONTINUOUS
 62
3
 10
-161.982848218114440
 20
88.296501900833277
 11
-229.487693167207230
 21
88.296501900833277
  0
LINE
  8
0
  6
CONTINUOUS
 62
3
 10
-161.982848218114440
 20
88.296501900833277
 11
-161.982848218114440
 21
89.956805540024334
  0
LINE
  8
0
  6
CONTINUOUS
 62
3
 10
-159.782848218093250
 20
92.848171998990324
 11
-159.782848218093250
 21
56.796501900833277
  0
LINE
  8
0
  6
CONTINUOUS
 62
3
 10
-159.782848218093250
 20
89.796501900833277
 11
-69.782848218093250
 21
89.796501900833277
  0
POLYLINE
  8
0
  6
CONTINUOUS
 62
3
 66
1
 70
1
  0
VERTEX
  8
0
  6
CONTINUOUS
 62
3
 10
-158.282848218114220
 20
194.623832855180810
  0
VERTEX
  8
0
  6
CONTINUOUS
 62
3
 10
-158.373157400219040
 20
195.326789821381170
  0
VERTEX
  8
0
  6
CONTINUOUS
 62
3
 10
-158.640614415311180
 20
196.002732545593260
  0
VERTEX
  8
0
  6
CONTINUOUS
 62
3
 10
-159.074941040292260
 20
196.625684927998660
  0
VERTEX
  8
0
  6
CONTINUOUS
 62
3
 10
-159.659446346537440
 20
197.171707257897250
  0
VERTEX
  8
0
  6
CONTINUOUS
 62
3
 10
-160.371668122922100
 20
197.619816203363880
  0
VERTEX
  8
0
  6
CONTINUOUS
 62
3
 10
-161.184236085998290
 20
197.952791188926620
  0
VERTEX
  8
0
  6
CONTINUOUS
 62
3
 10
-162.065923704638410
 20
198.157836172624880
  0
VERTEX
  8
0
  6
CONTINUOUS
 62
3
 10
-162.982848218114210
 20
198.227071390725650
  0
VERTEX
  8
0
  6
CONTINUOUS
 62
3
 10
-163.899772731590020
 20
198.157836172624880
  0
VERTEX
  8
0
  6
CONTINUOUS
 62
3
 10
-164.781460350230130
 20
197.952791188926620
  0
VERTEX
  8
0
  6
CONTINUOUS
 62
3
 10
-165.594028313306320
 20
197.619816203363880
  0
VERTEX
  8
0
  6
CONTINUOUS
 62
3
 10
-166.306250089690990
 20
197.171707257897250
  0
VERTEX
  8
0
  6
CONTINUOUS
 62
3
 10
-166.890755395936170
 20
196.625684927998660
  0
VERTEX
  8
0
  6
CONTINUOUS
 62
3
 10
-167.325082020917250
 20
196.002732545593260
  0
VERTEX
  8
0
  6
CONTINUOUS
 62
3
 10
-167.592539036009380
 20
195.326789821381170
  0
VERTEX
  8
0
  6
CONTINUOUS
 62
3
 10
-167.682848218114200
 20
194.623832855180810
  0
VERTEX
  8
0
  6
CONTINUOUS
 62
3
 10
-167.592539036009380
 20
193.920875888980450
  0
VERTEX
  8
0
  6
CONTINUOUS
 62
3
 10
-167.325082020917250
 20
193.244933164768360
  0
VERTEX
  8
0
  6
CONTINUOUS
 62
3
 10
-166.890755395936170
 20
192.621980782362950
  0
VERTEX
  8
0
  6
CONTINUOUS
 62
3
 10
-166.306250089690960
 20
192.075958452464360
  0
VERTEX
  8
0
  6
CONTINUOUS
 62
3
 10
-165.594028313306320
 20
191.627849506997730
  0
VERTEX
  8
0
  6
CONTINUOUS
 62
3
 10
-164.781460350230130
 20
191.294874521434990
  0
VERTEX
  8
0
  6
CONTINUOUS
 62
3
 10
-163.899772731590020
 20
191.089829537736730
  0
VERTEX
  8
0
  6
CONTINUOUS
 62
3
 10
-162.982848218114210
 20
191.020594319635960
  0
VERTEX
  8
0
  6
CONTINUOUS
 62
3
 10
-162.065923704638410
 20
191.089829537736730
  0
VERTEX
  8
0
  6
CONTINUOUS
 62
3
 10
-161.184236085998290
 20
191.294874521434990
  0
VERTEX
  8
0
  6
CONTINUOUS
 62
3
 10
-160.371668122922100
 20
191.627849506997730
  0
VERTEX
  8
0
  6
CONTINUOUS
 62
3
 10
-159.659446346537460
 20
192.075958452464360
  0
VERTEX
  8
0
  6
CONTINUOUS
 62
3
 10
-159.074941040292260
 20
192.621980782362950
  0
VERTEX
  8
0
  6
CONTINUOUS
 62
3
 10
-158.640614415311180
 20
193.244933164768360
  0
VERTEX
  8
0
  6
CONTINUOUS
 62
3
 10
-158.373157400219040
 20
193.920875888980450
  0
SEQEND
  8
0
  6
CONTINUOUS
 62
3
  0
LINE
  8
0
  6
CONTINUOUS
 62
3
 10
-164.982848218114440
 20
197.616208409181240
 11
-162.982848218114440
 21
196.440422923558460
  0
LINE
  8
0
  6
CONTINUOUS
 62
3
 10
-162.982848218114440
 20
196.440422923558460
 11
-160.982848218114440
 21
194.787781284435030
  0
LINE
  8
0
  6
CONTINUOUS
 62
3
 10
-160.982848218114440
 20
197.616208409181240
 11
-162.982848218114440
 21
196.440422923558460
  0
LINE
  8
0
  6
CONTINUOUS
 62
3
 10
-162.982848218114440
 20
196.440422923558460
 11
-164.982848218114440
 21
194.787781284435030
  0
LINE
  8
0
  6
CONTINUOUS
 62
3
 10
-151.982848218114440
 20
206.296501900833280
 11
-151.982848218114210
 21
147.296501900833280
  0
ARC
  8
0
  6
CONTINUOUS
 62
3
 10
-229.487693167207230
 20
185.696501900833250
 40
20.600000000000023
 50
90.000000000000000
 51
124.999999999999600
  0
ARC
  8
0
  6
CONTINUOUS
 62
3
 10
-247.382848218114530
 20
195.140122034462590
 40
2.600000000000131
 50
125.000000000001180
 51
180.000000000000000
  0
LINE
  8
0
  6
CONTINUOUS
 62
3
 10
-249.982848218114440
 20
195.140122034462590
 11
-249.982848218114440
 21
147.296501900833280
  0
LINE
  8
0
  6
CONTINUOUS
 62
3
 10
-241.303367756038600
 20
202.571034013186480
 11
-248.874146952627370
 21
197.269917349613930
  0
LINE
  8
0
  6
CONTINUOUS
 62
3
 10
-151.982848218114440
 20
206.296501900833280
 11
-229.487693167207230
 21
206.296501900833280
  0
LINE
  8
0
  6
CONTINUOUS
 62
3
 10
-11.482848218093295
 20
200.796501900833280
 11
-151.982848218114440
 21
200.796501900833280
  0
LINE
  8
0
  6
CONTINUOUS
 62
4
 10
-151.982848218114440
 20
161.296501900833280
 11
-11.482848218093295
 21
161.296501900833280
  0
LINE
  8
0
  6
CONTINUOUS
 62
4
 10
-151.982848218114440
 20
166.924536557471130
 11
-11.482848218093295
 21
166.924536557471130
  0
LINE
  8
0
  6
CONTINUOUS
 62
4
 10
-151.982848218114440
 20
165.682616692583220
 11
-11.482848218093295
 21
165.682616692583220
  0
LINE
  8
0
  6
CONTINUOUS
 62
4
 10
-151.982848218114440
 20
170.134741580829430
 11
-11.482848218093295
 21
170.134741580829430
  0
LINE
  8
0
  6
CONTINUOUS
 62
4
 10
-151.982848218114440
 20
171.481143306328020
 11
-11.482848218093295
 21
171.481143306328020
  0
LINE
  8
0
  6
CONTINUOUS
 62
4
 10
-151.982848218114440
 20
174.573874297993260
 11
-11.482848218093295
 21
174.573874297993260
  0
LINE
  8
0
  6
CONTINUOUS
 62
4
 10
-151.982848218114440
 20
176.052897451470360
 11
-11.482848218093295
 21
176.052897451470360
  0
LINE
  8
0
  6
CONTINUOUS
 62
4
 10
-151.982848218114440
 20
179.010893059603290
 11
-11.482848218093295
 21
179.010893059603290
  0
LINE
  8
0
  6
CONTINUOUS
 62
4
 10
-151.982848218114440
 20
180.600102852342050
 11
-11.482848218093295
 21
180.600102852342050
  0
LINE
  8
0
  6
CONTINUOUS
 62
4
 10
-151.982848218114440
 20
188.338415671173040
 11
-11.482848218093295
 21
188.338415671173040
  0
LINE
  8
0
  6
CONTINUOUS
 62
4
 10
-151.982848218114440
 20
193.429584495715970
 11
-11.482848218093295
 21
193.429584495715970
  0
LINE
  8
0
  6
CONTINUOUS
 62
4
 10
-151.982848218114440
 20
197.796501900833280
 11
-11.482848218093295
 21
197.796501900833280
  0
LINE
  8
0
  6
CONTINUOUS
 62
4
 10
-151.982848218114440
 20
198.296501900833280
 11
-11.482848218093295
 21
198.296501900833280
  0
LINE
  8
0
  6
CONTINUOUS
 62
4
 10
-151.982848218114440
 20
113.992900949324500
 11
-11.482848218093295
 21
113.992900949324500
  0
LINE
  8
0
  6
CONTINUOUS
 62
4
 10
-151.982848218114440
 20
115.582110742063260
 11
-11.482848218093295
 21
115.582110742063260
  0
LINE
  8
0
  6
CONTINUOUS
 62
4
 10
-151.982848218114440
 20
118.540106350196190
 11
-11.482848218093295
 21
118.540106350196190
  0
LINE
  8
0
  6
CONTINUOUS
 62
4
 10
-151.982848218114440
 20
120.019129503673290
 11
-11.482848218093295
 21
120.019129503673290
  0
LINE
  8
0
  6
CONTINUOUS
 62
4
 10
-151.982848218114440
 20
123.111860495338530
 11
-11.482848218093295
 21
123.111860495338530
  0
LINE
  8
0
  6
CONTINUOUS
 62
4
 10
-151.982848218114210
 20
124.458262220837120
 11
-11.482848218093295
 21
124.458262220837120
  0
LINE
  8
0
  6
CONTINUOUS
 62
4
 10
-151.982848218114210
 20
127.668467244195420
 11
-11.482848218093295
 21
127.668467244195420
  0
LINE
  8
0
  6
CONTINUOUS
 62
4
 10
-151.982848218114210
 20
128.910387109083330
 11
-11.482848218093295
 21
128.910387109083330
  0
LINE
  8
0
  6
CONTINUOUS
 62
4
 10
-151.982848218114440
 20
133.296501900833280
 11
-11.482848218093295
 21
133.296501900833280
  0
LINE
  8
0
  6
CONTINUOUS
 62
3
 10
-11.482848218093295
 20
93.796501900833277
 11
-69.782848218093250
 21
93.796501900833277
  0
LINE
  8
0
  6
CONTINUOUS
 62
4
 10
-151.982848218114440
 20
96.296501900833277
 11
-11.482848218093295
 21
96.296501900833277
  0
LINE
  8
0
  6
CONTINUOUS
 62
4
 10
-151.982848218114440
 20
96.796501900833277
 11
-11.482848218093295
 21
96.796501900833277
  0
LINE
  8
0
  6
CONTINUOUS
 62
4
 10
-151.982848218114440
 20
101.163419305950580
 11
-11.482848218093295
 21
101.163419305950580
  0
LINE
  8
0
  6
CONTINUOUS
 62
4
 10
-151.982848218114440
 20
106.254588130493510
 11
-11.482848218093295
 21
106.254588130493510
  0
POLYLINE
  8
0
  6
CONTINUOUS
 62
3
 66
1
  0
VERTEX
  8
0
  6
CONTINUOUS
 62
3
 10
562.618508056871410
 20
-145.203498099166610
  0
VERTEX
  8
0
  6
CONTINUOUS
 62
3
 10
562.364873758193990
 20
-141.301691658844050
  0
VERTEX
  8
0
  6
CONTINUOUS
 62
3
 10
561.613717886020370
 20
-137.549829451864810
  0
VERTEX
  8
0
  6
CONTINUOUS
 62
3
 10
560.393906939264980
 20
-134.092093438774550
  0
VERTEX
  8
0
  6
CONTINUOUS
 62
3
 10
558.752317568533840
 20
-131.061362475435660
  0
VERTEX
  8
0
  6
CONTINUOUS
 62
3
 10
556.752035132730160
 20
-128.574105853115700
  0
VERTEX
  8
0
  6
CONTINUOUS
 62
3
 10
554.469929364090600
 20
-126.725907448940880
  0
VERTEX
  8
0
  6
CONTINUOUS
 62
3
 10
551.993700307484230
 20
-125.587792491102000
  0
VERTEX
  8
0
  6
CONTINUOUS
 62
3
 10
549.418508056871360
 20
-125.203498099166600
  0
VERTEX
  8
0
  6
CONTINUOUS
 62
3
 10
546.843315806258490
 20
-125.587792491102000
  0
VERTEX
  8
0
  6
CONTINUOUS
 62
3
 10
544.367086749652120
 20
-126.725907448940880
  0
VERTEX
  8
0
  6
CONTINUOUS
 62
3
 10
542.084980981012560
 20
-128.574105853115730
  0
VERTEX
  8
0
  6
CONTINUOUS
 62
3
 10
540.084698545208880
 20
-131.061362475435660
  0
VERTEX
  8
0
  6
CONTINUOUS
 62
3
 10
538.443109174477740
 20
-134.092093438774550
  0
VERTEX
  8
0
  6
CONTINUOUS
 62
3
 10
537.223298227722350
 20
-137.549829451864810
  0
VERTEX
  8
0
  6
CONTINUOUS
 62
3
 10
536.472142355548730
 20
-141.301691658844050
  0
VERTEX
  8
0
  6
CONTINUOUS
 62
3
 10
536.218508056871310
 20
-145.203498099166610
  0
SEQEND
  8
0
  6
CONTINUOUS
 62
3
  0
ARC
  8
0
  6
CONTINUOUS
 62
3
 10
518.594923368012130
 20
-149.203498099166610
 40
4.000000000000000
 50
0.000000000000000
 51
90.000000000000000
  0
ARC
  8
0
  6
CONTINUOUS
 62
3
 10
483.094923368013040
 20
-146.439072368775670
 40
47.518012424385233
 50
0.000000000000000
 51
85.577622414022514
  0
ARC
  8
0
  6
CONTINUOUS
 62
3
 10
483.094923368013040
 20
-146.439072368775670
 40
85.000000000000000
 50
0.000000000000000
 51
85.577622414022414
  0
LINE
  8
0
  6
CONTINUOUS
 62
3
 10
522.594923368012130
 20
-252.503501163023430
 11
522.594923368012130
 21
-149.203498099166610
  0
LINE
  8
0
  6
CONTINUOUS
 62
3
 10
530.612935792398280
 20
-265.203501163023250
 11
530.612935792398280
 21
-145.203498099166610
  0
LINE
  8
0
  6
CONTINUOUS
 62
3
 10
503.008312777681570
 20
-145.203498099166610
 11
518.594923368012130
 21
-145.203498099166610
  0
LINE
  8
0
  6
CONTINUOUS
 62
3
 10
536.218508056870630
 20
-145.203498099166610
 11
536.218508056870630
 21
-265.203501163023250
  0
LINE
  8
0
  6
DASHED
 62
3
 10
526.097792988592570
 20
-96.823378026386649
 11
531.191429916869540
 21
-198.696116591927420
  0
LINE
  8
0
  6
DASHED
 62
3
 10
527.695796730797160
 20
-96.743477839276466
 11
532.789433659074120
 21
-198.616216404816440
  0
ARC
  8
0
  6
DASHED
 62
3
 10
528.813425832647680
 20
-99.491093435521293
 40
1.299999237060645
 50
19.463936333587132
 51
92.862405909348169
  0
ARC
  8
0
  6
DASHED
 62
3
 10
529.033151423399660
 20
-103.885605250559020
 40
1.299999237060550
 50
272.862387240019760
 51
346.260856815788600
  0
LINE
  8
0
  6
DASHED
 62
3
 10
527.770703156212450
 20
-98.241606347593120
 11
528.748506968719990
 21
-98.192716156967776
  0
LINE
  8
0
  6
DASHED
 62
3
 10
528.120266474819570
 20
-105.232872719737990
 11
529.098070287327350
 21
-105.183982529112650
  0
LINE
  8
0
  6
DASHED
 62
3
 10
527.770703156212450
 20
-98.241606347593120
 11
528.120266474819570
 21
-105.232872719737990
  0
LINE
  8
0
  6
DASHED
 62
3
 10
527.770703156212450
 20
-98.241606347593120
 11
528.120266474819570
 21
-105.232872719737990
  0
ARC
  8
0
  6
DASHED
 62
3
 10
521.553470227691610
 20
-102.056840263056750
 40
8.999999999999948
 50
346.260856815786500
 51
19.463936333592187
  0
LINE
  8
0
  6
DASHED
 62
3
 10
527.695796730797160
 20
-96.743477839276466
 11
526.097792988592570
 21
-96.823378026386649
  0
ARC
  8
0
  6
DASHED
 62
3
 10
528.394923368011630
 20
-126.745998099166850
 40
18.799999999999933
 50
35.808626813495749
 51
85.126025186157264
  0
LINE
  8
0
  6
DASHED
 62
3
 10
526.896794859694860
 20
-96.783427932831614
 11
531.990431787971830
 21
-198.656166498371700
  0
ARC
  8
0
  6
DASHED
 62
3
 10
530.162181831640510
 20
-106.021211067143320
 40
1.999999999999927
 50
182.862405226112710
 51
265.126025186159040
  0
ARC
  8
0
  6
DASHED
 62
3
 10
524.569168733924700
 20
-106.300861722029140
 40
1.999999999999958
 50
280.598785266065990
 51
2.862405226112724
  0
ARC
  8
0
  6
DASHED
 62
3
 10
528.394923368011630
 20
-126.745998099166850
 40
18.799999999999983
 50
100.598785266066050
 51
180.000000000000000
  0
LINE
  8
0
  6
DASHED
 62
3
 10
509.594923368011680
 20
-168.575948902528470
 11
509.594923368011680
 21
-126.745998099166850
  0
ARC
  8
0
  6
DASHED
 62
3
 10
530.394923368011630
 20
-166.745998099166850
 40
20.799999999999862
 50
185.047316781007880
 51
265.808273843992540
  0
ARC
  8
0
  6
DASHED
 62
3
 10
530.394923368011630
 20
-166.745998099166850
 40
20.800000000000040
 50
279.916536608230560
 51
334.359929784105190
  0
ARC
  8
0
  6
DASHED
 62
3
 10
530.394923368011630
 20
-166.745998099166850
 40
20.799999999999926
 50
334.359929784105190
 51
5.724810452223396
  0
LINE
  8
0
  6
DASHED
 62
3
 10
551.091182719632570
 20
-164.671185131585840
 11
547.101157781976550
 21
-124.870686378468570
  0
ARC
  8
0
  6
DASHED
 62
3
 10
528.394923368011630
 20
-126.745998099166850
 40
18.799999999999837
 50
5.724810452223617
 51
35.808626813495749
  0
INSERT
  8
0
  2
SYM26
 10
532.539745574355040
 20
-193.622454710427290
 41
-1.000000000000000
 42
1.000000000000000
 43
1.000000000000000
 50
2.862405226113666
  0
LINE
  8
0
  6
DASHED
 62
3
 10
531.191429916869540
 20
-198.696116591927420
 11
532.789433659074120
 21
-198.616216404816440
  0
ARC
  8
0
  6
DASHED
 62
3
 10
534.321389199343910
 20
-189.205358421210350
 40
1.999999999999995
 50
99.916536608232732
 51
182.862405226112400
  0
ARC
  8
0
  6
DASHED
 62
3
 10
528.728376101628100
 20
-189.485009076096160
 40
1.999999999999927
 50
2.862405226112724
 51
85.808273843998350
  0
LINE
  8
0
  6
DASHED
 62
3
 10
374.931547704254170
 20
-155.309194777328340
 11
374.931171002899190
 21
-155.309194777328340
  0
LINE
  8
0
  6
CONTINUOUS
 62
3
 10
365.971338679153180
 20
-145.203498099166610
 11
365.971338679153180
 21
-265.203501163023250
  0
LINE
  8
0
  6
CONTINUOUS
 62
3
 10
371.576910943626440
 20
-265.203501163023250
 11
371.576910943626440
 21
-145.203498099166610
  0
LINE
  8
0
  6
CONTINUOUS
 62
3
 10
399.181533958342700
 20
-145.203498099166610
 11
383.594923368012130
 21
-145.203498099166610
  0
LINE
  8
0
  6
CONTINUOUS
 62
3
 10
379.594923368012130
 20
-252.503501163023430
 11
379.594923368012130
 21
-149.203498099166610
  0
ARC
  8
0
  6
CONTINUOUS
 62
3
 10
419.094923368011220
 20
-146.439072368775670
 40
47.518012424384935
 50
94.422377585977486
 51
180.000000000000000
  0
ARC
  8
0
  6
CONTINUOUS
 62
3
 10
399.181533958342700
 20
-148.203498099166610
 40
3.000000000000262
 50
3.307362179674563
 51
90.000000000000000
  0
ARC
  8
0
  6
CONTINUOUS
 62
3
 10
451.094923368012130
 20
-145.203498099166610
 40
48.999999999999531
 50
183.307362179670630
 51
270.000000000000000
  0
ARC
  8
0
  6
CONTINUOUS
 62
3
 10
383.594923368012130
 20
-149.203498099166610
 40
4.000000000000000
 50
90.000000000000000
 51
180.000000000000000
  0
POLYLINE
  8
0
  6
CONTINUOUS
 62
3
 66
1
  0
VERTEX
  8
0
  6
CONTINUOUS
 62
3
 10
365.971338679153350
 20
-145.203498099166610
  0
VERTEX
  8
0
  6
CONTINUOUS
 62
3
 10
365.717704380475990
 20
-141.301691658844050
  0
VERTEX
  8
0
  6
CONTINUOUS
 62
3
 10
364.966548508302310
 20
-137.549829451864810
  0
VERTEX
  8
0
  6
CONTINUOUS
 62
3
 10
363.746737561546920
 20
-134.092093438774550
  0
VERTEX
  8
0
  6
CONTINUOUS
 62
3
 10
362.105148190815780
 20
-131.061362475435660
  0
VERTEX
  8
0
  6
CONTINUOUS
 62
3
 10
360.104865755012100
 20
-128.574105853115700
  0
VERTEX
  8
0
  6
CONTINUOUS
 62
3
 10
357.822759986372550
 20
-126.725907448940880
  0
VERTEX
  8
0
  6
CONTINUOUS
 62
3
 10
355.346530929766230
 20
-125.587792491102000
  0
VERTEX
  8
0
  6
CONTINUOUS
 62
3
 10
352.771338679153360
 20
-125.203498099166600
  0
VERTEX
  8
0
  6
CONTINUOUS
 62
3
 10
350.196146428540490
 20
-125.587792491102000
  0
VERTEX
  8
0
  6
CONTINUOUS
 62
3
 10
347.719917371934170
 20
-126.725907448940880
  0
VERTEX
  8
0
  6
CONTINUOUS
 62
3
 10
345.437811603294620
 20
-128.574105853115730
  0
VERTEX
  8
0
  6
CONTINUOUS
 62
3
 10
343.437529167490940
 20
-131.061362475435660
  0
VERTEX
  8
0
  6
CONTINUOUS
 62
3
 10
341.795939796759800
 20
-134.092093438774550
  0
VERTEX
  8
0
  6
CONTINUOUS
 62
3
 10
340.576128850004410
 20
-137.549829451864810
  0
VERTEX
  8
0
  6
CONTINUOUS
 62
3
 10
339.824972977830730
 20
-141.301691658844050
  0
VERTEX
  8
0
  6
CONTINUOUS
 62
3
 10
339.571338679153370
 20
-145.203498099166610
  0
SEQEND
  8
0
  6
CONTINUOUS
 62
3
  0
LINE
  8
0
  6
DASHDOT
 62
4
 10
316.030393113334870
 20
-145.203498099166610
 11
579.234103808652430
 21
-145.203498099166610
  0
ARC
  8
0
  6
DASHED
 62
3
 10
659.594923368011680
 20
-152.703498099166720
 40
300.000000000000060
 50
173.967950853630190
 51
186.032049146369810
  0
ARC
  8
0
  6
DASHED
 62
3
 10
366.228258595069290
 20
-121.703498099166720
 40
5.000000000000000
 50
90.000000000000000
 51
173.967950853629670
  0
LINE
  8
0
  6
DASHED
 62
3
 10
398.594923368011680
 20
-116.703498099166720
 11
366.228258595069290
 21
-116.703498099166720
  0
LINE
  8
0
  6
DASHED
 62
3
 10
393.594923368011680
 20
-188.703498099166720
 11
393.594923368011680
 21
-116.703498099166720
  0
LINE
  8
0
  6
DASHED
 62
3
 10
397.094923368011680
 20
-132.203498099166720
 11
397.094923368011680
 21
-173.003498099166680
  0
LINE
  8
0
  6
DASHED
 62
3
 10
398.594923368011680
 20
-132.203498099166720
 11
397.094923368011680
 21
-132.203498099166720
  0
LINE
  8
0
  6
DASHED
 62
3
 10
398.594923368011680
 20
-132.203498099166720
 11
398.594923368011680
 21
-116.703498099166720
  0
ARC
  8
0
  6
DASHED
 62
3
 10
397.294923368011500
 20
-173.003498099166680
 40
0.199999999999818
 50
180.000000000000000
 51
270.000000000000000
  0
LINE
  8
0
  6
DASHED
 62
3
 10
398.594923368011680
 20
-188.703498099166720
 11
366.228258595069290
 21
-188.703498099166720
  0
LINE
  8
0
  6
DASHED
 62
3
 10
398.594923368011680
 20
-173.203498099166720
 11
397.294923368011500
 21
-173.203498099166720
  0
LINE
  8
0
  6
DASHED
 62
3
 10
398.594923368011680
 20
-173.203498099166720
 11
398.594923368011680
 21
-188.703498099166720
  0
LINE
  8
0
  6
DASHED
 62
3
 10
393.594923368011680
 20
-187.203498099166720
 11
393.594923368011680
 21
-188.703498099166720
  0
ARC
  8
0
  6
DASHED
 62
3
 10
366.228258595069290
 20
-183.703498099166720
 40
5.000000000000143
 50
186.032049146370330
 51
270.000000000000000
  0
LINE
  8
0
  6
DASHED
 62
3
 10
359.605340215529400
 20
-155.203498099166720
 11
359.094923368011680
 21
-155.203498099166720
  0
LINE
  8
0
  6
DASHED
 62
3
 10
359.594925225209410
 20
-150.203498099166720
 11
359.094923368011680
 21
-150.203498099166720
  0
LINE
  8
0
  6
DASHED
 62
3
 10
359.094923368011680
 20
-155.203498099166720
 11
359.094923368011680
 21
-150.203498099166720
  0
LINE
  8
0
  6
CONTINUOUS
 62
4
 10
-69.782854269299094
 20
-186.007099050675490
 11
-11.482854269299594
 21
-186.007099050675490
  0
LINE
  8
0
  6
CONTINUOUS
 62
4
 10
-69.782854269299094
 20
-184.417889257936740
 11
-11.482854269299594
 21
-184.417889257936740
  0
LINE
  8
0
  6
CONTINUOUS
 62
4
 10
-69.782854269299094
 20
-172.703498099166720
 11
-11.482854269299594
 21
-172.703498099166720
  0
LINE
  8
0
  6
CONTINUOUS
 62
4
 10
-69.782854269299094
 20
-175.541737779162870
 11
-11.482854269299594
 21
-175.541737779162870
  0
LINE
  8
0
  6
CONTINUOUS
 62
4
 10
-69.782854269299094
 20
-176.888139504661350
 11
-11.482854269299594
 21
-176.888139504661350
  0
LINE
  8
0
  6
CONTINUOUS
 62
4
 10
-69.782854269299094
 20
-179.980870496326700
 11
-11.482854269299594
 21
-179.980870496326700
  0
LINE
  8
0
  6
CONTINUOUS
 62
4
 10
-69.782854269299094
 20
-181.459893649803800
 11
-11.482854269299594
 21
-181.459893649803800
  0
LINE
  8
0
  6
CONTINUOUS
 62
4
 10
-152.140454615692020
 20
-192.743933505690960
 11
-11.482854269299594
 21
-192.743933505690960
  0
LINE
  8
0
  6
CONTINUOUS
 62
4
 10
-69.782854269299094
 20
-119.399897147657950
 11
-11.482854269299594
 21
-119.399897147657950
  0
LINE
  8
0
  6
CONTINUOUS
 62
4
 10
-69.782854269299094
 20
-120.989106940396700
 11
-11.482854269299594
 21
-120.989106940396700
  0
LINE
  8
0
  6
CONTINUOUS
 62
4
 10
-69.782854269299094
 20
-132.703498099166720
 11
-11.482854269299594
 21
-132.703498099166720
  0
LINE
  8
0
  6
CONTINUOUS
 62
4
 10
-69.782854269299094
 20
-129.865258419170570
 11
-11.482854269299594
 21
-129.865258419170570
  0
LINE
  8
0
  6
CONTINUOUS
 62
4
 10
-69.782854269299094
 20
-128.518856693672090
 11
-11.482854269299594
 21
-128.518856693672090
  0
LINE
  8
0
  6
CONTINUOUS
 62
4
 10
-69.782854269299094
 20
-125.426125702006740
 11
-11.482854269299594
 21
-125.426125702006740
  0
LINE
  8
0
  6
CONTINUOUS
 62
4
 10
-69.782854269299094
 20
-123.947102548529640
 11
-11.482854269299594
 21
-123.947102548529640
  0
LINE
  8
0
  6
DASHDOT
 62
4
 10
10.128357334670739
 20
-152.703498099166720
 11
-265.310854462233690
 21
-152.703498099166720
  0
LINE
  8
0
  6
CONTINUOUS
 62
3
 10
-161.982854269320740
 20
-152.703498099166720
 11
-161.982854269320740
 21
-117.703498099166720
  0
LINE
  8
0
  6
CONTINUOUS
 62
4
 10
-161.982854269320740
 20
-119.399897147657950
 11
-159.782854269299090
 21
-119.399897147657950
  0
LINE
  8
0
  6
CONTINUOUS
 62
4
 10
-161.982854269320740
 20
-120.989106940396700
 11
-159.782854269299090
 21
-120.989106940396700
  0
LINE
  8
0
  6
CONTINUOUS
 62
4
 10
-161.982854269320740
 20
-123.947102548529640
 11
-159.782854269299090
 21
-123.947102548529640
  0
LINE
  8
0
  6
CONTINUOUS
 62
4
 10
-161.982854269320740
 20
-125.426125702006740
 11
-159.782854269299090
 21
-125.426125702006740
  0
LINE
  8
0
  6
CONTINUOUS
 62
4
 10
-161.982854269320740
 20
-128.518856693672090
 11
-159.782854269299090
 21
-128.518856693672090
  0
LINE
  8
0
  6
CONTINUOUS
 62
4
 10
-161.982854269320740
 20
-129.865258419170570
 11
-159.782854269299090
 21
-129.865258419170570
  0
LINE
  8
0
  6
CONTINUOUS
 62
4
 10
-161.982854269320740
 20
-132.703498099166720
 11
-159.782854269299090
 21
-132.703498099166720
  0
ARC
  8
0
  6
CONTINUOUS
 62
3
 10
-154.982854269320740
 20
-111.703498099166720
 40
3.000000000000000
 50
270.000000000000000
 51
0.000000000000000
  0
LINE
  8
0
  6
CONTINUOUS
 62
3
 10
-154.982854269320740
 20
-114.703498099166720
 11
-158.982854269320740
 21
-114.703498099166720
  0
ARC
  8
0
  6
CONTINUOUS
 62
3
 10
-158.982854269320740
 20
-117.703498099166720
 40
3.000000000000000
 50
90.000000000000000
 51
180.000000000000000
  0
LINE
  8
0
  6
CONTINUOUS
 62
3
 10
-161.982854269320740
 20
-152.703498099166720
 11
-161.982854269320740
 21
-187.703498099166720
  0
LINE
  8
0
  6
CONTINUOUS
 62
4
 10
-161.982854269320740
 20
-186.007099050675490
 11
-159.782854269299090
 21
-186.007099050675490
  0
LINE
  8
0
  6
CONTINUOUS
 62
4
 10
-161.982854269320740
 20
-184.417889257936740
 11
-159.782854269299090
 21
-184.417889257936740
  0
LINE
  8
0
  6
CONTINUOUS
 62
4
 10
-161.982854269320740
 20
-181.459893649803800
 11
-159.782854269299090
 21
-181.459893649803800
  0
LINE
  8
0
  6
CONTINUOUS
 62
4
 10
-161.982854269320740
 20
-179.980870496326700
 11
-159.782854269299090
 21
-179.980870496326700
  0
LINE
  8
0
  6
CONTINUOUS
 62
4
 10
-161.982854269320740
 20
-176.888139504661350
 11
-159.782854269299090
 21
-176.888139504661350
  0
LINE
  8
0
  6
CONTINUOUS
 62
4
 10
-161.982854269320740
 20
-175.541737779162870
 11
-159.782854269299090
 21
-175.541737779162870
  0
LINE
  8
0
  6
CONTINUOUS
 62
4
 10
-161.982854269320740
 20
-172.703498099166720
 11
-159.782854269299090
 21
-172.703498099166720
  0
ARC
  8
0
  6
CONTINUOUS
 62
3
 10
-154.982854269320740
 20
-193.703498099166720
 40
3.000000000000000
 50
0.000000000000000
 51
90.000000000000000
  0
LINE
  8
0
  6
CONTINUOUS
 62
3
 10
-154.982854269320740
 20
-190.703498099166720
 11
-158.982854269320740
 21
-190.703498099166720
  0
ARC
  8
0
  6
CONTINUOUS
 62
3
 10
-158.982854269320740
 20
-187.703498099166720
 40
3.000000000000000
 50
180.000000000000000
 51
270.000000000000000
  0
LINE
  8
0
  6
CONTINUOUS
 62
3
 10
-159.782854269298870
 20
-117.703498099166720
 11
-159.782854269299550
 21
-152.703498099166950
  0
ARC
  8
0
  6
CONTINUOUS
 62
3
 10
-158.782854269299090
 20
-117.703498099166720
 40
1.000000000000000
 50
90.000000000000000
 51
180.000000000000000
  0
LINE
  8
0
  6
CONTINUOUS
 62
3
 10
-70.782854269299094
 20
-116.703498099166720
 11
-158.782854269299090
 21
-116.703498099166720
  0
ARC
  8
0
  6
CONTINUOUS
 62
3
 10
-70.782854269299094
 20
-117.703498099166720
 40
1.000000000000227
 50
0.000000000000000
 51
90.000000000000000
  0
LINE
  8
0
  6
CONTINUOUS
 62
3
 10
-69.782854269298866
 20
-117.703498099166720
 11
-69.782854269299548
 21
-152.703498099168310
  0
LINE
  8
0
  6
CONTINUOUS
 62
3
 10
-69.782854269298866
 20
-187.703498099166720
 11
-69.782854269299548
 21
-152.703498099165130
  0
LINE
  8
0
  6
CONTINUOUS
 62
3
 10
-70.782854269299094
 20
-188.703498099166720
 11
-158.782854269299090
 21
-188.703498099166720
  0
ARC
  8
0
  6
CONTINUOUS
 62
3
 10
-70.782854269299094
 20
-187.703498099166720
 40
1.000000000000000
 50
270.000000000000000
 51
0.000000000000000
  0
LINE
  8
0
  6
CONTINUOUS
 62
3
 10
-159.782854269298870
 20
-187.703498099166720
 11
-159.782854269299550
 21
-152.703498099166500
  0
ARC
  8
0
  6
CONTINUOUS
 62
3
 10
-158.782854269299090
 20
-187.703498099166720
 40
0.999999999999773
 50
180.000000000000000
 51
270.000000000000000
  0
LINE
  8
0
  6
DASHDOT
 62
4
 10
408.592131601908480
 20
-152.703498099166840
 11
492.657202420832620
 21
-152.703498099166840
  0
LINE
  8
0
  6
CONTINUOUS
 62
3
 10
568.094923368013040
 20
-265.203501163023250
 11
568.094923368013040
 21
-146.439072368775670
  0
LINE
  8
0
  6
CONTINUOUS
 62
3
 10
562.618508056871180
 20
-145.203498099166610
 11
562.618508056871180
 21
-265.203501163023250
  0
CIRCLE
  8
0
  6
CONTINUOUS
 62
3
 10
451.094923368012130
 20
-145.203498099166610
 40
40.999999999999943
  0
ARC
  8
0
  6
CONTINUOUS
 62
3
 10
451.094923368012130
 20
-560.203498099166610
 40
462.518012424385230
 50
85.577622414021917
 51
90.000000000000000
  0
ARC
  8
0
  6
CONTINUOUS
 62
3
 10
451.094923368012130
 20
-145.203498099166610
 40
49.000000000000000
 50
270.000000000000000
 51
356.692637820329420
  0
ARC
  8
0
  6
CONTINUOUS
 62
3
 10
503.008312777681570
 20
-148.203498099166610
 40
3.000000000000000
 50
90.000000000000000
 51
176.692637820325420
  0
ARC
  8
0
  6
CONTINUOUS
 62
3
 10
-229.487699218413520
 20
-186.103498099167040
 40
20.599999999999795
 50
235.000000000000260
 51
270.000000000000000
  0
ARC
  8
0
  6
CONTINUOUS
 62
3
 10
-247.382854269320830
 20
-195.547118232796380
 40
2.599999999999909
 50
180.000000000000000
 51
234.999999999994540
  0
LINE
  8
0
  6
CONTINUOUS
 62
3
 10
-249.982854269320740
 20
-195.547118232796380
 11
-249.982854269320740
 21
-152.703498099166720
  0
LINE
  8
0
  6
CONTINUOUS
 62
3
 10
-241.303373807244900
 20
-202.978030211520150
 11
-248.874153003833670
 21
-197.676913547947490
  0
ARC
  8
0
  6
CONTINUOUS
 62
3
 10
-229.487699218413520
 20
-119.303498099166400
 40
20.599999999999909
 50
90.000000000000000
 51
124.999999999999780
  0
ARC
  8
0
  6
CONTINUOUS
 62
3
 10
-247.382854269320830
 20
-109.859877965537060
 40
2.600000000000037
 50
125.000000000002600
 51
180.000000000000000
  0
LINE
  8
0
  6
CONTINUOUS
 62
3
 10
-249.982854269320740
 20
-109.859877965537060
 11
-249.982854269320740
 21
-152.703498099166720
  0
LINE
  8
0
  6
CONTINUOUS
 62
3
 10
-241.303373807244900
 20
-102.428965986813060
 11
-248.874153003833670
 21
-107.730082650385950
  0
POLYLINE
  8
0
  6
CONTINUOUS
 62
3
 66
1
 70
1
  0
VERTEX
  8
0
  6
CONTINUOUS
 62
3
 10
-158.282854269320520
 20
-105.376167144819070
  0
VERTEX
  8
0
  6
CONTINUOUS
 62
3
 10
-158.373163451425340
 20
-104.673210178618710
  0
VERTEX
  8
0
  6
CONTINUOUS
 62
3
 10
-158.640620466517480
 20
-103.997267454406620
  0
VERTEX
  8
0
  6
CONTINUOUS
 62
3
 10
-159.074947091498560
 20
-103.374315072001220
  0
VERTEX
  8
0
  6
CONTINUOUS
 62
3
 10
-159.659452397743730
 20
-102.828292742102640
  0
VERTEX
  8
0
  6
CONTINUOUS
 62
3
 10
-160.371674174128400
 20
-102.380183796636030
  0
VERTEX
  8
0
  6
CONTINUOUS
 62
3
 10
-161.184242137204590
 20
-102.047208811073260
  0
VERTEX
  8
0
  6
CONTINUOUS
 62
3
 10
-162.065929755844710
 20
-101.842163827375010
  0
VERTEX
  8
0
  6
CONTINUOUS
 62
3
 10
-162.982854269320510
 20
-101.772928609274240
  0
VERTEX
  8
0
  6
CONTINUOUS
 62
3
 10
-163.899778782796320
 20
-101.842163827375010
  0
VERTEX
  8
0
  6
CONTINUOUS
 62
3
 10
-164.781466401436430
 20
-102.047208811073260
  0
VERTEX
  8
0
  6
CONTINUOUS
 62
3
 10
-165.594034364512620
 20
-102.380183796636030
  0
VERTEX
  8
0
  6
CONTINUOUS
 62
3
 10
-166.306256140897290
 20
-102.828292742102640
  0
VERTEX
  8
0
  6
CONTINUOUS
 62
3
 10
-166.890761447142470
 20
-103.374315072001220
  0
VERTEX
  8
0
  6
CONTINUOUS
 62
3
 10
-167.325088072123550
 20
-103.997267454406620
  0
VERTEX
  8
0
  6
CONTINUOUS
 62
3
 10
-167.592545087215680
 20
-104.673210178618710
  0
VERTEX
  8
0
  6
CONTINUOUS
 62
3
 10
-167.682854269320500
 20
-105.376167144819070
  0
VERTEX
  8
0
  6
CONTINUOUS
 62
3
 10
-167.592545087215680
 20
-106.079124111019430
  0
VERTEX
  8
0
  6
CONTINUOUS
 62
3
 10
-167.325088072123550
 20
-106.755066835231530
  0
VERTEX
  8
0
  6
CONTINUOUS
 62
3
 10
-166.890761447142470
 20
-107.378019217636930
  0
VERTEX
  8
0
  6
CONTINUOUS
 62
3
 10
-166.306256140897260
 20
-107.924041547535500
  0
VERTEX
  8
0
  6
CONTINUOUS
 62
3
 10
-165.594034364512620
 20
-108.372150493002120
  0
VERTEX
  8
0
  6
CONTINUOUS
 62
3
 10
-164.781466401436430
 20
-108.705125478564890
  0
VERTEX
  8
0
  6
CONTINUOUS
 62
3
 10
-163.899778782796320
 20
-108.910170462263130
  0
VERTEX
  8
0
  6
CONTINUOUS
 62
3
 10
-162.982854269320510
 20
-108.979405680363910
  0
VERTEX
  8
0
  6
CONTINUOUS
 62
3
 10
-162.065929755844710
 20
-108.910170462263130
  0
VERTEX
  8
0
  6
CONTINUOUS
 62
3
 10
-161.184242137204590
 20
-108.705125478564890
  0
VERTEX
  8
0
  6
CONTINUOUS
 62
3
 10
-160.371674174128400
 20
-108.372150493002120
  0
VERTEX
  8
0
  6
CONTINUOUS
 62
3
 10
-159.659452397743760
 20
-107.924041547535500
  0
VERTEX
  8
0
  6
CONTINUOUS
 62
3
 10
-159.074947091498560
 20
-107.378019217636930
  0
VERTEX
  8
0
  6
CONTINUOUS
 62
3
 10
-158.640620466517480
 20
-106.755066835231530
  0
VERTEX
  8
0
  6
CONTINUOUS
 62
3
 10
-158.373163451425340
 20
-106.079124111019430
  0
SEQEND
  8
0
  6
CONTINUOUS
 62
3
  0
LINE
  8
0
  6
CONTINUOUS
 62
3
 10
-164.982854269320740
 20
-102.383791590818760
 11
-162.982854269320740
 21
-103.559577076441540
  0
LINE
  8
0
  6
CONTINUOUS
 62
3
 10
-162.982854269320740
 20
-103.559577076441540
 11
-160.982854269320740
 21
-105.212218715564970
  0
LINE
  8
0
  6
CONTINUOUS
 62
3
 10
-160.982854269320740
 20
-102.383791590818760
 11
-162.982854269320740
 21
-103.559577076441540
  0
LINE
  8
0
  6
CONTINUOUS
 62
3
 10
-162.982854269320740
 20
-103.559577076441540
 11
-164.982854269320740
 21
-105.212218715564970
  0
POLYLINE
  8
0
  6
CONTINUOUS
 62
3
 66
1
 70
1
  0
VERTEX
  8
0
  6
CONTINUOUS
 62
3
 10
-158.282854269320520
 20
-200.030829053514370
  0
VERTEX
  8
0
  6
CONTINUOUS
 62
3
 10
-158.373163451425340
 20
-199.327872087314010
  0
VERTEX
  8
0
  6
CONTINUOUS
 62
3
 10
-158.640620466517480
 20
-198.651929363101910
  0
VERTEX
  8
0
  6
CONTINUOUS
 62
3
 10
-159.074947091498560
 20
-198.028976980696510
  0
VERTEX
  8
0
  6
CONTINUOUS
 62
3
 10
-159.659452397743730
 20
-197.482954650797920
  0
VERTEX
  8
0
  6
CONTINUOUS
 62
3
 10
-160.371674174128400
 20
-197.034845705331290
  0
VERTEX
  8
0
  6
CONTINUOUS
 62
3
 10
-161.184242137204590
 20
-196.701870719768550
  0
VERTEX
  8
0
  6
CONTINUOUS
 62
3
 10
-162.065929755844710
 20
-196.496825736070290
  0
VERTEX
  8
0
  6
CONTINUOUS
 62
3
 10
-162.982854269320510
 20
-196.427590517969520
  0
VERTEX
  8
0
  6
CONTINUOUS
 62
3
 10
-163.899778782796320
 20
-196.496825736070290
  0
VERTEX
  8
0
  6
CONTINUOUS
 62
3
 10
-164.781466401436430
 20
-196.701870719768550
  0
VERTEX
  8
0
  6
CONTINUOUS
 62
3
 10
-165.594034364512620
 20
-197.034845705331290
  0
VERTEX
  8
0
  6
CONTINUOUS
 62
3
 10
-166.306256140897290
 20
-197.482954650797920
  0
VERTEX
  8
0
  6
CONTINUOUS
 62
3
 10
-166.890761447142470
 20
-198.028976980696510
  0
VERTEX
  8
0
  6
CONTINUOUS
 62
3
 10
-167.325088072123550
 20
-198.651929363101910
  0
VERTEX
  8
0
  6
CONTINUOUS
 62
3
 10
-167.592545087215680
 20
-199.327872087314010
  0
VERTEX
  8
0
  6
CONTINUOUS
 62
3
 10
-167.682854269320500
 20
-200.030829053514370
  0
VERTEX
  8
0
  6
CONTINUOUS
 62
3
 10
-167.592545087215680
 20
-200.733786019714730
  0
VERTEX
  8
0
  6
CONTINUOUS
 62
3
 10
-167.325088072123550
 20
-201.409728743926820
  0
VERTEX
  8
0
  6
CONTINUOUS
 62
3
 10
-166.890761447142470
 20
-202.032681126332220
  0
VERTEX
  8
0
  6
CONTINUOUS
 62
3
 10
-166.306256140897260
 20
-202.578703456230810
  0
VERTEX
  8
0
  6
CONTINUOUS
 62
3
 10
-165.594034364512620
 20
-203.026812401697440
  0
VERTEX
  8
0
  6
CONTINUOUS
 62
3
 10
-164.781466401436430
 20
-203.359787387260180
  0
VERTEX
  8
0
  6
CONTINUOUS
 62
3
 10
-163.899778782796320
 20
-203.564832370958440
  0
VERTEX
  8
0
  6
CONTINUOUS
 62
3
 10
-162.982854269320510
 20
-203.634067589059210
  0
VERTEX
  8
0
  6
CONTINUOUS
 62
3
 10
-162.065929755844710
 20
-203.564832370958440
  0
VERTEX
  8
0
  6
CONTINUOUS
 62
3
 10
-161.184242137204590
 20
-203.359787387260180
  0
VERTEX
  8
0
  6
CONTINUOUS
 62
3
 10
-160.371674174128400
 20
-203.026812401697440
  0
VERTEX
  8
0
  6
CONTINUOUS
 62
3
 10
-159.659452397743760
 20
-202.578703456230810
  0
VERTEX
  8
0
  6
CONTINUOUS
 62
3
 10
-159.074947091498560
 20
-202.032681126332220
  0
VERTEX
  8
0
  6
CONTINUOUS
 62
3
 10
-158.640620466517480
 20
-201.409728743926820
  0
VERTEX
  8
0
  6
CONTINUOUS
 62
3
 10
-158.373163451425340
 20
-200.733786019714730
  0
SEQEND
  8
0
  6
CONTINUOUS
 62
3
  0
LINE
  8
0
  6
CONTINUOUS
 62
3
 10
-164.982854269320740
 20
-203.023204607514690
 11
-162.982854269320740
 21
-201.847419121891900
  0
LINE
  8
0
  6
CONTINUOUS
 62
3
 10
-162.982854269320740
 20
-201.847419121891900
 11
-160.982854269320740
 21
-200.194777482768470
  0
LINE
  8
0
  6
CONTINUOUS
 62
3
 10
-160.982854269320740
 20
-203.023204607514690
 11
-162.982854269320740
 21
-201.847419121891900
  0
LINE
  8
0
  6
CONTINUOUS
 62
3
 10
-162.982854269320740
 20
-201.847419121891900
 11
-164.982854269320740
 21
-200.194777482768470
  0
LINE
  8
0
  6
CONTINUOUS
 62
3
 10
-151.982854269320740
 20
-98.703498099166495
 11
-229.487699218413520
 21
-98.703498099166495
  0
LINE
  8
0
  6
CONTINUOUS
 62
3
 10
-151.982854269320740
 20
-98.703498099166495
 11
-151.982854269320740
 21
-111.703498099166720
  0
LINE
  8
0
  6
CONTINUOUS
 62
3
 10
-151.982854269320740
 20
-206.703498099166950
 11
-229.487699218413520
 21
-206.703498099166950
  0
LINE
  8
0
  6
CONTINUOUS
 62
3
 10
-11.482854269299594
 20
-100.203498099166720
 11
-151.982854269320740
 21
-100.203498099166720
  0
LINE
  8
0
  6
CONTINUOUS
 62
4
 10
-151.982854269320740
 20
-102.203498099166720
 11
-11.482854269299594
 21
-102.203498099166720
  0
LINE
  8
0
  6
CONTINUOUS
 62
4
 10
-151.982854269320740
 20
-101.703498099166490
 11
-11.482854269299594
 21
-101.703498099166490
  0
LINE
  8
0
  6
CONTINUOUS
 62
4
 10
-151.982854269320740
 20
-106.570415504283910
 11
-11.482854269299594
 21
-106.570415504283910
  0
LINE
  8
0
  6
CONTINUOUS
 62
4
 10
-151.982854269320740
 20
-108.198842572061830
 11
-11.482854269299594
 21
-108.198842572061830
  0
LINE
  8
0
  6
CONTINUOUS
 62
4
 10
-151.982854269320740
 20
-111.661584328826960
 11
-11.482854269299594
 21
-111.661584328826960
  0
LINE
  8
0
  6
CONTINUOUS
 62
4
 10
-152.140454615692020
 20
-112.663062692642250
 11
-11.482854269299594
 21
-112.663062692642250
  0
LINE
  8
0
  6
CONTINUOUS
 62
3
 10
-11.482854269299594
 20
-205.203498099166720
 11
-151.982854269320740
 21
-205.203498099166720
  0
LINE
  8
0
  6
CONTINUOUS
 62
4
 10
-151.982854269320740
 20
-203.203498099166720
 11
-11.482854269299594
 21
-203.203498099166720
  0
LINE
  8
0
  6
CONTINUOUS
 62
4
 10
-151.982854269320740
 20
-203.703498099166950
 11
-11.482854269299594
 21
-203.703498099166950
  0
LINE
  8
0
  6
CONTINUOUS
 62
4
 10
-151.982854269320740
 20
-198.836580694049530
 11
-11.482854269299594
 21
-198.836580694049530
  0
LINE
  8
0
  6
CONTINUOUS
 62
4
 10
-151.982854269320740
 20
-197.208153626271610
 11
-11.482854269299594
 21
-197.208153626271610
  0
LINE
  8
0
  6
CONTINUOUS
 62
4
 10
-151.982854269320740
 20
-193.745411869506260
 11
-11.482854269299594
 21
-193.745411869506260
  0
ARC
  8
0
  6
CONTINUOUS
 62
3
 10
331.094923368012130
 20
-265.203501163023250
 40
3.000000000000000
 50
270.000000000000000
 51
0.000000000000000
  0
ARC
  8
0
  6
CONTINUOUS
 62
3
 10
329.094920254336560
 20
-271.203501163023250
 40
3.000000000000000
 50
90.000000000000000
 51
180.000000000000000
  0
ARC
  8
0
  6
CONTINUOUS
 62
3
 10
387.594923368012130
 20
-252.503501163023430
 40
8.000000000000000
 50
180.000000000000000
 51
270.000000000000000
  0
ARC
  8
0
  6
CONTINUOUS
 62
3
 10
514.594923368012130
 20
-252.503501163023430
 40
8.000000000000000
 50
270.000000000000000
 51
0.000000000000000
  0
ARC
  8
0
  6
CONTINUOUS
 62
3
 10
368.576910943626440
 20
-265.203501163023250
 40
3.000000000000000
 50
270.000000000000000
 51
0.000000000000000
  0
ARC
  8
0
  6
CONTINUOUS
 62
3
 10
533.612935792398280
 20
-265.203501163023250
 40
3.000000000000000
 50
180.000000000000000
 51
270.000000000000000
  0
ARC
  8
0
  6
CONTINUOUS
 62
3
 10
451.094923368012130
 20
-560.203498099166610
 40
462.518012424385230
 50
90.000000000000000
 51
94.422377585978083
  0
ARC
  8
0
  6
CONTINUOUS
 62
3
 10
373.094921375259670
 20
-290.203501711030190
 40
2.000000000000000
 50
90.000000000000000
 51
180.000000000000000
  0
ARC
  8
0
  6
CONTINUOUS
 62
3
 10
529.094925360765050
 20
-290.203501711030190
 40
2.000000000000000
 50
0.000000000000000
 51
90.000000000000000
  0
ARC
  8
0
  6
CONTINUOUS
 62
3
 10
451.094923368012130
 20
-145.203498099166610
 40
31.000000000000256
 50
70.008590721901967
 51
180.000000000000000
  0
ARC
  8
0
  6
CONTINUOUS
 62
3
 10
384.094923368012130
 20
-280.203498223713720
 40
10.000000000000053
 50
306.869864344412290
 51
315.572968020398260
  0
ARC
  8
0
  6
CONTINUOUS
 62
3
 10
518.094923368012130
 20
-280.203498223713720
 40
9.999999999999833
 50
224.427031979601790
 51
233.130135655587680
  0
ARC
  8
0
  6
CONTINUOUS
 62
3
 10
362.971338679153180
 20
-265.203501163023250
 40
3.000000000000000
 50
270.000000000000000
 51
0.000000000000000
  0
ARC
  8
0
  6
CONTINUOUS
 62
3
 10
336.571338679153090
 20
-265.203501163023250
 40
3.000000000000000
 50
270.000000000000000
 51
0.000000000000000
  0
ARC
  8
0
  6
CONTINUOUS
 62
3
 10
565.618508056871180
 20
-265.203501163023250
 40
3.000000000000000
 50
180.000000000000000
 51
270.000000000000000
  0
ARC
  8
0
  6
CONTINUOUS
 62
3
 10
571.094923368013040
 20
-265.203501163023250
 40
3.000000000000000
 50
180.000000000000000
 51
270.000000000000000
  0
ARC
  8
0
  6
CONTINUOUS
 62
3
 10
539.218508056870630
 20
-265.203501163023250
 40
3.000000000000000
 50
180.000000000000000
 51
270.000000000000000
  0
ARC
  8
0
  6
CONTINUOUS
 62
3
 10
451.094923368012130
 20
-145.203498099166610
 40
31.000000000000000
 50
180.000000000000000
 51
0.000000000000000
  0
ARC
  8
0
  6
CONTINUOUS
 62
3
 10
573.094926481688160
 20
-271.203501163023250
 40
3.000000000000000
 50
0.000000000000000
 51
90.000000000000000
  0
ARC
  8
0
  6
CONTINUOUS
 62
3
 10
419.094923368012130
 20
-146.439072368775670
 40
84.999999999999972
 50
94.422377585978197
 51
180.000000000000000
  0
ARC
  8
0
  6
CONTINUOUS
 62
3
 10
451.094923368012130
 20
-560.203498099166610
 40
500.000000000000000
 50
90.000000000000000
 51
94.422377585978055
  0
ARC
  8
0
  6
CONTINUOUS
 62
3
 10
451.094923368012130
 20
-560.203498099166610
 40
500.000000000000230
 50
85.577622414021945
 51
90.000000000000000
  0
CIRCLE
  8
0
  6
CONTINUOUS
 62
3
 10
451.094923368012130
 20
-145.203498099166610
 40
31.000000000000057
  0
CIRCLE
  8
0
  6
CONTINUOUS
 62
4
 10
451.094923368012130
 20
-145.203498099166610
 40
4.000000000000000
  0
CIRCLE
  8
0
  6
CONTINUOUS
 62
3
 10
451.094923368012130
 20
-145.203498099166610
 40
3.324999999999989
  0
CIRCLE
  8
0
  6
CONTINUOUS
 62
3
 10
451.094923368012130
 20
-45.203498099166609
 40
10.000000000000000
  0
ARC
  8
0
  6
CONTINUOUS
 62
3
 10
440.594923368012130
 20
-35.203498099166609
 40
10.000000000000000
 50
90.000000000000000
 51
180.000000000000000
  0
ARC
  8
0
  6
CONTINUOUS
 62
3
 10
461.594923368012130
 20
-35.203498099166609
 40
10.000000000000000
 50
0.000000000000000
 51
90.000000000000000
  0
LINE
  8
0
  6
CONTINUOUS
 62
3
 10
334.094923368012130
 20
-265.203501163023250
 11
334.094923368012130
 21
-146.439072368775670
  0
LINE
  8
0
  6
CONTINUOUS
 62
3
 10
326.094920254336560
 20
-290.203501711030190
 11
326.094920254336560
 21
-271.203501163023250
  0
LINE
  8
0
  6
CONTINUOUS
 62
3
 10
451.094923368012130
 20
-260.503501163023430
 11
387.594923368012130
 21
-260.503501163023430
  0
LINE
  8
0
  6
CONTINUOUS
 62
3
 10
451.094923368012130
 20
-260.503501163023430
 11
514.594923368012130
 21
-260.503501163023430
  0
LINE
  8
0
  6
CONTINUOUS
 62
3
 10
390.094918718254120
 20
-288.203501711030190
 11
373.094921375259670
 21
-288.203501711030190
  0
LINE
  8
0
  6
CONTINUOUS
 62
3
 10
512.094928017770140
 20
-288.203501711030190
 11
529.094925360765050
 21
-288.203501711030190
  0
LINE
  8
0
  6
CONTINUOUS
 62
3
 10
339.571338679153090
 20
-145.203498099166610
 11
339.571338679153090
 21
-265.203501163023250
  0
LINE
  8
0
  6
CONTINUOUS
 62
3
 10
451.094923368012130
 20
-287.203501586483070
 11
391.236348500379790
 21
-287.203501586483070
  0
LINE
  8
0
  6
DASHDOT
 62
4
 10
343.594920690251000
 20
-298.027960402641840
 11
343.594920690251000
 21
-262.489923202168940
  0
LINE
  8
0
  6
CONTINUOUS
 62
3
 10
371.094921375259670
 20
-290.203501711030190
 11
326.094920254336560
 21
-290.203501711030190
  0
LINE
  8
0
  6
CONTINUOUS
 62
3
 10
451.094923368012130
 20
-268.203501163023250
 11
329.094920254336560
 21
-268.203501163023250
  0
LINE
  8
0
  6
DASHDOT
 62
4
 10
558.594926045772810
 20
-298.027960402641840
 11
558.594926045772810
 21
-262.489923202168940
  0
LINE
  8
0
  6
CONTINUOUS
 62
3
 10
531.094925360765050
 20
-290.203501711030190
 11
576.094926481688160
 21
-290.203501711030190
  0
LINE
  8
0
  6
CONTINUOUS
 62
3
 10
576.094926481688160
 20
-290.203501711030190
 11
576.094926481688160
 21
-271.203501163023250
  0
LINE
  8
0
  6
CONTINUOUS
 62
3
 10
451.094923368012130
 20
-287.203501586483070
 11
510.953498235644470
 21
-287.203501586483070
  0
LINE
  8
0
  6
CONTINUOUS
 62
3
 10
451.094923368012130
 20
-268.203501163023250
 11
573.094926481688160
 21
-268.203501163023250
  0
LINE
  8
0
  6
CONTINUOUS
 62
3
 10
430.594923368012130
 20
-35.203498099166609
 11
430.594923368012130
 21
-60.623924857825841
  0
LINE
  8
0
  6
DASHDOT
 62
4
 10
474.262836366893680
 20
-45.203498099166609
 11
427.240322465358990
 21
-45.203498099166609
  0
LINE
  8
0
  6
CONTINUOUS
 62
3
 10
461.594923368012130
 20
-25.203498099166609
 11
440.594923368012130
 21
-25.203498099166609
  0
LINE
  8
0
  6
CONTINUOUS
 62
3
 10
471.594923368012130
 20
-35.203498099166609
 11
471.594923368012130
 21
-60.623924857825841
  0
LINE
  8
0
  6
DASHDOT
 62
4
 10
451.094923368011680
 20
-300.634322826375860
 11
451.094923368011680
 21
-15.203571120171546
  0
ENDSEC
  0
EOF
