  0
SECTION
  2
HEADER
  9
$FILLMODE
 70
1
  9
$TEXTSTYLE
  7
STANDARD1
  9
$ACADVER
  1
AC1009
  9
$DIMASZ
 40
1.931851648807023
  9
$DIMEXE
 40
2.000000000000000
  9
$DIMEXO
 40
1.000000000000000
  9
$DIMLFAC
 40
1.000000000000000
  9
$DIMSCALE
 40
1.000000000000000
  9
$DIMTAD
 70
1
  9
$DIMTFAC
 40
0.714285731315613
  9
$DIMTXT
 40
3.200000047683716
  9
$LUPREC
 70
3
  9
$TEXTSIZE
 40
3.299999952316284
  9
$REGENMODE
 70
1
  0
ENDSEC
  0
SECTION
  2
TABLES
  0
TABLE
  2
LTYPE
 70
4
  0
LTYPE
  2
CONTINUOUS
 70
64
  3
Solid line
 72
65
 73
0
 40
0.0
  0
LTYPE
  2
DASHED
 70
64
  3
-- -- -- -- -- -- -- -- -- -- -- -- -- -- --
 72
65
 73
2
 40
0.75
 49
0.5
 49
-0.25
  0
LTYPE
  2
DASHDOT
 70
64
  3
__ . __ . __ . __ . __ . __ . __ . __ . __ . __
 72
65
 73
4
 40
1.0
 49
0.5
 49
-0.25
 49
0.0
 49
-0.25
  0
LTYPE
  2
DIVIDE
 70
64
  3
__ . . __ . . __ . . __ . . __ . . __ . . __
 72
65
 73
6
 40
1.25
 49
0.5
 49
-0.25
 49
0.0
 49
-0.25
 49
0.0
 49
-0.25
  0
ENDTAB
  0
TABLE
  2
LAYER
 70
1
  0
LAYER
  2
0
 70
64
 62
2
  6
CONTINUOUS
  0
ENDTAB
  0
TABLE
  2
STYLE
 70
4
  0
STYLE
  2
STANDARD1
 70
64
 40
0.0
 41
1.0
 50
0.0
 71
0
 42
3.299999952316284
  3
MONOTXT
  4
BIGFONT
  0
STYLE
  2
STANDARD2
 70
68
 40
0.0
 41
1.0
 50
0.0
 71
0
 42
3.299999952316284
  3
MONOTXT
  4
BIGFONT
  0
STYLE
  2
STANDARD3
 70
64
 40
0.0
 41
1.0
 50
0.0
 71
0
 42
3.299999952316284
  3
MONOTXT
  4

  0
STYLE
  2
STANDARD4
 70
68
 40
0.0
 41
1.0
 50
0.0
 71
0
 42
3.299999952316284
  3
MONOTXT
  4

  0
ENDTAB
  0
TABLE
  2
VIEW
 70
0
  0
ENDTAB
  0
ENDSEC
  0
SECTION
  2
BLOCKS
  0
BLOCK
  8
0
  2
SYM1
 70
64
 10
0.000000000000000
 20
0.000000000000000
  0
ARC
  8
0
  6
CONTINUOUS
 62
3
 10
6.399999618530273
 20
0.000000000000000
 40
9.000000000000000
 50
163.398451589674950
 51
196.601531107481040
  0
POINT
  8
0
  6
CONTINUOUS
 62
3
 10
0.000000000000000
 20
0.000000000000000
  0
LINE
  8
0
  6
CONTINUOUS
 62
3
 10
0.000000000000000
 20
-3.500000000000000
 11
-0.000000000000000
 21
3.500000000000000
  0
LINE
  8
0
  6
CONTINUOUS
 62
3
 10
0.000000000000000
 20
-3.500000000000000
 11
-0.000000000000000
 21
3.500000000000000
  0
LINE
  8
0
  6
CONTINUOUS
 62
3
 10
0.000000000000000
 20
3.500000000000000
 11
-0.979025304317474
 21
3.500000000000000
  0
LINE
  8
0
  6
CONTINUOUS
 62
3
 10
-0.000000000000000
 20
-3.500000000000000
 11
-0.979025304317474
 21
-3.500000000000000
  0
ARC
  8
0
  6
CONTINUOUS
 62
3
 10
-0.979025304317474
 20
2.200000762939453
 40
1.299999237060547
 50
90.000000000000000
 51
163.398451589674950
  0
ARC
  8
0
  6
CONTINUOUS
 62
3
 10
-0.979025304317474
 20
-2.200000762939453
 40
1.299999237060547
 50
196.601531107481040
 51
270.000000000000000
  0
ENDBLK
  8
0
  0
BLOCK
  8
0
  2
SYM2
 70
64
 10
0.000000000000000
 20
0.000000000000000
  0
POINT
  8
0
  6
CONTINUOUS
 62
3
 10
0.000000000000000
 20
0.000000000000000
  0
LINE
  8
0
  6
CONTINUOUS
 62
3
 10
0.010171198458579
 20
-5.767622839547471
 11
-4.979645433681753
 21
-2.874994469174567
  0
LINE
  8
0
  6
CONTINUOUS
 62
3
 10
-4.979648434603448
 20
-2.874994693650046
 11
-4.989821279270270
 21
2.892629961559101
  0
LINE
  8
0
  6
CONTINUOUS
 62
3
 10
-4.989816965891634
 20
2.892629271321994
 11
-0.010171343047148
 21
5.767622431692701
  0
LINE
  8
0
  6
CONTINUOUS
 62
3
 10
-0.010171198458579
 20
5.767622839547471
 11
4.979645433681753
 21
2.874994469174567
  0
LINE
  8
0
  6
CONTINUOUS
 62
3
 10
4.979648434603448
 20
2.874994693650046
 11
4.989821279270270
 21
-2.892629961559101
  0
LINE
  8
0
  6
CONTINUOUS
 62
3
 10
4.989816965891634
 20
-2.892629271321994
 11
0.010171343047148
 21
-5.767622431692701
  0
CIRCLE
  8
0
  6
CONTINUOUS
 62
3
 10
0.000000000000000
 20
0.000000000000000
 40
5.000000000000000
  0
ENDBLK
  8
0
  0
BLOCK
  8
0
  2
SYM3
 70
64
 10
0.000000000000000
 20
0.000000000000000
  0
POINT
  8
0
  6
CONTINUOUS
 62
3
 10
0.000000000000000
 20
0.000000000000000
  0
LINE
  8
0
  6
CONTINUOUS
 62
3
 10
0.010171198458579
 20
-5.767622839547471
 11
-4.979645433681753
 21
-2.874994469174567
  0
LINE
  8
0
  6
CONTINUOUS
 62
3
 10
-4.979648434603448
 20
-2.874994693650046
 11
-4.989821279270270
 21
2.892629961559101
  0
LINE
  8
0
  6
CONTINUOUS
 62
3
 10
-4.989816965891634
 20
2.892629271321994
 11
-0.010171343047148
 21
5.767622431692701
  0
LINE
  8
0
  6
CONTINUOUS
 62
3
 10
-0.010171198458579
 20
5.767622839547471
 11
4.979645433681753
 21
2.874994469174567
  0
LINE
  8
0
  6
CONTINUOUS
 62
3
 10
4.979648434603448
 20
2.874994693650046
 11
4.989821279270270
 21
-2.892629961559101
  0
LINE
  8
0
  6
CONTINUOUS
 62
3
 10
4.989816965891634
 20
-2.892629271321994
 11
0.010171343047148
 21
-5.767622431692701
  0
CIRCLE
  8
0
  6
CONTINUOUS
 62
3
 10
0.000000000000000
 20
0.000000000000000
 40
5.000000000000000
  0
ENDBLK
  8
0
  0
BLOCK
  8
0
  2
SYM4
 70
64
 10
0.000000000000000
 20
0.000000000000000
  0
CIRCLE
  8
0
  6
CONTINUOUS
 62
3
 10
0.000000000000000
 20
0.000000000000000
 40
5.633955001831055
  0
CIRCLE
  8
0
  6
CONTINUOUS
 62
3
 10
0.000000000000000
 20
0.000000000000000
 40
6.500000000000000
  0
POINT
  8
0
  6
CONTINUOUS
 62
3
 10
0.000000000000000
 20
0.000000000000000
  0
LINE
  8
0
  6
CONTINUOUS
 62
3
 10
-2.999996662140960
 20
-1.732045999551255
 11
-2.999997615815242
 21
1.732051977133316
  0
LINE
  8
0
  6
CONTINUOUS
 62
3
 10
2.999996662140697
 20
1.732046953225571
 11
2.999997615814979
 21
-1.732051023458999
  0
LINE
  8
0
  6
CONTINUOUS
 62
3
 10
0.000006701720849
 20
3.464096999935236
 11
-2.999997939551520
 21
1.732051821705568
  0
LINE
  8
0
  6
CONTINUOUS
 62
3
 10
2.999998112093635
 20
-1.732051392778772
 11
-0.000004464412200
 21
-3.464098365415111
  0
LINE
  8
0
  6
CONTINUOUS
 62
3
 10
0.000006618601731
 20
3.464096896385627
 11
2.999997425948948
 21
1.732046782136365
  0
LINE
  8
0
  6
CONTINUOUS
 62
3
 10
-0.000004704988612
 20
-3.464098175748802
 11
-2.999997577100373
 21
-1.732046218032735
  0
POINT
  8
0
  6
CONTINUOUS
 62
3
 10
0.500000119209290
 20
6.500000000000000
  0
POINT
  8
0
  6
CONTINUOUS
 62
3
 10
0.000000000000000
 20
5.633955001831055
  0
ENDBLK
  8
0
  0
BLOCK
  8
0
  2
SYM5
 70
64
 10
0.000000000000000
 20
0.000000000000000
  0
CIRCLE
  8
0
  6
CONTINUOUS
 62
3
 10
0.000000000000000
 20
0.000000000000000
 40
5.633955001831055
  0
CIRCLE
  8
0
  6
CONTINUOUS
 62
3
 10
0.000000000000000
 20
0.000000000000000
 40
6.500000000000000
  0
POINT
  8
0
  6
CONTINUOUS
 62
3
 10
0.000000000000000
 20
0.000000000000000
  0
LINE
  8
0
  6
CONTINUOUS
 62
3
 10
-2.999996662140960
 20
-1.732045999551255
 11
-2.999997615815242
 21
1.732051977133316
  0
LINE
  8
0
  6
CONTINUOUS
 62
3
 10
2.999996662140697
 20
1.732046953225571
 11
2.999997615814979
 21
-1.732051023458999
  0
LINE
  8
0
  6
CONTINUOUS
 62
3
 10
0.000006701720849
 20
3.464096999935236
 11
-2.999997939551520
 21
1.732051821705568
  0
LINE
  8
0
  6
CONTINUOUS
 62
3
 10
2.999998112093635
 20
-1.732051392778772
 11
-0.000004464412200
 21
-3.464098365415111
  0
LINE
  8
0
  6
CONTINUOUS
 62
3
 10
0.000006618601731
 20
3.464096896385627
 11
2.999997425948948
 21
1.732046782136365
  0
LINE
  8
0
  6
CONTINUOUS
 62
3
 10
-0.000004704988612
 20
-3.464098175748802
 11
-2.999997577100373
 21
-1.732046218032735
  0
POINT
  8
0
  6
CONTINUOUS
 62
3
 10
0.500000119209290
 20
6.500000000000000
  0
POINT
  8
0
  6
CONTINUOUS
 62
3
 10
0.000000000000000
 20
5.633955001831055
  0
ENDBLK
  8
0
  0
BLOCK
  8
0
  2
SYM6
 70
64
 10
0.000000000000000
 20
0.000000000000000
  0
CIRCLE
  8
0
  6
CONTINUOUS
 62
3
 10
0.000000000000000
 20
0.000000000000000
 40
5.633955001831055
  0
CIRCLE
  8
0
  6
CONTINUOUS
 62
3
 10
0.000000000000000
 20
0.000000000000000
 40
6.500000000000000
  0
POINT
  8
0
  6
CONTINUOUS
 62
3
 10
0.000000000000000
 20
0.000000000000000
  0
LINE
  8
0
  6
CONTINUOUS
 62
3
 10
-2.999996662140960
 20
-1.732045999551255
 11
-2.999997615815242
 21
1.732051977133316
  0
LINE
  8
0
  6
CONTINUOUS
 62
3
 10
2.999996662140697
 20
1.732046953225571
 11
2.999997615814979
 21
-1.732051023458999
  0
LINE
  8
0
  6
CONTINUOUS
 62
3
 10
0.000006701720849
 20
3.464096999935236
 11
-2.999997939551520
 21
1.732051821705568
  0
LINE
  8
0
  6
CONTINUOUS
 62
3
 10
2.999998112093635
 20
-1.732051392778772
 11
-0.000004464412200
 21
-3.464098365415111
  0
LINE
  8
0
  6
CONTINUOUS
 62
3
 10
0.000006618601731
 20
3.464096896385627
 11
2.999997425948948
 21
1.732046782136365
  0
LINE
  8
0
  6
CONTINUOUS
 62
3
 10
-0.000004704988612
 20
-3.464098175748802
 11
-2.999997577100373
 21
-1.732046218032735
  0
POINT
  8
0
  6
CONTINUOUS
 62
3
 10
0.500000119209290
 20
6.500000000000000
  0
POINT
  8
0
  6
CONTINUOUS
 62
3
 10
0.000000000000000
 20
5.633955001831055
  0
ENDBLK
  8
0
  0
BLOCK
  8
0
  2
SYM7
 70
64
 10
0.000000000000000
 20
0.000000000000000
  0
CIRCLE
  8
0
  6
CONTINUOUS
 62
3
 10
0.000000000000000
 20
0.000000000000000
 40
5.633955001831055
  0
CIRCLE
  8
0
  6
CONTINUOUS
 62
3
 10
0.000000000000000
 20
0.000000000000000
 40
6.500000000000000
  0
POINT
  8
0
  6
CONTINUOUS
 62
3
 10
0.000000000000000
 20
0.000000000000000
  0
LINE
  8
0
  6
CONTINUOUS
 62
3
 10
-2.999996662140960
 20
-1.732045999551255
 11
-2.999997615815242
 21
1.732051977133316
  0
LINE
  8
0
  6
CONTINUOUS
 62
3
 10
2.999996662140697
 20
1.732046953225571
 11
2.999997615814979
 21
-1.732051023458999
  0
LINE
  8
0
  6
CONTINUOUS
 62
3
 10
0.000006701720849
 20
3.464096999935236
 11
-2.999997939551520
 21
1.732051821705568
  0
LINE
  8
0
  6
CONTINUOUS
 62
3
 10
2.999998112093635
 20
-1.732051392778772
 11
-0.000004464412200
 21
-3.464098365415111
  0
LINE
  8
0
  6
CONTINUOUS
 62
3
 10
0.000006618601731
 20
3.464096896385627
 11
2.999997425948948
 21
1.732046782136365
  0
LINE
  8
0
  6
CONTINUOUS
 62
3
 10
-0.000004704988612
 20
-3.464098175748802
 11
-2.999997577100373
 21
-1.732046218032735
  0
POINT
  8
0
  6
CONTINUOUS
 62
3
 10
0.500000119209290
 20
6.500000000000000
  0
POINT
  8
0
  6
CONTINUOUS
 62
3
 10
0.000000000000000
 20
5.633955001831055
  0
ENDBLK
  8
0
  0
BLOCK
  8
0
  2
SYM8
 70
64
 10
0.000000000000000
 20
0.000000000000000
  0
CIRCLE
  8
0
  6
CONTINUOUS
 62
3
 10
0.000000000000000
 20
0.000000000000000
 40
5.633955001831055
  0
CIRCLE
  8
0
  6
CONTINUOUS
 62
3
 10
0.000000000000000
 20
0.000000000000000
 40
6.500000000000000
  0
POINT
  8
0
  6
CONTINUOUS
 62
3
 10
0.000000000000000
 20
0.000000000000000
  0
LINE
  8
0
  6
CONTINUOUS
 62
3
 10
-2.999996662140960
 20
-1.732045999551255
 11
-2.999997615815242
 21
1.732051977133316
  0
LINE
  8
0
  6
CONTINUOUS
 62
3
 10
2.999996662140697
 20
1.732046953225571
 11
2.999997615814979
 21
-1.732051023458999
  0
LINE
  8
0
  6
CONTINUOUS
 62
3
 10
0.000006701720849
 20
3.464096999935236
 11
-2.999997939551520
 21
1.732051821705568
  0
LINE
  8
0
  6
CONTINUOUS
 62
3
 10
2.999998112093635
 20
-1.732051392778772
 11
-0.000004464412200
 21
-3.464098365415111
  0
LINE
  8
0
  6
CONTINUOUS
 62
3
 10
0.000006618601731
 20
3.464096896385627
 11
2.999997425948948
 21
1.732046782136365
  0
LINE
  8
0
  6
CONTINUOUS
 62
3
 10
-0.000004704988612
 20
-3.464098175748802
 11
-2.999997577100373
 21
-1.732046218032735
  0
POINT
  8
0
  6
CONTINUOUS
 62
3
 10
0.500000119209290
 20
6.500000000000000
  0
POINT
  8
0
  6
CONTINUOUS
 62
3
 10
0.000000000000000
 20
5.633955001831055
  0
ENDBLK
  8
0
  0
BLOCK
  8
0
  2
SYM9
 70
64
 10
0.000000000000000
 20
0.000000000000000
  0
CIRCLE
  8
0
  6
CONTINUOUS
 62
3
 10
0.000000000000000
 20
0.000000000000000
 40
5.633955001831055
  0
CIRCLE
  8
0
  6
CONTINUOUS
 62
3
 10
0.000000000000000
 20
0.000000000000000
 40
6.500000000000000
  0
POINT
  8
0
  6
CONTINUOUS
 62
3
 10
0.000000000000000
 20
0.000000000000000
  0
LINE
  8
0
  6
CONTINUOUS
 62
3
 10
-2.999996662140960
 20
-1.732045999551255
 11
-2.999997615815242
 21
1.732051977133316
  0
LINE
  8
0
  6
CONTINUOUS
 62
3
 10
2.999996662140697
 20
1.732046953225571
 11
2.999997615814979
 21
-1.732051023458999
  0
LINE
  8
0
  6
CONTINUOUS
 62
3
 10
0.000006701720849
 20
3.464096999935236
 11
-2.999997939551520
 21
1.732051821705568
  0
LINE
  8
0
  6
CONTINUOUS
 62
3
 10
2.999998112093635
 20
-1.732051392778772
 11
-0.000004464412200
 21
-3.464098365415111
  0
LINE
  8
0
  6
CONTINUOUS
 62
3
 10
0.000006618601731
 20
3.464096896385627
 11
2.999997425948948
 21
1.732046782136365
  0
LINE
  8
0
  6
CONTINUOUS
 62
3
 10
-0.000004704988612
 20
-3.464098175748802
 11
-2.999997577100373
 21
-1.732046218032735
  0
POINT
  8
0
  6
CONTINUOUS
 62
3
 10
0.500000119209290
 20
6.500000000000000
  0
POINT
  8
0
  6
CONTINUOUS
 62
3
 10
0.000000000000000
 20
5.633955001831055
  0
ENDBLK
  8
0
  0
BLOCK
  8
0
  2
SYM10
 70
64
 10
0.000000000000000
 20
0.000000000000000
  0
CIRCLE
  8
0
  6
CONTINUOUS
 62
3
 10
0.000000000000000
 20
0.000000000000000
 40
5.633955001831055
  0
CIRCLE
  8
0
  6
CONTINUOUS
 62
3
 10
0.000000000000000
 20
0.000000000000000
 40
6.500000000000000
  0
POINT
  8
0
  6
CONTINUOUS
 62
3
 10
0.000000000000000
 20
0.000000000000000
  0
LINE
  8
0
  6
CONTINUOUS
 62
3
 10
-2.999996662140960
 20
-1.732045999551255
 11
-2.999997615815242
 21
1.732051977133316
  0
LINE
  8
0
  6
CONTINUOUS
 62
3
 10
2.999996662140697
 20
1.732046953225571
 11
2.999997615814979
 21
-1.732051023458999
  0
LINE
  8
0
  6
CONTINUOUS
 62
3
 10
0.000006701720849
 20
3.464096999935236
 11
-2.999997939551520
 21
1.732051821705568
  0
LINE
  8
0
  6
CONTINUOUS
 62
3
 10
2.999998112093635
 20
-1.732051392778772
 11
-0.000004464412200
 21
-3.464098365415111
  0
LINE
  8
0
  6
CONTINUOUS
 62
3
 10
0.000006618601731
 20
3.464096896385627
 11
2.999997425948948
 21
1.732046782136365
  0
LINE
  8
0
  6
CONTINUOUS
 62
3
 10
-0.000004704988612
 20
-3.464098175748802
 11
-2.999997577100373
 21
-1.732046218032735
  0
POINT
  8
0
  6
CONTINUOUS
 62
3
 10
0.500000119209290
 20
6.500000000000000
  0
POINT
  8
0
  6
CONTINUOUS
 62
3
 10
0.000000000000000
 20
5.633955001831055
  0
ENDBLK
  8
0
  0
BLOCK
  8
0
  2
SYM11
 70
64
 10
0.000000000000000
 20
0.000000000000000
  0
CIRCLE
  8
0
  6
CONTINUOUS
 62
3
 10
0.000000000000000
 20
0.000000000000000
 40
5.633955001831055
  0
CIRCLE
  8
0
  6
CONTINUOUS
 62
3
 10
0.000000000000000
 20
0.000000000000000
 40
6.500000000000000
  0
POINT
  8
0
  6
CONTINUOUS
 62
3
 10
0.000000000000000
 20
0.000000000000000
  0
LINE
  8
0
  6
CONTINUOUS
 62
3
 10
-2.999996662140960
 20
-1.732045999551255
 11
-2.999997615815242
 21
1.732051977133316
  0
LINE
  8
0
  6
CONTINUOUS
 62
3
 10
2.999996662140697
 20
1.732046953225571
 11
2.999997615814979
 21
-1.732051023458999
  0
LINE
  8
0
  6
CONTINUOUS
 62
3
 10
0.000006701720849
 20
3.464096999935236
 11
-2.999997939551520
 21
1.732051821705568
  0
LINE
  8
0
  6
CONTINUOUS
 62
3
 10
2.999998112093635
 20
-1.732051392778772
 11
-0.000004464412200
 21
-3.464098365415111
  0
LINE
  8
0
  6
CONTINUOUS
 62
3
 10
0.000006618601731
 20
3.464096896385627
 11
2.999997425948948
 21
1.732046782136365
  0
LINE
  8
0
  6
CONTINUOUS
 62
3
 10
-0.000004704988612
 20
-3.464098175748802
 11
-2.999997577100373
 21
-1.732046218032735
  0
POINT
  8
0
  6
CONTINUOUS
 62
3
 10
0.500000119209290
 20
6.500000000000000
  0
POINT
  8
0
  6
CONTINUOUS
 62
3
 10
0.000000000000000
 20
5.633955001831055
  0
ENDBLK
  8
0
  0
BLOCK
  8
0
  2
SYM12
 70
64
 10
0.000000000000000
 20
0.000000000000000
  0
CIRCLE
  8
0
  6
CONTINUOUS
 62
3
 10
0.000000000000000
 20
0.000000000000000
 40
5.633955001831055
  0
CIRCLE
  8
0
  6
CONTINUOUS
 62
3
 10
0.000000000000000
 20
0.000000000000000
 40
6.500000000000000
  0
POINT
  8
0
  6
CONTINUOUS
 62
3
 10
0.000000000000000
 20
0.000000000000000
  0
LINE
  8
0
  6
CONTINUOUS
 62
3
 10
-2.999996662140960
 20
-1.732045999551255
 11
-2.999997615815242
 21
1.732051977133316
  0
LINE
  8
0
  6
CONTINUOUS
 62
3
 10
2.999996662140697
 20
1.732046953225571
 11
2.999997615814979
 21
-1.732051023458999
  0
LINE
  8
0
  6
CONTINUOUS
 62
3
 10
0.000006701720849
 20
3.464096999935236
 11
-2.999997939551520
 21
1.732051821705568
  0
LINE
  8
0
  6
CONTINUOUS
 62
3
 10
2.999998112093635
 20
-1.732051392778772
 11
-0.000004464412200
 21
-3.464098365415111
  0
LINE
  8
0
  6
CONTINUOUS
 62
3
 10
0.000006618601731
 20
3.464096896385627
 11
2.999997425948948
 21
1.732046782136365
  0
LINE
  8
0
  6
CONTINUOUS
 62
3
 10
-0.000004704988612
 20
-3.464098175748802
 11
-2.999997577100373
 21
-1.732046218032735
  0
POINT
  8
0
  6
CONTINUOUS
 62
3
 10
0.500000119209290
 20
6.500000000000000
  0
POINT
  8
0
  6
CONTINUOUS
 62
3
 10
0.000000000000000
 20
5.633955001831055
  0
ENDBLK
  8
0
  0
BLOCK
  8
0
  2
SYM13
 70
64
 10
0.000000000000000
 20
0.000000000000000
  0
POINT
  8
0
  6
CONTINUOUS
 62
3
 10
0.000000000000000
 20
0.000000000000000
  0
LINE
  8
0
  6
CONTINUOUS
 62
3
 10
0.000000000000000
 20
-6.500000000000000
 11
-0.000000000000000
 21
6.500000000000000
  0
LINE
  8
0
  6
CONTINUOUS
 62
3
 10
-7.999999046325684
 20
5.633875846862793
 11
-7.999999046325684
 21
-5.634070396423340
  0
LINE
  8
0
  6
CONTINUOUS
 62
3
 10
0.000000000000000
 20
6.500000000000000
 11
-7.499999046325684
 21
6.500000000000000
  0
LINE
  8
0
  6
CONTINUOUS
 62
3
 10
-0.000000000000000
 20
-6.500000000000000
 11
-7.499998092651367
 21
-6.500000000000000
  0
LINE
  8
0
  6
CONTINUOUS
 62
3
 10
-7.499999203818277
 20
6.499999909101064
 11
-7.999999021366804
 21
5.633876130311293
  0
LINE
  8
0
  6
CONTINUOUS
 62
3
 10
-7.499997911632022
 20
-6.499999445138201
 11
-7.999998623386432
 21
-5.634070287011241
  0
LINE
  8
0
  6
CONTINUOUS
 62
3
 10
-7.499999046325684
 20
6.500000000000000
 11
-7.499999046325684
 21
-6.500000000000000
  0
ENDBLK
  8
0
  0
BLOCK
  8
0
  2
SYM14
 70
64
 10
0.000000000000000
 20
0.000000000000000
  0
POINT
  8
0
  6
CONTINUOUS
 62
3
 10
0.000000000000000
 20
0.000000000000000
  0
LINE
  8
0
  6
CONTINUOUS
 62
3
 10
-0.000027060931608
 20
-5.749995231614290
 11
-3.250020760774497
 21
-5.749981880178368
  0
LINE
  8
0
  6
CONTINUOUS
 62
3
 10
-3.250024308998832
 20
-5.749987011620533
 11
-4.000020133420207
 21
-4.899982163000686
  0
LINE
  8
0
  6
CONTINUOUS
 62
3
 10
-4.000014781949545
 20
-4.899978112209579
 11
-3.999973773958658
 21
4.900011588107803
  0
LINE
  8
0
  6
CONTINUOUS
 62
3
 10
-3.999972830514309
 20
4.900008662670757
 11
-3.249970339875063
 21
5.750006850331147
  0
LINE
  8
0
  6
CONTINUOUS
 62
3
 10
-3.249972343459831
 20
5.750005722029982
 11
0.000027906669402
 21
5.749993324257003
  0
LINE
  8
0
  6
CONTINUOUS
 62
3
 10
0.000023687533422
 20
5.749999046325684
 11
-0.000023687533422
 21
-5.749999046325684
  0
LINE
  8
0
  6
CONTINUOUS
 62
3
 10
-3.250009052584916
 20
-2.899986267083180
 11
-0.000013285950788
 21
-2.899999618524636
  0
LINE
  8
0
  6
CONTINUOUS
 62
3
 10
-3.249984168999890
 20
2.900012016287064
 11
0.000013133145058
 21
2.899999618522375
  0
ARC
  8
0
  6
CONTINUOUS
 62
3
 10
-2.270017623901367
 20
-4.324990272521973
 40
1.729999542236328
 50
124.499759285265280
 51
179.999745461767870
  0
ARC
  8
0
  6
CONTINUOUS
 62
3
 10
-2.269982337951660
 20
4.325008392333984
 40
1.729999542236328
 50
179.999745461767870
 51
235.499786279783790
  0
ARC
  8
0
  6
CONTINUOUS
 62
3
 10
1.981662750244141
 20
-0.000008163610801
 40
5.981661796569824
 50
150.999363302540700
 51
209.000072979481700
  0
ENDBLK
  8
0
  0
BLOCK
  8
0
  2
SYM15
 70
64
 10
0.000000000000000
 20
0.000000000000000
  0
POINT
  8
0
  6
CONTINUOUS
 62
3
 10
0.000000000000000
 20
0.000000000000000
  0
LINE
  8
0
  6
CONTINUOUS
 62
3
 10
0.000000000000000
 20
-6.500000000000000
 11
-0.000000000000000
 21
6.500000000000000
  0
LINE
  8
0
  6
CONTINUOUS
 62
3
 10
-7.999999046325684
 20
5.633875846862793
 11
-7.999999046325684
 21
-5.634070396423340
  0
LINE
  8
0
  6
CONTINUOUS
 62
3
 10
0.000000000000000
 20
6.500000000000000
 11
-7.499999046325684
 21
6.500000000000000
  0
LINE
  8
0
  6
CONTINUOUS
 62
3
 10
-0.000000000000000
 20
-6.500000000000000
 11
-7.499998092651367
 21
-6.500000000000000
  0
LINE
  8
0
  6
CONTINUOUS
 62
3
 10
-7.499999203818277
 20
6.499999909101064
 11
-7.999999021366804
 21
5.633876130311293
  0
LINE
  8
0
  6
CONTINUOUS
 62
3
 10
-7.499997911632022
 20
-6.499999445138201
 11
-7.999998623386432
 21
-5.634070287011241
  0
LINE
  8
0
  6
CONTINUOUS
 62
3
 10
-7.499999046325684
 20
6.500000000000000
 11
-7.499999046325684
 21
-6.500000000000000
  0
ENDBLK
  8
0
  0
BLOCK
  8
0
  2
SYM16
 70
64
 10
0.000000000000000
 20
0.000000000000000
  0
POINT
  8
0
  6
CONTINUOUS
 62
3
 10
0.000000000000000
 20
0.000000000000000
  0
LINE
  8
0
  6
CONTINUOUS
 62
3
 10
-0.000027060931608
 20
-5.749995231614290
 11
-3.250020760774497
 21
-5.749981880178368
  0
LINE
  8
0
  6
CONTINUOUS
 62
3
 10
-3.250024308998832
 20
-5.749987011620533
 11
-4.000020133420207
 21
-4.899982163000686
  0
LINE
  8
0
  6
CONTINUOUS
 62
3
 10
-4.000014781949545
 20
-4.899978112209579
 11
-3.999973773958658
 21
4.900011588107803
  0
LINE
  8
0
  6
CONTINUOUS
 62
3
 10
-3.999972830514309
 20
4.900008662670757
 11
-3.249970339875063
 21
5.750006850331147
  0
LINE
  8
0
  6
CONTINUOUS
 62
3
 10
-3.249972343459831
 20
5.750005722029982
 11
0.000027906669402
 21
5.749993324257003
  0
LINE
  8
0
  6
CONTINUOUS
 62
3
 10
0.000023687533422
 20
5.749999046325684
 11
-0.000023687533422
 21
-5.749999046325684
  0
LINE
  8
0
  6
CONTINUOUS
 62
3
 10
-3.250009052584916
 20
-2.899986267083180
 11
-0.000013285950788
 21
-2.899999618524636
  0
LINE
  8
0
  6
CONTINUOUS
 62
3
 10
-3.249984168999890
 20
2.900012016287064
 11
0.000013133145058
 21
2.899999618522375
  0
ARC
  8
0
  6
CONTINUOUS
 62
3
 10
-2.270017623901367
 20
-4.324990272521973
 40
1.729999542236328
 50
124.499759285265280
 51
179.999745461767870
  0
ARC
  8
0
  6
CONTINUOUS
 62
3
 10
-2.269982337951660
 20
4.325008392333984
 40
1.729999542236328
 50
179.999745461767870
 51
235.499786279783790
  0
ARC
  8
0
  6
CONTINUOUS
 62
3
 10
1.981662750244141
 20
-0.000008163610801
 40
5.981661796569824
 50
150.999363302540700
 51
209.000072979481700
  0
ENDBLK
  8
0
  0
BLOCK
  8
0
  2
SYM17
 70
64
 10
0.000000000000000
 20
0.000000000000000
  0
POINT
  8
0
  6
CONTINUOUS
 62
3
 10
0.000000000000000
 20
0.000000000000000
  0
LINE
  8
0
  6
CONTINUOUS
 62
3
 10
0.000000000000000
 20
-6.500000000000000
 11
-0.000000000000000
 21
6.500000000000000
  0
LINE
  8
0
  6
CONTINUOUS
 62
3
 10
-7.999999046325684
 20
5.633875846862793
 11
-7.999999046325684
 21
-5.634070396423340
  0
LINE
  8
0
  6
CONTINUOUS
 62
3
 10
0.000000000000000
 20
6.500000000000000
 11
-7.499999046325684
 21
6.500000000000000
  0
LINE
  8
0
  6
CONTINUOUS
 62
3
 10
-0.000000000000000
 20
-6.500000000000000
 11
-7.499998092651367
 21
-6.500000000000000
  0
LINE
  8
0
  6
CONTINUOUS
 62
3
 10
-7.499999203818277
 20
6.499999909101064
 11
-7.999999021366804
 21
5.633876130311293
  0
LINE
  8
0
  6
CONTINUOUS
 62
3
 10
-7.499997911632022
 20
-6.499999445138201
 11
-7.999998623386432
 21
-5.634070287011241
  0
LINE
  8
0
  6
CONTINUOUS
 62
3
 10
-7.499999046325684
 20
6.500000000000000
 11
-7.499999046325684
 21
-6.500000000000000
  0
ENDBLK
  8
0
  0
BLOCK
  8
0
  2
SYM18
 70
64
 10
0.000000000000000
 20
0.000000000000000
  0
POINT
  8
0
  6
CONTINUOUS
 62
3
 10
0.000000000000000
 20
0.000000000000000
  0
LINE
  8
0
  6
CONTINUOUS
 62
3
 10
0.000000000000000
 20
-6.500000000000000
 11
-0.000000000000000
 21
6.500000000000000
  0
LINE
  8
0
  6
CONTINUOUS
 62
3
 10
-7.999999046325684
 20
5.633875846862793
 11
-7.999999046325684
 21
-5.634070396423340
  0
LINE
  8
0
  6
CONTINUOUS
 62
3
 10
0.000000000000000
 20
6.500000000000000
 11
-7.499999046325684
 21
6.500000000000000
  0
LINE
  8
0
  6
CONTINUOUS
 62
3
 10
-0.000000000000000
 20
-6.500000000000000
 11
-7.499998092651367
 21
-6.500000000000000
  0
LINE
  8
0
  6
CONTINUOUS
 62
3
 10
-7.499999203818277
 20
6.499999909101064
 11
-7.999999021366804
 21
5.633876130311293
  0
LINE
  8
0
  6
CONTINUOUS
 62
3
 10
-7.499997911632022
 20
-6.499999445138201
 11
-7.999998623386432
 21
-5.634070287011241
  0
LINE
  8
0
  6
CONTINUOUS
 62
3
 10
-7.499999046325684
 20
6.500000000000000
 11
-7.499999046325684
 21
-6.500000000000000
  0
ENDBLK
  8
0
  0
BLOCK
  8
0
  2
SYM19
 70
64
 10
0.000000000000000
 20
0.000000000000000
  0
POINT
  8
0
  6
CONTINUOUS
 62
3
 10
0.000000000000000
 20
0.000000000000000
  0
LINE
  8
0
  6
CONTINUOUS
 62
3
 10
-0.000027060931608
 20
-5.749995231614290
 11
-3.250020760774497
 21
-5.749981880178368
  0
LINE
  8
0
  6
CONTINUOUS
 62
3
 10
-3.250024308998832
 20
-5.749987011620533
 11
-4.000020133420207
 21
-4.899982163000686
  0
LINE
  8
0
  6
CONTINUOUS
 62
3
 10
-4.000014781949545
 20
-4.899978112209579
 11
-3.999973773958658
 21
4.900011588107803
  0
LINE
  8
0
  6
CONTINUOUS
 62
3
 10
-3.999972830514309
 20
4.900008662670757
 11
-3.249970339875063
 21
5.750006850331147
  0
LINE
  8
0
  6
CONTINUOUS
 62
3
 10
-3.249972343459831
 20
5.750005722029982
 11
0.000027906669402
 21
5.749993324257003
  0
LINE
  8
0
  6
CONTINUOUS
 62
3
 10
0.000023687533422
 20
5.749999046325684
 11
-0.000023687533422
 21
-5.749999046325684
  0
LINE
  8
0
  6
CONTINUOUS
 62
3
 10
-3.250009052584916
 20
-2.899986267083180
 11
-0.000013285950788
 21
-2.899999618524636
  0
LINE
  8
0
  6
CONTINUOUS
 62
3
 10
-3.249984168999890
 20
2.900012016287064
 11
0.000013133145058
 21
2.899999618522375
  0
ARC
  8
0
  6
CONTINUOUS
 62
3
 10
-2.270017623901367
 20
-4.324990272521973
 40
1.729999542236328
 50
124.499759285265280
 51
179.999745461767870
  0
ARC
  8
0
  6
CONTINUOUS
 62
3
 10
-2.269982337951660
 20
4.325008392333984
 40
1.729999542236328
 50
179.999745461767870
 51
235.499786279783790
  0
ARC
  8
0
  6
CONTINUOUS
 62
3
 10
1.981662750244141
 20
-0.000008163610801
 40
5.981661796569824
 50
150.999363302540700
 51
209.000072979481700
  0
ENDBLK
  8
0
  0
BLOCK
  8
0
  2
SYM20
 70
64
 10
0.000000000000000
 20
0.000000000000000
  0
POINT
  8
0
  6
CONTINUOUS
 62
3
 10
0.000000000000000
 20
0.000000000000000
  0
LINE
  8
0
  6
CONTINUOUS
 62
3
 10
-0.000027060931608
 20
-5.749995231614290
 11
-3.250020760774497
 21
-5.749981880178368
  0
LINE
  8
0
  6
CONTINUOUS
 62
3
 10
-3.250024308998832
 20
-5.749987011620533
 11
-4.000020133420207
 21
-4.899982163000686
  0
LINE
  8
0
  6
CONTINUOUS
 62
3
 10
-4.000014781949545
 20
-4.899978112209579
 11
-3.999973773958658
 21
4.900011588107803
  0
LINE
  8
0
  6
CONTINUOUS
 62
3
 10
-3.999972830514309
 20
4.900008662670757
 11
-3.249970339875063
 21
5.750006850331147
  0
LINE
  8
0
  6
CONTINUOUS
 62
3
 10
-3.249972343459831
 20
5.750005722029982
 11
0.000027906669402
 21
5.749993324257003
  0
LINE
  8
0
  6
CONTINUOUS
 62
3
 10
0.000023687533422
 20
5.749999046325684
 11
-0.000023687533422
 21
-5.749999046325684
  0
LINE
  8
0
  6
CONTINUOUS
 62
3
 10
-3.250009052584916
 20
-2.899986267083180
 11
-0.000013285950788
 21
-2.899999618524636
  0
LINE
  8
0
  6
CONTINUOUS
 62
3
 10
-3.249984168999890
 20
2.900012016287064
 11
0.000013133145058
 21
2.899999618522375
  0
ARC
  8
0
  6
CONTINUOUS
 62
3
 10
-2.270017623901367
 20
-4.324990272521973
 40
1.729999542236328
 50
124.499759285265280
 51
179.999745461767870
  0
ARC
  8
0
  6
CONTINUOUS
 62
3
 10
-2.269982337951660
 20
4.325008392333984
 40
1.729999542236328
 50
179.999745461767870
 51
235.499786279783790
  0
ARC
  8
0
  6
CONTINUOUS
 62
3
 10
1.981662750244141
 20
-0.000008163610801
 40
5.981661796569824
 50
150.999363302540700
 51
209.000072979481700
  0
ENDBLK
  8
0
  0
BLOCK
  8
0
  2
SYM21
 70
64
 10
0.000000000000000
 20
0.000000000000000
  0
POINT
  8
0
  6
CONTINUOUS
 62
3
 10
0.000000000000000
 20
0.000000000000000
  0
LINE
  8
0
  6
CONTINUOUS
 62
3
 10
0.000000000000000
 20
-6.500000000000000
 11
-0.000000000000000
 21
6.500000000000000
  0
LINE
  8
0
  6
CONTINUOUS
 62
3
 10
-7.999999046325684
 20
5.633875846862793
 11
-7.999999046325684
 21
-5.634070396423340
  0
LINE
  8
0
  6
CONTINUOUS
 62
3
 10
0.000000000000000
 20
6.500000000000000
 11
-7.499999046325684
 21
6.500000000000000
  0
LINE
  8
0
  6
CONTINUOUS
 62
3
 10
-0.000000000000000
 20
-6.500000000000000
 11
-7.499998092651367
 21
-6.500000000000000
  0
LINE
  8
0
  6
CONTINUOUS
 62
3
 10
-7.499999203818277
 20
6.499999909101064
 11
-7.999999021366804
 21
5.633876130311293
  0
LINE
  8
0
  6
CONTINUOUS
 62
3
 10
-7.499997911632022
 20
-6.499999445138201
 11
-7.999998623386432
 21
-5.634070287011241
  0
LINE
  8
0
  6
CONTINUOUS
 62
3
 10
-7.499999046325684
 20
6.500000000000000
 11
-7.499999046325684
 21
-6.500000000000000
  0
ENDBLK
  8
0
  0
BLOCK
  8
0
  2
SYM22
 70
64
 10
0.000000000000000
 20
0.000000000000000
  0
POINT
  8
0
  6
CONTINUOUS
 62
3
 10
0.000000000000000
 20
0.000000000000000
  0
LINE
  8
0
  6
CONTINUOUS
 62
3
 10
0.000000000000000
 20
-6.500000000000000
 11
-0.000000000000000
 21
6.500000000000000
  0
LINE
  8
0
  6
CONTINUOUS
 62
3
 10
-7.999999046325684
 20
5.633875846862793
 11
-7.999999046325684
 21
-5.634070396423340
  0
LINE
  8
0
  6
CONTINUOUS
 62
3
 10
0.000000000000000
 20
6.500000000000000
 11
-7.499999046325684
 21
6.500000000000000
  0
LINE
  8
0
  6
CONTINUOUS
 62
3
 10
-0.000000000000000
 20
-6.500000000000000
 11
-7.499998092651367
 21
-6.500000000000000
  0
LINE
  8
0
  6
CONTINUOUS
 62
3
 10
-7.499999203818277
 20
6.499999909101064
 11
-7.999999021366804
 21
5.633876130311293
  0
LINE
  8
0
  6
CONTINUOUS
 62
3
 10
-7.499997911632022
 20
-6.499999445138201
 11
-7.999998623386432
 21
-5.634070287011241
  0
LINE
  8
0
  6
CONTINUOUS
 62
3
 10
-7.499999046325684
 20
6.500000000000000
 11
-7.499999046325684
 21
-6.500000000000000
  0
ENDBLK
  8
0
  0
BLOCK
  8
0
  2
SYM23
 70
64
 10
0.000000000000000
 20
0.000000000000000
  0
POINT
  8
0
  6
CONTINUOUS
 62
3
 10
0.000000000000000
 20
0.000000000000000
  0
LINE
  8
0
  6
CONTINUOUS
 62
3
 10
0.000000000000000
 20
-6.500000000000000
 11
-0.000000000000000
 21
6.500000000000000
  0
LINE
  8
0
  6
CONTINUOUS
 62
3
 10
-7.999999046325684
 20
5.633875846862793
 11
-7.999999046325684
 21
-5.634070396423340
  0
LINE
  8
0
  6
CONTINUOUS
 62
3
 10
0.000000000000000
 20
6.500000000000000
 11
-7.499999046325684
 21
6.500000000000000
  0
LINE
  8
0
  6
CONTINUOUS
 62
3
 10
-0.000000000000000
 20
-6.500000000000000
 11
-7.499998092651367
 21
-6.500000000000000
  0
LINE
  8
0
  6
CONTINUOUS
 62
3
 10
-7.499999203818277
 20
6.499999909101064
 11
-7.999999021366804
 21
5.633876130311293
  0
LINE
  8
0
  6
CONTINUOUS
 62
3
 10
-7.499997911632022
 20
-6.499999445138201
 11
-7.999998623386432
 21
-5.634070287011241
  0
LINE
  8
0
  6
CONTINUOUS
 62
3
 10
-7.499999046325684
 20
6.500000000000000
 11
-7.499999046325684
 21
-6.500000000000000
  0
ENDBLK
  8
0
  0
BLOCK
  8
0
  2
SYM24
 70
64
 10
0.000000000000000
 20
0.000000000000000
  0
POINT
  8
0
  6
CONTINUOUS
 62
3
 10
0.000000000000000
 20
0.000000000000000
  0
LINE
  8
0
  6
CONTINUOUS
 62
3
 10
0.000000000000000
 20
-6.500000000000000
 11
-0.000000000000000
 21
6.500000000000000
  0
LINE
  8
0
  6
CONTINUOUS
 62
3
 10
-7.999999046325684
 20
5.633875846862793
 11
-7.999999046325684
 21
-5.634070396423340
  0
LINE
  8
0
  6
CONTINUOUS
 62
3
 10
0.000000000000000
 20
6.500000000000000
 11
-7.499999046325684
 21
6.500000000000000
  0
LINE
  8
0
  6
CONTINUOUS
 62
3
 10
-0.000000000000000
 20
-6.500000000000000
 11
-7.499998092651367
 21
-6.500000000000000
  0
LINE
  8
0
  6
CONTINUOUS
 62
3
 10
-7.499999203818277
 20
6.499999909101064
 11
-7.999999021366804
 21
5.633876130311293
  0
LINE
  8
0
  6
CONTINUOUS
 62
3
 10
-7.499997911632022
 20
-6.499999445138201
 11
-7.999998623386432
 21
-5.634070287011241
  0
LINE
  8
0
  6
CONTINUOUS
 62
3
 10
-7.499999046325684
 20
6.500000000000000
 11
-7.499999046325684
 21
-6.500000000000000
  0
ENDBLK
  8
0
  0
BLOCK
  8
0
  2
SYM25
 70
64
 10
0.000000000000000
 20
0.000000000000000
  0
ARC
  8
0
  6
CONTINUOUS
 62
3
 10
-0.979025304317474
 20
-2.200000762939453
 40
1.299999237060547
 50
196.601531107481040
 51
270.000000000000000
  0
ARC
  8
0
  6
CONTINUOUS
 62
3
 10
-0.979025304317474
 20
2.200000762939453
 40
1.299999237060547
 50
90.000000000000000
 51
163.398451589674950
  0
LINE
  8
0
  6
CONTINUOUS
 62
3
 10
-0.000000000000000
 20
-3.500000000000000
 11
-0.979025304317474
 21
-3.500000000000000
  0
LINE
  8
0
  6
CONTINUOUS
 62
3
 10
0.000000000000000
 20
3.500000000000000
 11
-0.979025304317474
 21
3.500000000000000
  0
LINE
  8
0
  6
CONTINUOUS
 62
3
 10
0.000000000000000
 20
-3.500000000000000
 11
-0.000000000000000
 21
3.500000000000000
  0
LINE
  8
0
  6
CONTINUOUS
 62
3
 10
0.000000000000000
 20
-3.500000000000000
 11
-0.000000000000000
 21
3.500000000000000
  0
POINT
  8
0
  6
CONTINUOUS
 62
3
 10
0.000000000000000
 20
0.000000000000000
  0
ARC
  8
0
  6
CONTINUOUS
 62
3
 10
6.399999618530273
 20
0.000000000000000
 40
9.000000000000000
 50
163.398451589674950
 51
196.601531107481040
  0
ENDBLK
  8
0
  0
ENDSEC
  0
SECTION
  2
ENTITIES
  0
LINE
  8
0
  6
CONTINUOUS
 62
3
 10
272.435519923260240
 20
-154.543616971873230
 11
223.435519923260240
 21
-154.543616971873230
  0
LINE
  8
0
  6
CONTINUOUS
 62
3
 10
272.435519923260240
 20
-142.543616971873230
 11
223.435519923260240
 21
-142.543616971873230
  0
ARC
  8
0
  6
CONTINUOUS
 62
3
 10
223.435519923260240
 20
-148.543616971873230
 40
6.000000000000000
 50
90.000000000000000
 51
270.000000000000000
  0
LINE
  8
0
  6
CONTINUOUS
 62
3
 10
416.613276155225830
 20
-154.543616971873230
 11
424.613276155225830
 21
-154.543616971873230
  0
LINE
  8
0
  6
CONTINUOUS
 62
3
 10
416.613276155225830
 20
-142.543616971873230
 11
424.613276155225830
 21
-142.543616971873230
  0
ARC
  8
0
  6
CONTINUOUS
 62
3
 10
439.613276155225830
 20
-148.543616971873230
 40
20.000000000000014
 50
197.457603123722070
 51
162.542396876277930
  0
LINE
  8
0
  6
CONTINUOUS
 62
3
 10
424.613276155225830
 20
-142.543616971873230
 11
424.613276155225830
 21
-154.543616971873230
  0
LINE
  8
0
  6
CONTINUOUS
 62
3
 10
416.613276155225830
 20
-142.543616971873230
 11
416.613276155225830
 21
-154.543616971873230
  0
LINE
  8
0
  6
CONTINUOUS
 62
3
 10
-479.024030456784320
 20
-105.773707081555940
 11
-479.510833848489940
 21
-105.286903689850320
  0
LINE
  8
0
  6
CONTINUOUS
 62
3
 10
-472.377226983370630
 20
-99.126903608142229
 11
-472.864030375076250
 21
-98.640100216436608
  0
LINE
  8
0
  6
CONTINUOUS
 62
3
 10
-479.337169065753130
 20
-105.521160130705560
 11
-472.660069763280210
 21
-98.844060828232656
  0
LINE
  8
0
  6
CONTINUOUS
 62
3
 10
-479.024030456784320
 20
-105.773707081555940
 11
-472.377226983370630
 21
-99.126903608142229
  0
POINT
  8
0
  6
CONTINUOUS
 62
3
 10
-475.700628720077480
 20
-102.450305344849080
  0
ARC
  8
0
  6
CONTINUOUS
 62
3
 10
-473.437887155150460
 20
-104.713046909776120
 40
6.099999427795419
 50
84.601927898108485
 51
185.398089404735120
  0
LINE
  8
0
  6
CONTINUOUS
 62
3
 10
-479.024030456784320
 20
-193.313526862190290
 11
-479.510833848489940
 21
-193.800330253895910
  0
LINE
  8
0
  6
CONTINUOUS
 62
3
 10
-472.377226983370630
 20
-199.960330335604030
 11
-472.864030375076250
 21
-200.447133727309620
  0
LINE
  8
0
  6
CONTINUOUS
 62
3
 10
-479.337169065753130
 20
-193.566073813040670
 11
-472.660069763280210
 21
-200.243173115513600
  0
LINE
  8
0
  6
CONTINUOUS
 62
3
 10
-479.024030456784320
 20
-193.313526862190290
 11
-472.377226983370630
 21
-199.960330335604030
  0
POINT
  8
0
  6
CONTINUOUS
 62
3
 10
-475.700628720077480
 20
-196.636928598897160
  0
ARC
  8
0
  6
CONTINUOUS
 62
3
 10
-473.437887155150460
 20
-194.374187033970120
 40
6.099999427795398
 50
174.601910595264880
 51
275.398072101891500
  0
LINE
  8
0
  6
CONTINUOUS
 62
3
 10
-378.190603729322790
 20
-193.313526862190290
 11
-377.703800337617170
 21
-193.800330253895910
  0
LINE
  8
0
  6
CONTINUOUS
 62
3
 10
-384.837407202736470
 20
-199.960330335604030
 11
-384.350603811030850
 21
-200.447133727309620
  0
LINE
  8
0
  6
CONTINUOUS
 62
3
 10
-377.877465120353970
 20
-193.566073813040670
 11
-384.554564422826900
 21
-200.243173115513600
  0
LINE
  8
0
  6
CONTINUOUS
 62
3
 10
-378.190603729322790
 20
-193.313526862190290
 11
-384.837407202736470
 21
-199.960330335604030
  0
POINT
  8
0
  6
CONTINUOUS
 62
3
 10
-381.514005466029630
 20
-196.636928598897160
  0
ARC
  8
0
  6
CONTINUOUS
 62
3
 10
-383.776747030956640
 20
-194.374187033970120
 40
6.099999427795406
 50
264.601927898108500
 51
5.398089404735109
  0
LINE
  8
0
  6
CONTINUOUS
 62
3
 10
-378.190603729322790
 20
-105.773707081555940
 11
-377.703800337617170
 21
-105.286903689850320
  0
LINE
  8
0
  6
CONTINUOUS
 62
3
 10
-384.837407202736470
 20
-99.126903608142229
 11
-384.350603811030850
 21
-98.640100216436608
  0
LINE
  8
0
  6
CONTINUOUS
 62
3
 10
-377.877465120353970
 20
-105.521160130705560
 11
-384.554564422826900
 21
-98.844060828232656
  0
LINE
  8
0
  6
CONTINUOUS
 62
3
 10
-378.190603729322790
 20
-105.773707081555940
 11
-384.837407202736470
 21
-99.126903608142229
  0
POINT
  8
0
  6
CONTINUOUS
 62
3
 10
-381.514005466029630
 20
-102.450305344849080
  0
ARC
  8
0
  6
CONTINUOUS
 62
3
 10
-383.776747030956640
 20
-104.713046909776120
 40
6.099999427795398
 50
354.601910595264880
 51
95.398072101891515
  0
ARC
  8
0
  6
CONTINUOUS
 62
3
 10
-326.607317093053550
 20
-133.543616174772300
 40
13.000000000000250
 50
215.218014572322800
 51
270.000000000000000
  0
LINE
  8
0
  6
CONTINUOUS
 62
3
 10
-371.107317093053550
 20
-185.543616971873230
 11
-371.107317093053550
 21
-179.536116034135600
  0
LINE
  8
0
  6
CONTINUOUS
 62
3
 10
-372.607356609855740
 20
-185.543616971873010
 11
-371.107317093053550
 21
-185.543616971873010
  0
ARC
  8
0
  6
CONTINUOUS
 62
3
 10
-343.740652320111170
 20
-180.543616971873230
 40
5.000000000000000
 50
270.000000000000000
 51
353.967950853629650
  0
LINE
  8
0
  6
CONTINUOUS
 62
3
 10
-371.107317093053550
 20
-185.543616971873230
 11
-343.740652320111170
 21
-185.543616971873230
  0
LINE
  8
0
  6
CONTINUOUS
 62
3
 10
-336.607317093053550
 20
-152.043616971873230
 11
-337.117733940571270
 21
-152.043616971873230
  0
LINE
  8
0
  6
CONTINUOUS
 62
3
 10
-336.607317093053550
 20
-152.043616971873230
 11
-336.607317093053550
 21
-147.043616971873230
  0
LINE
  8
0
  6
CONTINUOUS
 62
3
 10
-336.607317093053550
 20
-147.043616971873010
 11
-337.117733940571270
 21
-147.043616971873010
  0
LINE
  8
0
  6
CONTINUOUS
 62
3
 10
-372.607356609855740
 20
-113.543616971873460
 11
-371.107317093053550
 21
-113.543616971873460
  0
LINE
  8
0
  6
CONTINUOUS
 62
3
 10
-371.107317093053550
 20
-119.555631117442990
 11
-371.107317093053550
 21
-113.543616971873460
  0
ARC
  8
0
  6
CONTINUOUS
 62
3
 10
-637.107317093053550
 20
-149.543616971873230
 40
300.000000000000060
 50
353.967950853630210
 51
6.032049146369772
  0
ARC
  8
0
  6
CONTINUOUS
 62
3
 10
-343.740652320111170
 20
-118.543616971873460
 40
5.000000000000143
 50
6.032049146370342
 51
90.000000000000000
  0
LINE
  8
0
  6
CONTINUOUS
 62
3
 10
-371.107317093053550
 20
-113.543616971873460
 11
-343.740652320111170
 21
-113.543616971873460
  0
LINE
  8
0
  6
DASHDOT
 62
4
 10
-150.364486127940040
 20
72.956383028126737
 11
-168.364486127940040
 21
72.956383028126737
  0
LINE
  8
0
  6
DASHDOT
 62
4
 10
-159.364486127940040
 20
63.956383028126737
 11
-159.364486127940040
 21
90.957982350676474
  0
LINE
  8
0
  6
DASHED
 62
4
 10
-166.364486127940040
 20
92.956383028126737
 11
-166.364486127940040
 21
72.956383028126737
  0
LINE
  8
0
  6
DASHED
 62
4
 10
-152.364486127940040
 20
92.956383028126737
 11
-152.364486127940040
 21
72.956383028126737
  0
ARC
  8
0
  6
DASHED
 62
4
 10
-159.364486127940040
 20
72.956383028126737
 40
7.000000000000000
 50
180.000000000000000
 51
0.000000000000000
  0
CIRCLE
  8
0
  6
DASHED
 62
4
 10
-159.364486127940040
 20
72.956383028126737
 40
6.000000000000000
  0
ARC
  8
0
  6
CONTINUOUS
 62
4
 10
-391.617249854907190
 20
-121.479860340857610
 40
10.797000000000011
 50
5.752282731536912
 51
44.999999999998295
  0
ARC
  8
0
  6
CONTINUOUS
 62
3
 10
-391.617249854907190
 20
-121.479860340857610
 40
20.599999999999916
 50
5.752282731536487
 51
44.999999999997321
  0
ARC
  8
0
  6
CONTINUOUS
 62
3
 10
-391.617249854907190
 20
-177.607373602888860
 40
20.600000000000069
 50
315.000000000002670
 51
354.247717268463480
  0
ARC
  8
0
  6
CONTINUOUS
 62
3
 10
-465.597384331199920
 20
-177.607373602888860
 40
20.599999999999916
 50
185.752282731536500
 51
224.999999999997330
  0
ARC
  8
0
  6
CONTINUOUS
 62
3
 10
-465.597384331199920
 20
-121.479860340857610
 40
20.600000000000069
 50
135.000000000002670
 51
174.247717268463500
  0
LINE
  8
0
  6
CONTINUOUS
 62
3
 10
-377.050850162463580
 20
-106.913460648415360
 11
-384.509545337134570
 21
-99.454765473743691
  0
LINE
  8
0
  6
CONTINUOUS
 62
3
 10
-377.050850162463580
 20
-192.173773295331100
 11
-384.509545337134570
 21
-199.632468470002780
  0
LINE
  8
0
  6
CONTINUOUS
 62
3
 10
-480.163784023643530
 20
-192.173773295331100
 11
-472.705088848972540
 21
-199.632468470002780
  0
LINE
  8
0
  6
CONTINUOUS
 62
3
 10
-480.163784023643530
 20
-106.913460648415360
 11
-472.705088848972540
 21
-99.454765473743691
  0
ARC
  8
0
  6
CONTINUOUS
 62
3
 10
-425.107317093053550
 20
-131.887173388863630
 40
1.000000000000000
 50
180.000000000000000
 51
258.787728582356010
  0
LINE
  8
0
  6
CONTINUOUS
 62
3
 10
-426.107317093053550
 20
-128.837337731024720
 11
-426.107317093053550
 21
-131.887173388863630
  0
ARC
  8
0
  6
CONTINUOUS
 62
3
 10
-425.107317093053550
 20
-128.837337731024720
 40
1.000000000000268
 50
80.405931773124522
 51
180.000000000000000
  0
ARC
  8
0
  6
CONTINUOUS
 62
3
 10
-425.107317093053550
 20
-123.275765898745930
 40
1.000000000000000
 50
179.999999999986980
 51
262.410457608144040
  0
LINE
  8
0
  6
CONTINUOUS
 62
3
 10
-426.107317093053550
 20
-120.251979940119550
 11
-426.107317093053550
 21
-123.275765898745700
  0
ARC
  8
0
  6
CONTINUOUS
 62
3
 10
-425.107317093053550
 20
-120.251979940119550
 40
1.000000000000077
 50
83.186145655820312
 51
180.000000000000000
  0
ARC
  8
0
  6
CONTINUOUS
 62
3
 10
-425.107317093053550
 20
-114.719056673141490
 40
1.000000000000000
 50
180.000000000000000
 51
264.260829522738280
  0
LINE
  8
0
  6
CONTINUOUS
 62
3
 10
-426.107317093053550
 20
-111.705144486848210
 11
-426.107317093053550
 21
-114.719056673141490
  0
ARC
  8
0
  6
CONTINUOUS
 62
3
 10
-425.107317093053550
 20
-111.705144486848210
 40
1.000000000000042
 50
84.715267045464302
 51
180.000000000000000
  0
ARC
  8
0
  6
CONTINUOUS
 62
3
 10
-404.990015305121690
 20
-131.866709542750870
 40
1.000000000000082
 50
299.999999999997270
 51
36.813854344186687
  0
LINE
  8
0
  6
CONTINUOUS
 62
3
 10
-404.490015305121690
 20
-132.732734946535400
 11
-407.108690760899210
 21
-134.244627925848590
  0
ARC
  8
0
  6
CONTINUOUS
 62
3
 10
-407.608690760899210
 20
-133.378602522064060
 40
0.999999999999834
 50
217.589542391867670
 51
299.999999999997270
  0
ARC
  8
0
  6
CONTINUOUS
 62
3
 10
-397.588238680623360
 20
-127.593291816115190
 40
0.999999999999885
 50
300.000000000003810
 51
35.284732954544943
  0
LINE
  8
0
  6
CONTINUOUS
 62
3
 10
-397.088238680623360
 20
-128.459317219899500
 11
-399.698363198729110
 21
-129.966273313046260
  0
ARC
  8
0
  6
CONTINUOUS
 62
3
 10
-400.198363198729110
 20
-129.100247909261950
 40
0.999999999999940
 50
215.739170477274090
 51
300.000000000003810
  0
ARC
  8
0
  6
CONTINUOUS
 62
3
 10
-422.708787822664360
 20
-142.096647625463670
 40
0.999999999999961
 50
231.618272422159780
 51
299.999999999997270
  0
LINE
  8
0
  6
CONTINUOUS
 62
3
 10
-419.465012247640060
 20
-141.378553462412130
 11
-422.208787822664360
 21
-142.962673029248210
  0
ARC
  8
0
  6
CONTINUOUS
 62
3
 10
-415.066388409680710
 20
-137.684306267123020
 40
0.999999999999673
 50
221.212271417651210
 51
300.000000000003810
  0
LINE
  8
0
  6
CONTINUOUS
 62
3
 10
-411.925153252624570
 20
-137.025413841987760
 11
-414.566388409680710
 21
-138.550331670907330
  0
ARC
  8
0
  6
CONTINUOUS
 62
3
 10
-412.425153252624570
 20
-136.159388438203220
 40
1.000000000000082
 50
299.999999999997270
 51
39.594068226850403
  0
ARC
  8
0
  6
CONTINUOUS
 62
3
 10
-425.107317093053550
 20
-140.711856105545390
 40
1.000000000000000
 50
180.000000000000000
 51
248.381727577838030
  0
ARC
  8
0
  6
CONTINUOUS
 62
3
 10
-428.607317093053550
 20
-149.543616971873230
 40
8.500000000000128
 50
51.618272422158320
 51
68.381727577842284
  0
ARC
  8
0
  6
CONTINUOUS
 62
3
 10
-419.965012247640060
 20
-140.512528058627820
 40
0.999999999999885
 50
300.000000000003810
 51
46.260204708328693
  0
LINE
  8
0
  6
CONTINUOUS
 62
3
 10
-426.107317093053550
 20
-137.543616971873230
 11
-426.107317093053550
 21
-140.711856105545390
  0
ARC
  8
0
  6
CONTINUOUS
 62
3
 10
-425.107317093053550
 20
-137.543616971873230
 40
0.999999999999964
 50
73.739795291702634
 51
180.000000000000000
  0
ARC
  8
0
  6
CONTINUOUS
 62
3
 10
-428.607317093053550
 20
-149.543616971873230
 40
13.499999999999927
 50
46.260204708312145
 51
73.739795291689134
  0
ARC
  8
0
  6
CONTINUOUS
 62
3
 10
-428.607317093053550
 20
-149.543616971873230
 40
17.000000000000114
 50
41.212271417649760
 51
78.787728582349985
  0
ARC
  8
0
  6
CONTINUOUS
 62
3
 10
-428.607317093053550
 20
-149.543616971873230
 40
22.000000000000025
 50
39.594068226860820
 51
80.405931773138789
  0
ARC
  8
0
  6
CONTINUOUS
 62
3
 10
-428.607317093053550
 20
-149.543616971873230
 40
30.499999999999964
 50
36.813854344181067
 51
83.186145655818962
  0
ARC
  8
0
  6
CONTINUOUS
 62
3
 10
-428.607317093053550
 20
-149.543616971873230
 40
25.499999999999890
 50
37.589542391857961
 51
82.410457608141883
  0
ARC
  8
0
  6
CONTINUOUS
 62
3
 10
-428.607317093053550
 20
-149.543616971873230
 40
33.999999999999829
 50
35.739170477266640
 51
84.260829522733076
  0
ARC
  8
0
  6
CONTINUOUS
 62
3
 10
-428.607317093053550
 20
-149.543616971873230
 40
38.999999999999865
 50
35.284732954534789
 51
84.715267045465410
  0
ARC
  8
0
  6
CONTINUOUS
 62
3
 10
-401.490015305121690
 20
-137.928887369241920
 40
0.999999999999730
 50
23.186145655819850
 51
119.999999999997270
  0
LINE
  8
0
  6
CONTINUOUS
 62
3
 10
-401.990015305121690
 20
-137.062861965457390
 11
-404.608690760899210
 21
-138.574754944770580
  0
ARC
  8
0
  6
CONTINUOUS
 62
3
 10
-404.108690760899210
 20
-139.440780348555110
 40
1.000000000000082
 50
119.999999999997270
 51
202.410457608146060
  0
ARC
  8
0
  6
CONTINUOUS
 62
3
 10
-394.088238680623360
 20
-133.655469642606250
 40
1.000000000000248
 50
24.715267045455477
 51
119.999999999997270
  0
LINE
  8
0
  6
CONTINUOUS
 62
3
 10
-394.588238680623360
 20
-132.789444238821720
 11
-397.198363198729110
 21
-134.296400331968470
  0
ARC
  8
0
  6
CONTINUOUS
 62
3
 10
-396.698363198729110
 20
-135.162425735752780
 40
0.999999999999885
 50
120.000000000003780
 51
204.260829522745610
  0
ARC
  8
0
  6
CONTINUOUS
 62
3
 10
-419.208787822664360
 20
-148.158825451954950
 40
1.000000000000082
 50
119.999999999997270
 51
188.381727577832660
  0
LINE
  8
0
  6
CONTINUOUS
 62
3
 10
-416.965012247640060
 20
-145.708680481334340
 11
-419.708787822664360
 21
-147.292800048170420
  0
ARC
  8
0
  6
CONTINUOUS
 62
3
 10
-411.566388409680710
 20
-143.746484093614070
 40
1.000000000000082
 50
119.999999999997270
 51
198.787728582347000
  0
LINE
  8
0
  6
CONTINUOUS
 62
3
 10
-409.425153252624110
 20
-141.355540860910200
 11
-412.066388409680710
 21
-142.880458689829540
  0
ARC
  8
0
  6
CONTINUOUS
 62
3
 10
-408.925153252624110
 20
-142.221566264694500
 40
1.000000000000094
 50
20.405931773138686
 51
120.000000000003780
  0
ARC
  8
0
  6
CONTINUOUS
 62
3
 10
-419.208787822664360
 20
-150.928408491791740
 40
1.000000000000059
 50
171.618272422154460
 51
239.999999999996220
  0
ARC
  8
0
  6
CONTINUOUS
 62
3
 10
-428.607317093053550
 20
-149.543616971873230
 40
8.499999999999972
 50
351.618272422157820
 51
8.381727577842204
  0
ARC
  8
0
  6
CONTINUOUS
 62
3
 10
-416.465012247640060
 20
-146.574705885118650
 40
0.999999999999879
 50
13.739795291686027
 51
120.000000000003780
  0
LINE
  8
0
  6
CONTINUOUS
 62
3
 10
-416.965012247640060
 20
-153.378553462412130
 11
-419.708787822664360
 21
-151.794433895576050
  0
ARC
  8
0
  6
CONTINUOUS
 62
3
 10
-416.465012247640060
 20
-152.512528058627820
 40
0.999999999999885
 50
239.999999999996220
 51
346.260204708314010
  0
ARC
  8
0
  6
CONTINUOUS
 62
3
 10
-428.607317093053550
 20
-149.543616971873230
 40
13.500000000000130
 50
346.260204708311850
 51
13.739795291688171
  0
ARC
  8
0
  6
CONTINUOUS
 62
3
 10
-411.566388409680710
 20
-155.340749850132400
 40
0.999999999999646
 50
161.212271417644620
 51
239.999999999996220
  0
LINE
  8
0
  6
CONTINUOUS
 62
3
 10
-409.425153252624110
 20
-157.731693082836270
 11
-412.066388409680710
 21
-156.206775253916700
  0
ARC
  8
0
  6
CONTINUOUS
 62
3
 10
-428.607317093053550
 20
-149.543616971873230
 40
17.000000000000146
 50
341.212271417650070
 51
18.787728582350418
  0
ARC
  8
0
  6
CONTINUOUS
 62
3
 10
-408.925153252624110
 20
-156.865667679051970
 40
0.999999999999885
 50
239.999999999996220
 51
339.594068226861340
  0
ARC
  8
0
  6
CONTINUOUS
 62
3
 10
-404.108690760899210
 20
-159.646453595191590
 40
0.999999999999701
 50
157.589542391853940
 51
240.000000000002730
  0
ARC
  8
0
  6
CONTINUOUS
 62
3
 10
-396.698363198729110
 20
-163.924808207993460
 40
0.999999999999769
 50
155.739170477266270
 51
240.000000000002730
  0
ARC
  8
0
  6
CONTINUOUS
 62
3
 10
-428.607317093053550
 20
-149.543616971873230
 40
22.000000000000206
 50
339.594068226860770
 51
20.405931773139226
  0
LINE
  8
0
  6
CONTINUOUS
 62
3
 10
-401.990015305121690
 20
-162.024371978289080
 11
-404.608690760899210
 21
-160.512478998976120
  0
ARC
  8
0
  6
CONTINUOUS
 62
3
 10
-401.490015305121690
 20
-161.158346574504550
 40
1.000000000000082
 50
240.000000000002730
 51
336.813854344180130
  0
ARC
  8
0
  6
CONTINUOUS
 62
3
 10
-428.607317093053550
 20
-149.543616971873230
 40
30.499999999999947
 50
336.813854344181150
 51
23.186145655818844
  0
ARC
  8
0
  6
CONTINUOUS
 62
3
 10
-428.607317093053550
 20
-149.543616971873230
 40
25.500000000000085
 50
337.589542391857490
 51
22.410457608142021
  0
ARC
  8
0
  6
CONTINUOUS
 62
3
 10
-428.607317093053550
 20
-149.543616971873230
 40
34.000000000000007
 50
335.739170477266780
 51
24.260829522733218
  0
ARC
  8
0
  6
CONTINUOUS
 62
3
 10
-428.607317093053550
 20
-149.543616971873230
 40
39.000000000000220
 50
335.284732954534830
 51
24.715267045465190
  0
LINE
  8
0
  6
CONTINUOUS
 62
3
 10
-394.588238680623360
 20
-166.297789704924530
 11
-397.198363198729110
 21
-164.790833611778000
  0
ARC
  8
0
  6
CONTINUOUS
 62
3
 10
-394.088238680623360
 20
-165.431764301140220
 40
0.999999999999885
 50
239.999999999996220
 51
335.284732954544490
  0
CIRCLE
  8
0
  6
CONTINUOUS
 62
3
 10
-428.607317093053550
 20
-149.543616971873230
 40
5.000000000000000
  0
ARC
  8
0
  6
CONTINUOUS
 62
3
 10
-397.588238680623360
 20
-171.493942127631500
 40
0.999999999999776
 50
324.715267045465680
 51
60.000000000002721
  0
ARC
  8
0
  6
CONTINUOUS
 62
3
 10
-400.198363198729110
 20
-169.986986034484520
 40
0.999999999999885
 50
59.999999999996206
 51
144.260829522736490
  0
ARC
  8
0
  6
CONTINUOUS
 62
3
 10
-425.107317093053550
 20
-184.368177270604970
 40
0.999999999999973
 50
95.739170477261709
 51
180.000000000000000
  0
ARC
  8
0
  6
CONTINUOUS
 62
3
 10
-425.107317093053550
 20
-187.382089456898260
 40
1.000000000000000
 50
180.000000000000000
 51
275.284732954535740
  0
ARC
  8
0
  6
CONTINUOUS
 62
3
 10
-425.107317093053550
 20
-175.811468045000540
 40
0.999999999999975
 50
97.589542391854238
 51
180.000000000000000
  0
ARC
  8
0
  6
CONTINUOUS
 62
3
 10
-404.990015305121690
 20
-167.220524400995370
 40
0.999999999999911
 50
323.186145655802870
 51
59.999999999996206
  0
ARC
  8
0
  6
CONTINUOUS
 62
3
 10
-407.608690760898750
 20
-165.708631421682410
 40
1.000000000000082
 50
60.000000000002721
 51
142.410457608148220
  0
ARC
  8
0
  6
CONTINUOUS
 62
3
 10
-425.107317093053550
 20
-178.835254003626910
 40
1.000000000000000
 50
180.000000000000000
 51
276.813854344179670
  0
ARC
  8
0
  6
CONTINUOUS
 62
3
 10
-425.107317093053550
 20
-170.249896212721750
 40
1.000000000000000
 50
180.000000000000000
 51
279.594068226875490
  0
ARC
  8
0
  6
CONTINUOUS
 62
3
 10
-425.107317093053550
 20
-167.200060554882840
 40
0.999999999999982
 50
101.212271417644000
 51
180.000000000000000
  0
ARC
  8
0
  6
CONTINUOUS
 62
3
 10
-412.425153252624570
 20
-162.927845505543020
 40
1.000000000000318
 50
320.405931773139570
 51
59.999999999996206
  0
ARC
  8
0
  6
CONTINUOUS
 62
3
 10
-415.066388409680710
 20
-161.402927676623680
 40
1.000000000000082
 50
60.000000000002721
 51
138.787728582338990
  0
ARC
  8
0
  6
CONTINUOUS
 62
3
 10
-419.965012247640060
 20
-158.574705885118650
 40
0.999999999999858
 50
313.739795291671330
 51
59.999999999996206
  0
ARC
  8
0
  6
CONTINUOUS
 62
3
 10
-425.107317093053550
 20
-161.543616971873230
 40
1.000000000000000
 50
180.000000000000000
 51
286.260204708297350
  0
ARC
  8
0
  6
CONTINUOUS
 62
3
 10
-425.107317093053550
 20
-158.375377838201080
 40
1.000000000000090
 50
111.618272422161970
 51
180.000000000000000
  0
ARC
  8
0
  6
CONTINUOUS
 62
3
 10
-422.708787822664360
 20
-156.990586318282570
 40
0.999999999999885
 50
59.999999999996206
 51
128.381727577840220
  0
ARC
  8
0
  6
CONTINUOUS
 62
3
 10
-428.607317093053550
 20
-149.543616971873230
 40
38.999999999999986
 50
275.284732954534600
 51
324.715267045465230
  0
ARC
  8
0
  6
CONTINUOUS
 62
3
 10
-428.607317093053550
 20
-149.543616971873230
 40
30.500000000000135
 50
276.813854344181040
 51
323.186145655818900
  0
ARC
  8
0
  6
CONTINUOUS
 62
3
 10
-428.607317093053550
 20
-149.543616971873230
 40
34.000000000000071
 50
275.739170477266950
 51
324.260829522733050
  0
ARC
  8
0
  6
CONTINUOUS
 62
3
 10
-428.607317093053550
 20
-149.543616971873230
 40
25.499999999999932
 50
277.589542391858170
 51
322.410457608142050
  0
ARC
  8
0
  6
CONTINUOUS
 62
3
 10
-428.607317093053550
 20
-149.543616971873230
 40
22.000000000000131
 50
279.594068226861170
 51
320.405931773139170
  0
ARC
  8
0
  6
CONTINUOUS
 62
3
 10
-428.607317093053550
 20
-149.543616971873230
 40
17.000000000000046
 50
281.212271417650020
 51
318.787728582350210
  0
ARC
  8
0
  6
CONTINUOUS
 62
3
 10
-428.607317093053550
 20
-149.543616971873230
 40
13.499999999999963
 50
286.260204708310820
 51
313.739795291687870
  0
ARC
  8
0
  6
CONTINUOUS
 62
3
 10
-428.607317093053550
 20
-149.543616971873230
 40
8.499999999999904
 50
291.618272422157700
 51
308.381727577842640
  0
LINE
  8
0
  6
CONTINUOUS
 62
3
 10
-404.490015305121690
 20
-166.354498997211070
 11
-407.108690760898750
 21
-164.842606017897880
  0
LINE
  8
0
  6
CONTINUOUS
 62
3
 10
-426.107317093053550
 20
-187.382089456898260
 11
-426.107317093053550
 21
-184.368177270604970
  0
LINE
  8
0
  6
CONTINUOUS
 62
3
 10
-397.088238680623360
 20
-170.627916723846970
 11
-399.698363198729110
 21
-169.120960630700210
  0
LINE
  8
0
  6
CONTINUOUS
 62
3
 10
-411.925153252624570
 20
-162.061820101758710
 11
-414.566388409680710
 21
-160.536902272839140
  0
LINE
  8
0
  6
CONTINUOUS
 62
3
 10
-419.465012247640060
 20
-157.708680481334340
 11
-422.208787822664360
 21
-156.124560914498260
  0
LINE
  8
0
  6
CONTINUOUS
 62
3
 10
-426.107317093053550
 20
-161.543616971873230
 11
-426.107317093053550
 21
-158.375377838201080
  0
LINE
  8
0
  6
CONTINUOUS
 62
3
 10
-426.107317093053550
 20
-170.249896212721750
 11
-426.107317093053550
 21
-167.200060554882840
  0
LINE
  8
0
  6
CONTINUOUS
 62
3
 10
-426.107317093053550
 20
-178.835254003626910
 11
-426.107317093053550
 21
-175.811468045000540
  0
ARC
  8
0
  6
CONTINUOUS
 62
3
 10
-428.607317093053550
 20
-149.543616971873230
 40
39.000000000000220
 50
155.284732954534800
 51
204.715267045465200
  0
ARC
  8
0
  6
CONTINUOUS
 62
3
 10
-428.607317093053550
 20
-149.543616971873230
 40
34.000000000000007
 50
155.739170477266780
 51
204.260829522733220
  0
ARC
  8
0
  6
CONTINUOUS
 62
3
 10
-428.607317093053550
 20
-149.543616971873230
 40
25.500000000000000
 50
157.589542391857980
 51
202.410457608142480
  0
ARC
  8
0
  6
CONTINUOUS
 62
3
 10
-428.607317093053550
 20
-149.543616971873230
 40
30.499999999999947
 50
156.813854344181150
 51
203.186145655818850
  0
ARC
  8
0
  6
CONTINUOUS
 62
3
 10
-428.607317093053550
 20
-149.543616971873230
 40
22.000000000000206
 50
159.594068226860770
 51
200.405931773139230
  0
ARC
  8
0
  6
CONTINUOUS
 62
3
 10
-428.607317093053550
 20
-149.543616971873230
 40
16.999999999999716
 50
161.212271417649560
 51
198.787728582350440
  0
ARC
  8
0
  6
CONTINUOUS
 62
3
 10
-428.607317093053550
 20
-149.543616971873230
 40
13.499999999999687
 50
166.260204708311360
 51
193.739795291688180
  0
ARC
  8
0
  6
CONTINUOUS
 62
3
 10
-440.749621938467040
 20
-146.574705885118650
 40
0.999999999999885
 50
59.999999999996206
 51
166.260204708307780
  0
ARC
  8
0
  6
CONTINUOUS
 62
3
 10
-448.289480933482990
 20
-142.221566264694500
 40
0.999999999999885
 50
59.999999999996206
 51
159.594068226861310
  0
LINE
  8
0
  6
CONTINUOUS
 62
3
 10
-447.789480933482990
 20
-141.355540860910200
 11
-445.148245776426390
 21
-142.880458689829540
  0
ARC
  8
0
  6
CONTINUOUS
 62
3
 10
-445.648245776426390
 20
-143.746484093614070
 40
1.000000000000076
 50
341.212271417652970
 51
60.000000000002721
  0
LINE
  8
0
  6
CONTINUOUS
 62
3
 10
-440.249621938467040
 20
-145.708680481334340
 11
-437.505846363442740
 21
-147.292800048170420
  0
ARC
  8
0
  6
CONTINUOUS
 62
3
 10
-438.005846363442740
 20
-148.158825451954950
 40
1.000000000000026
 50
351.618272422167310
 51
60.000000000002721
  0
ARC
  8
0
  6
CONTINUOUS
 62
3
 10
-460.516270987377990
 20
-135.162425735752780
 40
0.999999999999863
 50
335.739170477254390
 51
59.999999999996206
  0
LINE
  8
0
  6
CONTINUOUS
 62
3
 10
-462.626395505483740
 20
-132.789444238821720
 11
-460.016270987377990
 21
-134.296400331968470
  0
ARC
  8
0
  6
CONTINUOUS
 62
3
 10
-463.126395505483740
 20
-133.655469642606250
 40
1.000000000000082
 50
60.000000000002721
 51
155.284732954544520
  0
ARC
  8
0
  6
CONTINUOUS
 62
3
 10
-453.105943425207900
 20
-139.440780348555110
 40
0.999999999999701
 50
337.589542391853970
 51
60.000000000002721
  0
LINE
  8
0
  6
CONTINUOUS
 62
3
 10
-455.224618880985420
 20
-137.062861965457390
 11
-452.605943425207900
 21
-138.574754944770580
  0
ARC
  8
0
  6
CONTINUOUS
 62
3
 10
-455.724618880985420
 20
-137.928887369241920
 40
1.000000000000082
 50
60.000000000002721
 51
156.813854344180160
  0
ARC
  8
0
  6
CONTINUOUS
 62
3
 10
-428.607317093053550
 20
-149.543616971873230
 40
38.999999999999986
 50
95.284732954534590
 51
144.715267045465200
  0
ARC
  8
0
  6
CONTINUOUS
 62
3
 10
-428.607317093053550
 20
-149.543616971873230
 40
34.000000000000071
 50
95.739170477266924
 51
144.260829522733360
  0
ARC
  8
0
  6
CONTINUOUS
 62
3
 10
-428.607317093053550
 20
-149.543616971873230
 40
25.500000000000160
 50
97.589542391858117
 51
142.410457608142050
  0
ARC
  8
0
  6
CONTINUOUS
 62
3
 10
-428.607317093053550
 20
-149.543616971873230
 40
30.500000000000135
 50
96.813854344181038
 51
143.186145655818930
  0
ARC
  8
0
  6
CONTINUOUS
 62
3
 10
-428.607317093053550
 20
-149.543616971873230
 40
22.000000000000131
 50
99.594068226861211
 51
140.405931773139200
  0
ARC
  8
0
  6
CONTINUOUS
 62
3
 10
-428.607317093053550
 20
-149.543616971873230
 40
17.000000000000046
 50
101.212271417650010
 51
138.787728582350240
  0
ARC
  8
0
  6
CONTINUOUS
 62
3
 10
-428.607317093053550
 20
-149.543616971873230
 40
13.499999999999963
 50
106.260204708310860
 51
133.739795291687870
  0
ARC
  8
0
  6
CONTINUOUS
 62
3
 10
-432.107317093053550
 20
-137.543616971873230
 40
1.000000000000000
 50
0.000000000000000
 51
106.260204708297360
  0
LINE
  8
0
  6
CONTINUOUS
 62
3
 10
-431.107317093053550
 20
-137.543616971873230
 11
-431.107317093053550
 21
-140.711856105545390
  0
ARC
  8
0
  6
CONTINUOUS
 62
3
 10
-437.249621938467040
 20
-140.512528058627820
 40
0.999999999999858
 50
133.739795291671300
 51
239.999999999996220
  0
ARC
  8
0
  6
CONTINUOUS
 62
3
 10
-428.607317093053550
 20
-149.543616971873230
 40
8.499999999999904
 50
111.618272422157710
 51
128.381727577841670
  0
ARC
  8
0
  6
CONTINUOUS
 62
3
 10
-432.107317093053550
 20
-140.711856105545390
 40
1.000000000000090
 50
291.618272422161970
 51
0.000000000000000
  0
ARC
  8
0
  6
CONTINUOUS
 62
3
 10
-444.789480933482540
 20
-136.159388438203220
 40
1.000000000000173
 50
140.405931773149600
 51
240.000000000002730
  0
LINE
  8
0
  6
CONTINUOUS
 62
3
 10
-445.289480933482540
 20
-137.025413841987760
 11
-442.648245776426390
 21
-138.550331670907330
  0
ARC
  8
0
  6
CONTINUOUS
 62
3
 10
-442.148245776426390
 20
-137.684306267123020
 40
0.999999999999885
 50
239.999999999996220
 51
318.787728582348790
  0
LINE
  8
0
  6
CONTINUOUS
 62
3
 10
-437.749621938467040
 20
-141.378553462412130
 11
-435.005846363442740
 21
-142.962673029248210
  0
ARC
  8
0
  6
CONTINUOUS
 62
3
 10
-434.505846363442740
 20
-142.096647625463670
 40
1.000000000000082
 50
240.000000000002730
 51
308.381727577840190
  0
ARC
  8
0
  6
CONTINUOUS
 62
3
 10
-457.016270987377990
 20
-129.100247909261950
 40
0.999999999999885
 50
239.999999999996220
 51
324.260829522725940
  0
LINE
  8
0
  6
CONTINUOUS
 62
3
 10
-460.126395505483740
 20
-128.459317219899500
 11
-457.516270987377990
 21
-129.966273313046260
  0
ARC
  8
0
  6
CONTINUOUS
 62
3
 10
-459.626395505483740
 20
-127.593291816115190
 40
0.999999999999908
 50
144.715267045455050
 51
239.999999999996220
  0
ARC
  8
0
  6
CONTINUOUS
 62
3
 10
-449.605943425207900
 20
-133.378602522064060
 40
1.000000000000082
 50
240.000000000002730
 51
322.410457608132330
  0
LINE
  8
0
  6
CONTINUOUS
 62
3
 10
-452.724618880985420
 20
-132.732734946535400
 11
-450.105943425207900
 21
-134.244627925848590
  0
ARC
  8
0
  6
CONTINUOUS
 62
3
 10
-452.224618880985420
 20
-131.866709542750870
 40
0.999999999999774
 50
143.186145655813330
 51
240.000000000002730
  0
ARC
  8
0
  6
CONTINUOUS
 62
3
 10
-432.107317093053550
 20
-111.705144486848210
 40
1.000000000000000
 50
0.000000000000000
 51
95.284732954535698
  0
LINE
  8
0
  6
CONTINUOUS
 62
3
 10
-431.107317093053550
 20
-111.705144486848210
 11
-431.107317093053550
 21
-114.719056673141490
  0
ARC
  8
0
  6
CONTINUOUS
 62
3
 10
-432.107317093053550
 20
-114.719056673141490
 40
0.999999999999973
 50
275.739170477261670
 51
0.000000000000000
  0
ARC
  8
0
  6
CONTINUOUS
 62
3
 10
-432.107317093053550
 20
-120.251979940119550
 40
1.000000000000000
 50
0.000000000000000
 51
96.813854344179688
  0
LINE
  8
0
  6
CONTINUOUS
 62
3
 10
-431.107317093053550
 20
-120.251979940119550
 11
-431.107317093053550
 21
-123.275765898745700
  0
ARC
  8
0
  6
CONTINUOUS
 62
3
 10
-432.107317093053550
 20
-123.275765898745930
 40
0.999999999999749
 50
277.589542391855960
 51
0.000000000013028
  0
ARC
  8
0
  6
CONTINUOUS
 62
3
 10
-432.107317093053550
 20
-128.837337731024720
 40
1.000000000000000
 50
0.000000000000000
 51
99.594068226875478
  0
LINE
  8
0
  6
CONTINUOUS
 62
3
 10
-431.107317093053550
 20
-128.837337731024720
 11
-431.107317093053550
 21
-131.887173388863630
  0
ARC
  8
0
  6
CONTINUOUS
 62
3
 10
-432.107317093053550
 20
-131.887173388863630
 40
0.999999999999982
 50
281.212271417643990
 51
0.000000000000000
  0
ARC
  8
0
  6
CONTINUOUS
 62
3
 10
-440.749621938467040
 20
-152.512528058627820
 40
0.999999999999879
 50
193.739795291686050
 51
300.000000000003810
  0
LINE
  8
0
  6
CONTINUOUS
 62
3
 10
-440.249621938467040
 20
-153.378553462412130
 11
-437.505846363442740
 21
-151.794433895576050
  0
ARC
  8
0
  6
CONTINUOUS
 62
3
 10
-428.607317093053550
 20
-149.543616971873230
 40
8.499999999999972
 50
171.618272422157790
 51
188.381727577842210
  0
ARC
  8
0
  6
CONTINUOUS
 62
3
 10
-438.005846363442740
 20
-150.928408491791740
 40
0.999999999999885
 50
300.000000000003810
 51
8.381727577845549
  0
LINE
  8
0
  6
CONTINUOUS
 62
3
 10
-431.107317093053550
 20
-178.835254003626910
 11
-431.107317093053550
 21
-175.811468045000540
  0
LINE
  8
0
  6
CONTINUOUS
 62
3
 10
-431.107317093053550
 20
-170.249896212721750
 11
-431.107317093053550
 21
-167.200060554882840
  0
LINE
  8
0
  6
CONTINUOUS
 62
3
 10
-431.107317093053550
 20
-161.543616971873230
 11
-431.107317093053550
 21
-158.375377838201080
  0
LINE
  8
0
  6
CONTINUOUS
 62
3
 10
-437.749621938467040
 20
-157.708680481334340
 11
-435.005846363442740
 21
-156.124560914498260
  0
LINE
  8
0
  6
CONTINUOUS
 62
3
 10
-445.289480933482540
 20
-162.061820101758710
 11
-442.648245776426390
 21
-160.536902272839140
  0
LINE
  8
0
  6
CONTINUOUS
 62
3
 10
-460.126395505483740
 20
-170.627916723846970
 11
-457.516270987377990
 21
-169.120960630700210
  0
LINE
  8
0
  6
CONTINUOUS
 62
3
 10
-452.724618880985420
 20
-166.354498997211070
 11
-450.105943425208350
 21
-164.842606017897880
  0
ARC
  8
0
  6
CONTINUOUS
 62
3
 10
-428.607317093053550
 20
-149.543616971873230
 40
8.499999999999948
 50
231.618272422157330
 51
248.381727577842330
  0
ARC
  8
0
  6
CONTINUOUS
 62
3
 10
-428.607317093053550
 20
-149.543616971873230
 40
13.499999999999927
 50
226.260204708312130
 51
253.739795291689150
  0
ARC
  8
0
  6
CONTINUOUS
 62
3
 10
-428.607317093053550
 20
-149.543616971873230
 40
16.999999999999773
 50
221.212271417650780
 51
258.787728582349980
  0
ARC
  8
0
  6
CONTINUOUS
 62
3
 10
-428.607317093053550
 20
-149.543616971873230
 40
22.000000000000025
 50
219.594068226860800
 51
260.405931773138780
  0
ARC
  8
0
  6
CONTINUOUS
 62
3
 10
-428.607317093053550
 20
-149.543616971873230
 40
25.499999999999890
 50
217.589542391857950
 51
262.410457608141830
  0
ARC
  8
0
  6
CONTINUOUS
 62
3
 10
-428.607317093053550
 20
-149.543616971873230
 40
33.999999999999964
 50
215.739170477266950
 51
264.260829522733050
  0
ARC
  8
0
  6
CONTINUOUS
 62
3
 10
-428.607317093053550
 20
-149.543616971873230
 40
30.499999999999964
 50
216.813854344181070
 51
263.186145655818960
  0
ARC
  8
0
  6
CONTINUOUS
 62
3
 10
-428.607317093053550
 20
-149.543616971873230
 40
38.999999999999865
 50
215.284732954534800
 51
264.715267045465400
  0
ARC
  8
0
  6
CONTINUOUS
 62
3
 10
-434.505846363442740
 20
-156.990586318282570
 40
0.999999999999961
 50
51.618272422159777
 51
120.000000000003780
  0
ARC
  8
0
  6
CONTINUOUS
 62
3
 10
-432.107317093053550
 20
-158.375377838201080
 40
1.000000000000000
 50
0.000000000000000
 51
68.381727577838021
  0
ARC
  8
0
  6
CONTINUOUS
 62
3
 10
-432.107317093053550
 20
-161.543616971873230
 40
0.999999999999964
 50
253.739795291702650
 51
0.000000000000000
  0
ARC
  8
0
  6
CONTINUOUS
 62
3
 10
-437.249621938467040
 20
-158.574705885118650
 40
0.999999999999885
 50
120.000000000003780
 51
226.260204708328700
  0
ARC
  8
0
  6
CONTINUOUS
 62
3
 10
-442.148245776426390
 20
-161.402927676623680
 40
1.000000000000165
 50
41.212271417643841
 51
119.999999999997270
  0
ARC
  8
0
  6
CONTINUOUS
 62
3
 10
-444.789480933482540
 20
-162.927845505543020
 40
0.999999999999885
 50
120.000000000003780
 51
219.594068226860460
  0
ARC
  8
0
  6
CONTINUOUS
 62
3
 10
-432.107317093053550
 20
-167.200060554882840
 40
1.000000000000000
 50
0.000000000000000
 51
78.787728582355996
  0
ARC
  8
0
  6
CONTINUOUS
 62
3
 10
-432.107317093053550
 20
-170.249896212721750
 40
1.000000000000268
 50
260.405931773124510
 51
0.000000000000000
  0
ARC
  8
0
  6
CONTINUOUS
 62
3
 10
-449.605943425208350
 20
-165.708631421682410
 40
1.000000000000194
 50
37.589542391851793
 51
119.999999999997270
  0
ARC
  8
0
  6
CONTINUOUS
 62
3
 10
-452.224618880985420
 20
-167.220524400995370
 40
0.999999999999885
 50
120.000000000003780
 51
216.813854344197100
  0
ARC
  8
0
  6
CONTINUOUS
 62
3
 10
-432.107317093053550
 20
-175.811468045000540
 40
1.000000000000000
 50
0.000000000000000
 51
82.410457608145762
  0
ARC
  8
0
  6
CONTINUOUS
 62
3
 10
-457.016270987377990
 20
-169.986986034484520
 40
0.999999999999807
 50
35.739170477263521
 51
120.000000000003780
  0
ARC
  8
0
  6
CONTINUOUS
 62
3
 10
-459.626395505483740
 20
-171.493942127631500
 40
1.000000000000082
 50
119.999999999997270
 51
215.284732954534320
  0
ARC
  8
0
  6
CONTINUOUS
 62
3
 10
-463.126395505483740
 20
-165.431764301140220
 40
1.000000000000248
 50
204.715267045455480
 51
300.000000000003810
  0
LINE
  8
0
  6
CONTINUOUS
 62
3
 10
-462.626395505483740
 20
-166.297789704924530
 11
-460.016270987377990
 21
-164.790833611778000
  0
ARC
  8
0
  6
CONTINUOUS
 62
3
 10
-455.724618880985420
 20
-161.158346574504550
 40
0.999999999999730
 50
203.186145655819840
 51
299.999999999997270
  0
LINE
  8
0
  6
CONTINUOUS
 62
3
 10
-455.224618880985420
 20
-162.024371978289080
 11
-452.605943425207900
 21
-160.512478998976120
  0
ARC
  8
0
  6
CONTINUOUS
 62
3
 10
-460.516270987377990
 20
-163.924808207993460
 40
1.000000000000082
 50
299.999999999997270
 51
24.260829522733715
  0
ARC
  8
0
  6
CONTINUOUS
 62
3
 10
-453.105943425207900
 20
-159.646453595191590
 40
1.000000000000082
 50
299.999999999997270
 51
22.410457608146043
  0
ARC
  8
0
  6
CONTINUOUS
 62
3
 10
-448.289480933482990
 20
-156.865667679051970
 40
1.000000000000094
 50
200.405931773138690
 51
300.000000000003810
  0
LINE
  8
0
  6
CONTINUOUS
 62
3
 10
-447.789480933482990
 20
-157.731693082836270
 11
-445.148245776426390
 21
-156.206775253916700
  0
ARC
  8
0
  6
CONTINUOUS
 62
3
 10
-445.648245776426390
 20
-155.340749850132400
 40
0.999999999999885
 50
300.000000000003810
 51
18.787728582346993
  0
LINE
  8
0
  6
CONTINUOUS
 62
3
 10
-431.107317093053550
 20
-187.382089456898260
 11
-431.107317093053550
 21
-184.368177270604970
  0
ARC
  8
0
  6
CONTINUOUS
 62
3
 10
-432.107317093053550
 20
-178.835254003626910
 40
1.000000000000077
 50
263.186145655820330
 51
0.000000000000000
  0
ARC
  8
0
  6
CONTINUOUS
 62
3
 10
-432.107317093053550
 20
-187.382089456898260
 40
1.000000000000042
 50
264.715267045464260
 51
0.000000000000000
  0
ARC
  8
0
  6
CONTINUOUS
 62
3
 10
-432.107317093053550
 20
-184.368177270604970
 40
1.000000000000000
 50
0.000000000000000
 51
84.260829522738291
  0
ARC
  8
0
  6
CONTINUOUS
 62
3
 10
-670.207317093053920
 20
-149.543616971873230
 40
300.600000000000360
 50
0.000000000000000
 51
5.752282731536604
  0
ARC
  8
0
  6
CONTINUOUS
 62
3
 10
-670.207317093053920
 20
-149.543616971873230
 40
300.599999999999910
 50
354.247717268463420
 51
0.000000000000000
  0
ARC
  8
0
  6
CONTINUOUS
 62
3
 10
-187.007317093053190
 20
-149.543616971873230
 40
300.600000000000360
 50
180.000000000000000
 51
185.752282731536610
  0
ARC
  8
0
  6
CONTINUOUS
 62
3
 10
-187.007317093053190
 20
-149.543616971873230
 40
300.599999999999910
 50
174.247717268463390
 51
180.000000000000000
  0
ARC
  8
0
  6
CONTINUOUS
 62
3
 10
-428.607317093053550
 20
-496.143616971873370
 40
400.599999999999910
 50
84.256318189006564
 51
90.000000000000000
  0
ARC
  8
0
  6
CONTINUOUS
 62
3
 10
-428.607317093053550
 20
197.056383028126900
 40
400.599999999999910
 50
270.000000000000000
 51
275.743681810993450
  0
ARC
  8
0
  6
CONTINUOUS
 62
3
 10
-428.607317093053550
 20
197.056383028126900
 40
400.599999999999910
 50
264.256318189006550
 51
270.000000000000000
  0
ARC
  8
0
  6
CONTINUOUS
 62
3
 10
-428.607317093053550
 20
-496.143616971873370
 40
400.599999999999910
 50
90.000000000000000
 51
95.743681810993436
  0
ARC
  8
0
  6
CONTINUOUS
 62
3
 10
-389.176450092966210
 20
-104.121670229574870
 40
6.600000000000278
 50
44.999999999997215
 51
84.256318189004901
  0
ARC
  8
0
  6
CONTINUOUS
 62
3
 10
-389.176450092966210
 20
-194.965563714171590
 40
6.600000000000009
 50
275.743681810995100
 51
315.000000000002790
  0
ARC
  8
0
  6
CONTINUOUS
 62
3
 10
-468.038184093140900
 20
-194.965563714171590
 40
6.600000000000278
 50
224.999999999997190
 51
264.256318189004900
  0
ARC
  8
0
  6
CONTINUOUS
 62
3
 10
-468.038184093140900
 20
-104.121670229574870
 40
6.600000000000009
 50
95.743681810995099
 51
135.000000000002790
  0
LINE
  8
0
  6
CONTINUOUS
 62
4
 10
-383.982617938435850
 20
-113.845228424386730
 11
-389.870031810475210
 21
-107.957814552346690
  0
ARC
  8
0
  6
CONTINUOUS
 62
4
 10
-428.607317093053550
 20
-496.143616971873370
 40
390.797000000000030
 50
84.582036237639471
 51
90.000000000000000
  0
ARC
  8
0
  6
CONTINUOUS
 62
4
 10
-391.991352154035210
 20
-110.079134895906460
 40
3.000000000000346
 50
44.999999999996930
 51
84.582036237634313
  0
ARC
  8
0
  6
CONTINUOUS
 62
4
 10
-670.207317093053920
 20
-149.543616971873230
 40
290.797000000000480
 50
0.000000000000000
 51
5.752282731536624
  0
ARC
  8
0
  6
CONTINUOUS
 62
4
 10
-391.991352154035210
 20
-189.008099047840010
 40
3.000000000000067
 50
275.417963762365730
 51
315.000000000003070
  0
ARC
  8
0
  6
CONTINUOUS
 62
4
 10
-428.607317093053550
 20
197.056383028126900
 40
390.797000000000030
 50
270.000000000000000
 51
275.417963762360500
  0
ARC
  8
0
  6
CONTINUOUS
 62
4
 10
-401.235426505534180
 20
-173.083414629785240
 40
20.797000000000015
 50
315.000000000000000
 51
354.998349729064670
  0
LINE
  8
0
  6
CONTINUOUS
 62
4
 10
-386.529726777197540
 20
-187.789114358121880
 11
-389.870031810475210
 21
-191.129419391399780
  0
ARC
  8
0
  6
CONTINUOUS
 62
4
 10
-670.207317093053920
 20
-149.543616971873230
 40
290.797000000000140
 50
354.998349729065010
 51
0.000000000000000
  0
ARC
  8
0
  6
CONTINUOUS
 62
4
 10
-465.223282032071890
 20
-189.008099047840010
 40
3.000000000000346
 50
224.999999999996960
 51
264.582036237634270
  0
ARC
  8
0
  6
CONTINUOUS
 62
4
 10
-428.607317093053550
 20
197.056383028126900
 40
390.797000000000030
 50
264.582036237639500
 51
270.000000000000000
  0
ARC
  8
0
  6
CONTINUOUS
 62
4
 10
-455.979207680572930
 20
-173.083414629785240
 40
20.796999999999880
 50
185.001650270935330
 51
225.000000000000000
  0
LINE
  8
0
  6
CONTINUOUS
 62
4
 10
-470.684907408909570
 20
-187.789114358121880
 11
-467.344602375631890
 21
-191.129419391399780
  0
ARC
  8
0
  6
CONTINUOUS
 62
4
 10
-187.007317093053420
 20
-149.543616971873230
 40
290.797000000000250
 50
180.000000000000000
 51
185.001650270934930
  0
ARC
  8
0
  6
CONTINUOUS
 62
4
 10
-465.223282032071890
 20
-110.079134895906460
 40
3.000000000000067
 50
95.417963762365673
 51
135.000000000003040
  0
ARC
  8
0
  6
CONTINUOUS
 62
4
 10
-428.607317093053550
 20
-496.143616971873370
 40
390.797000000000030
 50
90.000000000000000
 51
95.417963762360529
  0
ARC
  8
0
  6
CONTINUOUS
 62
4
 10
-455.979207680572930
 20
-126.003819313961230
 40
20.797000000000015
 50
135.000000000000000
 51
174.998349729064670
  0
LINE
  8
0
  6
CONTINUOUS
 62
4
 10
-470.684907408909570
 20
-111.298119585624590
 11
-467.344602375631890
 21
-107.957814552346690
  0
ARC
  8
0
  6
CONTINUOUS
 62
4
 10
-187.007317093053420
 20
-149.543616971873230
 40
290.796999999999910
 50
174.998349729065040
 51
180.000000000000000
  0
LINE
  8
0
  6
CONTINUOUS
 62
3
 10
-503.610186713634450
 20
-93.663496899093047
 11
-508.703823641911410
 21
-195.536235464633820
  0
LINE
  8
0
  6
CONTINUOUS
 62
3
 10
-508.703823641911410
 20
-195.536235464633820
 11
-510.301827384116000
 21
-195.456335277522840
  0
LINE
  8
0
  6
CONTINUOUS
 62
3
 10
-505.208190455839030
 20
-93.583596711982864
 11
-510.301827384116000
 21
-195.456335277522840
  0
ARC
  8
0
  6
CONTINUOUS
 62
3
 10
-506.325819557689560
 20
-96.331212308227691
 40
1.299999237060474
 50
87.137594090651831
 51
160.536063666412870
  0
ARC
  8
0
  6
CONTINUOUS
 62
3
 10
-506.545545148441530
 20
-100.725724123265420
 40
1.299999237060493
 50
193.739143184211430
 51
267.137612759980240
  0
LINE
  8
0
  6
CONTINUOUS
 62
3
 10
-505.283096881254320
 20
-95.081725220299518
 11
-506.260900693761870
 21
-95.032835029674175
  0
LINE
  8
0
  6
CONTINUOUS
 62
3
 10
-505.632660199861450
 20
-102.072991592444390
 11
-506.610464012369220
 21
-102.024101401819050
  0
LINE
  8
0
  6
CONTINUOUS
 62
3
 10
-505.283096881254320
 20
-95.081725220299518
 11
-505.632660199861450
 21
-102.072991592444390
  0
LINE
  8
0
  6
CONTINUOUS
 62
3
 10
-505.283096881254320
 20
-95.081725220299518
 11
-505.632660199861450
 21
-102.072991592444390
  0
POINT
  8
0
  6
CONTINUOUS
 62
3
 10
-505.457878540557890
 20
-98.577358406371900
  0
ARC
  8
0
  6
CONTINUOUS
 62
3
 10
-499.065863952733480
 20
-98.896959135763154
 40
9.000000000000060
 50
160.536063666407810
 51
193.739143184213500
  0
INSERT
  8
0
  2
SYM1
 10
-510.052139299396910
 20
-190.462573583133690
 41
1.000000000000000
 42
1.000000000000000
 43
1.000000000000000
 50
357.137594773886350
  0
LINE
  8
0
  6
CONTINUOUS
 62
3
 10
-487.107317093053550
 20
-132.213008211653690
 11
-487.107317093053550
 21
-123.586116971873250
  0
LINE
  8
0
  6
CONTINUOUS
 62
3
 10
-505.208190455839030
 20
-93.583596711982864
 11
-503.610186713634450
 21
-93.663496899093047
  0
ARC
  8
0
  6
CONTINUOUS
 62
3
 10
-505.907317093053510
 20
-123.586116971873250
 40
18.799999999999933
 50
144.191373186504250
 51
174.275189547776390
  0
ARC
  8
0
  6
CONTINUOUS
 62
3
 10
-505.907317093053510
 20
-123.586116971873250
 40
18.800000000000036
 50
94.873974813842736
 51
144.191373186504250
  0
ARC
  8
0
  6
CONTINUOUS
 62
3
 10
-507.907317093053510
 20
-163.586116971873250
 40
20.800000000000082
 50
274.191726156007460
 51
354.952683218992150
  0
LINE
  8
0
  6
CONTINUOUS
 62
3
 10
-528.603576444674450
 20
-161.511304004292240
 11
-524.613551507018430
 21
-121.710805251174970
  0
ARC
  8
0
  6
CONTINUOUS
 62
3
 10
-511.833782924385790
 20
-186.045477293916750
 40
2.000000000000154
 50
357.137594773887600
 51
80.083463391767268
  0
LINE
  8
0
  6
CONTINUOUS
 62
3
 10
-504.409188584736740
 20
-93.623546805538012
 11
-509.502825513013700
 21
-195.496285371078100
  0
ARC
  8
0
  6
CONTINUOUS
 62
3
 10
-506.240769826669980
 20
-186.325127948802560
 40
1.999999999999962
 50
94.191726156001650
 51
177.137594773887290
  0
ARC
  8
0
  6
CONTINUOUS
 62
3
 10
-507.674575556682380
 20
-102.861329939849720
 40
1.999999999999928
 50
274.873974813840960
 51
357.137594773887320
  0
ARC
  8
0
  6
CONTINUOUS
 62
3
 10
-502.081562458966570
 20
-103.140980594735530
 40
1.999999999999927
 50
177.137594773887290
 51
259.401214733934010
  0
ARC
  8
0
  6
CONTINUOUS
 62
3
 10
-505.907317093053510
 20
-123.586116971873250
 40
18.799999999999955
 50
0.000000000000000
 51
79.401214733933941
  0
ARC
  8
0
  6
CONTINUOUS
 62
3
 10
-507.907317093053510
 20
-163.586116971873250
 40
20.799999999999986
 50
174.275189547776620
 51
205.640070215894870
  0
POINT
  8
0
  6
DASHDOT
 62
4
 10
-487.107317093053550
 20
-149.557347464999220
  0
ARC
  8
0
  6
CONTINUOUS
 62
3
 10
-507.907317093053510
 20
-163.586116971873250
 40
20.799999999999926
 50
205.640070215894870
 51
260.083463391769440
  0
POINT
  8
0
  6
DASHDOT
 62
4
 10
-487.107317093053550
 20
-149.557347464999220
  0
ARC
  8
0
  6
CONTINUOUS
 62
3
 10
-507.907317093053510
 20
-163.586116971873250
 40
20.799999999999986
 50
174.275189547776620
 51
205.640070215894870
  0
LINE
  8
0
  6
CONTINUOUS
 62
3
 10
-345.107317093053330
 20
-185.543616971873230
 11
-345.107317093053330
 21
-194.043616971873230
  0
LINE
  8
0
  6
CONTINUOUS
 62
3
 10
-512.107317093053550
 20
-183.957665759336580
 11
-512.107317093053550
 21
-187.676543801622640
  0
LINE
  8
0
  6
DASHDOT
 62
4
 10
-559.381754890378940
 20
-149.543616971873230
 11
-296.872500705329000
 21
-149.543616971873230
  0
LINE
  8
0
  6
DASHDOT
 62
4
 10
-407.950441234675960
 20
-148.543616971872550
 11
-449.331911129855140
 21
-148.543616971872550
  0
LINE
  8
0
  6
CONTINUOUS
 62
3
 10
-345.107317093053330
 20
-188.063600997422210
 11
-345.107317093053330
 21
-194.043616971873260
  0
ARC
  8
0
  6
CONTINUOUS
 62
3
 10
-415.107317093053330
 20
-194.043616971873260
 40
69.999999999999972
 50
270.000000000000000
 51
0.000000000000000
  0
ARC
  8
0
  6
CONTINUOUS
 62
3
 10
-414.107317093053330
 20
-258.243616971873280
 40
3.000000000000000
 50
270.000000000000000
 51
0.000000000000000
  0
LINE
  8
0
  6
CONTINUOUS
 62
3
 10
-415.107317093053330
 20
-264.043616971873230
 11
-442.107317093053330
 21
-264.043616971873230
  0
ARC
  8
0
  6
CONTINUOUS
 62
3
 10
-443.107317093053330
 20
-258.243616971873280
 40
3.000000000000000
 50
180.000000000000000
 51
270.000000000000000
  0
ARC
  8
0
  6
CONTINUOUS
 62
3
 10
-454.107317093053330
 20
-257.160230962581180
 40
3.000000000000005
 50
259.682397487131770
 51
0.000000000000000
  0
ARC
  8
0
  6
CONTINUOUS
 62
3
 10
-403.107317093053330
 20
-257.160230962581180
 40
3.000000000000000
 50
180.000000000000000
 51
280.317602512868230
  0
LINE
  8
0
  6
CONTINUOUS
 62
3
 10
-411.107317093053330
 20
-215.668394551240230
 11
-411.107317093053330
 21
-258.243616971873280
  0
ARC
  8
0
  6
CONTINUOUS
 62
3
 10
-414.107317093053330
 20
-215.668394551240230
 40
3.000000000000000
 50
0.000000000000000
 51
112.431520635375860
  0
ARC
  8
0
  6
CONTINUOUS
 62
3
 10
-403.107317093053330
 20
-208.717186145834860
 40
2.999999999999853
 50
132.148359482507170
 51
180.000000000000000
  0
LINE
  8
0
  6
CONTINUOUS
 62
3
 10
-406.107317093053330
 20
-208.717186145834860
 11
-406.107317093053330
 21
-257.160230962581180
  0
INSERT
  8
0
  2
SYM2
 10
-373.806541551095730
 20
-235.344392513830570
  0
ARC
  8
0
  6
CONTINUOUS
 62
3
 10
-373.806541551095730
 20
-235.344392513830630
 40
6.249999999999818
 50
54.618555413457301
 51
215.381444586545570
  0
ARC
  8
0
  6
CONTINUOUS
 62
3
 10
-368.450632817955240
 20
-227.802725480457550
 40
3.000000000000011
 50
234.618555413455650
 51
321.846812084447610
  0
ARC
  8
0
  6
CONTINUOUS
 62
3
 10
-381.348208584469150
 20
-240.700301246971460
 40
3.000000000000222
 50
308.153187915558870
 51
35.381444586539963
  0
ARC
  8
0
  6
CONTINUOUS
 62
3
 10
-488.764001368151640
 20
-227.802725480457610
 40
2.999999999999743
 50
218.153187915557770
 51
305.381444586552050
  0
INSERT
  8
0
  2
SYM3
 10
-483.408092635011140
 20
-235.344392513830680
  0
ARC
  8
0
  6
CONTINUOUS
 62
3
 10
-483.408092635011140
 20
-235.344392513830680
 40
6.250000000000307
 50
324.618555413457270
 51
125.381444586539010
  0
ARC
  8
0
  6
CONTINUOUS
 62
3
 10
-475.866425601637730
 20
-240.700301246971460
 40
2.999999999999964
 50
144.618555413455000
 51
231.846812084448000
  0
LINE
  8
0
  6
CONTINUOUS
 62
3
 10
-446.107317093053330
 20
-215.668394551240230
 11
-446.107317093053330
 21
-258.243616971873280
  0
ARC
  8
0
  6
CONTINUOUS
 62
3
 10
-443.107317093053330
 20
-215.668394551240230
 40
3.000000000000074
 50
67.568479364624139
 51
180.000000000000000
  0
LINE
  8
0
  6
CONTINUOUS
 62
3
 10
-451.107317093053330
 20
-208.717186145834860
 11
-451.107317093053330
 21
-257.160230962581180
  0
ARC
  8
0
  6
CONTINUOUS
 62
3
 10
-454.107317093053330
 20
-208.717186145834860
 40
3.000000000000000
 50
0.000000000000000
 51
47.851640517492825
  0
ARC
  8
0
  6
CONTINUOUS
 62
3
 10
-428.607317093053330
 20
-180.543616971873230
 40
34.999999999999794
 50
219.109992212758410
 51
320.890007787241810
  0
LINE
  8
0
  6
CONTINUOUS
 62
3
 10
-487.163221453032070
 20
-122.137366255657810
 11
-486.309854817957560
 21
-121.644675926877760
  0
ARC
  8
0
  6
CONTINUOUS
 62
3
 10
-483.408092635011140
 20
-125.742841429915870
 40
6.249999999999601
 50
234.618555413461000
 51
234.641864283557990
  0
ARC
  8
0
  6
CONTINUOUS
 62
3
 10
-488.764001368151640
 20
-133.284508463288940
 40
3.000000000000228
 50
54.618555413447936
 51
56.479995948265923
  0
LINE
  8
0
  6
CONTINUOUS
 62
3
 10
-486.935631076755730
 20
-129.459631538360900
 11
-487.107317093053550
 21
-129.360104065078530
  0
ARC
  8
0
  6
CONTINUOUS
 62
3
 10
-415.107317093053330
 20
-167.043616971873230
 40
70.000000000000014
 50
49.843487791384511
 51
54.533060358986191
  0
ARC
  8
0
  6
CONTINUOUS
 62
3
 10
-483.408092635011140
 20
-125.742841429915980
 40
4.999999999999657
 50
125.512329309462500
 51
138.339300641719320
  0
ARC
  8
0
  6
CONTINUOUS
 62
3
 10
-442.107317093053330
 20
-194.043616971873260
 40
70.000000000000227
 50
180.000000000000000
 51
270.000000000000000
  0
LINE
  8
0
  6
CONTINUOUS
 62
3
 10
-512.107317093053550
 20
-193.479225037421260
 11
-512.107317093053550
 21
-194.043616971873260
  0
ARC
  8
0
  6
CONTINUOUS
 62
3
 10
-442.107317093053330
 20
-167.043616971873230
 40
69.999999999999957
 50
125.466939641014530
 51
132.169547802798090
  0
INSERT
  8
0
  2
SYM4
 10
-418.107317093053550
 20
-76.543616174772524
  0
INSERT
  8
0
  2
SYM5
 10
-361.607317093053550
 20
-83.543616174772296
  0
INSERT
  8
0
  2
SYM6
 10
-322.607317093053550
 20
-159.543616174772300
  0
INSERT
  8
0
  2
SYM7
 10
-321.607317093053610
 20
-225.543616174772520
  0
INSERT
  8
0
  2
SYM8
 10
-361.607317093053550
 20
-283.543616174772520
  0
INSERT
  8
0
  2
SYM9
 10
-495.607317093053550
 20
-283.543616174772520
 41
-1.000000000000000
  0
INSERT
  8
0
  2
SYM10
 10
-535.607317093053550
 20
-225.543616174772520
 41
-1.000000000000000
  0
INSERT
  8
0
  2
SYM11
 10
-495.607317093053550
 20
-83.543616174772296
 41
-1.000000000000000
  0
INSERT
  8
0
  2
SYM12
 10
-439.107317093053550
 20
-76.543616174772524
 41
-1.000000000000000
  0
ARC
  8
0
  6
CONTINUOUS
 62
3
 10
-543.607317093053550
 20
-148.543616174772300
 40
2.000000000000000
 50
90.000000000000000
 51
180.000000000000000
  0
ARC
  8
0
  6
CONTINUOUS
 62
3
 10
-539.607317093053550
 20
-226.139669432585150
 40
6.000000000000000
 50
180.000000000000000
 51
202.331645009221920
  0
LINE
  8
0
  6
CONTINUOUS
 62
3
 10
-530.607317093053550
 20
-146.543616174772300
 11
-543.607317093053550
 21
-146.543616174772300
  0
LINE
  8
0
  6
CONTINUOUS
 62
3
 10
-530.607317093053550
 20
-120.543616174772290
 11
-537.505554394357660
 21
-120.543616174772290
  0
LINE
  8
0
  6
CONTINUOUS
 62
3
 10
-326.607317093053550
 20
-146.543616174772300
 11
-314.607317093053610
 21
-146.543616174772300
  0
LINE
  8
0
  6
CONTINUOUS
 62
3
 10
-326.607317093053550
 20
-120.543616174772290
 11
-321.209255105304290
 21
-120.543616174772290
  0
LINE
  8
0
  6
CONTINUOUS
 62
3
 10
-428.607317093053550
 20
-88.543616174772524
 11
-411.107317093053550
 21
-88.543616174772524
  0
LINE
  8
0
  6
CONTINUOUS
 62
3
 10
-428.607317093053550
 20
-88.543616174772524
 11
-446.107317093053550
 21
-88.543616174772524
  0
LINE
  8
0
  6
CONTINUOUS
 62
3
 10
-431.857317093053550
 20
-94.043616971873234
 11
-431.857317093053550
 21
-91.543616174772524
  0
LINE
  8
0
  6
CONTINUOUS
 62
3
 10
-425.357317093053550
 20
-94.043616971873234
 11
-425.357317093053550
 21
-91.543616174772524
  0
LINE
  8
0
  6
CONTINUOUS
 62
3
 10
-357.011123015341010
 20
-113.543616971873440
 11
-337.069011626168500
 21
-93.601505582701293
  0
LINE
  8
0
  6
CONTINUOUS
 62
3
 10
-365.976154463895910
 20
-113.316260265003160
 11
-341.759660683486350
 21
-89.099766484594056
  0
LINE
  8
0
  6
CONTINUOUS
 62
3
 10
-498.046156728429420
 20
-106.508583258785050
 11
-503.956903683847940
 21
-100.597836303366530
  0
LINE
  8
0
  6
CONTINUOUS
 62
3
 10
-508.745534840201120
 20
-105.001593302438600
 11
-520.145622559938600
 21
-93.601505582701293
  0
LINE
  8
0
  6
CONTINUOUS
 62
3
 10
-495.834673799923620
 20
-243.174779601030880
 11
-517.767193701522960
 21
-265.107299502629760
  0
LINE
  8
0
  6
CONTINUOUS
 62
3
 10
-491.238479722211200
 20
-247.770973678743300
 11
-513.170999623810080
 21
-269.703493580342180
  0
LINE
  8
0
  6
CONTINUOUS
 62
3
 10
-357.570663263597000
 20
-246.984076723617140
 11
-339.447440484584150
 21
-265.107299502629530
  0
LINE
  8
0
  6
CONTINUOUS
 62
3
 10
-361.471109850657290
 20
-252.276018291981700
 11
-344.043634562297030
 21
-269.703493580342180
  0
ARC
  8
0
  6
CONTINUOUS
 62
3
 10
-530.607317093053550
 20
-133.543616174772300
 40
13.000000000000000
 50
270.000000000000000
 51
285.865339853221030
  0
ARC
  8
0
  6
CONTINUOUS
 62
3
 10
-537.505554394357660
 20
-118.543616174772290
 40
2.000000000000116
 50
157.893323870137750
 51
270.000000000000000
  0
ARC
  8
0
  6
CONTINUOUS
 62
3
 10
-326.607317093053550
 20
-133.543616174772300
 40
13.000000000000000
 50
90.000000000000000
 51
150.681646633605910
  0
ARC
  8
0
  6
CONTINUOUS
 62
3
 10
-428.607317093053550
 20
-180.543616971873230
 40
125.999999999999870
 50
309.364679251356730
 51
337.668354990778480
  0
ARC
  8
0
  6
CONTINUOUS
 62
3
 10
-317.607317093053610
 20
-226.139669432585150
 40
6.000000000000214
 50
337.668354990778080
 51
0.000000000000000
  0
ARC
  8
0
  6
CONTINUOUS
 62
3
 10
-428.607317093053550
 20
-180.543616971873230
 40
126.000000000000180
 50
202.331645009221490
 51
230.635320748643100
  0
ARC
  8
0
  6
CONTINUOUS
 62
3
 10
-343.617276980402490
 20
-284.142328747889000
 40
8.000000000000215
 50
129.364679251358580
 51
178.093887109017460
  0
ARC
  8
0
  6
CONTINUOUS
 62
3
 10
-495.607317093053550
 20
-283.543616174772520
 40
10.000000000000053
 50
306.869864344412290
 51
315.572968020398260
  0
ARC
  8
0
  6
CONTINUOUS
 62
3
 10
-513.597357205704610
 20
-284.142328747889000
 40
7.999999999999923
 50
1.906112890982627
 51
50.635320748643942
  0
ARC
  8
0
  6
CONTINUOUS
 62
3
 10
-495.607317093053550
 20
-283.543616174772520
 40
10.000000000000130
 50
181.906112890982260
 51
233.130135655587680
  0
ARC
  8
0
  6
CONTINUOUS
 62
3
 10
-361.607317093053550
 20
-283.543616174772520
 40
10.000000000000158
 50
224.427031979599950
 51
233.130135655587680
  0
ARC
  8
0
  6
CONTINUOUS
 62
3
 10
-361.607317093053550
 20
-283.543616174772520
 40
10.000000000000053
 50
306.869864344412290
 51
358.093887109017660
  0
ARC
  8
0
  6
CONTINUOUS
 62
3
 10
-411.107317093053550
 20
-85.543616174772524
 40
3.000000000000000
 50
270.000000000000000
 51
0.000000000000000
  0
ARC
  8
0
  6
CONTINUOUS
 62
3
 10
-446.107317093053550
 20
-85.543616174772524
 40
3.000000000000000
 50
180.000000000000000
 51
270.000000000000000
  0
ARC
  8
0
  6
CONTINUOUS
 62
3
 10
-390.331238370418300
 20
-223.316216755590860
 40
37.999999999999936
 50
264.588104602568250
 51
355.900478402576140
  0
ARC
  8
0
  6
CONTINUOUS
 62
3
 10
-347.441259035647360
 20
-226.390248743538680
 40
4.999999999999917
 50
154.450645436618710
 51
175.900478402575570
  0
ARC
  8
0
  6
CONTINUOUS
 62
3
 10
-394.386783531334000
 20
-266.124540168775180
 40
5.000000000000205
 50
84.588104602569331
 51
106.037937568522150
  0
ARC
  8
0
  6
CONTINUOUS
 62
3
 10
-422.357317093053550
 20
-94.043616971873234
 40
3.000000000000000
 50
180.000000000000000
 51
210.369749181394870
  0
ARC
  8
0
  6
CONTINUOUS
 62
3
 10
-422.357317093053550
 20
-91.543616174772524
 40
3.000000000000000
 50
90.000000000000000
 51
180.000000000000000
  0
ARC
  8
0
  6
CONTINUOUS
 62
3
 10
-434.857317093053550
 20
-91.543616174772524
 40
3.000000000000000
 50
0.000000000000000
 51
90.000000000000000
  0
ARC
  8
0
  6
CONTINUOUS
 62
3
 10
-434.857317093053550
 20
-94.043616971873234
 40
3.000000000000175
 50
329.630250818605130
 51
0.000000000000000
  0
ARC
  8
0
  6
CONTINUOUS
 62
3
 10
-334.947691282608960
 20
-95.722825926260839
 40
3.000000000000097
 50
41.240714208219508
 51
135.000000000000000
  0
ARC
  8
0
  6
CONTINUOUS
 62
3
 10
-368.097474807455460
 20
-111.194939921443620
 40
3.000000000000002
 50
308.473835551650670
 51
315.000000000000000
  0
ARC
  8
0
  6
CONTINUOUS
 62
3
 10
-343.880981027045890
 20
-86.978446141034283
 40
3.000000000000024
 50
314.999999999996870
 51
49.983805954135455
  0
ARC
  8
0
  6
CONTINUOUS
 62
3
 10
-513.333653159061210
 20
-86.978446141034283
 40
2.999999999999794
 50
130.016194045864520
 51
225.000000000003070
  0
ARC
  8
0
  6
CONTINUOUS
 62
3
 10
-489.117159378651650
 20
-111.194939921443620
 40
2.999999999999961
 50
259.800714152387120
 51
310.088526589903040
  0
ARC
  8
0
  6
CONTINUOUS
 62
3
 10
-522.266942903498150
 20
-95.722825926260839
 40
2.999999999999864
 50
45.000000000000000
 51
138.759285791780480
  0
ARC
  8
0
  6
CONTINUOUS
 62
3
 10
-321.209255105304290
 20
-117.543616174772290
 40
3.000000000000000
 50
270.000000000000000
 51
23.148572820069919
  0
ARC
  8
0
  6
CONTINUOUS
 62
3
 10
-314.607317093053610
 20
-149.543616174772300
 40
3.000000000000000
 50
0.000000000000000
 51
90.000000000000000
  0
ARC
  8
0
  6
CONTINUOUS
 62
3
 10
-497.955994143483170
 20
-241.053459257471100
 40
3.000000000000024
 50
314.999999999996870
 51
40.088526589902528
  0
ARC
  8
0
  6
CONTINUOUS
 62
3
 10
-489.117159378651650
 20
-249.892294022302850
 40
3.000000000000124
 50
49.911473410096967
 51
135.000000000000000
  0
ARC
  8
0
  6
CONTINUOUS
 62
3
 10
-519.888514045082500
 20
-262.985979159069980
 40
3.000000000000218
 50
222.087374790476100
 51
314.999999999996870
  0
ARC
  8
0
  6
CONTINUOUS
 62
3
 10
-511.049679280250530
 20
-271.824813923901960
 40
3.000000000000024
 50
134.999999999996930
 51
227.912625209521000
  0
ARC
  8
0
  6
CONTINUOUS
 62
3
 10
-346.164954905856580
 20
-271.824813923901730
 40
3.000000000000218
 50
312.087374790476080
 51
45.000000000000000
  0
ARC
  8
0
  6
CONTINUOUS
 62
3
 10
-337.326120141024600
 20
-262.985979159069980
 40
2.999999999999864
 50
225.000000000000000
 51
317.912625209518070
  0
ARC
  8
0
  6
CONTINUOUS
 62
3
 10
-363.592430194217290
 20
-254.397338635541250
 40
3.000000000000185
 50
44.999999999993868
 51
130.705112768216340
  0
ARC
  8
0
  6
CONTINUOUS
 62
3
 10
-355.449342920037450
 20
-244.862756380057360
 40
2.999999999999677
 50
148.296383256597580
 51
225.000000000003070
  0
LINE
  8
0
  6
CONTINUOUS
 62
3
 10
-408.107317093053550
 20
-63.964042933431983
 11
-408.107317093053550
 21
-85.543616174772524
  0
LINE
  8
0
  6
CONTINUOUS
 62
3
 10
-449.107317093053550
 20
-63.964042933431983
 11
-449.107317093053550
 21
-85.543616174772524
  0
ARC
  8
0
  6
CONTINUOUS
 62
3
 10
-428.607317093053550
 20
-563.543616174772520
 40
499.999999999999940
 50
92.349785605460426
 51
94.422377585978055
  0
ARC
  8
0
  6
CONTINUOUS
 62
3
 10
-428.607317093053550
 20
-563.543616174772520
 40
499.999999999999940
 50
85.577622414021945
 51
87.650214394539574
  0
ARC
  8
0
  6
CONTINUOUS
 62
3
 10
-418.107317093053550
 20
-38.543616174772524
 40
10.000000000000000
 50
0.000000000000000
 51
90.000000000000000
  0
LINE
  8
0
  6
CONTINUOUS
 62
3
 10
-408.107317093053550
 20
-38.543616174772524
 11
-408.107317093053550
 21
-63.964042933431756
  0
LINE
  8
0
  6
CONTINUOUS
 62
3
 10
-418.107317093053550
 20
-28.543616174772524
 11
-439.107317093053550
 21
-28.543616174772524
  0
ARC
  8
0
  6
CONTINUOUS
 62
3
 10
-439.107317093053550
 20
-38.543616174772524
 40
10.000000000000000
 50
90.000000000000000
 51
180.000000000000000
  0
LINE
  8
0
  6
DASHDOT
 62
4
 10
-405.439404094172000
 20
-48.543616174772524
 11
-452.461917995706700
 21
-48.543616174772524
  0
CIRCLE
  8
0
  6
CONTINUOUS
 62
3
 10
-428.607317093053550
 20
-48.543616174772524
 40
10.000000000000000
  0
LINE
  8
0
  6
CONTINUOUS
 62
3
 10
-449.107317093053550
 20
-38.543616174772524
 11
-449.107317093053550
 21
-63.964042933431756
  0
LINE
  8
0
  6
DASHDOT
 62
4
 10
-428.607317093053550
 20
-303.256982513834370
 11
-428.607317093053550
 21
-20.561078201563760
  0
ARC
  8
0
  6
CONTINUOUS
 62
3
 10
-540.607317093053550
 20
-255.916025716718420
 40
5.000000000000114
 50
33.939289208664569
 51
180.000000000000000
  0
ARC
  8
0
  6
CONTINUOUS
 62
3
 10
-428.607317093053550
 20
-180.543616971873230
 40
129.999999999999940
 50
213.939289208665090
 51
230.380873009517220
  0
ARC
  8
0
  6
CONTINUOUS
 62
3
 10
-316.607317093053610
 20
-255.916025716718420
 40
5.000000000000000
 50
0.000000000000000
 51
146.060710791332530
  0
ARC
  8
0
  6
CONTINUOUS
 62
3
 10
-428.607317093053550
 20
-180.543616971873230
 40
130.000000000000170
 50
309.619126990482750
 51
326.060710791335000
  0
ARC
  8
0
  6
CONTINUOUS
 62
3
 10
-361.607317093053550
 20
-283.543616174772520
 40
9.999999999999833
 50
224.427031979601790
 51
233.130135655587680
  0
ARC
  8
0
  6
CONTINUOUS
 62
3
 10
-460.607317093053550
 20
-149.779190444381810
 40
84.999999999999972
 50
94.422377585978197
 51
180.000000000000000
  0
ARC
  8
0
  6
CONTINUOUS
 62
3
 10
-548.607317093053550
 20
-268.543619238629160
 40
3.000000000000000
 50
270.000000000000000
 51
0.000000000000000
  0
ARC
  8
0
  6
CONTINUOUS
 62
3
 10
-550.607320206729130
 20
-274.543620035729190
 40
3.000000000000000
 50
90.000000000000000
 51
180.000000000000000
  0
ARC
  8
0
  6
CONTINUOUS
 62
3
 10
-506.607319085806010
 20
-293.543619662088990
 40
2.000000000000000
 50
90.000000000000000
 51
180.000000000000000
  0
ARC
  8
0
  6
CONTINUOUS
 62
3
 10
-522.697696908685880
 20
-274.543620035729190
 40
3.000000000000004
 50
44.972469343427150
 51
90.000000000000000
  0
ARC
  8
0
  6
CONTINUOUS
 62
3
 10
-495.607317093053550
 20
-283.543616174772520
 40
10.000000000000053
 50
306.869864344412290
 51
315.572968020398260
  0
ARC
  8
0
  6
CONTINUOUS
 62
3
 10
-350.607315100301090
 20
-293.543619662088990
 40
2.000000000000000
 50
0.000000000000000
 51
90.000000000000000
  0
ARC
  8
0
  6
CONTINUOUS
 62
3
 10
-396.607317093053550
 20
-149.779190444381810
 40
84.999999999999943
 50
0.000000000000000
 51
85.577622414021803
  0
ARC
  8
0
  6
CONTINUOUS
 62
3
 10
-308.607317093053610
 20
-268.543619238629160
 40
3.000000000000000
 50
180.000000000000000
 51
270.000000000000000
  0
ARC
  8
0
  6
CONTINUOUS
 62
3
 10
-306.607313979378030
 20
-274.543620035729190
 40
3.000000000000000
 50
0.000000000000000
 51
90.000000000000000
  0
ARC
  8
0
  6
CONTINUOUS
 62
3
 10
-334.516937277421220
 20
-274.543620035729190
 40
3.000000000000000
 50
90.000000000000000
 51
135.027530656572850
  0
LINE
  8
0
  6
DASHDOT
 62
4
 10
-536.107319770814230
 20
-301.368078478247300
 11
-536.107319770814230
 21
-265.830041277774850
  0
LINE
  8
0
  6
CONTINUOUS
 62
3
 10
-508.607319085806010
 20
-293.543620583736130
 11
-553.607320206729130
 21
-293.543620583736130
  0
LINE
  8
0
  6
CONTINUOUS
 62
3
 10
-553.607320206729130
 20
-293.543620583736130
 11
-553.607320206729130
 21
-274.543620035729190
  0
LINE
  8
0
  6
CONTINUOUS
 62
3
 10
-522.697696908685880
 20
-271.543620035729190
 11
-550.607320206729130
 21
-271.543620035729190
  0
LINE
  8
0
  6
CONTINUOUS
 62
3
 10
-489.607321742811560
 20
-291.543619662088990
 11
-506.607319085806010
 21
-291.543619662088990
  0
LINE
  8
0
  6
CONTINUOUS
 62
3
 10
-508.607319085806010
 20
-293.543619786636100
 11
-508.607319085806010
 21
-286.845073449550910
  0
LINE
  8
0
  6
CONTINUOUS
 62
3
 10
-428.607317093053550
 20
-290.543619662088990
 11
-488.465892082766460
 21
-290.543619662088990
  0
LINE
  8
0
  6
CONTINUOUS
 62
3
 10
-367.607312443295540
 20
-291.543619662088990
 11
-350.607315100301090
 21
-291.543619662088990
  0
LINE
  8
0
  6
CONTINUOUS
 62
3
 10
-428.607317093053550
 20
-290.543619662088990
 11
-368.748742103340650
 21
-290.543619662088990
  0
LINE
  8
0
  6
CONTINUOUS
 62
3
 10
-348.607315100301090
 20
-293.543619786636100
 11
-348.607315100301090
 21
-286.845073449551020
  0
LINE
  8
0
  6
DASHDOT
 62
4
 10
-321.107314415292930
 20
-301.368078478247300
 11
-321.107314415292930
 21
-265.830041277774850
  0
LINE
  8
0
  6
CONTINUOUS
 62
3
 10
-348.607315100301090
 20
-293.543620583736130
 11
-303.607313979378030
 21
-293.543620583736130
  0
LINE
  8
0
  6
CONTINUOUS
 62
3
 10
-303.607313979378030
 20
-293.543620583736130
 11
-303.607313979378030
 21
-274.543620035729190
  0
LINE
  8
0
  6
CONTINUOUS
 62
3
 10
-334.516937277421220
 20
-271.543620035729190
 11
-306.607313979378030
 21
-271.543620035729190
  0
LINE
  8
0
  6
CONTINUOUS
 62
3
 10
-545.607317093053550
 20
-268.543619238629160
 11
-545.607317093053550
 21
-149.779190444381810
  0
LINE
  8
0
  6
CONTINUOUS
 62
3
 10
-311.607317093053610
 20
-268.543619238629160
 11
-311.607317093053610
 21
-149.779190444381810
  0
ARC
  8
0
  6
CONTINUOUS
 62
3
 10
-317.607317093053610
 20
-223.438838150927720
 40
6.000000000000148
 50
338.871302745699890
 51
0.000000000000000
  0
ARC
  8
0
  6
CONTINUOUS
 62
3
 10
-340.607315100301090
 20
-286.845073449551020
 40
8.000000000000055
 50
129.619126990482750
 51
180.000000000000000
  0
ARC
  8
0
  6
CONTINUOUS
 62
3
 10
-516.607319085806010
 20
-286.845073449550910
 40
8.000000000000000
 50
0.000000000000000
 51
50.380873009517259
  0
TEXT
  8
0
  6
CONTINUOUS
 62
3
 10
-440.728759765625000
 20
168.060791015625000
 40
12.500000000000000
  1
S097
 50
0.000002504478167
 41
0.470000016689301
  7
STANDARD1
  0
TEXT
  8
0
  6
CONTINUOUS
 62
3
 10
-440.728759765625000
 20
153.935791015625000
 40
12.500000000000000
  1
三菱ギヤードモートル
 50
0.000002504478167
 41
0.625000000000000
  7
STANDARD1
  0
TEXT
  8
0
  6
CONTINUOUS
 62
3
 10
-440.728759765625000
 20
139.810791015625000
 40
12.500000000000000
  1
GM-SSB
 50
0.000002504478167
 41
0.470000016689301
  7
STANDARD1
  0
TEXT
  8
0
  6
CONTINUOUS
 62
3
 10
-440.728759765625000
 20
125.685791015625000
 40
12.500000000000000
  1
0.2kW
 50
0.000002504478167
 41
0.470000016689301
  7
STANDARD1
  0
TEXT
  8
0
  6
CONTINUOUS
 62
3
 10
-440.728759765625000
 20
111.560791015625000
 40
12.500000000000000
  1
1/1200
 50
0.000002504478167
 41
0.470000016689301
  7
STANDARD1
  0
TEXT
  8
0
  6
CONTINUOUS
 62
3
 10
-440.728759765625000
 20
97.435791015625000
 40
12.500000000000000
  1
SCALE1/1
 50
0.000002504478167
 41
0.470000016689301
  7
STANDARD1
  0
LINE
  8
0
  6
CONTINUOUS
 62
3
 10
-512.107317093053550
 20
-193.479225037421260
 11
-512.107317093053550
 21
-194.043616971873230
  0
LINE
  8
0
  6
CONTINUOUS
 62
3
 10
-507.805778491197090
 20
-96.748961496017614
 11
-515.454973502620760
 21
-89.099766484594056
  0
ARC
  8
0
  6
CONTINUOUS
 62
3
 10
-530.607317093053550
 20
-133.543616174772300
 40
13.000000000000046
 50
62.685039242331797
 51
90.000000000000000
  0
CIRCLE
  8
0
  6
CONTINUOUS
 62
3
 10
-534.607317093053550
 20
-159.543616174772300
 40
5.633955001831055
  0
ARC
  8
0
  6
CONTINUOUS
 62
3
 10
-534.607317093053550
 20
-159.543616174772300
 40
6.499999999999980
 50
12.608587076372890
 51
336.232418900890020
  0
LINE
  8
0
  6
CONTINUOUS
 62
3
 10
-531.607320430912520
 20
-161.275662174323540
 11
-531.607319477238210
 21
-157.811564197638970
  0
LINE
  8
0
  6
CONTINUOUS
 62
3
 10
-537.607313755194130
 20
-157.811569221546730
 11
-537.607314708868440
 21
-161.275667198231300
  0
LINE
  8
0
  6
CONTINUOUS
 62
3
 10
-534.607323794774400
 20
-156.079519174837060
 11
-531.607319153501980
 21
-157.811564353066730
  0
LINE
  8
0
  6
CONTINUOUS
 62
3
 10
-537.607315205147190
 20
-161.275667567551070
 11
-534.607312628641240
 21
-163.007714540187410
  0
LINE
  8
0
  6
CONTINUOUS
 62
3
 10
-534.607323711655230
 20
-156.079519278386670
 11
-537.607314519002560
 21
-157.811569392635930
  0
LINE
  8
0
  6
CONTINUOUS
 62
3
 10
-534.607312388064880
 20
-163.007714350521100
 11
-531.607319515953120
 21
-161.275662392805030
  0
ARC
  8
0
  6
CONTINUOUS
 62
3
 10
-483.408092635011140
 20
-125.742841429915980
 40
5.000000000000011
 50
222.281795607739580
 51
225.305749548699030
  0
ARC
  8
0
  6
CONTINUOUS
 62
3
 10
-418.107317093053550
 20
-76.543604961982965
 40
10.000000000000000
 50
270.000000000000000
 51
0.000000000000000
  0
LINE
  8
0
  6
CONTINUOUS
 62
3
 10
-418.107317093053550
 20
-86.543604961982965
 11
-439.107317093053550
 21
-86.543604961982965
  0
ARC
  8
0
  6
CONTINUOUS
 62
3
 10
-439.107317093053550
 20
-76.543604961982965
 40
10.000000000000000
 50
180.000000000000000
 51
270.000000000000000
  0
LINE
  8
0
  6
DASHDOT
 62
4
 10
289.033163131716720
 20
-148.543616971873230
 11
140.772461196955870
 21
-148.543616971873230
  0
LINE
  8
0
  6
CONTINUOUS
 62
3
 10
272.435519923260240
 20
-148.543616971873230
 11
272.435519923260240
 21
-128.943616971873780
  0
LINE
  8
0
  6
CONTINUOUS
 62
3
 10
212.035519923260150
 20
-171.043616971873230
 11
210.435519923261150
 21
-171.043616971873230
  0
LINE
  8
0
  6
CONTINUOUS
 62
3
 10
212.035519923260150
 20
-126.043616971873230
 11
210.435519923261150
 21
-126.043616971873230
  0
ARC
  8
0
  6
CONTINUOUS
 62
3
 10
272.035519923260150
 20
-128.943616971873780
 40
0.400000000000091
 50
0.000000000000000
 51
90.000000000000000
  0
LINE
  8
0
  6
CONTINUOUS
 62
3
 10
272.035519923260150
 20
-128.543616971873230
 11
215.495334670264810
 21
-128.543616971873230
  0
ARC
  8
0
  6
CONTINUOUS
 62
3
 10
214.035519923260150
 20
-127.093616971873410
 40
1.599999999999909
 50
180.000000000000000
 51
270.000000000000000
  0
LINE
  8
0
  6
CONTINUOUS
 62
3
 10
214.935527049128950
 20
-128.693616971873780
 11
214.035519923260150
 21
-128.693616971873780
  0
LINE
  8
0
  6
CONTINUOUS
 62
3
 10
212.035519923260150
 20
-126.043616971873230
 11
212.435519923260240
 21
-126.443616971873780
  0
LINE
  8
0
  6
CONTINUOUS
 62
3
 10
212.435519923260240
 20
-148.543616971873230
 11
212.435519923260240
 21
-126.443616971873780
  0
LINE
  8
0
  6
CONTINUOUS
 62
3
 10
215.495334670264360
 20
-128.543616971873230
 11
214.935527049128950
 21
-128.693616971873780
  0
ARC
  8
0
  6
CONTINUOUS
 62
3
 10
214.035519923260150
 20
-169.993616971873050
 40
1.599999999999454
 50
90.000000000000000
 51
180.000000000000000
  0
LINE
  8
0
  6
CONTINUOUS
 62
3
 10
214.935527049128950
 20
-168.393616971873600
 11
214.035519923260150
 21
-168.393616971873600
  0
LINE
  8
0
  6
CONTINUOUS
 62
3
 10
212.035519923260150
 20
-171.043616971873230
 11
212.435519923260240
 21
-170.643616971873600
  0
LINE
  8
0
  6
CONTINUOUS
 62
3
 10
212.435519923260240
 20
-148.543616971873230
 11
212.435519923260240
 21
-170.643616971873600
  0
LINE
  8
0
  6
CONTINUOUS
 62
3
 10
272.035519923260150
 20
-168.543616971873230
 11
215.495334670264810
 21
-168.543616971873230
  0
LINE
  8
0
  6
CONTINUOUS
 62
3
 10
215.495334670264360
 20
-168.543616971873230
 11
214.935527049128950
 21
-168.393616971873600
  0
LINE
  8
0
  6
CONTINUOUS
 62
3
 10
272.435519923260240
 20
-148.543616971873230
 11
272.435519923260240
 21
-168.143616971873600
  0
ARC
  8
0
  6
CONTINUOUS
 62
3
 10
272.035519923260150
 20
-168.143616971873600
 40
0.399999999999636
 50
270.000000000000000
 51
0.000000000000000
  0
LINE
  8
0
  6
CONTINUOUS
 62
3
 10
209.435519898351000
 20
-189.543616971873230
 11
210.435519923261150
 21
-189.543616971873230
  0
LINE
  8
0
  6
CONTINUOUS
 62
3
 10
209.435519898351000
 20
-107.543616971873230
 11
210.435519923261150
 21
-107.543616971873230
  0
LINE
  8
0
  6
CONTINUOUS
 62
3
 10
168.921299421753020
 20
-148.543616971873230
 11
168.921299421753020
 21
-267.196855635647810
  0
LINE
  8
0
  6
CONTINUOUS
 62
3
 10
203.791299421752910
 20
-148.543616971873230
 11
203.791299421752910
 21
-268.414542867824820
  0
POLYLINE
  8
0
  6
CONTINUOUS
 62
3
 66
1
  0
VERTEX
  8
0
  6
CONTINUOUS
 62
3
 10
203.791299421752510
 20
-148.543616971873230
  0
VERTEX
  8
0
  6
CONTINUOUS
 62
3
 10
203.456290785582840
 20
-144.641810531550680
  0
VERTEX
  8
0
  6
CONTINUOUS
 62
3
 10
202.464139071086810
 20
-140.889948324571440
  0
VERTEX
  8
0
  6
CONTINUOUS
 62
3
 10
200.852972112247390
 20
-137.432212311481180
  0
VERTEX
  8
0
  6
CONTINUOUS
 62
3
 10
198.684706151739960
 20
-134.401481348142280
  0
VERTEX
  8
0
  6
CONTINUOUS
 62
3
 10
196.042666434449270
 20
-131.914224725822320
  0
VERTEX
  8
0
  6
CONTINUOUS
 62
3
 10
193.028385065037840
 20
-130.066026321647510
  0
VERTEX
  8
0
  6
CONTINUOUS
 62
3
 10
189.757699186103710
 20
-128.927911363808620
  0
VERTEX
  8
0
  6
CONTINUOUS
 62
3
 10
186.356299421752510
 20
-128.543616971873230
  0
VERTEX
  8
0
  6
CONTINUOUS
 62
3
 10
182.954899657401310
 20
-128.927911363808620
  0
VERTEX
  8
0
  6
CONTINUOUS
 62
3
 10
179.684213778467180
 20
-130.066026321647510
  0
VERTEX
  8
0
  6
CONTINUOUS
 62
3
 10
176.669932409055750
 20
-131.914224725822350
  0
VERTEX
  8
0
  6
CONTINUOUS
 62
3
 10
174.027892691765060
 20
-134.401481348142280
  0
VERTEX
  8
0
  6
CONTINUOUS
 62
3
 10
171.859626731257630
 20
-137.432212311481180
  0
VERTEX
  8
0
  6
CONTINUOUS
 62
3
 10
170.248459772418240
 20
-140.889948324571440
  0
VERTEX
  8
0
  6
CONTINUOUS
 62
3
 10
169.256308057922180
 20
-144.641810531550680
  0
VERTEX
  8
0
  6
CONTINUOUS
 62
3
 10
168.921299421752510
 20
-148.543616971873230
  0
SEQEND
  8
0
  6
CONTINUOUS
 62
3
  0
LINE
  8
0
  6
CONTINUOUS
 62
3
 10
210.435519923261150
 20
-189.543616971873230
 11
210.435519923261150
 21
-148.543616971873230
  0
ARC
  8
0
  6
CONTINUOUS
 62
3
 10
209.435519898351000
 20
-190.543616996782480
 40
1.000000024909241
 50
90.000000000000000
 51
180.000000000000000
  0
ARC
  8
0
  6
CONTINUOUS
 62
3
 10
205.435519873440850
 20
-101.867088613134000
 40
3.000000000000000
 50
0.000000000000000
 51
31.668452967603624
  0
LINE
  8
0
  6
CONTINUOUS
 62
3
 10
208.435519873440850
 20
-101.867088613134000
 11
208.435519873440850
 21
-148.543616971873230
  0
ARC
  8
0
  6
CONTINUOUS
 62
3
 10
144.156297919471170
 20
-139.667312907656200
 40
74.999999999999901
 50
31.668452967610172
 51
88.999999999999616
  0
LINE
  8
0
  6
CONTINUOUS
 62
3
 10
208.435500880021890
 20
-148.543616971873230
 11
208.435500880021890
 21
-270.233124725772540
  0
LINE
  8
0
  6
CONTINUOUS
 62
3
 10
210.435519923261150
 20
-107.543616971873230
 11
210.435519923261150
 21
-148.543616971873230
  0
ARC
  8
0
  6
CONTINUOUS
 62
3
 10
209.435519898351000
 20
-106.543616946963990
 40
1.000000024909241
 50
180.000000000000000
 51
270.000000000000000
  0
LINE
  8
0
  6
CONTINUOUS
 62
3
 10
210.435500929840370
 20
-274.923540533392040
 11
210.435500929840370
 21
-293.543643535973390
  0
LINE
  8
0
  6
DASHDOT
 62
4
 10
192.435514581972480
 20
-265.525654982285230
 11
192.435514581972480
 21
-298.995608868004640
  0
ARC
  8
0
  6
CONTINUOUS
 62
3
 10
171.921299421753020
 20
-267.196855635647810
 40
3.000000000000000
 50
180.000000000000000
 51
267.999999999996650
  0
ARC
  8
0
  6
CONTINUOUS
 62
3
 10
206.791299421752910
 20
-268.414542867824820
 40
3.000000000000000
 50
180.000000000000000
 51
267.999999999996650
  0
ARC
  8
0
  6
CONTINUOUS
 62
3
 10
206.935500929840370
 20
-274.923540533392040
 40
3.500000000000000
 50
0.000000000000000
 51
46.186939148157336
  0
ARC
  8
0
  6
CONTINUOUS
 62
3
 10
206.935500929840370
 20
-274.923540533392040
 40
3.500000000000175
 50
46.186939148157336
 51
87.999999999996561
  0
ARC
  8
0
  6
CONTINUOUS
 62
3
 10
211.435500880021890
 20
-270.233124725772540
 40
3.000000000000000
 50
180.000000000000000
 51
226.186939148152190
  0
LINE
  8
0
  6
CONTINUOUS
 62
3
 10
170.435500929840370
 20
-270.146799041897790
 11
207.057649168299350
 21
-271.425672638824840
  0
LINE
  8
0
  6
DASHDOT
 62
4
 10
61.853005304564192
 20
-76.543604961982965
 11
35.120327272029442
 21
-76.543604961982965
  0
ARC
  8
0
  6
CONTINUOUS
 62
3
 10
28.435529226188123
 20
-260.824897705610970
 40
5.000000000000000
 50
0.000000000000000
 51
39.217507581695465
  0
LINE
  8
0
  6
CONTINUOUS
 62
3
 10
-7.848199778794935
 20
-208.456332001708180
 11
32.309285858838336
 21
-257.663567360487490
  0
LINE
  8
0
  6
CONTINUOUS
 62
3
 10
-3.133811257839511
 20
-207.353130208782260
 11
28.703556333419442
 21
-207.353130208782260
  0
ARC
  8
0
  6
CONTINUOUS
 62
3
 10
-10.172453758385132
 20
-210.353130208782260
 40
3.000000000000055
 50
39.217507581694647
 51
90.000000000000000
  0
ARC
  8
0
  6
CONTINUOUS
 62
3
 10
-16.564486127951056
 20
-190.543616971873180
 40
5.000000000000000
 50
359.999999999996760
 51
90.000000000000000
  0
LINE
  8
0
  6
CONTINUOUS
 62
3
 10
-11.564486127951056
 20
-190.543616971873460
 11
-11.564486127951909
 21
-207.166563798583180
  0
LINE
  8
0
  6
CONTINUOUS
 62
3
 10
-23.064486127950829
 20
-185.543616971873180
 11
-16.564486127951056
 21
-185.543616971873180
  0
ARC
  8
0
  6
CONTINUOUS
 62
3
 10
30.435529226188123
 20
-172.543616971873180
 40
3.000000000000000
 50
0.000000000000000
 51
90.000000000000000
  0
LINE
  8
0
  6
CONTINUOUS
 62
3
 10
30.435529226188123
 20
-169.543616971873180
 11
-23.064486127950033
 21
-169.543616971873180
  0
LINE
  8
0
  6
CONTINUOUS
 62
3
 10
-23.064486127947987
 20
-129.543616971873290
 11
-6.564486127945884
 21
-129.543616971873290
  0
ARC
  8
0
  6
CONTINUOUS
 62
3
 10
-3.564486127945599
 20
-134.543616971873180
 40
3.000000000000000
 50
180.000000000003270
 51
270.000000000000000
  0
ARC
  8
0
  6
CONTINUOUS
 62
3
 10
30.435529226188123
 20
-134.543616971873180
 40
3.000000000000000
 50
270.000000000000000
 51
0.000000000000000
  0
LINE
  8
0
  6
CONTINUOUS
 62
3
 10
-3.564486127945599
 20
-137.543616971873180
 11
30.435529226188123
 21
-137.543616971873180
  0
ARC
  8
0
  6
CONTINUOUS
 62
3
 10
28.931607225998448
 20
-98.543616971873234
 40
5.000000000000000
 50
270.000000000000000
 51
339.716738662470110
  0
LINE
  8
0
  6
CONTINUOUS
 62
3
 10
33.435529226188123
 20
-101.316910071253290
 11
33.435529226188123
 21
-248.335854056025600
  0
ARC
  8
0
  6
CONTINUOUS
 62
3
 10
36.435529226188123
 20
-101.316910071253290
 40
3.000000000000000
 50
90.000000000000000
 51
180.000000000000000
  0
LINE
  8
0
  6
CONTINUOUS
 62
3
 10
43.435529722869887
 20
-98.316910071253290
 11
36.435529226188123
 21
-98.316910071253290
  0
ARC
  8
0
  6
CONTINUOUS
 62
3
 10
30.435529226188123
 20
-111.543616971873460
 40
3.000000000000000
 50
270.000000000000000
 51
0.000000000000000
  0
LINE
  8
0
  6
CONTINUOUS
 62
3
 10
30.435529226188123
 20
-114.543616971873460
 11
-3.564486127946850
 21
-114.543616971873460
  0
LINE
  8
0
  6
DASHDOT
 62
4
 10
12.435529226188123
 20
-128.287728963592370
 11
12.435529226188123
 21
-99.647826702776911
  0
LINE
  8
0
  6
CONTINUOUS
 62
3
 10
43.435529226188123
 20
-98.316910071253290
 11
43.435529226188123
 21
-251.543616971873010
  0
LINE
  8
0
  6
CONTINUOUS
 62
3
 10
33.435529226188123
 20
-248.335854056025480
 11
33.435529226188123
 21
-261.049811700606710
  0
ARC
  8
0
  6
CONTINUOUS
 62
3
 10
36.435529226188123
 20
-261.043616971873230
 40
3.000000000000003
 50
179.993727629290820
 51
270.000000000000000
  0
LINE
  8
0
  6
CONTINUOUS
 62
3
 10
36.435529226188123
 20
-264.043616971873230
 11
43.435529226188123
 21
-264.043616971873230
  0
LINE
  8
0
  6
CONTINUOUS
 62
3
 10
43.435529226188123
 20
-264.043616971873230
 11
43.435529226188123
 21
-251.543616971873010
  0
LINE
  8
0
  6
CONTINUOUS
 62
3
 10
28.931607225998448
 20
-103.543616971873230
 11
-2.196989130349834
 21
-103.543616971873230
  0
POINT
  8
0
  6
CONTINUOUS
 62
3
 10
33.435529226188123
 20
-259.043616971873230
  0
ARC
  8
0
  6
CONTINUOUS
 62
3
 10
-6.564486127947589
 20
-210.715173097837860
 40
5.000000000000000
 50
180.000000000001310
 51
267.999999999999600
  0
LINE
  8
0
  6
CONTINUOUS
 62
3
 10
-1.785662786260389
 20
-215.885101007688720
 11
-6.738983611460128
 21
-215.712127232933310
  0
ARC
  8
0
  6
CONTINUOUS
 62
3
 10
-3.564486127946850
 20
-111.543616971873460
 40
3.000000000000000
 50
180.000000000003270
 51
270.000000000000000
  0
LINE
  8
0
  6
CONTINUOUS
 62
3
 10
-11.564486127947703
 20
-207.166563798582730
 11
-11.564486127947589
 21
-210.715173097837980
  0
LINE
  8
0
  6
CONTINUOUS
 62
3
 10
-23.064486127946338
 20
-97.043616971873234
 11
-23.064486127951625
 21
-202.052344236329650
  0
LINE
  8
0
  6
CONTINUOUS
 62
3
 10
-6.564486127947362
 20
-102.043616971873000
 11
-6.564486127945599
 21
-134.543616971873350
  0
LINE
  8
0
  6
CONTINUOUS
 62
3
 10
-16.477224095761130
 20
-202.167325322800930
 11
-23.064470773811877
 21
-202.052344504337270
  0
LINE
  8
0
  6
CONTINUOUS
 62
3
 10
-11.564486127947362
 20
-97.043616971873234
 11
-23.064486127946338
 21
-97.043616971873234
  0
ARC
  8
0
  6
CONTINUOUS
 62
3
 10
-16.564486127947703
 20
-207.166563798582960
 40
5.000000000000000
 50
0.000000000002606
 51
88.999999999999545
  0
ARC
  8
0
  6
CONTINUOUS
 62
3
 10
-11.564486127947362
 20
-102.043616971873230
 40
5.000000000000000
 50
0.000000000002606
 51
90.000000000000000
  0
ARC
  8
0
  6
CONTINUOUS
 62
3
 10
-2.196989130349834
 20
-98.543616971873234
 40
4.999999999999967
 50
200.487315114722800
 51
270.000000000000000
  0
LINE
  8
0
  6
DASHDOT
 62
4
 10
-11.625997702867835
 20
-149.543616971873230
 11
-274.073215040243670
 21
-149.543616971873230
  0
ARC
  8
0
  6
CONTINUOUS
 62
3
 10
59.935513872054571
 20
-83.543584052317783
 40
3.000000000000000
 50
180.000000000000000
 51
239.999999999989710
  0
LINE
  8
0
  6
CONTINUOUS
 62
3
 10
59.935513872054571
 20
-88.739757384689256
 11
59.935513872054571
 21
-93.640167367366303
  0
ARC
  8
0
  6
CONTINUOUS
 62
3
 10
56.935513872054571
 20
-93.640167367366303
 40
3.000000000000455
 50
272.000000000003350
 51
0.000000000000000
  0
ARC
  8
0
  6
CONTINUOUS
 62
3
 10
56.935513872054571
 20
-88.739757384689256
 40
3.000000000000000
 50
0.000000000000000
 51
59.999999999998380
  0
INSERT
  8
0
  2
SYM13
 10
68.935513872054571
 20
-225.543604961982060
  0
INSERT
  8
0
  2
SYM14
 10
33.435513872053662
 20
-235.344392513830600
  0
INSERT
  8
0
  2
SYM15
 10
68.935513872054571
 20
-159.543604961982060
  0
INSERT
  8
0
  2
SYM16
 10
33.435513872053662
 20
-125.742841429915870
  0
INSERT
  8
0
  2
SYM17
 10
68.935513872054571
 20
-84.036164470644508
  0
INSERT
  8
0
  2
SYM18
 10
52.435513872051843
 20
-76.543604961982965
  0
ARC
  8
0
  6
CONTINUOUS
 62
3
 10
28.435513872053662
 20
-234.372060845908380
 40
5.000000000000015
 50
53.661825893006529
 51
87.999999999996362
  0
LINE
  8
0
  6
CONTINUOUS
 62
3
 10
63.435505434884135
 20
-268.513218022388170
 11
26.671102104406373
 21
-271.298500063449860
  0
ARC
  8
0
  6
CONTINUOUS
 62
3
 10
63.624416248195985
 20
-262.481711853356500
 40
5.999999999999782
 50
274.332468894032670
 51
317.350764207251640
  0
LINE
  8
0
  6
CONTINUOUS
 62
3
 10
80.435513872054571
 20
-148.543616971873230
 11
80.435513872054571
 21
-253.087262476635260
  0
LINE
  8
0
  6
CONTINUOUS
 62
3
 10
82.435513872054571
 20
-267.073771778575970
 11
170.435500929840370
 21
-270.146799041897790
  0
LINE
  8
0
  6
DASHDOT
 62
4
 10
42.435491807661265
 20
-266.333546714117800
 11
42.435491807661265
 21
-298.995608868004640
  0
LINE
  8
0
  6
CONTINUOUS
 62
3
 10
23.435505434884135
 20
-293.543643535973390
 11
23.435505434884135
 21
-274.788498756691300
  0
LINE
  8
0
  6
CONTINUOUS
 62
3
 10
81.906544187694408
 20
-251.490285514781140
 11
68.037507195115495
 21
-266.546761458738730
  0
LINE
  8
0
  6
CONTINUOUS
 62
3
 10
82.435513872057300
 20
-267.073771778575970
 11
63.435505434884135
 21
-268.513218022388170
  0
LINE
  8
0
  6
CONTINUOUS
 62
3
 10
82.435513872054571
 20
-229.308989573333750
 11
82.435513872054571
 21
-250.135268979653120
  0
ARC
  8
0
  6
CONTINUOUS
 62
3
 10
80.435513872054571
 20
-250.135268979653120
 40
1.999999999999826
 50
317.350764207258010
 51
0.000000000000000
  0
ARC
  8
0
  6
CONTINUOUS
 62
3
 10
80.435513872054571
 20
-229.308989573333750
 40
2.000000000000000
 50
0.000000000000000
 51
90.000000000000000
  0
ARC
  8
0
  6
CONTINUOUS
 62
3
 10
26.935505434884135
 20
-274.788498756691300
 40
3.499999999999234
 50
94.332468894025979
 51
180.000000000000000
  0
LINE
  8
0
  6
CONTINUOUS
 62
3
 10
210.435500929840370
 20
-293.543620583773420
 11
23.435505434884135
 21
-293.543620583773420
  0
LINE
  8
0
  6
CONTINUOUS
 62
3
 10
80.435513872055026
 20
-63.543637881538416
 11
145.465228402267940
 21
-64.678735770926323
  0
LINE
  8
0
  6
CONTINUOUS
 62
3
 10
80.435513872055026
 20
-63.543637881538416
 11
80.435513872054571
 21
-148.543616971873230
  0
LINE
  8
0
  6
CONTINUOUS
 62
3
 10
52.435513872050933
 20
-86.543604961982965
 11
52.435513872054571
 21
-28.543604961982965
  0
LINE
  8
0
  6
CONTINUOUS
 62
3
 10
56.935513872054571
 20
-28.543604961982965
 11
56.935513872054571
 21
-86.543604961982965
  0
LINE
  8
0
  6
DASHDOT
 62
4
 10
46.705266471238019
 20
-48.543604961982965
 11
64.804532486529524
 21
-48.543604961982965
  0
LINE
  8
0
  6
CONTINUOUS
 62
3
 10
52.435513872050933
 20
-86.543604961982965
 11
56.935513872050933
 21
-86.543604961982965
  0
LINE
  8
0
  6
CONTINUOUS
 62
3
 10
56.935513872054571
 20
-66.543616971873234
 11
56.935513872054571
 21
-83.543604961982965
  0
LINE
  8
0
  6
CONTINUOUS
 62
3
 10
52.435513872054571
 20
-28.543604961982965
 11
56.935513872054571
 21
-28.543604961982965
  0
ARC
  8
0
  6
CONTINUOUS
 62
3
 10
63.935513872054571
 20
-91.394502892326273
 40
5.000000000000153
 50
272.000000000003580
 51
356.081795638019740
  0
LINE
  8
0
  6
CONTINUOUS
 62
3
 10
43.435513872048205
 20
-97.113426388401422
 11
64.110011355567394
 21
-96.391457027421893
  0
LINE
  8
0
  6
CONTINUOUS
 62
3
 10
43.435513872048205
 20
-263.973743310433750
 11
43.435513872053662
 21
-180.543616971873230
  0
LINE
  8
0
  6
CONTINUOUS
 62
3
 10
43.435513872048205
 20
-97.113426388401422
 11
43.435513872055481
 21
-180.543616971873230
  0
ARC
  8
0
  6
CONTINUOUS
 62
3
 10
59.935513872054571
 20
-66.543596062208053
 40
3.000000000000000
 50
90.000000000000000
 51
180.000000000000000
  0
LINE
  8
0
  6
CONTINUOUS
 62
3
 10
56.935513872054571
 20
-66.543596062208053
 11
56.935513872054571
 21
-83.543584052317783
  0
ARC
  8
0
  6
CONTINUOUS
 62
3
 10
63.935513872054571
 20
-269.692666806508900
 40
4.999999999999993
 50
37.176115582706863
 51
87.999999999996049
  0
LINE
  8
0
  6
CONTINUOUS
 62
3
 10
43.435513872048205
 20
-263.973743310433750
 11
64.110011355567394
 21
-264.695712671414190
  0
LINE
  8
0
  6
CONTINUOUS
 62
3
 10
79.935513872054571
 20
-63.543616971873234
 11
59.935513872054571
 21
-63.543616971873234
  0
LINE
  8
0
  6
CONTINUOUS
 62
3
 10
68.935513872054571
 20
-148.275655769551120
 11
68.935513872054571
 21
-180.543616971873230
  0
LINE
  8
0
  6
CONTINUOUS
 62
3
 10
68.935513872054571
 20
-66.543616971873234
 11
68.935513872054571
 21
-118.811554154412980
  0
ARC
  8
0
  6
CONTINUOUS
 62
3
 10
63.935513872054571
 20
-122.811554154412980
 40
2.000000000000000
 50
90.000000000000000
 51
180.000000000000000
  0
LINE
  8
0
  6
CONTINUOUS
 62
3
 10
66.935513872054571
 20
-120.811554154412980
 11
63.935513872054571
 21
-120.811554154412980
  0
LINE
  8
0
  6
CONTINUOUS
 62
3
 10
61.935513872054571
 20
-122.811554154412980
 11
61.935513872054571
 21
-144.275655769551120
  0
ARC
  8
0
  6
CONTINUOUS
 62
3
 10
63.935513872054571
 20
-144.275655769551120
 40
2.000000000000000
 50
180.000000000000000
 51
270.000000000000000
  0
LINE
  8
0
  6
CONTINUOUS
 62
3
 10
66.935513872054571
 20
-146.275655769551120
 11
63.935513872054571
 21
-146.275655769551120
  0
ARC
  8
0
  6
CONTINUOUS
 62
3
 10
66.935513872054571
 20
-148.275655769551120
 40
2.000000000000000
 50
0.000000000000000
 51
90.000000000000000
  0
ARC
  8
0
  6
CONTINUOUS
 62
3
 10
66.935513872054571
 20
-118.811554154412980
 40
2.000000000000000
 50
270.000000000000000
 51
0.000000000000000
  0
ARC
  8
0
  6
CONTINUOUS
 62
3
 10
71.935513872054571
 20
-66.543616971873234
 40
3.000000000000000
 50
90.000000000000000
 51
180.000000000000000
  0
LINE
  8
0
  6
CONTINUOUS
 62
3
 10
68.935513872054571
 20
-265.571869262828840
 11
68.935513872054571
 21
-180.543616971873230
  0
LINE
  8
0
  6
CONTINUOUS
 62
3
 10
79.935513872054571
 20
-63.543637881538416
 11
79.935513872054571
 21
-180.543616971873230
  0
LINE
  8
0
  6
CONTINUOUS
 62
3
 10
79.935513872054571
 20
-253.630071467340710
 11
79.935513872054571
 21
-180.543616971873230
  0
LINE
  8
0
  6
CONTINUOUS
 62
3
 10
-23.064486127940199
 20
96.956383028126737
 11
-23.064486127940199
 21
150.456383028126770
  0
LINE
  8
0
  6
CONTINUOUS
 62
3
 10
-23.064486127940199
 20
203.956383028126770
 11
-23.064486127940199
 21
150.456383028126770
  0
LINE
  8
0
  6
DASHDOT
 62
4
 10
12.435513872059801
 20
128.877399796379760
 11
12.435513872059801
 21
167.927485047592090
  0
ARC
  8
0
  6
CONTINUOUS
 62
3
 10
-1.564501482075229
 20
130.456383028126620
 40
5.000000000000000
 50
90.000000000000000
 51
180.000000000000000
  0
LINE
  8
0
  6
CONTINUOUS
 62
3
 10
-6.564501482075229
 20
101.956383028126620
 11
-6.564501482075229
 21
150.456383028126770
  0
LINE
  8
0
  6
CONTINUOUS
 62
3
 10
28.435513872059801
 20
135.456383028126620
 11
-1.564501482075229
 21
135.456383028126620
  0
ARC
  8
0
  6
CONTINUOUS
 62
3
 10
36.435513872059801
 20
69.956383028126737
 40
3.000000000000000
 50
180.000000000000000
 51
270.000000000000000
  0
LINE
  8
0
  6
CONTINUOUS
 62
3
 10
36.435513872059801
 20
66.956383028126737
 11
43.435513872059801
 21
66.956383028126737
  0
ARC
  8
0
  6
CONTINUOUS
 62
3
 10
-11.564501482075229
 20
101.956383028126620
 40
5.000000000000000
 50
270.000000000000000
 51
0.000000000000000
  0
ARC
  8
0
  6
CONTINUOUS
 62
3
 10
28.435513872059801
 20
130.456383028126620
 40
5.000000000000000
 50
0.000000000000000
 51
90.000000000000000
  0
LINE
  8
0
  6
CONTINUOUS
 62
3
 10
33.435513872059801
 20
150.456383028126770
 11
33.435513872059801
 21
69.956383028126737
  0
CIRCLE
  8
0
  6
CONTINUOUS
 62
3
 10
12.435513872059801
 20
150.456383028126770
 40
10.500000000000000
  0
LINE
  8
0
  6
CONTINUOUS
 62
3
 10
36.435513872059801
 20
233.956383028126770
 11
43.435513872059801
 21
233.956383028126770
  0
ARC
  8
0
  6
CONTINUOUS
 62
3
 10
28.435513872059801
 20
170.456383028126770
 40
5.000000000000000
 50
270.000000000000000
 51
0.000000000000000
  0
LINE
  8
0
  6
CONTINUOUS
 62
3
 10
33.435513872059801
 20
150.456383028126770
 11
33.435513872059801
 21
230.956383028126770
  0
ARC
  8
0
  6
CONTINUOUS
 62
3
 10
36.435513872059801
 20
230.956383028126770
 40
3.000000000000000
 50
90.000000000000000
 51
180.000000000000000
  0
ARC
  8
0
  6
CONTINUOUS
 62
3
 10
-1.564501482075229
 20
170.456383028126770
 40
5.000000000000000
 50
180.000000000000000
 51
270.000000000000000
  0
LINE
  8
0
  6
CONTINUOUS
 62
3
 10
-6.564501482075229
 20
198.956383028126770
 11
-6.564501482075229
 21
150.456383028126770
  0
ARC
  8
0
  6
CONTINUOUS
 62
3
 10
-11.564501482075229
 20
198.956383028126770
 40
5.000000000000000
 50
0.000000000000000
 51
90.000000000000000
  0
LINE
  8
0
  6
CONTINUOUS
 62
3
 10
28.435513872059801
 20
165.456383028126770
 11
-1.564501482075229
 21
165.456383028126770
  0
INSERT
  8
0
  2
SYM19
 10
33.435513872059801
 20
95.655607486169373
  0
INSERT
  8
0
  2
SYM20
 10
33.435513872059801
 20
205.257158570084130
  0
LINE
  8
0
  6
CONTINUOUS
 62
3
 10
-23.064486127940199
 20
96.956383028126623
 11
29.435066410167792
 21
96.956383028126623
  0
LINE
  8
0
  6
CONTINUOUS
 62
3
 10
-23.064486127940199
 20
203.956383028126770
 11
29.435514150948848
 21
203.956383028126770
  0
LINE
  8
0
  6
CONTINUOUS
 62
3
 10
209.435519923261150
 20
191.456383028126770
 11
210.435519923261150
 21
191.456383028126770
  0
LINE
  8
0
  6
CONTINUOUS
 62
3
 10
209.435519923261150
 20
109.456383028126730
 11
210.435519923261150
 21
109.456383028126730
  0
LINE
  8
0
  6
CONTINUOUS
 62
3
 10
208.435519923261150
 20
150.456383028126770
 11
208.435519923261150
 21
229.142710907814030
  0
LINE
  8
0
  6
CONTINUOUS
 62
3
 10
210.435519923261150
 20
150.456383028126770
 11
210.435519923261150
 21
267.594808036876200
  0
LINE
  8
0
  6
CONTINUOUS
 62
3
 10
208.435519923261150
 20
150.456383028126770
 11
208.435519923261150
 21
71.770055148439468
  0
LINE
  8
0
  6
DASHDOT
 62
4
 10
-278.473101281419080
 20
150.456383028126770
 11
289.450510164762590
 21
150.456383028126770
  0
ARC
  8
0
  6
CONTINUOUS
 62
3
 10
205.435519923261150
 20
71.770055148439468
 40
3.000000000000318
 50
328.322304183038280
 51
0.000000000000000
  0
ARC
  8
0
  6
CONTINUOUS
 62
3
 10
209.435519923261150
 20
192.456383028126770
 40
1.000000000000000
 50
180.000000000000000
 51
270.000000000000000
  0
ARC
  8
0
  6
CONTINUOUS
 62
3
 10
209.435519923261150
 20
108.456383028126730
 40
1.000000000000000
 50
90.000000000000000
 51
180.000000000000000
  0
ARC
  8
0
  6
CONTINUOUS
 62
3
 10
192.435519923261150
 20
42.956380350366061
 40
21.999999999999375
 50
90.999999999999432
 51
183.430124496071130
  0
ARC
  8
0
  6
CONTINUOUS
 62
3
 10
203.044978270568890
 20
68.145377335768870
 40
3.000000000000504
 50
271.000000000010350
 51
324.866525231741780
  0
LINE
  8
0
  6
CONTINUOUS
 62
3
 10
192.051566981641140
 20
64.953029643806047
 11
203.097335489881290
 21
65.145834250299202
  0
ARC
  8
0
  6
CONTINUOUS
 62
3
 10
144.162396628993290
 20
109.580164401991140
 40
75.000000000000071
 50
324.866525231742120
 51
328.322304183047150
  0
LINE
  8
0
  6
CONTINUOUS
 62
3
 10
210.435519923261150
 20
150.456383028126770
 11
210.435519923261150
 21
33.181890112908121
  0
LINE
  8
0
  6
DASHDOT
 62
4
 10
192.435519923261150
 20
25.456380350366061
 11
192.435519923261150
 21
60.456380350366061
  0
CIRCLE
  8
0
  6
CONTINUOUS
 62
3
 10
192.435519923261150
 20
42.956380350366061
 40
7.500000000000000
  0
LINE
  8
0
  6
CONTINUOUS
 62
3
 10
272.435527049128950
 20
127.456383028126730
 11
217.435527049128950
 21
127.456383028126730
  0
LINE
  8
0
  6
CONTINUOUS
 62
3
 10
217.435519923260240
 20
130.456383028126740
 11
217.435519923260240
 21
127.456383028126730
  0
ARC
  8
0
  6
CONTINUOUS
 62
3
 10
272.035519923260150
 20
170.056383028126220
 40
0.400000000000091
 50
0.000000000000000
 51
90.000000000000000
  0
LINE
  8
0
  6
CONTINUOUS
 62
3
 10
272.035519923260150
 20
170.456383028126770
 11
215.495334670264810
 21
170.456383028125860
  0
LINE
  8
0
  6
CONTINUOUS
 62
3
 10
272.435519923260240
 20
150.456383028126770
 11
272.435519923260240
 21
170.056383028126220
  0
ARC
  8
0
  6
CONTINUOUS
 62
3
 10
214.035519923260150
 20
171.906383028126580
 40
1.599999999999909
 50
180.000000000000000
 51
270.000000000000000
  0
LINE
  8
0
  6
CONTINUOUS
 62
3
 10
214.935527049128950
 20
170.306383028126220
 11
214.035519923260150
 21
170.306383028126220
  0
LINE
  8
0
  6
CONTINUOUS
 62
3
 10
212.035519923260150
 20
172.956383028126770
 11
212.435519923260240
 21
172.556383028126220
  0
LINE
  8
0
  6
CONTINUOUS
 62
3
 10
212.035519923260150
 20
172.956383028126770
 11
210.435519923261150
 21
172.956383028126770
  0
LINE
  8
0
  6
CONTINUOUS
 62
3
 10
212.435519923260240
 20
150.456383028126770
 11
212.435519923260240
 21
172.556383028126220
  0
LINE
  8
0
  6
CONTINUOUS
 62
3
 10
215.495334670264360
 20
170.456383028125860
 11
214.935527049128950
 21
170.306383028126220
  0
LINE
  8
0
  6
CONTINUOUS
 62
3
 10
212.035519923260150
 20
127.956383028126730
 11
210.435519923261150
 21
127.956383028126730
  0
ARC
  8
0
  6
CONTINUOUS
 62
3
 10
214.035519923260150
 20
129.006383028126920
 40
1.599999999999454
 50
90.000000000000000
 51
180.000000000000000
  0
LINE
  8
0
  6
CONTINUOUS
 62
3
 10
214.935527049128950
 20
130.606383028126370
 11
214.035519923260150
 21
130.606383028126370
  0
LINE
  8
0
  6
CONTINUOUS
 62
3
 10
212.035519923260150
 20
127.956383028126730
 11
212.435519923260240
 21
128.356383028126370
  0
LINE
  8
0
  6
CONTINUOUS
 62
3
 10
212.435519923260240
 20
150.456383028126770
 11
212.435519923260240
 21
128.356383028126370
  0
LINE
  8
0
  6
CONTINUOUS
 62
3
 10
272.035519923260150
 20
130.456383028126740
 11
215.495334670264810
 21
130.456383028126740
  0
LINE
  8
0
  6
CONTINUOUS
 62
3
 10
215.495334670264360
 20
130.456383028126740
 11
214.935527049128950
 21
130.606383028126370
  0
LINE
  8
0
  6
CONTINUOUS
 62
3
 10
272.435519923260240
 20
150.456383028126770
 11
272.435519923260240
 21
127.456383028126730
  0
ARC
  8
0
  6
CONTINUOUS
 62
3
 10
272.035519923260150
 20
130.856383028126370
 40
0.399999999999636
 50
270.000000000000000
 51
0.000000000000000
  0
ARC
  8
0
  6
CONTINUOUS
 62
3
 10
31.435519923261154
 20
33.159165064117559
 40
8.000000000000000
 50
180.000000000000000
 51
267.831324413388360
  0
LINE
  8
0
  6
CONTINUOUS
 62
3
 10
31.132787985646019
 20
25.164895030277847
 11
82.435519923261154
 21
23.222131603642964
  0
CIRCLE
  8
0
  6
CONTINUOUS
 62
3
 10
42.435519923261154
 20
42.956380350366061
 40
7.500000000000000
  0
LINE
  8
0
  6
DASHDOT
 62
4
 10
42.435519923261154
 20
25.456380350366061
 11
42.435519923261154
 21
60.456380350366061
  0
LINE
  8
0
  6
CONTINUOUS
 62
3
 10
202.575139174758760
 20
25.319176458126066
 11
82.435519923261154
 21
23.222131603642964
  0
ARC
  8
0
  6
CONTINUOUS
 62
3
 10
202.435519923261150
 20
33.317958019377301
 40
8.000000000000092
 50
270.999999999995280
 51
0.000000000000000
  0
ARC
  8
0
  6
CONTINUOUS
 62
3
 10
167.480307214731280
 20
41.460600061666781
 40
2.999999999999901
 50
288.896514820060250
 51
3.430124496075548
  0
ARC
  8
0
  6
CONTINUOUS
 62
3
 10
144.162396628993290
 20
109.580164401991140
 40
75.000000000000526
 50
271.000000000000060
 51
288.896514820053600
  0
LINE
  8
0
  6
CONTINUOUS
 62
3
 10
80.435513872061165
 20
150.456383028126770
 11
80.435513872061165
 21
33.456383028126737
  0
LINE
  8
0
  6
CONTINUOUS
 62
3
 10
23.435519923261154
 20
62.594802930449049
 11
23.435519923261154
 21
32.873223057959848
  0
LINE
  8
0
  6
CONTINUOUS
 62
3
 10
80.435519923261154
 20
33.456383028126737
 11
145.471327111789610
 21
34.591587265261268
  0
ARC
  8
0
  6
CONTINUOUS
 62
3
 10
31.435519923261154
 20
238.317963125804450
 40
8.000000000000000
 50
180.000000000000000
 51
268.999999999998240
  0
LINE
  8
0
  6
CONTINUOUS
 62
3
 10
31.295900671762638
 20
230.319181564553220
 11
33.435519923259790
 21
230.281834371596690
  0
LINE
  8
0
  6
CONTINUOUS
 62
3
 10
31.295900671762638
 20
70.593584491700284
 11
33.435519923259790
 21
70.630931684656815
  0
ARC
  8
0
  6
CONTINUOUS
 62
3
 10
31.435519923261154
 20
62.594802930449049
 40
8.000000000000108
 50
91.000000000001762
 51
180.000000000000000
  0
LINE
  8
0
  6
DASHDOT
 62
4
 10
42.435519923261154
 20
243.993152974447180
 11
42.435519923261154
 21
240.456385705887440
  0
LINE
  8
0
  6
DASHDOT
 62
4
 10
59.935519923261154
 20
42.956380350366061
 11
24.935519923261154
 21
42.956380350366061
  0
LINE
  8
0
  6
DASHDOT
 62
4
 10
209.935519923261150
 20
42.956380350366061
 11
174.935519923261150
 21
42.956380350366061
  0
LINE
  8
0
  6
CONTINUOUS
 62
3
 10
31.132787985646019
 20
275.747871025975660
 11
82.435519923261154
 21
277.690634452610540
  0
ARC
  8
0
  6
CONTINUOUS
 62
3
 10
31.435519923261154
 20
267.753600992135940
 40
7.999999999999988
 50
92.168675586611627
 51
180.000000000000000
  0
LINE
  8
0
  6
CONTINUOUS
 62
3
 10
202.575139174758760
 20
275.593589598127440
 11
82.435519923261154
 21
277.690634452610540
  0
ARC
  8
0
  6
CONTINUOUS
 62
3
 10
202.435519923261150
 20
267.594808036876200
 40
8.000000000000000
 50
0.000000000000000
 51
89.000000000004761
  0
ARC
  8
0
  6
CONTINUOUS
 62
3
 10
203.044978270568890
 20
232.767388720484630
 40
3.000000000000104
 50
35.133474768258203
 51
88.999999999989711
  0
LINE
  8
0
  6
CONTINUOUS
 62
3
 10
192.051566981641140
 20
235.959736412447460
 11
203.097335489881290
 21
235.766931805954300
  0
ARC
  8
0
  6
CONTINUOUS
 62
3
 10
167.480307214731280
 20
259.452165994586720
 40
3.000000000000326
 50
356.569875503924440
 51
71.103485179939781
  0
ARC
  8
0
  6
CONTINUOUS
 62
3
 10
192.435519923261150
 20
257.956385705887440
 40
22.000000000000316
 50
176.569875503928870
 51
269.000000000000570
  0
CIRCLE
  8
0
  6
CONTINUOUS
 62
3
 10
192.435519923261150
 20
257.956385705887440
 40
7.500000000000000
  0
CIRCLE
  8
0
  6
CONTINUOUS
 62
3
 10
42.435519923261154
 20
257.956385705887440
 40
7.500000000000000
  0
ARC
  8
0
  6
CONTINUOUS
 62
3
 10
144.162396628993290
 20
191.332601654262360
 40
75.000000000000767
 50
31.677695816952838
 51
35.133474768257869
  0
ARC
  8
0
  6
CONTINUOUS
 62
3
 10
205.435519923261150
 20
229.142710907814030
 40
3.000000000000000
 50
0.000000000000000
 51
31.677695816961705
  0
ARC
  8
0
  6
CONTINUOUS
 62
3
 10
144.162396628993290
 20
191.332601654262360
 40
75.000000000000327
 50
71.103485179946389
 51
88.999999999999972
  0
LINE
  8
0
  6
CONTINUOUS
 62
3
 10
31.443287470284986
 20
56.727742950632972
 11
60.698640230784122
 21
57.238397032565416
  0
LINE
  8
0
  6
CONTINUOUS
 62
3
 10
80.435513872061165
 20
150.456383028126770
 11
80.435513872061165
 21
267.456383028126770
  0
LINE
  8
0
  6
CONTINUOUS
 62
3
 10
31.443287470284986
 20
244.185023105620530
 11
60.698640230784122
 21
243.674369023688090
  0
LINE
  8
0
  6
DASHDOT
 62
4
 10
192.435519923261150
 20
275.456385705887440
 11
192.435519923261150
 21
240.456385705887440
  0
LINE
  8
0
  6
DASHDOT
 62
4
 10
209.935519923261150
 20
257.956385705887440
 11
174.935519923261150
 21
257.956385705887440
  0
LINE
  8
0
  6
CONTINUOUS
 62
3
 10
80.435519923261154
 20
267.456383028126770
 11
145.471327111789610
 21
266.321178790992240
  0
LINE
  8
0
  6
DASHDOT
 62
4
 10
42.435519923261154
 20
275.456385705887440
 11
42.435519923261154
 21
243.993152974447180
  0
LINE
  8
0
  6
DASHDOT
 62
4
 10
59.935519923261154
 20
257.956385705887440
 11
24.935519923261154
 21
257.956385705887440
  0
LINE
  8
0
  6
CONTINUOUS
 62
3
 10
23.435519923261154
 20
237.873228164386090
 11
23.435519923261154
 21
267.753600992135940
  0
ARC
  8
0
  6
CONTINUOUS
 62
3
 10
63.935513872060938
 20
239.605432862762880
 40
4.999999999999244
 50
272.000000000003920
 51
344.651069713993190
  0
LINE
  8
0
  6
CONTINUOUS
 62
3
 10
43.435513872054571
 20
233.886509366687730
 11
43.435513872059801
 21
150.456383028126770
  0
LINE
  8
0
  6
CONTINUOUS
 62
3
 10
43.435513872054571
 20
233.886509366687730
 11
64.110011355573761
 21
234.608478727668170
  0
LINE
  8
0
  6
CONTINUOUS
 62
3
 10
68.935513872061165
 20
264.456383028126770
 11
68.935513872061392
 21
173.956383028126880
  0
LINE
  8
0
  6
CONTINUOUS
 62
3
 10
59.935513872061392
 20
170.956383028126880
 11
65.935513872061392
 21
170.956383028126880
  0
LINE
  8
0
  6
CONTINUOUS
 62
3
 10
52.435513872050478
 20
170.956383028126880
 11
56.935513872061392
 21
170.956383028126880
  0
LINE
  8
0
  6
CONTINUOUS
 62
3
 10
52.435513872050478
 20
170.956383028126880
 11
52.435513872051843
 21
150.456383028126880
  0
LINE
  8
0
  6
CONTINUOUS
 62
3
 10
56.935513872061392
 20
150.456383028126880
 11
56.935513872061392
 21
170.956383028126880
  0
ARC
  8
0
  6
CONTINUOUS
 62
3
 10
59.935513872061392
 20
167.956383028126880
 40
3.000000000000000
 50
90.000000000000000
 51
180.000000000000000
  0
ARC
  8
0
  6
CONTINUOUS
 62
3
 10
65.935513872061392
 20
173.956383028126880
 40
3.000000000000000
 50
270.000000000000000
 51
0.000000000000000
  0
ARC
  8
0
  6
CONTINUOUS
 62
3
 10
71.935513872061165
 20
264.456383028126770
 40
3.000000000000000
 50
90.000000000000000
 51
180.000000000000000
  0
LINE
  8
0
  6
CONTINUOUS
 62
3
 10
61.935513872061165
 20
249.956383028126770
 11
61.435514825735481
 21
249.956383028126770
  0
LINE
  8
0
  6
CONTINUOUS
 62
3
 10
61.935513872061165
 20
262.956383028126770
 11
61.435515779409798
 21
262.956383028126770
  0
LINE
  8
0
  6
CONTINUOUS
 62
3
 10
61.435514825735481
 20
249.956383028126770
 11
61.435514825735481
 21
262.956383028126770
  0
LINE
  8
0
  6
CONTINUOUS
 62
3
 10
61.435516090220517
 20
262.956383005425780
 11
60.935515140027292
 21
262.090453434357190
  0
LINE
  8
0
  6
CONTINUOUS
 62
3
 10
61.435515463593219
 20
249.956383004058350
 11
60.935515437446156
 21
250.822507144192510
  0
LINE
  8
0
  6
CONTINUOUS
 62
3
 10
60.935514825735481
 20
250.822507181263970
 11
60.935514825735481
 21
262.090453424550110
  0
ARC
  8
0
  6
CONTINUOUS
 62
3
 10
64.935513872061165
 20
264.456383028126770
 40
3.000000000000000
 50
90.000000000000000
 51
180.000000000000000
  0
LINE
  8
0
  6
CONTINUOUS
 62
3
 10
79.935513872061165
 20
267.456383028126310
 11
64.935513872061165
 21
267.456383028126770
  0
LINE
  8
0
  6
CONTINUOUS
 62
3
 10
61.935513872061392
 20
241.456383028126770
 11
61.935513872061165
 21
264.456383028126770
  0
ARC
  8
0
  6
CONTINUOUS
 62
3
 10
66.935513872061392
 20
237.456383028127220
 40
2.000000000000000
 50
0.000000000000000
 51
90.000000000000000
  0
LINE
  8
0
  6
CONTINUOUS
 62
3
 10
66.935513872061392
 20
239.456383028127220
 11
63.935513872061392
 21
239.456383028126770
  0
ARC
  8
0
  6
CONTINUOUS
 62
3
 10
63.935513872061392
 20
241.456383028126770
 40
2.000000000000000
 50
180.000000000000000
 51
270.000000000000000
  0
LINE
  8
0
  6
CONTINUOUS
 62
3
 10
79.935513872061165
 20
267.456383028126310
 11
79.935513872060938
 21
150.456383028126880
  0
INSERT
  8
0
  2
SYM21
 10
68.935513872061392
 20
217.456383028126880
 41
-1.000000000000000
 50
180.000000000000000
  0
INSERT
  8
0
  2
SYM22
 10
52.435513872050933
 20
160.956383028126880
 41
-1.000000000000000
 50
180.000000000000000
  0
ARC
  8
0
  6
CONTINUOUS
 62
3
 10
63.935513872060938
 20
61.307333193490734
 40
4.999999999999970
 50
15.348930286009365
 51
87.999999999996049
  0
LINE
  8
0
  6
CONTINUOUS
 62
3
 10
43.435513872054571
 20
67.026256689565884
 11
43.435513872060028
 21
150.456383028126770
  0
LINE
  8
0
  6
CONTINUOUS
 62
3
 10
43.435513872054571
 20
67.026256689565884
 11
64.110011355573761
 21
66.304287328585445
  0
LINE
  8
0
  6
CONTINUOUS
 62
3
 10
68.935513872061392
 20
36.456383028126851
 11
68.935513872061392
 21
126.956383028126850
  0
LINE
  8
0
  6
CONTINUOUS
 62
3
 10
59.935513872061392
 20
129.956383028126850
 11
65.935513872061392
 21
129.956383028126850
  0
LINE
  8
0
  6
CONTINUOUS
 62
3
 10
52.435513872050478
 20
129.956383028126850
 11
56.935513872061392
 21
129.956383028126850
  0
LINE
  8
0
  6
CONTINUOUS
 62
3
 10
52.435513872050478
 20
129.956383028126850
 11
52.435513872051843
 21
150.456383028126880
  0
LINE
  8
0
  6
CONTINUOUS
 62
3
 10
56.935513872061392
 20
150.456383028126880
 11
56.935513872061392
 21
129.956383028126850
  0
ARC
  8
0
  6
CONTINUOUS
 62
3
 10
59.935513872061392
 20
132.956383028126850
 40
3.000000000000000
 50
180.000000000000000
 51
270.000000000000000
  0
ARC
  8
0
  6
CONTINUOUS
 62
3
 10
65.935513872061392
 20
126.956383028126850
 40
3.000000000000000
 50
0.000000000000000
 51
90.000000000000000
  0
ARC
  8
0
  6
CONTINUOUS
 62
3
 10
71.935513872061392
 20
36.456383028126851
 40
3.000000000000000
 50
180.000000000000000
 51
270.000000000000000
  0
LINE
  8
0
  6
CONTINUOUS
 62
3
 10
61.935513872063211
 20
50.956383028126851
 11
61.435514825735709
 21
50.956383028126851
  0
LINE
  8
0
  6
CONTINUOUS
 62
3
 10
61.935513872063439
 20
37.956383028126851
 11
61.435515779410025
 21
37.956383028126851
  0
LINE
  8
0
  6
CONTINUOUS
 62
3
 10
61.435514825735709
 20
50.956383028126851
 11
61.435514825735709
 21
37.956383028126851
  0
LINE
  8
0
  6
CONTINUOUS
 62
3
 10
61.435516090220744
 20
37.956383050827839
 11
60.935515140027519
 21
38.822312621896430
  0
LINE
  8
0
  6
CONTINUOUS
 62
3
 10
61.435515463593447
 20
50.956383052195264
 11
60.935515437446384
 21
50.090258912061103
  0
LINE
  8
0
  6
CONTINUOUS
 62
3
 10
60.935514825735709
 20
50.090258874989644
 11
60.935514825735709
 21
38.822312631703511
  0
ARC
  8
0
  6
CONTINUOUS
 62
3
 10
64.935513872061392
 20
36.456383028126851
 40
3.000000000000000
 50
180.000000000000000
 51
270.000000000000000
  0
LINE
  8
0
  6
CONTINUOUS
 62
3
 10
79.935513872061392
 20
33.456383028127306
 11
64.935513872061392
 21
33.456383028126851
  0
LINE
  8
0
  6
CONTINUOUS
 62
3
 10
61.935513872061392
 20
59.456383028126851
 11
61.935513872061392
 21
36.456383028126851
  0
ARC
  8
0
  6
CONTINUOUS
 62
3
 10
66.935513872061392
 20
63.456383028126396
 40
2.000000000000000
 50
270.000000000000000
 51
0.000000000000000
  0
LINE
  8
0
  6
CONTINUOUS
 62
3
 10
66.935513872061392
 20
61.456383028126396
 11
63.935513872061392
 21
61.456383028126851
  0
ARC
  8
0
  6
CONTINUOUS
 62
3
 10
63.935513872061392
 20
59.456383028126851
 40
2.000000000000000
 50
90.000000000000000
 51
180.000000000000000
  0
LINE
  8
0
  6
CONTINUOUS
 62
3
 10
79.935513872061392
 20
33.456383028127306
 11
79.935513872060938
 21
150.456383028126880
  0
INSERT
  8
0
  2
SYM23
 10
68.935513872061392
 20
83.456383028126851
 50
0.000000000000014
  0
INSERT
  8
0
  2
SYM24
 10
52.435513872050933
 20
139.956383028126850
 50
0.000000000000014
  0
ARC
  8
0
  6
CONTINUOUS
 62
3
 10
-158.064486127940090
 20
213.956383028126770
 40
5.000000000000000
 50
180.000000000000000
 51
270.000000000000000
  0
LINE
  8
0
  6
CONTINUOUS
 62
3
 10
-163.064486127940090
 20
203.956383028126770
 11
-163.064486127940090
 21
208.956383028126770
  0
LINE
  8
0
  6
DASHDOT
 62
3
 10
-39.064486127940086
 20
203.956383028126770
 11
-39.064486127940086
 21
208.956383028126770
  0
LINE
  8
0
  6
DASHDOT
 62
3
 10
-39.064486127940086
 20
203.956383028126770
 11
-39.064486127940086
 21
208.956383028126770
  0
ARC
  8
0
  6
CONTINUOUS
 62
3
 10
-44.064486127940086
 20
213.956383028126770
 40
5.000000000000000
 50
270.000000000000000
 51
0.000000000000000
  0
LINE
  8
0
  6
CONTINUOUS
 62
3
 10
-163.064486127940090
 20
208.956383028126770
 11
-39.064486127940086
 21
208.956383028126770
  0
LINE
  8
0
  6
CONTINUOUS
 62
3
 10
-49.564486127940086
 20
227.617408087813600
 11
-152.564486127940090
 21
227.617408087813600
  0
ARC
  8
0
  6
CONTINUOUS
 62
3
 10
-44.064486127940086
 20
232.617408087813600
 40
5.000000000000072
 50
287.457603123721870
 51
0.000000000000000
  0
ARC
  8
0
  6
CONTINUOUS
 62
3
 10
-43.864486127940268
 20
228.293954213555930
 40
1.300000000000182
 50
0.000000000000000
 51
73.398450400977637
  0
ARC
  8
0
  6
CONTINUOUS
 62
3
 10
-46.064486127940086
 20
220.914929887806470
 40
9.000000000000123
 50
73.398450400980877
 51
106.601549599019120
  0
ARC
  8
0
  6
CONTINUOUS
 62
3
 10
-48.264486127939904
 20
228.293954213555930
 40
1.300000000000019
 50
106.601549599022360
 51
180.000000000000000
  0
LINE
  8
0
  6
CONTINUOUS
 62
3
 10
-42.564486127940086
 20
228.293954213555930
 11
-42.564486127940086
 21
227.306944475631550
  0
POLYLINE
  8
0
  6
CONTINUOUS
 62
3
 66
1
  0
VERTEX
  8
0
  6
CONTINUOUS
 62
3
 10
-49.564486127940086
 20
227.306944475631550
  0
VERTEX
  8
0
  6
CONTINUOUS
 62
3
 10
-49.497234609351395
 20
227.272846265435560
  0
VERTEX
  8
0
  6
CONTINUOUS
 62
3
 10
-49.298064491729590
 20
227.240058430334930
  0
VERTEX
  8
0
  6
CONTINUOUS
 62
3
 10
-48.974629770998995
 20
227.209840988444910
  0
VERTEX
  8
0
  6
CONTINUOUS
 62
3
 10
-48.539359862093001
 20
227.183355179111200
  0
VERTEX
  8
0
  6
CONTINUOUS
 62
3
 10
-48.008981943508694
 20
227.161618837133120
  0
VERTEX
  8
0
  6
CONTINUOUS
 62
3
 10
-47.403878141217902
 20
227.145467277942940
  0
VERTEX
  8
0
  6
CONTINUOUS
 62
3
 10
-46.747302254996534
 20
227.135521196902490
  0
VERTEX
  8
0
  6
CONTINUOUS
 62
3
 10
-46.064486127940086
 20
227.132162816328330
  0
VERTEX
  8
0
  6
CONTINUOUS
 62
3
 10
-45.381670000883638
 20
227.135521196902490
  0
VERTEX
  8
0
  6
CONTINUOUS
 62
3
 10
-44.725094114662269
 20
227.145467277942940
  0
VERTEX
  8
0
  6
CONTINUOUS
 62
3
 10
-44.119990312371478
 20
227.161618837133120
  0
VERTEX
  8
0
  6
CONTINUOUS
 62
3
 10
-43.589612393787171
 20
227.183355179111200
  0
VERTEX
  8
0
  6
CONTINUOUS
 62
3
 10
-43.154342484881177
 20
227.209840988444910
  0
VERTEX
  8
0
  6
CONTINUOUS
 62
3
 10
-42.830907764150581
 20
227.240058430334930
  0
VERTEX
  8
0
  6
CONTINUOUS
 62
3
 10
-42.631737646528784
 20
227.272846265435560
  0
VERTEX
  8
0
  6
CONTINUOUS
 62
3
 10
-42.564486127940086
 20
227.306944475631550
  0
SEQEND
  8
0
  6
CONTINUOUS
 62
3
  0
LINE
  8
0
  6
CONTINUOUS
 62
3
 10
-49.564486127940086
 20
228.293954213555930
 11
-49.564486127940086
 21
227.306944475631550
  0
ARC
  8
0
  6
CONTINUOUS
 62
3
 10
-158.064486127940090
 20
232.617408087813600
 40
5.000000000000000
 50
180.000000000000000
 51
252.542396876278160
  0
LINE
  8
0
  6
CONTINUOUS
 62
3
 10
-159.564486127940090
 20
228.293954213555930
 11
-159.564486127940090
 21
227.306944475631550
  0
LINE
  8
0
  6
CONTINUOUS
 62
3
 10
-152.564486127940090
 20
228.293954213555930
 11
-152.564486127940090
 21
227.306944475631550
  0
ARC
  8
0
  6
CONTINUOUS
 62
3
 10
-158.264486127939900
 20
228.293954213555930
 40
1.300000000000019
 50
106.601549599022360
 51
180.000000000000000
  0
ARC
  8
0
  6
CONTINUOUS
 62
3
 10
-156.064486127940090
 20
220.914929887806470
 40
9.000000000000123
 50
73.398450400980877
 51
106.601549599019120
  0
ARC
  8
0
  6
CONTINUOUS
 62
3
 10
-153.864486127940270
 20
228.293954213555930
 40
1.300000000000182
 50
0.000000000000000
 51
73.398450400977637
  0
POLYLINE
  8
0
  6
CONTINUOUS
 62
3
 66
1
  0
VERTEX
  8
0
  6
CONTINUOUS
 62
3
 10
-159.564486127940090
 20
227.306944475631550
  0
VERTEX
  8
0
  6
CONTINUOUS
 62
3
 10
-159.497234609351380
 20
227.272846265435560
  0
VERTEX
  8
0
  6
CONTINUOUS
 62
3
 10
-159.298064491729580
 20
227.240058430334930
  0
VERTEX
  8
0
  6
CONTINUOUS
 62
3
 10
-158.974629770999000
 20
227.209840988444910
  0
VERTEX
  8
0
  6
CONTINUOUS
 62
3
 10
-158.539359862092990
 20
227.183355179111200
  0
VERTEX
  8
0
  6
CONTINUOUS
 62
3
 10
-158.008981943508700
 20
227.161618837133120
  0
VERTEX
  8
0
  6
CONTINUOUS
 62
3
 10
-157.403878141217890
 20
227.145467277942940
  0
VERTEX
  8
0
  6
CONTINUOUS
 62
3
 10
-156.747302254996530
 20
227.135521196902490
  0
VERTEX
  8
0
  6
CONTINUOUS
 62
3
 10
-156.064486127940090
 20
227.132162816328330
  0
VERTEX
  8
0
  6
CONTINUOUS
 62
3
 10
-155.381670000883640
 20
227.135521196902490
  0
VERTEX
  8
0
  6
CONTINUOUS
 62
3
 10
-154.725094114662280
 20
227.145467277942940
  0
VERTEX
  8
0
  6
CONTINUOUS
 62
3
 10
-154.119990312371470
 20
227.161618837133120
  0
VERTEX
  8
0
  6
CONTINUOUS
 62
3
 10
-153.589612393787180
 20
227.183355179111200
  0
VERTEX
  8
0
  6
CONTINUOUS
 62
3
 10
-153.154342484881170
 20
227.209840988444910
  0
VERTEX
  8
0
  6
CONTINUOUS
 62
3
 10
-152.830907764150600
 20
227.240058430334930
  0
VERTEX
  8
0
  6
CONTINUOUS
 62
3
 10
-152.631737646528790
 20
227.272846265435560
  0
VERTEX
  8
0
  6
CONTINUOUS
 62
3
 10
-152.564486127940090
 20
227.306944475631550
  0
SEQEND
  8
0
  6
CONTINUOUS
 62
3
  0
LINE
  8
0
  6
CONTINUOUS
 62
3
 10
-39.064486127940086
 20
232.617408087813600
 11
-39.064486127940086
 21
245.556383028126670
  0
LINE
  8
0
  6
CONTINUOUS
 62
3
 10
-163.064486127940090
 20
232.617408087813600
 11
-163.064486127940090
 21
245.556383028126670
  0
LINE
  8
0
  6
CONTINUOUS
 62
3
 10
-163.064486127940090
 20
232.150893319188980
 11
-164.064486127940090
 21
232.150893319188980
  0
LINE
  8
0
  6
CONTINUOUS
 62
3
 10
-38.064486127940086
 20
227.057256390911790
 11
-164.064486127940090
 21
227.057256390911790
  0
ARC
  8
0
  6
CONTINUOUS
 62
3
 10
-158.064486127940090
 20
245.556383028126670
 40
5.000000000000000
 50
90.000000000000000
 51
180.000000000000000
  0
ARC
  8
0
  6
CONTINUOUS
 62
3
 10
-164.064486127940090
 20
230.150893319188980
 40
2.000000000000000
 50
90.000000000000000
 51
180.000000000000000
  0
ARC
  8
0
  6
CONTINUOUS
 62
3
 10
-164.064486127940090
 20
229.057256390911790
 40
2.000000000000000
 50
180.000000000000000
 51
270.000000000000000
  0
ARC
  8
0
  6
CONTINUOUS
 62
3
 10
-164.064486127940090
 20
228.258254519826550
 40
2.000000000000000
 50
180.000000000000000
 51
270.000000000000000
  0
LINE
  8
0
  6
CONTINUOUS
 62
3
 10
-166.064486127940090
 20
230.150893319188980
 11
-166.064486127940090
 21
227.459252648707660
  0
ARC
  8
0
  6
CONTINUOUS
 62
3
 10
-164.064486127940090
 20
227.459252648707660
 40
2.000000000000000
 50
180.000000000000000
 51
270.000000000000000
  0
LINE
  8
0
  6
CONTINUOUS
 62
3
 10
-163.064486127940090
 20
213.956383028126770
 11
-163.064486127940090
 21
225.459252648707660
  0
ARC
  8
0
  6
CONTINUOUS
 62
3
 10
-44.064486127940086
 20
245.556383028126670
 40
5.000000000000000
 50
0.000000000000000
 51
90.000000000000000
  0
LINE
  8
0
  6
CONTINUOUS
 62
3
 10
-158.064486127940090
 20
250.556383028126670
 11
-44.064486127940086
 21
250.556383028126670
  0
LINE
  8
0
  6
CONTINUOUS
 62
3
 10
-39.064486127940086
 20
213.956383028126770
 11
-39.064486127940086
 21
225.258254519826550
  0
LINE
  8
0
  6
CONTINUOUS
 62
3
 10
-36.064486127940086
 20
230.150893319188980
 11
-36.064486127940086
 21
227.459252648707660
  0
LINE
  8
0
  6
CONTINUOUS
 62
3
 10
-38.064486127940086
 20
226.258254519809730
 11
-164.064486127940090
 21
226.258254519809730
  0
LINE
  8
0
  6
CONTINUOUS
 62
3
 10
-38.064486127940086
 20
225.459252648707660
 11
-164.064486127940090
 21
225.459252648707660
  0
LINE
  8
0
  6
CONTINUOUS
 62
3
 10
-39.064486127940086
 20
232.150893319188980
 11
-38.064486127940086
 21
232.150893319188980
  0
ARC
  8
0
  6
CONTINUOUS
 62
3
 10
-38.064486127940086
 20
230.150893319188980
 40
2.000000000000000
 50
0.000000000000000
 51
90.000000000000000
  0
ARC
  8
0
  6
CONTINUOUS
 62
3
 10
-38.064486127940086
 20
229.057256390911790
 40
2.000000000000000
 50
270.000000000000000
 51
0.000000000000000
  0
ARC
  8
0
  6
CONTINUOUS
 62
3
 10
-38.064486127940086
 20
228.258254519826550
 40
2.000000000000000
 50
270.000000000000000
 51
0.000000000000000
  0
ARC
  8
0
  6
CONTINUOUS
 62
3
 10
-38.064486127940086
 20
227.459252648707660
 40
2.000000000000000
 50
270.000000000000000
 51
0.000000000000000
  0
ARC
  8
0
  6
CONTINUOUS
 62
3
 10
-241.069331077054020
 20
112.056383028126760
 40
20.599999999999891
 50
235.000000000000400
 51
270.000000000000000
  0
ARC
  8
0
  6
CONTINUOUS
 62
3
 10
-258.964486127961320
 20
102.612762894497420
 40
2.599999999999909
 50
180.000000000000000
 51
234.999999999998810
  0
LINE
  8
0
  6
CONTINUOUS
 62
3
 10
-252.885005665885390
 20
95.181850915773538
 11
-260.455784862474160
 21
100.482967579346080
  0
LINE
  8
0
  6
CONTINUOUS
 62
3
 10
-261.564486127961230
 20
102.612762894497420
 11
-261.564486127961230
 21
150.456383028126770
  0
LINE
  8
0
  6
CONTINUOUS
 62
3
 10
-81.364486127940040
 20
97.956383028126737
 11
-81.364486127940040
 21
59.956383028126737
  0
ARC
  8
0
  6
CONTINUOUS
 62
3
 10
-82.364486127940040
 20
59.956383028126737
 40
1.000000000000000
 50
270.000000000000000
 51
0.000000000000000
  0
LINE
  8
0
  6
CONTINUOUS
 62
3
 10
-170.364486127940040
 20
58.956383028126737
 11
-82.364486127940040
 21
58.956383028126737
  0
ARC
  8
0
  6
CONTINUOUS
 62
3
 10
-170.364486127940040
 20
59.956383028126737
 40
1.000000000000000
 50
180.000000000000000
 51
270.000000000000000
  0
LINE
  8
0
  6
CONTINUOUS
 62
3
 10
-164.364486127940040
 20
58.456383028126737
 11
-156.364486127940040
 21
58.456383028126737
  0
LINE
  8
0
  6
CONTINUOUS
 62
3
 10
-96.364486127940040
 20
58.456383028126737
 11
-88.364486127940040
 21
58.456383028126737
  0
LINE
  8
0
  6
CONTINUOUS
 62
3
 10
-96.364486127940040
 20
58.956383028126737
 11
-96.364486127940040
 21
58.456383028126737
  0
LINE
  8
0
  6
CONTINUOUS
 62
3
 10
-88.364486127940040
 20
58.956383028126737
 11
-88.364486127940040
 21
58.456383028126737
  0
LINE
  8
0
  6
CONTINUOUS
 62
3
 10
-156.364486127940040
 20
58.956383028126737
 11
-156.364486127940040
 21
58.456383028126737
  0
LINE
  8
0
  6
CONTINUOUS
 62
3
 10
-164.364486127940040
 20
58.956383028126737
 11
-164.364486127940040
 21
58.456383028126737
  0
LINE
  8
0
  6
CONTINUOUS
 62
3
 10
-81.364486127940040
 20
97.956383028126737
 11
-163.564486127961230
 21
97.956383028126737
  0
POLYLINE
  8
0
  6
CONTINUOUS
 62
3
 66
1
 70
1
  0
VERTEX
  8
0
  6
CONTINUOUS
 62
3
 10
-169.864486127961020
 20
103.129052073779200
  0
VERTEX
  8
0
  6
CONTINUOUS
 62
3
 10
-169.954795310065830
 20
103.832009039979560
  0
VERTEX
  8
0
  6
CONTINUOUS
 62
3
 10
-170.222252325157970
 20
104.507951764191660
  0
VERTEX
  8
0
  6
CONTINUOUS
 62
3
 10
-170.656578950139050
 20
105.130904146597060
  0
VERTEX
  8
0
  6
CONTINUOUS
 62
3
 10
-171.241084256384230
 20
105.676926476495630
  0
VERTEX
  8
0
  6
CONTINUOUS
 62
3
 10
-171.953306032768890
 20
106.125035421962250
  0
VERTEX
  8
0
  6
CONTINUOUS
 62
3
 10
-172.765873995845080
 20
106.458010407525020
  0
VERTEX
  8
0
  6
CONTINUOUS
 62
3
 10
-173.647561614485200
 20
106.663055391223260
  0
VERTEX
  8
0
  6
CONTINUOUS
 62
3
 10
-174.564486127961000
 20
106.732290609324030
  0
VERTEX
  8
0
  6
CONTINUOUS
 62
3
 10
-175.481410641436810
 20
106.663055391223260
  0
VERTEX
  8
0
  6
CONTINUOUS
 62
3
 10
-176.363098260076920
 20
106.458010407525020
  0
VERTEX
  8
0
  6
CONTINUOUS
 62
3
 10
-177.175666223153120
 20
106.125035421962250
  0
VERTEX
  8
0
  6
CONTINUOUS
 62
3
 10
-177.887887999537780
 20
105.676926476495630
  0
VERTEX
  8
0
  6
CONTINUOUS
 62
3
 10
-178.472393305782960
 20
105.130904146597060
  0
VERTEX
  8
0
  6
CONTINUOUS
 62
3
 10
-178.906719930764040
 20
104.507951764191660
  0
VERTEX
  8
0
  6
CONTINUOUS
 62
3
 10
-179.174176945856170
 20
103.832009039979560
  0
VERTEX
  8
0
  6
CONTINUOUS
 62
3
 10
-179.264486127960990
 20
103.129052073779200
  0
VERTEX
  8
0
  6
CONTINUOUS
 62
3
 10
-179.174176945856170
 20
102.426095107578840
  0
VERTEX
  8
0
  6
CONTINUOUS
 62
3
 10
-178.906719930764040
 20
101.750152383366750
  0
VERTEX
  8
0
  6
CONTINUOUS
 62
3
 10
-178.472393305782960
 20
101.127200000961350
  0
VERTEX
  8
0
  6
CONTINUOUS
 62
3
 10
-177.887887999537750
 20
100.581177671062770
  0
VERTEX
  8
0
  6
CONTINUOUS
 62
3
 10
-177.175666223153120
 20
100.133068725596160
  0
VERTEX
  8
0
  6
CONTINUOUS
 62
3
 10
-176.363098260076920
 20
99.800093740033390
  0
VERTEX
  8
0
  6
CONTINUOUS
 62
3
 10
-175.481410641436810
 20
99.595048756335146
  0
VERTEX
  8
0
  6
CONTINUOUS
 62
3
 10
-174.564486127961000
 20
99.525813538234374
  0
VERTEX
  8
0
  6
CONTINUOUS
 62
3
 10
-173.647561614485200
 20
99.595048756335146
  0
VERTEX
  8
0
  6
CONTINUOUS
 62
3
 10
-172.765873995845080
 20
99.800093740033390
  0
VERTEX
  8
0
  6
CONTINUOUS
 62
3
 10
-171.953306032768890
 20
100.133068725596160
  0
VERTEX
  8
0
  6
CONTINUOUS
 62
3
 10
-171.241084256384260
 20
100.581177671062770
  0
VERTEX
  8
0
  6
CONTINUOUS
 62
3
 10
-170.656578950139050
 20
101.127200000961350
  0
VERTEX
  8
0
  6
CONTINUOUS
 62
3
 10
-170.222252325157970
 20
101.750152383366750
  0
VERTEX
  8
0
  6
CONTINUOUS
 62
3
 10
-169.954795310065830
 20
102.426095107578840
  0
SEQEND
  8
0
  6
CONTINUOUS
 62
3
  0
LINE
  8
0
  6
CONTINUOUS
 62
3
 10
-176.564486127961230
 20
100.136676519778770
 11
-174.564486127961230
 21
101.312462005401670
  0
LINE
  8
0
  6
CONTINUOUS
 62
3
 10
-174.564486127961230
 20
101.312462005401670
 11
-172.564486127961230
 21
102.965103644524980
  0
LINE
  8
0
  6
CONTINUOUS
 62
3
 10
-172.564486127961230
 20
100.136676519778770
 11
-174.564486127961230
 21
101.312462005401670
  0
LINE
  8
0
  6
CONTINUOUS
 62
3
 10
-174.564486127961230
 20
101.312462005401670
 11
-176.564486127961230
 21
102.965103644524980
  0
LINE
  8
0
  6
CONTINUOUS
 62
3
 10
-163.564486127961230
 20
99.116686667317680
 11
-163.564486127961000
 21
150.456383028126770
  0
ARC
  8
0
  6
CONTINUOUS
 62
3
 10
-166.564486127961230
 20
99.116686667317794
 40
3.000000000000000
 50
270.000000000000000
 51
359.999999999997780
  0
LINE
  8
0
  6
CONTINUOUS
 62
3
 10
-170.564486127961230
 20
96.116686667317794
 11
-166.564486127961230
 21
96.116686667317794
  0
ARC
  8
0
  6
CONTINUOUS
 62
3
 10
-170.564486127961230
 20
93.116686667317794
 40
3.000000000000000
 50
90.000000000000000
 51
180.000000000000000
  0
LINE
  8
0
  6
CONTINUOUS
 62
3
 10
-173.564486127961230
 20
91.456383028126737
 11
-241.069331077054020
 21
91.456383028126737
  0
LINE
  8
0
  6
CONTINUOUS
 62
3
 10
-173.564486127961230
 20
91.456383028126737
 11
-173.564486127961230
 21
93.116686667317794
  0
LINE
  8
0
  6
CONTINUOUS
 62
3
 10
-171.364486127940040
 20
96.008053126283784
 11
-171.364486127940040
 21
59.956383028126737
  0
LINE
  8
0
  6
CONTINUOUS
 62
3
 10
-171.364486127940040
 20
92.956383028126737
 11
-81.364486127940040
 21
92.956383028126737
  0
POLYLINE
  8
0
  6
CONTINUOUS
 62
3
 66
1
 70
1
  0
VERTEX
  8
0
  6
CONTINUOUS
 62
3
 10
-169.864486127961020
 20
197.783713982474300
  0
VERTEX
  8
0
  6
CONTINUOUS
 62
3
 10
-169.954795310065830
 20
198.486670948674660
  0
VERTEX
  8
0
  6
CONTINUOUS
 62
3
 10
-170.222252325157970
 20
199.162613672886750
  0
VERTEX
  8
0
  6
CONTINUOUS
 62
3
 10
-170.656578950139050
 20
199.785566055292150
  0
VERTEX
  8
0
  6
CONTINUOUS
 62
3
 10
-171.241084256384230
 20
200.331588385190740
  0
VERTEX
  8
0
  6
CONTINUOUS
 62
3
 10
-171.953306032768890
 20
200.779697330657370
  0
VERTEX
  8
0
  6
CONTINUOUS
 62
3
 10
-172.765873995845080
 20
201.112672316220110
  0
VERTEX
  8
0
  6
CONTINUOUS
 62
3
 10
-173.647561614485200
 20
201.317717299918370
  0
VERTEX
  8
0
  6
CONTINUOUS
 62
3
 10
-174.564486127961000
 20
201.386952518019140
  0
VERTEX
  8
0
  6
CONTINUOUS
 62
3
 10
-175.481410641436810
 20
201.317717299918370
  0
VERTEX
  8
0
  6
CONTINUOUS
 62
3
 10
-176.363098260076920
 20
201.112672316220110
  0
VERTEX
  8
0
  6
CONTINUOUS
 62
3
 10
-177.175666223153120
 20
200.779697330657370
  0
VERTEX
  8
0
  6
CONTINUOUS
 62
3
 10
-177.887887999537780
 20
200.331588385190740
  0
VERTEX
  8
0
  6
CONTINUOUS
 62
3
 10
-178.472393305782960
 20
199.785566055292150
  0
VERTEX
  8
0
  6
CONTINUOUS
 62
3
 10
-178.906719930764040
 20
199.162613672886750
  0
VERTEX
  8
0
  6
CONTINUOUS
 62
3
 10
-179.174176945856170
 20
198.486670948674660
  0
VERTEX
  8
0
  6
CONTINUOUS
 62
3
 10
-179.264486127960990
 20
197.783713982474300
  0
VERTEX
  8
0
  6
CONTINUOUS
 62
3
 10
-179.174176945856170
 20
197.080757016273940
  0
VERTEX
  8
0
  6
CONTINUOUS
 62
3
 10
-178.906719930764040
 20
196.404814292061840
  0
VERTEX
  8
0
  6
CONTINUOUS
 62
3
 10
-178.472393305782960
 20
195.781861909656440
  0
VERTEX
  8
0
  6
CONTINUOUS
 62
3
 10
-177.887887999537750
 20
195.235839579757850
  0
VERTEX
  8
0
  6
CONTINUOUS
 62
3
 10
-177.175666223153120
 20
194.787730634291220
  0
VERTEX
  8
0
  6
CONTINUOUS
 62
3
 10
-176.363098260076920
 20
194.454755648728480
  0
VERTEX
  8
0
  6
CONTINUOUS
 62
3
 10
-175.481410641436810
 20
194.249710665030220
  0
VERTEX
  8
0
  6
CONTINUOUS
 62
3
 10
-174.564486127961000
 20
194.180475446929450
  0
VERTEX
  8
0
  6
CONTINUOUS
 62
3
 10
-173.647561614485200
 20
194.249710665030220
  0
VERTEX
  8
0
  6
CONTINUOUS
 62
3
 10
-172.765873995845080
 20
194.454755648728480
  0
VERTEX
  8
0
  6
CONTINUOUS
 62
3
 10
-171.953306032768890
 20
194.787730634291220
  0
VERTEX
  8
0
  6
CONTINUOUS
 62
3
 10
-171.241084256384260
 20
195.235839579757850
  0
VERTEX
  8
0
  6
CONTINUOUS
 62
3
 10
-170.656578950139050
 20
195.781861909656440
  0
VERTEX
  8
0
  6
CONTINUOUS
 62
3
 10
-170.222252325157970
 20
196.404814292061840
  0
VERTEX
  8
0
  6
CONTINUOUS
 62
3
 10
-169.954795310065830
 20
197.080757016273940
  0
SEQEND
  8
0
  6
CONTINUOUS
 62
3
  0
LINE
  8
0
  6
CONTINUOUS
 62
3
 10
-176.564486127961230
 20
200.776089536474730
 11
-174.564486127961230
 21
199.600304050851950
  0
LINE
  8
0
  6
CONTINUOUS
 62
3
 10
-174.564486127961230
 20
199.600304050851950
 11
-172.564486127961230
 21
197.947662411728520
  0
LINE
  8
0
  6
CONTINUOUS
 62
3
 10
-172.564486127961230
 20
200.776089536474730
 11
-174.564486127961230
 21
199.600304050851950
  0
LINE
  8
0
  6
CONTINUOUS
 62
3
 10
-174.564486127961230
 20
199.600304050851950
 11
-176.564486127961230
 21
197.947662411728520
  0
LINE
  8
0
  6
CONTINUOUS
 62
3
 10
-163.564486127961230
 20
209.456383028126770
 11
-163.564486127961000
 21
150.456383028126770
  0
ARC
  8
0
  6
CONTINUOUS
 62
3
 10
-241.069331077054020
 20
188.856383028126740
 40
20.600000000000023
 50
90.000000000000000
 51
124.999999999999600
  0
ARC
  8
0
  6
CONTINUOUS
 62
3
 10
-258.964486127961320
 20
198.300003161756080
 40
2.600000000000131
 50
125.000000000001180
 51
180.000000000000000
  0
LINE
  8
0
  6
CONTINUOUS
 62
3
 10
-261.564486127961230
 20
198.300003161756080
 11
-261.564486127961230
 21
150.456383028126770
  0
LINE
  8
0
  6
CONTINUOUS
 62
3
 10
-252.885005665885390
 20
205.730915140479960
 11
-260.455784862474160
 21
200.429798476907420
  0
LINE
  8
0
  6
CONTINUOUS
 62
3
 10
-163.564486127961230
 20
209.456383028126770
 11
-241.069331077054020
 21
209.456383028126770
  0
LINE
  8
0
  6
CONTINUOUS
 62
3
 10
-23.064486127940086
 20
203.956383028126770
 11
-163.564486127961230
 21
203.956383028126770
  0
LINE
  8
0
  6
CONTINUOUS
 62
4
 10
-163.564486127961230
 20
164.456383028126770
 11
-23.064486127940086
 21
164.456383028126770
  0
LINE
  8
0
  6
CONTINUOUS
 62
4
 10
-163.564486127961230
 20
170.084417684764620
 11
-23.064486127940086
 21
170.084417684764620
  0
LINE
  8
0
  6
CONTINUOUS
 62
4
 10
-163.564486127961230
 20
168.842497819876710
 11
-23.064486127940086
 21
168.842497819876710
  0
LINE
  8
0
  6
CONTINUOUS
 62
4
 10
-163.564486127961230
 20
173.294622708122920
 11
-23.064486127940086
 21
173.294622708122920
  0
LINE
  8
0
  6
CONTINUOUS
 62
4
 10
-163.564486127961230
 20
174.641024433621510
 11
-23.064486127940086
 21
174.641024433621510
  0
LINE
  8
0
  6
CONTINUOUS
 62
4
 10
-163.564486127961230
 20
177.733755425286740
 11
-23.064486127940086
 21
177.733755425286740
  0
LINE
  8
0
  6
CONTINUOUS
 62
4
 10
-163.564486127961230
 20
179.212778578763850
 11
-23.064486127940086
 21
179.212778578763850
  0
LINE
  8
0
  6
CONTINUOUS
 62
4
 10
-163.564486127961230
 20
182.170774186896780
 11
-23.064486127940086
 21
182.170774186896780
  0
LINE
  8
0
  6
CONTINUOUS
 62
4
 10
-163.564486127961230
 20
183.759983979635540
 11
-23.064486127940086
 21
183.759983979635540
  0
LINE
  8
0
  6
CONTINUOUS
 62
4
 10
-163.564486127961230
 20
191.498296798466530
 11
-23.064486127940086
 21
191.498296798466530
  0
LINE
  8
0
  6
CONTINUOUS
 62
4
 10
-163.564486127961230
 20
196.589465623009460
 11
-23.064486127940086
 21
196.589465623009460
  0
LINE
  8
0
  6
CONTINUOUS
 62
4
 10
-163.564486127961230
 20
200.956383028126770
 11
-23.064486127940086
 21
200.956383028126770
  0
LINE
  8
0
  6
CONTINUOUS
 62
4
 10
-163.564486127961230
 20
201.456383028126770
 11
-23.064486127940086
 21
201.456383028126770
  0
LINE
  8
0
  6
CONTINUOUS
 62
4
 10
-163.564486127961230
 20
117.152782076617960
 11
-23.064486127940086
 21
117.152782076617960
  0
LINE
  8
0
  6
CONTINUOUS
 62
4
 10
-163.564486127961230
 20
118.741991869356720
 11
-23.064486127940086
 21
118.741991869356720
  0
LINE
  8
0
  6
CONTINUOUS
 62
4
 10
-163.564486127961230
 20
121.699987477489650
 11
-23.064486127940086
 21
121.699987477489650
  0
LINE
  8
0
  6
CONTINUOUS
 62
4
 10
-163.564486127961230
 20
123.179010630966750
 11
-23.064486127940086
 21
123.179010630966750
  0
LINE
  8
0
  6
CONTINUOUS
 62
4
 10
-163.564486127961230
 20
126.271741622631990
 11
-23.064486127940086
 21
126.271741622631990
  0
LINE
  8
0
  6
CONTINUOUS
 62
4
 10
-163.564486127961000
 20
127.618143348130580
 11
-23.064486127940086
 21
127.618143348130580
  0
LINE
  8
0
  6
CONTINUOUS
 62
4
 10
-163.564486127961000
 20
130.828348371488890
 11
-23.064486127940086
 21
130.828348371488890
  0
LINE
  8
0
  6
CONTINUOUS
 62
4
 10
-163.564486127961000
 20
132.070268236376790
 11
-23.064486127940086
 21
132.070268236376790
  0
LINE
  8
0
  6
CONTINUOUS
 62
4
 10
-163.564486127961230
 20
136.456383028126740
 11
-23.064486127940086
 21
136.456383028126740
  0
LINE
  8
0
  6
CONTINUOUS
 62
3
 10
-23.064486127940086
 20
96.956383028126737
 11
-81.364486127940040
 21
96.956383028126737
  0
LINE
  8
0
  6
CONTINUOUS
 62
4
 10
-163.564486127961230
 20
99.456383028126737
 11
-23.064486127940086
 21
99.456383028126737
  0
LINE
  8
0
  6
CONTINUOUS
 62
4
 10
-163.564486127961230
 20
99.956383028126737
 11
-23.064486127940086
 21
99.956383028126737
  0
LINE
  8
0
  6
CONTINUOUS
 62
4
 10
-163.564486127961230
 20
104.323300433244040
 11
-23.064486127940086
 21
104.323300433244040
  0
LINE
  8
0
  6
CONTINUOUS
 62
4
 10
-163.564486127961230
 20
109.414469257786970
 11
-23.064486127940086
 21
109.414469257786970
  0
LINE
  8
0
  6
DASHED
 62
3
 10
363.349900491465630
 20
-152.149313650034970
 11
363.349523790110650
 21
-152.149313650034970
  0
LINE
  8
0
  6
CONTINUOUS
 62
3
 10
368.013276155223140
 20
-255.843620035730050
 11
368.013276155223140
 21
-152.543616971873230
  0
LINE
  8
0
  6
CONTINUOUS
 62
3
 10
387.599886745553700
 20
-148.543616971873230
 11
372.013276155223140
 21
-148.543616971873230
  0
LINE
  8
0
  6
CONTINUOUS
 62
3
 10
359.995263730837450
 20
-268.543620035729870
 11
359.995263730837450
 21
-148.543616971873230
  0
LINE
  8
0
  6
CONTINUOUS
 62
3
 10
354.389691466364180
 20
-148.543616971873230
 11
354.389691466364180
 21
-268.543620035729870
  0
ARC
  8
0
  6
CONTINUOUS
 62
3
 10
372.013276155223140
 20
-152.543616971873230
 40
4.000000000000000
 50
90.000000000000000
 51
180.000000000000000
  0
ARC
  8
0
  6
CONTINUOUS
 62
3
 10
439.513276155223140
 20
-148.543616971873230
 40
48.999999999999531
 50
183.307362179670630
 51
270.000000000000000
  0
ARC
  8
0
  6
CONTINUOUS
 62
3
 10
387.599886745553700
 20
-151.543616971873230
 40
3.000000000000262
 50
3.307362179674563
 51
90.000000000000000
  0
ARC
  8
0
  6
CONTINUOUS
 62
3
 10
407.513276155222230
 20
-149.779191241482290
 40
47.518012424384935
 50
94.422377585977486
 51
180.000000000000000
  0
POLYLINE
  8
0
  6
CONTINUOUS
 62
3
 66
1
  0
VERTEX
  8
0
  6
CONTINUOUS
 62
3
 10
354.389691466364350
 20
-148.543616971873230
  0
VERTEX
  8
0
  6
CONTINUOUS
 62
3
 10
354.136057167687000
 20
-144.641810531550680
  0
VERTEX
  8
0
  6
CONTINUOUS
 62
3
 10
353.384901295513320
 20
-140.889948324571440
  0
VERTEX
  8
0
  6
CONTINUOUS
 62
3
 10
352.165090348757930
 20
-137.432212311481180
  0
VERTEX
  8
0
  6
CONTINUOUS
 62
3
 10
350.523500978026790
 20
-134.401481348142280
  0
VERTEX
  8
0
  6
CONTINUOUS
 62
3
 10
348.523218542223110
 20
-131.914224725822320
  0
VERTEX
  8
0
  6
CONTINUOUS
 62
3
 10
346.241112773583550
 20
-130.066026321647510
  0
VERTEX
  8
0
  6
CONTINUOUS
 62
3
 10
343.764883716977240
 20
-128.927911363808620
  0
VERTEX
  8
0
  6
CONTINUOUS
 62
3
 10
341.189691466364370
 20
-128.543616971873230
  0
VERTEX
  8
0
  6
CONTINUOUS
 62
3
 10
338.614499215751490
 20
-128.927911363808620
  0
VERTEX
  8
0
  6
CONTINUOUS
 62
3
 10
336.138270159145180
 20
-130.066026321647510
  0
VERTEX
  8
0
  6
CONTINUOUS
 62
3
 10
333.856164390505630
 20
-131.914224725822350
  0
VERTEX
  8
0
  6
CONTINUOUS
 62
3
 10
331.855881954701940
 20
-134.401481348142280
  0
VERTEX
  8
0
  6
CONTINUOUS
 62
3
 10
330.214292583970800
 20
-137.432212311481180
  0
VERTEX
  8
0
  6
CONTINUOUS
 62
3
 10
328.994481637215420
 20
-140.889948324571440
  0
VERTEX
  8
0
  6
CONTINUOUS
 62
3
 10
328.243325765041730
 20
-144.641810531550680
  0
VERTEX
  8
0
  6
CONTINUOUS
 62
3
 10
327.989691466364380
 20
-148.543616971873230
  0
SEQEND
  8
0
  6
CONTINUOUS
 62
3
  0
LINE
  8
0
  6
DASHED
 62
3
 10
382.013276155223140
 20
-185.543616971873350
 11
382.013276155223140
 21
-113.543616971873340
  0
LINE
  8
0
  6
DASHED
 62
3
 10
387.013276155223140
 20
-113.543616971873340
 11
354.646611382280750
 21
-113.543616971873340
  0
LINE
  8
0
  6
DASHED
 62
3
 10
385.513276155223140
 20
-129.043616971873350
 11
385.513276155223140
 21
-169.843616971873300
  0
LINE
  8
0
  6
DASHED
 62
3
 10
387.013276155223140
 20
-129.043616971873350
 11
385.513276155223140
 21
-129.043616971873350
  0
LINE
  8
0
  6
DASHED
 62
3
 10
387.013276155223140
 20
-129.043616971873350
 11
387.013276155223140
 21
-113.543616971873340
  0
ARC
  8
0
  6
DASHED
 62
3
 10
354.646611382280750
 20
-118.543616971873340
 40
5.000000000000000
 50
90.000000000000000
 51
173.967950853629670
  0
ARC
  8
0
  6
DASHED
 62
3
 10
648.013276155223140
 20
-149.543616971873350
 40
300.000000000000060
 50
173.967950853630190
 51
186.032049146369810
  0
LINE
  8
0
  6
DASHED
 62
3
 10
348.023693002740860
 20
-152.043616971873350
 11
347.513276155223140
 21
-152.043616971873350
  0
LINE
  8
0
  6
DASHED
 62
3
 10
348.013278012420870
 20
-147.043616971873350
 11
347.513276155223140
 21
-147.043616971873350
  0
LINE
  8
0
  6
DASHED
 62
3
 10
347.513276155223140
 20
-152.043616971873350
 11
347.513276155223140
 21
-147.043616971873350
  0
ARC
  8
0
  6
DASHED
 62
3
 10
354.646611382280750
 20
-180.543616971873350
 40
5.000000000000143
 50
186.032049146370330
 51
270.000000000000000
  0
LINE
  8
0
  6
DASHED
 62
3
 10
387.013276155223140
 20
-185.543616971873350
 11
354.646611382280750
 21
-185.543616971873350
  0
ARC
  8
0
  6
DASHED
 62
3
 10
385.713276155222960
 20
-169.843616971873300
 40
0.199999999999818
 50
180.000000000000000
 51
270.000000000000000
  0
LINE
  8
0
  6
DASHED
 62
3
 10
387.013276155223140
 20
-170.043616971873350
 11
385.713276155222960
 21
-170.043616971873350
  0
LINE
  8
0
  6
DASHED
 62
3
 10
387.013276155223140
 20
-170.043616971873350
 11
387.013276155223140
 21
-185.543616971873350
  0
LINE
  8
0
  6
DASHED
 62
3
 10
382.013276155223140
 20
-184.043616971873350
 11
382.013276155223140
 21
-185.543616971873350
  0
LINE
  8
0
  6
CONTINUOUS
 62
3
 10
551.036860844082180
 20
-148.543616971873230
 11
551.036860844082180
 21
-268.543620035729870
  0
POLYLINE
  8
0
  6
CONTINUOUS
 62
3
 66
1
  0
VERTEX
  8
0
  6
CONTINUOUS
 62
3
 10
551.036860844082410
 20
-148.543616971873230
  0
VERTEX
  8
0
  6
CONTINUOUS
 62
3
 10
550.783226545405000
 20
-144.641810531550680
  0
VERTEX
  8
0
  6
CONTINUOUS
 62
3
 10
550.032070673231370
 20
-140.889948324571440
  0
VERTEX
  8
0
  6
CONTINUOUS
 62
3
 10
548.812259726475990
 20
-137.432212311481180
  0
VERTEX
  8
0
  6
CONTINUOUS
 62
3
 10
547.170670355744850
 20
-134.401481348142280
  0
VERTEX
  8
0
  6
CONTINUOUS
 62
3
 10
545.170387919941160
 20
-131.914224725822320
  0
VERTEX
  8
0
  6
CONTINUOUS
 62
3
 10
542.888282151301610
 20
-130.066026321647510
  0
VERTEX
  8
0
  6
CONTINUOUS
 62
3
 10
540.412053094695240
 20
-128.927911363808620
  0
VERTEX
  8
0
  6
CONTINUOUS
 62
3
 10
537.836860844082370
 20
-128.543616971873230
  0
VERTEX
  8
0
  6
CONTINUOUS
 62
3
 10
535.261668593469490
 20
-128.927911363808620
  0
VERTEX
  8
0
  6
CONTINUOUS
 62
3
 10
532.785439536863120
 20
-130.066026321647510
  0
VERTEX
  8
0
  6
CONTINUOUS
 62
3
 10
530.503333768223570
 20
-131.914224725822350
  0
VERTEX
  8
0
  6
CONTINUOUS
 62
3
 10
528.503051332419890
 20
-134.401481348142280
  0
VERTEX
  8
0
  6
CONTINUOUS
 62
3
 10
526.861461961688750
 20
-137.432212311481180
  0
VERTEX
  8
0
  6
CONTINUOUS
 62
3
 10
525.641651014933360
 20
-140.889948324571440
  0
VERTEX
  8
0
  6
CONTINUOUS
 62
3
 10
524.890495142759730
 20
-144.641810531550680
  0
VERTEX
  8
0
  6
CONTINUOUS
 62
3
 10
524.636860844082320
 20
-148.543616971873230
  0
SEQEND
  8
0
  6
CONTINUOUS
 62
3
  0
ARC
  8
0
  6
CONTINUOUS
 62
3
 10
491.426665564892570
 20
-151.543616971873230
 40
3.000000000000000
 50
90.000000000000000
 51
176.692637820325420
  0
ARC
  8
0
  6
CONTINUOUS
 62
3
 10
507.013276155223140
 20
-152.543616971873230
 40
4.000000000000000
 50
0.000000000000000
 51
90.000000000000000
  0
ARC
  8
0
  6
CONTINUOUS
 62
3
 10
471.513276155224050
 20
-149.779191241482290
 40
47.518012424385233
 50
0.000000000000000
 51
85.577622414022514
  0
ARC
  8
0
  6
CONTINUOUS
 62
3
 10
471.513276155224050
 20
-149.779191241482290
 40
85.000000000000000
 50
0.000000000000000
 51
85.577622414022414
  0
LINE
  8
0
  6
CONTINUOUS
 62
3
 10
511.013276155223140
 20
-255.843620035730050
 11
511.013276155223140
 21
-152.543616971873230
  0
LINE
  8
0
  6
CONTINUOUS
 62
3
 10
519.031288579609280
 20
-268.543620035729870
 11
519.031288579609280
 21
-148.543616971873230
  0
LINE
  8
0
  6
CONTINUOUS
 62
3
 10
491.426665564892570
 20
-148.543616971873230
 11
507.013276155223140
 21
-148.543616971873230
  0
LINE
  8
0
  6
CONTINUOUS
 62
3
 10
524.636860844081640
 20
-148.543616971873230
 11
524.636860844081640
 21
-268.543620035729870
  0
LINE
  8
0
  6
DASHDOT
 62
4
 10
306.968775062228810
 20
-148.543616971873230
 11
561.792609610390170
 21
-148.543616971873230
  0
ARC
  8
0
  6
DASHED
 62
3
 10
516.813276155223090
 20
-123.586116971873250
 40
18.799999999999983
 50
100.598785266066050
 51
180.000000000000000
  0
ARC
  8
0
  6
DASHED
 62
3
 10
512.987521521136160
 20
-103.140980594735530
 40
1.999999999999958
 50
280.598785266065990
 51
2.862405226112724
  0
ARC
  8
0
  6
DASHED
 62
3
 10
518.580534618851970
 20
-102.861329939849720
 40
1.999999999999927
 50
182.862405226112710
 51
265.126025186159040
  0
LINE
  8
0
  6
DASHED
 62
3
 10
515.315147646906330
 20
-93.623546805538012
 11
520.408784575183290
 21
-195.496285371078100
  0
ARC
  8
0
  6
DASHED
 62
3
 10
516.813276155223090
 20
-123.586116971873250
 40
18.799999999999933
 50
35.808626813495749
 51
85.126025186157264
  0
LINE
  8
0
  6
DASHED
 62
3
 10
516.114149518008620
 20
-93.583596711982864
 11
514.516145775804030
 21
-93.663496899093047
  0
ARC
  8
0
  6
DASHED
 62
3
 10
509.971823014903070
 20
-98.896959135763154
 40
8.999999999999948
 50
346.260856815786500
 51
19.463936333592187
  0
LINE
  8
0
  6
DASHED
 62
3
 10
516.189055943423910
 20
-95.081725220299518
 11
516.538619262031030
 21
-102.072991592444390
  0
LINE
  8
0
  6
DASHED
 62
3
 10
516.189055943423910
 20
-95.081725220299518
 11
516.538619262031030
 21
-102.072991592444390
  0
LINE
  8
0
  6
DASHED
 62
3
 10
516.538619262031030
 20
-102.072991592444390
 11
517.516423074538810
 21
-102.024101401819050
  0
LINE
  8
0
  6
DASHED
 62
3
 10
516.189055943423910
 20
-95.081725220299518
 11
517.166859755931450
 21
-95.032835029674175
  0
ARC
  8
0
  6
DASHED
 62
3
 10
517.451504210611120
 20
-100.725724123265420
 40
1.299999237060550
 50
272.862387240019760
 51
346.260856815788600
  0
ARC
  8
0
  6
DASHED
 62
3
 10
517.231778619859140
 20
-96.331212308227691
 40
1.299999237060645
 50
19.463936333587132
 51
92.862405909348169
  0
LINE
  8
0
  6
DASHED
 62
3
 10
516.114149518008620
 20
-93.583596711982864
 11
521.207786446285580
 21
-195.456335277522840
  0
LINE
  8
0
  6
DASHED
 62
3
 10
514.516145775804030
 20
-93.663496899093047
 11
519.609782704081000
 21
-195.536235464633820
  0
LINE
  8
0
  6
DASHED
 62
3
 10
498.013276155223140
 20
-163.586116971873250
 11
498.013276155223140
 21
-123.586116971873250
  0
ARC
  8
0
  6
DASHED
 62
3
 10
518.813276155223090
 20
-163.586116971873250
 40
20.799999999999862
 50
185.047316781007880
 51
265.808273843992540
  0
ARC
  8
0
  6
DASHED
 62
3
 10
516.813276155223090
 20
-123.586116971873250
 40
18.799999999999837
 50
5.724810452223617
 51
35.808626813495749
  0
ARC
  8
0
  6
DASHED
 62
3
 10
518.813276155223090
 20
-163.586116971873250
 40
20.799999999999926
 50
334.359929784105190
 51
5.724810452223396
  0
ARC
  8
0
  6
DASHED
 62
3
 10
518.813276155223090
 20
-163.586116971873250
 40
20.800000000000040
 50
279.916536608230560
 51
334.359929784105190
  0
ARC
  8
0
  6
DASHED
 62
3
 10
518.813276155223090
 20
-163.586116971873250
 40
20.799999999999926
 50
334.359929784105190
 51
5.724810452223396
  0
LINE
  8
0
  6
DASHED
 62
3
 10
539.509535506844030
 20
-161.511304004292240
 11
535.519510569188010
 21
-121.710805251174970
  0
ARC
  8
0
  6
DASHED
 62
3
 10
517.146728888839560
 20
-186.325127948802560
 40
1.999999999999927
 50
2.862405226112724
 51
85.808273843998350
  0
ARC
  8
0
  6
DASHED
 62
3
 10
522.739741986555370
 20
-186.045477293916750
 40
1.999999999999995
 50
99.916536608232732
 51
182.862405226112400
  0
LINE
  8
0
  6
DASHED
 62
3
 10
519.609782704081000
 20
-195.536235464633820
 11
521.207786446285580
 21
-195.456335277522840
  0
INSERT
  8
0
  2
SYM25
 10
520.958098361566500
 20
-190.462573583133690
 41
-1.000000000000000
 42
1.000000000000000
 43
1.000000000000000
 50
2.862405226113666
  0
LINE
  8
0
  6
CONTINUOUS
 62
4
 10
-81.364486127948510
 20
-182.847217923382000
 11
-23.064486127949010
 21
-182.847217923382000
  0
LINE
  8
0
  6
CONTINUOUS
 62
4
 10
-81.364486127948510
 20
-181.258008130643250
 11
-23.064486127949010
 21
-181.258008130643250
  0
LINE
  8
0
  6
CONTINUOUS
 62
4
 10
-81.364486127948510
 20
-169.543616971873230
 11
-23.064486127949010
 21
-169.543616971873230
  0
LINE
  8
0
  6
CONTINUOUS
 62
4
 10
-81.364486127948510
 20
-172.381856651869380
 11
-23.064486127949010
 21
-172.381856651869380
  0
LINE
  8
0
  6
CONTINUOUS
 62
4
 10
-81.364486127948510
 20
-173.728258377367870
 11
-23.064486127949010
 21
-173.728258377367870
  0
LINE
  8
0
  6
CONTINUOUS
 62
4
 10
-81.364486127948510
 20
-176.820989369033210
 11
-23.064486127949010
 21
-176.820989369033210
  0
LINE
  8
0
  6
CONTINUOUS
 62
4
 10
-81.364486127948510
 20
-178.300012522510310
 11
-23.064486127949010
 21
-178.300012522510310
  0
LINE
  8
0
  6
CONTINUOUS
 62
4
 10
-163.722086474341440
 20
-189.584052378397470
 11
-23.064486127949010
 21
-189.584052378397470
  0
LINE
  8
0
  6
CONTINUOUS
 62
4
 10
-163.564486127970160
 20
-190.585530742212770
 11
-23.064486127949010
 21
-190.585530742212770
  0
LINE
  8
0
  6
CONTINUOUS
 62
4
 10
-81.364486127948510
 20
-116.240016020364460
 11
-23.064486127949010
 21
-116.240016020364460
  0
LINE
  8
0
  6
CONTINUOUS
 62
4
 10
-81.364486127948510
 20
-117.829225813103220
 11
-23.064486127949010
 21
-117.829225813103220
  0
LINE
  8
0
  6
CONTINUOUS
 62
4
 10
-81.364486127948510
 20
-129.543616971873230
 11
-23.064486127949010
 21
-129.543616971873230
  0
LINE
  8
0
  6
CONTINUOUS
 62
4
 10
-81.364486127948510
 20
-126.705377291877080
 11
-23.064486127949010
 21
-126.705377291877080
  0
LINE
  8
0
  6
CONTINUOUS
 62
4
 10
-81.364486127948510
 20
-125.358975566378600
 11
-23.064486127949010
 21
-125.358975566378600
  0
LINE
  8
0
  6
CONTINUOUS
 62
4
 10
-81.364486127948510
 20
-122.266244574713250
 11
-23.064486127949010
 21
-122.266244574713250
  0
LINE
  8
0
  6
CONTINUOUS
 62
4
 10
-81.364486127948510
 20
-120.787221421236150
 11
-23.064486127949010
 21
-120.787221421236150
  0
LINE
  8
0
  6
CONTINUOUS
 62
4
 10
-163.722086474341440
 20
-109.503181565348760
 11
-23.064486127949010
 21
-109.503181565348760
  0
LINE
  8
0
  6
CONTINUOUS
 62
4
 10
-163.564486127970160
 20
-108.501703201533470
 11
-23.064486127949010
 21
-108.501703201533470
  0
LINE
  8
0
  6
CONTINUOUS
 62
4
 10
-163.564486127970160
 20
-105.038961444768340
 11
-23.064486127949010
 21
-105.038961444768340
  0
LINE
  8
0
  6
CONTINUOUS
 62
4
 10
-163.564486127970160
 20
-103.410534376990420
 11
-23.064486127949010
 21
-103.410534376990420
  0
LINE
  8
0
  6
CONTINUOUS
 62
4
 10
-163.564486127970160
 20
-98.543616971873007
 11
-23.064486127949010
 21
-98.543616971873007
  0
LINE
  8
0
  6
CONTINUOUS
 62
4
 10
-163.564486127970160
 20
-99.043616971873234
 11
-23.064486127949010
 21
-99.043616971873234
  0
LINE
  8
0
  6
CONTINUOUS
 62
3
 10
-23.064486127949010
 20
-97.043616971873234
 11
-163.564486127970160
 21
-97.043616971873234
  0
LINE
  8
0
  6
CONTINUOUS
 62
3
 10
-163.564486127970160
 20
-95.543616971873007
 11
-163.564486127970160
 21
-108.543616971873230
  0
LINE
  8
0
  6
CONTINUOUS
 62
3
 10
-163.564486127970160
 20
-95.543616971873007
 11
-241.069331077062940
 21
-95.543616971873007
  0
POLYLINE
  8
0
  6
CONTINUOUS
 62
3
 66
1
 70
1
  0
VERTEX
  8
0
  6
CONTINUOUS
 62
3
 10
-169.864486127969940
 20
-196.870947926220880
  0
VERTEX
  8
0
  6
CONTINUOUS
 62
3
 10
-169.954795310074760
 20
-196.167990960020520
  0
VERTEX
  8
0
  6
CONTINUOUS
 62
3
 10
-170.222252325166890
 20
-195.492048235808430
  0
VERTEX
  8
0
  6
CONTINUOUS
 62
3
 10
-170.656578950147970
 20
-194.869095853403020
  0
VERTEX
  8
0
  6
CONTINUOUS
 62
3
 10
-171.241084256393150
 20
-194.323073523504430
  0
VERTEX
  8
0
  6
CONTINUOUS
 62
3
 10
-171.953306032777820
 20
-193.874964578037800
  0
VERTEX
  8
0
  6
CONTINUOUS
 62
3
 10
-172.765873995854010
 20
-193.541989592475060
  0
VERTEX
  8
0
  6
CONTINUOUS
 62
3
 10
-173.647561614494120
 20
-193.336944608776800
  0
VERTEX
  8
0
  6
CONTINUOUS
 62
3
 10
-174.564486127969930
 20
-193.267709390676030
  0
VERTEX
  8
0
  6
CONTINUOUS
 62
3
 10
-175.481410641445730
 20
-193.336944608776800
  0
VERTEX
  8
0
  6
CONTINUOUS
 62
3
 10
-176.363098260085850
 20
-193.541989592475060
  0
VERTEX
  8
0
  6
CONTINUOUS
 62
3
 10
-177.175666223162040
 20
-193.874964578037800
  0
VERTEX
  8
0
  6
CONTINUOUS
 62
3
 10
-177.887887999546710
 20
-194.323073523504430
  0
VERTEX
  8
0
  6
CONTINUOUS
 62
3
 10
-178.472393305791880
 20
-194.869095853403020
  0
VERTEX
  8
0
  6
CONTINUOUS
 62
3
 10
-178.906719930772970
 20
-195.492048235808430
  0
VERTEX
  8
0
  6
CONTINUOUS
 62
3
 10
-179.174176945865100
 20
-196.167990960020520
  0
VERTEX
  8
0
  6
CONTINUOUS
 62
3
 10
-179.264486127969920
 20
-196.870947926220880
  0
VERTEX
  8
0
  6
CONTINUOUS
 62
3
 10
-179.174176945865100
 20
-197.573904892421240
  0
VERTEX
  8
0
  6
CONTINUOUS
 62
3
 10
-178.906719930772970
 20
-198.249847616633330
  0
VERTEX
  8
0
  6
CONTINUOUS
 62
3
 10
-178.472393305791880
 20
-198.872799999038730
  0
VERTEX
  8
0
  6
CONTINUOUS
 62
3
 10
-177.887887999546680
 20
-199.418822328937320
  0
VERTEX
  8
0
  6
CONTINUOUS
 62
3
 10
-177.175666223162040
 20
-199.866931274403950
  0
VERTEX
  8
0
  6
CONTINUOUS
 62
3
 10
-176.363098260085850
 20
-200.199906259966700
  0
VERTEX
  8
0
  6
CONTINUOUS
 62
3
 10
-175.481410641445730
 20
-200.404951243664950
  0
VERTEX
  8
0
  6
CONTINUOUS
 62
3
 10
-174.564486127969930
 20
-200.474186461765730
  0
VERTEX
  8
0
  6
CONTINUOUS
 62
3
 10
-173.647561614494120
 20
-200.404951243664950
  0
VERTEX
  8
0
  6
CONTINUOUS
 62
3
 10
-172.765873995854010
 20
-200.199906259966700
  0
VERTEX
  8
0
  6
CONTINUOUS
 62
3
 10
-171.953306032777820
 20
-199.866931274403950
  0
VERTEX
  8
0
  6
CONTINUOUS
 62
3
 10
-171.241084256393180
 20
-199.418822328937320
  0
VERTEX
  8
0
  6
CONTINUOUS
 62
3
 10
-170.656578950147970
 20
-198.872799999038730
  0
VERTEX
  8
0
  6
CONTINUOUS
 62
3
 10
-170.222252325166890
 20
-198.249847616633330
  0
VERTEX
  8
0
  6
CONTINUOUS
 62
3
 10
-169.954795310074760
 20
-197.573904892421240
  0
SEQEND
  8
0
  6
CONTINUOUS
 62
3
  0
LINE
  8
0
  6
CONTINUOUS
 62
3
 10
-174.564486127970160
 20
-100.399695949148050
 11
-176.564486127970160
 21
-102.052337588271480
  0
LINE
  8
0
  6
CONTINUOUS
 62
3
 10
-172.564486127970160
 20
-99.223910463525272
 11
-174.564486127970160
 21
-100.399695949148050
  0
LINE
  8
0
  6
CONTINUOUS
 62
3
 10
-174.564486127970160
 20
-100.399695949148050
 11
-172.564486127970160
 21
-102.052337588271480
  0
LINE
  8
0
  6
CONTINUOUS
 62
3
 10
-176.564486127970160
 20
-99.223910463525272
 11
-174.564486127970160
 21
-100.399695949148050
  0
POLYLINE
  8
0
  6
CONTINUOUS
 62
3
 66
1
 70
1
  0
VERTEX
  8
0
  6
CONTINUOUS
 62
3
 10
-169.864486127969940
 20
-102.216286017525590
  0
VERTEX
  8
0
  6
CONTINUOUS
 62
3
 10
-169.954795310074760
 20
-101.513329051325220
  0
VERTEX
  8
0
  6
CONTINUOUS
 62
3
 10
-170.222252325166890
 20
-100.837386327113130
  0
VERTEX
  8
0
  6
CONTINUOUS
 62
3
 10
-170.656578950147970
 20
-100.214433944707730
  0
VERTEX
  8
0
  6
CONTINUOUS
 62
3
 10
-171.241084256393150
 20
-99.668411614809159
  0
VERTEX
  8
0
  6
CONTINUOUS
 62
3
 10
-171.953306032777820
 20
-99.220302669342544
  0
VERTEX
  8
0
  6
CONTINUOUS
 62
3
 10
-172.765873995854010
 20
-98.887327683779773
  0
VERTEX
  8
0
  6
CONTINUOUS
 62
3
 10
-173.647561614494120
 20
-98.682282700081529
  0
VERTEX
  8
0
  6
CONTINUOUS
 62
3
 10
-174.564486127969930
 20
-98.613047481980757
  0
VERTEX
  8
0
  6
CONTINUOUS
 62
3
 10
-175.481410641445730
 20
-98.682282700081529
  0
VERTEX
  8
0
  6
CONTINUOUS
 62
3
 10
-176.363098260085850
 20
-98.887327683779773
  0
VERTEX
  8
0
  6
CONTINUOUS
 62
3
 10
-177.175666223162040
 20
-99.220302669342544
  0
VERTEX
  8
0
  6
CONTINUOUS
 62
3
 10
-177.887887999546710
 20
-99.668411614809159
  0
VERTEX
  8
0
  6
CONTINUOUS
 62
3
 10
-178.472393305791880
 20
-100.214433944707730
  0
VERTEX
  8
0
  6
CONTINUOUS
 62
3
 10
-178.906719930772970
 20
-100.837386327113130
  0
VERTEX
  8
0
  6
CONTINUOUS
 62
3
 10
-179.174176945865100
 20
-101.513329051325220
  0
VERTEX
  8
0
  6
CONTINUOUS
 62
3
 10
-179.264486127969920
 20
-102.216286017525590
  0
VERTEX
  8
0
  6
CONTINUOUS
 62
3
 10
-179.174176945865100
 20
-102.919242983725950
  0
VERTEX
  8
0
  6
CONTINUOUS
 62
3
 10
-178.906719930772970
 20
-103.595185707938040
  0
VERTEX
  8
0
  6
CONTINUOUS
 62
3
 10
-178.472393305791880
 20
-104.218138090343440
  0
VERTEX
  8
0
  6
CONTINUOUS
 62
3
 10
-177.887887999546680
 20
-104.764160420242020
  0
VERTEX
  8
0
  6
CONTINUOUS
 62
3
 10
-177.175666223162040
 20
-105.212269365708630
  0
VERTEX
  8
0
  6
CONTINUOUS
 62
3
 10
-176.363098260085850
 20
-105.545244351271400
  0
VERTEX
  8
0
  6
CONTINUOUS
 62
3
 10
-175.481410641445730
 20
-105.750289334969650
  0
VERTEX
  8
0
  6
CONTINUOUS
 62
3
 10
-174.564486127969930
 20
-105.819524553070420
  0
VERTEX
  8
0
  6
CONTINUOUS
 62
3
 10
-173.647561614494120
 20
-105.750289334969650
  0
VERTEX
  8
0
  6
CONTINUOUS
 62
3
 10
-172.765873995854010
 20
-105.545244351271400
  0
VERTEX
  8
0
  6
CONTINUOUS
 62
3
 10
-171.953306032777820
 20
-105.212269365708630
  0
VERTEX
  8
0
  6
CONTINUOUS
 62
3
 10
-171.241084256393180
 20
-104.764160420242020
  0
VERTEX
  8
0
  6
CONTINUOUS
 62
3
 10
-170.656578950147970
 20
-104.218138090343440
  0
VERTEX
  8
0
  6
CONTINUOUS
 62
3
 10
-170.222252325166890
 20
-103.595185707938040
  0
VERTEX
  8
0
  6
CONTINUOUS
 62
3
 10
-169.954795310074760
 20
-102.919242983725950
  0
SEQEND
  8
0
  6
CONTINUOUS
 62
3
  0
LINE
  8
0
  6
CONTINUOUS
 62
3
 10
-173.564486127970160
 20
-149.543616971873230
 11
-173.564486127970160
 21
-114.543616971873230
  0
LINE
  8
0
  6
CONTINUOUS
 62
4
 10
-173.564486127970160
 20
-116.240016020364460
 11
-171.364486127948510
 21
-116.240016020364460
  0
LINE
  8
0
  6
CONTINUOUS
 62
4
 10
-173.564486127970160
 20
-117.829225813103220
 11
-171.364486127948510
 21
-117.829225813103220
  0
LINE
  8
0
  6
CONTINUOUS
 62
4
 10
-173.564486127970160
 20
-120.787221421236150
 11
-171.364486127948510
 21
-120.787221421236150
  0
LINE
  8
0
  6
CONTINUOUS
 62
4
 10
-173.564486127970160
 20
-122.266244574713250
 11
-171.364486127948510
 21
-122.266244574713250
  0
LINE
  8
0
  6
CONTINUOUS
 62
4
 10
-173.564486127970160
 20
-125.358975566378600
 11
-171.364486127948510
 21
-125.358975566378600
  0
LINE
  8
0
  6
CONTINUOUS
 62
4
 10
-173.564486127970160
 20
-126.705377291877080
 11
-171.364486127948510
 21
-126.705377291877080
  0
LINE
  8
0
  6
CONTINUOUS
 62
4
 10
-173.564486127970160
 20
-129.543616971873230
 11
-171.364486127948510
 21
-129.543616971873230
  0
ARC
  8
0
  6
CONTINUOUS
 62
3
 10
-166.564486127970160
 20
-108.543616971873230
 40
3.000000000000000
 50
270.000000000000000
 51
0.000000000000000
  0
LINE
  8
0
  6
CONTINUOUS
 62
3
 10
-166.564486127970160
 20
-111.543616971873230
 11
-170.564486127970160
 21
-111.543616971873230
  0
ARC
  8
0
  6
CONTINUOUS
 62
3
 10
-170.564486127970160
 20
-114.543616971873230
 40
3.000000000000000
 50
90.000000000000000
 51
180.000000000000000
  0
LINE
  8
0
  6
CONTINUOUS
 62
3
 10
-173.564486127970160
 20
-149.543616971873230
 11
-173.564486127970160
 21
-184.543616971873230
  0
LINE
  8
0
  6
CONTINUOUS
 62
4
 10
-173.564486127970160
 20
-182.847217923382000
 11
-171.364486127948510
 21
-182.847217923382000
  0
LINE
  8
0
  6
CONTINUOUS
 62
4
 10
-173.564486127970160
 20
-181.258008130643250
 11
-171.364486127948510
 21
-181.258008130643250
  0
LINE
  8
0
  6
CONTINUOUS
 62
4
 10
-173.564486127970160
 20
-178.300012522510310
 11
-171.364486127948510
 21
-178.300012522510310
  0
LINE
  8
0
  6
CONTINUOUS
 62
4
 10
-173.564486127970160
 20
-176.820989369033210
 11
-171.364486127948510
 21
-176.820989369033210
  0
LINE
  8
0
  6
CONTINUOUS
 62
4
 10
-173.564486127970160
 20
-173.728258377367870
 11
-171.364486127948510
 21
-173.728258377367870
  0
LINE
  8
0
  6
CONTINUOUS
 62
4
 10
-173.564486127970160
 20
-172.381856651869380
 11
-171.364486127948510
 21
-172.381856651869380
  0
LINE
  8
0
  6
CONTINUOUS
 62
4
 10
-173.564486127970160
 20
-169.543616971873230
 11
-171.364486127948510
 21
-169.543616971873230
  0
ARC
  8
0
  6
CONTINUOUS
 62
3
 10
-166.564486127970160
 20
-190.543616971873230
 40
3.000000000000000
 50
0.000000000000000
 51
90.000000000000000
  0
LINE
  8
0
  6
CONTINUOUS
 62
3
 10
-166.564486127970160
 20
-187.543616971873230
 11
-170.564486127970160
 21
-187.543616971873230
  0
ARC
  8
0
  6
CONTINUOUS
 62
3
 10
-170.564486127970160
 20
-184.543616971873230
 40
3.000000000000000
 50
180.000000000000000
 51
270.000000000000000
  0
LINE
  8
0
  6
CONTINUOUS
 62
3
 10
-163.564486127970160
 20
-190.543616971873230
 11
-163.564486127970160
 21
-203.543616971873460
  0
LINE
  8
0
  6
CONTINUOUS
 62
3
 10
-171.364486127948280
 20
-114.543616971873230
 11
-171.364486127948960
 21
-149.543616971873460
  0
LINE
  8
0
  6
CONTINUOUS
 62
3
 10
-81.364486127948283
 20
-114.543616971873230
 11
-81.364486127948965
 21
-149.543616971874830
  0
ARC
  8
0
  6
CONTINUOUS
 62
3
 10
-170.364486127948510
 20
-114.543616971873230
 40
1.000000000000000
 50
90.000000000000000
 51
180.000000000000000
  0
LINE
  8
0
  6
CONTINUOUS
 62
3
 10
-82.364486127948510
 20
-113.543616971873230
 11
-170.364486127948510
 21
-113.543616971873230
  0
ARC
  8
0
  6
CONTINUOUS
 62
3
 10
-82.364486127948510
 20
-114.543616971873230
 40
1.000000000000227
 50
0.000000000000000
 51
90.000000000000000
  0
LINE
  8
0
  6
CONTINUOUS
 62
3
 10
-82.364486127948510
 20
-185.543616971873230
 11
-170.364486127948510
 21
-185.543616971873230
  0
ARC
  8
0
  6
CONTINUOUS
 62
3
 10
-170.364486127948510
 20
-184.543616971873230
 40
0.999999999999773
 50
180.000000000000000
 51
270.000000000000000
  0
LINE
  8
0
  6
CONTINUOUS
 62
3
 10
-171.364486127948280
 20
-184.543616971873230
 11
-171.364486127948960
 21
-149.543616971873010
  0
LINE
  8
0
  6
CONTINUOUS
 62
3
 10
-81.364486127948283
 20
-184.543616971873230
 11
-81.364486127948965
 21
-149.543616971871640
  0
ARC
  8
0
  6
CONTINUOUS
 62
3
 10
-82.364486127948510
 20
-184.543616971873230
 40
1.000000000000000
 50
270.000000000000000
 51
0.000000000000000
  0
LINE
  8
0
  6
DASHDOT
 62
4
 10
476.133289150660860
 20
-149.543616971873230
 11
403.140220525321640
 21
-149.543616971873230
  0
ARC
  8
0
  6
CONTINUOUS
 62
3
 10
439.513276155223140
 20
-148.543616971873230
 40
31.000000000000000
 50
180.000000000000000
 51
0.000000000000000
  0
CIRCLE
  8
0
  6
CONTINUOUS
 62
3
 10
439.513276155223140
 20
-148.543616971873230
 40
31.000000000000057
  0
CIRCLE
  8
0
  6
CONTINUOUS
 62
3
 10
439.513276155223140
 20
-148.543616971873230
 40
40.999999999999943
  0
ARC
  8
0
  6
CONTINUOUS
 62
3
 10
439.513276155223140
 20
-148.543616971873230
 40
49.000000000000000
 50
270.000000000000000
 51
356.692637820329420
  0
ARC
  8
0
  6
CONTINUOUS
 62
3
 10
439.513276155223140
 20
-563.543616971873230
 40
462.518012424385230
 50
85.577622414021917
 51
90.000000000000000
  0
ARC
  8
0
  6
CONTINUOUS
 62
3
 10
-241.069331077062940
 20
-182.943616971873550
 40
20.599999999999795
 50
235.000000000000260
 51
270.000000000000000
  0
ARC
  8
0
  6
CONTINUOUS
 62
3
 10
-258.964486127970250
 20
-192.387237105502890
 40
2.599999999999909
 50
180.000000000000000
 51
234.999999999994540
  0
LINE
  8
0
  6
CONTINUOUS
 62
3
 10
-261.564486127970160
 20
-192.387237105502890
 11
-261.564486127970160
 21
-149.543616971873230
  0
LINE
  8
0
  6
CONTINUOUS
 62
3
 10
-252.885005665894310
 20
-199.818149084226660
 11
-260.455784862483090
 21
-194.517032420654000
  0
ARC
  8
0
  6
CONTINUOUS
 62
3
 10
-241.069331077062940
 20
-116.143616971872910
 40
20.599999999999909
 50
90.000000000000000
 51
124.999999999999780
  0
ARC
  8
0
  6
CONTINUOUS
 62
3
 10
-258.964486127970250
 20
-106.699996838243570
 40
2.600000000000037
 50
125.000000000002600
 51
180.000000000000000
  0
LINE
  8
0
  6
CONTINUOUS
 62
3
 10
-261.564486127970160
 20
-106.699996838243570
 11
-261.564486127970160
 21
-149.543616971873230
  0
LINE
  8
0
  6
CONTINUOUS
 62
3
 10
-252.885005665894310
 20
-99.269084859519580
 11
-260.455784862483090
 21
-104.570201523092460
  0
LINE
  8
0
  6
CONTINUOUS
 62
3
 10
-176.564486127970160
 20
-199.863323480221200
 11
-174.564486127970160
 21
-198.687537994598420
  0
LINE
  8
0
  6
CONTINUOUS
 62
3
 10
-174.564486127970160
 20
-198.687537994598420
 11
-172.564486127970160
 21
-197.034896355474980
  0
LINE
  8
0
  6
CONTINUOUS
 62
3
 10
-172.564486127970160
 20
-199.863323480221200
 11
-174.564486127970160
 21
-198.687537994598420
  0
LINE
  8
0
  6
CONTINUOUS
 62
3
 10
-174.564486127970160
 20
-198.687537994598420
 11
-176.564486127970160
 21
-197.034896355474980
  0
LINE
  8
0
  6
CONTINUOUS
 62
3
 10
-163.564486127970160
 20
-203.543616971873460
 11
-241.069331077062940
 21
-203.543616971873460
  0
LINE
  8
0
  6
CONTINUOUS
 62
3
 10
-23.064486127949010
 20
-202.043616971873230
 11
-163.564486127970160
 21
-202.043616971873230
  0
LINE
  8
0
  6
CONTINUOUS
 62
4
 10
-163.564486127970160
 20
-200.043616971873230
 11
-23.064486127949010
 21
-200.043616971873230
  0
LINE
  8
0
  6
CONTINUOUS
 62
4
 10
-163.564486127970160
 20
-200.543616971873460
 11
-23.064486127949010
 21
-200.543616971873460
  0
LINE
  8
0
  6
CONTINUOUS
 62
4
 10
-163.564486127970160
 20
-195.676699566756040
 11
-23.064486127949010
 21
-195.676699566756040
  0
LINE
  8
0
  6
CONTINUOUS
 62
4
 10
-163.564486127970160
 20
-194.048272498978120
 11
-23.064486127949010
 21
-194.048272498978120
  0
CIRCLE
  8
0
  6
CONTINUOUS
 62
3
 10
439.513276155223140
 20
-148.543616971873230
 40
3.324999999999989
  0
CIRCLE
  8
0
  6
CONTINUOUS
 62
4
 10
439.513276155223140
 20
-148.543616971873230
 40
4.000000000000000
  0
ARC
  8
0
  6
CONTINUOUS
 62
3
 10
407.513276155223140
 20
-149.779191241482290
 40
84.999999999999972
 50
94.422377585978197
 51
180.000000000000000
  0
ARC
  8
0
  6
CONTINUOUS
 62
3
 10
439.513276155223140
 20
-563.543616971873230
 40
462.518012424385230
 50
90.000000000000000
 51
94.422377585978083
  0
ARC
  8
0
  6
CONTINUOUS
 62
3
 10
319.513276155223140
 20
-268.543620035729870
 40
3.000000000000000
 50
270.000000000000000
 51
0.000000000000000
  0
ARC
  8
0
  6
CONTINUOUS
 62
3
 10
317.513273041547560
 20
-274.543620035729870
 40
3.000000000000000
 50
90.000000000000000
 51
180.000000000000000
  0
ARC
  8
0
  6
CONTINUOUS
 62
3
 10
376.013276155223140
 20
-255.843620035730050
 40
8.000000000000000
 50
180.000000000000000
 51
270.000000000000000
  0
ARC
  8
0
  6
CONTINUOUS
 62
3
 10
503.013276155223140
 20
-255.843620035730050
 40
8.000000000000000
 50
270.000000000000000
 51
0.000000000000000
  0
ARC
  8
0
  6
CONTINUOUS
 62
3
 10
356.995263730837450
 20
-268.543620035729870
 40
3.000000000000000
 50
270.000000000000000
 51
0.000000000000000
  0
ARC
  8
0
  6
CONTINUOUS
 62
3
 10
522.031288579609280
 20
-268.543620035729870
 40
3.000000000000000
 50
180.000000000000000
 51
270.000000000000000
  0
ARC
  8
0
  6
CONTINUOUS
 62
3
 10
361.513274162470680
 20
-293.543620583736810
 40
2.000000000000000
 50
90.000000000000000
 51
180.000000000000000
  0
ARC
  8
0
  6
CONTINUOUS
 62
3
 10
517.513278147976050
 20
-293.543620583736810
 40
2.000000000000000
 50
0.000000000000000
 51
90.000000000000000
  0
ARC
  8
0
  6
CONTINUOUS
 62
3
 10
372.513276155223140
 20
-283.543617096420350
 40
10.000000000000053
 50
306.869864344412290
 51
315.572968020398260
  0
ARC
  8
0
  6
CONTINUOUS
 62
3
 10
506.513276155223140
 20
-283.543617096420350
 40
9.999999999999833
 50
224.427031979601790
 51
233.130135655587680
  0
ARC
  8
0
  6
CONTINUOUS
 62
3
 10
351.389691466364180
 20
-268.543620035729870
 40
3.000000000000000
 50
270.000000000000000
 51
0.000000000000000
  0
ARC
  8
0
  6
CONTINUOUS
 62
3
 10
324.989691466364090
 20
-268.543620035729870
 40
3.000000000000000
 50
270.000000000000000
 51
0.000000000000000
  0
ARC
  8
0
  6
CONTINUOUS
 62
3
 10
554.036860844082180
 20
-268.543620035729870
 40
3.000000000000000
 50
180.000000000000000
 51
270.000000000000000
  0
ARC
  8
0
  6
CONTINUOUS
 62
3
 10
559.513276155224050
 20
-268.543620035729870
 40
3.000000000000000
 50
180.000000000000000
 51
270.000000000000000
  0
ARC
  8
0
  6
CONTINUOUS
 62
3
 10
527.636860844081640
 20
-268.543620035729870
 40
3.000000000000000
 50
180.000000000000000
 51
270.000000000000000
  0
ARC
  8
0
  6
CONTINUOUS
 62
3
 10
561.513279268899170
 20
-274.543620035729870
 40
3.000000000000000
 50
0.000000000000000
 51
90.000000000000000
  0
ARC
  8
0
  6
CONTINUOUS
 62
3
 10
439.513276155223140
 20
-563.543616971873230
 40
500.000000000000000
 50
90.000000000000000
 51
94.422377585978055
  0
ARC
  8
0
  6
CONTINUOUS
 62
3
 10
439.513276155223140
 20
-563.543616971873230
 40
500.000000000000230
 50
85.577622414021945
 51
90.000000000000000
  0
CIRCLE
  8
0
  6
CONTINUOUS
 62
3
 10
439.513276155223140
 20
-48.543616971873234
 40
10.000000000000000
  0
ARC
  8
0
  6
CONTINUOUS
 62
3
 10
429.013276155223140
 20
-38.543616971873234
 40
10.000000000000000
 50
90.000000000000000
 51
180.000000000000000
  0
ARC
  8
0
  6
CONTINUOUS
 62
3
 10
450.013276155223140
 20
-38.543616971873234
 40
10.000000000000000
 50
0.000000000000000
 51
90.000000000000000
  0
ARC
  8
0
  6
CONTINUOUS
 62
3
 10
439.513276155223140
 20
-148.543616971873230
 40
31.000000000000256
 50
70.008590721901967
 51
180.000000000000000
  0
LINE
  8
0
  6
DASHDOT
 62
4
 10
439.513276155223140
 20
-295.677691389385470
 11
439.513276155223140
 21
-12.329068402977100
  0
LINE
  8
0
  6
CONTINUOUS
 62
3
 10
327.989691466364090
 20
-148.543616971873230
 11
327.989691466364090
 21
-268.543620035729870
  0
LINE
  8
0
  6
CONTINUOUS
 62
3
 10
322.513276155223140
 20
-268.543620035729870
 11
322.513276155223140
 21
-149.779191241482290
  0
LINE
  8
0
  6
CONTINUOUS
 62
3
 10
314.513273041547560
 20
-293.543620583736810
 11
314.513273041547560
 21
-274.543620035729870
  0
LINE
  8
0
  6
CONTINUOUS
 62
3
 10
439.513276155223140
 20
-263.843620035730050
 11
376.013276155223140
 21
-263.843620035730050
  0
LINE
  8
0
  6
CONTINUOUS
 62
3
 10
439.513276155223140
 20
-263.843620035730050
 11
503.013276155223140
 21
-263.843620035730050
  0
LINE
  8
0
  6
CONTINUOUS
 62
3
 10
378.513271505465130
 20
-291.543620583736810
 11
361.513274162470680
 21
-291.543620583736810
  0
LINE
  8
0
  6
CONTINUOUS
 62
3
 10
500.513280804981150
 20
-291.543620583736810
 11
517.513278147976050
 21
-291.543620583736810
  0
LINE
  8
0
  6
CONTINUOUS
 62
3
 10
556.513276155224050
 20
-268.543620035729870
 11
556.513276155224050
 21
-149.779191241482290
  0
LINE
  8
0
  6
CONTINUOUS
 62
3
 10
439.513276155223140
 20
-290.543620459189700
 11
379.654701287590800
 21
-290.543620459189700
  0
LINE
  8
0
  6
DASHDOT
 62
4
 10
332.013273477462010
 20
-301.368079275348460
 11
332.013273477462010
 21
-265.830042074875560
  0
LINE
  8
0
  6
CONTINUOUS
 62
3
 10
359.513274162470680
 20
-293.543620583736810
 11
314.513273041547560
 21
-293.543620583736810
  0
LINE
  8
0
  6
CONTINUOUS
 62
3
 10
439.513276155223140
 20
-271.543620035729870
 11
317.513273041547560
 21
-271.543620035729870
  0
LINE
  8
0
  6
DASHDOT
 62
4
 10
547.013278832983810
 20
-301.368079275348460
 11
547.013278832983810
 21
-265.830042074875560
  0
LINE
  8
0
  6
CONTINUOUS
 62
3
 10
519.513278147976050
 20
-293.543620583736810
 11
564.513279268899170
 21
-293.543620583736810
  0
LINE
  8
0
  6
CONTINUOUS
 62
3
 10
564.513279268899170
 20
-293.543620583736810
 11
564.513279268899170
 21
-274.543620035729870
  0
LINE
  8
0
  6
CONTINUOUS
 62
3
 10
439.513276155223140
 20
-290.543620459189700
 11
499.371851022855480
 21
-290.543620459189700
  0
LINE
  8
0
  6
CONTINUOUS
 62
3
 10
439.513276155223140
 20
-271.543620035729870
 11
561.513279268899170
 21
-271.543620035729870
  0
LINE
  8
0
  6
CONTINUOUS
 62
3
 10
419.013276155223140
 20
-38.543616971873234
 11
419.013276155223140
 21
-63.964043730532467
  0
LINE
  8
0
  6
DASHDOT
 62
4
 10
462.681189154104690
 20
-48.543616971873234
 11
415.658675252569990
 21
-48.543616971873234
  0
LINE
  8
0
  6
CONTINUOUS
 62
3
 10
450.013276155223140
 20
-28.543616971873234
 11
429.013276155223140
 21
-28.543616971873234
  0
LINE
  8
0
  6
CONTINUOUS
 62
3
 10
460.013276155223140
 20
-38.543616971873234
 11
460.013276155223140
 21
-63.964043730532467
  0
ENDSEC
  0
EOF
