  0
SECTION
  2
HEADER
  9
$TEXTSIZE
 40
2.5
  9
$ACADVER
  1
AC1009
  9
$DIMASZ
 40
3.863703297614046
  9
$DIMEXE
 40
2.000000000000000
  9
$DIMEXO
 40
1.000000000000000
  9
$DIMLFAC
 40
1.000000000000000
  9
$DIMSCALE
 40
1.000000000000000
  9
$DIMTAD
 70
1
  9
$DIMTFAC
 40
0.625000000000000
  9
$DIMTXT
 40
3.200000047683716
  9
$LUPREC
 70
3
  9
$REGENMODE
 70
1
  9
$TEXTSTYLE
  7
STANDARD1
  0
ENDSEC
  0
SECTION
  2
TABLES
  0
TABLE
  2
LTYPE
 70
4
  0
LTYPE
  2
CONTINUOUS
 70
64
  3
Solid line
 72
65
 73
0
 40
0.0
  0
LTYPE
  2
DASHED
 70
64
  3
-- -- -- -- -- -- -- -- -- -- -- -- -- -- --
 72
65
 73
2
 40
0.75
 49
0.5
 49
-0.25
  0
LTYPE
  2
DASHDOT
 70
64
  3
__ . __ . __ . __ . __ . __ . __ . __ . __ . __
 72
65
 73
4
 40
1.0
 49
0.5
 49
-0.25
 49
0.0
 49
-0.25
  0
LTYPE
  2
DIVIDE
 70
64
  3
__ . . __ . . __ . . __ . . __ . . __ . . __
 72
65
 73
6
 40
1.25
 49
0.5
 49
-0.25
 49
0.0
 49
-0.25
 49
0.0
 49
-0.25
  0
ENDTAB
  0
TABLE
  2
LAYER
 70
1
  0
LAYER
  2
0
 70
64
 62
2
  6
CONTINUOUS
  0
ENDTAB
  0
TABLE
  2
STYLE
 70
4
  0
STYLE
  2
STANDARD1
 70
64
 40
0.0
 41
1.0
 50
0.0
 71
0
 42
3.200000047683716
  3
MONOTXT
  4
BIGFONT
  0
STYLE
  2
STANDARD2
 70
68
 40
0.0
 41
1.0
 50
0.0
 71
0
 42
3.200000047683716
  3
MONOTXT
  4
BIGFONT
  0
STYLE
  2
STANDARD3
 70
64
 40
0.0
 41
1.0
 50
0.0
 71
0
 42
3.200000047683716
  3
MONOTXT
  4

  0
STYLE
  2
STANDARD4
 70
68
 40
0.0
 41
1.0
 50
0.0
 71
0
 42
3.200000047683716
  3
MONOTXT
  4

  0
ENDTAB
  0
TABLE
  2
VIEW
 70
0
  0
ENDTAB
  0
ENDSEC
  0
SECTION
  2
BLOCKS
  0
BLOCK
  8
0
  2
ZU_SYM_1
 70
64
 10
0.000000000000000
 20
0.000000000000000
  0
LINE
  8
0
  6
CONTINUOUS
 62
256
 10
0.000000000000000
 20
-4.249999046325684
 11
-5.000000000000000
 21
-4.249999046325684
  0
LINE
  8
0
  6
CONTINUOUS
 62
256
 10
0.000000000000000
 20
4.249999046325684
 11
-5.000000000000000
 21
4.249999046325684
  0
LINE
  8
0
  6
CONTINUOUS
 62
256
 10
-5.000000000000000
 20
-4.249999046325684
 11
-5.000000000000000
 21
4.249999046325684
  0
LINE
  8
0
  6
CONTINUOUS
 62
256
 10
0.000000000000000
 20
-4.249999046325684
 11
0.000000000000000
 21
4.249999046325684
  0
POINT
  8
0
  6
CONTINUOUS
 62
256
 10
0.000000000000000
 20
0.000000000000000
  0
ENDBLK
  8
0
  0
BLOCK
  8
0
  2
ZU_SYM_2
 70
64
 10
0.000000000000000
 20
0.000000000000000
  0
ARC
  8
0
  6
CONTINUOUS
 62
256
 10
-0.979025304317474
 20
-2.200000762939453
 40
1.299999237060547
 50
196.601531107481040
 51
270.000000000000000
  0
ARC
  8
0
  6
CONTINUOUS
 62
256
 10
-0.979025304317474
 20
2.200000762939453
 40
1.299999237060547
 50
90.000000000000000
 51
163.398451589674950
  0
LINE
  8
0
  6
CONTINUOUS
 62
256
 10
0.000000000000000
 20
-3.500000000000000
 11
-0.979025304317474
 21
-3.500000000000000
  0
LINE
  8
0
  6
CONTINUOUS
 62
256
 10
0.000000000000000
 20
3.500000000000000
 11
-0.979025304317474
 21
3.500000000000000
  0
LINE
  8
0
  6
CONTINUOUS
 62
256
 10
0.000000000000000
 20
-3.500000000000000
 11
0.000000000000000
 21
3.500000000000000
  0
LINE
  8
0
  6
CONTINUOUS
 62
256
 10
0.000000000000000
 20
-3.500000000000000
 11
0.000000000000000
 21
3.500000000000000
  0
POINT
  8
0
  6
CONTINUOUS
 62
256
 10
0.000000000000000
 20
0.000000000000000
  0
ARC
  8
0
  6
CONTINUOUS
 62
256
 10
6.399999618530273
 20
0.000000000000000
 40
9.000000000000000
 50
163.398451589674950
 51
196.601531107481040
  0
ENDBLK
  8
0
  0
BLOCK
  8
0
  2
ZU_SYM_3
 70
64
 10
0.000000000000000
 20
0.000000000000000
  0
ARC
  8
0
  6
CONTINUOUS
 62
256
 10
-0.979025304317474
 20
-2.200000762939453
 40
1.299999237060547
 50
196.601531107481040
 51
270.000000000000000
  0
ARC
  8
0
  6
CONTINUOUS
 62
256
 10
-0.979025304317474
 20
2.200000762939453
 40
1.299999237060547
 50
90.000000000000000
 51
163.398451589674950
  0
LINE
  8
0
  6
CONTINUOUS
 62
256
 10
0.000000000000000
 20
-3.500000000000000
 11
-0.979025304317474
 21
-3.500000000000000
  0
LINE
  8
0
  6
CONTINUOUS
 62
256
 10
0.000000000000000
 20
3.500000000000000
 11
-0.979025304317474
 21
3.500000000000000
  0
LINE
  8
0
  6
CONTINUOUS
 62
256
 10
0.000000000000000
 20
-3.500000000000000
 11
0.000000000000000
 21
3.500000000000000
  0
LINE
  8
0
  6
CONTINUOUS
 62
256
 10
0.000000000000000
 20
-3.500000000000000
 11
0.000000000000000
 21
3.500000000000000
  0
POINT
  8
0
  6
CONTINUOUS
 62
256
 10
0.000000000000000
 20
0.000000000000000
  0
ARC
  8
0
  6
CONTINUOUS
 62
256
 10
6.399999618530273
 20
0.000000000000000
 40
9.000000000000000
 50
163.398451589674950
 51
196.601531107481040
  0
ENDBLK
  8
0
  0
ENDSEC
  0
SECTION
  2
ENTITIES
  0
ARC
  8
0
  6
CONTINUOUS
 62
256
 10
163.255794719384990
 20
-82.863068417540504
 40
0.399999999999636
 50
180.000000000000000
 51
270.000000000000000
  0
LINE
  8
0
  6
CONTINUOUS
 62
256
 10
165.415602340520310
 20
-83.113068417540504
 11
164.855794719384900
 21
-83.263068417540126
  0
LINE
  8
0
  6
CONTINUOUS
 62
256
 10
164.855794719384900
 20
-83.263068417540126
 11
163.255794719384990
 21
-83.263068417540126
  0
LINE
  8
0
  6
CONTINUOUS
 62
256
 10
190.455794719384810
 20
-83.113068417540504
 11
165.415602340520310
 21
-83.113068417540504
  0
ARC
  8
0
  6
CONTINUOUS
 62
256
 10
190.455794719384810
 20
-83.513068417540126
 40
0.399999999999636
 50
0.000000000000000
 51
90.000000000000000
  0
LINE
  8
0
  6
CONTINUOUS
 62
256
 10
190.855794719384900
 20
-92.613068417540489
 11
190.855794719384900
 21
-83.513068417540126
  0
ARC
  8
0
  6
CONTINUOUS
 62
256
 10
163.255794719384990
 20
118.550076972980150
 40
0.400000000000091
 50
90.000000000000000
 51
180.000000000000000
  0
ARC
  8
0
  6
CONTINUOUS
 62
256
 10
190.455794719384810
 20
119.200076972980240
 40
0.400000000000091
 50
270.000000000000000
 51
0.000000000000000
  0
LINE
  8
0
  6
CONTINUOUS
 62
256
 10
190.455794719384810
 20
118.800076972980610
 11
165.415602340520310
 21
118.800076972980610
  0
LINE
  8
0
  6
CONTINUOUS
 62
256
 10
164.855794719384900
 20
118.950076972980240
 11
163.255794719384990
 21
118.950076972980240
  0
LINE
  8
0
  6
CONTINUOUS
 62
256
 10
165.415602340520310
 20
118.800076972980610
 11
164.855794719384900
 21
118.950076972980240
  0
LINE
  8
0
  6
CONTINUOUS
 62
256
 10
165.855794719384900
 20
118.800076972980620
 11
165.855794719384900
 21
116.300076972980620
  0
LINE
  8
0
  6
CONTINUOUS
 62
256
 10
190.855794719384900
 20
116.300076972980620
 11
165.855795733249580
 21
116.300076972980620
  0
LINE
  8
0
  6
CONTINUOUS
 62
256
 10
190.855794719384900
 20
128.300076972980610
 11
190.855794719384900
 21
116.300076972980630
  0
LINE
  8
0
  6
CONTINUOUS
 62
256
 10
168.743839827973260
 20
-89.612824276915489
 11
190.855794719384900
 21
-89.612824276915489
  0
ARC
  8
0
  6
CONTINUOUS
 62
256
 10
168.743839827973260
 20
-92.500869385503393
 40
2.888045108587903
 50
90.000000000000000
 51
182.226471171998070
  0
LINE
  8
0
  6
CONTINUOUS
 62
256
 10
190.855794719384900
 20
-92.613068417540489
 11
190.855794719384900
 21
-101.713068417540850
  0
ARC
  8
0
  6
CONTINUOUS
 62
256
 10
190.455794719384810
 20
-101.713068417540850
 40
0.399999999999636
 50
270.000000000000000
 51
0.000000000000000
  0
LINE
  8
0
  6
CONTINUOUS
 62
256
 10
162.655794719385090
 20
-81.541144897490085
 11
162.855794719384900
 21
-81.741144897489903
  0
LINE
  8
0
  6
CONTINUOUS
 62
256
 10
162.655794719385090
 20
-81.541144897490085
 11
160.855777826676790
 21
-81.541144897490085
  0
LINE
  8
0
  6
CONTINUOUS
 62
256
 10
162.855794719384900
 20
-92.541144897490085
 11
162.855794719384900
 21
-81.741144897489903
  0
LINE
  8
0
  6
CONTINUOUS
 62
256
 10
190.455794719384810
 20
-102.113068417540480
 11
165.415602340520310
 21
-102.113068417540480
  0
LINE
  8
0
  6
CONTINUOUS
 62
256
 10
162.655794719385090
 20
-103.613068417540480
 11
162.855794719384900
 21
-103.413068417540670
  0
LINE
  8
0
  6
CONTINUOUS
 62
256
 10
164.855794719384900
 20
-101.963068417540850
 11
163.255794719384990
 21
-101.963068417540850
  0
LINE
  8
0
  6
CONTINUOUS
 62
256
 10
165.415602340520310
 20
-102.113068417540480
 11
164.855794719384900
 21
-101.963068417540850
  0
LINE
  8
0
  6
CONTINUOUS
 62
256
 10
162.655794719385090
 20
-103.613068417540480
 11
160.855777826676790
 21
-103.613068417540480
  0
LINE
  8
0
  6
CONTINUOUS
 62
256
 10
162.855794719384900
 20
-92.613068417540489
 11
162.855794719384900
 21
-103.413068417540670
  0
ARC
  8
0
  6
CONTINUOUS
 62
256
 10
163.255794719384990
 20
-102.363068417540480
 40
0.399999999999636
 50
90.000000000000000
 51
180.000000000000000
  0
LINE
  8
0
  6
CONTINUOUS
 62
256
 10
97.355777826676785
 20
-45.078158287684346
 11
87.855777826676785
 21
-45.078158287684346
  0
ARC
  8
0
  6
CONTINUOUS
 62
256
 10
87.855777826676785
 20
-45.578158287684346
 40
0.500000000000000
 50
90.000000000000000
 51
180.000000000000000
  0
LINE
  8
0
  6
CONTINUOUS
 62
256
 10
61.855777826675876
 20
-110.613068417540480
 11
61.855777826675876
 21
-52.113068417540489
  0
LINE
  8
0
  6
CONTINUOUS
 62
256
 10
61.855777826676785
 20
-110.613068417540480
 11
61.855777826676785
 21
-169.113068417540490
  0
LINE
  8
0
  6
CONTINUOUS
 62
256
 10
61.855777826676785
 20
-169.121795950004530
 11
62.855777826676331
 21
-169.139251014932600
  0
LINE
  8
0
  6
CONTINUOUS
 62
256
 10
97.355777826676785
 20
-110.613068417540480
 11
97.355777826676785
 21
-45.069430755220310
  0
LINE
  8
0
  6
CONTINUOUS
 62
256
 10
97.355777826676785
 20
-145.430321657860990
 11
97.355777826676785
 21
-110.613068417540480
  0
ARC
  8
0
  6
CONTINUOUS
 62
256
 10
91.955777826677149
 20
-102.763068417540130
 40
0.399999999999636
 50
0.000000000000000
 51
90.000000000000000
  0
ARC
  8
0
  6
CONTINUOUS
 62
256
 10
91.955777826677149
 20
-112.463068417540850
 40
0.399999999999636
 50
270.000000000000000
 51
0.000000000000000
  0
LINE
  8
0
  6
CONTINUOUS
 62
256
 10
91.955777826677149
 20
-49.523133486896768
 11
88.355777826676785
 21
-49.523133486896768
  0
ARC
  8
0
  6
CONTINUOUS
 62
256
 10
91.955777826677149
 20
-49.123133486897132
 40
0.399999999999636
 50
270.000000000000000
 51
0.000000000000000
  0
ARC
  8
0
  6
CONTINUOUS
 62
256
 10
88.355777826676785
 20
-50.523133486896768
 40
1.000000000000000
 50
90.000000000000000
 51
180.000000000000000
  0
LINE
  8
0
  6
CONTINUOUS
 62
256
 10
91.955777826677149
 20
-46.051932931272859
 11
88.355777826676785
 21
-46.051932931272859
  0
ARC
  8
0
  6
CONTINUOUS
 62
256
 10
88.355777826676785
 20
-47.051932931272859
 40
1.000000000000000
 50
90.000000000000000
 51
180.000000000000000
  0
LINE
  8
0
  6
CONTINUOUS
 62
256
 10
92.355777826676785
 20
-46.451932931272495
 11
92.355777826676785
 21
-49.123133486897132
  0
ARC
  8
0
  6
CONTINUOUS
 62
256
 10
91.955777826676240
 20
-46.451932931272495
 40
0.400000000000546
 50
0.000000000000000
 51
90.000000000000000
  0
LINE
  8
0
  6
CONTINUOUS
 62
256
 10
91.955777826677149
 20
-102.363068417540480
 11
88.355777826676785
 21
-102.363068417540480
  0
ARC
  8
0
  6
CONTINUOUS
 62
256
 10
91.955777826677149
 20
-102.763068417540130
 40
0.399999999999636
 50
0.000000000000000
 51
90.000000000000000
  0
ARC
  8
0
  6
CONTINUOUS
 62
256
 10
88.355777826676785
 20
-101.363068417540480
 40
1.000000000000000
 50
180.000000000000000
 51
270.000000000000000
  0
LINE
  8
0
  6
CONTINUOUS
 62
256
 10
91.955777826677149
 20
-112.863068417540480
 11
88.355777826676785
 21
-112.863068417540480
  0
ARC
  8
0
  6
CONTINUOUS
 62
256
 10
91.955777826677149
 20
-112.463068417540850
 40
0.399999999999636
 50
270.000000000000000
 51
0.000000000000000
  0
ARC
  8
0
  6
CONTINUOUS
 62
256
 10
88.355777826676785
 20
-113.863068417540480
 40
1.000000000000000
 50
90.000000000000000
 51
180.000000000000000
  0
LINE
  8
0
  6
CONTINUOUS
 62
256
 10
92.355777826676785
 20
-102.763068417540130
 11
92.355777826676785
 21
-112.463068417540850
  0
LINE
  8
0
  6
CONTINUOUS
 62
256
 10
87.355777826676785
 20
-103.363069371214810
 11
87.355777826676785
 21
-45.578158287684346
  0
LINE
  8
0
  6
CONTINUOUS
 62
256
 10
61.855777826675876
 20
-52.104340885076454
 11
87.355777826676785
 21
-51.659236729406587
  0
LINE
  8
0
  6
CONTINUOUS
 62
256
 10
168.743839827973260
 20
-95.613312558165489
 11
190.855794719384900
 21
-95.613312558165489
  0
ARC
  8
0
  6
CONTINUOUS
 62
256
 10
168.743839827973260
 20
-92.725267449577586
 40
2.888045108587921
 50
177.773528828001930
 51
270.000000000000000
  0
LINE
  8
0
  6
CONTINUOUS
 62
256
 10
64.855777826676785
 20
-172.083312558165740
 11
62.855777826676785
 21
-172.083312558165740
  0
LINE
  8
0
  6
CONTINUOUS
 62
256
 10
64.855777826676785
 20
-172.613312558165490
 11
64.855777826676785
 21
-172.083312558165740
  0
LINE
  8
0
  6
CONTINUOUS
 62
256
 10
160.855777826676790
 20
-172.083312558165740
 11
158.855777826676790
 21
-172.083312558165740
  0
LINE
  8
0
  6
CONTINUOUS
 62
256
 10
158.855777826676790
 20
-172.613312558165490
 11
158.855777826676790
 21
-172.083312558165740
  0
LINE
  8
0
  6
CONTINUOUS
 62
256
 10
97.855777826676785
 20
-92.613068417540489
 11
97.855777826676785
 21
-45.113068417540489
  0
LINE
  8
0
  6
CONTINUOUS
 62
256
 10
97.855777826676785
 20
-144.756833516962620
 11
97.855777826676785
 21
-92.613068417540489
  0
LINE
  8
0
  6
CONTINUOUS
 62
256
 10
158.855777826676790
 20
-156.706681113577360
 11
158.855777826676790
 21
-156.928724133700600
  0
LINE
  8
0
  6
CONTINUOUS
 62
256
 10
160.855777826676790
 20
-172.083312558165740
 11
160.855777826676790
 21
-160.091001793868600
  0
LINE
  8
0
  6
CONTINUOUS
 62
256
 10
158.855777826676790
 20
-92.613068417540489
 11
158.855777826676790
 21
-156.928724133700600
  0
ARC
  8
0
  6
CONTINUOUS
 62
256
 10
159.855777826676790
 20
-156.928724133700600
 40
1.000000000000000
 50
180.000000000000000
 51
244.623066474823080
  0
ARC
  8
0
  6
CONTINUOUS
 62
256
 10
158.355777826676790
 20
-160.091001793868600
 40
2.500000000000000
 50
0.000000000000000
 51
89.000000000003439
  0
LINE
  8
0
  6
CONTINUOUS
 62
256
 10
158.399408842769840
 20
-157.591382555977360
 11
99.855777826676785
 21
-156.569499675457340
  0
LINE
  8
0
  6
CONTINUOUS
 62
256
 10
99.855777826676785
 20
-141.401631523805010
 11
99.855777826676785
 21
-126.991658466415170
  0
ARC
  8
0
  6
CONTINUOUS
 62
256
 10
97.855777826676785
 20
-141.401631523805010
 40
2.000000000000378
 50
323.409675317155690
 51
0.000000000000000
  0
ARC
  8
0
  6
CONTINUOUS
 62
256
 10
87.315258895602710
 20
-153.921859525209580
 40
3.000000000000201
 50
271.614898485974150
 51
323.409675317162790
  0
LINE
  8
0
  6
CONTINUOUS
 62
256
 10
99.461614118552461
 20
-142.593810119358750
 11
89.724013333416224
 21
-155.710127418539740
  0
LINE
  8
0
  6
CONTINUOUS
 62
256
 10
62.855777826676785
 20
-172.083312558165740
 11
62.855777826676785
 21
-160.008430688982120
  0
LINE
  8
0
  6
CONTINUOUS
 62
256
 10
99.855777826676331
 20
-156.569499675457340
 11
64.871388244119316
 21
-157.555806230915550
  0
ARC
  8
0
  6
CONTINUOUS
 62
256
 10
65.355777826676785
 20
-160.008430688982120
 40
2.499999999999392
 50
101.172051984160080
 51
180.000000000000000
  0
ARC
  8
0
  6
CONTINUOUS
 62
256
 10
113.808633440439730
 20
-105.400666230703790
 40
60.000000000000604
 50
42.081511029705268
 51
88.999999999999957
  0
LINE
  8
0
  6
DASHDOT
 62
256
 10
202.535556979419200
 20
-92.613068417540489
 11
124.643279053784680
 21
-92.613068417540489
  0
LINE
  8
0
  6
CONTINUOUS
 62
256
 10
160.855777826676790
 20
-92.613068417540489
 11
160.855777826676790
 21
-114.113068417540480
  0
LINE
  8
0
  6
CONTINUOUS
 62
256
 10
160.855777826676790
 20
-92.613068417540489
 11
160.855777826676790
 21
-71.113068417540489
  0
LINE
  8
0
  6
CONTINUOUS
 62
256
 10
114.855777826676790
 20
-45.409804521319529
 11
97.855777826676785
 21
-45.113068417540489
  0
ARC
  8
0
  6
CONTINUOUS
 62
256
 10
113.808633440439730
 20
-105.400666230703790
 40
60.000000000000604
 50
42.081511029705268
 51
88.999999999999972
  0
ARC
  8
0
  6
CONTINUOUS
 62
256
 10
159.855777826676790
 20
-116.113068417540480
 40
1.000000000000000
 50
90.000000000000000
 51
180.000000000000000
  0
ARC
  8
0
  6
CONTINUOUS
 62
256
 10
159.855777826676790
 20
-114.113068417540480
 40
1.000000000000000
 50
270.000000000000000
 51
0.000000000000000
  0
LINE
  8
0
  6
CONTINUOUS
 62
256
 10
158.855777826676790
 20
-92.613068417540489
 11
158.855777826676790
 21
-66.529811336702551
  0
ARC
  8
0
  6
CONTINUOUS
 62
256
 10
159.855777826676790
 20
-71.113068417540489
 40
1.000000000000000
 50
0.000000000000000
 51
90.000000000000000
  0
ARC
  8
0
  6
CONTINUOUS
 62
256
 10
159.855777826676790
 20
-69.113068417540489
 40
1.000000000000000
 50
180.000000000000000
 51
270.000000000000000
  0
LINE
  8
0
  6
DASHDOT
 62
256
 10
148.355777826676790
 20
-175.835761593810280
 11
148.355777826676790
 21
-155.273586065988640
  0
LINE
  8
0
  6
CONTINUOUS
 62
256
 10
64.855777826676785
 20
-172.613312558165490
 11
158.855777826676790
 21
-172.613312558165490
  0
LINE
  8
0
  6
DASHDOT
 62
256
 10
75.355777826676785
 20
-175.835761593810280
 11
75.355777826676785
 21
-155.273586065988640
  0
LINE
  8
0
  6
CONTINUOUS
 62
256
 10
99.518579861124635
 20
-45.113068417540489
 11
97.855777826676785
 21
-45.113068417540489
  0
LINE
  8
0
  6
CONTINUOUS
 62
256
 10
114.855777826676790
 20
-45.409804521320439
 11
97.855777826676785
 21
-45.113068417540489
  0
ARC
  8
0
  6
CONTINUOUS
 62
256
 10
97.855777826676785
 20
-126.991658466415170
 40
2.000000000000000
 50
0.000000000000000
 51
90.000000000000000
  0
ARC
  8
0
  6
CONTINUOUS
 62
256
 10
156.855777826676790
 20
-66.529811336702551
 40
2.000000000000000
 50
0.000000000000000
 51
42.081511029715649
  0
LINE
  8
0
  6
CONTINUOUS
 62
256
 10
136.564728339069010
 20
-102.613068129501680
 11
136.564728339069010
 21
-155.267553848273560
  0
ARC
  8
0
  6
CONTINUOUS
 62
256
 10
138.564728339069010
 20
-155.267553848273560
 40
2.000000000000000
 50
180.000000000000000
 51
268.999999999998240
  0
LINE
  8
0
  6
CONTINUOUS
 62
256
 10
157.494802906549920
 20
-102.613068130958690
 11
157.494802906549920
 21
-155.760232471430750
  0
ARC
  8
0
  6
CONTINUOUS
 62
256
 10
159.494802906549920
 20
-155.760232471430750
 40
2.000000000000000
 50
180.000000000000000
 51
255.337981530191570
  0
LINE
  8
0
  6
CONTINUOUS
 62
256
 10
136.765811096045840
 20
-97.375839254141553
 11
136.564728339069010
 21
-102.613068417540480
  0
LINE
  8
0
  6
CONTINUOUS
 62
256
 10
137.361331869394150
 20
-92.339873870420078
 11
136.765811096045840
 21
-97.375839254141553
  0
LINE
  8
0
  6
CONTINUOUS
 62
256
 10
138.328405129766110
 20
-87.698701591870574
 11
137.361331869394150
 21
-92.339873870420078
  0
LINE
  8
0
  6
CONTINUOUS
 62
256
 10
139.629866794106530
 20
-83.630680066358295
 11
138.328405129766110
 21
-87.698701591870574
  0
LINE
  8
0
  6
CONTINUOUS
 62
256
 10
141.215702420522940
 20
-80.292141079735899
 11
139.629866794106530
 21
-83.630680066358295
  0
LINE
  8
0
  6
CONTINUOUS
 62
256
 10
143.024969235239040
 20
-77.811382812985087
 11
141.215702420522940
 21
-80.292141079735899
  0
LINE
  8
0
  6
CONTINUOUS
 62
256
 10
144.988138129213750
 20
-76.283739415071807
 11
143.024969235239040
 21
-77.811382812985087
  0
LINE
  8
0
  6
CONTINUOUS
 62
256
 10
147.029765622809460
 20
-75.767917365065571
 11
144.988138129213750
 21
-76.283739415071807
  0
LINE
  8
0
  6
CONTINUOUS
 62
256
 10
149.071393116405180
 20
-76.283739415071807
 11
147.029765622809460
 21
-75.767917365065571
  0
LINE
  8
0
  6
CONTINUOUS
 62
256
 10
151.034562010379890
 20
-77.811382812985073
 11
149.071393116405180
 21
-76.283739415071807
  0
LINE
  8
0
  6
CONTINUOUS
 62
256
 10
152.843828825095980
 20
-80.292141079735899
 11
151.034562010379890
 21
-77.811382812985073
  0
LINE
  8
0
  6
CONTINUOUS
 62
256
 10
154.429664451512390
 20
-83.630680066358281
 11
152.843828825095980
 21
-80.292141079735899
  0
LINE
  8
0
  6
CONTINUOUS
 62
256
 10
155.731126115852820
 20
-87.698701591870574
 11
154.429664451512390
 21
-83.630680066358281
  0
LINE
  8
0
  6
CONTINUOUS
 62
256
 10
156.698199376224780
 20
-92.339873870420078
 11
155.731126115852820
 21
-87.698701591870574
  0
LINE
  8
0
  6
CONTINUOUS
 62
256
 10
157.293720149573120
 20
-97.375839254141553
 11
156.698199376224780
 21
-92.339873870420078
  0
LINE
  8
0
  6
CONTINUOUS
 62
256
 10
157.494802906549920
 20
-102.613068417540480
 11
157.293720149573120
 21
-97.375839254141553
  0
LINE
  8
0
  6
CONTINUOUS
 62
256
 10
87.355777826676785
 20
-156.921909195541050
 11
87.355777826676785
 21
-111.863067463866170
  0
LINE
  8
0
  6
CONTINUOUS
 62
256
 10
61.855777826675876
 20
-169.113068417540490
 11
61.855777826675876
 21
-110.613068417540480
  0
LINE
  8
0
  6
CONTINUOUS
 62
256
 10
61.855777826675876
 20
-52.113068417540489
 11
61.855777826675876
 21
-110.613068417540480
  0
LINE
  8
0
  6
CONTINUOUS
 62
256
 10
-93.534531355428271
 20
-163.239550415800690
 11
-93.444222173323453
 21
-162.536593449600330
  0
LINE
  8
0
  6
CONTINUOUS
 62
256
 10
-93.801988370520405
 20
-163.915493140012790
 11
-93.534531355428271
 21
-163.239550415800690
  0
LINE
  8
0
  6
CONTINUOUS
 62
256
 10
-94.236314995501488
 20
-164.538445522418190
 11
-93.801988370520405
 21
-163.915493140012790
  0
LINE
  8
0
  6
CONTINUOUS
 62
256
 10
-94.820820301746679
 20
-165.084467852316780
 11
-94.236314995501488
 21
-164.538445522418190
  0
LINE
  8
0
  6
CONTINUOUS
 62
256
 10
-95.533042078131317
 20
-165.532576797783410
 11
-94.820820301746679
 21
-165.084467852316780
  0
LINE
  8
0
  6
CONTINUOUS
 62
256
 10
-96.345610041207522
 20
-165.865551783346150
 11
-95.533042078131317
 21
-165.532576797783410
  0
LINE
  8
0
  6
CONTINUOUS
 62
256
 10
-97.227297659847636
 20
-166.070596767044410
 11
-96.345610041207522
 21
-165.865551783346150
  0
LINE
  8
0
  6
CONTINUOUS
 62
256
 10
-98.144222173323442
 20
-166.139831985145180
 11
-97.227297659847636
 21
-166.070596767044410
  0
LINE
  8
0
  6
CONTINUOUS
 62
256
 10
-99.061146686799248
 20
-166.070596767044410
 11
-98.144222173323442
 21
-166.139831985145180
  0
LINE
  8
0
  6
CONTINUOUS
 62
256
 10
-99.942834305439362
 20
-165.865551783346150
 11
-99.061146686799248
 21
-166.070596767044410
  0
LINE
  8
0
  6
CONTINUOUS
 62
256
 10
-100.755402268515550
 20
-165.532576797783410
 11
-99.942834305439362
 21
-165.865551783346150
  0
LINE
  8
0
  6
CONTINUOUS
 62
256
 10
-101.467624044900210
 20
-165.084467852316780
 11
-100.755402268515550
 21
-165.532576797783410
  0
LINE
  8
0
  6
CONTINUOUS
 62
256
 10
-102.052129351145400
 20
-164.538445522418190
 11
-101.467624044900210
 21
-165.084467852316780
  0
LINE
  8
0
  6
CONTINUOUS
 62
256
 10
-102.486455976126460
 20
-163.915493140012790
 11
-102.052129351145400
 21
-164.538445522418190
  0
LINE
  8
0
  6
CONTINUOUS
 62
256
 10
-102.753912991218610
 20
-163.239550415800690
 11
-102.486455976126460
 21
-163.915493140012790
  0
LINE
  8
0
  6
CONTINUOUS
 62
256
 10
-102.844222173323430
 20
-162.536593449600330
 11
-102.753912991218610
 21
-163.239550415800690
  0
LINE
  8
0
  6
CONTINUOUS
 62
256
 10
-102.753912991218610
 20
-161.833636483399970
 11
-102.844222173323430
 21
-162.536593449600330
  0
LINE
  8
0
  6
CONTINUOUS
 62
256
 10
-102.486455976126460
 20
-161.157693759187880
 11
-102.753912991218610
 21
-161.833636483399970
  0
LINE
  8
0
  6
CONTINUOUS
 62
256
 10
-102.052129351145400
 20
-160.534741376782480
 11
-102.486455976126460
 21
-161.157693759187880
  0
LINE
  8
0
  6
CONTINUOUS
 62
256
 10
-101.467624044900210
 20
-159.988719046883890
 11
-102.052129351145400
 21
-160.534741376782480
  0
LINE
  8
0
  6
CONTINUOUS
 62
256
 10
-100.755402268515550
 20
-159.540610101417260
 11
-101.467624044900210
 21
-159.988719046883890
  0
LINE
  8
0
  6
CONTINUOUS
 62
256
 10
-99.942834305439362
 20
-159.207635115854520
 11
-100.755402268515550
 21
-159.540610101417260
  0
LINE
  8
0
  6
CONTINUOUS
 62
256
 10
-99.061146686799248
 20
-159.002590132156260
 11
-99.942834305439362
 21
-159.207635115854520
  0
LINE
  8
0
  6
CONTINUOUS
 62
256
 10
-98.144222173323442
 20
-158.933354914055490
 11
-99.061146686799248
 21
-159.002590132156260
  0
LINE
  8
0
  6
CONTINUOUS
 62
256
 10
-97.227297659847636
 20
-159.002590132156260
 11
-98.144222173323442
 21
-158.933354914055490
  0
LINE
  8
0
  6
CONTINUOUS
 62
256
 10
-96.345610041207522
 20
-159.207635115854520
 11
-97.227297659847636
 21
-159.002590132156260
  0
LINE
  8
0
  6
CONTINUOUS
 62
256
 10
-95.533042078131317
 20
-159.540610101417260
 11
-96.345610041207522
 21
-159.207635115854520
  0
LINE
  8
0
  6
CONTINUOUS
 62
256
 10
-94.820820301746679
 20
-159.988719046883890
 11
-95.533042078131317
 21
-159.540610101417260
  0
LINE
  8
0
  6
CONTINUOUS
 62
256
 10
-94.236314995501488
 20
-160.534741376782480
 11
-94.820820301746679
 21
-159.988719046883890
  0
LINE
  8
0
  6
CONTINUOUS
 62
256
 10
-93.801988370520405
 20
-161.157693759187880
 11
-94.236314995501488
 21
-160.534741376782480
  0
LINE
  8
0
  6
CONTINUOUS
 62
256
 10
-93.534531355428271
 20
-161.833636483399970
 11
-93.801988370520405
 21
-161.157693759187880
  0
LINE
  8
0
  6
CONTINUOUS
 62
256
 10
-93.444222173323453
 20
-162.536593449600330
 11
-93.534531355428271
 21
-161.833636483399970
  0
LINE
  8
0
  6
CONTINUOUS
 62
256
 10
-100.144222173323440
 20
-165.528969003600650
 11
-98.144222173323442
 21
-164.353183517978320
  0
LINE
  8
0
  6
CONTINUOUS
 62
256
 10
-98.144222173323442
 20
-164.353183517978320
 11
-96.144222173323442
 21
-162.700541878854890
  0
LINE
  8
0
  6
CONTINUOUS
 62
256
 10
-96.144222173323442
 20
-165.528969003600650
 11
-98.144222173323442
 21
-164.353183517978320
  0
LINE
  8
0
  6
CONTINUOUS
 62
256
 10
-98.144222173323442
 20
-164.353183517978320
 11
-100.144222173323440
 21
-162.700541878854890
  0
LINE
  8
0
  6
CONTINUOUS
 62
256
 10
-87.144222173324010
 20
-170.613068417540490
 11
-167.838246395744360
 21
-170.613068417540490
  0
LINE
  8
0
  6
CONTINUOUS
 62
256
 10
-190.144222173273870
 20
-110.613068417540480
 11
-190.144222173273870
 21
-158.056273474785940
  0
ARC
  8
0
  6
CONTINUOUS
 62
256
 10
-167.838246395744360
 20
-150.613068417540490
 40
20.000000000000007
 50
234.999999999999740
 51
270.000000000000000
  0
LINE
  8
0
  6
CONTINUOUS
 62
256
 10
-179.309775122765360
 20
-166.996109303320280
 11
-189.035520907786350
 21
-160.186068789937050
  0
ARC
  8
0
  6
CONTINUOUS
 62
256
 10
-187.544222173273740
 20
-158.056273474785940
 40
2.600000000000136
 50
180.000000000000000
 51
234.999999999998810
  0
LINE
  8
0
  6
CONTINUOUS
 62
256
 10
-87.144222173324010
 20
-151.613068417540490
 11
-87.144222173324010
 21
-170.613068417540490
  0
ARC
  8
0
  6
CONTINUOUS
 62
256
 10
-94.144222173323897
 20
-145.613068417540490
 40
3.000000000000000
 50
180.000000000000000
 51
270.000000000000000
  0
LINE
  8
0
  6
CONTINUOUS
 62
256
 10
-90.144222173324010
 20
-148.613068417540490
 11
-94.144222173323897
 21
-148.613068417540490
  0
ARC
  8
0
  6
CONTINUOUS
 62
256
 10
-90.144222173324010
 20
-151.613068417540490
 40
3.000000000000000
 50
0.000000000000000
 51
90.000000000000000
  0
LINE
  8
0
  6
CONTINUOUS
 62
256
 10
-97.144222173323897
 20
-145.613068417540490
 11
-97.144222173323897
 21
-110.613068417540480
  0
LINE
  8
0
  6
CONTINUOUS
 62
256
 10
-87.144222173324010
 20
-160.928602604315980
 11
62.855777826676785
 21
-160.928602604315980
  0
LINE
  8
0
  6
CONTINUOUS
 62
256
 10
-87.144222173324010
 20
-155.978855136010220
 11
87.355777826676785
 21
-155.978855136010220
  0
LINE
  8
0
  6
CONTINUOUS
 62
256
 10
-96.047214731704116
 20
-147.932253473276430
 11
87.355777826676785
 21
-147.932253473276430
  0
LINE
  8
0
  6
CONTINUOUS
 62
256
 10
-97.057885962320825
 20
-146.327605557714380
 11
-94.643819682833850
 21
-146.327605557714380
  0
LINE
  8
0
  6
CONTINUOUS
 62
256
 10
-4.944222173324192
 20
-142.363860133914840
 11
87.355777826676785
 21
-142.363860133914840
  0
LINE
  8
0
  6
CONTINUOUS
 62
256
 10
-97.144222173323897
 20
-140.895502744109760
 11
-94.944222173324192
 21
-140.895502744109760
  0
LINE
  8
0
  6
CONTINUOUS
 62
256
 10
-97.144222173323897
 20
-136.805002210020120
 11
-94.944222173324192
 21
-136.805002210020120
  0
LINE
  8
0
  6
CONTINUOUS
 62
256
 10
-97.144222173323897
 20
-135.443121874670850
 11
-94.944222173324192
 21
-135.443121874670850
  0
LINE
  8
0
  6
CONTINUOUS
 62
256
 10
-97.144222173323897
 20
-130.613068417540490
 11
-94.944222173324192
 21
-130.613068417540490
  0
LINE
  8
0
  6
CONTINUOUS
 62
256
 10
-4.944222173324192
 20
-80.330634090971216
 11
87.355777826676785
 21
-80.330634090971216
  0
LINE
  8
0
  6
CONTINUOUS
 62
256
 10
-4.944222173324192
 20
-135.443121874670850
 11
87.355777826676785
 21
-135.443121874670850
  0
LINE
  8
0
  6
CONTINUOUS
 62
256
 10
-97.144222173323897
 20
-80.330634090971216
 11
-94.944222173324192
 21
-80.330634090971216
  0
LINE
  8
0
  6
CONTINUOUS
 62
256
 10
-4.944222173324192
 20
-140.895502744109760
 11
87.355777826676785
 21
-140.895502744109760
  0
LINE
  8
0
  6
CONTINUOUS
 62
256
 10
-4.944222173324192
 20
-85.783014960410128
 11
87.355777826676785
 21
-85.783014960410128
  0
LINE
  8
0
  6
CONTINUOUS
 62
256
 10
-4.944222173324192
 20
-130.613068417540490
 11
87.355777826676785
 21
-130.613068417540490
  0
LINE
  8
0
  6
CONTINUOUS
 62
256
 10
-97.144222173323897
 20
-85.783014960410128
 11
-94.944222173324192
 21
-85.783014960410128
  0
LINE
  8
0
  6
CONTINUOUS
 62
256
 10
-4.944222173324192
 20
-136.805002210020120
 11
87.355777826676785
 21
-136.805002210020120
  0
LINE
  8
0
  6
CONTINUOUS
 62
256
 10
-4.944222173324192
 20
-84.421134625060859
 11
87.355777826676785
 21
-84.421134625060859
  0
LINE
  8
0
  6
CONTINUOUS
 62
256
 10
-97.144222173323897
 20
-84.421134625060859
 11
-94.944222173324192
 21
-84.421134625060859
  0
LINE
  8
0
  6
CONTINUOUS
 62
256
 10
-4.944222173324192
 20
-90.613068417540489
 11
87.355777826676785
 21
-90.613068417540489
  0
LINE
  8
0
  6
CONTINUOUS
 62
256
 10
-97.144222173323897
 20
-90.613068417540489
 11
-94.944222173324192
 21
-90.613068417540489
  0
LINE
  8
0
  6
CONTINUOUS
 62
256
 10
-87.144222173324010
 20
-53.613068417540489
 11
87.355777826676785
 21
-53.613068417540489
  0
LINE
  8
0
  6
CONTINUOUS
 62
256
 10
-87.144222173324010
 20
-53.113068417540489
 11
87.355777826676785
 21
-53.113068417540489
  0
LINE
  8
0
  6
CONTINUOUS
 62
256
 10
-87.144222173324010
 20
-54.613068417540489
 11
87.355777826676785
 21
-54.613068417540489
  0
LINE
  8
0
  6
CONTINUOUS
 62
256
 10
-87.144222173324010
 20
-55.613068417540489
 11
87.355777826676785
 21
-55.613068417540489
  0
LINE
  8
0
  6
CONTINUOUS
 62
256
 10
-87.144222173324010
 20
-60.297534230764995
 11
87.355777826676785
 21
-60.297534230764995
  0
LINE
  8
0
  6
CONTINUOUS
 62
256
 10
-87.144222173324010
 20
-65.247281699070754
 11
87.355777826676785
 21
-65.247281699070754
  0
LINE
  8
0
  6
CONTINUOUS
 62
256
 10
-96.047214731704116
 20
-73.293883361804546
 11
87.355777826676785
 21
-73.293883361804546
  0
LINE
  8
0
  6
CONTINUOUS
 62
256
 10
-97.057885962320825
 20
-74.898531277366601
 11
-94.643819682833850
 21
-74.898531277366601
  0
LINE
  8
0
  6
CONTINUOUS
 62
256
 10
-97.144222173323897
 20
-78.862276701166138
 11
-94.944222173324192
 21
-78.862276701166138
  0
LINE
  8
0
  6
CONTINUOUS
 62
256
 10
-87.144222173324010
 20
-69.613068417540489
 11
-87.144222173324010
 21
-50.613068417540489
  0
ARC
  8
0
  6
CONTINUOUS
 62
256
 10
-94.144222173323897
 20
-75.613068417540489
 40
3.000000000000000
 50
90.000000000000000
 51
180.000000000000000
  0
LINE
  8
0
  6
CONTINUOUS
 62
256
 10
-90.144222173324010
 20
-72.613068417540489
 11
-94.144222173323897
 21
-72.613068417540489
  0
ARC
  8
0
  6
CONTINUOUS
 62
256
 10
-90.144222173324010
 20
-69.613068417540489
 40
3.000000000000000
 50
270.000000000000000
 51
0.000000000000000
  0
LINE
  8
0
  6
CONTINUOUS
 62
256
 10
-97.144222173323897
 20
-75.613068417540489
 11
-97.144222173323897
 21
-110.613068417540480
  0
LINE
  8
0
  6
CONTINUOUS
 62
256
 10
61.855777826675876
 20
-52.113068417540489
 11
-87.144222173324010
 21
-52.113068417540489
  0
LINE
  8
0
  6
CONTINUOUS
 62
256
 10
61.855777826675876
 20
-52.113068417540489
 11
61.855777826675876
 21
-110.613068417540480
  0
LINE
  8
0
  6
CONTINUOUS
 62
256
 10
-87.144222173324010
 20
-50.613068417540489
 11
-167.838246395744360
 21
-50.613068417540489
  0
LINE
  8
0
  6
CONTINUOUS
 62
256
 10
-190.144222173273870
 20
-110.613068417540480
 11
-190.144222173273870
 21
-63.169863360295039
  0
ARC
  8
0
  6
CONTINUOUS
 62
256
 10
-167.838246395744360
 20
-70.613068417540489
 40
20.000000000000000
 50
90.000000000000000
 51
125.000000000000240
  0
LINE
  8
0
  6
CONTINUOUS
 62
256
 10
-179.309775122765360
 20
-54.230027531760697
 11
-189.035520907786350
 21
-61.040068045143926
  0
ARC
  8
0
  6
CONTINUOUS
 62
256
 10
-187.544222173273740
 20
-63.169863360295039
 40
2.599999999999721
 50
125.000000000001380
 51
180.000000000000000
  0
LINE
  8
0
  6
CONTINUOUS
 62
256
 10
-87.144222173324010
 20
-168.113068417540490
 11
62.855777826676785
 21
-168.113068417540490
  0
LINE
  8
0
  6
CONTINUOUS
 62
256
 10
-87.144222173324010
 20
-167.613068417540490
 11
62.855777826676785
 21
-167.613068417540490
  0
LINE
  8
0
  6
CONTINUOUS
 62
256
 10
-87.144222173324010
 20
-166.613068417540490
 11
62.855777826676785
 21
-166.613068417540490
  0
LINE
  8
0
  6
CONTINUOUS
 62
256
 10
-87.144222173324010
 20
-165.613068417540490
 11
62.855777826676785
 21
-165.613068417540490
  0
LINE
  8
0
  6
CONTINUOUS
 62
256
 10
-93.534531355428271
 20
-59.392500351680781
 11
-93.444222173323453
 21
-58.689543385480420
  0
LINE
  8
0
  6
CONTINUOUS
 62
256
 10
-93.801988370520405
 20
-60.068443075892873
 11
-93.534531355428271
 21
-59.392500351680781
  0
LINE
  8
0
  6
CONTINUOUS
 62
256
 10
-94.236314995501488
 20
-60.691395458298274
 11
-93.801988370520405
 21
-60.068443075892873
  0
LINE
  8
0
  6
CONTINUOUS
 62
256
 10
-94.820820301746679
 20
-61.237417788196851
 11
-94.236314995501488
 21
-60.691395458298274
  0
LINE
  8
0
  6
CONTINUOUS
 62
256
 10
-95.533042078131317
 20
-61.685526733663472
 11
-94.820820301746679
 21
-61.237417788196851
  0
LINE
  8
0
  6
CONTINUOUS
 62
256
 10
-96.345610041207522
 20
-62.018501719226229
 11
-95.533042078131317
 21
-61.685526733663472
  0
LINE
  8
0
  6
CONTINUOUS
 62
256
 10
-97.227297659847636
 20
-62.223546702924480
 11
-96.345610041207522
 21
-62.018501719226229
  0
LINE
  8
0
  6
CONTINUOUS
 62
256
 10
-98.144222173323442
 20
-62.292781921025252
 11
-97.227297659847636
 21
-62.223546702924480
  0
LINE
  8
0
  6
CONTINUOUS
 62
256
 10
-99.061146686799248
 20
-62.223546702924480
 11
-98.144222173323442
 21
-62.292781921025252
  0
LINE
  8
0
  6
CONTINUOUS
 62
256
 10
-99.942834305439362
 20
-62.018501719226229
 11
-99.061146686799248
 21
-62.223546702924480
  0
LINE
  8
0
  6
CONTINUOUS
 62
256
 10
-100.755402268515550
 20
-61.685526733663472
 11
-99.942834305439362
 21
-62.018501719226229
  0
LINE
  8
0
  6
CONTINUOUS
 62
256
 10
-101.467624044900210
 20
-61.237417788196851
 11
-100.755402268515550
 21
-61.685526733663472
  0
LINE
  8
0
  6
CONTINUOUS
 62
256
 10
-102.052129351145400
 20
-60.691395458298274
 11
-101.467624044900210
 21
-61.237417788196851
  0
LINE
  8
0
  6
CONTINUOUS
 62
256
 10
-102.486455976126460
 20
-60.068443075892873
 11
-102.052129351145400
 21
-60.691395458298274
  0
LINE
  8
0
  6
CONTINUOUS
 62
256
 10
-102.753912991218610
 20
-59.392500351680781
 11
-102.486455976126460
 21
-60.068443075892873
  0
LINE
  8
0
  6
CONTINUOUS
 62
256
 10
-102.844222173323430
 20
-58.689543385480420
 11
-102.753912991218610
 21
-59.392500351680781
  0
LINE
  8
0
  6
CONTINUOUS
 62
256
 10
-102.753912991218610
 20
-57.986586419280059
 11
-102.844222173323430
 21
-58.689543385480420
  0
LINE
  8
0
  6
CONTINUOUS
 62
256
 10
-102.486455976126460
 20
-57.310643695067967
 11
-102.753912991218610
 21
-57.986586419280059
  0
LINE
  8
0
  6
CONTINUOUS
 62
256
 10
-102.052129351145400
 20
-56.687691312662565
 11
-102.486455976126460
 21
-57.310643695067967
  0
LINE
  8
0
  6
CONTINUOUS
 62
256
 10
-101.467624044900210
 20
-56.141668982763981
 11
-102.052129351145400
 21
-56.687691312662565
  0
LINE
  8
0
  6
CONTINUOUS
 62
256
 10
-100.755402268515550
 20
-55.693560037297367
 11
-101.467624044900210
 21
-56.141668982763981
  0
LINE
  8
0
  6
CONTINUOUS
 62
256
 10
-99.942834305439362
 20
-55.360585051734610
 11
-100.755402268515550
 21
-55.693560037297367
  0
LINE
  8
0
  6
CONTINUOUS
 62
256
 10
-99.061146686799248
 20
-55.155540068036359
 11
-99.942834305439362
 21
-55.360585051734610
  0
LINE
  8
0
  6
CONTINUOUS
 62
256
 10
-98.144222173323442
 20
-55.086304849935587
 11
-99.061146686799248
 21
-55.155540068036359
  0
LINE
  8
0
  6
CONTINUOUS
 62
256
 10
-97.227297659847636
 20
-55.155540068036359
 11
-98.144222173323442
 21
-55.086304849935587
  0
LINE
  8
0
  6
CONTINUOUS
 62
256
 10
-96.345610041207522
 20
-55.360585051734610
 11
-97.227297659847636
 21
-55.155540068036359
  0
LINE
  8
0
  6
CONTINUOUS
 62
256
 10
-95.533042078131317
 20
-55.693560037297367
 11
-96.345610041207522
 21
-55.360585051734610
  0
LINE
  8
0
  6
CONTINUOUS
 62
256
 10
-94.820820301746679
 20
-56.141668982763981
 11
-95.533042078131317
 21
-55.693560037297367
  0
LINE
  8
0
  6
CONTINUOUS
 62
256
 10
-94.236314995501488
 20
-56.687691312662565
 11
-94.820820301746679
 21
-56.141668982763981
  0
LINE
  8
0
  6
CONTINUOUS
 62
256
 10
-93.801988370520405
 20
-57.310643695067967
 11
-94.236314995501488
 21
-56.687691312662565
  0
LINE
  8
0
  6
CONTINUOUS
 62
256
 10
-93.534531355428271
 20
-57.986586419280059
 11
-93.801988370520405
 21
-57.310643695067967
  0
LINE
  8
0
  6
CONTINUOUS
 62
256
 10
-93.444222173323453
 20
-58.689543385480420
 11
-93.534531355428271
 21
-57.986586419280059
  0
LINE
  8
0
  6
CONTINUOUS
 62
256
 10
-100.144222173323440
 20
-55.697167831480101
 11
-98.144222173323442
 21
-56.872953317102883
  0
LINE
  8
0
  6
CONTINUOUS
 62
256
 10
-98.144222173323442
 20
-56.872953317102883
 11
-96.144222173323442
 21
-58.525594956226314
  0
LINE
  8
0
  6
CONTINUOUS
 62
256
 10
-96.144222173323442
 20
-55.697167831480101
 11
-98.144222173323442
 21
-56.872953317102883
  0
LINE
  8
0
  6
CONTINUOUS
 62
256
 10
-98.144222173323442
 20
-56.872953317102883
 11
-100.144222173323440
 21
-58.525594956226314
  0
LINE
  8
0
  6
DASHDOT
 62
256
 10
105.280104977908190
 20
-110.613068417540480
 11
-207.128345087392060
 21
-110.613068417540480
  0
LINE
  8
0
  6
CONTINUOUS
 62
256
 10
61.855777826675876
 20
-169.113068417540490
 11
-87.144222173324010
 21
-169.113068417540490
  0
LINE
  8
0
  6
CONTINUOUS
 62
256
 10
61.855777826675876
 20
-169.113068417540490
 11
61.855777826675876
 21
-110.613068417540480
  0
ARC
  8
0
  6
CONTINUOUS
 62
256
 10
-5.944222173324192
 20
-145.613068417540490
 40
1.000000000000000
 50
270.000000000000000
 51
0.000000000000000
  0
ARC
  8
0
  6
CONTINUOUS
 62
256
 10
-5.944222173324192
 20
-75.613068417540489
 40
1.000000000000000
 50
0.000000000000000
 51
90.000000000000000
  0
LINE
  8
0
  6
CONTINUOUS
 62
256
 10
-4.944222173324192
 20
-75.613068417540489
 11
-4.944222173324192
 21
-145.613068417540490
  0
ARC
  8
0
  6
CONTINUOUS
 62
256
 10
-93.944222173324192
 20
-75.613068417540489
 40
1.000000000000000
 50
90.000000000000000
 51
180.000000000000000
  0
ARC
  8
0
  6
CONTINUOUS
 62
256
 10
-93.944222173324192
 20
-145.613068417540490
 40
1.000000000000000
 50
180.000000000000000
 51
270.000000000000000
  0
LINE
  8
0
  6
CONTINUOUS
 62
256
 10
-94.944222173324192
 20
-75.613068417540489
 11
-94.944222173324192
 21
-145.613068417540490
  0
LINE
  8
0
  6
CONTINUOUS
 62
256
 10
-5.944222173324192
 20
-74.613068417540489
 11
-93.944222173324192
 21
-74.613068417540489
  0
LINE
  8
0
  6
CONTINUOUS
 62
256
 10
-5.944222173324192
 20
-146.613068417540490
 11
-93.944222173324192
 21
-146.613068417540490
  0
LINE
  8
0
  6
CONTINUOUS
 62
256
 10
-4.944222173324192
 20
-78.862276701166138
 11
87.355777826676785
 21
-78.862276701166138
  0
LINE
  8
0
  6
CONTINUOUS
 62
256
 10
-5.244624663814307
 20
-74.898531277366601
 11
87.355777826676785
 21
-74.898531277366601
  0
LINE
  8
0
  6
CONTINUOUS
 62
256
 10
-5.244624663814534
 20
-146.327605557714380
 11
87.355777826676785
 21
-146.327605557714380
  0
INSERT
  8
0
  2
ZU_SYM_1
 10
92.355777826676785
 20
-107.613068417540480
  0
LINE
  8
0
  6
DASHDOT
 62
256
 10
344.632440836746350
 20
-110.613068417540480
 11
308.362900631745110
 21
-110.613068417540480
  0
LINE
  8
0
  6
DASHDOT
 62
256
 10
326.255154410189790
 20
-181.738458665917280
 11
326.255154410189790
 21
-110.613068417540480
  0
LINE
  8
0
  6
DASHDOT
 62
256
 10
217.078191565592530
 20
-92.613068417540489
 11
440.657761466713960
 21
-92.613068417540489
  0
ARC
  8
0
  6
CONTINUOUS
 62
256
 10
306.755154410189790
 20
-95.656704904154140
 40
49.999999999999481
 50
93.193847212620895
 51
180.000000000000000
  0
LINE
  8
0
  6
CONTINUOUS
 62
256
 10
277.440583308398690
 20
-55.151693842335703
 11
277.402247050454430
 21
-55.113357584391451
  0
ARC
  8
0
  6
CONTINUOUS
 62
256
 10
276.828390270380280
 20
-61.186304277730926
 40
6.099999427795394
 50
84.601927898109537
 51
178.082947032800520
  0
ARC
  8
0
  6
CONTINUOUS
 62
256
 10
375.681918549999300
 20
-61.186304277730926
 40
6.099999427795467
 50
4.824675480165969
 51
92.767415515142929
  0
INSERT
  8
0
  2
ZU_SYM_2
 10
413.699976616533150
 20
-151.532025028800940
 41
-1.000000000000000
 42
1.000000000000000
 43
1.000000000000000
 50
2.862405226113666
  0
LINE
  8
0
  6
CONTINUOUS
 62
256
 10
412.351660959047650
 20
-156.605686910301070
 11
413.949664701252230
 21
-156.525786723190090
  0
ARC
  8
0
  6
CONTINUOUS
 62
256
 10
415.481620241522020
 20
-147.114928739584000
 40
1.999999999999995
 50
99.916536608232732
 51
182.862405226112630
  0
ARC
  8
0
  6
CONTINUOUS
 62
256
 10
409.888607143806210
 20
-147.394579394469820
 40
1.999999999999927
 50
2.862405226112724
 51
85.808273843998279
  0
ARC
  8
0
  6
CONTINUOUS
 62
256
 10
411.555154410189740
 20
-124.655568417540490
 40
20.799999999999919
 50
334.359929784105190
 51
5.724810452223412
  0
ARC
  8
0
  6
CONTINUOUS
 62
256
 10
411.555154410189740
 20
-124.655568417540490
 40
20.800000000000026
 50
279.916536608230560
 51
334.359929784105190
  0
ARC
  8
0
  6
CONTINUOUS
 62
256
 10
411.555154410189740
 20
-124.655568417540490
 40
20.799999999999919
 50
334.359929784105190
 51
5.724810452223412
  0
ARC
  8
0
  6
CONTINUOUS
 62
256
 10
411.555154410189740
 20
-124.655568417540490
 40
20.799999999999969
 50
220.569697230356410
 51
265.808273843992540
  0
LINE
  8
0
  6
CONTINUOUS
 62
256
 10
407.258024030770680
 20
-54.732948344760302
 11
412.351660959047650
 21
-156.605686910301070
  0
LINE
  8
0
  6
CONTINUOUS
 62
256
 10
408.856027772975270
 20
-54.653048157650119
 11
413.949664701252230
 21
-156.525786723190090
  0
ARC
  8
0
  6
CONTINUOUS
 62
256
 10
409.973656874825790
 20
-57.400663753894946
 40
1.299999237060645
 50
19.463936333587128
 51
92.862405909347800
  0
ARC
  8
0
  6
CONTINUOUS
 62
256
 10
410.193382465577770
 20
-61.795175568932677
 40
1.299999237060550
 50
272.862387240019760
 51
346.260856815788600
  0
LINE
  8
0
  6
CONTINUOUS
 62
256
 10
408.930934198390560
 20
-56.151176665966773
 11
409.908738010898110
 21
-56.102286475341430
  0
LINE
  8
0
  6
CONTINUOUS
 62
256
 10
409.280497516997680
 20
-63.142443038111651
 11
410.258301329505460
 21
-63.093552847486308
  0
LINE
  8
0
  6
CONTINUOUS
 62
256
 10
408.930934198390560
 20
-56.151176665966773
 11
409.280497516997680
 21
-63.142443038111651
  0
LINE
  8
0
  6
CONTINUOUS
 62
256
 10
408.930934198390560
 20
-56.151176665966773
 11
409.280497516997680
 21
-63.142443038111651
  0
POINT
  8
0
  6
CONTINUOUS
 62
256
 10
409.105715857694120
 20
-59.646809852039155
  0
ARC
  8
0
  6
CONTINUOUS
 62
256
 10
402.713701269869720
 20
-59.966410581430409
 40
8.999999999999949
 50
346.260856815786500
 51
19.463936333592208
  0
LINE
  8
0
  6
CONTINUOUS
 62
256
 10
408.856027772975270
 20
-54.653048157650119
 11
407.258024030770680
 21
-54.732948344760302
  0
ARC
  8
0
  6
CONTINUOUS
 62
256
 10
409.555154410189740
 20
-84.655568417540508
 40
18.799999999999837
 50
5.724810452223617
 51
35.808626813495707
  0
ARC
  8
0
  6
CONTINUOUS
 62
256
 10
409.555154410189740
 20
-84.655568417540508
 40
18.799999999999933
 50
35.808626813495742
 51
85.126025186157236
  0
LINE
  8
0
  6
CONTINUOUS
 62
256
 10
432.251413761810680
 20
-122.580755449959480
 11
428.261388824154660
 21
-82.780256696842230
  0
LINE
  8
0
  6
CONTINUOUS
 62
256
 10
408.057025901872980
 20
-54.692998251205267
 11
413.150662830149940
 21
-156.565736816745360
  0
ARC
  8
0
  6
CONTINUOUS
 62
256
 10
411.322412873818620
 20
-63.930781385516980
 40
1.999999999999927
 50
182.862405226112710
 51
265.126025186159040
  0
ARC
  8
0
  6
CONTINUOUS
 62
256
 10
405.729399776102810
 20
-64.210432040402793
 40
1.999999999999958
 50
280.598785266065990
 51
2.862405226112642
  0
ARC
  8
0
  6
CONTINUOUS
 62
256
 10
409.555154410189740
 20
-84.655568417540508
 40
18.799999999999983
 50
100.598785266066060
 51
156.468884668278920
  0
LINE
  8
0
  6
CONTINUOUS
 62
256
 10
261.442014898607340
 20
-95.656704904154140
 11
261.442014898607340
 21
-155.613068417540490
  0
LINE
  8
0
  6
CONTINUOUS
 62
256
 10
256.755154410189790
 20
-155.870427730421400
 11
256.755154410189790
 21
-95.656704904154140
  0
LINE
  8
0
  6
CONTINUOUS
 62
256
 10
261.855374445369480
 20
-89.528202964367580
 11
261.560272175472450
 21
-92.613068417540475
  0
LINE
  8
0
  6
CONTINUOUS
 62
256
 10
262.415212759658460
 20
-86.535940634708481
 11
261.855374445369480
 21
-89.528202964367580
  0
LINE
  8
0
  6
CONTINUOUS
 62
256
 10
263.218653907321310
 20
-83.749235668421548
 11
262.415212759658460
 21
-86.535940634708481
  0
LINE
  8
0
  6
CONTINUOUS
 62
256
 10
264.235368968595310
 20
-81.273282766538372
 11
263.218653907321310
 21
-83.749235668421548
  0
LINE
  8
0
  6
CONTINUOUS
 62
256
 10
265.426978194566000
 20
-79.201546120077666
 11
264.235368968595310
 21
-81.273282766538372
  0
LINE
  8
0
  6
CONTINUOUS
 62
256
 10
266.748499795704390
 20
-77.612231251251927
 11
265.426978194566000
 21
-79.201546120077666
  0
LINE
  8
0
  6
CONTINUOUS
 62
256
 10
268.150047949356120
 20
-76.565332850741996
 11
266.748499795704390
 21
-77.612231251251927
  0
LINE
  8
0
  6
CONTINUOUS
 62
256
 10
269.578715928476640
 20
-76.100370051568561
 11
268.150047949356120
 21
-76.565332850741996
  0
LINE
  8
0
  6
CONTINUOUS
 62
256
 10
270.980573265809880
 20
-76.234894630199378
 11
269.578715928476640
 21
-76.100370051568561
  0
LINE
  8
0
  6
CONTINUOUS
 62
256
 10
272.302701563005880
 20
-76.963828448474246
 11
270.980573265809880
 21
-76.234894630199378
  0
LINE
  8
0
  6
CONTINUOUS
 62
256
 10
273.495192095376690
 20
-78.259655147104027
 11
272.302701563005880
 21
-76.963828448474246
  0
LINE
  8
0
  6
CONTINUOUS
 62
256
 10
274.513029805155840
 20
-80.073458854548591
 11
273.495192095376690
 21
-78.259655147104027
  0
LINE
  8
0
  6
CONTINUOUS
 62
256
 10
275.317792564821900
 20
-82.336770701285388
 11
274.513029805155840
 21
-80.073458854548591
  0
LINE
  8
0
  6
CONTINUOUS
 62
256
 10
275.879101565376970
 20
-84.964153435815206
 11
275.317792564821900
 21
-82.336770701285388
  0
LINE
  8
0
  6
CONTINUOUS
 62
256
 10
261.560272175472620
 20
-92.613068417540489
 11
261.442014898607340
 21
-95.656704904154140
  0
LINE
  8
0
  6
CONTINUOUS
 62
256
 10
261.399169541384820
 20
-74.613068417540489
 11
235.388489637247400
 21
-74.613068417540489
  0
LINE
  8
0
  6
CONTINUOUS
 62
256
 10
256.755154410189790
 20
-146.613068417540490
 11
235.388489637247400
 21
-146.613068417540490
  0
CIRCLE
  8
0
  6
CONTINUOUS
 62
256
 10
326.255154410189790
 20
-92.613068417540489
 40
2.458500000000015
  0
CIRCLE
  8
0
  6
CONTINUOUS
 62
256
 10
326.255154410189790
 20
-92.613068417540489
 40
3.000000000000000
  0
LINE
  8
0
  6
CONTINUOUS
 62
256
 10
376.571876228443670
 20
-85.732131198436036
 11
376.571876228443670
 21
-155.613068417540490
  0
LINE
  8
0
  6
CONTINUOUS
 62
256
 10
377.192516255557680
 20
-82.336770701285374
 11
376.631207255002610
 21
-84.964153435815192
  0
LINE
  8
0
  6
CONTINUOUS
 62
256
 10
377.997279015223740
 20
-80.073458854548591
 11
377.192516255557680
 21
-82.336770701285374
  0
LINE
  8
0
  6
CONTINUOUS
 62
256
 10
379.015116725002880
 20
-78.259655147104013
 11
377.997279015223740
 21
-80.073458854548591
  0
LINE
  8
0
  6
CONTINUOUS
 62
256
 10
380.207607257373700
 20
-76.963828448474246
 11
379.015116725002880
 21
-78.259655147104013
  0
LINE
  8
0
  6
CONTINUOUS
 62
256
 10
381.529735554569700
 20
-76.234894630199364
 11
380.207607257373700
 21
-76.963828448474246
  0
LINE
  8
0
  6
CONTINUOUS
 62
256
 10
382.931592891902940
 20
-76.100370051568561
 11
381.529735554569700
 21
-76.234894630199364
  0
LINE
  8
0
  6
CONTINUOUS
 62
256
 10
384.360260871023460
 20
-76.565332850741996
 11
382.931592891902940
 21
-76.100370051568561
  0
LINE
  8
0
  6
CONTINUOUS
 62
256
 10
385.761809024675190
 20
-77.612231251251927
 11
384.360260871023460
 21
-76.565332850741996
  0
LINE
  8
0
  6
CONTINUOUS
 62
256
 10
387.083330625813570
 20
-79.201546120077666
 11
385.761809024675190
 21
-77.612231251251927
  0
LINE
  8
0
  6
CONTINUOUS
 62
256
 10
388.274939851784270
 20
-81.273282766538372
 11
387.083330625813570
 21
-79.201546120077666
  0
LINE
  8
0
  6
CONTINUOUS
 62
256
 10
389.291654913058270
 20
-83.749235668421548
 11
388.274939851784270
 21
-81.273282766538372
  0
LINE
  8
0
  6
CONTINUOUS
 62
256
 10
390.095096060721120
 20
-86.535940634708481
 11
389.291654913058270
 21
-83.749235668421548
  0
LINE
  8
0
  6
CONTINUOUS
 62
256
 10
390.654934375010100
 20
-89.528202964367580
 11
390.095096060721120
 21
-86.535940634708481
  0
LINE
  8
0
  6
CONTINUOUS
 62
256
 10
390.950036644907130
 20
-92.613068417540475
 11
390.654934375010100
 21
-89.528202964367580
  0
ARC
  8
0
  6
CONTINUOUS
 62
256
 10
381.571876252296990
 20
-85.732131208394094
 40
5.000000000000053
 50
171.164647896423050
 51
179.999999885889080
  0
ARC
  8
0
  6
CONTINUOUS
 62
256
 10
270.938432568082590
 20
-85.732131208394094
 40
5.000000023853318
 50
0.000000114110933
 51
8.835352103576936
  0
ARC
  8
0
  6
CONTINUOUS
 62
256
 10
378.571876228443670
 20
-155.613068417540490
 40
2.000000000000000
 50
180.000000000000000
 51
270.000000000000000
  0
LINE
  8
0
  6
CONTINUOUS
 62
256
 10
390.950036644906960
 20
-92.613068417540489
 11
391.068293921772240
 21
-95.656704904154140
  0
ARC
  8
0
  6
CONTINUOUS
 62
256
 10
273.938432591935910
 20
-155.613068417540490
 40
2.000000000000000
 50
270.000000000000000
 51
0.000000000000000
  0
LINE
  8
0
  6
CONTINUOUS
 62
256
 10
275.938432591935910
 20
-85.732131198436036
 11
275.938432591935910
 21
-155.613068417540490
  0
ARC
  8
0
  6
CONTINUOUS
 62
256
 10
326.255154410189790
 20
-445.113068417540490
 40
400.000000000000000
 50
90.000000000000000
 51
93.193847212620923
  0
ARC
  8
0
  6
CONTINUOUS
 62
256
 10
326.255154410189790
 20
-845.113068417540490
 40
800.000000000000230
 50
88.510141843146059
 51
90.000000000000000
  0
ARC
  8
0
  6
CONTINUOUS
 62
256
 10
290.755154410189790
 20
-166.613068417540490
 40
7.000000000000130
 50
314.415308597194040
 51
325.150095420954590
  0
LINE
  8
0
  6
CONTINUOUS
 62
256
 10
295.654133895756330
 20
-171.613068417540490
 11
278.755154410189790
 21
-171.613068417540490
  0
ARC
  8
0
  6
CONTINUOUS
 62
256
 10
278.755154410189790
 20
-172.613068417540490
 40
1.000000000000000
 50
90.000000000000000
 51
180.000000000000000
  0
ARC
  8
0
  6
CONTINUOUS
 62
256
 10
373.755154410189790
 20
-172.613068417540490
 40
1.000000000000000
 50
0.000000000000000
 51
90.000000000000000
  0
LINE
  8
0
  6
CONTINUOUS
 62
256
 10
356.856174924623700
 20
-171.613068417540490
 11
373.755154410189790
 21
-171.613068417540490
  0
ARC
  8
0
  6
CONTINUOUS
 62
256
 10
361.755154410189790
 20
-166.613068417540490
 40
6.999999999999825
 50
214.849904579047490
 51
225.584691402808570
  0
ARC
  8
0
  6
CONTINUOUS
 62
256
 10
377.100549603289890
 20
-155.613068417540490
 40
2.000000000000000
 50
180.000000000000000
 51
270.000000000000000
  0
LINE
  8
0
  6
CONTINUOUS
 62
256
 10
375.100549603289890
 20
-155.613068417540490
 11
375.100549603289890
 21
-95.656704904154140
  0
ARC
  8
0
  6
CONTINUOUS
 62
256
 10
326.255154410189790
 20
-445.113068417540490
 40
379.345395193100220
 50
86.806152787379048
 51
90.000000000000000
  0
ARC
  8
0
  6
CONTINUOUS
 62
256
 10
306.755154410189790
 20
-95.656704904154140
 40
29.345395193100199
 50
93.193847212621108
 51
180.000000000000000
  0
ARC
  8
0
  6
CONTINUOUS
 62
256
 10
275.409759217089690
 20
-155.613068417540490
 40
2.000000000000000
 50
270.000000000000000
 51
0.000000000000000
  0
LINE
  8
0
  6
CONTINUOUS
 62
256
 10
277.409759217089690
 20
-155.613068417540490
 11
277.409759217089690
 21
-95.656704904154140
  0
ARC
  8
0
  6
CONTINUOUS
 62
256
 10
345.755154410189790
 20
-95.656704904154140
 40
29.345395193100103
 50
0.000000000000000
 51
86.806152787378878
  0
ARC
  8
0
  6
CONTINUOUS
 62
256
 10
326.255154410189790
 20
-445.113068417540490
 40
379.345395193100560
 50
90.000000000000000
 51
93.193847212620952
  0
ARC
  8
0
  6
CONTINUOUS
 62
256
 10
393.068293921772240
 20
-155.613068417540490
 40
2.000000000000000
 50
180.000000000000000
 51
270.000000000000000
  0
ARC
  8
0
  6
CONTINUOUS
 62
256
 10
397.755154410189790
 20
-155.870427730421400
 40
2.000000000000000
 50
180.000000000000000
 51
250.528779365507030
  0
LINE
  8
0
  6
CONTINUOUS
 62
256
 10
395.755154410189790
 20
-155.870427730421400
 11
395.755154410189790
 21
-95.113068417540489
  0
ARC
  8
0
  6
CONTINUOUS
 62
256
 10
254.755154410189790
 20
-155.870427730421400
 40
1.999999999999544
 50
289.471220634504500
 51
0.000000000000000
  0
ARC
  8
0
  6
CONTINUOUS
 62
256
 10
345.755154410189790
 20
-95.366611273527269
 40
50.000000000000000
 50
0.000000000000000
 51
88.510141843145860
  0
CIRCLE
  8
0
  6
CONTINUOUS
 62
256
 10
326.255154410189790
 20
-92.613068417540489
 40
22.500000000000000
  0
LINE
  8
0
  6
CONTINUOUS
 62
256
 10
277.755154410189790
 20
-172.613068417540490
 11
253.755154410189790
 21
-172.613068417540490
  0
LINE
  8
0
  6
CONTINUOUS
 62
256
 10
374.755154410189790
 20
-172.613068417540490
 11
398.755154410189790
 21
-172.613068417540490
  0
LINE
  8
0
  6
CONTINUOUS
 62
256
 10
326.255154410189790
 20
-157.613068417540490
 11
396.255154410189790
 21
-157.613068417540490
  0
LINE
  8
0
  6
DASHDOT
 62
256
 10
263.755154410189790
 20
-176.910462750425720
 11
263.755154410189790
 21
-153.649828043209710
  0
LINE
  8
0
  6
DASHDOT
 62
256
 10
388.755154410189790
 20
-176.910462750425720
 11
388.755154410189790
 21
-153.649828043209710
  0
LINE
  8
0
  6
CONTINUOUS
 62
256
 10
253.755154410189790
 20
-172.613068417540490
 11
253.755154410189790
 21
-160.113068417540490
  0
LINE
  8
0
  6
CONTINUOUS
 62
256
 10
398.755154410189790
 20
-172.613068417540490
 11
398.755154410189790
 21
-160.113068417540490
  0
LINE
  8
0
  6
CONTINUOUS
 62
256
 10
326.255154410189790
 20
-170.613068417540490
 11
296.499717056728060
 21
-170.613068417540490
  0
LINE
  8
0
  6
CONTINUOUS
 62
256
 10
326.255154410189790
 20
-170.613068417540490
 11
356.010591763651970
 21
-170.613068417540490
  0
LINE
  8
0
  6
DASHDOT
 62
256
 10
326.255154410189790
 20
-92.613068417540489
 11
326.255154410189790
 21
-34.383006791105799
  0
LINE
  8
0
  6
DASHDOT
 62
256
 10
326.255154410189790
 20
-110.613068417540480
 11
326.255154410189790
 21
-92.613068417540489
  0
ARC
  8
0
  6
CONTINUOUS
 62
256
 10
256.255154410189790
 20
-160.113068417540490
 40
2.500000000000000
 50
90.000000000000000
 51
180.000000000000000
  0
ARC
  8
0
  6
CONTINUOUS
 62
256
 10
396.255154410189790
 20
-160.113068417540490
 40
2.500000000000000
 50
0.000000000000000
 51
90.000000000000000
  0
LINE
  8
0
  6
CONTINUOUS
 62
256
 10
326.255154410189790
 20
-157.613068417540490
 11
256.255154410189790
 21
-157.613068417540490
  0
LINE
  8
0
  6
DASHED
 62
256
 10
356.856174924623700
 20
-171.613068417540490
 11
365.755154410189790
 21
-171.613068417540490
  0
LINE
  8
0
  6
DASHED
 62
256
 10
326.255154410189790
 20
-170.613068417540490
 11
356.010591763651970
 21
-170.613068417540490
  0
ARC
  8
0
  6
DASHED
 62
256
 10
361.755154410189790
 20
-166.613068417540490
 40
6.999999999999825
 50
214.849904579047490
 51
225.584691402808570
  0
ARC
  8
0
  6
DASHED
 62
256
 10
290.755154410189790
 20
-166.613068417540490
 40
7.000000000000130
 50
314.415308597194040
 51
325.150095420954590
  0
LINE
  8
0
  6
DASHED
 62
256
 10
326.255154410189790
 20
-170.613068417540490
 11
296.499717056728060
 21
-170.613068417540490
  0
LINE
  8
0
  6
DASHED
 62
256
 10
295.654133895756330
 20
-171.613068417540490
 11
286.755154410189790
 21
-171.613068417540490
  0
LINE
  8
0
  6
CONTINUOUS
 62
256
 10
391.068293921772240
 20
-95.656704904154140
 11
391.068293921772240
 21
-155.613068417540490
  0
ARC
  8
0
  6
CONTINUOUS
 62
256
 10
259.442014898607340
 20
-155.613068417540490
 40
2.000000000000000
 50
270.000000000000000
 51
0.000000000000000
  0
CIRCLE
  8
0
  6
CONTINUOUS
 62
256
 10
326.255154410189790
 20
-92.613068417540489
 40
17.500244140625000
  0
LINE
  8
0
  6
CONTINUOUS
 62
256
 10
369.955154410190060
 20
-147.313068417540310
 11
369.955154410190060
 21
-95.113068417540489
  0
ARC
  8
0
  6
CONTINUOUS
 62
256
 10
364.955154410190060
 20
-147.313068417540310
 40
5.000000000000000
 50
270.000000000000000
 51
0.000000000000000
  0
LINE
  8
0
  6
CONTINUOUS
 62
256
 10
326.255154410189790
 20
-152.313068417540310
 11
364.955154410190060
 21
-152.313068417540310
  0
ARC
  8
0
  6
CONTINUOUS
 62
256
 10
326.255154410189790
 20
-92.613068417540489
 40
27.800000000000182
 50
270.000000000000000
 51
356.151753030609310
  0
ARC
  8
0
  6
CONTINUOUS
 62
256
 10
355.987964570011630
 20
-94.613068417540489
 40
2.000000000000000
 50
90.000000000000000
 51
176.151753030602410
  0
LINE
  8
0
  6
CONTINUOUS
 62
256
 10
355.987964570011630
 20
-92.613068417540489
 11
367.455154410190060
 21
-92.613068417540489
  0
ARC
  8
0
  6
CONTINUOUS
 62
256
 10
367.455154410190060
 20
-95.113068417540489
 40
2.500000000000000
 50
0.000000000000000
 51
90.000000000000000
  0
ARC
  8
0
  6
CONTINUOUS
 62
256
 10
326.255154410189790
 20
-92.613068417540489
 40
27.800000000000022
 50
183.848246969390660
 51
270.000000000000000
  0
ARC
  8
0
  6
CONTINUOUS
 62
256
 10
296.522344250367950
 20
-94.613068417540489
 40
2.000000000000057
 50
3.848246969397498
 51
90.000000000000000
  0
LINE
  8
0
  6
CONTINUOUS
 62
256
 10
296.522344250367950
 20
-92.613068417540489
 11
285.055154410189520
 21
-92.613068417540489
  0
ARC
  8
0
  6
CONTINUOUS
 62
256
 10
285.055154410189520
 20
-95.113068417540489
 40
2.500000000000000
 50
90.000000000000000
 51
180.000000000000000
  0
LINE
  8
0
  6
CONTINUOUS
 62
256
 10
282.555154410189520
 20
-147.313068417540310
 11
282.555154410189520
 21
-95.113068417540489
  0
ARC
  8
0
  6
CONTINUOUS
 62
256
 10
287.555154410189520
 20
-147.313068417540310
 40
5.000000000000000
 50
180.000000000000000
 51
270.000000000000000
  0
LINE
  8
0
  6
CONTINUOUS
 62
256
 10
326.255154410189790
 20
-152.313068417540310
 11
287.555154410189520
 21
-152.313068417540310
  0
LINE
  8
0
  6
CONTINUOUS
 62
256
 10
320.255154410189790
 20
-95.613068417540489
 11
320.255154410189790
 21
-89.613068417540489
  0
LINE
  8
0
  6
CONTINUOUS
 62
256
 10
320.255154410189790
 20
-95.613068417540489
 11
314.255154410189790
 21
-95.613068417540489
  0
LINE
  8
0
  6
CONTINUOUS
 62
256
 10
314.255154410189790
 20
-95.613068417540489
 11
314.255154410189790
 21
-89.613068417540489
  0
ARC
  8
0
  6
CONTINUOUS
 62
256
 10
326.255154410189790
 20
-92.613068417540489
 40
9.500000000000016
 50
198.434948822922880
 51
161.591512067616610
  0
LINE
  8
0
  6
CONTINUOUS
 62
256
 10
320.255154410189790
 20
-89.613068417540489
 11
314.255154410189790
 21
-89.613068417540489
  0
ARC
  8
0
  6
CONTINUOUS
 62
256
 10
235.388489637247400
 20
-79.613068417540489
 40
5.000000000000000
 50
90.000000000000000
 51
173.967950853630950
  0
ARC
  8
0
  6
CONTINUOUS
 62
256
 10
235.388489637247400
 20
-141.613068417540490
 40
5.000000000000143
 50
186.032049146370330
 51
270.000000000000000
  0
LINE
  8
0
  6
CONTINUOUS
 62
256
 10
228.255154410189790
 20
-113.113068417540480
 11
228.255154410189790
 21
-108.113068417540480
  0
LINE
  8
0
  6
CONTINUOUS
 62
256
 10
228.755156267387520
 20
-108.113068417540480
 11
228.255154410189790
 21
-108.113068417540480
  0
LINE
  8
0
  6
CONTINUOUS
 62
256
 10
228.765571257707510
 20
-113.113068417540480
 11
228.255154410189790
 21
-113.113068417540480
  0
ARC
  8
0
  6
CONTINUOUS
 62
256
 10
528.755154410189790
 20
-110.613068417540600
 40
300.000000000000060
 50
173.967950853630190
 51
186.032049146369810
  0
LINE
  8
0
  6
DASHDOT
 62
256
 10
148.355777826676790
 20
200.324752626576810
 11
148.355777826676790
 21
180.608181632309420
  0
LINE
  8
0
  6
DASHDOT
 62
256
 10
148.355777826676790
 20
56.247482310529449
 11
148.355777826676790
 21
76.156229338070261
  0
LINE
  8
0
  6
DASHDOT
 62
256
 10
75.355777826676785
 20
56.304936468379310
 11
75.355777826676785
 21
74.791787642130657
  0
LINE
  8
0
  6
DASHDOT
 62
256
 10
75.355777826676785
 20
200.212105814182000
 11
75.355777826676785
 21
182.006364386354110
  0
ARC
  8
0
  6
CONTINUOUS
 62
256
 10
-81.644222173324181
 20
197.800076972980380
 40
5.000000000000000
 50
180.000000000000000
 51
270.000000000000000
  0
LINE
  8
0
  6
CONTINUOUS
 62
256
 10
-86.644222173324181
 20
187.800076972980380
 11
-86.644222173324181
 21
192.800076972980380
  0
LINE
  8
0
  6
DASHDOT
 62
256
 10
37.355777826675819
 20
187.800076972980380
 11
37.355777826675819
 21
192.800076972980380
  0
ARC
  8
0
  6
CONTINUOUS
 62
256
 10
32.355777826675819
 20
197.800076972980380
 40
5.000000000000000
 50
270.000000000000000
 51
0.000000000000000
  0
LINE
  8
0
  6
DASHDOT
 62
256
 10
37.355777826675819
 20
187.800076972980380
 11
37.355777826675819
 21
192.800076972980380
  0
LINE
  8
0
  6
CONTINUOUS
 62
256
 10
-86.644222173324181
 20
192.800076972980380
 11
37.355777826675819
 21
192.800076972980380
  0
LINE
  8
0
  6
CONTINUOUS
 62
256
 10
26.855777826675819
 20
211.461102032667210
 11
-76.144222173324181
 21
211.461102032667210
  0
ARC
  8
0
  6
CONTINUOUS
 62
256
 10
32.355777826675819
 20
216.461102032667210
 40
5.000000000000074
 50
287.457603123721870
 51
0.000000000000000
  0
ARC
  8
0
  6
CONTINUOUS
 62
256
 10
32.555777826675637
 20
212.137648158409550
 40
1.300000000000182
 50
0.000000000000000
 51
73.398450400977680
  0
ARC
  8
0
  6
CONTINUOUS
 62
256
 10
30.355777826675819
 20
204.758623832660080
 40
9.000000000000123
 50
73.398450400980863
 51
106.601549599019120
  0
ARC
  8
0
  6
CONTINUOUS
 62
256
 10
28.155777826676001
 20
212.137648158409550
 40
1.300000000000019
 50
106.601549599022380
 51
180.000000000000000
  0
LINE
  8
0
  6
CONTINUOUS
 62
256
 10
33.855777826675819
 20
212.137648158409550
 11
33.855777826675819
 21
211.150638420485170
  0
LINE
  8
0
  6
CONTINUOUS
 62
256
 10
33.788526308087121
 20
211.116540210289170
 11
33.855777826675819
 21
211.150638420485170
  0
LINE
  8
0
  6
CONTINUOUS
 62
256
 10
33.589356190465324
 20
211.083752375188540
 11
33.788526308087121
 21
211.116540210289170
  0
LINE
  8
0
  6
CONTINUOUS
 62
256
 10
33.265921469734728
 20
211.053534933298520
 11
33.589356190465324
 21
211.083752375188540
  0
LINE
  8
0
  6
CONTINUOUS
 62
256
 10
32.830651560828734
 20
211.027049123964820
 11
33.265921469734728
 21
211.053534933298520
  0
LINE
  8
0
  6
CONTINUOUS
 62
256
 10
32.300273642244427
 20
211.005312781986730
 11
32.830651560828734
 21
211.027049123964820
  0
LINE
  8
0
  6
CONTINUOUS
 62
256
 10
31.695169839953632
 20
210.989161222796550
 11
32.300273642244427
 21
211.005312781986730
  0
LINE
  8
0
  6
CONTINUOUS
 62
256
 10
31.038593953732267
 20
210.979215141756100
 11
31.695169839953632
 21
210.989161222796550
  0
LINE
  8
0
  6
CONTINUOUS
 62
256
 10
30.355777826675819
 20
210.975856761181940
 11
31.038593953732267
 21
210.979215141756100
  0
LINE
  8
0
  6
CONTINUOUS
 62
256
 10
29.672961699619371
 20
210.979215141756100
 11
30.355777826675819
 21
210.975856761181940
  0
LINE
  8
0
  6
CONTINUOUS
 62
256
 10
29.016385813398003
 20
210.989161222796550
 11
29.672961699619371
 21
210.979215141756100
  0
LINE
  8
0
  6
CONTINUOUS
 62
256
 10
28.411282011107211
 20
211.005312781986730
 11
29.016385813398003
 21
210.989161222796550
  0
LINE
  8
0
  6
CONTINUOUS
 62
256
 10
27.880904092522904
 20
211.027049123964820
 11
28.411282011107211
 21
211.005312781986730
  0
LINE
  8
0
  6
CONTINUOUS
 62
256
 10
27.445634183616910
 20
211.053534933298520
 11
27.880904092522904
 21
211.027049123964820
  0
LINE
  8
0
  6
CONTINUOUS
 62
256
 10
27.122199462886314
 20
211.083752375188540
 11
27.445634183616910
 21
211.053534933298520
  0
LINE
  8
0
  6
CONTINUOUS
 62
256
 10
26.923029345264514
 20
211.116540210289170
 11
27.122199462886314
 21
211.083752375188540
  0
LINE
  8
0
  6
CONTINUOUS
 62
256
 10
26.855777826675819
 20
211.150638420485170
 11
26.923029345264514
 21
211.116540210289170
  0
LINE
  8
0
  6
CONTINUOUS
 62
256
 10
26.855777826675819
 20
212.137648158409550
 11
26.855777826675819
 21
211.150638420485170
  0
ARC
  8
0
  6
CONTINUOUS
 62
256
 10
-81.644222173324181
 20
216.461102032667210
 40
5.000000000000000
 50
180.000000000000000
 51
252.542396876278100
  0
LINE
  8
0
  6
CONTINUOUS
 62
256
 10
-83.144222173324181
 20
212.137648158409550
 11
-83.144222173324181
 21
211.150638420485170
  0
LINE
  8
0
  6
CONTINUOUS
 62
256
 10
-76.144222173324181
 20
212.137648158409550
 11
-76.144222173324181
 21
211.150638420485170
  0
ARC
  8
0
  6
CONTINUOUS
 62
256
 10
-81.844222173323999
 20
212.137648158409550
 40
1.300000000000019
 50
106.601549599022380
 51
180.000000000000000
  0
ARC
  8
0
  6
CONTINUOUS
 62
256
 10
-79.644222173324181
 20
204.758623832660080
 40
9.000000000000123
 50
73.398450400980863
 51
106.601549599019150
  0
ARC
  8
0
  6
CONTINUOUS
 62
256
 10
-77.444222173324363
 20
212.137648158409550
 40
1.300000000000182
 50
0.000000000000000
 51
73.398450400977964
  0
LINE
  8
0
  6
CONTINUOUS
 62
256
 10
-76.211473691912872
 20
211.116540210289170
 11
-76.144222173324181
 21
211.150638420485170
  0
LINE
  8
0
  6
CONTINUOUS
 62
256
 10
-76.410643809534676
 20
211.083752375188540
 11
-76.211473691912872
 21
211.116540210289170
  0
LINE
  8
0
  6
CONTINUOUS
 62
256
 10
-76.734078530265279
 20
211.053534933298520
 11
-76.410643809534676
 21
211.083752375188540
  0
LINE
  8
0
  6
CONTINUOUS
 62
256
 10
-77.169348439171273
 20
211.027049123964820
 11
-76.734078530265279
 21
211.053534933298520
  0
LINE
  8
0
  6
CONTINUOUS
 62
256
 10
-77.699726357755580
 20
211.005312781986730
 11
-77.169348439171273
 21
211.027049123964820
  0
LINE
  8
0
  6
CONTINUOUS
 62
256
 10
-78.304830160046365
 20
210.989161222796550
 11
-77.699726357755580
 21
211.005312781986730
  0
LINE
  8
0
  6
CONTINUOUS
 62
256
 10
-78.961406046267740
 20
210.979215141756100
 11
-78.304830160046365
 21
210.989161222796550
  0
LINE
  8
0
  6
CONTINUOUS
 62
256
 10
-79.644222173324181
 20
210.975856761181940
 11
-78.961406046267740
 21
210.979215141756100
  0
LINE
  8
0
  6
CONTINUOUS
 62
256
 10
-80.327038300380636
 20
210.979215141756100
 11
-79.644222173324181
 21
210.975856761181940
  0
LINE
  8
0
  6
CONTINUOUS
 62
256
 10
-80.983614186601997
 20
210.989161222796550
 11
-80.327038300380636
 21
210.979215141756100
  0
LINE
  8
0
  6
CONTINUOUS
 62
256
 10
-81.588717988892796
 20
211.005312781986730
 11
-80.983614186601997
 21
210.989161222796550
  0
LINE
  8
0
  6
CONTINUOUS
 62
256
 10
-82.119095907477103
 20
211.027049123964820
 11
-81.588717988892796
 21
211.005312781986730
  0
LINE
  8
0
  6
CONTINUOUS
 62
256
 10
-82.554365816383083
 20
211.053534933298520
 11
-82.119095907477103
 21
211.027049123964820
  0
LINE
  8
0
  6
CONTINUOUS
 62
256
 10
-82.877800537113686
 20
211.083752375188540
 11
-82.554365816383083
 21
211.053534933298520
  0
LINE
  8
0
  6
CONTINUOUS
 62
256
 10
-83.076970654735490
 20
211.116540210289170
 11
-82.877800537113686
 21
211.083752375188540
  0
LINE
  8
0
  6
CONTINUOUS
 62
256
 10
-83.144222173324181
 20
211.150638420485170
 11
-83.076970654735490
 21
211.116540210289170
  0
LINE
  8
0
  6
CONTINUOUS
 62
256
 10
37.355777826675819
 20
216.461102032667210
 11
37.355777826675819
 21
229.400076972980290
  0
LINE
  8
0
  6
CONTINUOUS
 62
256
 10
-86.644222173324181
 20
216.461102032667210
 11
-86.644222173324181
 21
229.400076972980290
  0
LINE
  8
0
  6
CONTINUOUS
 62
256
 10
-86.644222173324181
 20
215.994587264042590
 11
-87.644222173324181
 21
215.994587264042590
  0
LINE
  8
0
  6
CONTINUOUS
 62
256
 10
38.355777826675819
 20
210.900950335765400
 11
-87.644222173324181
 21
210.900950335765400
  0
ARC
  8
0
  6
CONTINUOUS
 62
256
 10
-81.644222173324181
 20
229.400076972980290
 40
5.000000000000000
 50
90.000000000000000
 51
180.000000000000000
  0
ARC
  8
0
  6
CONTINUOUS
 62
256
 10
-87.644222173324181
 20
213.994587264042590
 40
2.000000000000000
 50
90.000000000000000
 51
180.000000000000000
  0
ARC
  8
0
  6
CONTINUOUS
 62
256
 10
-87.644222173324181
 20
212.900950335765400
 40
2.000000000000000
 50
180.000000000000000
 51
270.000000000000000
  0
ARC
  8
0
  6
CONTINUOUS
 62
256
 10
-87.644222173324181
 20
212.101948464680160
 40
2.000000000000000
 50
180.000000000000000
 51
270.000000000000000
  0
LINE
  8
0
  6
CONTINUOUS
 62
256
 10
-89.644222173324181
 20
213.994587264042590
 11
-89.644222173324181
 21
211.302946593561270
  0
ARC
  8
0
  6
CONTINUOUS
 62
256
 10
-87.644222173324181
 20
211.302946593561270
 40
2.000000000000000
 50
180.000000000000000
 51
270.000000000000000
  0
LINE
  8
0
  6
CONTINUOUS
 62
256
 10
-86.644222173324181
 20
197.800076972980380
 11
-86.644222173324181
 21
209.302946593561270
  0
ARC
  8
0
  6
CONTINUOUS
 62
256
 10
32.355777826675819
 20
229.400076972980290
 40
5.000000000000000
 50
0.000000000000000
 51
90.000000000000000
  0
LINE
  8
0
  6
CONTINUOUS
 62
256
 10
-81.644222173324181
 20
234.400076972980290
 11
32.355777826675819
 21
234.400076972980290
  0
LINE
  8
0
  6
CONTINUOUS
 62
256
 10
37.355777826675819
 20
197.800076972980380
 11
37.355777826675819
 21
209.101948464680160
  0
LINE
  8
0
  6
CONTINUOUS
 62
256
 10
40.355777826675819
 20
213.994587264042590
 11
40.355777826675819
 21
211.302946593561270
  0
LINE
  8
0
  6
CONTINUOUS
 62
256
 10
38.355777826675819
 20
210.101948464663340
 11
-87.644222173324181
 21
210.101948464663340
  0
LINE
  8
0
  6
CONTINUOUS
 62
256
 10
38.355777826675819
 20
209.302946593561270
 11
-87.644222173324181
 21
209.302946593561270
  0
LINE
  8
0
  6
CONTINUOUS
 62
256
 10
37.355777826675819
 20
215.994587264042590
 11
38.355777826675819
 21
215.994587264042590
  0
ARC
  8
0
  6
CONTINUOUS
 62
256
 10
38.355777826675819
 20
213.994587264042590
 40
2.000000000000000
 50
0.000000000000000
 51
90.000000000000000
  0
ARC
  8
0
  6
CONTINUOUS
 62
256
 10
38.355777826675819
 20
212.900950335765400
 40
2.000000000000000
 50
270.000000000000000
 51
0.000000000000000
  0
ARC
  8
0
  6
CONTINUOUS
 62
256
 10
38.355777826675819
 20
212.101948464680160
 40
2.000000000000000
 50
270.000000000000000
 51
0.000000000000000
  0
ARC
  8
0
  6
CONTINUOUS
 62
256
 10
38.355777826675819
 20
211.302946593561270
 40
2.000000000000000
 50
270.000000000000000
 51
0.000000000000000
  0
LINE
  8
0
  6
CONTINUOUS
 62
256
 10
-94.144222173323953
 20
66.680856056107814
 11
-90.144222173324181
 21
66.680856056107814
  0
LINE
  8
0
  6
CONTINUOUS
 62
256
 10
-190.144222173273930
 20
128.300076972980610
 11
-190.144222173273930
 21
75.856871915735155
  0
LINE
  8
0
  6
CONTINUOUS
 62
256
 10
61.855777826675819
 20
68.800076972980605
 11
61.855777826675819
 21
128.300076972980610
  0
LINE
  8
0
  6
CONTINUOUS
 62
256
 10
-87.144222173324181
 20
128.300076972980610
 11
-87.144222173324181
 21
69.680856056107814
  0
ARC
  8
0
  6
CONTINUOUS
 62
256
 10
-94.144222173323953
 20
63.680856056107814
 40
3.000000000000000
 50
90.000000000000000
 51
180.000000000000000
  0
ARC
  8
0
  6
CONTINUOUS
 62
256
 10
-90.144222173324181
 20
69.680856056107814
 40
3.000000000000000
 50
270.000000000000000
 51
0.000000000000000
  0
ARC
  8
0
  6
CONTINUOUS
 62
256
 10
-187.544222173273790
 20
180.743282030226060
 40
2.599999999999721
 50
125.000000000001380
 51
180.000000000000000
  0
LINE
  8
0
  6
CONTINUOUS
 62
256
 10
-179.309775122765420
 20
189.683117858760400
 11
-189.035520907786410
 21
182.873077345377170
  0
ARC
  8
0
  6
CONTINUOUS
 62
256
 10
-167.838246395744420
 20
173.300076972980610
 40
20.000000000000000
 50
90.000000000000000
 51
125.000000000000240
  0
LINE
  8
0
  6
CONTINUOUS
 62
256
 10
-190.144222173273930
 20
128.300076972980610
 11
-190.144222173273930
 21
180.743282030226060
  0
LINE
  8
0
  6
CONTINUOUS
 62
256
 10
-87.144222173324181
 20
193.300076972980610
 11
-167.838246395744420
 21
193.300076972980610
  0
LINE
  8
0
  6
CONTINUOUS
 62
256
 10
61.855777826675819
 20
187.800076972980380
 11
61.855777826675819
 21
128.300076972980610
  0
LINE
  8
0
  6
CONTINUOUS
 62
256
 10
-20.144222173324181
 20
187.800076972980610
 11
61.855777826675819
 21
187.800076972980610
  0
LINE
  8
0
  6
CONTINUOUS
 62
256
 10
-87.144222173324181
 20
185.300076972980610
 11
67.004131282431757
 21
185.300076972980610
  0
LINE
  8
0
  6
CONTINUOUS
 62
256
 10
-87.144222173324181
 20
184.300076972980610
 11
67.756435749891466
 21
184.300076972980610
  0
LINE
  8
0
  6
CONTINUOUS
 62
256
 10
-87.144222173324181
 20
183.300076972980610
 11
68.741399549015313
 21
183.300076972980610
  0
LINE
  8
0
  6
CONTINUOUS
 62
256
 10
-87.144222173324181
 20
128.300076972980610
 11
-87.144222173324181
 21
193.300076972980610
  0
LINE
  8
0
  6
CONTINUOUS
 62
256
 10
-87.144222173324181
 20
178.615611159756330
 11
87.355777826676785
 21
178.615611159756330
  0
LINE
  8
0
  6
CONTINUOUS
 62
256
 10
-87.144222173324181
 20
173.665863691450570
 11
87.355777826676785
 21
173.665863691450570
  0
LINE
  8
0
  6
CONTINUOUS
 62
256
 10
-87.144222173324181
 20
143.300076972980610
 11
87.355777826676785
 21
143.300076972980610
  0
LINE
  8
0
  6
CONTINUOUS
 62
256
 10
-87.144222173324181
 20
147.673338782481780
 11
87.355777826676785
 21
147.673338782481780
  0
LINE
  8
0
  6
CONTINUOUS
 62
256
 10
-87.144222173324181
 20
148.939576698569000
 11
87.355777826676785
 21
148.939576698569000
  0
LINE
  8
0
  6
CONTINUOUS
 62
256
 10
-87.144222173324181
 20
153.130130430111190
 11
87.355777826676785
 21
153.130130430111190
  0
LINE
  8
0
  6
CONTINUOUS
 62
256
 10
-87.144222173324181
 20
154.492010765460460
 11
87.355777826676785
 21
154.492010765460460
  0
LINE
  8
0
  6
CONTINUOUS
 62
256
 10
-87.144222173324181
 20
158.582511299550330
 11
87.355777826676785
 21
158.582511299550330
  0
LINE
  8
0
  6
CONTINUOUS
 62
256
 10
-87.144222173324181
 20
160.050868689354960
 11
87.355777826676785
 21
160.050868689354960
  0
LINE
  8
0
  6
CONTINUOUS
 62
256
 10
-87.144222173324181
 20
164.014614113154490
 11
87.355777826676785
 21
164.014614113154490
  0
LINE
  8
0
  6
CONTINUOUS
 62
256
 10
-87.144222173324181
 20
165.619262028716550
 11
87.355777826676785
 21
165.619262028716550
  0
LINE
  8
0
  6
CONTINUOUS
 62
256
 10
-87.144222173324181
 20
113.300076972980610
 11
87.355777826676785
 21
113.300076972980610
  0
LINE
  8
0
  6
CONTINUOUS
 62
256
 10
-87.144222173324181
 20
108.926815163479430
 11
87.355777826676785
 21
108.926815163479430
  0
LINE
  8
0
  6
CONTINUOUS
 62
256
 10
-87.144222173324181
 20
107.660577247392210
 11
87.355777826676785
 21
107.660577247392210
  0
LINE
  8
0
  6
CONTINUOUS
 62
256
 10
-87.144222173324181
 20
103.470023515850020
 11
87.355777826676785
 21
103.470023515850020
  0
LINE
  8
0
  6
CONTINUOUS
 62
256
 10
-87.144222173324181
 20
102.108143180500750
 11
87.355777826676785
 21
102.108143180500750
  0
LINE
  8
0
  6
CONTINUOUS
 62
256
 10
-87.144222173324181
 20
98.017642646410877
 11
87.355777826676785
 21
98.017642646410877
  0
LINE
  8
0
  6
CONTINUOUS
 62
256
 10
-87.144222173324181
 20
96.549285256606254
 11
87.355777826676785
 21
96.549285256606254
  0
LINE
  8
0
  6
CONTINUOUS
 62
256
 10
-87.144222173324181
 20
92.585539832806717
 11
87.355777826676785
 21
92.585539832806717
  0
LINE
  8
0
  6
CONTINUOUS
 62
256
 10
-87.144222173324181
 20
90.980891917244662
 11
87.355777826676785
 21
90.980891917244662
  0
LINE
  8
0
  6
CONTINUOUS
 62
256
 10
-87.144222173324181
 20
82.934290254510643
 11
87.355777826676785
 21
82.934290254510643
  0
LINE
  8
0
  6
CONTINUOUS
 62
256
 10
-87.144222173324181
 20
73.300076972980605
 11
68.741399549015313
 21
73.300076972980605
  0
LINE
  8
0
  6
CONTINUOUS
 62
256
 10
-87.144222173324181
 20
72.300076972980605
 11
67.756435749891466
 21
72.300076972980605
  0
LINE
  8
0
  6
CONTINUOUS
 62
256
 10
-87.144222173324181
 20
71.300076972980605
 11
67.004131282431757
 21
71.300076972980605
  0
LINE
  8
0
  6
CONTINUOUS
 62
256
 10
-98.144222173323499
 20
182.040192073418210
 11
-100.144222173323480
 21
180.387550434294780
  0
LINE
  8
0
  6
CONTINUOUS
 62
256
 10
-96.144222173323499
 20
183.215977559040990
 11
-98.144222173323499
 21
182.040192073418210
  0
LINE
  8
0
  6
CONTINUOUS
 62
256
 10
-98.144222173323499
 20
182.040192073418210
 11
-96.144222173323499
 21
180.387550434294780
  0
LINE
  8
0
  6
CONTINUOUS
 62
256
 10
-100.144222173323480
 20
183.215977559040990
 11
-98.144222173323499
 21
182.040192073418210
  0
LINE
  8
0
  6
CONTINUOUS
 62
256
 10
-93.534531355428328
 20
179.520645038840310
 11
-93.444222173323510
 21
180.223602005040680
  0
LINE
  8
0
  6
CONTINUOUS
 62
256
 10
-93.801988370520462
 20
178.844702314628220
 11
-93.534531355428328
 21
179.520645038840310
  0
LINE
  8
0
  6
CONTINUOUS
 62
256
 10
-94.236314995501544
 20
178.221749932222820
 11
-93.801988370520462
 21
178.844702314628220
  0
LINE
  8
0
  6
CONTINUOUS
 62
256
 10
-94.820820301746735
 20
177.675727602324230
 11
-94.236314995501544
 21
178.221749932222820
  0
LINE
  8
0
  6
CONTINUOUS
 62
256
 10
-95.533042078131373
 20
177.227618656857600
 11
-94.820820301746735
 21
177.675727602324230
  0
LINE
  8
0
  6
CONTINUOUS
 62
256
 10
-96.345610041207578
 20
176.894643671294860
 11
-95.533042078131373
 21
177.227618656857600
  0
LINE
  8
0
  6
CONTINUOUS
 62
256
 10
-97.227297659847693
 20
176.689598687596600
 11
-96.345610041207578
 21
176.894643671294860
  0
LINE
  8
0
  6
CONTINUOUS
 62
256
 10
-98.144222173323499
 20
176.620363469495830
 11
-97.227297659847693
 21
176.689598687596600
  0
LINE
  8
0
  6
CONTINUOUS
 62
256
 10
-99.061146686799304
 20
176.689598687596600
 11
-98.144222173323499
 21
176.620363469495830
  0
LINE
  8
0
  6
CONTINUOUS
 62
256
 10
-99.942834305439419
 20
176.894643671294860
 11
-99.061146686799304
 21
176.689598687596600
  0
LINE
  8
0
  6
CONTINUOUS
 62
256
 10
-100.755402268515620
 20
177.227618656857600
 11
-99.942834305439419
 21
176.894643671294860
  0
LINE
  8
0
  6
CONTINUOUS
 62
256
 10
-101.467624044900260
 20
177.675727602324230
 11
-100.755402268515620
 21
177.227618656857600
  0
LINE
  8
0
  6
CONTINUOUS
 62
256
 10
-102.052129351145450
 20
178.221749932222820
 11
-101.467624044900260
 21
177.675727602324230
  0
LINE
  8
0
  6
CONTINUOUS
 62
256
 10
-102.486455976126540
 20
178.844702314628220
 11
-102.052129351145450
 21
178.221749932222820
  0
LINE
  8
0
  6
CONTINUOUS
 62
256
 10
-102.753912991218670
 20
179.520645038840310
 11
-102.486455976126540
 21
178.844702314628220
  0
LINE
  8
0
  6
CONTINUOUS
 62
256
 10
-102.844222173323470
 20
180.223602005040680
 11
-102.753912991218670
 21
179.520645038840310
  0
LINE
  8
0
  6
CONTINUOUS
 62
256
 10
-102.753912991218670
 20
180.926558971241040
 11
-102.844222173323470
 21
180.223602005040680
  0
LINE
  8
0
  6
CONTINUOUS
 62
256
 10
-102.486455976126540
 20
181.602501695453130
 11
-102.753912991218670
 21
180.926558971241040
  0
LINE
  8
0
  6
CONTINUOUS
 62
256
 10
-102.052129351145450
 20
182.225454077858530
 11
-102.486455976126540
 21
181.602501695453130
  0
LINE
  8
0
  6
CONTINUOUS
 62
256
 10
-101.467624044900260
 20
182.771476407757120
 11
-102.052129351145450
 21
182.225454077858530
  0
LINE
  8
0
  6
CONTINUOUS
 62
256
 10
-100.755402268515620
 20
183.219585353223750
 11
-101.467624044900260
 21
182.771476407757120
  0
LINE
  8
0
  6
CONTINUOUS
 62
256
 10
-99.942834305439419
 20
183.552560338786490
 11
-100.755402268515620
 21
183.219585353223750
  0
LINE
  8
0
  6
CONTINUOUS
 62
256
 10
-99.061146686799304
 20
183.757605322484750
 11
-99.942834305439419
 21
183.552560338786490
  0
LINE
  8
0
  6
CONTINUOUS
 62
256
 10
-98.144222173323499
 20
183.826840540585520
 11
-99.061146686799304
 21
183.757605322484750
  0
LINE
  8
0
  6
CONTINUOUS
 62
256
 10
-97.227297659847693
 20
183.757605322484750
 11
-98.144222173323499
 21
183.826840540585520
  0
LINE
  8
0
  6
CONTINUOUS
 62
256
 10
-96.345610041207578
 20
183.552560338786490
 11
-97.227297659847693
 21
183.757605322484750
  0
LINE
  8
0
  6
CONTINUOUS
 62
256
 10
-95.533042078131373
 20
183.219585353223750
 11
-96.345610041207578
 21
183.552560338786490
  0
LINE
  8
0
  6
CONTINUOUS
 62
256
 10
-94.820820301746735
 20
182.771476407757120
 11
-95.533042078131373
 21
183.219585353223750
  0
LINE
  8
0
  6
CONTINUOUS
 62
256
 10
-94.236314995501544
 20
182.225454077858530
 11
-94.820820301746735
 21
182.771476407757120
  0
LINE
  8
0
  6
CONTINUOUS
 62
256
 10
-93.801988370520462
 20
181.602501695453130
 11
-94.236314995501544
 21
182.225454077858530
  0
LINE
  8
0
  6
CONTINUOUS
 62
256
 10
-93.534531355428328
 20
180.926558971241040
 11
-93.801988370520462
 21
181.602501695453130
  0
LINE
  8
0
  6
CONTINUOUS
 62
256
 10
-93.444222173323510
 20
180.223602005040680
 11
-93.534531355428328
 21
180.926558971241040
  0
LINE
  8
0
  6
CONTINUOUS
 62
256
 10
-98.144222173323499
 20
74.559961872542772
 11
-100.144222173323480
 21
76.212603511666202
  0
LINE
  8
0
  6
CONTINUOUS
 62
256
 10
-96.144222173323499
 20
73.384176386920444
 11
-98.144222173323499
 21
74.559961872542772
  0
LINE
  8
0
  6
CONTINUOUS
 62
256
 10
-4.944222173324363
 20
68.800076972980605
 11
61.855777826675819
 21
68.800076972980605
  0
ARC
  8
0
  6
CONTINUOUS
 62
256
 10
-167.838246395744420
 20
83.300076972980605
 40
20.000000000000007
 50
234.999999999999740
 51
270.000000000000000
  0
LINE
  8
0
  6
CONTINUOUS
 62
256
 10
-98.144222173323499
 20
74.559961872542772
 11
-96.144222173323499
 21
76.212603511666202
  0
LINE
  8
0
  6
CONTINUOUS
 62
256
 10
-100.144222173323480
 20
73.384176386920444
 11
-98.144222173323499
 21
74.559961872542772
  0
LINE
  8
0
  6
CONTINUOUS
 62
256
 10
-93.534531355428328
 20
75.673594974720402
 11
-93.444222173323510
 21
76.376551940920763
  0
LINE
  8
0
  6
CONTINUOUS
 62
256
 10
-93.801988370520462
 20
74.997652250508310
 11
-93.534531355428328
 21
75.673594974720402
  0
LINE
  8
0
  6
CONTINUOUS
 62
256
 10
-94.236314995501544
 20
74.374699868102908
 11
-93.801988370520462
 21
74.997652250508310
  0
LINE
  8
0
  6
CONTINUOUS
 62
256
 10
-94.820820301746735
 20
73.828677538204332
 11
-94.236314995501544
 21
74.374699868102908
  0
LINE
  8
0
  6
CONTINUOUS
 62
256
 10
-95.533042078131373
 20
73.380568592737717
 11
-94.820820301746735
 21
73.828677538204332
  0
LINE
  8
0
  6
CONTINUOUS
 62
256
 10
-96.345610041207578
 20
73.047593607174946
 11
-95.533042078131373
 21
73.380568592737717
  0
LINE
  8
0
  6
CONTINUOUS
 62
256
 10
-97.227297659847693
 20
72.842548623476702
 11
-96.345610041207578
 21
73.047593607174946
  0
LINE
  8
0
  6
CONTINUOUS
 62
256
 10
-98.144222173323499
 20
72.773313405375930
 11
-97.227297659847693
 21
72.842548623476702
  0
LINE
  8
0
  6
CONTINUOUS
 62
256
 10
-99.061146686799304
 20
72.842548623476702
 11
-98.144222173323499
 21
72.773313405375930
  0
LINE
  8
0
  6
CONTINUOUS
 62
256
 10
-99.942834305439419
 20
73.047593607174946
 11
-99.061146686799304
 21
72.842548623476702
  0
LINE
  8
0
  6
CONTINUOUS
 62
256
 10
-100.755402268515620
 20
73.380568592737717
 11
-99.942834305439419
 21
73.047593607174946
  0
LINE
  8
0
  6
CONTINUOUS
 62
256
 10
-101.467624044900260
 20
73.828677538204332
 11
-100.755402268515620
 21
73.380568592737717
  0
LINE
  8
0
  6
CONTINUOUS
 62
256
 10
-102.052129351145450
 20
74.374699868102908
 11
-101.467624044900260
 21
73.828677538204332
  0
LINE
  8
0
  6
CONTINUOUS
 62
256
 10
-102.486455976126540
 20
74.997652250508310
 11
-102.052129351145450
 21
74.374699868102908
  0
LINE
  8
0
  6
CONTINUOUS
 62
256
 10
-102.753912991218670
 20
75.673594974720402
 11
-102.486455976126540
 21
74.997652250508310
  0
LINE
  8
0
  6
CONTINUOUS
 62
256
 10
-102.844222173323470
 20
76.376551940920763
 11
-102.753912991218670
 21
75.673594974720402
  0
LINE
  8
0
  6
CONTINUOUS
 62
256
 10
-102.753912991218670
 20
77.079508907121124
 11
-102.844222173323470
 21
76.376551940920763
  0
LINE
  8
0
  6
CONTINUOUS
 62
256
 10
-102.486455976126540
 20
77.755451631333216
 11
-102.753912991218670
 21
77.079508907121124
  0
LINE
  8
0
  6
CONTINUOUS
 62
256
 10
-102.052129351145450
 20
78.378404013738617
 11
-102.486455976126540
 21
77.755451631333216
  0
LINE
  8
0
  6
CONTINUOUS
 62
256
 10
-101.467624044900260
 20
78.924426343637194
 11
-102.052129351145450
 21
78.378404013738617
  0
LINE
  8
0
  6
CONTINUOUS
 62
256
 10
-100.755402268515620
 20
79.372535289103809
 11
-101.467624044900260
 21
78.924426343637194
  0
LINE
  8
0
  6
CONTINUOUS
 62
256
 10
-99.942834305439419
 20
79.705510274666580
 11
-100.755402268515620
 21
79.372535289103809
  0
LINE
  8
0
  6
CONTINUOUS
 62
256
 10
-99.061146686799304
 20
79.910555258364823
 11
-99.942834305439419
 21
79.705510274666580
  0
LINE
  8
0
  6
CONTINUOUS
 62
256
 10
-98.144222173323499
 20
79.979790476465595
 11
-99.061146686799304
 21
79.910555258364823
  0
LINE
  8
0
  6
CONTINUOUS
 62
256
 10
-97.227297659847693
 20
79.910555258364823
 11
-98.144222173323499
 21
79.979790476465595
  0
LINE
  8
0
  6
CONTINUOUS
 62
256
 10
-96.345610041207578
 20
79.705510274666580
 11
-97.227297659847693
 21
79.910555258364823
  0
LINE
  8
0
  6
CONTINUOUS
 62
256
 10
-95.533042078131373
 20
79.372535289103809
 11
-96.345610041207578
 21
79.705510274666580
  0
LINE
  8
0
  6
CONTINUOUS
 62
256
 10
-94.820820301746735
 20
78.924426343637194
 11
-95.533042078131373
 21
79.372535289103809
  0
LINE
  8
0
  6
CONTINUOUS
 62
256
 10
-94.236314995501544
 20
78.378404013738617
 11
-94.820820301746735
 21
78.924426343637194
  0
LINE
  8
0
  6
CONTINUOUS
 62
256
 10
-93.801988370520462
 20
77.755451631333216
 11
-94.236314995501544
 21
78.378404013738617
  0
LINE
  8
0
  6
CONTINUOUS
 62
256
 10
-93.534531355428328
 20
77.079508907121124
 11
-93.801988370520462
 21
77.755451631333216
  0
LINE
  8
0
  6
CONTINUOUS
 62
256
 10
-93.444222173323510
 20
76.376551940920763
 11
-93.534531355428328
 21
77.079508907121124
  0
LINE
  8
0
  6
CONTINUOUS
 62
256
 10
-97.144222173323953
 20
63.300076972980605
 11
-167.838246395744420
 21
63.300076972980605
  0
ARC
  8
0
  6
CONTINUOUS
 62
256
 10
-187.544222173273790
 20
75.856871915735155
 40
2.600000000000136
 50
180.000000000000000
 51
234.999999999998810
  0
LINE
  8
0
  6
CONTINUOUS
 62
256
 10
-179.309775122765420
 20
66.917036087200813
 11
-189.035520907786410
 21
73.727076600584041
  0
LINE
  8
0
  6
CONTINUOUS
 62
256
 10
-87.144222173324181
 20
187.800076972980380
 11
61.855777826675819
 21
187.800076972980380
  0
LINE
  8
0
  6
CONTINUOUS
 62
256
 10
-97.144222173323953
 20
63.300076972980605
 11
-97.144222173323953
 21
63.680856056107814
  0
LINE
  8
0
  6
CONTINUOUS
 62
256
 10
-87.144222173324181
 20
77.984542786204884
 11
87.355777826676785
 21
77.984542786204884
  0
LINE
  8
0
  6
CONTINUOUS
 62
256
 10
-94.944222173324363
 20
64.800076972980605
 11
-4.944222173324363
 21
64.800076972980605
  0
LINE
  8
0
  6
CONTINUOUS
 62
256
 10
-94.944222173324363
 20
66.572222515068006
 11
-94.944222173324363
 21
31.800076972980605
  0
LINE
  8
0
  6
CONTINUOUS
 62
256
 10
-87.944222173324363
 20
30.800076972980605
 11
-87.944222173324363
 21
30.300076972980605
  0
LINE
  8
0
  6
CONTINUOUS
 62
256
 10
-79.944222173324363
 20
30.800076972980605
 11
-79.944222173324363
 21
30.300076972980605
  0
LINE
  8
0
  6
CONTINUOUS
 62
256
 10
-11.944222173324363
 20
30.800076972980605
 11
-11.944222173324363
 21
30.300076972980605
  0
LINE
  8
0
  6
CONTINUOUS
 62
256
 10
-19.944222173324363
 20
30.800076972980605
 11
-19.944222173324363
 21
30.300076972980605
  0
LINE
  8
0
  6
CONTINUOUS
 62
256
 10
-19.944222173324363
 20
30.300076972980605
 11
-11.944222173324363
 21
30.300076972980605
  0
LINE
  8
0
  6
CONTINUOUS
 62
256
 10
-87.944222173324363
 20
30.300076972980605
 11
-79.944222173324363
 21
30.300076972980605
  0
ARC
  8
0
  6
CONTINUOUS
 62
256
 10
-93.944222173324363
 20
31.800076972980605
 40
1.000000000000000
 50
180.000000000000000
 51
270.000000000000000
  0
LINE
  8
0
  6
CONTINUOUS
 62
256
 10
-93.944222173324363
 20
30.800076972980605
 11
-5.944222173324363
 21
30.800076972980605
  0
ARC
  8
0
  6
CONTINUOUS
 62
256
 10
-5.944222173324363
 20
31.800076972980605
 40
1.000000000000000
 50
270.000000000000000
 51
0.000000000000000
  0
LINE
  8
0
  6
CONTINUOUS
 62
256
 10
-4.944222173324363
 20
69.800076972980605
 11
-4.944222173324363
 21
31.800076972980605
  0
LINE
  8
0
  6
CONTINUOUS
 62
256
 10
-4.944222173324363
 20
69.800076972980605
 11
-87.144222173345554
 21
69.800076972980605
  0
ARC
  8
0
  6
CONTINUOUS
 62
256
 10
158.855777826676790
 20
57.765471499212254
 40
2.000000000000027
 50
271.000000000001760
 51
0.000000000000000
  0
ARC
  8
0
  6
CONTINUOUS
 62
256
 10
64.855777826676785
 20
57.743350394412118
 40
2.000000000000000
 50
180.000000000000000
 51
268.351638847923080
  0
ARC
  8
0
  6
CONTINUOUS
 62
256
 10
158.855777826676790
 20
198.834682446748960
 40
2.000000000000000
 50
0.000000000000000
 51
88.999999999998224
  0
ARC
  8
0
  6
CONTINUOUS
 62
256
 10
64.855777826676785
 20
198.921800312340570
 40
2.000000000000383
 50
91.542211367440515
 51
180.000000000000000
  0
LINE
  8
0
  6
CONTINUOUS
 62
256
 10
160.855777826676790
 20
57.765471499212254
 11
160.855777826676790
 21
128.300076972980610
  0
LINE
  8
0
  6
CONTINUOUS
 62
256
 10
158.890682639551410
 20
55.765776108899445
 11
99.855777826676785
 21
54.735318012359130
  0
LINE
  8
0
  6
CONTINUOUS
 62
256
 10
160.855777826676790
 20
198.834682446748960
 11
160.855777826676790
 21
128.300076972980610
  0
LINE
  8
0
  6
CONTINUOUS
 62
256
 10
158.890682639551410
 20
200.834377837061770
 11
99.855777826676785
 21
201.864835933602080
  0
LINE
  8
0
  6
CONTINUOUS
 62
256
 10
64.801950994631170
 20
200.921075849167210
 11
99.855777826676785
 21
201.864835933602080
  0
LINE
  8
0
  6
CONTINUOUS
 62
256
 10
97.855777826676785
 20
197.800076972980610
 11
97.855777826676785
 21
128.300076972980610
  0
LINE
  8
0
  6
CONTINUOUS
 62
256
 10
99.855777826676785
 20
54.735318012359130
 11
64.798247104828533
 21
55.744178011638724
  0
LINE
  8
0
  6
CONTINUOUS
 62
256
 10
62.855777826676785
 20
57.743350394412118
 11
62.855777826676785
 21
68.800076972979696
  0
LINE
  8
0
  6
CONTINUOUS
 62
256
 10
62.855777826676785
 20
198.921800312340570
 11
62.855777826676785
 21
187.800076972979700
  0
LINE
  8
0
  6
DASHDOT
 62
256
 10
200.515455463461880
 20
128.300076972980610
 11
-212.698003509380210
 21
128.300076972980610
  0
LINE
  8
0
  6
CONTINUOUS
 62
256
 10
97.855777826676785
 20
58.800076972980605
 11
97.855777826676785
 21
128.300076972980610
  0
LINE
  8
0
  6
CONTINUOUS
 62
256
 10
158.855777826676790
 20
80.216819892142667
 11
158.855777826676790
 21
128.300076972980610
  0
ARC
  8
0
  6
CONTINUOUS
 62
256
 10
159.855777826676790
 20
104.800076972980610
 40
1.000000000000000
 50
90.000000000000000
 51
180.000000000000000
  0
ARC
  8
0
  6
CONTINUOUS
 62
256
 10
159.855777826676790
 20
106.800076972980610
 40
1.000000000000000
 50
270.000000000000000
 51
0.000000000000000
  0
CIRCLE
  8
0
  6
CONTINUOUS
 62
256
 10
148.355777826676790
 20
65.800076972980605
 40
5.000000000000000
  0
CIRCLE
  8
0
  6
CONTINUOUS
 62
256
 10
75.355777826676785
 20
65.800076972980605
 40
5.000000000000000
  0
LINE
  8
0
  6
DASHDOT
 62
256
 10
65.355777826676785
 20
65.800076972980605
 11
85.355777826676785
 21
65.800076972980605
  0
LINE
  8
0
  6
DASHDOT
 62
256
 10
138.355777826676790
 20
65.800076972980605
 11
158.355777826676790
 21
65.800076972980605
  0
LINE
  8
0
  6
CONTINUOUS
 62
256
 10
114.855777826676790
 20
59.096813076759645
 11
97.855777826676785
 21
58.800076972980605
  0
ARC
  8
0
  6
CONTINUOUS
 62
256
 10
113.808633440439730
 20
119.087674786143890
 40
60.000000000000789
 50
271.000000000000060
 51
290.781468983387010
  0
ARC
  8
0
  6
CONTINUOUS
 62
256
 10
134.387299993315990
 20
64.861127017495164
 40
2.000000000000294
 50
290.781468983388660
 51
3.845591629898130
  0
ARC
  8
0
  6
CONTINUOUS
 62
256
 10
148.355777826676790
 20
190.800076972980610
 40
11.999999999999945
 50
176.154408370097340
 51
270.000000000000000
  0
ARC
  8
0
  6
CONTINUOUS
 62
256
 10
148.355777826676790
 20
65.800076972980605
 40
12.000000000000000
 50
90.000000000000000
 51
183.845591629902630
  0
LINE
  8
0
  6
CONTINUOUS
 62
256
 10
156.643144566260160
 20
77.944733497503876
 11
148.355777826676790
 21
77.800076972980605
  0
ARC
  8
0
  6
CONTINUOUS
 62
256
 10
156.608239753385530
 20
79.944428887816684
 40
2.000000000000027
 50
271.000000000001760
 51
317.554892155678490
  0
ARC
  8
0
  6
CONTINUOUS
 62
256
 10
113.808633440439730
 20
119.087674786143890
 40
60.000000000000327
 50
317.554892155681560
 51
317.918488970294730
  0
ARC
  8
0
  6
CONTINUOUS
 62
256
 10
156.855777826676790
 20
80.216819892142667
 40
2.000000000000259
 50
317.918488970284560
 51
0.000000000000000
  0
LINE
  8
0
  6
CONTINUOUS
 62
256
 10
158.855777826676790
 20
176.383334053818540
 11
158.855777826676790
 21
128.300076972980610
  0
ARC
  8
0
  6
CONTINUOUS
 62
256
 10
159.855777826676790
 20
151.800076972980610
 40
1.000000000000000
 50
180.000000000000000
 51
270.000000000000000
  0
ARC
  8
0
  6
CONTINUOUS
 62
256
 10
159.855777826676790
 20
149.800076972980610
 40
1.000000000000000
 50
0.000000000000000
 51
90.000000000000000
  0
CIRCLE
  8
0
  6
CONTINUOUS
 62
256
 10
148.355777826676790
 20
190.800076972980610
 40
5.000000000000000
  0
CIRCLE
  8
0
  6
CONTINUOUS
 62
256
 10
75.355777826676785
 20
190.800076972980610
 40
5.000000000000000
  0
LINE
  8
0
  6
DASHDOT
 62
256
 10
65.355777826676785
 20
190.800076972980610
 11
85.355777826676785
 21
190.800076972980610
  0
LINE
  8
0
  6
DASHDOT
 62
256
 10
138.355777826676790
 20
190.800076972980610
 11
158.355777826676790
 21
190.800076972980610
  0
LINE
  8
0
  6
CONTINUOUS
 62
256
 10
114.855777826676790
 20
197.503340869200660
 11
97.855777826676785
 21
197.800076972980610
  0
ARC
  8
0
  6
CONTINUOUS
 62
256
 10
113.808633440439730
 20
137.512479159817300
 40
60.000000000000398
 50
69.218531016612971
 51
88.999999999999957
  0
ARC
  8
0
  6
CONTINUOUS
 62
256
 10
134.387299993315990
 20
191.739026928466050
 40
1.999999999999981
 50
356.154408370101690
 51
69.218531016611522
  0
LINE
  8
0
  6
CONTINUOUS
 62
256
 10
156.643144566260160
 20
178.655420448457330
 11
148.355777826676790
 21
178.800076972980610
  0
ARC
  8
0
  6
CONTINUOUS
 62
256
 10
156.608239753385530
 20
176.655725058144530
 40
1.999999999999802
 50
42.445107844321505
 51
88.999999999998124
  0
ARC
  8
0
  6
CONTINUOUS
 62
256
 10
113.808633440439730
 20
137.512479159817300
 40
60.000000000000604
 50
42.081511029705268
 51
42.445107844318400
  0
ARC
  8
0
  6
CONTINUOUS
 62
256
 10
156.855777826676790
 20
176.383334053818540
 40
2.000000000000000
 50
0.000000000000000
 51
42.081511029715649
  0
ARC
  8
0
  6
CONTINUOUS
 62
256
 10
88.355777826676785
 20
89.050076972980605
 40
1.000000000000000
 50
90.000000000000000
 51
180.000000000000000
  0
ARC
  8
0
  6
CONTINUOUS
 62
256
 10
88.355777826676785
 20
167.550076972980610
 40
1.000000000000000
 50
180.000000000000000
 51
270.000000000000000
  0
ARC
  8
0
  6
CONTINUOUS
 62
256
 10
88.355777826676785
 20
101.550076972980610
 40
1.000000000000000
 50
180.000000000000000
 51
270.000000000000000
  0
ARC
  8
0
  6
CONTINUOUS
 62
256
 10
88.355777826676785
 20
155.050076972980610
 40
1.000000000000000
 50
90.000000000000000
 51
180.000000000000000
  0
ARC
  8
0
  6
CONTINUOUS
 62
256
 10
91.955777826677149
 20
90.450076972980241
 40
0.399999999999636
 50
270.000000000000000
 51
0.000000000000000
  0
ARC
  8
0
  6
CONTINUOUS
 62
256
 10
91.955777826677149
 20
166.150076972980970
 40
0.399999999999636
 50
0.000000000000000
 51
90.000000000000000
  0
ARC
  8
0
  6
CONTINUOUS
 62
256
 10
91.955777826677149
 20
100.150076972980950
 40
0.399999999999636
 50
0.000000000000000
 51
90.000000000000000
  0
ARC
  8
0
  6
CONTINUOUS
 62
256
 10
91.955777826677149
 20
156.450076972980240
 40
0.399999999999636
 50
270.000000000000000
 51
0.000000000000000
  0
LINE
  8
0
  6
CONTINUOUS
 62
256
 10
92.355777826676785
 20
100.150076972980950
 11
92.355777826676785
 21
90.450076972980241
  0
LINE
  8
0
  6
CONTINUOUS
 62
256
 10
92.355777826676785
 20
156.450076972980240
 11
92.355777826676785
 21
166.150076972980970
  0
LINE
  8
0
  6
CONTINUOUS
 62
256
 10
91.955777826677149
 20
90.050076972980605
 11
88.355777826676785
 21
90.050076972980605
  0
LINE
  8
0
  6
CONTINUOUS
 62
256
 10
91.955777826677149
 20
166.550076972980610
 11
88.355777826676785
 21
166.550076972980610
  0
LINE
  8
0
  6
CONTINUOUS
 62
256
 10
91.955777826677149
 20
100.550076972980610
 11
88.355777826676785
 21
100.550076972980610
  0
LINE
  8
0
  6
CONTINUOUS
 62
256
 10
91.955777826677149
 20
156.050076972980610
 11
88.355777826676785
 21
156.050076972980610
  0
LINE
  8
0
  6
CONTINUOUS
 62
256
 10
162.855794719384900
 20
128.300076972980610
 11
162.855794719384900
 21
117.500076972980420
  0
LINE
  8
0
  6
CONTINUOUS
 62
256
 10
162.655794719385090
 20
117.300076972980610
 11
160.855777826676790
 21
117.300076972980610
  0
LINE
  8
0
  6
CONTINUOUS
 62
256
 10
165.415602340520310
 20
137.800076972980610
 11
164.855794719384900
 21
137.650076972980970
  0
LINE
  8
0
  6
CONTINUOUS
 62
256
 10
164.855794719384900
 20
137.650076972980970
 11
163.255794719384990
 21
137.650076972980970
  0
LINE
  8
0
  6
CONTINUOUS
 62
256
 10
162.655794719385090
 20
117.300076972980610
 11
162.855794719384900
 21
117.500076972980420
  0
LINE
  8
0
  6
CONTINUOUS
 62
256
 10
190.455794719384810
 20
137.800076972980610
 11
165.415602340520310
 21
137.800076972980610
  0
ARC
  8
0
  6
CONTINUOUS
 62
256
 10
163.255794719384990
 20
138.122000493031010
 40
0.400000000000091
 50
180.000000000000000
 51
270.000000000000000
  0
LINE
  8
0
  6
CONTINUOUS
 62
256
 10
162.855794719384900
 20
128.300076972980610
 11
162.855794719384900
 21
139.172000493031190
  0
LINE
  8
0
  6
CONTINUOUS
 62
256
 10
162.655794719385090
 20
139.372000493031010
 11
160.855777826676790
 21
139.372000493031010
  0
LINE
  8
0
  6
CONTINUOUS
 62
256
 10
162.655794719385090
 20
139.372000493031010
 11
162.855794719384900
 21
139.172000493031190
  0
ARC
  8
0
  6
CONTINUOUS
 62
256
 10
190.455794719384810
 20
137.400076972980970
 40
0.400000000000091
 50
0.000000000000000
 51
90.000000000000000
  0
LINE
  8
0
  6
CONTINUOUS
 62
256
 10
190.855794719384900
 20
128.300076972980610
 11
190.855794719384900
 21
137.400076972980970
  0
ARC
  8
0
  6
CONTINUOUS
 62
256
 10
91.955777826677149
 20
90.450076972980241
 40
0.399999999999636
 50
270.000000000000000
 51
0.000000000000000
  0
ARC
  8
0
  6
CONTINUOUS
 62
256
 10
91.955777826677149
 20
166.150076972980970
 40
0.399999999999636
 50
0.000000000000000
 51
90.000000000000000
  0
ARC
  8
0
  6
CONTINUOUS
 62
256
 10
91.955777826677149
 20
100.150076972980950
 40
0.399999999999636
 50
0.000000000000000
 51
90.000000000000000
  0
ARC
  8
0
  6
CONTINUOUS
 62
256
 10
91.955777826677149
 20
156.450076972980240
 40
0.399999999999636
 50
270.000000000000000
 51
0.000000000000000
  0
ARC
  8
0
  6
CONTINUOUS
 62
256
 10
65.432742449005673
 20
69.232768175738784
 40
0.499999999999963
 50
268.500000000010170
 51
340.917881576392520
  0
ARC
  8
0
  6
CONTINUOUS
 62
256
 10
65.432742449005673
 20
187.367385770221520
 40
0.500000000000234
 50
19.082118423705538
 51
91.499999999990578
  0
ARC
  8
0
  6
CONTINUOUS
 62
256
 10
85.355777826676785
 20
73.800076972980605
 40
2.000000000000000
 50
0.000000000000000
 51
90.000000000000000
  0
ARC
  8
0
  6
CONTINUOUS
 62
256
 10
85.355777826676785
 20
182.800076972980610
 40
2.000000000000000
 50
270.000000000000000
 51
0.000000000000000
  0
ARC
  8
0
  6
CONTINUOUS
 62
256
 10
75.355777826676785
 20
65.800076972980605
 40
10.000000000000000
 50
90.000000000000000
 51
160.917881576302420
  0
ARC
  8
0
  6
CONTINUOUS
 62
256
 10
75.355777826676785
 20
190.800076972980610
 40
10.000000000000343
 50
199.082118423697580
 51
270.000000000000000
  0
ARC
  8
0
  6
CONTINUOUS
 62
256
 10
87.855777826676785
 20
59.300076972980605
 40
0.500000000000000
 50
180.000000000000000
 51
270.000000000000000
  0
ARC
  8
0
  6
CONTINUOUS
 62
256
 10
87.855777826676785
 20
197.300076972980610
 40
0.500000000000000
 50
90.000000000000000
 51
180.000000000000000
  0
LINE
  8
0
  6
CONTINUOUS
 62
256
 10
65.419653974851826
 20
68.732939513251040
 11
61.855777826675876
 21
68.826262894549473
  0
LINE
  8
0
  6
CONTINUOUS
 62
256
 10
65.419653974851826
 20
187.867214432709260
 11
61.855777826675876
 21
187.773891051411740
  0
LINE
  8
0
  6
CONTINUOUS
 62
256
 10
87.855777826676785
 20
58.800076972980605
 11
97.355777826676785
 21
58.800076972980605
  0
LINE
  8
0
  6
CONTINUOUS
 62
256
 10
87.855777826676785
 20
197.800076972980610
 11
97.355777826676785
 21
197.800076972980610
  0
LINE
  8
0
  6
CONTINUOUS
 62
256
 10
87.355777826676785
 20
128.300076972980610
 11
87.355777826676785
 21
99.550076019306289
  0
LINE
  8
0
  6
CONTINUOUS
 62
256
 10
87.355777826676785
 20
128.300076972980610
 11
87.355777826676785
 21
157.050077926654920
  0
LINE
  8
0
  6
CONTINUOUS
 62
256
 10
75.355777826676785
 20
75.800076972980605
 11
85.355777826676785
 21
75.800076972980605
  0
LINE
  8
0
  6
CONTINUOUS
 62
256
 10
75.355777826676785
 20
180.800076972980610
 11
85.355777826676785
 21
180.800076972980610
  0
LINE
  8
0
  6
CONTINUOUS
 62
256
 10
97.355777826676785
 20
128.300076972980610
 11
97.355777826676785
 21
58.800076972980605
  0
LINE
  8
0
  6
CONTINUOUS
 62
256
 10
97.355777826676785
 20
128.300076972980610
 11
97.355777826676785
 21
197.800076972980610
  0
LINE
  8
0
  6
CONTINUOUS
 62
256
 10
61.855777826675876
 20
128.300076972980610
 11
61.855777826675876
 21
68.826262894549473
  0
LINE
  8
0
  6
CONTINUOUS
 62
256
 10
61.855777826675876
 20
128.300076972980610
 11
61.855777826675876
 21
187.773891051411740
  0
LINE
  8
0
  6
CONTINUOUS
 62
256
 10
87.355777826676785
 20
91.050077926654922
 11
87.355777826676785
 21
59.300076972980605
  0
LINE
  8
0
  6
CONTINUOUS
 62
256
 10
87.355777826676785
 20
165.550076019306290
 11
87.355777826676785
 21
197.300076972980610
  0
LINE
  8
0
  6
CONTINUOUS
 62
256
 10
92.355777826676785
 20
91.050077926654922
 11
87.355777826676785
 21
91.050077926654922
  0
LINE
  8
0
  6
CONTINUOUS
 62
256
 10
92.355777826676785
 20
99.550076019306289
 11
87.355777826676785
 21
99.550076019306289
  0
LINE
  8
0
  6
CONTINUOUS
 62
256
 10
87.355777826676785
 20
91.050077926654922
 11
87.355777826676785
 21
99.550076019306289
  0
LINE
  8
0
  6
CONTINUOUS
 62
256
 10
92.355777826676785
 20
99.900076400776015
 11
92.355777826676785
 21
90.700077545185195
  0
LINE
  8
0
  6
CONTINUOUS
 62
256
 10
92.355777826676785
 20
165.550076019306290
 11
87.355777826676785
 21
165.550076019306290
  0
LINE
  8
0
  6
CONTINUOUS
 62
256
 10
92.355777826676785
 20
157.050077926654920
 11
87.355777826676785
 21
157.050077926654920
  0
LINE
  8
0
  6
CONTINUOUS
 62
256
 10
87.355777826676785
 20
165.550076019306290
 11
87.355777826676785
 21
157.050077926654920
  0
LINE
  8
0
  6
CONTINUOUS
 62
256
 10
92.355777826676785
 20
156.700077545185200
 11
92.355777826676785
 21
165.900076400776020
  0
LINE
  8
0
  6
DASHDOT
 62
256
 10
-73.944222173324363
 20
44.800076972980605
 11
-91.944222173324363
 21
44.800076972980605
  0
LINE
  8
0
  6
DASHDOT
 62
256
 10
-82.944222173324363
 20
35.800076972980605
 11
-82.944222173324363
 21
62.801676295530342
  0
LINE
  8
0
  6
DASHED
 62
256
 10
-89.944222173324363
 20
64.800076972980605
 11
-89.944222173324363
 21
44.800076972980605
  0
LINE
  8
0
  6
DASHED
 62
256
 10
-75.944222173324363
 20
64.800076972980605
 11
-75.944222173324363
 21
44.800076972980605
  0
ARC
  8
0
  6
DASHED
 62
256
 10
-82.944222173324363
 20
44.800076972980605
 40
7.000000000000000
 50
180.000000000000000
 51
0.000000000000000
  0
CIRCLE
  8
0
  6
DASHED
 62
256
 10
-82.944222173324363
 20
44.800076972980605
 40
6.000000000000000
  0
LINE
  8
0
  6
DASHDOT
 62
256
 10
-307.461737745674330
 20
-92.613068417541115
 11
-351.361606122784000
 21
-92.613068417541115
  0
LINE
  8
0
  6
DASHDOT
 62
256
 10
-329.228640032608380
 20
-181.288250408652570
 11
-329.228640032608380
 21
-36.594201077289370
  0
LINE
  8
0
  6
DASHDOT
 62
256
 10
-446.124583313070620
 20
-110.613068417541740
 11
-221.180528252603840
 21
-110.613068417540480
  0
LINE
  8
0
  6
CONTINUOUS
 62
256
 10
-272.874555037569620
 20
-157.613068417541110
 11
-259.228640032608380
 21
-157.613068417541110
  0
LINE
  8
0
  6
CONTINUOUS
 62
256
 10
-280.728640032608380
 20
-172.613068417541110
 11
-280.728640032608380
 21
-165.759871890954970
  0
LINE
  8
0
  6
CONTINUOUS
 62
256
 10
-285.728640032608380
 20
-170.613068417541110
 11
-285.728640032608380
 21
-167.448960669972450
  0
LINE
  8
0
  6
CONTINUOUS
 62
256
 10
-287.728640032608380
 20
-169.613068417541110
 11
-287.728640032608380
 21
-167.734599382300080
  0
LINE
  8
0
  6
CONTINUOUS
 62
256
 10
-293.728642334800040
 20
-169.422465618388120
 11
-295.044086654779450
 21
-168.662991086806640
  0
LINE
  8
0
  6
CONTINUOUS
 62
256
 10
-291.728641464334150
 20
-168.264824669502450
 11
-291.728641463118720
 21
-168.267767870869480
  0
ARC
  8
0
  6
CONTINUOUS
 62
256
 10
-293.728640032608380
 20
-167.113068417541230
 40
4.249999046325473
 50
205.471502597284460
 51
348.156246525909920
  0
LINE
  8
0
  6
CONTINUOUS
 62
256
 10
-298.978640032608380
 20
-169.613068417541230
 11
-298.978640032608380
 21
-169.087135330738930
  0
ARC
  8
0
  6
CONTINUOUS
 62
256
 10
-299.978640032608380
 20
-169.613068417541230
 40
1.000000000000000
 50
270.000000000000000
 51
0.000000000000000
  0
LINE
  8
0
  6
CONTINUOUS
 62
256
 10
-366.728638600882620
 20
-168.264824669502450
 11
-366.728638602098040
 21
-168.267767870869480
  0
LINE
  8
0
  6
CONTINUOUS
 62
256
 10
-364.728637730416720
 20
-169.422465618388120
 11
-363.413193410437320
 21
-168.662991086806640
  0
LINE
  8
0
  6
CONTINUOUS
 62
256
 10
-359.478640032608380
 20
-169.613068417541110
 11
-359.478640032608380
 21
-169.087135330738930
  0
ARC
  8
0
  6
CONTINUOUS
 62
256
 10
-364.728640032608380
 20
-167.113068417541230
 40
4.249999046325530
 50
191.843753474089940
 51
334.528497402715170
  0
LINE
  8
0
  6
CONTINUOUS
 62
256
 10
-370.728640032608380
 20
-169.613068417541110
 11
-370.728640032608380
 21
-167.734599382300080
  0
LINE
  8
0
  6
CONTINUOUS
 62
256
 10
-372.728640032608380
 20
-170.613068417541110
 11
-372.728640032608380
 21
-167.448960669972450
  0
LINE
  8
0
  6
CONTINUOUS
 62
256
 10
-377.728640032608380
 20
-172.613068417541110
 11
-377.728640032608500
 21
-165.759871890955200
  0
LINE
  8
0
  6
CONTINUOUS
 62
256
 10
-385.582725027646800
 20
-157.613068417541110
 11
-399.228640032608380
 21
-157.613068417541110
  0
ARC
  8
0
  6
CONTINUOUS
 62
256
 10
-392.596225183497610
 20
-145.613068417541110
 40
2.999999999999976
 50
88.520342186484484
 51
90.000000000000000
  0
LINE
  8
0
  6
CONTINUOUS
 62
256
 10
-392.596225183497610
 20
-142.613068417541110
 11
-395.728640032608380
 21
-142.613068417541110
  0
LINE
  8
0
  6
CONTINUOUS
 62
256
 10
-393.284327350437250
 20
-134.421240503603140
 11
-394.918731158206010
 21
-131.590370068463530
  0
LINE
  8
0
  6
CONTINUOUS
 62
256
 10
-398.728640032608380
 20
-155.870427730421910
 11
-398.728640032608380
 21
-138.183317676009840
  0
ARC
  8
0
  6
CONTINUOUS
 62
256
 10
-348.728640032608380
 20
-95.366611273527724
 40
50.000000000000021
 50
136.062984333788140
 51
158.633168118782830
  0
ARC
  8
0
  6
CONTINUOUS
 62
256
 10
-348.728640032608380
 20
-95.366611273527724
 40
49.999999999999957
 50
91.489858156854154
 51
126.344924670902540
  0
ARC
  8
0
  6
CONTINUOUS
 62
256
 10
-362.228640032608500
 20
-54.613068417541115
 40
4.249999046325684
 50
36.699034319072233
 51
155.998310623042580
  0
LINE
  8
0
  6
CONTINUOUS
 62
256
 10
-362.499342773841820
 20
-52.459959079571945
 11
-362.228642457628100
 21
-52.303669482553289
  0
LINE
  8
0
  6
CONTINUOUS
 62
256
 10
-362.044977057067400
 20
-52.409708288681145
 11
-362.228642468163680
 21
-52.303669195079408
  0
LINE
  8
0
  6
CONTINUOUS
 62
256
 10
-367.478640032608380
 20
-50.523133486897450
 11
-367.478640032608380
 21
-53.056570081516099
  0
LINE
  8
0
  6
CONTINUOUS
 62
256
 10
-356.978640032608380
 20
-46.905931336077401
 11
-356.978640032608380
 21
-51.896684803145376
  0
LINE
  8
0
  6
CONTINUOUS
 62
256
 10
-301.478640032608380
 20
-46.905931336077401
 11
-301.478640032608380
 21
-51.896684803145376
  0
LINE
  8
0
  6
CONTINUOUS
 62
256
 10
-290.978640032608380
 20
-50.523133486897450
 11
-290.978640032608380
 21
-53.056570081516099
  0
LINE
  8
0
  6
CONTINUOUS
 62
256
 10
-295.957937291375060
 20
-52.459959079571945
 11
-296.228637607588670
 21
-52.303669482553289
  0
LINE
  8
0
  6
CONTINUOUS
 62
256
 10
-296.412303008149250
 20
-52.409708288681145
 11
-296.228637597052970
 21
-52.303669195079408
  0
ARC
  8
0
  6
CONTINUOUS
 62
256
 10
-296.228640032608270
 20
-54.613068417541115
 40
4.249999046325752
 50
24.001689376957458
 51
143.300965680927760
  0
ARC
  8
0
  6
CONTINUOUS
 62
256
 10
-309.728640032608150
 20
-95.366611273527724
 40
50.000000000000071
 50
53.655075329097400
 51
88.510141843146130
  0
ARC
  8
0
  6
CONTINUOUS
 62
256
 10
-309.728640032608150
 20
-95.366611273527724
 40
49.999999999999979
 50
24.523778772326946
 51
43.937015666212375
  0
LINE
  8
0
  6
CONTINUOUS
 62
256
 10
-259.728640032608380
 20
-155.870427730421910
 11
-259.728640032608380
 21
-146.613068417541060
  0
LINE
  8
0
  6
CONTINUOUS
 62
256
 10
-393.728640032608380
 20
-93.282459657315712
 11
-393.728640032608380
 21
-84.655568417541076
  0
INSERT
  8
0
  2
ZU_SYM_3
 10
-416.673462238951740
 20
-151.532025028801510
 50
357.137594773886350
  0
LINE
  8
0
  6
CONTINUOUS
 62
256
 10
-415.325146581466240
 20
-156.605686910301640
 11
-416.923150323670820
 21
-156.525786723190660
  0
ARC
  8
0
  6
CONTINUOUS
 62
256
 10
-418.455105863940620
 20
-147.114928739584570
 40
2.000000000000154
 50
357.137594773887600
 51
80.083463391768120
  0
ARC
  8
0
  6
CONTINUOUS
 62
256
 10
-412.862092766224810
 20
-147.394579394470380
 40
1.999999999999962
 50
94.191726156001650
 51
177.137594773887370
  0
ARC
  8
0
  6
CONTINUOUS
 62
256
 10
-414.528640032608340
 20
-124.655568417541080
 40
20.799999999999986
 50
174.275189547776620
 51
205.640070215894870
  0
ARC
  8
0
  6
CONTINUOUS
 62
256
 10
-414.528640032608340
 20
-124.655568417541080
 40
20.799999999999926
 50
205.640070215894870
 51
260.083463391769380
  0
ARC
  8
0
  6
CONTINUOUS
 62
256
 10
-414.528640032608340
 20
-124.655568417541080
 40
20.799999999999986
 50
174.275189547776620
 51
205.640070215894870
  0
ARC
  8
0
  6
CONTINUOUS
 62
256
 10
-414.528640032608340
 20
-124.655568417541080
 40
20.800000000000082
 50
274.191726156007410
 51
354.952683218987430
  0
LINE
  8
0
  6
CONTINUOUS
 62
256
 10
-410.231509653189280
 20
-54.732948344760871
 11
-415.325146581466240
 21
-156.605686910301640
  0
LINE
  8
0
  6
CONTINUOUS
 62
256
 10
-411.829513395393860
 20
-54.653048157650687
 11
-416.923150323670820
 21
-156.525786723190660
  0
ARC
  8
0
  6
CONTINUOUS
 62
256
 10
-412.947142497244390
 20
-57.400663753895515
 40
1.299999237060475
 50
87.137594090651845
 51
160.536063666412730
  0
ARC
  8
0
  6
CONTINUOUS
 62
256
 10
-413.166868087996360
 20
-61.795175568933246
 40
1.299999237060493
 50
193.739143184211430
 51
267.137612759980130
  0
LINE
  8
0
  6
CONTINUOUS
 62
256
 10
-411.904419820809150
 20
-56.151176665967341
 11
-412.882223633316700
 21
-56.102286475341998
  0
LINE
  8
0
  6
CONTINUOUS
 62
256
 10
-412.253983139416280
 20
-63.142443038112219
 11
-413.231786951924050
 21
-63.093552847486876
  0
LINE
  8
0
  6
CONTINUOUS
 62
256
 10
-411.904419820809150
 20
-56.151176665967341
 11
-412.253983139416280
 21
-63.142443038112219
  0
LINE
  8
0
  6
CONTINUOUS
 62
256
 10
-411.904419820809150
 20
-56.151176665967341
 11
-412.253983139416280
 21
-63.142443038112219
  0
POINT
  8
0
  6
CONTINUOUS
 62
256
 10
-412.079201480112720
 20
-59.646809852039723
  0
ARC
  8
0
  6
CONTINUOUS
 62
256
 10
-405.687186892288310
 20
-59.966410581430978
 40
9.000000000000060
 50
160.536063666407810
 51
193.739143184213500
  0
LINE
  8
0
  6
CONTINUOUS
 62
256
 10
-411.829513395393860
 20
-54.653048157650687
 11
-410.231509653189280
 21
-54.732948344760871
  0
ARC
  8
0
  6
CONTINUOUS
 62
256
 10
-412.528640032608340
 20
-84.655568417541076
 40
18.799999999999933
 50
144.191373186504250
 51
174.275189547776420
  0
ARC
  8
0
  6
CONTINUOUS
 62
256
 10
-412.528640032608340
 20
-84.655568417541076
 40
18.800000000000036
 50
94.873974813842736
 51
144.191373186504220
  0
LINE
  8
0
  6
CONTINUOUS
 62
256
 10
-435.224899384229270
 20
-122.580755449960070
 11
-431.234874446573260
 21
-82.780256696842798
  0
LINE
  8
0
  6
CONTINUOUS
 62
256
 10
-411.030511524291570
 20
-54.692998251205836
 11
-416.124148452568530
 21
-156.565736816745930
  0
ARC
  8
0
  6
CONTINUOUS
 62
256
 10
-414.295898496237210
 20
-63.930781385517548
 40
1.999999999999928
 50
274.873974813840960
 51
357.137594773887320
  0
ARC
  8
0
  6
CONTINUOUS
 62
256
 10
-408.702885398521400
 20
-64.210432040403361
 40
1.999999999999927
 50
177.137594773887290
 51
259.401214733933840
  0
ARC
  8
0
  6
CONTINUOUS
 62
256
 10
-412.528640032608340
 20
-84.655568417541076
 40
18.799999999999955
 50
0.000000000000000
 51
79.401214733933926
  0
ARC
  8
0
  6
CONTINUOUS
 62
256
 10
-329.228640032608380
 20
-351.213068417541020
 40
289.396999999999990
 50
90.000000000000000
 51
97.897988672427743
  0
ARC
  8
0
  6
CONTINUOUS
 62
256
 10
-368.170157987990480
 20
-70.504290876954315
 40
5.999999999999923
 50
97.897988672425626
 51
134.999999999996730
  0
ARC
  8
0
  6
CONTINUOUS
 62
256
 10
-373.177227462890870
 20
-60.516453950012760
 40
6.599999999999971
 50
98.597082237248614
 51
134.999999999998520
  0
ARC
  8
0
  6
CONTINUOUS
 62
256
 10
-333.228640032608380
 20
-81.890255184850616
 40
1.499999999999998
 50
277.928141766204020
 51
0.000000000000000
  0
ARC
  8
0
  6
CONTINUOUS
 62
256
 10
-329.228640032607930
 20
-110.613068417541040
 40
33.499999999999950
 50
97.180755781459084
 51
142.819244218541710
  0
ARC
  8
0
  6
CONTINUOUS
 62
256
 10
-329.228640032607930
 20
-110.613068417541040
 40
43.000000000000043
 50
95.531071524839788
 51
144.468928475160770
  0
ARC
  8
0
  6
CONTINUOUS
 62
256
 10
-329.228640032607930
 20
-110.613068417541040
 40
37.000000000000099
 50
95.963570118321798
 51
144.036429881678830
  0
ARC
  8
0
  6
CONTINUOUS
 62
256
 10
-352.103325960274110
 20
-92.787560186057931
 40
1.499999999999926
 50
239.999999999998410
 51
322.071858233800750
  0
ARC
  8
0
  6
CONTINUOUS
 62
256
 10
-354.724094202342940
 20
-91.274458936015776
 40
1.500000000000103
 50
142.819244218542540
 51
239.999999999997580
  0
ARC
  8
0
  6
CONTINUOUS
 62
256
 10
-360.390176486759170
 20
-88.003144803857481
 40
1.500000000000123
 50
240.000000000002670
 51
324.036429881683320
  0
LINE
  8
0
  6
CONTINUOUS
 62
256
 10
-352.853325960274110
 20
-94.086598291734504
 11
-355.474094202342940
 21
-92.573497041692349
  0
LINE
  8
0
  6
CONTINUOUS
 62
256
 10
-361.140176486759170
 20
-89.302182909534281
 11
-363.751360085743270
 21
-87.794615355757173
  0
ARC
  8
0
  6
CONTINUOUS
 62
256
 10
-363.001360085743270
 20
-86.495577250080373
 40
1.499999999999976
 50
144.468928475160820
 51
240.000000000002160
  0
ARC
  8
0
  6
CONTINUOUS
 62
256
 10
-358.724094202343390
 20
-123.023474668790750
 40
1.500000000000157
 50
202.819244218546660
 51
300.000000000001590
  0
LINE
  8
0
  6
CONTINUOUS
 62
256
 10
-357.974094202343390
 20
-124.322512774467310
 11
-355.353325960274110
 21
-122.809411524425400
  0
ARC
  8
0
  6
CONTINUOUS
 62
256
 10
-364.390176486759630
 20
-126.294788800949050
 40
1.499999999999926
 50
300.000000000001590
 51
24.036429881676909
  0
LINE
  8
0
  6
CONTINUOUS
 62
256
 10
-366.251360085743730
 20
-129.101394460402960
 11
-363.640176486759630
 21
-127.593826906625620
  0
ARC
  8
0
  6
CONTINUOUS
 62
256
 10
-367.001360085743730
 20
-127.802356354725930
 40
1.500000000000128
 50
204.468928475167470
 51
299.999999999992440
  0
ARC
  8
0
  6
CONTINUOUS
 62
256
 10
-356.103325960274110
 20
-121.510373418748370
 40
1.500000000000320
 50
299.999999999992950
 51
22.071858233784432
  0
ARC
  8
0
  6
CONTINUOUS
 62
256
 10
-329.228640032608150
 20
-110.613068417541510
 40
33.499999999999794
 50
157.180755781458400
 51
202.819244218540890
  0
ARC
  8
0
  6
CONTINUOUS
 62
256
 10
-329.228640032608150
 20
-110.613068417541510
 40
43.000000000000121
 50
155.531071524839230
 51
204.468928475160170
  0
ARC
  8
0
  6
CONTINUOUS
 62
256
 10
-329.228640032608150
 20
-110.613068417541510
 40
37.000000000000156
 50
155.963570118321120
 51
204.036429881678230
  0
ARC
  8
0
  6
CONTINUOUS
 62
256
 10
-329.228640032608840
 20
-110.613068417541040
 40
27.499999999999883
 50
157.928141766202200
 51
202.071858233798680
  0
ARC
  8
0
  6
CONTINUOUS
 62
256
 10
-356.103325960274330
 20
-99.715763416333743
 40
1.500000000000110
 50
337.928141766202660
 51
59.999999999997605
  0
ARC
  8
0
  6
CONTINUOUS
 62
256
 10
-358.724094202343170
 20
-98.202662166291816
 40
1.500000000000123
 50
60.000000000002721
 51
157.180755781457830
  0
ARC
  8
0
  6
CONTINUOUS
 62
256
 10
-364.390176486759400
 20
-94.931348034133521
 40
1.499999999999855
 50
335.963570118319300
 51
59.999999999991623
  0
LINE
  8
0
  6
CONTINUOUS
 62
256
 10
-355.353325960274330
 20
-98.416725310657171
 11
-357.974094202343170
 21
-96.903624060615016
  0
LINE
  8
0
  6
CONTINUOUS
 62
256
 10
-363.640176486759170
 20
-93.632309928456948
 11
-366.251360085743730
 21
-92.124742374679840
  0
ARC
  8
0
  6
CONTINUOUS
 62
256
 10
-367.001360085743730
 20
-93.423780480356413
 40
1.499999999999926
 50
59.999999999998380
 51
155.531071524840120
  0
ARC
  8
0
  6
CONTINUOUS
 62
256
 10
-354.724094202343390
 20
-129.951677899066110
 40
1.499999999999926
 50
120.000000000001620
 51
217.180755781463600
  0
LINE
  8
0
  6
CONTINUOUS
 62
256
 10
-355.474094202343390
 20
-128.652639793389540
 11
-352.853325960274110
 21
-127.139538543347140
  0
ARC
  8
0
  6
CONTINUOUS
 62
256
 10
-360.390176486759630
 20
-133.222992031224410
 40
1.499999999999968
 50
35.963570118309242
 51
120.000000000001080
  0
LINE
  8
0
  6
CONTINUOUS
 62
256
 10
-363.751360085743730
 20
-133.431521479325170
 11
-361.140176486759630
 21
-131.923953925547830
  0
ARC
  8
0
  6
CONTINUOUS
 62
256
 10
-363.001360085743730
 20
-134.730559585001740
 40
1.499999999999926
 50
120.000000000001620
 51
215.531071524832610
  0
ARC
  8
0
  6
CONTINUOUS
 62
256
 10
-352.103325960274110
 20
-128.438576649024180
 40
1.500000000000122
 50
37.928141766218694
 51
119.999999999992440
  0
ARC
  8
0
  6
CONTINUOUS
 62
256
 10
-329.228640032608610
 20
-110.613068417540600
 40
33.500000000000163
 50
217.180755781459080
 51
262.819244218541770
  0
ARC
  8
0
  6
CONTINUOUS
 62
256
 10
-329.228640032608610
 20
-110.613068417540600
 40
42.999999999999872
 50
215.531071524839690
 51
264.468928475160790
  0
ARC
  8
0
  6
CONTINUOUS
 62
256
 10
-329.228640032608610
 20
-110.613068417540600
 40
37.000000000000021
 50
215.963570118321940
 51
264.036429881678880
  0
ARC
  8
0
  6
CONTINUOUS
 62
256
 10
-329.228640032608610
 20
-110.613068417541510
 40
27.499999999999780
 50
217.928141766201070
 51
262.071858233797340
  0
ARC
  8
0
  6
CONTINUOUS
 62
256
 10
-333.228640032608610
 20
-139.335881650231500
 40
1.500000000000000
 50
0.000000000000000
 51
82.071858233804718
  0
ARC
  8
0
  6
CONTINUOUS
 62
256
 10
-333.228640032608610
 20
-142.362084150315810
 40
1.499999999999998
 50
262.819244218541710
 51
0.000000000000000
  0
ARC
  8
0
  6
CONTINUOUS
 62
256
 10
-333.228640032608610
 20
-148.904712414632400
 40
1.500000000000000
 50
0.000000000017370
 51
84.036429881681926
  0
LINE
  8
0
  6
CONTINUOUS
 62
256
 10
-331.728640032608610
 20
-139.335881650231500
 11
-331.728640032608610
 21
-142.362084150315810
  0
LINE
  8
0
  6
CONTINUOUS
 62
256
 10
-331.728640032608610
 20
-148.904712414631940
 11
-331.728640032608610
 21
-151.919847522186160
  0
ARC
  8
0
  6
CONTINUOUS
 62
256
 10
-333.228640032608610
 20
-151.919847522186160
 40
1.500000000000430
 50
264.468928475160000
 51
0.000000000000000
  0
ARC
  8
0
  6
CONTINUOUS
 62
256
 10
-303.733185862873370
 20
-129.951677899066110
 40
1.500000000000240
 50
322.819244218535570
 51
59.999999999998167
  0
LINE
  8
0
  6
CONTINUOUS
 62
256
 10
-302.983185862873370
 20
-128.652639793389540
 11
-305.603954104942660
 21
-127.139538543347140
  0
ARC
  8
0
  6
CONTINUOUS
 62
256
 10
-298.067103578457140
 20
-133.222992031224410
 40
1.499999999999926
 50
59.999999999998380
 51
144.036429881690370
  0
ARC
  8
0
  6
CONTINUOUS
 62
256
 10
-306.353954104942660
 20
-128.438576649024180
 40
1.500000000000320
 50
60.000000000007056
 51
142.071858233781460
  0
ARC
  8
0
  6
CONTINUOUS
 62
256
 10
-329.228640032608150
 20
-110.613068417540600
 40
33.500000000000114
 50
277.180755781458230
 51
322.819244218540860
  0
ARC
  8
0
  6
CONTINUOUS
 62
256
 10
-329.228640032608150
 20
-110.613068417540600
 40
43.000000000000199
 50
275.531071524838860
 51
324.468928475160340
  0
ARC
  8
0
  6
CONTINUOUS
 62
256
 10
-329.228640032608150
 20
-110.613068417540600
 40
37.000000000000028
 50
275.963570118320770
 51
324.036429881678030
  0
ARC
  8
0
  6
CONTINUOUS
 62
256
 10
-329.228640032608150
 20
-110.613068417541510
 40
27.499999999999879
 50
277.928141766202600
 51
322.071858233798880
  0
ARC
  8
0
  6
CONTINUOUS
 62
256
 10
-325.228640032608150
 20
-139.335881650231500
 40
1.499999999999967
 50
97.928141766195438
 51
180.000000000000000
  0
ARC
  8
0
  6
CONTINUOUS
 62
256
 10
-325.228640032608150
 20
-142.362084150315810
 40
1.500000000000000
 50
180.000000000000000
 51
277.180755781458290
  0
ARC
  8
0
  6
CONTINUOUS
 62
256
 10
-325.228640032608150
 20
-148.904712414632400
 40
1.500000000000182
 50
95.963570118326047
 51
179.999999999982630
  0
LINE
  8
0
  6
CONTINUOUS
 62
256
 10
-326.728640032608150
 20
-139.335881650231500
 11
-326.728640032608150
 21
-142.362084150315810
  0
LINE
  8
0
  6
CONTINUOUS
 62
256
 10
-326.728640032608150
 20
-148.904712414631940
 11
-326.728640032608150
 21
-151.919847522186160
  0
ARC
  8
0
  6
CONTINUOUS
 62
256
 10
-325.228640032608150
 20
-151.919847522186160
 40
1.500000000000000
 50
180.000000000000000
 51
275.531071524830680
  0
ARC
  8
0
  6
CONTINUOUS
 62
256
 10
-299.733185862873370
 20
-123.023474668790750
 40
1.499999999999926
 50
239.999999999998410
 51
337.180755781453000
  0
LINE
  8
0
  6
CONTINUOUS
 62
256
 10
-300.483185862873370
 20
-124.322512774467310
 11
-303.103954104942660
 21
-122.809411524425400
  0
ARC
  8
0
  6
CONTINUOUS
 62
256
 10
-302.353954104942660
 20
-121.510373418748370
 40
1.499999999999899
 50
157.928141766199360
 51
240.000000000007500
  0
ARC
  8
0
  6
CONTINUOUS
 62
256
 10
-329.228640032608610
 20
-110.613068417541510
 40
33.500000000000135
 50
337.180755781459030
 51
22.819244218541971
  0
ARC
  8
0
  6
CONTINUOUS
 62
256
 10
-329.228640032607930
 20
-110.613068417541040
 40
27.499999999999893
 50
337.928141766202200
 51
22.071858233797808
  0
ARC
  8
0
  6
CONTINUOUS
 62
256
 10
-302.353954104942430
 20
-99.715763416333743
 40
1.499999999999926
 50
120.000000000001620
 51
202.071858233797310
  0
ARC
  8
0
  6
CONTINUOUS
 62
256
 10
-299.733185862873600
 20
-98.202662166291816
 40
1.499999999999948
 50
22.819244218550036
 51
119.999999999996500
  0
LINE
  8
0
  6
CONTINUOUS
 62
256
 10
-303.103954104942430
 20
-98.416725310657171
 11
-300.483185862873600
 21
-96.903624060615016
  0
ARC
  8
0
  6
CONTINUOUS
 62
256
 10
-329.228640032608840
 20
-110.613068417541040
 40
33.500000000000071
 50
37.180755781458252
 51
82.819244218540945
  0
ARC
  8
0
  6
CONTINUOUS
 62
256
 10
-329.228640032608840
 20
-110.613068417541040
 40
36.999999999999943
 50
35.963570118321186
 51
84.036429881678188
  0
ARC
  8
0
  6
CONTINUOUS
 62
256
 10
-298.067103578457590
 20
-88.003144803857481
 40
1.500000000000102
 50
215.963570118316280
 51
299.999999999997500
  0
ARC
  8
0
  6
CONTINUOUS
 62
256
 10
-303.733185862873820
 20
-91.274458936015776
 40
1.499999999999926
 50
300.000000000001590
 51
37.180755781456647
  0
ARC
  8
0
  6
CONTINUOUS
 62
256
 10
-329.228640032608150
 20
-110.613068417540600
 40
27.500000000000060
 50
37.928141766201819
 51
82.071858233798267
  0
ARC
  8
0
  6
CONTINUOUS
 62
256
 10
-325.228640032608380
 20
-81.890255184850616
 40
1.500000000000000
 50
180.000000000000000
 51
262.071858233795980
  0
LINE
  8
0
  6
CONTINUOUS
 62
256
 10
-305.603954104942660
 20
-94.086598291734504
 11
-302.983185862873820
 21
-92.573497041692349
  0
ARC
  8
0
  6
CONTINUOUS
 62
256
 10
-306.353954104942660
 20
-92.787560186057931
 40
1.499999999999843
 50
217.928141766204960
 51
300.000000000001080
  0
CIRCLE
  8
0
  6
CONTINUOUS
 62
256
 10
-329.228640032608380
 20
-110.613068417540600
 40
5.000000000000000
  0
ARC
  8
0
  6
CONTINUOUS
 62
256
 10
-323.291386099414470
 20
-102.566391107447200
 40
1.499999999999693
 50
233.578178478195380
 51
300.000000000001650
  0
ARC
  8
0
  6
CONTINUOUS
 62
256
 10
-325.228640032608380
 20
-101.447917027628710
 40
1.500000000000000
 50
180.000000000000000
 51
246.421821521804330
  0
ARC
  8
0
  6
CONTINUOUS
 62
256
 10
-312.053460763563630
 20
-96.078171889660666
 40
1.499999999999926
 50
300.000000000001590
 51
40.240348321183539
  0
ARC
  8
0
  6
CONTINUOUS
 62
256
 10
-325.228640032608380
 20
-98.243751540687640
 40
1.500000000000138
 50
72.079786860605211
 51
180.000000000000000
  0
ARC
  8
0
  6
CONTINUOUS
 62
256
 10
-325.228640032608380
 20
-91.527733733548416
 40
1.500000000000000
 50
180.000000000000000
 51
258.162995844103650
  0
ARC
  8
0
  6
CONTINUOUS
 62
256
 10
-314.700255356542580
 20
-97.606299460406831
 40
1.499999999999967
 50
221.837004155893250
 51
300.000000000000800
  0
ARC
  8
0
  6
CONTINUOUS
 62
256
 10
-325.228640032608380
 20
-88.471478592056087
 40
1.499999999999952
 50
79.759651678814038
 51
180.000000000000000
  0
ARC
  8
0
  6
CONTINUOUS
 62
256
 10
-320.516497389794040
 20
-100.964308363976310
 40
1.499999999999926
 50
300.000000000001590
 51
47.920213139381502
  0
LINE
  8
0
  6
CONTINUOUS
 62
256
 10
-313.950255356542580
 20
-98.905337566083404
 11
-311.303460763563630
 21
-97.377209995337239
  0
ARC
  8
0
  6
CONTINUOUS
 62
256
 10
-329.228640032608150
 20
-110.613068417540600
 40
14.499999999999860
 50
47.920213139391755
 51
72.079786860608280
  0
LINE
  8
0
  6
CONTINUOUS
 62
256
 10
-326.728640032608380
 20
-98.243751540687640
 11
-326.728640032608380
 21
-101.447917027628710
  0
LINE
  8
0
  6
CONTINUOUS
 62
256
 10
-326.728640032608380
 20
-88.471478592056087
 11
-326.728640032608380
 21
-91.527733733548416
  0
LINE
  8
0
  6
CONTINUOUS
 62
256
 10
-322.541386099414470
 20
-103.865429213123780
 11
-319.766497389794040
 21
-102.263346469652900
  0
ARC
  8
0
  6
CONTINUOUS
 62
256
 10
-329.228640032608150
 20
-110.613068417540600
 40
23.999999999999819
 50
40.240348321186090
 51
79.759651678814294
  0
ARC
  8
0
  6
CONTINUOUS
 62
256
 10
-329.228640032608150
 20
-110.613068417540600
 40
8.500000000000101
 50
53.578178478202645
 51
66.421821521799075
  0
ARC
  8
0
  6
CONTINUOUS
 62
256
 10
-316.516497389794040
 20
-113.333625240829510
 40
1.499999999999926
 50
239.999999999998410
 51
347.920213139390340
  0
LINE
  8
0
  6
CONTINUOUS
 62
256
 10
-317.266497389794040
 20
-114.632663346506090
 11
-320.041386099414470
 21
-113.030580603035670
  0
ARC
  8
0
  6
CONTINUOUS
 62
256
 10
-319.291386099414470
 20
-111.731542497359100
 40
1.500000000000099
 50
173.578178478198990
 51
239.999999999997580
  0
ARC
  8
0
  6
CONTINUOUS
 62
256
 10
-329.228640032608150
 20
-110.613068417540600
 40
8.499999999999865
 50
353.578178478199500
 51
6.421821521797406
  0
ARC
  8
0
  6
CONTINUOUS
 62
256
 10
-319.291386099414470
 20
-109.494594337722560
 40
1.499999999999926
 50
120.000000000001620
 51
186.421821521801180
  0
LINE
  8
0
  6
CONTINUOUS
 62
256
 10
-320.041386099414470
 20
-108.195556232045970
 11
-317.266497389794040
 21
-106.593473488575110
  0
ARC
  8
0
  6
CONTINUOUS
 62
256
 10
-316.516497389794040
 20
-107.892511594251690
 40
1.500000000000192
 50
12.079786860592611
 51
120.000000000001070
  0
ARC
  8
0
  6
CONTINUOUS
 62
256
 10
-329.228640032608150
 20
-110.613068417540600
 40
14.500000000000165
 50
347.920213139391310
 51
12.079786860606941
  0
ARC
  8
0
  6
CONTINUOUS
 62
256
 10
-308.053460763563630
 20
-118.219761715145180
 40
1.499999999999926
 50
239.999999999998410
 51
340.240348321188610
  0
LINE
  8
0
  6
CONTINUOUS
 62
256
 10
-308.803460763563630
 20
-119.518799820821760
 11
-311.450255356542580
 21
-117.990672250076050
  0
ARC
  8
0
  6
CONTINUOUS
 62
256
 10
-310.700255356542580
 20
-116.691634144399000
 40
1.500000000000038
 50
161.837004155895410
 51
240.000000000006200
  0
ARC
  8
0
  6
CONTINUOUS
 62
256
 10
-329.228640032608150
 20
-110.613068417540600
 40
17.999999999999943
 50
341.837004155893340
 51
18.162995844106639
  0
ARC
  8
0
  6
CONTINUOUS
 62
256
 10
-310.700255356542580
 20
-104.534502690682170
 40
1.499999999999926
 50
120.000000000001620
 51
198.162995844104900
  0
LINE
  8
0
  6
CONTINUOUS
 62
256
 10
-311.450255356542580
 20
-103.235464585005620
 11
-308.803460763563630
 21
-101.707337014259450
  0
ARC
  8
0
  6
CONTINUOUS
 62
256
 10
-308.053460763563630
 20
-103.006375119936020
 40
1.500000000000246
 50
19.759651678811821
 51
120.000000000001850
  0
ARC
  8
0
  6
CONTINUOUS
 62
256
 10
-329.228640032608150
 20
-110.613068417540600
 40
24.000000000000146
 50
340.240348321186050
 51
19.759651678813920
  0
ARC
  8
0
  6
CONTINUOUS
 62
256
 10
-341.940782675422720
 20
-113.333625240829510
 40
1.500000000000287
 50
192.079786860609570
 51
300.000000000001310
  0
LINE
  8
0
  6
CONTINUOUS
 62
256
 10
-341.190782675422720
 20
-114.632663346506090
 11
-338.415893965802300
 21
-113.030580603035670
  0
ARC
  8
0
  6
CONTINUOUS
 62
256
 10
-339.165893965802300
 20
-111.731542497359100
 40
1.499999999999926
 50
300.000000000001590
 51
6.421821521801724
  0
ARC
  8
0
  6
CONTINUOUS
 62
256
 10
-329.228640032608840
 20
-110.613068417540600
 40
8.499999999999814
 50
173.578178478202570
 51
186.421821521800520
  0
ARC
  8
0
  6
CONTINUOUS
 62
256
 10
-339.165893965802300
 20
-109.494594337722560
 40
1.499999999999873
 50
353.578178478198030
 51
59.999999999997563
  0
LINE
  8
0
  6
CONTINUOUS
 62
256
 10
-338.415893965802300
 20
-108.195556232045970
 11
-341.190782675422950
 21
-106.593473488575110
  0
ARC
  8
0
  6
CONTINUOUS
 62
256
 10
-341.940782675422950
 20
-107.892511594251690
 40
1.499999999999926
 50
59.999999999998380
 51
167.920213139405660
  0
ARC
  8
0
  6
CONTINUOUS
 62
256
 10
-329.228640032608840
 20
-110.613068417540600
 40
14.499999999999851
 50
167.920213139392840
 51
192.079786860608890
  0
ARC
  8
0
  6
CONTINUOUS
 62
256
 10
-350.403819301653130
 20
-118.219761715145180
 40
1.500000000000246
 50
199.759651678811790
 51
300.000000000001880
  0
LINE
  8
0
  6
CONTINUOUS
 62
256
 10
-349.653819301653130
 20
-119.518799820821760
 11
-347.007024708674180
 21
-117.990672250076050
  0
ARC
  8
0
  6
CONTINUOUS
 62
256
 10
-347.757024708674180
 20
-116.691634144399000
 40
1.500000000000320
 50
299.999999999992950
 51
18.162995844104298
  0
ARC
  8
0
  6
CONTINUOUS
 62
256
 10
-329.228640032608840
 20
-110.613068417540600
 40
17.999999999999726
 50
161.837004155893140
 51
198.162995844106860
  0
ARC
  8
0
  6
CONTINUOUS
 62
256
 10
-347.757024708674180
 20
-104.534502690682170
 40
1.500000000000038
 50
341.837004155895390
 51
59.999999999998394
  0
LINE
  8
0
  6
CONTINUOUS
 62
256
 10
-347.007024708674180
 20
-103.235464585005620
 11
-349.653819301653360
 21
-101.707337014259450
  0
ARC
  8
0
  6
CONTINUOUS
 62
256
 10
-350.403819301653360
 20
-103.006375119936020
 40
1.499999999999926
 50
59.999999999998380
 51
160.240348321185310
  0
ARC
  8
0
  6
CONTINUOUS
 62
256
 10
-329.228640032608840
 20
-110.613068417540600
 40
23.999999999999925
 50
160.240348321185910
 51
199.759651678814090
  0
ARC
  8
0
  6
CONTINUOUS
 62
256
 10
-337.940782675422720
 20
-120.261828471105330
 40
1.500000000000320
 50
119.999999999992940
 51
227.920213139382700
  0
LINE
  8
0
  6
CONTINUOUS
 62
256
 10
-338.690782675422720
 20
-118.962790365428300
 11
-335.915893965802300
 21
-117.360707621957890
  0
ARC
  8
0
  6
CONTINUOUS
 62
256
 10
-335.165893965802300
 20
-118.659745727634440
 40
1.500000000000059
 50
53.578178478205700
 51
120.000000000001340
  0
ARC
  8
0
  6
CONTINUOUS
 62
256
 10
-329.228640032608380
 20
-110.613068417541040
 40
8.499999999999870
 50
233.578178478199590
 51
246.421821521797570
  0
ARC
  8
0
  6
CONTINUOUS
 62
256
 10
-333.228640032608380
 20
-119.778219807452960
 40
1.500000000000000
 50
0.000000000017370
 51
66.421821521804318
  0
LINE
  8
0
  6
CONTINUOUS
 62
256
 10
-331.728640032608380
 20
-119.778219807452500
 11
-331.728640032608380
 21
-122.982385294393790
  0
ARC
  8
0
  6
CONTINUOUS
 62
256
 10
-333.228640032608380
 20
-122.982385294393790
 40
1.500000000000355
 50
252.079786860607900
 51
0.000000000000000
  0
ARC
  8
0
  6
CONTINUOUS
 62
256
 10
-329.228640032608380
 20
-110.613068417541040
 40
14.500000000000011
 50
227.920213139391080
 51
252.079786860607530
  0
ARC
  8
0
  6
CONTINUOUS
 62
256
 10
-346.403819301653130
 20
-125.147964945420990
 40
1.499999999999926
 50
120.000000000001620
 51
220.240348321176580
  0
LINE
  8
0
  6
CONTINUOUS
 62
256
 10
-347.153819301653130
 20
-123.848926839744420
 11
-344.507024708674180
 21
-122.320799268998240
  0
ARC
  8
0
  6
CONTINUOUS
 62
256
 10
-343.757024708674180
 20
-123.619837374674830
 40
1.500000000000118
 50
41.837004155899741
 51
120.000000000002130
  0
ARC
  8
0
  6
CONTINUOUS
 62
256
 10
-329.228640032608380
 20
-110.613068417541040
 40
17.999999999999940
 50
221.837004155892290
 51
258.162995844106770
  0
ARC
  8
0
  6
CONTINUOUS
 62
256
 10
-333.228640032608380
 20
-129.698403101533240
 40
1.500000000000000
 50
0.000000000000000
 51
78.162995844101417
  0
LINE
  8
0
  6
CONTINUOUS
 62
256
 10
-331.728640032608380
 20
-129.698403101533240
 11
-331.728640032608380
 21
-132.754658243025570
  0
ARC
  8
0
  6
CONTINUOUS
 62
256
 10
-333.228640032608380
 20
-132.754658243025570
 40
1.499999999999728
 50
259.759651678812470
 51
0.000000000000000
  0
ARC
  8
0
  6
CONTINUOUS
 62
256
 10
-329.228640032608380
 20
-110.613068417541040
 40
23.999999999999844
 50
220.240348321185310
 51
259.759651678813730
  0
ARC
  8
0
  6
CONTINUOUS
 62
256
 10
-320.516497389794040
 20
-120.261828471105330
 40
1.499999999999944
 50
312.079786860618130
 51
60.000000000006459
  0
LINE
  8
0
  6
CONTINUOUS
 62
256
 10
-319.766497389794040
 20
-118.962790365428300
 11
-322.541386099414470
 21
-117.360707621957890
  0
ARC
  8
0
  6
CONTINUOUS
 62
256
 10
-323.291386099414470
 20
-118.659745727634440
 40
1.499999999999926
 50
59.999999999998380
 51
126.421821521800880
  0
ARC
  8
0
  6
CONTINUOUS
 62
256
 10
-329.228640032608380
 20
-110.613068417541040
 40
8.500000000000060
 50
293.578178478202350
 51
306.421821521799070
  0
ARC
  8
0
  6
CONTINUOUS
 62
256
 10
-325.228640032608380
 20
-119.778219807452960
 40
1.500000000000139
 50
113.578178478195710
 51
179.999999999982630
  0
LINE
  8
0
  6
CONTINUOUS
 62
256
 10
-326.728640032608380
 20
-119.778219807452500
 11
-326.728640032608380
 21
-122.982385294393790
  0
ARC
  8
0
  6
CONTINUOUS
 62
256
 10
-325.228640032608380
 20
-122.982385294393790
 40
1.500000000000000
 50
180.000000000000000
 51
287.920213139391990
  0
ARC
  8
0
  6
CONTINUOUS
 62
256
 10
-329.228640032608380
 20
-110.613068417541040
 40
14.500000000000121
 50
287.920213139392560
 51
312.079786860608810
  0
ARC
  8
0
  6
CONTINUOUS
 62
256
 10
-312.053460763563630
 20
-125.147964945420990
 40
1.499999999999828
 50
319.759651678823670
 51
59.999999999998622
  0
LINE
  8
0
  6
CONTINUOUS
 62
256
 10
-311.303460763563630
 20
-123.848926839744420
 11
-313.950255356542580
 21
-122.320799268998240
  0
ARC
  8
0
  6
CONTINUOUS
 62
256
 10
-314.700255356542580
 20
-123.619837374674830
 40
1.499999999999926
 50
59.999999999998380
 51
138.162995844099560
  0
ARC
  8
0
  6
CONTINUOUS
 62
256
 10
-329.228640032608380
 20
-110.613068417541040
 40
18.000000000000160
 50
281.837004155893230
 51
318.162995844107740
  0
ARC
  8
0
  6
CONTINUOUS
 62
256
 10
-325.228640032608380
 20
-129.698403101533240
 40
1.499999999999731
 50
101.837004155898460
 51
180.000000000000000
  0
LINE
  8
0
  6
CONTINUOUS
 62
256
 10
-326.728640032608380
 20
-129.698403101533240
 11
-326.728640032608380
 21
-132.754658243025570
  0
ARC
  8
0
  6
CONTINUOUS
 62
256
 10
-325.228640032608380
 20
-132.754658243025570
 40
1.500000000000000
 50
180.000000000000000
 51
280.240348321187920
  0
ARC
  8
0
  6
CONTINUOUS
 62
256
 10
-329.228640032608380
 20
-110.613068417541040
 40
23.999999999999730
 50
280.240348321186270
 51
319.759651678814690
  0
ARC
  8
0
  6
CONTINUOUS
 62
256
 10
-333.228640032608380
 20
-98.243751540687640
 40
1.500000000000000
 50
0.000000000000000
 51
107.920213139394220
  0
LINE
  8
0
  6
CONTINUOUS
 62
256
 10
-331.728640032608380
 20
-98.243751540687640
 11
-331.728640032608380
 21
-101.447917027628710
  0
ARC
  8
0
  6
CONTINUOUS
 62
256
 10
-333.228640032608380
 20
-101.447917027628710
 40
1.500000000000139
 50
293.578178478195700
 51
0.000000000000000
  0
ARC
  8
0
  6
CONTINUOUS
 62
256
 10
-329.228640032608840
 20
-110.613068417540600
 40
8.499999999999879
 50
113.578178478199520
 51
126.421821521797430
  0
ARC
  8
0
  6
CONTINUOUS
 62
256
 10
-335.165893965802300
 20
-102.566391107447200
 40
1.499999999999926
 50
239.999999999998410
 51
306.421821521797880
  0
LINE
  8
0
  6
CONTINUOUS
 62
256
 10
-335.915893965802300
 20
-103.865429213123780
 11
-338.690782675422950
 21
-102.263346469652900
  0
ARC
  8
0
  6
CONTINUOUS
 62
256
 10
-337.940782675422950
 20
-100.964308363976310
 40
1.499999999999792
 50
132.079786860611680
 51
239.999999999998100
  0
ARC
  8
0
  6
CONTINUOUS
 62
256
 10
-329.228640032608840
 20
-110.613068417540600
 40
14.499999999999980
 50
107.920213139390850
 51
132.079786860607500
  0
ARC
  8
0
  6
CONTINUOUS
 62
256
 10
-333.228640032608380
 20
-88.471478592056087
 40
1.500000000000000
 50
0.000000000000000
 51
100.240348321194420
  0
LINE
  8
0
  6
CONTINUOUS
 62
256
 10
-331.728640032608380
 20
-88.471478592056087
 11
-331.728640032608380
 21
-91.527733733548416
  0
ARC
  8
0
  6
CONTINUOUS
 62
256
 10
-333.228640032608380
 20
-91.527733733548416
 40
1.499999999999954
 50
281.837004155896690
 51
0.000000000000000
  0
ARC
  8
0
  6
CONTINUOUS
 62
256
 10
-329.228640032608840
 20
-110.613068417540600
 40
17.999999999999829
 50
101.837004155891990
 51
138.162995844106180
  0
ARC
  8
0
  6
CONTINUOUS
 62
256
 10
-343.757024708674180
 20
-97.606299460406831
 40
1.499999999999926
 50
239.999999999998410
 51
318.162995844106090
  0
LINE
  8
0
  6
CONTINUOUS
 62
256
 10
-344.507024708674180
 20
-98.905337566083404
 11
-347.153819301653360
 21
-97.377209995337239
  0
ARC
  8
0
  6
CONTINUOUS
 62
256
 10
-346.403819301653360
 20
-96.078171889660666
 40
1.499999999999802
 50
139.759651678811450
 51
239.999999999998100
  0
ARC
  8
0
  6
CONTINUOUS
 62
256
 10
-329.228640032608840
 20
-110.613068417540600
 40
23.999999999999901
 50
100.240348321185680
 51
139.759651678813530
  0
ARC
  8
0
  6
CONTINUOUS
 62
256
 10
-333.228640032608380
 20
-78.864052684766079
 40
1.500000000000000
 50
0.000000000000000
 51
97.180755781458302
  0
LINE
  8
0
  6
CONTINUOUS
 62
256
 10
-331.728640032608380
 20
-78.864052684766079
 11
-331.728640032608380
 21
-81.890255184850616
  0
ARC
  8
0
  6
CONTINUOUS
 62
256
 10
-333.228640032608380
 20
-72.321424420449489
 40
1.499999999999933
 50
275.963570118318330
 51
0.000000000000000
  0
LINE
  8
0
  6
CONTINUOUS
 62
256
 10
-331.728640032608380
 20
-69.306289312895274
 11
-331.728640032608380
 21
-72.321424420449489
  0
LINE
  8
0
  6
CONTINUOUS
 62
256
 10
-294.705919979473040
 20
-133.431521479325170
 11
-297.317103578457140
 21
-131.923953925547830
  0
ARC
  8
0
  6
CONTINUOUS
 62
256
 10
-295.455919979473040
 20
-134.730559585001740
 40
1.499999999999844
 50
324.468928475167900
 51
59.999999999998622
  0
ARC
  8
0
  6
CONTINUOUS
 62
256
 10
-294.067103578457140
 20
-126.294788800949050
 40
1.500000000000063
 50
155.963570118322880
 51
239.999999999998660
  0
LINE
  8
0
  6
CONTINUOUS
 62
256
 10
-292.205919979473040
 20
-129.101394460402960
 11
-294.817103578457140
 21
-127.593826906625620
  0
ARC
  8
0
  6
CONTINUOUS
 62
256
 10
-291.455919979473040
 20
-127.802356354725930
 40
1.500000000000320
 50
240.000000000007050
 51
335.531071524832270
  0
ARC
  8
0
  6
CONTINUOUS
 62
256
 10
-329.228640032608610
 20
-110.613068417541510
 40
42.999999999999936
 50
335.531071524839770
 51
24.468928475160773
  0
ARC
  8
0
  6
CONTINUOUS
 62
256
 10
-329.228640032608610
 20
-110.613068417541510
 40
36.999999999999979
 50
335.963570118321740
 51
24.036429881678874
  0
ARC
  8
0
  6
CONTINUOUS
 62
256
 10
-294.067103578457360
 20
-94.931348034133521
 40
1.500000000000123
 50
119.999999999997300
 51
204.036429881681070
  0
LINE
  8
0
  6
CONTINUOUS
 62
256
 10
-294.817103578457360
 20
-93.632309928456721
 11
-292.205919979473040
 21
-92.124742374679613
  0
ARC
  8
0
  6
CONTINUOUS
 62
256
 10
-291.455919979473040
 20
-93.423780480356413
 40
1.500000000000034
 50
24.468928475159586
 51
119.999999999996760
  0
ARC
  8
0
  6
CONTINUOUS
 62
256
 10
-329.228640032608840
 20
-110.613068417541040
 40
42.999999999999915
 50
35.531071524839255
 51
84.468928475160197
  0
ARC
  8
0
  6
CONTINUOUS
 62
256
 10
-295.455919979473490
 20
-86.495577250080373
 40
1.500000000000123
 50
299.999999999997270
 51
35.531071524839312
  0
ARC
  8
0
  6
CONTINUOUS
 62
256
 10
-325.228640032608380
 20
-72.321424420449489
 40
1.500000000000000
 50
180.000000000000000
 51
264.036429881682010
  0
ARC
  8
0
  6
CONTINUOUS
 62
256
 10
-325.228640032608380
 20
-78.864052684766079
 40
1.499999999999998
 50
82.819244218541712
 51
180.000000000000000
  0
LINE
  8
0
  6
CONTINUOUS
 62
256
 10
-326.728640032608380
 20
-78.864052684766079
 11
-326.728640032608380
 21
-81.890255184850616
  0
LINE
  8
0
  6
CONTINUOUS
 62
256
 10
-297.317103578457590
 20
-89.302182909534281
 11
-294.705919979473490
 21
-87.794615355757173
  0
LINE
  8
0
  6
CONTINUOUS
 62
256
 10
-326.728640032608380
 20
-69.306289312895501
 11
-326.728640032608380
 21
-72.321424420449489
  0
ARC
  8
0
  6
CONTINUOUS
 62
256
 10
-329.228640032608610
 20
-110.613068417540600
 40
27.499999999999815
 50
97.928141766201691
 51
142.071858233797880
  0
ARC
  8
0
  6
CONTINUOUS
 62
256
 10
-329.228640032608150
 20
-110.613068417540600
 40
17.999999999999922
 50
41.837004155893318
 51
78.162995844107343
  0
ARC
  8
0
  6
CONTINUOUS
 62
256
 10
-333.228640032608380
 20
-69.306289312895274
 40
1.500000000000000
 50
0.000000000000000
 51
95.531071524841607
  0
ARC
  8
0
  6
CONTINUOUS
 62
256
 10
-325.228640032608380
 20
-69.306289312895501
 40
1.500000000000203
 50
84.468928475159146
 51
180.000000000000000
  0
ARC
  8
0
  6
CONTINUOUS
 62
256
 10
-329.228640032608380
 20
-351.213068417541020
 40
300.599999999999970
 50
90.000000000000000
 51
98.597082237249069
  0
ARC
  8
0
  6
CONTINUOUS
 62
256
 10
-329.228640032608380
 20
129.986931582458960
 40
300.600000000000020
 50
270.000000000000000
 51
278.597082237249140
  0
ARC
  8
0
  6
CONTINUOUS
 62
256
 10
-285.280052602325900
 20
-60.516453950012760
 40
6.600000000000118
 50
45.000000000001400
 51
81.402917762751571
  0
ARC
  8
0
  6
CONTINUOUS
 62
256
 10
-329.228640032608380
 20
-351.213068417541020
 40
300.599999999999850
 50
81.402917762750931
 51
90.000000000000000
  0
ARC
  8
0
  6
CONTINUOUS
 62
256
 10
-285.280052602325900
 20
-160.709682885069580
 40
6.599999999999747
 50
278.597082237248910
 51
314.999999999999830
  0
ARC
  8
0
  6
CONTINUOUS
 62
256
 10
-329.228640032608380
 20
129.986931582458960
 40
300.599999999999910
 50
261.402917762750920
 51
270.000000000000000
  0
ARC
  8
0
  6
CONTINUOUS
 62
256
 10
-373.177227462890870
 20
-160.709682885069580
 40
6.599999999999957
 50
225.000000000000000
 51
261.402917762750860
  0
LINE
  8
0
  6
CONTINUOUS
 62
256
 10
-280.613147846494710
 20
-55.849549194181577
 11
-273.546698727835750
 21
-62.915998312840543
  0
ARC
  8
0
  6
CONTINUOUS
 62
256
 10
-292.355739107397990
 20
-81.725038692402791
 40
26.600000000000193
 50
6.051985358668552
 51
45.000000000000000
  0
LINE
  8
0
  6
CONTINUOUS
 62
256
 10
-377.844132218722050
 20
-55.849549194181577
 11
-384.910581337381020
 21
-62.915998312840543
  0
ARC
  8
0
  6
CONTINUOUS
 62
256
 10
-366.101540957818770
 20
-81.725038692402791
 40
26.600000000000119
 50
135.000000000000000
 51
173.948014641331440
  0
LINE
  8
0
  6
CONTINUOUS
 62
256
 10
-377.844132218722050
 20
-165.376587640900770
 11
-384.910581337381250
 21
-158.310138522241120
  0
ARC
  8
0
  6
CONTINUOUS
 62
256
 10
-93.628640032608246
 20
-110.613068417541040
 40
300.600000000000080
 50
173.948014641331500
 51
186.051985358668470
  0
ARC
  8
0
  6
CONTINUOUS
 62
256
 10
-366.101540957818770
 20
-139.501098142679330
 40
26.599999999999969
 50
186.051985358668590
 51
224.999999999998950
  0
ARC
  8
0
  6
CONTINUOUS
 62
256
 10
-564.828640032608290
 20
-110.613068417541040
 40
300.600000000000080
 50
353.948014641331550
 51
6.051985358668500
  0
LINE
  8
0
  6
CONTINUOUS
 62
256
 10
-280.613147846494710
 20
-165.376587640900770
 11
-273.546698727835290
 21
-158.310138522241120
  0
ARC
  8
0
  6
CONTINUOUS
 62
256
 10
-292.355739107397770
 20
-139.501098142679330
 40
26.599999999999955
 50
315.000000000001020
 51
353.948014641331330
  0
ARC
  8
0
  6
CONTINUOUS
 62
256
 10
-366.101540957818770
 20
-81.725038692402791
 40
15.396999999999876
 50
135.000000000000000
 51
173.948014641331180
  0
LINE
  8
0
  6
CONTINUOUS
 62
256
 10
-372.412798675109570
 20
-66.261650189834768
 11
-376.988864067748180
 21
-70.837715582473379
  0
ARC
  8
0
  6
CONTINUOUS
 62
256
 10
-93.628640032608473
 20
-110.613068417541040
 40
289.396999999999930
 50
173.948014641331470
 51
180.000000000000000
  0
ARC
  8
0
  6
CONTINUOUS
 62
256
 10
-329.228640032608380
 20
-351.213068417541020
 40
289.396999999999880
 50
82.102011327572214
 51
90.000000000000000
  0
ARC
  8
0
  6
CONTINUOUS
 62
256
 10
-290.287122077226060
 20
-70.504290876954315
 40
6.000000000000049
 50
45.000000000003070
 51
82.102011327574544
  0
LINE
  8
0
  6
CONTINUOUS
 62
256
 10
-286.044481390106970
 20
-66.261650189834768
 11
-281.468415997468360
 21
-70.837715582473379
  0
ARC
  8
0
  6
CONTINUOUS
 62
256
 10
-292.355739107397770
 20
-81.725038692402791
 40
15.397000000000052
 50
6.051985358668850
 51
45.000000000000036
  0
ARC
  8
0
  6
CONTINUOUS
 62
256
 10
-564.828640032608290
 20
-110.613068417541040
 40
289.397000000000160
 50
0.000000000000000
 51
6.051985358668508
  0
ARC
  8
0
  6
CONTINUOUS
 62
256
 10
-329.228640032608380
 20
129.986931582458740
 40
289.396999999999820
 50
270.000000000000000
 51
277.897988672427800
  0
ARC
  8
0
  6
CONTINUOUS
 62
256
 10
-290.287122077226060
 20
-150.721845958127800
 40
5.999999999999923
 50
277.897988672425640
 51
314.999999999996760
  0
LINE
  8
0
  6
CONTINUOUS
 62
256
 10
-286.044481390106970
 20
-154.964486645247350
 11
-281.468415997468360
 21
-150.388421252608740
  0
ARC
  8
0
  6
CONTINUOUS
 62
256
 10
-292.355739107397770
 20
-139.501098142679330
 40
15.396999999999876
 50
315.000000000000000
 51
353.948014641331160
  0
ARC
  8
0
  6
CONTINUOUS
 62
256
 10
-564.828640032608290
 20
-110.613068417541040
 40
289.397000000000160
 50
353.948014641331550
 51
0.000000000000000
  0
ARC
  8
0
  6
CONTINUOUS
 62
256
 10
-329.228640032608150
 20
129.986931582458740
 40
289.396999999999650
 50
262.102011327572200
 51
270.000000000000000
  0
ARC
  8
0
  6
CONTINUOUS
 62
256
 10
-368.170157987990480
 20
-150.721845958127800
 40
6.000000000000049
 50
225.000000000003040
 51
262.102011327574530
  0
LINE
  8
0
  6
CONTINUOUS
 62
256
 10
-372.412798675109570
 20
-154.964486645247350
 11
-376.988864067748180
 21
-150.388421252608740
  0
ARC
  8
0
  6
CONTINUOUS
 62
256
 10
-366.101540957818770
 20
-139.501098142679330
 40
15.397000000000052
 50
186.051985358668840
 51
225.000000000000000
  0
ARC
  8
0
  6
CONTINUOUS
 62
256
 10
-93.628640032608246
 20
-110.613068417541040
 40
289.397000000000160
 50
180.000000000000000
 51
186.051985358668470
  0
LINE
  8
0
  6
CONTINUOUS
 62
256
 10
-265.728640032608380
 20
-80.620569355274256
 11
-265.728640032608380
 21
-74.613068417541058
  0
LINE
  8
0
  6
CONTINUOUS
 62
256
 10
-265.728640032608380
 20
-140.605567479807860
 11
-265.728640032608380
 21
-146.613068417541060
  0
ARC
  8
0
  6
CONTINUOUS
 62
256
 10
-238.361975259666000
 20
-79.613068417541058
 40
5.000000000000132
 50
6.032049146369047
 51
90.000000000000000
  0
LINE
  8
0
  6
CONTINUOUS
 62
256
 10
-266.922336523687820
 20
-74.613068417541058
 11
-238.361975259666000
 21
-74.613068417541058
  0
LINE
  8
0
  6
CONTINUOUS
 62
256
 10
-266.922336523687820
 20
-146.613068417541060
 11
-238.361975259666000
 21
-146.613068417541060
  0
ARC
  8
0
  6
CONTINUOUS
 62
256
 10
-238.361975259666000
 20
-141.613068417541060
 40
5.000000000000000
 50
270.000000000000000
 51
353.967950853629470
  0
LINE
  8
0
  6
CONTINUOUS
 62
256
 10
-231.228640032608380
 20
-113.113068417541040
 11
-231.228640032608380
 21
-108.113068417541040
  0
LINE
  8
0
  6
CONTINUOUS
 62
256
 10
-231.728641889806110
 20
-108.113068417541040
 11
-231.228640032608380
 21
-108.113068417541040
  0
LINE
  8
0
  6
CONTINUOUS
 62
256
 10
-231.739056880126100
 20
-113.113068417541040
 11
-231.228640032608380
 21
-113.113068417541040
  0
ARC
  8
0
  6
CONTINUOUS
 62
256
 10
-531.728640032608380
 20
-110.613068417541170
 40
300.000000000000060
 50
353.967950853630270
 51
6.032049146369817
  0
ARC
  8
0
  6
CONTINUOUS
 62
256
 10
-368.728640032608380
 20
-169.613068417541110
 40
2.000000000000000
 50
180.000000000000000
 51
270.000000000000000
  0
ARC
  8
0
  6
CONTINUOUS
 62
256
 10
-289.728640032608380
 20
-169.613068417541110
 40
2.000000000000000
 50
270.000000000000000
 51
0.000000000000000
  0
ARC
  8
0
  6
CONTINUOUS
 62
256
 10
-293.728640032608380
 20
-166.613068417541110
 40
7.000000000000012
 50
214.849904579046410
 51
225.584691402807100
  0
ARC
  8
0
  6
CONTINUOUS
 62
256
 10
-364.728640032608380
 20
-166.613068417541110
 40
6.999999999999971
 50
314.415308597192730
 51
325.150095420953510
  0
ARC
  8
0
  6
CONTINUOUS
 62
256
 10
-368.728640032608380
 20
-169.613068417541110
 40
2.000000000000000
 50
180.000000000000000
 51
270.000000000000000
  0
LINE
  8
0
  6
CONTINUOUS
 62
256
 10
-298.627619518174700
 20
-171.613068417541110
 11
-289.728640032608380
 21
-171.613068417541110
  0
LINE
  8
0
  6
CONTINUOUS
 62
256
 10
-359.829660547042070
 20
-171.613068417541110
 11
-368.728640032608380
 21
-171.613068417541110
  0
LINE
  8
0
  6
CONTINUOUS
 62
256
 10
-329.228640032608380
 20
-170.613068417541110
 11
-358.984077386070340
 21
-170.613068417541110
  0
LINE
  8
0
  6
CONTINUOUS
 62
256
 10
-329.228640032608380
 20
-170.613068417541110
 11
-299.473202679146420
 21
-170.613068417541110
  0
LINE
  8
0
  6
CONTINUOUS
 62
256
 10
-377.728640032608380
 20
-172.113068417541110
 11
-401.728640032608380
 21
-172.113068417541110
  0
LINE
  8
0
  6
CONTINUOUS
 62
256
 10
-280.728640032608380
 20
-172.113068417541110
 11
-256.728640032608380
 21
-172.113068417541110
  0
ARC
  8
0
  6
CONTINUOUS
 62
256
 10
-293.728640032608380
 20
-167.113068417541110
 40
6.999999999999984
 50
210.000000000000060
 51
220.005200884860160
  0
ARC
  8
0
  6
CONTINUOUS
 62
256
 10
-281.728640032608380
 20
-172.613068417541110
 40
1.000000000000000
 50
0.000000000000000
 51
90.000000000000000
  0
LINE
  8
0
  6
CONTINUOUS
 62
256
 10
-377.728640032608380
 20
-172.613068417541110
 11
-401.728640032608380
 21
-172.613068417541110
  0
LINE
  8
0
  6
CONTINUOUS
 62
256
 10
-280.728640032608380
 20
-172.613068417541110
 11
-256.728640032608380
 21
-172.613068417541110
  0
ARC
  8
0
  6
CONTINUOUS
 62
256
 10
-284.728640032608380
 20
-170.613068417541110
 40
1.000000000000000
 50
180.000000000000000
 51
270.000000000000000
  0
ARC
  8
0
  6
CONTINUOUS
 62
256
 10
-376.728640032608380
 20
-172.613068417541110
 40
1.000000000000000
 50
90.000000000000000
 51
180.000000000000000
  0
ARC
  8
0
  6
CONTINUOUS
 62
256
 10
-373.728640032608380
 20
-170.613068417541110
 40
1.000000000000000
 50
270.000000000000000
 51
0.000000000000000
  0
ARC
  8
0
  6
CONTINUOUS
 62
256
 10
-289.728640032608380
 20
-169.613068417541110
 40
2.000000000000000
 50
270.000000000000000
 51
0.000000000000000
  0
ARC
  8
0
  6
CONTINUOUS
 62
256
 10
-368.728640032608380
 20
-169.613068417541110
 40
2.000000000000000
 50
180.000000000000000
 51
270.000000000000000
  0
LINE
  8
0
  6
DASHDOT
 62
256
 10
-391.728640032608380
 20
-176.910462750426800
 11
-391.728640032608380
 21
-153.649828043210330
  0
LINE
  8
0
  6
CONTINUOUS
 62
256
 10
-299.090542679990220
 20
-171.613068417541110
 11
-281.728640032608380
 21
-171.613068417541110
  0
LINE
  8
0
  6
CONTINUOUS
 62
256
 10
-329.228640032608380
 20
-170.613068417541110
 11
-299.790817859099430
 21
-170.613068417541110
  0
ARC
  8
0
  6
CONTINUOUS
 62
256
 10
-364.728640032608380
 20
-167.113068417541110
 40
7.000000000000027
 50
319.994799115139980
 51
329.999999999999940
  0
LINE
  8
0
  6
CONTINUOUS
 62
256
 10
-329.228640032608380
 20
-170.613068417541110
 11
-358.666462206117330
 21
-170.613068417541110
  0
LINE
  8
0
  6
CONTINUOUS
 62
256
 10
-359.366737385226540
 20
-171.613068417541110
 11
-376.728640032608380
 21
-171.613068417541110
  0
LINE
  8
0
  6
CONTINUOUS
 62
256
 10
-401.728640032608380
 20
-172.613068417541110
 11
-401.728640032608380
 21
-160.113068417541110
  0
ARC
  8
0
  6
CONTINUOUS
 62
256
 10
-400.728640032608380
 20
-155.870427730421910
 40
1.999999999999821
 50
289.471220634487910
 51
0.000000000000000
  0
ARC
  8
0
  6
CONTINUOUS
 62
256
 10
-399.228640032608380
 20
-160.113068417541110
 40
2.500000000000000
 50
90.000000000000000
 51
180.000000000000000
  0
LINE
  8
0
  6
DASHDOT
 62
256
 10
-266.728640032608380
 20
-176.910462750426800
 11
-266.728640032608380
 21
-153.649828043210330
  0
ARC
  8
0
  6
CONTINUOUS
 62
256
 10
-259.228640032608380
 20
-160.113068417541110
 40
2.500000000000000
 50
0.000000000000000
 51
90.000000000000000
  0
ARC
  8
0
  6
CONTINUOUS
 62
256
 10
-257.728640032608380
 20
-155.870427730421910
 40
2.000000000000000
 50
180.000000000000000
 51
250.528779365505240
  0
ARC
  8
0
  6
CONTINUOUS
 62
256
 10
-395.728640032608380
 20
-145.613068417541230
 40
3.000000000000114
 50
90.000000000000000
 51
180.000000000000000
  0
LINE
  8
0
  6
CONTINUOUS
 62
256
 10
-256.728640032608380
 20
-172.613068417541110
 11
-256.728640032608380
 21
-160.113068417541110
  0
ARC
  8
0
  6
CONTINUOUS
 62
256
 10
-358.478640032608380
 20
-169.613068417541110
 40
1.000000000000000
 50
180.000000000000000
 51
270.000000000000000
  0
ARC
  8
0
  6
CONTINUOUS
 62
256
 10
-329.228640032608610
 20
-845.113068417541170
 40
799.999999999999890
 50
88.510141843146044
 51
90.000000000000000
  0
ARC
  8
0
  6
CONTINUOUS
 62
256
 10
-302.478640032608380
 20
-46.905931336077401
 40
1.000000000000000
 50
0.000000000000000
 51
81.491323261727388
  0
ARC
  8
0
  6
CONTINUOUS
 62
256
 10
-289.978640032608380
 20
-50.523133486897450
 40
1.000000000000052
 50
66.230309577334467
 51
180.000000000000000
  0
ARC
  8
0
  6
CONTINUOUS
 62
256
 10
-355.978640032608380
 20
-46.905931336077401
 40
1.000000000000005
 50
98.508676738272570
 51
180.000000000000000
  0
ARC
  8
0
  6
CONTINUOUS
 62
256
 10
-368.478640032608380
 20
-50.523133486897450
 40
1.000000000000000
 50
0.000000000000000
 51
113.769690422666680
  0
ARC
  8
0
  6
CONTINUOUS
 62
256
 10
-289.728640032608380
 20
-169.613068417541110
 40
2.000000000000000
 50
270.000000000000000
 51
0.000000000000000
  0
ARC
  8
0
  6
CONTINUOUS
 62
256
 10
-368.728640032608380
 20
-169.613068417541110
 40
2.000000000000000
 50
180.000000000000000
 51
270.000000000000000
  0
ARC
  8
0
  6
CONTINUOUS
 62
256
 10
-329.228640032608150
 20
-845.113068417541170
 40
800.000000000000000
 50
90.000000000000000
 51
91.489858156853956
  0
ARC
  8
0
  6
CONTINUOUS
 62
256
 10
-364.728640032608380
 20
-166.613068417541110
 40
6.999999999999971
 50
314.415308597192730
 51
325.150095420953510
  0
ARC
  8
0
  6
CONTINUOUS
 62
256
 10
-293.728640032608380
 20
-166.613068417541110
 40
7.000000000000012
 50
214.849904579046410
 51
225.584691402807100
  0
LINE
  8
0
  6
CONTINUOUS
 62
256
 10
-329.228640032608380
 20
-170.613068417541110
 11
-358.984077386070340
 21
-170.613068417541110
  0
LINE
  8
0
  6
CONTINUOUS
 62
256
 10
-329.228640032608380
 20
-170.613068417541110
 11
-299.473202679146420
 21
-170.613068417541110
  0
LINE
  8
0
  6
CONTINUOUS
 62
256
 10
-359.829660547042070
 20
-171.613068417541110
 11
-368.728640032608380
 21
-171.613068417541110
  0
LINE
  8
0
  6
CONTINUOUS
 62
256
 10
-298.627619518174700
 20
-171.613068417541110
 11
-289.728640032608380
 21
-171.613068417541110
  0
LINE
  8
0
  6
CONTINUOUS
 62
256
 10
-291.728641222386840
 20
-168.267767728278390
 11
-293.728641976499830
 21
-169.422465942749230
  0
LINE
  8
0
  6
CONTINUOUS
 62
256
 10
-366.728638842830040
 20
-168.267767728278390
 11
-364.728638088717050
 21
-169.422465942749230
  0
TEXT
  8
0
  6
CONTINUOUS
 62
256
 10
-372.886657714843750
 20
63.050956726074219
 40
10.295999526977539
  1
ＳＣＡＬＥ１／１
 50
0.000002504478167
 41
0.984848625190477
  7
STANDARD1
  0
TEXT
  8
0
  6
CONTINUOUS
 62
256
 10
-372.886657714843750
 20
79.586959838867188
 40
10.295999526977539
  1
１／３～１／３０
 50
0.000002504478167
 41
0.984848625190477
  7
STANDARD1
  0
TEXT
  8
0
  6
CONTINUOUS
 62
256
 10
-372.886657714843750
 20
96.122955322265625
 40
10.295999526977539
  1
０．４ｋＷ
 50
0.000002504478167
 41
0.984848625190477
  7
STANDARD1
  0
TEXT
  8
0
  6
CONTINUOUS
 62
256
 10
-372.886657714843750
 20
112.658958435058590
 40
10.295999526977539
  1
ＧＭ－ＳＳＢ
 50
0.000002504478167
 41
0.984848625190477
  7
STANDARD1
  0
TEXT
  8
0
  6
CONTINUOUS
 62
256
 10
-372.886657714843750
 20
129.194961547851560
 40
10.295999526977539
  1
三菱ギヤードモートル
 50
0.000002504478167
 41
0.984848625190477
  7
STANDARD1
  0
TEXT
  8
0
  6
CONTINUOUS
 62
256
 10
-372.886657714843750
 20
145.730957031250000
 40
10.295999526977539
  1
Ｓ０９８
 50
0.000002504478167
 41
0.984848625190477
  7
STANDARD1
  0
ARC
  8
0
  6
CONTINUOUS
 62
256
 10
-279.801875892798820
 20
-61.186304277731516
 40
6.099999427795398
 50
354.601910595264830
 51
95.398072101891529
  0
POINT
  8
0
  6
CONTINUOUS
 62
256
 10
-277.539134327871810
 20
-58.923562712804483
  0
LINE
  8
0
  6
CONTINUOUS
 62
256
 10
-274.215732591164970
 20
-62.246964449511339
 11
-280.862536064578650
 21
-55.600160976097627
  0
LINE
  8
0
  6
CONTINUOUS
 62
256
 10
-273.902593982196150
 20
-61.994417498660972
 11
-280.579693284669080
 21
-55.317318196188047
  0
LINE
  8
0
  6
CONTINUOUS
 62
256
 10
-280.862536064578650
 20
-55.600160976097627
 11
-280.375732672873030
 21
-55.113357584392006
  0
LINE
  8
0
  6
CONTINUOUS
 62
256
 10
-274.215732591164970
 20
-62.246964449511339
 11
-273.728929199459340
 21
-61.760161057805718
  0
ARC
  8
0
  6
CONTINUOUS
 62
256
 10
-378.655404172417950
 20
-61.186304277731516
 40
6.099999427795406
 50
84.601927898108485
 51
185.398089404735230
  0
POINT
  8
0
  6
CONTINUOUS
 62
256
 10
-380.918145737344960
 20
-58.923562712804483
  0
LINE
  8
0
  6
CONTINUOUS
 62
256
 10
-384.241547474051800
 20
-62.246964449511339
 11
-377.594744000638120
 21
-55.600160976097627
  0
LINE
  8
0
  6
CONTINUOUS
 62
256
 10
-384.554686083020610
 20
-61.994417498660972
 11
-377.877586780547690
 21
-55.317318196188047
  0
LINE
  8
0
  6
CONTINUOUS
 62
256
 10
-377.594744000638120
 20
-55.600160976097627
 11
-378.081547392343740
 21
-55.113357584392006
  0
LINE
  8
0
  6
CONTINUOUS
 62
256
 10
-384.241547474051800
 20
-62.246964449511339
 11
-384.728350865757420
 21
-61.760161057805718
  0
ARC
  8
0
  6
CONTINUOUS
 62
256
 10
-378.655404172417950
 20
-160.039832557350820
 40
6.099999427795398
 50
174.601910595264910
 51
275.398072101891500
  0
POINT
  8
0
  6
CONTINUOUS
 62
256
 10
-380.918145737344960
 20
-162.302574122277860
  0
LINE
  8
0
  6
CONTINUOUS
 62
256
 10
-384.241547474051800
 20
-158.979172385570990
 11
-377.594744000638120
 21
-165.625975858984730
  0
LINE
  8
0
  6
CONTINUOUS
 62
256
 10
-384.554686083020610
 20
-159.231719336421380
 11
-377.877586780547690
 21
-165.908818638894300
  0
LINE
  8
0
  6
CONTINUOUS
 62
256
 10
-377.594744000638120
 20
-165.625975858984730
 11
-378.081547392343740
 21
-166.112779250690320
  0
LINE
  8
0
  6
CONTINUOUS
 62
256
 10
-384.241547474051800
 20
-158.979172385570990
 11
-384.728350865757420
 21
-159.465975777276610
  0
ARC
  8
0
  6
CONTINUOUS
 62
256
 10
-279.801875892798820
 20
-160.039832557350820
 40
6.099999427795406
 50
264.601927898108500
 51
5.398089404735109
  0
POINT
  8
0
  6
CONTINUOUS
 62
256
 10
-277.539134327871810
 20
-162.302574122277860
  0
LINE
  8
0
  6
CONTINUOUS
 62
256
 10
-274.215732591164970
 20
-158.979172385570990
 11
-280.862536064578650
 21
-165.625975858984730
  0
LINE
  8
0
  6
CONTINUOUS
 62
256
 10
-273.902593982196150
 20
-159.231719336421380
 11
-280.579693284669080
 21
-165.908818638894300
  0
LINE
  8
0
  6
CONTINUOUS
 62
256
 10
-280.862536064578650
 20
-165.625975858984730
 11
-280.375732672873030
 21
-166.112779250690320
  0
LINE
  8
0
  6
CONTINUOUS
 62
256
 10
-274.215732591164970
 20
-158.979172385570990
 11
-273.728929199459340
 21
-159.465975777276610
  0
ENDSEC
  0
EOF
