  0
SECTION
  2
HEADER
  9
$FILLMODE
 70
1
  9
$TEXTSTYLE
  7
STANDARD1
  9
$ACADVER
  1
AC1009
  9
$DIMASZ
 40
1.931851648807023
  9
$DIMEXE
 40
2.000000000000000
  9
$DIMEXO
 40
1.000000000000000
  9
$DIMLFAC
 40
1.000000000000000
  9
$DIMSCALE
 40
1.000000000000000
  9
$DIMTAD
 70
1
  9
$DIMTFAC
 40
0.714285731315613
  9
$DIMTXT
 40
2.799999952316284
  9
$LUPREC
 70
3
  9
$TEXTSIZE
 40
2.799999952316284
  9
$REGENMODE
 70
1
  0
ENDSEC
  0
SECTION
  2
TABLES
  0
TABLE
  2
LTYPE
 70
4
  0
LTYPE
  2
CONTINUOUS
 70
64
  3
Solid line
 72
65
 73
0
 40
0.0
  0
LTYPE
  2
DASHED
 70
64
  3
-- -- -- -- -- -- -- -- -- -- -- -- -- -- --
 72
65
 73
2
 40
0.75
 49
0.5
 49
-0.25
  0
LTYPE
  2
DASHDOT
 70
64
  3
__ . __ . __ . __ . __ . __ . __ . __ . __ . __
 72
65
 73
4
 40
1.0
 49
0.5
 49
-0.25
 49
0.0
 49
-0.25
  0
LTYPE
  2
DIVIDE
 70
64
  3
__ . . __ . . __ . . __ . . __ . . __ . . __
 72
65
 73
6
 40
1.25
 49
0.5
 49
-0.25
 49
0.0
 49
-0.25
 49
0.0
 49
-0.25
  0
ENDTAB
  0
TABLE
  2
LAYER
 70
1
  0
LAYER
  2
0
 70
64
 62
2
  6
CONTINUOUS
  0
ENDTAB
  0
TABLE
  2
STYLE
 70
4
  0
STYLE
  2
STANDARD1
 70
64
 40
0.0
 41
1.0
 50
0.0
 71
0
 42
2.799999952316284
  3
MONOTXT
  4
BIGFONT
  0
STYLE
  2
STANDARD2
 70
68
 40
0.0
 41
1.0
 50
0.0
 71
0
 42
2.799999952316284
  3
MONOTXT
  4
BIGFONT
  0
STYLE
  2
STANDARD3
 70
64
 40
0.0
 41
1.0
 50
0.0
 71
0
 42
2.799999952316284
  3
MONOTXT
  4

  0
STYLE
  2
STANDARD4
 70
68
 40
0.0
 41
1.0
 50
0.0
 71
0
 42
2.799999952316284
  3
MONOTXT
  4

  0
ENDTAB
  0
TABLE
  2
VIEW
 70
0
  0
ENDTAB
  0
ENDSEC
  0
SECTION
  2
BLOCKS
  0
BLOCK
  8
0
  2
SYM1
 70
64
 10
0.000000000000000
 20
0.000000000000000
  0
ARC
  8
0
  6
CONTINUOUS
 62
3
 10
-0.979025304317474
 20
-2.200000762939453
 40
1.299999237060547
 50
196.601531107481040
 51
270.000000000000000
  0
ARC
  8
0
  6
CONTINUOUS
 62
3
 10
-0.979025304317474
 20
2.200000762939453
 40
1.299999237060547
 50
90.000000000000000
 51
163.398451589674950
  0
LINE
  8
0
  6
CONTINUOUS
 62
3
 10
-0.000000000000000
 20
-3.500000000000000
 11
-0.979025304317474
 21
-3.500000000000000
  0
LINE
  8
0
  6
CONTINUOUS
 62
3
 10
0.000000000000000
 20
3.500000000000000
 11
-0.979025304317474
 21
3.500000000000000
  0
LINE
  8
0
  6
CONTINUOUS
 62
3
 10
0.000000000000000
 20
-3.500000000000000
 11
-0.000000000000000
 21
3.500000000000000
  0
LINE
  8
0
  6
CONTINUOUS
 62
3
 10
0.000000000000000
 20
-3.500000000000000
 11
-0.000000000000000
 21
3.500000000000000
  0
POINT
  8
0
  6
CONTINUOUS
 62
3
 10
0.000000000000000
 20
0.000000000000000
  0
ARC
  8
0
  6
CONTINUOUS
 62
3
 10
6.399999618530273
 20
0.000000000000000
 40
9.000000000000000
 50
163.398451589674950
 51
196.601531107481040
  0
ENDBLK
  8
0
  0
BLOCK
  8
0
  2
SYM2
 70
64
 10
0.000000000000000
 20
0.000000000000000
  0
ARC
  8
0
  6
CONTINUOUS
 62
3
 10
6.399999618530273
 20
0.000000000000000
 40
9.000000000000000
 50
163.398451589674950
 51
196.601531107481040
  0
POINT
  8
0
  6
CONTINUOUS
 62
3
 10
0.000000000000000
 20
0.000000000000000
  0
LINE
  8
0
  6
CONTINUOUS
 62
3
 10
0.000000000000000
 20
-3.500000000000000
 11
-0.000000000000000
 21
3.500000000000000
  0
LINE
  8
0
  6
CONTINUOUS
 62
3
 10
0.000000000000000
 20
-3.500000000000000
 11
-0.000000000000000
 21
3.500000000000000
  0
LINE
  8
0
  6
CONTINUOUS
 62
3
 10
0.000000000000000
 20
3.500000000000000
 11
-0.979025304317474
 21
3.500000000000000
  0
LINE
  8
0
  6
CONTINUOUS
 62
3
 10
-0.000000000000000
 20
-3.500000000000000
 11
-0.979025304317474
 21
-3.500000000000000
  0
ARC
  8
0
  6
CONTINUOUS
 62
3
 10
-0.979025304317474
 20
2.200000762939453
 40
1.299999237060547
 50
90.000000000000000
 51
163.398451589674950
  0
ARC
  8
0
  6
CONTINUOUS
 62
3
 10
-0.979025304317474
 20
-2.200000762939453
 40
1.299999237060547
 50
196.601531107481040
 51
270.000000000000000
  0
ENDBLK
  8
0
  0
BLOCK
  8
0
  2
SYM3
 70
64
 10
0.000000000000000
 20
0.000000000000000
  0
LINE
  8
0
  6
CONTINUOUS
 62
3
 10
-0.000000000000000
 20
-5.000000000000000
 11
-6.000000000000000
 21
-5.000000000000000
  0
LINE
  8
0
  6
CONTINUOUS
 62
3
 10
0.000000000000000
 20
5.000000000000000
 11
-6.000000000000000
 21
5.000000000000000
  0
LINE
  8
0
  6
CONTINUOUS
 62
3
 10
-6.000000000000000
 20
-5.000000000000000
 11
-6.000000000000000
 21
5.000000000000000
  0
LINE
  8
0
  6
CONTINUOUS
 62
3
 10
0.000000000000000
 20
5.000000000000000
 11
0.000000000000000
 21
-5.000000000000000
  0
POINT
  8
0
  6
CONTINUOUS
 62
3
 10
0.000000000000000
 20
0.000000000000000
  0
ENDBLK
  8
0
  0
ENDSEC
  0
SECTION
  2
ENTITIES
  0
LINE
  8
0
  6
CONTINUOUS
 62
3
 10
-397.729820699590960
 20
-161.187810647090230
 11
-398.216624091296580
 21
-161.674614038795850
  0
LINE
  8
0
  6
CONTINUOUS
 62
3
 10
-391.083017226177280
 20
-167.834614120503970
 11
-391.569820617882900
 21
-168.321417512209560
  0
LINE
  8
0
  6
CONTINUOUS
 62
3
 10
-398.042959308559770
 20
-161.440357597940620
 11
-391.365860006086850
 21
-168.117456900413540
  0
LINE
  8
0
  6
CONTINUOUS
 62
3
 10
-397.729820699590960
 20
-161.187810647090230
 11
-391.083017226177280
 21
-167.834614120503970
  0
POINT
  8
0
  6
CONTINUOUS
 62
3
 10
-394.406418962884120
 20
-164.511212383797100
  0
ARC
  8
0
  6
CONTINUOUS
 62
3
 10
-392.143677397957110
 20
-162.248470818870060
 40
6.099999427795398
 50
174.601910595264880
 51
275.398072101891500
  0
LINE
  8
0
  6
CONTINUOUS
 62
3
 10
-397.729820699590960
 20
-64.455602711030579
 11
-398.216624091296580
 21
-63.968799319324958
  0
LINE
  8
0
  6
CONTINUOUS
 62
3
 10
-391.083017226177280
 20
-57.808799237616867
 11
-391.569820617882900
 21
-57.321995845911246
  0
LINE
  8
0
  6
CONTINUOUS
 62
3
 10
-398.042959308559770
 20
-64.203055760180206
 11
-391.365860006086850
 21
-57.525956457707288
  0
LINE
  8
0
  6
CONTINUOUS
 62
3
 10
-397.729820699590960
 20
-64.455602711030579
 11
-391.083017226177280
 21
-57.808799237616867
  0
POINT
  8
0
  6
CONTINUOUS
 62
3
 10
-394.406418962884120
 20
-61.132200974323723
  0
ARC
  8
0
  6
CONTINUOUS
 62
3
 10
-392.143677397957110
 20
-63.394942539250756
 40
6.099999427795406
 50
84.601927898108471
 51
185.398089404735260
  0
LINE
  8
0
  6
CONTINUOUS
 62
3
 10
-287.704005816704130
 20
-64.455602711030579
 11
-287.217202424998500
 21
-63.968799319324958
  0
LINE
  8
0
  6
CONTINUOUS
 62
3
 10
-294.350809290117810
 20
-57.808799237616867
 11
-293.864005898412190
 21
-57.321995845911246
  0
LINE
  8
0
  6
CONTINUOUS
 62
3
 10
-287.390867207735310
 20
-64.203055760180206
 11
-294.067966510208240
 21
-57.525956457707288
  0
LINE
  8
0
  6
CONTINUOUS
 62
3
 10
-287.704005816704130
 20
-64.455602711030579
 11
-294.350809290117810
 21
-57.808799237616867
  0
POINT
  8
0
  6
CONTINUOUS
 62
3
 10
-291.027407553410970
 20
-61.132200974323723
  0
ARC
  8
0
  6
CONTINUOUS
 62
3
 10
-293.290149118337980
 20
-63.394942539250756
 40
6.099999427795398
 50
354.601910595264830
 51
95.398072101891529
  0
TEXT
  8
0
  6
CONTINUOUS
 62
3
 10
-392.132110595703120
 20
149.254669189453120
 40
10.295999526977539
  1
Ｓ０９９
 50
0.000002504478167
 41
0.984848625190477
  7
STANDARD1
  0
TEXT
  8
0
  6
CONTINUOUS
 62
3
 10
-392.132110595703120
 20
132.718673706054690
 40
10.295999526977539
  1
三菱ギヤードモートル
 50
0.000002504478167
 41
0.984848625190477
  7
STANDARD1
  0
TEXT
  8
0
  6
CONTINUOUS
 62
3
 10
-392.132110595703120
 20
116.182670593261710
 40
10.295999526977539
  1
ＧＭ－ＳＳＢ
 50
0.000002504478167
 41
0.984848625190477
  7
STANDARD1
  0
TEXT
  8
0
  6
CONTINUOUS
 62
3
 10
-392.132110595703120
 20
99.646667480468750
 40
10.295999526977539
  1
０．４ｋＷ
 50
0.000002504478167
 41
0.984848625190477
  7
STANDARD1
  0
TEXT
  8
0
  6
CONTINUOUS
 62
3
 10
-392.132110595703120
 20
83.110671997070312
 40
10.295999526977539
  1
１／４０,１／５０
 50
0.000002504478167
 41
0.965694827915001
  7
STANDARD1
  0
TEXT
  8
0
  6
CONTINUOUS
 62
3
 10
-392.132110595703120
 20
66.574668884277344
 40
10.295999526977539
  1
ＳＣＡＬＥ１／１
 50
0.000002504478167
 41
0.984848625190477
  7
STANDARD1
  0
LINE
  8
0
  6
CONTINUOUS
 62
3
 10
-385.216910873962430
 20
-169.878335034061310
 11
-385.216911827636750
 21
-172.765080486942170
  0
LINE
  8
0
  6
CONTINUOUS
 62
3
 10
-382.716907746022000
 20
-174.208453616782440
 11
-380.216915440978480
 21
-172.765078270038320
  0
LINE
  8
0
  6
CONTINUOUS
 62
3
 10
-385.216912610091640
 20
-172.765080653736330
 11
-382.716908260585110
 21
-174.208454230432210
  0
LINE
  8
0
  6
CONTINUOUS
 62
3
 10
-300.216915642332650
 20
-169.878335034061310
 11
-300.216914688658330
 21
-172.765080486942170
  0
LINE
  8
0
  6
CONTINUOUS
 62
3
 10
-302.716918770272970
 20
-174.208453616782440
 11
-305.216911075316600
 21
-172.765078270038320
  0
LINE
  8
0
  6
CONTINUOUS
 62
3
 10
-300.216913906203440
 20
-172.765080653736330
 11
-302.716918255709970
 21
-174.208454230432210
  0
LINE
  8
0
  6
CONTINUOUS
 62
3
 10
-342.716913258147540
 20
-175.821706679060300
 11
-309.066125807747770
 21
-175.821706679060300
  0
LINE
  8
0
  6
CONTINUOUS
 62
3
 10
-308.526388277458860
 20
-176.821706679060300
 11
-298.386786239225330
 21
-176.821706679060300
  0
LINE
  8
0
  6
CONTINUOUS
 62
3
 10
-342.716913258147540
 20
-175.821706679060300
 11
-376.367700708547320
 21
-175.821706679060300
  0
LINE
  8
0
  6
CONTINUOUS
 62
3
 10
-376.907438238836220
 20
-176.821706679060300
 11
-387.047040277069750
 21
-176.821706679060300
  0
ARC
  8
0
  6
CONTINUOUS
 62
3
 10
-342.716913258147540
 20
-446.821706679060300
 40
400.000000000000170
 50
86.642182578429313
 51
90.000000000000000
  0
ARC
  8
0
  6
CONTINUOUS
 62
3
 10
-342.716913258147540
 20
-446.821706679060300
 40
400.000000000000000
 50
90.000000000000000
 51
93.357817421570687
  0
ARC
  8
0
  6
CONTINUOUS
 62
3
 10
-383.966913258147540
 20
-53.032969334292034
 40
1.000000000000000
 50
0.000000000000000
 51
115.053819043254990
  0
ARC
  8
0
  6
CONTINUOUS
 62
3
 10
-369.466913258147540
 20
-48.822811087197806
 40
0.999999999999975
 50
97.328097969880389
 51
180.000000000000000
  0
ARC
  8
0
  6
CONTINUOUS
 62
3
 10
-315.966913258147540
 20
-48.822811087197806
 40
1.000000000000000
 50
0.000000000000000
 51
82.671902030119611
  0
ARC
  8
0
  6
CONTINUOUS
 62
3
 10
-301.466913258147540
 20
-53.032969334292034
 40
0.999999999999987
 50
64.946180956746389
 51
180.000000000000000
  0
ARC
  8
0
  6
CONTINUOUS
 62
3
 10
-302.716913258147540
 20
-171.321706679060410
 40
6.999999999999923
 50
308.213210701738890
 51
8.736046408089175
  0
ARC
  8
0
  6
CONTINUOUS
 62
3
 10
-309.066125807747770
 20
-174.821706679060300
 40
1.000000000000000
 50
270.000000000000000
 51
28.865727415011673
  0
ARC
  8
0
  6
CONTINUOUS
 62
3
 10
-302.716913258147540
 20
-171.321706679060360
 40
8.000000000000130
 50
214.228866327811460
 51
223.432536557788520
  0
ARC
  8
0
  6
CONTINUOUS
 62
3
 10
-376.367700708547320
 20
-174.821706679060300
 40
0.999999999999849
 50
151.134272584988340
 51
270.000000000000000
  0
ARC
  8
0
  6
CONTINUOUS
 62
3
 10
-382.716913258147540
 20
-171.321706679060360
 40
8.000000000000103
 50
316.567463442211480
 51
325.771133672188510
  0
ARC
  8
0
  6
CONTINUOUS
 62
3
 10
-382.716913258147540
 20
-171.321706679060410
 40
6.999999999999847
 50
171.263953591911300
 51
231.786789298261110
  0
LINE
  8
0
  6
CONTINUOUS
 62
3
 10
-391.216913258147540
 20
-177.321706679060300
 11
-415.216913258147540
 21
-177.321706679060300
  0
LINE
  8
0
  6
CONTINUOUS
 62
3
 10
-294.216913258147540
 20
-177.321706679060300
 11
-270.216913258147540
 21
-177.321706679060300
  0
LINE
  8
0
  6
CONTINUOUS
 62
3
 10
-342.716913258147540
 20
-175.821706679060300
 11
-376.102534980486100
 21
-175.821706679060300
  0
LINE
  8
0
  6
CONTINUOUS
 62
3
 10
-376.907438238836450
 20
-176.821706679060300
 11
-390.216913258147540
 21
-176.821706679060300
  0
LINE
  8
0
  6
CONTINUOUS
 62
3
 10
-404.755483718692630
 20
-152.821706679060300
 11
-410.216913258147540
 21
-152.821706679060300
  0
LINE
  8
0
  6
CONTINUOUS
 62
3
 10
-391.216913258147540
 20
-177.821706679060300
 11
-415.216913258147540
 21
-177.821706679060300
  0
LINE
  8
0
  6
CONTINUOUS
 62
3
 10
-391.216913258147540
 20
-177.821706679060300
 11
-391.216913258147540
 21
-169.225669836738460
  0
LINE
  8
0
  6
CONTINUOUS
 62
3
 10
-415.216913258147540
 20
-177.821706679060300
 11
-415.216913258147540
 21
-165.821706679060300
  0
LINE
  8
0
  6
DASHDOT
 62
4
 10
-405.239169880461760
 20
-181.402210447981360
 11
-405.239169880461760
 21
-161.879862272932540
  0
LINE
  8
0
  6
CONTINUOUS
 62
3
 10
-342.716913258147540
 20
-175.821706679060300
 11
-309.331291535809210
 21
-175.821706679060300
  0
LINE
  8
0
  6
CONTINUOUS
 62
3
 10
-308.526388277458860
 20
-176.821706679060300
 11
-295.216913258147540
 21
-176.821706679060300
  0
LINE
  8
0
  6
CONTINUOUS
 62
3
 10
-280.678342797602450
 20
-152.821706679060300
 11
-275.216913258147540
 21
-152.821706679060300
  0
LINE
  8
0
  6
CONTINUOUS
 62
3
 10
-294.216913258147540
 20
-177.821706679060300
 11
-270.216913258147540
 21
-177.821706679060300
  0
LINE
  8
0
  6
CONTINUOUS
 62
3
 10
-294.216913258147540
 20
-177.821706679060300
 11
-294.216913258147540
 21
-169.225669836738460
  0
LINE
  8
0
  6
CONTINUOUS
 62
3
 10
-270.216913258147540
 20
-177.821706679060300
 11
-270.216913258147540
 21
-165.821706679060300
  0
LINE
  8
0
  6
DASHDOT
 62
4
 10
-280.194656635833330
 20
-181.402210447981360
 11
-280.194656635833330
 21
-161.879862272932540
  0
ARC
  8
0
  6
CONTINUOUS
 62
3
 10
-342.716913258147540
 20
-446.821706679060300
 40
400.000000000000000
 50
90.000000000000000
 51
93.357817421570687
  0
ARC
  8
0
  6
CONTINUOUS
 62
3
 10
-342.716913258147540
 20
-446.821706679060300
 40
400.000000000000170
 50
86.642182578429313
 51
90.000000000000000
  0
ARC
  8
0
  6
CONTINUOUS
 62
3
 10
-410.216913258147540
 20
-155.821706679060300
 40
3.000000000000000
 50
90.000000000000000
 51
180.000000000000000
  0
ARC
  8
0
  6
CONTINUOUS
 62
3
 10
-390.216913258147540
 20
-177.821706679060300
 40
1.000000000000000
 50
90.000000000000000
 51
180.000000000000000
  0
ARC
  8
0
  6
CONTINUOUS
 62
3
 10
-412.216913258147540
 20
-165.821706679060300
 40
3.000000000000000
 50
90.000000000000000
 51
180.000000000000000
  0
ARC
  8
0
  6
CONTINUOUS
 62
3
 10
-416.216913258147540
 20
-161.349570724060750
 40
3.000000000000029
 50
311.810314895778110
 51
0.000000000000000
  0
ARC
  8
0
  6
CONTINUOUS
 62
3
 10
-275.216913258147540
 20
-155.821706679060300
 40
3.000000000000000
 50
0.000000000000000
 51
90.000000000000000
  0
ARC
  8
0
  6
CONTINUOUS
 62
3
 10
-295.216913258147540
 20
-177.821706679060300
 40
1.000000000000000
 50
0.000000000000000
 51
90.000000000000000
  0
ARC
  8
0
  6
CONTINUOUS
 62
3
 10
-273.216913258147540
 20
-165.821706679060300
 40
3.000000000000000
 50
0.000000000000000
 51
90.000000000000000
  0
ARC
  8
0
  6
CONTINUOUS
 62
3
 10
-269.216913258147540
 20
-161.349570724060750
 40
3.000000000000000
 50
180.000000000000000
 51
228.189685104221890
  0
ARC
  8
0
  6
CONTINUOUS
 62
3
 10
-382.716913258147540
 20
-171.321706679060360
 40
7.000000000000081
 50
171.263953591911100
 51
231.786789298261400
  0
ARC
  8
0
  6
CONTINUOUS
 62
3
 10
-302.716913258147770
 20
-171.321706679060360
 40
7.000000000000107
 50
308.213210701740080
 51
8.736046408088891
  0
ARC
  8
0
  6
CONTINUOUS
 62
3
 10
-382.716913258147540
 20
-171.321706679060360
 40
7.999999999999938
 50
316.567463442210340
 51
325.771133672187600
  0
ARC
  8
0
  6
CONTINUOUS
 62
3
 10
-302.716913258147770
 20
-171.321706679060360
 40
7.999999999999941
 50
214.228866327812370
 51
223.432536557789660
  0
INSERT
  8
0
  2
SYM1
 10
-430.161735464490900
 20
-153.740663290320750
 41
1.000000000000000
 42
1.000000000000000
 43
1.000000000000000
 50
357.137594773886350
  0
ARC
  8
0
  6
CONTINUOUS
 62
3
 10
-545.216913258147540
 20
-112.821706679060410
 40
300.000000000000060
 50
353.967950853630210
 51
6.032049146369816
  0
LINE
  8
0
  6
CONTINUOUS
 62
3
 10
-245.227330105665260
 20
-115.321706679060290
 11
-244.716913258147540
 21
-115.321706679060290
  0
LINE
  8
0
  6
CONTINUOUS
 62
3
 10
-245.216915115345270
 20
-110.321706679060290
 11
-244.716913258147540
 21
-110.321706679060290
  0
LINE
  8
0
  6
CONTINUOUS
 62
3
 10
-244.716913258147540
 20
-115.321706679060290
 11
-244.716913258147540
 21
-110.321706679060290
  0
ARC
  8
0
  6
CONTINUOUS
 62
3
 10
-251.850248485205160
 20
-143.821706679060300
 40
5.000000000000000
 50
270.000000000000000
 51
353.967950853629650
  0
LINE
  8
0
  6
CONTINUOUS
 62
3
 10
-280.410609749226980
 20
-148.821706679060300
 11
-251.850248485205160
 21
-148.821706679060300
  0
LINE
  8
0
  6
CONTINUOUS
 62
3
 10
-280.410609749226980
 20
-76.821706679060298
 11
-251.850248485205160
 21
-76.821706679060298
  0
ARC
  8
0
  6
CONTINUOUS
 62
3
 10
-251.850248485205160
 20
-81.821706679060298
 40
5.000000000000131
 50
6.032049146369048
 51
90.000000000000000
  0
LINE
  8
0
  6
CONTINUOUS
 62
3
 10
-279.216913258147540
 20
-142.814205741327100
 11
-279.216913258147540
 21
-148.821706679060300
  0
LINE
  8
0
  6
CONTINUOUS
 62
3
 10
-279.216913258147540
 20
-82.829207616793497
 11
-279.216913258147540
 21
-76.821706679060298
  0
ARC
  8
0
  6
CONTINUOUS
 62
4
 10
-107.116913258147400
 20
-112.821706679060290
 40
289.397000000000160
 50
180.000000000000000
 51
186.051985358668500
  0
ARC
  8
0
  6
CONTINUOUS
 62
4
 10
-379.589814183357930
 20
-141.709736404198570
 40
15.397000000000052
 50
186.051985358668840
 51
225.000000000000000
  0
LINE
  8
0
  6
CONTINUOUS
 62
4
 10
-385.901071900648730
 20
-157.173124906766590
 11
-390.477137293287340
 21
-152.597059514127980
  0
ARC
  8
0
  6
CONTINUOUS
 62
4
 10
-381.658431213529640
 20
-152.930484219647040
 40
6.000000000000049
 50
225.000000000003070
 51
262.102011327574360
  0
ARC
  8
0
  6
CONTINUOUS
 62
4
 10
-342.716913258147310
 20
127.778293320939610
 40
289.396999999999820
 50
262.102011327572200
 51
270.000000000000000
  0
ARC
  8
0
  6
CONTINUOUS
 62
4
 10
-578.316913258147450
 20
-112.821706679060290
 40
289.397000000000160
 50
353.948014641331500
 51
0.000000000000000
  0
ARC
  8
0
  6
CONTINUOUS
 62
4
 10
-305.844012332936930
 20
-141.709736404198570
 40
15.396999999999876
 50
315.000000000000000
 51
353.948014641331160
  0
LINE
  8
0
  6
CONTINUOUS
 62
4
 10
-299.532754615646130
 20
-157.173124906766590
 11
-294.956689223007520
 21
-152.597059514127980
  0
ARC
  8
0
  6
CONTINUOUS
 62
4
 10
-303.775395302765220
 20
-152.930484219647040
 40
5.999999999999923
 50
277.897988672425640
 51
314.999999999996870
  0
ARC
  8
0
  6
CONTINUOUS
 62
4
 10
-342.716913258147540
 20
127.778293320939610
 40
289.396999999999930
 50
270.000000000000000
 51
277.897988672427800
  0
ARC
  8
0
  6
CONTINUOUS
 62
4
 10
-578.316913258147450
 20
-112.821706679060290
 40
289.397000000000160
 50
0.000000000000000
 51
6.051985358668508
  0
ARC
  8
0
  6
CONTINUOUS
 62
4
 10
-305.844012332936930
 20
-83.933676953922031
 40
15.397000000000052
 50
6.051985358668849
 51
45.000000000000000
  0
LINE
  8
0
  6
CONTINUOUS
 62
4
 10
-299.532754615646130
 20
-68.470288451354008
 11
-294.956689223007520
 21
-73.046353843992620
  0
ARC
  8
0
  6
CONTINUOUS
 62
4
 10
-303.775395302765220
 20
-72.712929138473555
 40
6.000000000000049
 50
45.000000000003077
 51
82.102011327574374
  0
ARC
  8
0
  6
CONTINUOUS
 62
4
 10
-342.716913258147540
 20
-353.421706679060210
 40
289.396999999999820
 50
82.102011327572214
 51
90.000000000000000
  0
ARC
  8
0
  6
CONTINUOUS
 62
4
 10
-107.116913258147630
 20
-112.821706679060290
 40
289.396999999999930
 50
173.948014641331470
 51
180.000000000000000
  0
LINE
  8
0
  6
CONTINUOUS
 62
4
 10
-385.901071900648730
 20
-68.470288451354008
 11
-390.477137293287340
 21
-73.046353843992620
  0
ARC
  8
0
  6
CONTINUOUS
 62
4
 10
-379.589814183357930
 20
-83.933676953922031
 40
15.396999999999876
 50
135.000000000000000
 51
173.948014641331160
  0
ARC
  8
0
  6
CONTINUOUS
 62
3
 10
-305.844012332936930
 20
-141.709736404198570
 40
26.599999999999955
 50
315.000000000001020
 51
353.948014641331380
  0
LINE
  8
0
  6
CONTINUOUS
 62
3
 10
-294.101421072033870
 20
-167.585225902420010
 11
-287.034971953374450
 21
-160.518776783760360
  0
ARC
  8
0
  6
CONTINUOUS
 62
3
 10
-578.316913258147450
 20
-112.821706679060290
 40
300.600000000000080
 50
353.948014641331500
 51
6.051985358668499
  0
ARC
  8
0
  6
CONTINUOUS
 62
3
 10
-379.589814183357930
 20
-141.709736404198570
 40
26.599999999999969
 50
186.051985358668590
 51
224.999999999998980
  0
ARC
  8
0
  6
CONTINUOUS
 62
3
 10
-107.116913258147630
 20
-112.821706679060290
 40
300.599999999999850
 50
173.948014641331500
 51
186.051985358668500
  0
LINE
  8
0
  6
CONTINUOUS
 62
3
 10
-391.332405444261210
 20
-167.585225902420010
 11
-398.398854562920410
 21
-160.518776783760360
  0
ARC
  8
0
  6
CONTINUOUS
 62
3
 10
-379.589814183357930
 20
-83.933676953922031
 40
26.600000000000119
 50
135.000000000000000
 51
173.948014641331410
  0
LINE
  8
0
  6
CONTINUOUS
 62
3
 10
-391.332405444261210
 20
-58.058187455700818
 11
-398.398854562920180
 21
-65.124636574359783
  0
ARC
  8
0
  6
CONTINUOUS
 62
3
 10
-305.844012332937150
 20
-83.933676953922031
 40
26.600000000000193
 50
6.051985358668552
 51
45.000000000000000
  0
LINE
  8
0
  6
CONTINUOUS
 62
3
 10
-294.101421072033870
 20
-58.058187455700818
 11
-287.034971953374910
 21
-65.124636574359783
  0
ARC
  8
0
  6
CONTINUOUS
 62
3
 10
-386.665500688430030
 20
-162.918321146588820
 40
6.599999999999957
 50
225.000000000000000
 51
261.402917762751090
  0
ARC
  8
0
  6
CONTINUOUS
 62
3
 10
-342.716913258147540
 20
127.778293320939830
 40
300.600000000000020
 50
261.402917762750920
 51
270.000000000000000
  0
ARC
  8
0
  6
CONTINUOUS
 62
3
 10
-298.768325827865060
 20
-162.918321146588820
 40
6.599999999999747
 50
278.597082237248910
 51
315.000000000000000
  0
ARC
  8
0
  6
CONTINUOUS
 62
3
 10
-342.716913258147540
 20
-353.421706679060210
 40
300.599999999999800
 50
81.402917762750931
 51
90.000000000000000
  0
ARC
  8
0
  6
CONTINUOUS
 62
3
 10
-298.768325827865060
 20
-62.725092211532001
 40
6.600000000000118
 50
45.000000000001400
 51
81.402917762751386
  0
ARC
  8
0
  6
CONTINUOUS
 62
3
 10
-342.716913258147540
 20
127.778293320939830
 40
300.600000000000140
 50
270.000000000000000
 51
278.597082237249080
  0
ARC
  8
0
  6
CONTINUOUS
 62
3
 10
-342.716913258147540
 20
-353.421706679060210
 40
300.599999999999910
 50
90.000000000000000
 51
98.597082237249069
  0
ARC
  8
0
  6
CONTINUOUS
 62
3
 10
-338.716913258147540
 20
-71.514927574414742
 40
1.500000000000203
 50
84.468928475159132
 51
180.000000000000000
  0
ARC
  8
0
  6
CONTINUOUS
 62
3
 10
-346.716913258147540
 20
-71.514927574414514
 40
1.500000000000000
 50
0.000000000000000
 51
95.531071524841693
  0
ARC
  8
0
  6
CONTINUOUS
 62
3
 10
-342.716913258147310
 20
-112.821706679059840
 40
17.999999999999922
 50
41.837004155893325
 51
78.162995844107314
  0
ARC
  8
0
  6
CONTINUOUS
 62
3
 10
-342.716913258147770
 20
-112.821706679059840
 40
27.499999999999815
 50
97.928141766201691
 51
142.071858233797880
  0
LINE
  8
0
  6
CONTINUOUS
 62
3
 10
-340.216913258147540
 20
-71.514927574414742
 11
-340.216913258147540
 21
-74.530062681968730
  0
LINE
  8
0
  6
CONTINUOUS
 62
3
 10
-310.805376803996750
 20
-91.510821171053522
 11
-308.194193205012650
 21
-90.003253617276414
  0
LINE
  8
0
  6
CONTINUOUS
 62
3
 10
-340.216913258147540
 20
-81.072690946285320
 11
-340.216913258147540
 21
-84.098893446369857
  0
ARC
  8
0
  6
CONTINUOUS
 62
3
 10
-338.716913258147540
 20
-81.072690946285320
 40
1.499999999999998
 50
82.819244218541712
 51
180.000000000000000
  0
ARC
  8
0
  6
CONTINUOUS
 62
3
 10
-338.716913258147540
 20
-74.530062681968730
 40
1.500000000000000
 50
180.000000000000000
 51
264.036429881682580
  0
ARC
  8
0
  6
CONTINUOUS
 62
3
 10
-308.944193205012650
 20
-88.704215511599614
 40
1.500000000000123
 50
299.999999999997270
 51
35.531071524839192
  0
ARC
  8
0
  6
CONTINUOUS
 62
3
 10
-342.716913258148000
 20
-112.821706679060290
 40
42.999999999999908
 50
35.531071524839248
 51
84.468928475160212
  0
ARC
  8
0
  6
CONTINUOUS
 62
3
 10
-304.944193205012200
 20
-95.632418741875654
 40
1.500000000000034
 50
24.468928475159590
 51
119.999999999997270
  0
LINE
  8
0
  6
CONTINUOUS
 62
3
 10
-308.305376803996520
 20
-95.840948189975961
 11
-305.694193205012200
 21
-94.333380636198854
  0
ARC
  8
0
  6
CONTINUOUS
 62
3
 10
-307.555376803996520
 20
-97.139986295652761
 40
1.500000000000123
 50
119.999999999997270
 51
204.036429881680680
  0
ARC
  8
0
  6
CONTINUOUS
 62
3
 10
-342.716913258147770
 20
-112.821706679060750
 40
36.999999999999972
 50
335.963570118321740
 51
24.036429881678870
  0
ARC
  8
0
  6
CONTINUOUS
 62
3
 10
-342.716913258147770
 20
-112.821706679060750
 40
42.999999999999936
 50
335.531071524839770
 51
24.468928475160769
  0
ARC
  8
0
  6
CONTINUOUS
 62
3
 10
-304.944193205012200
 20
-130.010994616245170
 40
1.500000000000320
 50
240.000000000007050
 51
335.531071524832500
  0
LINE
  8
0
  6
CONTINUOUS
 62
3
 10
-305.694193205012200
 20
-131.310032721922200
 11
-308.305376803996300
 21
-129.802465168144860
  0
ARC
  8
0
  6
CONTINUOUS
 62
3
 10
-307.555376803996300
 20
-128.503427062468290
 40
1.500000000000063
 50
155.963570118322880
 51
239.999999999998410
  0
ARC
  8
0
  6
CONTINUOUS
 62
3
 10
-308.944193205012200
 20
-136.939197846520980
 40
1.499999999999844
 50
324.468928475167900
 51
59.999999999998380
  0
LINE
  8
0
  6
CONTINUOUS
 62
3
 10
-308.194193205012200
 20
-135.640159740844410
 11
-310.805376803996300
 21
-134.132592187067080
  0
LINE
  8
0
  6
CONTINUOUS
 62
3
 10
-345.216913258147540
 20
-71.514927574414514
 11
-345.216913258147540
 21
-74.530062681968730
  0
ARC
  8
0
  6
CONTINUOUS
 62
3
 10
-346.716913258147540
 20
-74.530062681968730
 40
1.499999999999933
 50
275.963570118318330
 51
0.000000000000000
  0
LINE
  8
0
  6
CONTINUOUS
 62
3
 10
-345.216913258147540
 20
-81.072690946285320
 11
-345.216913258147540
 21
-84.098893446369857
  0
ARC
  8
0
  6
CONTINUOUS
 62
3
 10
-346.716913258147540
 20
-81.072690946285320
 40
1.500000000000000
 50
0.000000000000000
 51
97.180755781458288
  0
ARC
  8
0
  6
CONTINUOUS
 62
3
 10
-342.716913258148000
 20
-112.821706679059840
 40
23.999999999999901
 50
100.240348321185670
 51
139.759651678813550
  0
ARC
  8
0
  6
CONTINUOUS
 62
3
 10
-359.892092527192520
 20
-98.286810151179907
 40
1.499999999999802
 50
139.759651678811420
 51
239.999999999998410
  0
LINE
  8
0
  6
CONTINUOUS
 62
3
 10
-357.995297934213340
 20
-101.113975827602640
 11
-360.642092527192520
 21
-99.585848256856480
  0
ARC
  8
0
  6
CONTINUOUS
 62
3
 10
-357.245297934213340
 20
-99.814937721926071
 40
1.499999999999926
 50
239.999999999998410
 51
318.162995844106720
  0
ARC
  8
0
  6
CONTINUOUS
 62
3
 10
-342.716913258148000
 20
-112.821706679059840
 40
17.999999999999829
 50
101.837004155891980
 51
138.162995844106210
  0
ARC
  8
0
  6
CONTINUOUS
 62
3
 10
-346.716913258147540
 20
-93.736371995067657
 40
1.499999999999954
 50
281.837004155896690
 51
0.000000000000000
  0
LINE
  8
0
  6
CONTINUOUS
 62
3
 10
-345.216913258147540
 20
-90.680116853575328
 11
-345.216913258147540
 21
-93.736371995067657
  0
ARC
  8
0
  6
CONTINUOUS
 62
3
 10
-346.716913258147540
 20
-90.680116853575328
 40
1.500000000000000
 50
0.000000000000000
 51
100.240348321194510
  0
ARC
  8
0
  6
CONTINUOUS
 62
3
 10
-342.716913258148000
 20
-112.821706679059840
 40
14.499999999999980
 50
107.920213139390830
 51
132.079786860607560
  0
ARC
  8
0
  6
CONTINUOUS
 62
3
 10
-351.429055900962110
 20
-103.172946625495570
 40
1.499999999999792
 50
132.079786860611680
 51
239.999999999998410
  0
LINE
  8
0
  6
CONTINUOUS
 62
3
 10
-349.404167191341460
 20
-106.074067474643010
 11
-352.179055900962110
 21
-104.471984731172140
  0
ARC
  8
0
  6
CONTINUOUS
 62
3
 10
-348.654167191341460
 20
-104.775029368966440
 40
1.499999999999926
 50
239.999999999998410
 51
306.421821521797600
  0
ARC
  8
0
  6
CONTINUOUS
 62
3
 10
-342.716913258148000
 20
-112.821706679059840
 40
8.499999999999879
 50
113.578178478199500
 51
126.421821521797340
  0
ARC
  8
0
  6
CONTINUOUS
 62
3
 10
-346.716913258147540
 20
-103.656555289147940
 40
1.500000000000139
 50
293.578178478195700
 51
0.000000000000000
  0
LINE
  8
0
  6
CONTINUOUS
 62
3
 10
-345.216913258147540
 20
-100.452389802206880
 11
-345.216913258147540
 21
-103.656555289147940
  0
ARC
  8
0
  6
CONTINUOUS
 62
3
 10
-346.716913258147540
 20
-100.452389802206880
 40
1.500000000000000
 50
0.000000000000000
 51
107.920213139394770
  0
ARC
  8
0
  6
CONTINUOUS
 62
3
 10
-342.716913258147540
 20
-112.821706679060290
 40
23.999999999999716
 50
280.240348321186270
 51
319.759651678814690
  0
ARC
  8
0
  6
CONTINUOUS
 62
3
 10
-338.716913258147540
 20
-134.963296504544810
 40
1.500000000000000
 50
180.000000000000000
 51
280.240348321187530
  0
LINE
  8
0
  6
CONTINUOUS
 62
3
 10
-340.216913258147540
 20
-131.907041363052490
 11
-340.216913258147540
 21
-134.963296504544810
  0
ARC
  8
0
  6
CONTINUOUS
 62
3
 10
-338.716913258147540
 20
-131.907041363052490
 40
1.499999999999731
 50
101.837004155898450
 51
180.000000000000000
  0
ARC
  8
0
  6
CONTINUOUS
 62
3
 10
-342.716913258147540
 20
-112.821706679060290
 40
18.000000000000146
 50
281.837004155893230
 51
318.162995844107680
  0
ARC
  8
0
  6
CONTINUOUS
 62
3
 10
-328.188528582081740
 20
-125.828475636194070
 40
1.499999999999926
 50
59.999999999998380
 51
138.162995844100240
  0
LINE
  8
0
  6
CONTINUOUS
 62
3
 10
-324.791733989102800
 20
-126.057565101263660
 11
-327.438528582081740
 21
-124.529437530517490
  0
ARC
  8
0
  6
CONTINUOUS
 62
3
 10
-325.541733989102800
 20
-127.356603206940230
 40
1.499999999999828
 50
319.759651678823670
 51
59.999999999998380
  0
ARC
  8
0
  6
CONTINUOUS
 62
3
 10
-342.716913258147540
 20
-112.821706679060290
 40
14.500000000000121
 50
287.920213139392560
 51
312.079786860608860
  0
ARC
  8
0
  6
CONTINUOUS
 62
3
 10
-338.716913258147540
 20
-125.191023555913030
 40
1.500000000000000
 50
180.000000000000000
 51
287.920213139392100
  0
LINE
  8
0
  6
CONTINUOUS
 62
3
 10
-340.216913258147540
 20
-121.986858068971740
 11
-340.216913258147540
 21
-125.191023555913030
  0
ARC
  8
0
  6
CONTINUOUS
 62
3
 10
-338.716913258147540
 20
-121.986858068972190
 40
1.500000000000139
 50
113.578178478195690
 51
179.999999999982630
  0
ARC
  8
0
  6
CONTINUOUS
 62
3
 10
-342.716913258147540
 20
-112.821706679060290
 40
8.500000000000060
 50
293.578178478202350
 51
306.421821521799190
  0
ARC
  8
0
  6
CONTINUOUS
 62
3
 10
-336.779659324953630
 20
-120.868383989153690
 40
1.499999999999926
 50
59.999999999998380
 51
126.421821521801260
  0
LINE
  8
0
  6
CONTINUOUS
 62
3
 10
-333.254770615333200
 20
-121.171428626947540
 11
-336.029659324953630
 21
-119.569345883477120
  0
ARC
  8
0
  6
CONTINUOUS
 62
3
 10
-334.004770615333200
 20
-122.470466732624570
 40
1.499999999999944
 50
312.079786860618130
 51
60.000000000007070
  0
ARC
  8
0
  6
CONTINUOUS
 62
3
 10
-342.716913258147540
 20
-112.821706679060290
 40
23.999999999999844
 50
220.240348321185340
 51
259.759651678813730
  0
ARC
  8
0
  6
CONTINUOUS
 62
3
 10
-346.716913258147540
 20
-134.963296504544810
 40
1.499999999999728
 50
259.759651678812470
 51
0.000000000000000
  0
LINE
  8
0
  6
CONTINUOUS
 62
3
 10
-345.216913258147540
 20
-131.907041363052490
 11
-345.216913258147540
 21
-134.963296504544810
  0
ARC
  8
0
  6
CONTINUOUS
 62
3
 10
-346.716913258147540
 20
-131.907041363052490
 40
1.500000000000000
 50
0.000000000000000
 51
78.162995844101530
  0
ARC
  8
0
  6
CONTINUOUS
 62
3
 10
-342.716913258147540
 20
-112.821706679060290
 40
17.999999999999940
 50
221.837004155892320
 51
258.162995844106770
  0
ARC
  8
0
  6
CONTINUOUS
 62
3
 10
-357.245297934213340
 20
-125.828475636194070
 40
1.500000000000118
 50
41.837004155899741
 51
120.000000000001620
  0
LINE
  8
0
  6
CONTINUOUS
 62
3
 10
-360.642092527192290
 20
-126.057565101263660
 11
-357.995297934213340
 21
-124.529437530517490
  0
ARC
  8
0
  6
CONTINUOUS
 62
3
 10
-359.892092527192290
 20
-127.356603206940230
 40
1.499999999999926
 50
120.000000000001620
 51
220.240348321176330
  0
ARC
  8
0
  6
CONTINUOUS
 62
3
 10
-342.716913258147540
 20
-112.821706679060290
 40
14.500000000000011
 50
227.920213139391080
 51
252.079786860607410
  0
ARC
  8
0
  6
CONTINUOUS
 62
3
 10
-346.716913258147540
 20
-125.191023555913030
 40
1.500000000000355
 50
252.079786860607900
 51
0.000000000000000
  0
LINE
  8
0
  6
CONTINUOUS
 62
3
 10
-345.216913258147540
 20
-121.986858068971740
 11
-345.216913258147540
 21
-125.191023555913030
  0
ARC
  8
0
  6
CONTINUOUS
 62
3
 10
-346.716913258147540
 20
-121.986858068972190
 40
1.500000000000000
 50
0.000000000017370
 51
66.421821521804304
  0
ARC
  8
0
  6
CONTINUOUS
 62
3
 10
-342.716913258147540
 20
-112.821706679060290
 40
8.499999999999870
 50
233.578178478199590
 51
246.421821521797680
  0
ARC
  8
0
  6
CONTINUOUS
 62
3
 10
-348.654167191341460
 20
-120.868383989153690
 40
1.500000000000059
 50
53.578178478205707
 51
120.000000000001620
  0
LINE
  8
0
  6
CONTINUOUS
 62
3
 10
-352.179055900961880
 20
-121.171428626947540
 11
-349.404167191341460
 21
-119.569345883477120
  0
ARC
  8
0
  6
CONTINUOUS
 62
3
 10
-351.429055900961880
 20
-122.470466732624570
 40
1.500000000000320
 50
119.999999999992930
 51
227.920213139381870
  0
ARC
  8
0
  6
CONTINUOUS
 62
3
 10
-342.716913258148000
 20
-112.821706679059840
 40
23.999999999999925
 50
160.240348321185910
 51
199.759651678814090
  0
ARC
  8
0
  6
CONTINUOUS
 62
3
 10
-363.892092527192520
 20
-105.215013381455260
 40
1.499999999999926
 50
59.999999999998380
 51
160.240348321185250
  0
LINE
  8
0
  6
CONTINUOUS
 62
3
 10
-360.495297934213340
 20
-105.444102846524850
 11
-363.142092527192520
 21
-103.915975275778690
  0
ARC
  8
0
  6
CONTINUOUS
 62
3
 10
-361.245297934213340
 20
-106.743140952201420
 40
1.500000000000038
 50
341.837004155895390
 51
59.999999999998380
  0
ARC
  8
0
  6
CONTINUOUS
 62
3
 10
-342.716913258148000
 20
-112.821706679059840
 40
17.999999999999726
 50
161.837004155893140
 51
198.162995844106860
  0
ARC
  8
0
  6
CONTINUOUS
 62
3
 10
-361.245297934213340
 20
-118.900272405918250
 40
1.500000000000320
 50
299.999999999992950
 51
18.162995844104589
  0
LINE
  8
0
  6
CONTINUOUS
 62
3
 10
-363.142092527192290
 20
-121.727438082340990
 11
-360.495297934213340
 21
-120.199310511595280
  0
ARC
  8
0
  6
CONTINUOUS
 62
3
 10
-363.892092527192290
 20
-120.428399976664420
 40
1.500000000000246
 50
199.759651678811820
 51
300.000000000001590
  0
ARC
  8
0
  6
CONTINUOUS
 62
3
 10
-342.716913258148000
 20
-112.821706679059840
 40
14.499999999999851
 50
167.920213139392840
 51
192.079786860608920
  0
ARC
  8
0
  6
CONTINUOUS
 62
3
 10
-355.429055900962110
 20
-110.101149855770920
 40
1.499999999999926
 50
59.999999999998380
 51
167.920213139405550
  0
LINE
  8
0
  6
CONTINUOUS
 62
3
 10
-351.904167191341460
 20
-110.404194493565220
 11
-354.679055900962110
 21
-108.802111750094350
  0
ARC
  8
0
  6
CONTINUOUS
 62
3
 10
-352.654167191341460
 20
-111.703232599241800
 40
1.499999999999873
 50
353.578178478198030
 51
59.999999999998380
  0
ARC
  8
0
  6
CONTINUOUS
 62
3
 10
-342.716913258148000
 20
-112.821706679059840
 40
8.499999999999813
 50
173.578178478202550
 51
186.421821521800500
  0
ARC
  8
0
  6
CONTINUOUS
 62
3
 10
-352.654167191341460
 20
-113.940180758878340
 40
1.499999999999926
 50
300.000000000001590
 51
6.421821521801967
  0
LINE
  8
0
  6
CONTINUOUS
 62
3
 10
-354.679055900961880
 20
-116.841301608025330
 11
-351.904167191341460
 21
-115.239218864554910
  0
ARC
  8
0
  6
CONTINUOUS
 62
3
 10
-355.429055900961880
 20
-115.542263502348760
 40
1.500000000000287
 50
192.079786860609600
 51
300.000000000001590
  0
ARC
  8
0
  6
CONTINUOUS
 62
3
 10
-342.716913258147310
 20
-112.821706679059840
 40
24.000000000000139
 50
340.240348321186050
 51
19.759651678813924
  0
ARC
  8
0
  6
CONTINUOUS
 62
3
 10
-321.541733989102800
 20
-105.215013381455260
 40
1.500000000000246
 50
19.759651678811824
 51
120.000000000001620
  0
LINE
  8
0
  6
CONTINUOUS
 62
3
 10
-324.938528582081740
 20
-105.444102846524850
 11
-322.291733989102800
 21
-103.915975275778690
  0
ARC
  8
0
  6
CONTINUOUS
 62
3
 10
-324.188528582081740
 20
-106.743140952201420
 40
1.499999999999926
 50
120.000000000001620
 51
198.162995844104590
  0
ARC
  8
0
  6
CONTINUOUS
 62
3
 10
-342.716913258147310
 20
-112.821706679059840
 40
17.999999999999943
 50
341.837004155893340
 51
18.162995844106646
  0
ARC
  8
0
  6
CONTINUOUS
 62
3
 10
-324.188528582081740
 20
-118.900272405918250
 40
1.500000000000038
 50
161.837004155895410
 51
240.000000000007050
  0
LINE
  8
0
  6
CONTINUOUS
 62
3
 10
-322.291733989102800
 20
-121.727438082340990
 11
-324.938528582081740
 21
-120.199310511595280
  0
ARC
  8
0
  6
CONTINUOUS
 62
3
 10
-321.541733989102800
 20
-120.428399976664420
 40
1.499999999999926
 50
239.999999999998410
 51
340.240348321188210
  0
ARC
  8
0
  6
CONTINUOUS
 62
3
 10
-342.716913258147310
 20
-112.821706679059840
 40
14.500000000000169
 50
347.920213139391310
 51
12.079786860606980
  0
ARC
  8
0
  6
CONTINUOUS
 62
3
 10
-330.004770615333200
 20
-110.101149855770920
 40
1.500000000000192
 50
12.079786860592611
 51
120.000000000001620
  0
LINE
  8
0
  6
CONTINUOUS
 62
3
 10
-333.529659324953630
 20
-110.404194493565220
 11
-330.754770615333200
 21
-108.802111750094350
  0
ARC
  8
0
  6
CONTINUOUS
 62
3
 10
-332.779659324953630
 20
-111.703232599241800
 40
1.499999999999926
 50
120.000000000001620
 51
186.421821521801010
  0
ARC
  8
0
  6
CONTINUOUS
 62
3
 10
-342.716913258147310
 20
-112.821706679059840
 40
8.499999999999865
 50
353.578178478199500
 51
6.421821521797448
  0
ARC
  8
0
  6
CONTINUOUS
 62
3
 10
-332.779659324953630
 20
-113.940180758878340
 40
1.500000000000099
 50
173.578178478198990
 51
239.999999999998410
  0
LINE
  8
0
  6
CONTINUOUS
 62
3
 10
-330.754770615333200
 20
-116.841301608025330
 11
-333.529659324953630
 21
-115.239218864554910
  0
ARC
  8
0
  6
CONTINUOUS
 62
3
 10
-330.004770615333200
 20
-115.542263502348760
 40
1.499999999999926
 50
239.999999999998410
 51
347.920213139390400
  0
ARC
  8
0
  6
CONTINUOUS
 62
3
 10
-342.716913258147310
 20
-112.821706679059840
 40
8.500000000000101
 50
53.578178478202659
 51
66.421821521799089
  0
ARC
  8
0
  6
CONTINUOUS
 62
3
 10
-342.716913258147310
 20
-112.821706679059840
 40
23.999999999999819
 50
40.240348321186090
 51
79.759651678814322
  0
LINE
  8
0
  6
CONTINUOUS
 62
3
 10
-336.029659324953630
 20
-106.074067474643010
 11
-333.254770615333200
 21
-104.471984731172140
  0
LINE
  8
0
  6
CONTINUOUS
 62
3
 10
-340.216913258147540
 20
-90.680116853575328
 11
-340.216913258147540
 21
-93.736371995067657
  0
LINE
  8
0
  6
CONTINUOUS
 62
3
 10
-340.216913258147540
 20
-100.452389802206880
 11
-340.216913258147540
 21
-103.656555289147940
  0
ARC
  8
0
  6
CONTINUOUS
 62
3
 10
-342.716913258147310
 20
-112.821706679059840
 40
14.499999999999860
 50
47.920213139391755
 51
72.079786860608309
  0
LINE
  8
0
  6
CONTINUOUS
 62
3
 10
-327.438528582081740
 20
-101.113975827602640
 11
-324.791733989102800
 21
-99.585848256856480
  0
ARC
  8
0
  6
CONTINUOUS
 62
3
 10
-334.004770615333200
 20
-103.172946625495570
 40
1.499999999999926
 50
300.000000000001590
 51
47.920213139381872
  0
ARC
  8
0
  6
CONTINUOUS
 62
3
 10
-338.716913258147540
 20
-90.680116853575328
 40
1.499999999999952
 50
79.759651678814024
 51
180.000000000000000
  0
ARC
  8
0
  6
CONTINUOUS
 62
3
 10
-328.188528582081740
 20
-99.814937721926071
 40
1.499999999999967
 50
221.837004155893280
 51
300.000000000001590
  0
ARC
  8
0
  6
CONTINUOUS
 62
3
 10
-338.716913258147540
 20
-93.736371995067657
 40
1.500000000000000
 50
180.000000000000000
 51
258.162995844103310
  0
ARC
  8
0
  6
CONTINUOUS
 62
3
 10
-338.716913258147540
 20
-100.452389802206880
 40
1.500000000000138
 50
72.079786860605225
 51
180.000000000000000
  0
ARC
  8
0
  6
CONTINUOUS
 62
3
 10
-325.541733989102800
 20
-98.286810151179907
 40
1.499999999999926
 50
300.000000000001590
 51
40.240348321182964
  0
ARC
  8
0
  6
CONTINUOUS
 62
3
 10
-338.716913258147540
 20
-103.656555289147940
 40
1.500000000000000
 50
180.000000000000000
 51
246.421821521804280
  0
ARC
  8
0
  6
CONTINUOUS
 62
3
 10
-336.779659324953630
 20
-104.775029368966440
 40
1.499999999999693
 50
233.578178478195410
 51
300.000000000001590
  0
CIRCLE
  8
0
  6
CONTINUOUS
 62
3
 10
-342.716913258147540
 20
-112.821706679059840
 40
5.000000000000000
  0
ARC
  8
0
  6
CONTINUOUS
 62
3
 10
-319.842227330481820
 20
-94.996198447577171
 40
1.499999999999843
 50
217.928141766204990
 51
300.000000000001590
  0
LINE
  8
0
  6
CONTINUOUS
 62
3
 10
-319.092227330481820
 20
-96.295236553253744
 11
-316.471459088412980
 21
-94.782135303211589
  0
ARC
  8
0
  6
CONTINUOUS
 62
3
 10
-338.716913258147540
 20
-84.098893446369857
 40
1.500000000000000
 50
180.000000000000000
 51
262.071858233795980
  0
ARC
  8
0
  6
CONTINUOUS
 62
3
 10
-342.716913258147310
 20
-112.821706679059840
 40
27.500000000000060
 50
37.928141766201819
 51
82.071858233798309
  0
ARC
  8
0
  6
CONTINUOUS
 62
3
 10
-317.221459088412980
 20
-93.483097197535017
 40
1.499999999999926
 50
300.000000000001590
 51
37.180755781457485
  0
ARC
  8
0
  6
CONTINUOUS
 62
3
 10
-311.555376803996750
 20
-90.211783065376721
 40
1.500000000000102
 50
215.963570118316280
 51
299.999999999997270
  0
ARC
  8
0
  6
CONTINUOUS
 62
3
 10
-342.716913258148000
 20
-112.821706679060290
 40
36.999999999999943
 50
35.963570118321194
 51
84.036429881678174
  0
ARC
  8
0
  6
CONTINUOUS
 62
3
 10
-342.716913258148000
 20
-112.821706679060290
 40
33.500000000000071
 50
37.180755781458259
 51
82.819244218540931
  0
LINE
  8
0
  6
CONTINUOUS
 62
3
 10
-316.592227330481590
 20
-100.625363572176410
 11
-313.971459088412760
 21
-99.112262322134256
  0
ARC
  8
0
  6
CONTINUOUS
 62
3
 10
-313.221459088412760
 20
-100.411300427811050
 40
1.499999999999948
 50
22.819244218550043
 51
119.999999999997270
  0
ARC
  8
0
  6
CONTINUOUS
 62
3
 10
-315.842227330481590
 20
-101.924401677852980
 40
1.499999999999926
 50
120.000000000001620
 51
202.071858233797370
  0
ARC
  8
0
  6
CONTINUOUS
 62
3
 10
-342.716913258147090
 20
-112.821706679060290
 40
27.499999999999886
 50
337.928141766202200
 51
22.071858233797812
  0
ARC
  8
0
  6
CONTINUOUS
 62
3
 10
-342.716913258147770
 20
-112.821706679060750
 40
33.500000000000128
 50
337.180755781459030
 51
22.819244218541968
  0
ARC
  8
0
  6
CONTINUOUS
 62
3
 10
-315.842227330481820
 20
-123.719011680267610
 40
1.499999999999899
 50
157.928141766199360
 51
240.000000000007050
  0
LINE
  8
0
  6
CONTINUOUS
 62
3
 10
-313.971459088412530
 20
-126.531151035986560
 11
-316.592227330481820
 21
-125.018049785944640
  0
ARC
  8
0
  6
CONTINUOUS
 62
3
 10
-313.221459088412530
 20
-125.232112930309990
 40
1.499999999999926
 50
239.999999999998410
 51
337.180755781453340
  0
ARC
  8
0
  6
CONTINUOUS
 62
3
 10
-338.716913258147310
 20
-154.128485783705400
 40
1.500000000000000
 50
180.000000000000000
 51
275.531071524831360
  0
LINE
  8
0
  6
CONTINUOUS
 62
3
 10
-340.216913258147310
 20
-151.113350676151190
 11
-340.216913258147310
 21
-154.128485783705400
  0
LINE
  8
0
  6
CONTINUOUS
 62
3
 10
-340.216913258147310
 20
-141.544519911750740
 11
-340.216913258147310
 21
-144.570722411835050
  0
ARC
  8
0
  6
CONTINUOUS
 62
3
 10
-338.716913258147310
 20
-151.113350676151640
 40
1.500000000000182
 50
95.963570118326047
 51
179.999999999982630
  0
ARC
  8
0
  6
CONTINUOUS
 62
3
 10
-338.716913258147310
 20
-144.570722411835050
 40
1.500000000000000
 50
180.000000000000000
 51
277.180755781458290
  0
ARC
  8
0
  6
CONTINUOUS
 62
3
 10
-338.716913258147310
 20
-141.544519911750740
 40
1.499999999999967
 50
97.928141766195438
 51
180.000000000000000
  0
ARC
  8
0
  6
CONTINUOUS
 62
3
 10
-342.716913258147310
 20
-112.821706679060750
 40
27.499999999999879
 50
277.928141766202600
 51
322.071858233798930
  0
ARC
  8
0
  6
CONTINUOUS
 62
3
 10
-342.716913258147310
 20
-112.821706679059840
 40
37.000000000000028
 50
275.963570118320770
 51
324.036429881678030
  0
ARC
  8
0
  6
CONTINUOUS
 62
3
 10
-342.716913258147310
 20
-112.821706679059840
 40
43.000000000000199
 50
275.531071524838860
 51
324.468928475160340
  0
ARC
  8
0
  6
CONTINUOUS
 62
3
 10
-342.716913258147310
 20
-112.821706679059840
 40
33.500000000000114
 50
277.180755781458230
 51
322.819244218540860
  0
ARC
  8
0
  6
CONTINUOUS
 62
3
 10
-319.842227330481820
 20
-130.647214910543430
 40
1.500000000000320
 50
60.000000000007070
 51
142.071858233781280
  0
ARC
  8
0
  6
CONTINUOUS
 62
3
 10
-311.555376803996300
 20
-135.431630292743650
 40
1.499999999999926
 50
59.999999999998380
 51
144.036429881690740
  0
LINE
  8
0
  6
CONTINUOUS
 62
3
 10
-316.471459088412530
 20
-130.861278054908780
 11
-319.092227330481820
 21
-129.348176804866400
  0
ARC
  8
0
  6
CONTINUOUS
 62
3
 10
-317.221459088412530
 20
-132.160316160585350
 40
1.500000000000240
 50
322.819244218535570
 51
59.999999999998380
  0
ARC
  8
0
  6
CONTINUOUS
 62
3
 10
-346.716913258147770
 20
-154.128485783705400
 40
1.500000000000430
 50
264.468928475160000
 51
0.000000000000000
  0
LINE
  8
0
  6
CONTINUOUS
 62
3
 10
-345.216913258147770
 20
-151.113350676151190
 11
-345.216913258147770
 21
-154.128485783705400
  0
LINE
  8
0
  6
CONTINUOUS
 62
3
 10
-345.216913258147770
 20
-141.544519911750740
 11
-345.216913258147770
 21
-144.570722411835050
  0
ARC
  8
0
  6
CONTINUOUS
 62
3
 10
-346.716913258147770
 20
-151.113350676151640
 40
1.500000000000000
 50
0.000000000017370
 51
84.036429881682594
  0
ARC
  8
0
  6
CONTINUOUS
 62
3
 10
-346.716913258147770
 20
-144.570722411835050
 40
1.499999999999998
 50
262.819244218541710
 51
0.000000000000000
  0
ARC
  8
0
  6
CONTINUOUS
 62
3
 10
-346.716913258147770
 20
-141.544519911750740
 40
1.500000000000000
 50
0.000000000000000
 51
82.071858233804562
  0
ARC
  8
0
  6
CONTINUOUS
 62
3
 10
-342.716913258147770
 20
-112.821706679060750
 40
27.499999999999780
 50
217.928141766201070
 51
262.071858233797400
  0
ARC
  8
0
  6
CONTINUOUS
 62
3
 10
-342.716913258147770
 20
-112.821706679059840
 40
37.000000000000021
 50
215.963570118321970
 51
264.036429881678940
  0
ARC
  8
0
  6
CONTINUOUS
 62
3
 10
-342.716913258147770
 20
-112.821706679059840
 40
42.999999999999858
 50
215.531071524839690
 51
264.468928475160850
  0
ARC
  8
0
  6
CONTINUOUS
 62
3
 10
-342.716913258147770
 20
-112.821706679059840
 40
33.500000000000163
 50
217.180755781459110
 51
262.819244218541770
  0
ARC
  8
0
  6
CONTINUOUS
 62
3
 10
-365.591599185813270
 20
-130.647214910543430
 40
1.500000000000122
 50
37.928141766218701
 51
119.999999999992930
  0
ARC
  8
0
  6
CONTINUOUS
 62
3
 10
-376.489633311282890
 20
-136.939197846520980
 40
1.499999999999926
 50
120.000000000001620
 51
215.531071524832130
  0
LINE
  8
0
  6
CONTINUOUS
 62
3
 10
-377.239633311282890
 20
-135.640159740844410
 11
-374.628449712298790
 21
-134.132592187067080
  0
ARC
  8
0
  6
CONTINUOUS
 62
3
 10
-373.878449712298790
 20
-135.431630292743650
 40
1.499999999999968
 50
35.963570118309242
 51
120.000000000001620
  0
LINE
  8
0
  6
CONTINUOUS
 62
3
 10
-368.962367427882550
 20
-130.861278054908780
 11
-366.341599185813270
 21
-129.348176804866400
  0
ARC
  8
0
  6
CONTINUOUS
 62
3
 10
-368.212367427882550
 20
-132.160316160585350
 40
1.499999999999926
 50
120.000000000001620
 51
217.180755781464400
  0
ARC
  8
0
  6
CONTINUOUS
 62
3
 10
-380.489633311282890
 20
-95.632418741875654
 40
1.499999999999926
 50
59.999999999998380
 51
155.531071524840400
  0
LINE
  8
0
  6
CONTINUOUS
 62
3
 10
-377.128449712298330
 20
-95.840948189976189
 11
-379.739633311282890
 21
-94.333380636199081
  0
LINE
  8
0
  6
CONTINUOUS
 62
3
 10
-368.841599185813490
 20
-100.625363572176410
 11
-371.462367427882330
 21
-99.112262322134256
  0
ARC
  8
0
  6
CONTINUOUS
 62
3
 10
-377.878449712298560
 20
-97.139986295652761
 40
1.499999999999855
 50
335.963570118319300
 51
59.999999999990862
  0
ARC
  8
0
  6
CONTINUOUS
 62
3
 10
-372.212367427882330
 20
-100.411300427811050
 40
1.500000000000123
 50
60.000000000002721
 51
157.180755781457980
  0
ARC
  8
0
  6
CONTINUOUS
 62
3
 10
-369.591599185813490
 20
-101.924401677852980
 40
1.500000000000110
 50
337.928141766202600
 51
59.999999999998380
  0
ARC
  8
0
  6
CONTINUOUS
 62
3
 10
-342.716913258148000
 20
-112.821706679060290
 40
27.499999999999886
 50
157.928141766202200
 51
202.071858233798680
  0
ARC
  8
0
  6
CONTINUOUS
 62
3
 10
-342.716913258147310
 20
-112.821706679060750
 40
37.000000000000156
 50
155.963570118321120
 51
204.036429881678230
  0
ARC
  8
0
  6
CONTINUOUS
 62
3
 10
-342.716913258147310
 20
-112.821706679060750
 40
43.000000000000121
 50
155.531071524839230
 51
204.468928475160200
  0
ARC
  8
0
  6
CONTINUOUS
 62
3
 10
-342.716913258147310
 20
-112.821706679060750
 40
33.499999999999794
 50
157.180755781458400
 51
202.819244218540940
  0
ARC
  8
0
  6
CONTINUOUS
 62
3
 10
-369.591599185813270
 20
-123.719011680267610
 40
1.500000000000320
 50
299.999999999992950
 51
22.071858233784546
  0
ARC
  8
0
  6
CONTINUOUS
 62
3
 10
-380.489633311282890
 20
-130.010994616245170
 40
1.500000000000128
 50
204.468928475167470
 51
299.999999999992950
  0
LINE
  8
0
  6
CONTINUOUS
 62
3
 10
-379.739633311282890
 20
-131.310032721922200
 11
-377.128449712298790
 21
-129.802465168144860
  0
ARC
  8
0
  6
CONTINUOUS
 62
3
 10
-377.878449712298790
 20
-128.503427062468290
 40
1.499999999999926
 50
300.000000000001590
 51
24.036429881677126
  0
LINE
  8
0
  6
CONTINUOUS
 62
3
 10
-371.462367427882550
 20
-126.531151035986560
 11
-368.841599185813270
 21
-125.018049785944640
  0
ARC
  8
0
  6
CONTINUOUS
 62
3
 10
-372.212367427882550
 20
-125.232112930309990
 40
1.500000000000157
 50
202.819244218546660
 51
300.000000000001590
  0
ARC
  8
0
  6
CONTINUOUS
 62
3
 10
-376.489633311282430
 20
-88.704215511599614
 40
1.499999999999976
 50
144.468928475160790
 51
240.000000000002730
  0
LINE
  8
0
  6
CONTINUOUS
 62
3
 10
-374.628449712298330
 20
-91.510821171053522
 11
-377.239633311282430
 21
-90.003253617276414
  0
LINE
  8
0
  6
CONTINUOUS
 62
3
 10
-366.341599185813270
 20
-96.295236553253744
 11
-368.962367427882100
 21
-94.782135303211589
  0
ARC
  8
0
  6
CONTINUOUS
 62
3
 10
-373.878449712298330
 20
-90.211783065376721
 40
1.500000000000123
 50
240.000000000002730
 51
324.036429881683720
  0
ARC
  8
0
  6
CONTINUOUS
 62
3
 10
-368.212367427882100
 20
-93.483097197535017
 40
1.500000000000103
 50
142.819244218542510
 51
239.999999999998410
  0
ARC
  8
0
  6
CONTINUOUS
 62
3
 10
-365.591599185813270
 20
-94.996198447577171
 40
1.499999999999926
 50
239.999999999998410
 51
322.071858233800300
  0
ARC
  8
0
  6
CONTINUOUS
 62
3
 10
-342.716913258147090
 20
-112.821706679060290
 40
37.000000000000099
 50
95.963570118321798
 51
144.036429881678830
  0
ARC
  8
0
  6
CONTINUOUS
 62
3
 10
-342.716913258147090
 20
-112.821706679060290
 40
43.000000000000043
 50
95.531071524839788
 51
144.468928475160770
  0
ARC
  8
0
  6
CONTINUOUS
 62
3
 10
-342.716913258147090
 20
-112.821706679060290
 40
33.499999999999950
 50
97.180755781459069
 51
142.819244218541740
  0
ARC
  8
0
  6
CONTINUOUS
 62
3
 10
-346.716913258147540
 20
-84.098893446369857
 40
1.499999999999998
 50
277.928141766204020
 51
0.000000000000000
  0
ARC
  8
0
  6
CONTINUOUS
 62
3
 10
-386.665500688430030
 20
-62.725092211532001
 40
6.599999999999971
 50
98.597082237248614
 51
134.999999999998610
  0
ARC
  8
0
  6
CONTINUOUS
 62
4
 10
-381.658431213529640
 20
-72.712929138473555
 40
5.999999999999923
 50
97.897988672425626
 51
134.999999999996930
  0
ARC
  8
0
  6
CONTINUOUS
 62
4
 10
-342.716913258147540
 20
-353.421706679060210
 40
289.396999999999930
 50
90.000000000000000
 51
97.897988672427743
  0
ARC
  8
0
  6
CONTINUOUS
 62
3
 10
-426.016913258147500
 20
-86.864206679060317
 40
18.799999999999955
 50
0.000000000000000
 51
79.401214733933941
  0
ARC
  8
0
  6
CONTINUOUS
 62
3
 10
-422.191158624060560
 20
-66.419070301922602
 40
1.999999999999927
 50
177.137594773887290
 51
259.401214733934010
  0
ARC
  8
0
  6
CONTINUOUS
 62
3
 10
-427.784171721776370
 20
-66.139419647036789
 40
1.999999999999928
 50
274.873974813840960
 51
357.137594773887320
  0
LINE
  8
0
  6
CONTINUOUS
 62
3
 10
-424.518784749830730
 20
-56.901636512725076
 11
-429.612421678107690
 21
-158.774375078265170
  0
LINE
  8
0
  6
CONTINUOUS
 62
3
 10
-448.713172609768430
 20
-124.789393711479300
 11
-444.723147672112420
 21
-84.988894958362039
  0
ARC
  8
0
  6
CONTINUOUS
 62
3
 10
-426.016913258147500
 20
-86.864206679060317
 40
18.800000000000036
 50
94.873974813842736
 51
144.191373186504250
  0
ARC
  8
0
  6
CONTINUOUS
 62
3
 10
-426.016913258147500
 20
-86.864206679060317
 40
18.799999999999933
 50
144.191373186504250
 51
174.275189547776390
  0
LINE
  8
0
  6
CONTINUOUS
 62
3
 10
-425.317786620933020
 20
-56.861686419169928
 11
-423.719782878728440
 21
-56.941586606280111
  0
ARC
  8
0
  6
CONTINUOUS
 62
3
 10
-419.175460117827470
 20
-62.175048842950218
 40
9.000000000000060
 50
160.536063666407810
 51
193.739143184213500
  0
POINT
  8
0
  6
CONTINUOUS
 62
3
 10
-425.567474705651880
 20
-61.855448113558964
  0
LINE
  8
0
  6
CONTINUOUS
 62
3
 10
-425.392693046348310
 20
-58.359814927486582
 11
-425.742256364955440
 21
-65.351081299631460
  0
LINE
  8
0
  6
CONTINUOUS
 62
3
 10
-425.392693046348310
 20
-58.359814927486582
 11
-425.742256364955440
 21
-65.351081299631460
  0
LINE
  8
0
  6
CONTINUOUS
 62
3
 10
-425.742256364955440
 20
-65.351081299631460
 11
-426.720060177463210
 21
-65.302191109006117
  0
LINE
  8
0
  6
CONTINUOUS
 62
3
 10
-425.392693046348310
 20
-58.359814927486582
 11
-426.370496858855860
 21
-58.310924736861239
  0
ARC
  8
0
  6
CONTINUOUS
 62
3
 10
-426.655141313535520
 20
-64.003813830452486
 40
1.299999237060493
 50
193.739143184211430
 51
267.137612759980240
  0
ARC
  8
0
  6
CONTINUOUS
 62
3
 10
-426.435415722783550
 20
-59.609302015414755
 40
1.299999237060474
 50
87.137594090651831
 51
160.536063666412870
  0
LINE
  8
0
  6
CONTINUOUS
 62
3
 10
-425.317786620933020
 20
-56.861686419169928
 11
-430.411423549209990
 21
-158.734424984709900
  0
LINE
  8
0
  6
CONTINUOUS
 62
3
 10
-423.719782878728440
 20
-56.941586606280111
 11
-428.813419807005400
 21
-158.814325171820880
  0
ARC
  8
0
  6
CONTINUOUS
 62
3
 10
-428.016913258147500
 20
-126.864206679060310
 40
20.800000000000082
 50
274.191726156007460
 51
354.952683218987540
  0
ARC
  8
0
  6
CONTINUOUS
 62
3
 10
-428.016913258147500
 20
-126.864206679060310
 40
20.799999999999986
 50
174.275189547776620
 51
205.640070215894870
  0
ARC
  8
0
  6
CONTINUOUS
 62
3
 10
-428.016913258147500
 20
-126.864206679060310
 40
20.799999999999926
 50
205.640070215894870
 51
260.083463391769440
  0
ARC
  8
0
  6
CONTINUOUS
 62
3
 10
-428.016913258147500
 20
-126.864206679060310
 40
20.799999999999986
 50
174.275189547776620
 51
205.640070215894870
  0
ARC
  8
0
  6
CONTINUOUS
 62
3
 10
-426.350365991763970
 20
-149.603217655989620
 40
1.999999999999962
 50
94.191726156001650
 51
177.137594773887290
  0
ARC
  8
0
  6
CONTINUOUS
 62
3
 10
-431.943379089479780
 20
-149.323567001103810
 40
2.000000000000154
 50
357.137594773887600
 51
80.083463391767268
  0
LINE
  8
0
  6
CONTINUOUS
 62
3
 10
-428.813419807005400
 20
-158.814325171820880
 11
-430.411423549209990
 21
-158.734424984709900
  0
LINE
  8
0
  6
CONTINUOUS
 62
3
 10
-407.216913258147540
 20
-95.491097918834896
 11
-407.216913258147540
 21
-86.864206679060317
  0
LINE
  8
0
  6
CONTINUOUS
 62
3
 10
-272.216913258147540
 20
-161.349570724060750
 11
-272.216913258147540
 21
-148.821706679060300
  0
ARC
  8
0
  6
CONTINUOUS
 62
3
 10
-280.678342797602450
 20
-155.821706679060300
 40
3.000000000000000
 50
90.000000000000000
 51
111.384449563495090
  0
LINE
  8
0
  6
CONTINUOUS
 62
3
 10
-287.704005816704240
 20
-161.187810647090260
 11
-287.217202424998620
 21
-161.674614038795880
  0
LINE
  8
0
  6
CONTINUOUS
 62
3
 10
-294.350809290117920
 20
-167.834614120503940
 11
-293.864005898412300
 21
-168.321417512209560
  0
LINE
  8
0
  6
CONTINUOUS
 62
3
 10
-287.390867207735480
 20
-161.440357597940590
 11
-294.067966510208410
 21
-168.117456900413520
  0
LINE
  8
0
  6
CONTINUOUS
 62
3
 10
-287.704005816704240
 20
-161.187810647090260
 11
-294.350809290117920
 21
-167.834614120503940
  0
POINT
  8
0
  6
CONTINUOUS
 62
3
 10
-291.027407553411080
 20
-164.511212383797100
  0
ARC
  8
0
  6
CONTINUOUS
 62
3
 10
-293.290149118338150
 20
-162.248470818870030
 40
6.099999427795462
 50
264.601927898108560
 51
5.398089404734844
  0
LINE
  8
0
  6
CONTINUOUS
 62
3
 10
-287.217143794143450
 20
-162.821706679060300
 11
-273.216913258147540
 21
-162.821706679060300
  0
ARC
  8
0
  6
CONTINUOUS
 62
3
 10
-291.216913258147540
 20
-169.225669836738460
 40
3.000000000000016
 50
159.254559132535290
 51
180.000000000000000
  0
ARC
  8
0
  6
CONTINUOUS
 62
3
 10
-289.867732385085900
 20
-169.347231839679690
 40
5.999999999999966
 50
175.112659092078930
 51
188.736046408088440
  0
ARC
  8
0
  6
CONTINUOUS
 62
3
 10
-302.716913258147540
 20
-171.321706679060360
 40
6.249999999999699
 50
176.311083109879410
 51
208.865727415005670
  0
LINE
  8
0
  6
CONTINUOUS
 62
3
 10
-305.216910873963000
 20
-172.765078324058270
 11
-305.216911631027410
 21
-170.473462546424680
  0
ARC
  8
0
  6
CONTINUOUS
 62
3
 10
-302.716913258147540
 20
-171.321706679060360
 40
4.999999999999634
 50
173.706840601419430
 51
21.600241671056416
  0
LINE
  8
0
  6
CONTINUOUS
 62
3
 10
-300.322751881348270
 20
-169.817229295174000
 11
-300.216914752149020
 21
-169.878334583251730
  0
ARC
  8
0
  6
CONTINUOUS
 62
3
 10
-322.216913258147540
 20
-97.422579605165083
 40
49.999999999999964
 50
53.210972997734245
 51
86.642182578429427
  0
ARC
  8
0
  6
CONTINUOUS
 62
3
 10
-322.216913258147540
 20
-97.422579605165083
 40
49.999999999999929
 50
24.331631548023687
 51
46.053555941995882
  0
ARC
  8
0
  6
CONTINUOUS
 62
3
 10
-308.716913258147540
 20
-56.821706679060298
 40
4.999999999999832
 50
17.324497767506895
 51
149.596673703374650
  0
LINE
  8
0
  6
CONTINUOUS
 62
3
 10
-308.716908536940310
 20
-53.934957938704201
 11
-306.945475751422460
 21
-54.957698365323154
  0
LINE
  8
0
  6
CONTINUOUS
 62
3
 10
-308.716908475710850
 20
-53.934958418846918
 11
-309.900577282875250
 21
-54.618346434972466
  0
LINE
  8
0
  6
CONTINUOUS
 62
3
 10
-302.466913258147540
 20
-53.032969334292034
 11
-302.466913258147540
 21
-55.528609243083963
  0
LINE
  8
0
  6
CONTINUOUS
 62
3
 10
-314.966913258147540
 20
-48.822811087197806
 11
-314.966913258147540
 21
-54.105323064664560
  0
LINE
  8
0
  6
CONTINUOUS
 62
3
 10
-376.716918040584230
 20
-53.934958418846918
 11
-375.533249233419840
 21
-54.618346434972466
  0
LINE
  8
0
  6
CONTINUOUS
 62
3
 10
-376.716917979354780
 20
-53.934957938704201
 11
-378.488350764872620
 21
-54.957698365323154
  0
ARC
  8
0
  6
CONTINUOUS
 62
3
 10
-376.716913258147540
 20
-56.821706679060298
 40
4.999999999999709
 50
30.403326296625348
 51
162.675502232493100
  0
LINE
  8
0
  6
CONTINUOUS
 62
3
 10
-370.466913258147540
 20
-48.822811087197806
 11
-370.466913258147540
 21
-54.105323064664560
  0
LINE
  8
0
  6
CONTINUOUS
 62
3
 10
-382.966913258147540
 20
-53.032969334292034
 11
-382.966913258147540
 21
-55.528609243083963
  0
ARC
  8
0
  6
CONTINUOUS
 62
3
 10
-363.216913258147540
 20
-97.422579605165083
 40
50.000000000000185
 50
93.357817421570559
 51
126.789027002265740
  0
ARC
  8
0
  6
CONTINUOUS
 62
3
 10
-363.216913258147540
 20
-97.422579605165083
 40
49.999999999999993
 50
133.946444058004120
 51
157.335070973377470
  0
ARC
  8
0
  6
CONTINUOUS
 62
3
 10
-404.716913258147310
 20
-93.821706679060242
 40
8.000000000000055
 50
103.028386429423430
 51
108.291688906694240
  0
LINE
  8
0
  6
CONTINUOUS
 62
3
 10
-413.216913258147540
 20
-161.349570724060750
 11
-413.216913258147540
 21
-141.479267404216440
  0
ARC
  8
0
  6
CONTINUOUS
 62
3
 10
-404.755483718692630
 20
-155.821706679060300
 40
3.000000000000050
 50
68.615550436500470
 51
90.000000000000000
  0
LINE
  8
0
  6
CONTINUOUS
 62
3
 10
-410.277814368250010
 20
-137.725347069205210
 11
-406.052512237241330
 21
-144.410750080380690
  0
LINE
  8
0
  6
CONTINUOUS
 62
3
 10
-398.216682722151750
 20
-162.821706679060300
 11
-412.216913258147540
 21
-162.821706679060300
  0
ARC
  8
0
  6
CONTINUOUS
 62
3
 10
-394.216913258147540
 20
-169.225669836738460
 40
3.000000000000000
 50
0.000000000000000
 51
20.745440867465728
  0
ARC
  8
0
  6
CONTINUOUS
 62
3
 10
-395.566094131208960
 20
-169.347231839679750
 40
5.999999999999944
 50
351.263953591910710
 51
4.887340907920535
  0
ARC
  8
0
  6
CONTINUOUS
 62
3
 10
-382.716913258147540
 20
-171.321706679060360
 40
5.000000000000019
 50
158.399758328943590
 51
6.293159398580574
  0
ARC
  8
0
  6
CONTINUOUS
 62
3
 10
-382.716913258147540
 20
-171.321706679060360
 40
6.250000000000191
 50
331.134272584994330
 51
3.688916890120574
  0
LINE
  8
0
  6
CONTINUOUS
 62
3
 10
-380.216915642332080
 20
-172.765078324058270
 11
-380.216914885267670
 21
-170.473462546424680
  0
LINE
  8
0
  6
CONTINUOUS
 62
3
 10
-385.111074634946820
 20
-169.817229295174000
 11
-385.216911764146060
 21
-169.878334583251730
  0
LINE
  8
0
  6
DASHDOT
 62
4
 10
-342.716913258147540
 20
-37.207704847831394
 11
-342.716913258147540
 21
-185.946891240779280
  0
LINE
  8
0
  6
DASHDOT
 62
4
 10
-232.795102574113120
 20
-112.821706679060290
 11
-461.279846881556300
 21
-112.821706679060290
  0
LINE
  8
0
  6
DASHDOT
 62
4
 10
-321.958864980573710
 20
-92.821706679060298
 11
-363.200149332351430
 21
-92.821706679060298
  0
LINE
  8
0
  6
CONTINUOUS
 62
3
 10
76.998287084541516
 20
150.899180321897800
 11
76.998287084541516
 21
163.099179177488620
  0
LINE
  8
0
  6
CONTINUOUS
 62
3
 10
70.998287084541516
 20
161.999179749693210
 11
70.998287084541516
 21
151.999179749693210
  0
LINE
  8
0
  6
CONTINUOUS
 62
3
 10
76.998287084541516
 20
151.999179749693210
 11
70.998287084541516
 21
151.999179749693210
  0
LINE
  8
0
  6
CONTINUOUS
 62
3
 10
76.998287084541516
 20
161.999179749693210
 11
70.998287084541516
 21
161.999179749693210
  0
LINE
  8
0
  6
CONTINUOUS
 62
3
 10
76.998287084541516
 20
95.099179177487713
 11
76.998287084541516
 21
82.899180321896893
  0
LINE
  8
0
  6
CONTINUOUS
 62
3
 10
70.998287084541516
 20
83.999179749692303
 11
70.998287084541516
 21
93.999179749692303
  0
LINE
  8
0
  6
CONTINUOUS
 62
3
 10
76.998287084541516
 20
93.999179749692303
 11
70.998287084541516
 21
93.999179749692303
  0
LINE
  8
0
  6
CONTINUOUS
 62
3
 10
76.998287084541516
 20
83.999179749692303
 11
70.998287084541516
 21
83.999179749692303
  0
ARC
  8
0
  6
CONTINUOUS
 62
3
 10
52.498287084541516
 20
181.999179749692300
 40
0.500000000000176
 50
19.471220634520403
 51
90.000000000000000
  0
ARC
  8
0
  6
CONTINUOUS
 62
3
 10
62.397782021153034
 20
185.499179749692300
 40
9.999999999999684
 50
199.471220634489500
 51
270.000000000000000
  0
ARC
  8
0
  6
CONTINUOUS
 62
3
 10
66.998287084541516
 20
181.499179749692300
 40
6.000000000000000
 50
270.000000000000000
 51
0.000000000000000
  0
ARC
  8
0
  6
CONTINUOUS
 62
3
 10
76.898287084542062
 20
163.149179749692850
 40
0.099999999999454
 50
0.000000000000000
 51
90.000000000000000
  0
ARC
  8
0
  6
CONTINUOUS
 62
3
 10
74.998287084541516
 20
164.249179749693210
 40
1.000000000000000
 50
180.000000000000000
 51
270.000000000000000
  0
ARC
  8
0
  6
CONTINUOUS
 62
3
 10
76.898287084542062
 20
150.849179749692670
 40
0.099999999999454
 50
270.000000000000000
 51
0.000000000000000
  0
ARC
  8
0
  6
CONTINUOUS
 62
3
 10
74.998287084541516
 20
149.749179749693210
 40
1.000000000000000
 50
90.000000000000000
 51
180.000000000000000
  0
LINE
  8
0
  6
CONTINUOUS
 62
3
 10
76.998287084541516
 20
163.149179749692850
 11
76.998287084541516
 21
150.849179749692670
  0
LINE
  8
0
  6
CONTINUOUS
 62
3
 10
74.998287084541516
 20
163.249179749693210
 11
76.898287084542062
 21
163.249179749693210
  0
LINE
  8
0
  6
CONTINUOUS
 62
3
 10
74.998287084541516
 20
150.749179749693210
 11
76.898287084542062
 21
150.749179749693210
  0
LINE
  8
0
  6
CONTINUOUS
 62
3
 10
73.998287084541516
 20
151.999179749693210
 11
73.998287084541516
 21
122.999179749692300
  0
LINE
  8
0
  6
CONTINUOUS
 62
3
 10
72.998287084541516
 20
180.961107579976670
 11
72.998287084541516
 21
192.133154345908220
  0
LINE
  8
0
  6
CONTINUOUS
 62
3
 10
70.998287084541516
 20
191.999179749693210
 11
70.998287084541516
 21
181.999179749693210
  0
LINE
  8
0
  6
CONTINUOUS
 62
3
 10
72.998287084541516
 20
191.999179749693210
 11
70.998287084541516
 21
191.999179749693210
  0
LINE
  8
0
  6
CONTINUOUS
 62
3
 10
72.998287084541516
 20
181.999179749693210
 11
70.998287084541516
 21
181.999179749693210
  0
LINE
  8
0
  6
CONTINUOUS
 62
3
 10
62.397782021153034
 20
175.499179749692300
 11
67.998287084541516
 21
175.499179749692300
  0
ARC
  8
0
  6
CONTINUOUS
 62
3
 10
67.998287084541516
 20
181.499179749692300
 40
6.000000000000000
 50
270.000000000000000
 51
0.000000000000000
  0
LINE
  8
0
  6
CONTINUOUS
 62
3
 10
49.498287084541516
 20
182.499179749692300
 11
52.498287084541516
 21
182.499179749692300
  0
LINE
  8
0
  6
CONTINUOUS
 62
3
 10
49.498287084541516
 20
122.999179749692300
 11
49.498287084541516
 21
182.499179749692300
  0
LINE
  8
0
  6
CONTINUOUS
 62
3
 10
82.998287084541516
 20
122.999179749692300
 11
82.998287084541516
 21
193.499179749692300
  0
LINE
  8
0
  6
CONTINUOUS
 62
3
 10
73.998287084541516
 20
192.499179749691390
 11
73.998287084541516
 21
161.999179749693210
  0
ARC
  8
0
  6
CONTINUOUS
 62
3
 10
74.998287084541516
 20
192.499179749691390
 40
1.000000000000129
 50
106.783233262703770
 51
180.000000000000000
  0
LINE
  8
0
  6
CONTINUOUS
 62
3
 10
74.998287084541516
 20
193.499179749691390
 11
82.998287084541516
 21
193.499179749692300
  0
ARC
  8
0
  6
CONTINUOUS
 62
3
 10
74.998287084541516
 20
192.499179749691390
 40
1.000000000000000
 50
90.000000000000000
 51
106.783233262703770
  0
ARC
  8
0
  6
CONTINUOUS
 62
3
 10
73.998287084541516
 20
192.133154345908220
 40
0.999999999999742
 50
94.664415204609853
 51
180.000000000000000
  0
ARC
  8
0
  6
CONTINUOUS
 62
3
 10
73.835648065645728
 20
194.126530514505250
 40
0.999999999999742
 50
274.664415204609840
 51
305.543403517313660
  0
ARC
  8
0
  6
CONTINUOUS
 62
3
 10
52.498287084541516
 20
63.999179749692303
 40
0.500000000000000
 50
270.000000000000000
 51
340.528779365577860
  0
ARC
  8
0
  6
CONTINUOUS
 62
3
 10
62.397782021153034
 20
60.499179749692303
 40
10.000000000000000
 50
90.000000000000000
 51
160.528779365505610
  0
ARC
  8
0
  6
CONTINUOUS
 62
3
 10
66.998287084541516
 20
64.499179749692303
 40
6.000000000000000
 50
0.000000000000000
 51
90.000000000000000
  0
ARC
  8
0
  6
CONTINUOUS
 62
3
 10
76.898287084542062
 20
82.849179749692667
 40
0.100000000000364
 50
270.000000000000000
 51
0.000000000000000
  0
ARC
  8
0
  6
CONTINUOUS
 62
3
 10
74.998287084541516
 20
81.749179749692303
 40
1.000000000000000
 50
90.000000000000000
 51
180.000000000000000
  0
ARC
  8
0
  6
CONTINUOUS
 62
3
 10
76.898287084542062
 20
95.149179749691939
 40
0.099999999999454
 50
0.000000000000000
 51
90.000000000000000
  0
ARC
  8
0
  6
CONTINUOUS
 62
3
 10
74.998287084541516
 20
96.249179749692303
 40
1.000000000000000
 50
180.000000000000000
 51
270.000000000000000
  0
LINE
  8
0
  6
CONTINUOUS
 62
3
 10
76.998287084541516
 20
82.849179749692667
 11
76.998287084541516
 21
95.149179749691939
  0
LINE
  8
0
  6
CONTINUOUS
 62
3
 10
74.998287084541516
 20
82.749179749692303
 11
76.898287084542062
 21
82.749179749692303
  0
LINE
  8
0
  6
CONTINUOUS
 62
3
 10
74.998287084541516
 20
95.249179749692303
 11
76.898287084542062
 21
95.249179749692303
  0
LINE
  8
0
  6
CONTINUOUS
 62
3
 10
73.998287084541516
 20
93.999179749691393
 11
73.998287084541516
 21
122.999179749692300
  0
LINE
  8
0
  6
CONTINUOUS
 62
3
 10
72.998287084541516
 20
65.037251919407936
 11
72.998287084541516
 21
53.865205153477291
  0
LINE
  8
0
  6
CONTINUOUS
 62
3
 10
70.998287084541516
 20
53.999179749692303
 11
70.998287084541516
 21
63.999179749692303
  0
LINE
  8
0
  6
CONTINUOUS
 62
3
 10
72.998287084541516
 20
53.999179749691848
 11
70.998287084541516
 21
53.999179749692303
  0
LINE
  8
0
  6
CONTINUOUS
 62
3
 10
72.998287084541516
 20
63.999179749691848
 11
70.998287084541516
 21
63.999179749692303
  0
LINE
  8
0
  6
CONTINUOUS
 62
3
 10
62.397782021153034
 20
70.499179749692303
 11
67.998287084541516
 21
70.499179749692303
  0
ARC
  8
0
  6
CONTINUOUS
 62
3
 10
67.998287084541516
 20
64.499179749692303
 40
6.000000000000000
 50
0.000000000000000
 51
90.000000000000000
  0
LINE
  8
0
  6
CONTINUOUS
 62
3
 10
49.498287084541516
 20
63.499179749692303
 11
52.498287084541516
 21
63.499179749692303
  0
LINE
  8
0
  6
CONTINUOUS
 62
3
 10
49.498287084541516
 20
122.999179749692300
 11
49.498287084541516
 21
63.499179749692303
  0
LINE
  8
0
  6
CONTINUOUS
 62
3
 10
82.998287084541516
 20
122.999179749692300
 11
82.998287084541516
 21
52.499179749692303
  0
LINE
  8
0
  6
CONTINUOUS
 62
3
 10
73.998287084541516
 20
53.499179749693212
 11
73.998287084541516
 21
83.999179749691393
  0
ARC
  8
0
  6
CONTINUOUS
 62
3
 10
74.998287084541516
 20
53.499179749693212
 40
1.000000000000000
 50
180.000000000000000
 51
253.216766737296240
  0
LINE
  8
0
  6
CONTINUOUS
 62
3
 10
74.998287084541516
 20
52.499179749693212
 11
82.998287084541516
 21
52.499179749692303
  0
ARC
  8
0
  6
CONTINUOUS
 62
3
 10
74.998287084541516
 20
53.499179749693212
 40
1.000000000000129
 50
253.216766737296240
 51
270.000000000000000
  0
ARC
  8
0
  6
CONTINUOUS
 62
3
 10
73.998287084541516
 20
53.865205153477291
 40
1.000000000000000
 50
180.000000000000000
 51
265.335584795394370
  0
ARC
  8
0
  6
CONTINUOUS
 62
3
 10
73.835648065645728
 20
51.871828984879357
 40
1.000000000000270
 50
54.456596482686322
 51
85.335584795390147
  0
CIRCLE
  8
0
  6
CONTINUOUS
 62
3
 10
153.498287084541520
 20
185.499179749692300
 40
5.000000000000000
  0
CIRCLE
  8
0
  6
CONTINUOUS
 62
3
 10
60.498287084541516
 20
185.499179749692300
 40
5.000000000000000
  0
ARC
  8
0
  6
CONTINUOUS
 62
3
 10
164.498287084541520
 20
143.999179749692300
 40
1.000000000000000
 50
0.000000000000000
 51
90.000000000000000
  0
ARC
  8
0
  6
CONTINUOUS
 62
3
 10
164.498287084541520
 20
145.999179749692300
 40
1.000000000000000
 50
180.000000000000000
 51
270.000000000000000
  0
ARC
  8
0
  6
CONTINUOUS
 62
3
 10
116.451142698304920
 20
132.914845832749050
 40
60.000000000000000
 50
39.042867178556605
 51
40.227417040431980
  0
ARC
  8
0
  6
CONTINUOUS
 62
3
 10
153.498287084541520
 20
185.499179749692300
 40
12.999999999999615
 50
175.997884408560510
 51
270.000000000000000
  0
ARC
  8
0
  6
CONTINUOUS
 62
3
 10
138.534864976203610
 20
186.546079366508820
 40
1.999999999999929
 50
355.997884408536380
 51
67.619615415393611
  0
ARC
  8
0
  6
CONTINUOUS
 62
3
 10
160.733393240800980
 20
170.372585845883800
 40
1.999999999999549
 50
40.227417040425401
 51
88.999999999998238
  0
ARC
  8
0
  6
CONTINUOUS
 62
3
 10
161.498287084541520
 20
169.449141811261140
 40
2.000000000000000
 50
0.000000000000000
 51
39.042867178546516
  0
CIRCLE
  8
0
  6
CONTINUOUS
 62
3
 10
153.498287084541520
 20
60.499179749691393
 40
5.000000000000000
  0
CIRCLE
  8
0
  6
CONTINUOUS
 62
3
 10
60.498287084541516
 20
60.499179749691393
 40
5.000000000000000
  0
ARC
  8
0
  6
CONTINUOUS
 62
3
 10
164.498287084541520
 20
101.999179749692300
 40
1.000000000000000
 50
270.000000000000000
 51
0.000000000000000
  0
ARC
  8
0
  6
CONTINUOUS
 62
3
 10
164.498287084541520
 20
99.999179749692303
 40
1.000000000000000
 50
90.000000000000000
 51
180.000000000000000
  0
ARC
  8
0
  6
CONTINUOUS
 62
3
 10
116.451142698304920
 20
113.083513666634640
 40
59.999999999999872
 50
270.999999999999660
 51
292.380384584606300
  0
ARC
  8
0
  6
CONTINUOUS
 62
3
 10
116.451142698304920
 20
113.083513666634640
 40
60.000000000000036
 50
319.772582959567330
 51
320.957132821443390
  0
ARC
  8
0
  6
CONTINUOUS
 62
3
 10
153.498287084541520
 20
60.499179749691393
 40
13.000000000000000
 50
90.000000000000000
 51
184.002115591443470
  0
ARC
  8
0
  6
CONTINUOUS
 62
3
 10
138.534864976203610
 20
59.452280132874876
 40
2.000000000000135
 50
292.380384584596470
 51
4.002115591437622
  0
ARC
  8
0
  6
CONTINUOUS
 62
3
 10
160.733393240800980
 20
75.625773653499891
 40
2.000000000000027
 50
271.000000000001760
 51
319.772582959554710
  0
ARC
  8
0
  6
CONTINUOUS
 62
3
 10
161.498287084541520
 20
76.549217688122553
 40
2.000000000000242
 50
320.957132821453510
 51
0.000000000000000
  0
ARC
  8
0
  6
CONTINUOUS
 62
3
 10
116.451142698304920
 20
132.914845832749050
 40
59.999999999999616
 50
67.619615415393312
 51
89.000000000000398
  0
ARC
  8
0
  6
CONTINUOUS
 62
3
 10
50.498287084541516
 20
193.573237259385680
 40
1.999999999999720
 50
92.161355940224595
 51
180.000000000000000
  0
ARC
  8
0
  6
CONTINUOUS
 62
3
 10
163.498287084541520
 20
193.533785223460650
 40
2.000000000000000
 50
0.000000000000000
 51
88.999999999998238
  0
ARC
  8
0
  6
CONTINUOUS
 62
3
 10
50.498287084541516
 20
52.425122239998018
 40
2.000000000000000
 50
180.000000000000000
 51
267.838644059775390
  0
ARC
  8
0
  6
CONTINUOUS
 62
3
 10
163.498287084541520
 20
52.464574275923042
 40
2.000000000000027
 50
271.000000000001760
 51
0.000000000000000
  0
LINE
  8
0
  6
DASHDOT
 62
4
 10
163.769932907005570
 20
185.499179749692300
 11
144.006681381955790
 21
185.499179749692300
  0
LINE
  8
0
  6
CONTINUOUS
 62
3
 10
117.498287084541510
 20
192.905707542132400
 11
83.498287084541516
 21
193.499179749692300
  0
LINE
  8
0
  6
CONTINUOUS
 62
3
 10
160.768298053675610
 20
172.372281236196610
 11
153.498287084541520
 21
172.499179749692300
  0
LINE
  8
0
  6
CONTINUOUS
 62
3
 10
163.498287084541520
 20
169.449141811261140
 11
163.498287084541520
 21
122.999179749692300
  0
LINE
  8
0
  6
CONTINUOUS
 62
4
 10
153.498287084541520
 20
172.499179749692300
 11
160.180469882929170
 21
172.499179749692300
  0
LINE
  8
0
  6
CONTINUOUS
 62
3
 10
83.498287084541516
 20
193.507907282156340
 11
83.498287084541516
 21
122.999179749692300
  0
LINE
  8
0
  6
DASHDOT
 62
4
 10
163.769932907005570
 20
60.499179749691393
 11
144.006681381955790
 21
60.499179749691393
  0
LINE
  8
0
  6
CONTINUOUS
 62
3
 10
117.498287084541510
 20
53.092651957251292
 11
83.498287084541516
 21
52.499179749692303
  0
LINE
  8
0
  6
CONTINUOUS
 62
3
 10
160.768298053675610
 20
73.626078263187082
 11
153.498287084541520
 21
73.499179749691393
  0
LINE
  8
0
  6
CONTINUOUS
 62
3
 10
163.498287084541520
 20
76.549217688122553
 11
163.498287084541520
 21
122.999179749692300
  0
LINE
  8
0
  6
CONTINUOUS
 62
3
 10
83.498287084541516
 20
52.490452217227357
 11
83.498287084541516
 21
122.999179749692300
  0
LINE
  8
0
  6
CONTINUOUS
 62
3
 10
85.498287084541516
 20
196.895584943948960
 11
50.422859421610156
 21
195.571814420183730
  0
LINE
  8
0
  6
CONTINUOUS
 62
3
 10
85.498287084541516
 20
49.102774555434735
 11
50.422859421610156
 21
50.426545079199968
  0
LINE
  8
0
  6
CONTINUOUS
 62
3
 10
165.498287084541520
 20
52.464574275923042
 11
165.498287084541520
 21
122.999179749692300
  0
LINE
  8
0
  6
CONTINUOUS
 62
3
 10
163.533191897416150
 20
50.464878885610233
 11
85.498287084541516
 21
49.102774555434735
  0
LINE
  8
0
  6
CONTINUOUS
 62
3
 10
163.533191897416150
 20
195.533480613773460
 11
85.498287084541516
 21
196.895584943948960
  0
LINE
  8
0
  6
CONTINUOUS
 62
3
 10
165.498287084541520
 20
193.533785223460650
 11
165.498287084541520
 21
122.999179749692300
  0
LINE
  8
0
  6
CONTINUOUS
 62
4
 10
83.498287084541516
 20
52.551121920337209
 11
90.569139548741987
 21
52.551121920337209
  0
LINE
  8
0
  6
CONTINUOUS
 62
3
 10
167.498287084541520
 20
111.399179749691930
 11
167.098287084541430
 21
110.999179749692300
  0
LINE
  8
0
  6
CONTINUOUS
 62
3
 10
170.058094705676920
 20
111.999179749692300
 11
169.498287084541520
 21
112.149179749691930
  0
LINE
  8
0
  6
CONTINUOUS
 62
3
 10
169.498287084541520
 20
112.149179749691930
 11
168.298287084541240
 21
112.149179749691930
  0
ARC
  8
0
  6
CONTINUOUS
 62
3
 10
168.298287084541240
 20
111.349179749691750
 40
0.800000000000182
 50
90.000000000000000
 51
176.296803365717580
  0
LINE
  8
0
  6
CONTINUOUS
 62
3
 10
167.498287084541520
 20
111.399179749691930
 11
167.098287084541430
 21
110.999179749692300
  0
LINE
  8
0
  6
CONTINUOUS
 62
3
 10
170.058094705676920
 20
111.999179749692300
 11
169.498287084541520
 21
112.149179749691930
  0
LINE
  8
0
  6
CONTINUOUS
 62
3
 10
169.498287084541520
 20
112.149179749691930
 11
168.298287084541240
 21
112.149179749691930
  0
LINE
  8
0
  6
CONTINUOUS
 62
3
 10
167.498287084541520
 20
122.999179749692300
 11
167.498287084541520
 21
111.399179749691930
  0
LINE
  8
0
  6
CONTINUOUS
 62
3
 10
165.498287084541520
 20
110.999179749691390
 11
167.098287084541430
 21
110.999179749692300
  0
LINE
  8
0
  6
CONTINUOUS
 62
3
 10
165.498287084541520
 20
110.999179749691390
 11
167.098287084541430
 21
110.999179749692300
  0
LINE
  8
0
  6
CONTINUOUS
 62
3
 10
171.498287084541520
 20
111.999179749692300
 11
171.498287084541520
 21
109.499179749692300
  0
LINE
  8
0
  6
CONTINUOUS
 62
3
 10
203.498288991844220
 20
109.499179749692300
 11
171.498288991844220
 21
109.499179749692300
  0
LINE
  8
0
  6
CONTINUOUS
 62
3
 10
203.498287084541520
 20
112.399179749691930
 11
203.498287084541520
 21
109.499179749692300
  0
ARC
  8
0
  6
CONTINUOUS
 62
3
 10
203.098287084541430
 20
112.399179749691930
 40
0.399999999999636
 50
270.000000000000000
 51
0.000000000000000
  0
LINE
  8
0
  6
CONTINUOUS
 62
3
 10
203.098287084541430
 20
111.999179749692300
 11
170.058094705676920
 21
111.999179749692300
  0
LINE
  8
0
  6
CONTINUOUS
 62
3
 10
203.098287084541430
 20
111.999179749692300
 11
170.058094705676920
 21
111.999179749692300
  0
LINE
  8
0
  6
CONTINUOUS
 62
3
 10
203.498287084541520
 20
122.999179749692300
 11
203.498287084541520
 21
112.399179749691930
  0
LINE
  8
0
  6
CONTINUOUS
 62
3
 10
167.498287084541520
 20
134.599179749691760
 11
167.098287084541430
 21
134.999179749692300
  0
LINE
  8
0
  6
CONTINUOUS
 62
3
 10
170.058094705676920
 20
133.999179749692300
 11
169.498287084541520
 21
133.849179749691760
  0
LINE
  8
0
  6
CONTINUOUS
 62
3
 10
169.498287084541520
 20
133.849179749691760
 11
168.298287084541240
 21
133.849179749691760
  0
ARC
  8
0
  6
CONTINUOUS
 62
3
 10
168.298287084541240
 20
134.649179749691940
 40
0.799999999999783
 50
183.703196634282420
 51
270.000000000000000
  0
LINE
  8
0
  6
CONTINUOUS
 62
3
 10
167.498287084541520
 20
134.599179749691760
 11
167.098287084541430
 21
134.999179749692300
  0
LINE
  8
0
  6
CONTINUOUS
 62
3
 10
170.058094705676920
 20
133.999179749692300
 11
169.498287084541520
 21
133.849179749691760
  0
LINE
  8
0
  6
CONTINUOUS
 62
3
 10
169.498287084541520
 20
133.849179749691760
 11
168.298287084541240
 21
133.849179749691760
  0
LINE
  8
0
  6
CONTINUOUS
 62
3
 10
167.498287084541520
 20
122.999179749692300
 11
167.498287084541520
 21
134.599179749691760
  0
LINE
  8
0
  6
CONTINUOUS
 62
3
 10
165.498287084541520
 20
134.999179749692300
 11
167.098287084541430
 21
134.999179749692300
  0
ARC
  8
0
  6
CONTINUOUS
 62
3
 10
203.098287084541430
 20
133.599179749691760
 40
0.400000000000091
 50
0.000000000000000
 51
90.000000000000000
  0
LINE
  8
0
  6
CONTINUOUS
 62
3
 10
203.498287084541520
 20
122.999179749692300
 11
203.498287084541520
 21
133.599179749691760
  0
LINE
  8
0
  6
CONTINUOUS
 62
3
 10
203.098287084541430
 20
133.999179749692300
 11
170.058094705676920
 21
133.999179749692300
  0
LINE
  8
0
  6
CONTINUOUS
 62
3
 10
203.098287084541430
 20
133.999179749692300
 11
170.058094705676920
 21
133.999179749692300
  0
ARC
  8
0
  6
CONTINUOUS
 62
3
 10
-199.901712915408100
 20
70.555974692446853
 40
2.600000000000136
 50
180.000000000000000
 51
234.999999999998610
  0
LINE
  8
0
  6
CONTINUOUS
 62
3
 10
-202.501712915408230
 20
122.999179749692300
 11
-202.501712915408230
 21
175.442384806937750
  0
ARC
  8
0
  6
CONTINUOUS
 62
3
 10
-199.901712915408100
 20
175.442384806937750
 40
2.599999999999721
 50
125.000000000001370
 51
180.000000000000000
  0
LINE
  8
0
  6
CONTINUOUS
 62
3
 10
-202.501712915408230
 20
122.999179749692300
 11
-202.501712915408230
 21
70.555974692446853
  0
LINE
  8
0
  6
CONTINUOUS
 62
3
 10
-17.301712915458666
 20
64.499179749692303
 11
-99.501712915479857
 21
64.499179749692303
  0
LINE
  8
0
  6
CONTINUOUS
 62
3
 10
-17.301712915458666
 20
64.499179749692303
 11
-17.301712915458666
 21
26.499179749692303
  0
ARC
  8
0
  6
CONTINUOUS
 62
3
 10
-18.301712915458666
 20
26.499179749692303
 40
1.000000000000000
 50
270.000000000000000
 51
0.000000000000000
  0
LINE
  8
0
  6
CONTINUOUS
 62
3
 10
-106.301712915458660
 20
25.499179749692303
 11
-18.301712915458666
 21
25.499179749692303
  0
ARC
  8
0
  6
CONTINUOUS
 62
3
 10
-106.301712915458660
 20
26.499179749692303
 40
1.000000000000000
 50
180.000000000000000
 51
270.000000000000000
  0
LINE
  8
0
  6
CONTINUOUS
 62
3
 10
-100.301712915458660
 20
24.999179749692303
 11
-92.301712915458666
 21
24.999179749692303
  0
LINE
  8
0
  6
CONTINUOUS
 62
3
 10
-32.301712915458666
 20
24.999179749692303
 11
-24.301712915458666
 21
24.999179749692303
  0
LINE
  8
0
  6
CONTINUOUS
 62
3
 10
-32.301712915458666
 20
25.499179749692303
 11
-32.301712915458666
 21
24.999179749692303
  0
LINE
  8
0
  6
CONTINUOUS
 62
3
 10
-24.301712915458666
 20
25.499179749692303
 11
-24.301712915458666
 21
24.999179749692303
  0
LINE
  8
0
  6
CONTINUOUS
 62
3
 10
-92.301712915458666
 20
25.499179749692303
 11
-92.301712915458666
 21
24.999179749692303
  0
LINE
  8
0
  6
CONTINUOUS
 62
3
 10
-100.301712915458660
 20
25.499179749692303
 11
-100.301712915458660
 21
24.999179749692303
  0
LINE
  8
0
  6
CONTINUOUS
 62
3
 10
-107.301712915458660
 20
59.499179749692303
 11
-17.301712915458666
 21
59.499179749692303
  0
LINE
  8
0
  6
CONTINUOUS
 62
4
 10
-99.501712915458484
 20
72.683645562916581
 11
73.998287084541516
 21
72.683645562916581
  0
LINE
  8
0
  6
CONTINUOUS
 62
3
 10
-109.501712915458250
 20
57.999179749692303
 11
-109.501712915458250
 21
58.379958832819511
  0
LINE
  8
0
  6
CONTINUOUS
 62
3
 10
-99.501712915458484
 20
182.499179749692080
 11
49.498287084541516
 21
182.499179749692080
  0
LINE
  8
0
  6
CONTINUOUS
 62
3
 10
-191.667265864899720
 20
61.616138863912511
 11
-201.393011649920710
 21
68.426179377295739
  0
LINE
  8
0
  6
CONTINUOUS
 62
3
 10
-109.501712915458250
 20
57.999179749692303
 11
-180.195737137878720
 21
57.999179749692303
  0
POLYLINE
  8
0
  6
CONTINUOUS
 62
3
 66
1
 70
1
  0
VERTEX
  8
0
  6
CONTINUOUS
 62
3
 10
-105.801712915457810
 20
71.075654717632460
  0
VERTEX
  8
0
  6
CONTINUOUS
 62
3
 10
-105.892022097562630
 20
71.778611683832821
  0
VERTEX
  8
0
  6
CONTINUOUS
 62
3
 10
-106.159479112654760
 20
72.454554408044913
  0
VERTEX
  8
0
  6
CONTINUOUS
 62
3
 10
-106.593805737635840
 20
73.077506790450315
  0
VERTEX
  8
0
  6
CONTINUOUS
 62
3
 10
-107.178311043881030
 20
73.623529120348891
  0
VERTEX
  8
0
  6
CONTINUOUS
 62
3
 10
-107.890532820265670
 20
74.071638065815506
  0
VERTEX
  8
0
  6
CONTINUOUS
 62
3
 10
-108.703100783341880
 20
74.404613051378277
  0
VERTEX
  8
0
  6
CONTINUOUS
 62
3
 10
-109.584788401981990
 20
74.609658035076521
  0
VERTEX
  8
0
  6
CONTINUOUS
 62
3
 10
-110.501712915457800
 20
74.678893253177293
  0
VERTEX
  8
0
  6
CONTINUOUS
 62
3
 10
-111.418637428933600
 20
74.609658035076521
  0
VERTEX
  8
0
  6
CONTINUOUS
 62
3
 10
-112.300325047573720
 20
74.404613051378277
  0
VERTEX
  8
0
  6
CONTINUOUS
 62
3
 10
-113.112893010649920
 20
74.071638065815506
  0
VERTEX
  8
0
  6
CONTINUOUS
 62
3
 10
-113.825114787034560
 20
73.623529120348891
  0
VERTEX
  8
0
  6
CONTINUOUS
 62
3
 10
-114.409620093279750
 20
73.077506790450315
  0
VERTEX
  8
0
  6
CONTINUOUS
 62
3
 10
-114.843946718260830
 20
72.454554408044913
  0
VERTEX
  8
0
  6
CONTINUOUS
 62
3
 10
-115.111403733352970
 20
71.778611683832821
  0
VERTEX
  8
0
  6
CONTINUOUS
 62
3
 10
-115.201712915457790
 20
71.075654717632460
  0
VERTEX
  8
0
  6
CONTINUOUS
 62
3
 10
-115.111403733352970
 20
70.372697751432099
  0
VERTEX
  8
0
  6
CONTINUOUS
 62
3
 10
-114.843946718260830
 20
69.696755027220007
  0
VERTEX
  8
0
  6
CONTINUOUS
 62
3
 10
-114.409620093279750
 20
69.073802644814606
  0
VERTEX
  8
0
  6
CONTINUOUS
 62
3
 10
-113.825114787034560
 20
68.527780314916029
  0
VERTEX
  8
0
  6
CONTINUOUS
 62
3
 10
-113.112893010649920
 20
68.079671369449414
  0
VERTEX
  8
0
  6
CONTINUOUS
 62
3
 10
-112.300325047573720
 20
67.746696383886643
  0
VERTEX
  8
0
  6
CONTINUOUS
 62
3
 10
-111.418637428933600
 20
67.541651400188400
  0
VERTEX
  8
0
  6
CONTINUOUS
 62
3
 10
-110.501712915457800
 20
67.472416182087628
  0
VERTEX
  8
0
  6
CONTINUOUS
 62
3
 10
-109.584788401981990
 20
67.541651400188400
  0
VERTEX
  8
0
  6
CONTINUOUS
 62
3
 10
-108.703100783341880
 20
67.746696383886643
  0
VERTEX
  8
0
  6
CONTINUOUS
 62
3
 10
-107.890532820265670
 20
68.079671369449414
  0
VERTEX
  8
0
  6
CONTINUOUS
 62
3
 10
-107.178311043881030
 20
68.527780314916029
  0
VERTEX
  8
0
  6
CONTINUOUS
 62
3
 10
-106.593805737635840
 20
69.073802644814606
  0
VERTEX
  8
0
  6
CONTINUOUS
 62
3
 10
-106.159479112654760
 20
69.696755027220007
  0
VERTEX
  8
0
  6
CONTINUOUS
 62
3
 10
-105.892022097562630
 20
70.372697751432099
  0
SEQEND
  8
0
  6
CONTINUOUS
 62
3
  0
LINE
  8
0
  6
CONTINUOUS
 62
3
 10
-112.501712915457800
 20
68.083279163632142
 11
-110.501712915457800
 21
69.259064649254469
  0
LINE
  8
0
  6
CONTINUOUS
 62
3
 10
-110.501712915457800
 20
69.259064649254469
 11
-108.501712915457800
 21
70.911706288377900
  0
ARC
  8
0
  6
CONTINUOUS
 62
3
 10
-180.195737137878720
 20
77.999179749692303
 40
20.000000000000007
 50
234.999999999999740
 51
270.000000000000000
  0
LINE
  8
0
  6
CONTINUOUS
 62
3
 10
-17.301712915458666
 20
63.499179749692303
 11
49.498287084541516
 21
63.499179749692303
  0
LINE
  8
0
  6
CONTINUOUS
 62
3
 10
-108.501712915457800
 20
68.083279163632142
 11
-110.501712915457800
 21
69.259064649254469
  0
LINE
  8
0
  6
CONTINUOUS
 62
3
 10
-110.501712915457800
 20
69.259064649254469
 11
-112.501712915457800
 21
70.911706288377900
  0
POLYLINE
  8
0
  6
CONTINUOUS
 62
3
 66
1
 70
1
  0
VERTEX
  8
0
  6
CONTINUOUS
 62
3
 10
-105.801712915457810
 20
174.922704781752370
  0
VERTEX
  8
0
  6
CONTINUOUS
 62
3
 10
-105.892022097562630
 20
175.625661747952730
  0
VERTEX
  8
0
  6
CONTINUOUS
 62
3
 10
-106.159479112654760
 20
176.301604472164830
  0
VERTEX
  8
0
  6
CONTINUOUS
 62
3
 10
-106.593805737635840
 20
176.924556854570230
  0
VERTEX
  8
0
  6
CONTINUOUS
 62
3
 10
-107.178311043881030
 20
177.470579184468820
  0
VERTEX
  8
0
  6
CONTINUOUS
 62
3
 10
-107.890532820265670
 20
177.918688129935450
  0
VERTEX
  8
0
  6
CONTINUOUS
 62
3
 10
-108.703100783341880
 20
178.251663115498190
  0
VERTEX
  8
0
  6
CONTINUOUS
 62
3
 10
-109.584788401981990
 20
178.456708099196450
  0
VERTEX
  8
0
  6
CONTINUOUS
 62
3
 10
-110.501712915457800
 20
178.525943317297220
  0
VERTEX
  8
0
  6
CONTINUOUS
 62
3
 10
-111.418637428933600
 20
178.456708099196450
  0
VERTEX
  8
0
  6
CONTINUOUS
 62
3
 10
-112.300325047573720
 20
178.251663115498190
  0
VERTEX
  8
0
  6
CONTINUOUS
 62
3
 10
-113.112893010649920
 20
177.918688129935450
  0
VERTEX
  8
0
  6
CONTINUOUS
 62
3
 10
-113.825114787034560
 20
177.470579184468820
  0
VERTEX
  8
0
  6
CONTINUOUS
 62
3
 10
-114.409620093279750
 20
176.924556854570230
  0
VERTEX
  8
0
  6
CONTINUOUS
 62
3
 10
-114.843946718260830
 20
176.301604472164830
  0
VERTEX
  8
0
  6
CONTINUOUS
 62
3
 10
-115.111403733352970
 20
175.625661747952730
  0
VERTEX
  8
0
  6
CONTINUOUS
 62
3
 10
-115.201712915457790
 20
174.922704781752370
  0
VERTEX
  8
0
  6
CONTINUOUS
 62
3
 10
-115.111403733352970
 20
174.219747815552010
  0
VERTEX
  8
0
  6
CONTINUOUS
 62
3
 10
-114.843946718260830
 20
173.543805091339920
  0
VERTEX
  8
0
  6
CONTINUOUS
 62
3
 10
-114.409620093279750
 20
172.920852708934520
  0
VERTEX
  8
0
  6
CONTINUOUS
 62
3
 10
-113.825114787034560
 20
172.374830379035930
  0
VERTEX
  8
0
  6
CONTINUOUS
 62
3
 10
-113.112893010649920
 20
171.926721433569300
  0
VERTEX
  8
0
  6
CONTINUOUS
 62
3
 10
-112.300325047573720
 20
171.593746448006560
  0
VERTEX
  8
0
  6
CONTINUOUS
 62
3
 10
-111.418637428933600
 20
171.388701464308300
  0
VERTEX
  8
0
  6
CONTINUOUS
 62
3
 10
-110.501712915457800
 20
171.319466246207530
  0
VERTEX
  8
0
  6
CONTINUOUS
 62
3
 10
-109.584788401981990
 20
171.388701464308300
  0
VERTEX
  8
0
  6
CONTINUOUS
 62
3
 10
-108.703100783341880
 20
171.593746448006560
  0
VERTEX
  8
0
  6
CONTINUOUS
 62
3
 10
-107.890532820265670
 20
171.926721433569300
  0
VERTEX
  8
0
  6
CONTINUOUS
 62
3
 10
-107.178311043881030
 20
172.374830379035930
  0
VERTEX
  8
0
  6
CONTINUOUS
 62
3
 10
-106.593805737635840
 20
172.920852708934520
  0
VERTEX
  8
0
  6
CONTINUOUS
 62
3
 10
-106.159479112654760
 20
173.543805091339920
  0
VERTEX
  8
0
  6
CONTINUOUS
 62
3
 10
-105.892022097562630
 20
174.219747815552010
  0
SEQEND
  8
0
  6
CONTINUOUS
 62
3
  0
LINE
  8
0
  6
CONTINUOUS
 62
3
 10
-112.501712915457800
 20
177.915080335752690
 11
-110.501712915457800
 21
176.739294850129910
  0
LINE
  8
0
  6
CONTINUOUS
 62
3
 10
-110.501712915457800
 20
176.739294850129910
 11
-108.501712915457800
 21
175.086653211006480
  0
LINE
  8
0
  6
CONTINUOUS
 62
3
 10
-108.501712915457800
 20
177.915080335752690
 11
-110.501712915457800
 21
176.739294850129910
  0
LINE
  8
0
  6
CONTINUOUS
 62
3
 10
-110.501712915457800
 20
176.739294850129910
 11
-112.501712915457800
 21
175.086653211006480
  0
LINE
  8
0
  6
CONTINUOUS
 62
4
 10
-99.501712915458484
 20
65.999179749692303
 11
54.046135476908006
 21
65.999179749692303
  0
LINE
  8
0
  6
CONTINUOUS
 62
4
 10
-99.501712915458484
 20
66.999179749692303
 11
54.798439944367715
 21
66.999179749692303
  0
LINE
  8
0
  6
CONTINUOUS
 62
4
 10
-99.501712915458484
 20
67.999179749692303
 11
55.783403743491561
 21
67.999179749692303
  0
LINE
  8
0
  6
CONTINUOUS
 62
4
 10
-99.501712915458484
 20
77.633393031222340
 11
73.998287084541516
 21
77.633393031222340
  0
LINE
  8
0
  6
CONTINUOUS
 62
4
 10
-99.501712915458484
 20
85.679994693956360
 11
70.998287084541516
 21
85.679994693956360
  0
LINE
  8
0
  6
CONTINUOUS
 62
4
 10
-99.501712915458484
 20
87.284642609518414
 11
70.998287084541516
 21
87.284642609518414
  0
LINE
  8
0
  6
CONTINUOUS
 62
4
 10
-99.501712915458484
 20
91.248388033317951
 11
70.998287084541516
 21
91.248388033317951
  0
LINE
  8
0
  6
CONTINUOUS
 62
4
 10
-99.501712915458484
 20
92.716745423122575
 11
70.998287084541516
 21
92.716745423122575
  0
LINE
  8
0
  6
CONTINUOUS
 62
4
 10
-99.501712915458484
 20
96.807245957212444
 11
73.998287084541516
 21
96.807245957212444
  0
LINE
  8
0
  6
CONTINUOUS
 62
4
 10
-99.501712915458484
 20
98.169126292561714
 11
73.998287084541516
 21
98.169126292561714
  0
LINE
  8
0
  6
CONTINUOUS
 62
4
 10
-99.501712915458484
 20
102.359680024103900
 11
73.998287084541516
 21
102.359680024103900
  0
LINE
  8
0
  6
CONTINUOUS
 62
4
 10
-99.501712915458484
 20
103.625917940191130
 11
73.998287084541516
 21
103.625917940191130
  0
LINE
  8
0
  6
CONTINUOUS
 62
4
 10
-99.501712915458484
 20
107.999179749692300
 11
73.998287084541516
 21
107.999179749692300
  0
LINE
  8
0
  6
CONTINUOUS
 62
4
 10
-99.501712915458484
 20
160.318364805428250
 11
70.998287084541516
 21
160.318364805428250
  0
LINE
  8
0
  6
CONTINUOUS
 62
4
 10
-99.501712915458484
 20
158.713716889866190
 11
70.998287084541516
 21
158.713716889866190
  0
LINE
  8
0
  6
CONTINUOUS
 62
4
 10
-99.501712915458484
 20
154.749971466066650
 11
70.998287084541516
 21
154.749971466066650
  0
LINE
  8
0
  6
CONTINUOUS
 62
4
 10
-99.501712915458484
 20
153.281614076262030
 11
70.998287084541516
 21
153.281614076262030
  0
LINE
  8
0
  6
CONTINUOUS
 62
4
 10
-99.501712915458484
 20
149.191113542172160
 11
73.998287084541516
 21
149.191113542172160
  0
LINE
  8
0
  6
CONTINUOUS
 62
4
 10
-99.501712915458484
 20
147.829233206822890
 11
73.998287084541516
 21
147.829233206822890
  0
LINE
  8
0
  6
CONTINUOUS
 62
4
 10
-99.501712915458484
 20
143.638679475280700
 11
73.998287084541516
 21
143.638679475280700
  0
LINE
  8
0
  6
CONTINUOUS
 62
4
 10
-99.501712915458484
 20
142.372441559193480
 11
73.998287084541516
 21
142.372441559193480
  0
LINE
  8
0
  6
CONTINUOUS
 62
4
 10
-99.501712915458484
 20
137.999179749692300
 11
73.998287084541516
 21
137.999179749692300
  0
LINE
  8
0
  6
CONTINUOUS
 62
4
 10
-99.501712915458484
 20
168.364966468162270
 11
73.998287084541516
 21
168.364966468162270
  0
LINE
  8
0
  6
CONTINUOUS
 62
4
 10
-99.501712915458484
 20
173.314713936468020
 11
73.998287084541516
 21
173.314713936468020
  0
LINE
  8
0
  6
CONTINUOUS
 62
3
 10
-99.501712915458484
 20
122.999179749692300
 11
-99.501712915458484
 21
187.999179749692300
  0
LINE
  8
0
  6
CONTINUOUS
 62
4
 10
-99.501712915458484
 20
177.999179749692300
 11
55.783403743491561
 21
177.999179749692300
  0
LINE
  8
0
  6
CONTINUOUS
 62
4
 10
-99.501712915458484
 20
178.999179749692300
 11
54.798439944367715
 21
178.999179749692300
  0
LINE
  8
0
  6
CONTINUOUS
 62
4
 10
-99.501712915458484
 20
179.999179749692300
 11
54.046135476908006
 21
179.999179749692300
  0
LINE
  8
0
  6
CONTINUOUS
 62
3
 10
-32.501712915458484
 20
182.499179749692300
 11
49.498287084541516
 21
182.499179749692300
  0
LINE
  8
0
  6
CONTINUOUS
 62
3
 10
49.498287084541516
 20
182.499179749692080
 11
49.498287084541516
 21
122.999179749692300
  0
LINE
  8
0
  6
CONTINUOUS
 62
3
 10
-99.501712915458484
 20
187.999179749692300
 11
-180.195737137878720
 21
187.999179749692300
  0
ARC
  8
0
  6
CONTINUOUS
 62
3
 10
-180.195737137878720
 20
167.999179749692300
 40
20.000000000000000
 50
90.000000000000000
 51
125.000000000000240
  0
LINE
  8
0
  6
CONTINUOUS
 62
3
 10
-191.667265864899720
 20
184.382220635472090
 11
-201.393011649920710
 21
177.572180122088870
  0
ARC
  8
0
  6
CONTINUOUS
 62
3
 10
-102.501712915458480
 20
64.379958832819511
 40
3.000000000000000
 50
270.000000000000000
 51
0.000000000000000
  0
ARC
  8
0
  6
CONTINUOUS
 62
3
 10
-106.501712915458250
 20
58.379958832819511
 40
3.000000000000000
 50
90.000000000000000
 51
180.000000000000000
  0
LINE
  8
0
  6
CONTINUOUS
 62
3
 10
-99.501712915458484
 20
122.999179749692300
 11
-99.501712915458484
 21
64.379958832819511
  0
LINE
  8
0
  6
CONTINUOUS
 62
3
 10
49.498287084541516
 20
63.499179749692303
 11
49.498287084541516
 21
122.999179749692300
  0
LINE
  8
0
  6
CONTINUOUS
 62
3
 10
-106.501712915458250
 20
61.379958832819511
 11
-102.501712915458480
 21
61.379958832819511
  0
ARC
  8
0
  6
CONTINUOUS
 62
3
 10
25.998287084541516
 20
206.002049370273080
 40
2.000000000000000
 50
270.000000000000000
 51
0.000000000000000
  0
ARC
  8
0
  6
CONTINUOUS
 62
3
 10
25.998287084541516
 20
206.801051241391970
 40
2.000000000000000
 50
270.000000000000000
 51
0.000000000000000
  0
ARC
  8
0
  6
CONTINUOUS
 62
3
 10
25.998287084541516
 20
207.600053112477210
 40
2.000000000000000
 50
270.000000000000000
 51
0.000000000000000
  0
ARC
  8
0
  6
CONTINUOUS
 62
3
 10
25.998287084541516
 20
208.693690040754400
 40
2.000000000000000
 50
0.000000000000000
 51
90.000000000000000
  0
LINE
  8
0
  6
CONTINUOUS
 62
3
 10
24.998287084541516
 20
210.693690040754400
 11
25.998287084541516
 21
210.693690040754400
  0
LINE
  8
0
  6
CONTINUOUS
 62
3
 10
25.998287084541516
 20
204.002049370273080
 11
-100.001712915458480
 21
204.002049370273080
  0
LINE
  8
0
  6
CONTINUOUS
 62
3
 10
25.998287084541516
 20
204.801051241375150
 11
-100.001712915458480
 21
204.801051241375150
  0
LINE
  8
0
  6
CONTINUOUS
 62
3
 10
27.998287084541516
 20
208.693690040754400
 11
27.998287084541516
 21
206.002049370273080
  0
LINE
  8
0
  6
CONTINUOUS
 62
3
 10
24.998287084541516
 20
192.499179749692080
 11
24.998287084541516
 21
203.801051241391970
  0
LINE
  8
0
  6
CONTINUOUS
 62
3
 10
-94.001712915458484
 20
229.099179749692100
 11
19.998287084541516
 21
229.099179749692100
  0
ARC
  8
0
  6
CONTINUOUS
 62
3
 10
19.998287084541516
 20
224.099179749692100
 40
5.000000000000000
 50
0.000000000000000
 51
90.000000000000000
  0
LINE
  8
0
  6
CONTINUOUS
 62
3
 10
-99.001712915458484
 20
192.499179749692080
 11
-99.001712915458484
 21
204.002049370273080
  0
ARC
  8
0
  6
CONTINUOUS
 62
3
 10
-100.001712915458480
 20
206.002049370273080
 40
2.000000000000000
 50
180.000000000000000
 51
270.000000000000000
  0
LINE
  8
0
  6
CONTINUOUS
 62
3
 10
-102.001712915458480
 20
208.693690040754400
 11
-102.001712915458480
 21
206.002049370273080
  0
ARC
  8
0
  6
CONTINUOUS
 62
3
 10
-100.001712915458480
 20
206.801051241391970
 40
2.000000000000000
 50
180.000000000000000
 51
270.000000000000000
  0
ARC
  8
0
  6
CONTINUOUS
 62
3
 10
-100.001712915458480
 20
207.600053112477210
 40
2.000000000000000
 50
180.000000000000000
 51
270.000000000000000
  0
ARC
  8
0
  6
CONTINUOUS
 62
3
 10
-100.001712915458480
 20
208.693690040754400
 40
2.000000000000000
 50
90.000000000000000
 51
180.000000000000000
  0
ARC
  8
0
  6
CONTINUOUS
 62
3
 10
-94.001712915458484
 20
224.099179749692100
 40
5.000000000000000
 50
90.000000000000000
 51
180.000000000000000
  0
LINE
  8
0
  6
CONTINUOUS
 62
3
 10
25.998287084541516
 20
205.600053112477210
 11
-100.001712915458480
 21
205.600053112477210
  0
LINE
  8
0
  6
CONTINUOUS
 62
3
 10
-99.001712915458484
 20
210.693690040754400
 11
-100.001712915458480
 21
210.693690040754400
  0
LINE
  8
0
  6
CONTINUOUS
 62
3
 10
-99.001712915458484
 20
211.160204809379020
 11
-99.001712915458484
 21
224.099179749692100
  0
LINE
  8
0
  6
CONTINUOUS
 62
3
 10
24.998287084541516
 20
211.160204809379020
 11
24.998287084541516
 21
224.099179749692100
  0
POLYLINE
  8
0
  6
CONTINUOUS
 62
3
 66
1
  0
VERTEX
  8
0
  6
CONTINUOUS
 62
3
 10
-95.501712915458484
 20
205.849741197196980
  0
VERTEX
  8
0
  6
CONTINUOUS
 62
3
 10
-95.434461396869793
 20
205.815642987000980
  0
VERTEX
  8
0
  6
CONTINUOUS
 62
3
 10
-95.235291279247988
 20
205.782855151900350
  0
VERTEX
  8
0
  6
CONTINUOUS
 62
3
 10
-94.911856558517385
 20
205.752637710010330
  0
VERTEX
  8
0
  6
CONTINUOUS
 62
3
 10
-94.476586649611406
 20
205.726151900676630
  0
VERTEX
  8
0
  6
CONTINUOUS
 62
3
 10
-93.946208731027099
 20
205.704415558698540
  0
VERTEX
  8
0
  6
CONTINUOUS
 62
3
 10
-93.341104928736300
 20
205.688263999508370
  0
VERTEX
  8
0
  6
CONTINUOUS
 62
3
 10
-92.684529042514939
 20
205.678317918467910
  0
VERTEX
  8
0
  6
CONTINUOUS
 62
3
 10
-92.001712915458484
 20
205.674959537893760
  0
VERTEX
  8
0
  6
CONTINUOUS
 62
3
 10
-91.318896788402043
 20
205.678317918467910
  0
VERTEX
  8
0
  6
CONTINUOUS
 62
3
 10
-90.662320902180667
 20
205.688263999508370
  0
VERTEX
  8
0
  6
CONTINUOUS
 62
3
 10
-90.057217099889883
 20
205.704415558698540
  0
VERTEX
  8
0
  6
CONTINUOUS
 62
3
 10
-89.526839181305576
 20
205.726151900676630
  0
VERTEX
  8
0
  6
CONTINUOUS
 62
3
 10
-89.091569272399582
 20
205.752637710010330
  0
VERTEX
  8
0
  6
CONTINUOUS
 62
3
 10
-88.768134551668979
 20
205.782855151900350
  0
VERTEX
  8
0
  6
CONTINUOUS
 62
3
 10
-88.568964434047174
 20
205.815642987000980
  0
VERTEX
  8
0
  6
CONTINUOUS
 62
3
 10
-88.501712915458484
 20
205.849741197196980
  0
SEQEND
  8
0
  6
CONTINUOUS
 62
3
  0
ARC
  8
0
  6
CONTINUOUS
 62
3
 10
-89.801712915458666
 20
206.836750935121360
 40
1.300000000000182
 50
0.000000000000000
 51
73.398450400977637
  0
ARC
  8
0
  6
CONTINUOUS
 62
3
 10
-92.001712915458484
 20
199.457726609371780
 40
9.000000000000233
 50
73.398450400981076
 51
106.601549599018900
  0
ARC
  8
0
  6
CONTINUOUS
 62
3
 10
-94.201712915458302
 20
206.836750935121360
 40
1.300000000000019
 50
106.601549599022360
 51
180.000000000000000
  0
LINE
  8
0
  6
CONTINUOUS
 62
3
 10
-88.501712915458484
 20
206.836750935121360
 11
-88.501712915458484
 21
205.849741197196980
  0
LINE
  8
0
  6
CONTINUOUS
 62
3
 10
-95.501712915458484
 20
206.836750935121360
 11
-95.501712915458484
 21
205.849741197196980
  0
ARC
  8
0
  6
CONTINUOUS
 62
3
 10
-94.001712915458484
 20
211.160204809379020
 40
5.000000000000000
 50
180.000000000000000
 51
252.542396876278160
  0
LINE
  8
0
  6
CONTINUOUS
 62
3
 10
14.498287084541516
 20
206.836750935121360
 11
14.498287084541516
 21
205.849741197196980
  0
POLYLINE
  8
0
  6
CONTINUOUS
 62
3
 66
1
  0
VERTEX
  8
0
  6
CONTINUOUS
 62
3
 10
14.498287084541516
 20
205.849741197196980
  0
VERTEX
  8
0
  6
CONTINUOUS
 62
3
 10
14.565538603130211
 20
205.815642987000980
  0
VERTEX
  8
0
  6
CONTINUOUS
 62
3
 10
14.764708720752013
 20
205.782855151900350
  0
VERTEX
  8
0
  6
CONTINUOUS
 62
3
 10
15.088143441482607
 20
205.752637710010330
  0
VERTEX
  8
0
  6
CONTINUOUS
 62
3
 10
15.523413350388600
 20
205.726151900676630
  0
VERTEX
  8
0
  6
CONTINUOUS
 62
3
 10
16.053791268972908
 20
205.704415558698540
  0
VERTEX
  8
0
  6
CONTINUOUS
 62
3
 10
16.658895071263700
 20
205.688263999508370
  0
VERTEX
  8
0
  6
CONTINUOUS
 62
3
 10
17.315470957485068
 20
205.678317918467910
  0
VERTEX
  8
0
  6
CONTINUOUS
 62
3
 10
17.998287084541516
 20
205.674959537893760
  0
VERTEX
  8
0
  6
CONTINUOUS
 62
3
 10
18.681103211597964
 20
205.678317918467910
  0
VERTEX
  8
0
  6
CONTINUOUS
 62
3
 10
19.337679097819329
 20
205.688263999508370
  0
VERTEX
  8
0
  6
CONTINUOUS
 62
3
 10
19.942782900110121
 20
205.704415558698540
  0
VERTEX
  8
0
  6
CONTINUOUS
 62
3
 10
20.473160818694431
 20
205.726151900676630
  0
VERTEX
  8
0
  6
CONTINUOUS
 62
3
 10
20.908430727600422
 20
205.752637710010330
  0
VERTEX
  8
0
  6
CONTINUOUS
 62
3
 10
21.231865448331018
 20
205.782855151900350
  0
VERTEX
  8
0
  6
CONTINUOUS
 62
3
 10
21.431035565952822
 20
205.815642987000980
  0
VERTEX
  8
0
  6
CONTINUOUS
 62
3
 10
21.498287084541513
 20
205.849741197196980
  0
SEQEND
  8
0
  6
CONTINUOUS
 62
3
  0
LINE
  8
0
  6
CONTINUOUS
 62
3
 10
21.498287084541516
 20
206.836750935121360
 11
21.498287084541516
 21
205.849741197196980
  0
ARC
  8
0
  6
CONTINUOUS
 62
3
 10
15.798287084541698
 20
206.836750935121360
 40
1.300000000000019
 50
106.601549599022360
 51
180.000000000000000
  0
ARC
  8
0
  6
CONTINUOUS
 62
3
 10
17.998287084541516
 20
199.457726609371780
 40
9.000000000000233
 50
73.398450400981076
 51
106.601549599018900
  0
ARC
  8
0
  6
CONTINUOUS
 62
3
 10
20.198287084541334
 20
206.836750935121360
 40
1.300000000000182
 50
0.000000000000000
 51
73.398450400977637
  0
ARC
  8
0
  6
CONTINUOUS
 62
3
 10
19.998287084541516
 20
211.160204809379020
 40
5.000000000000072
 50
287.457603123721870
 51
0.000000000000000
  0
LINE
  8
0
  6
CONTINUOUS
 62
3
 10
14.498287084541516
 20
206.160204809379020
 11
-88.501712915458484
 21
206.160204809379020
  0
LINE
  8
0
  6
CONTINUOUS
 62
3
 10
-99.001712915458484
 20
187.499179749692080
 11
24.998287084541516
 21
187.499179749692080
  0
LINE
  8
0
  6
DASHDOT
 62
3
 10
24.998287084541516
 20
182.499179749692080
 11
24.998287084541516
 21
187.499179749692080
  0
ARC
  8
0
  6
CONTINUOUS
 62
3
 10
19.998287084541516
 20
192.499179749692080
 40
5.000000000000000
 50
270.000000000000000
 51
0.000000000000000
  0
LINE
  8
0
  6
DASHDOT
 62
3
 10
24.998287084541516
 20
182.499179749692080
 11
24.998287084541516
 21
187.499179749692080
  0
LINE
  8
0
  6
CONTINUOUS
 62
3
 10
-99.001712915458484
 20
182.499179749692080
 11
-99.001712915458484
 21
187.499179749692080
  0
ARC
  8
0
  6
CONTINUOUS
 62
3
 10
-94.001712915458484
 20
192.499179749692080
 40
5.000000000000000
 50
180.000000000000000
 51
270.000000000000000
  0
LINE
  8
0
  6
DASHDOT
 62
4
 10
-95.301712915458666
 20
30.499179749692303
 11
-95.301712915458666
 21
57.500779072242040
  0
LINE
  8
0
  6
DASHDOT
 62
4
 10
-86.301712915458666
 20
39.499179749692303
 11
-104.301712915458660
 21
39.499179749692303
  0
LINE
  8
0
  6
CONTINUOUS
 62
3
 10
-107.301712915458660
 20
61.271325291779590
 11
-107.301712915458660
 21
26.499179749692303
  0
CIRCLE
  8
0
  6
DASHED
 62
4
 10
-95.301712915458666
 20
39.499179749692303
 40
6.000000000000000
  0
ARC
  8
0
  6
DASHED
 62
4
 10
-95.301712915458666
 20
39.499179749692303
 40
7.000000000000000
 50
180.000000000000000
 51
0.000000000000000
  0
LINE
  8
0
  6
DASHED
 62
4
 10
-88.301712915458666
 20
59.499179749692303
 11
-88.301712915458666
 21
39.499179749692303
  0
LINE
  8
0
  6
DASHED
 62
4
 10
-102.301712915458660
 20
59.499179749692303
 11
-102.301712915458660
 21
39.499179749692303
  0
LINE
  8
0
  6
DASHDOT
 62
4
 10
217.907682596976880
 20
122.999179749692300
 11
-226.151284814546670
 21
122.999179749692300
  0
LINE
  8
0
  6
CONTINUOUS
 62
3
 10
48.498287084541516
 20
52.425122239998018
 11
48.498287084541516
 21
63.499179749692303
  0
LINE
  8
0
  6
CONTINUOUS
 62
3
 10
48.498287084541516
 20
193.573237259385680
 11
48.498287084541516
 21
182.499179749692080
  0
LINE
  8
0
  6
DASHDOT
 62
4
 10
60.498287084541516
 20
194.875829631313540
 11
60.498287084541516
 21
176.273021592744040
  0
LINE
  8
0
  6
DASHDOT
 62
4
 10
69.443111010426946
 20
185.499179749692300
 11
51.006681381955786
 21
185.499179749692300
  0
LINE
  8
0
  6
DASHDOT
 62
4
 10
69.181243022747367
 20
60.499179749691393
 11
51.006681381955786
 21
60.499179749691393
  0
LINE
  8
0
  6
DASHDOT
 62
4
 10
60.498287084541516
 20
51.456618981392239
 11
60.498287084541516
 21
69.306988416199601
  0
LINE
  8
0
  6
DASHDOT
 62
4
 10
153.498287084541520
 20
51.322044115117023
 11
153.498287084541520
 21
69.691255385987461
  0
LINE
  8
0
  6
DASHDOT
 62
4
 10
153.498287084541520
 20
194.376922268416820
 11
153.498287084541520
 21
175.440160327791090
  0
ARC
  8
0
  6
CONTINUOUS
 62
3
 10
253.281056145564430
 20
-81.821706679060298
 40
5.000000000000000
 50
90.000000000000000
 51
173.967950853630950
  0
LINE
  8
0
  6
CONTINUOUS
 62
3
 10
278.088923363232420
 20
-76.821706679060298
 11
253.281056145564430
 21
-76.821706679060298
  0
LINE
  8
0
  6
CONTINUOUS
 62
3
 10
273.647720918506820
 20
-148.821706679060300
 11
253.281056145564430
 21
-148.821706679060300
  0
ARC
  8
0
  6
CONTINUOUS
 62
3
 10
253.281056145564430
 20
-143.821706679060300
 40
5.000000000000143
 50
186.032049146370330
 51
270.000000000000000
  0
LINE
  8
0
  6
CONTINUOUS
 62
3
 10
330.647720918506820
 20
-89.821706679060298
 11
336.647720918506820
 21
-89.821706679060298
  0
LINE
  8
0
  6
CONTINUOUS
 62
3
 10
344.147720918506820
 20
-175.821706679060300
 11
377.533342640845600
 21
-175.821706679060300
  0
ARC
  8
0
  6
CONTINUOUS
 62
3
 10
384.147720918506820
 20
-171.321706679060300
 40
7.999999999999785
 50
214.228866327813620
 51
223.432536557791050
  0
LINE
  8
0
  6
CONTINUOUS
 62
3
 10
378.338245899195950
 20
-176.821706679060300
 11
391.647720918506820
 21
-176.821706679060300
  0
LINE
  8
0
  6
CONTINUOUS
 62
3
 10
344.147720918506820
 20
-175.821706679060300
 11
310.762099196168490
 21
-175.821706679060300
  0
ARC
  8
0
  6
CONTINUOUS
 62
3
 10
304.147720918507280
 20
-171.321706679060300
 40
7.999999999999812
 50
316.567463442208920
 51
325.771133672186410
  0
ARC
  8
0
  6
CONTINUOUS
 62
3
 10
296.647720918506820
 20
-177.821706679060300
 40
1.000000000000000
 50
90.000000000000000
 51
180.000000000000000
  0
LINE
  8
0
  6
CONTINUOUS
 62
3
 10
309.957195937818140
 20
-176.821706679060300
 11
296.647720918506820
 21
-176.821706679060300
  0
LINE
  8
0
  6
CONTINUOUS
 62
3
 10
295.647720918506820
 20
-177.821706679060300
 11
271.647720918506820
 21
-177.821706679060300
  0
CIRCLE
  8
0
  6
CONTINUOUS
 62
3
 10
344.147720918506820
 20
-92.821706679060298
 40
19.000000000000000
  0
ARC
  8
0
  6
CONTINUOUS
 62
3
 10
344.147720918506820
 20
-92.821706679060298
 40
22.000000000000011
 50
38.816131624158764
 51
78.293519882306597
  0
LINE
  8
0
  6
CONTINUOUS
 62
3
 10
392.647720918506820
 20
-177.821706679060300
 11
416.647720918507280
 21
-177.821706679060300
  0
ARC
  8
0
  6
CONTINUOUS
 62
3
 10
391.647720918506820
 20
-177.821706679060300
 40
1.000000000000000
 50
0.000000000000000
 51
90.000000000000000
  0
LINE
  8
0
  6
CONTINUOUS
 62
3
 10
344.147720918506820
 20
-175.821706679060300
 11
375.147720918506820
 21
-175.821706679060300
  0
ARC
  8
0
  6
CONTINUOUS
 62
3
 10
411.943834439220150
 20
-159.821706679060300
 40
3.000000000000000
 50
180.000000000000000
 51
270.000000000000000
  0
ARC
  8
0
  6
CONTINUOUS
 62
3
 10
396.473170269225190
 20
-159.821706679060300
 40
3.000000000000000
 50
180.000000000000000
 51
270.000000000000000
  0
ARC
  8
0
  6
CONTINUOUS
 62
3
 10
291.822271567788900
 20
-159.821706679060300
 40
3.000000000000000
 50
270.000000000000000
 51
0.000000000000000
  0
ARC
  8
0
  6
CONTINUOUS
 62
3
 10
276.351607397793490
 20
-159.821706679060300
 40
3.000000000000000
 50
270.000000000000000
 51
0.000000000000000
  0
ARC
  8
0
  6
CONTINUOUS
 62
3
 10
344.147720918506820
 20
-92.821706679060298
 40
22.000000000000171
 50
74.570234885459982
 51
40.667845852653031
  0
ARC
  8
0
  6
CONTINUOUS
 62
3
 10
417.647720918506820
 20
-161.349570724060870
 40
3.000000000000000
 50
180.000000000000000
 51
228.189685104226240
  0
ARC
  8
0
  6
CONTINUOUS
 62
3
 10
413.647720918506820
 20
-165.821706679060300
 40
3.000000000000000
 50
0.000000000000000
 51
90.000000000000000
  0
ARC
  8
0
  6
CONTINUOUS
 62
3
 10
344.147720918506820
 20
-446.821706679060300
 40
399.999999999999720
 50
86.642182578429299
 51
90.000000000000000
  0
ARC
  8
0
  6
CONTINUOUS
 62
3
 10
364.647720918506820
 20
-97.422579605165083
 40
50.000000000000000
 50
0.000000000000000
 51
86.642182578429143
  0
ARC
  8
0
  6
CONTINUOUS
 62
3
 10
344.147720918506820
 20
-446.821706679060300
 40
376.652999999999510
 50
86.642182578429285
 51
90.000000000000000
  0
ARC
  8
0
  6
CONTINUOUS
 62
3
 10
364.647720918506820
 20
-97.422579605165083
 40
26.653000000000247
 50
0.000000000000000
 51
86.642182578428859
  0
ARC
  8
0
  6
CONTINUOUS
 62
3
 10
394.300720918507070
 20
-159.821706679060300
 40
3.000000000000000
 50
180.000000000000000
 51
270.000000000000000
  0
ARC
  8
0
  6
CONTINUOUS
 62
3
 10
293.994720918507030
 20
-159.821706679060300
 40
3.000000000000000
 50
270.000000000000000
 51
0.000000000000000
  0
ARC
  8
0
  6
CONTINUOUS
 62
3
 10
323.647720918506820
 20
-97.422579605165083
 40
26.652999999999526
 50
93.357817421571141
 51
180.000000000000000
  0
ARC
  8
0
  6
CONTINUOUS
 62
3
 10
344.147720918506820
 20
-446.821706679060300
 40
376.652999999999340
 50
90.000000000000000
 51
93.357817421570715
  0
ARC
  8
0
  6
CONTINUOUS
 62
3
 10
270.647720918506820
 20
-161.349570724060870
 40
3.000000000000284
 50
311.810314895773730
 51
0.000000000000000
  0
ARC
  8
0
  6
CONTINUOUS
 62
3
 10
274.647720918506820
 20
-165.821706679060300
 40
3.000000000000000
 50
90.000000000000000
 51
180.000000000000000
  0
ARC
  8
0
  6
CONTINUOUS
 62
3
 10
296.647720918506820
 20
-177.821706679060300
 40
1.000000000000000
 50
90.000000000000000
 51
180.000000000000000
  0
ARC
  8
0
  6
CONTINUOUS
 62
3
 10
344.147720918506820
 20
-446.821706679060300
 40
400.000000000000000
 50
90.000000000000000
 51
93.357817421570701
  0
ARC
  8
0
  6
CONTINUOUS
 62
3
 10
323.647720918506820
 20
-97.422579605165083
 40
49.999999999999744
 50
93.357817421570857
 51
180.000000000000000
  0
ARC
  8
0
  6
CONTINUOUS
 62
3
 10
344.147720918507280
 20
-92.821706679060298
 40
27.000000000000338
 50
183.954572122090720
 51
356.045427877909220
  0
ARC
  8
0
  6
CONTINUOUS
 62
3
 10
381.147720918506820
 20
-152.821706679060300
 40
5.000000000000000
 50
270.000000000000000
 51
0.000000000000000
  0
ARC
  8
0
  6
CONTINUOUS
 62
3
 10
307.147720918506820
 20
-152.821706679060300
 40
5.000000000000000
 50
180.000000000000000
 51
270.000000000000000
  0
ARC
  8
0
  6
CONTINUOUS
 62
3
 10
383.647720918506820
 20
-95.321706679060298
 40
2.500000000000000
 50
0.000000000000000
 51
90.000000000000000
  0
ARC
  8
0
  6
CONTINUOUS
 62
3
 10
304.647720918506820
 20
-95.321706679060298
 40
2.500000000000000
 50
90.000000000000000
 51
180.000000000000000
  0
ARC
  8
0
  6
CONTINUOUS
 62
3
 10
307.147720918506820
 20
-152.821706679060300
 40
5.000000000000000
 50
180.000000000000000
 51
270.000000000000000
  0
ARC
  8
0
  6
CONTINUOUS
 62
3
 10
373.078673201485800
 20
-94.821706679060298
 40
2.000000000000000
 50
90.000000000000000
 51
176.045427877907830
  0
ARC
  8
0
  6
CONTINUOUS
 62
3
 10
315.216768635528300
 20
-94.821706679060298
 40
1.999999999999775
 50
3.954572122092177
 51
90.000000000000000
  0
LINE
  8
0
  6
CONTINUOUS
 62
3
 10
408.943834439220150
 20
-97.422578920453816
 11
408.943834439220150
 21
-159.821706679060300
  0
LINE
  8
0
  6
CONTINUOUS
 62
3
 10
393.473170269225190
 20
-97.422579605165083
 11
393.473170269225190
 21
-159.821706679060300
  0
LINE
  8
0
  6
CONTINUOUS
 62
3
 10
294.822271567788900
 20
-97.422579605165083
 11
294.822271567788900
 21
-159.821706679060300
  0
LINE
  8
0
  6
CONTINUOUS
 62
3
 10
279.351607397793490
 20
-97.422578920453816
 11
279.351607397793490
 21
-159.821706679060300
  0
LINE
  8
0
  6
CONTINUOUS
 62
3
 10
416.647720918507280
 20
-177.821706679060300
 11
416.647720918506820
 21
-165.821706679060300
  0
LINE
  8
0
  6
CONTINUOUS
 62
3
 10
414.647720918506820
 20
-161.349570724060870
 11
414.647720918506820
 21
-97.422579605165083
  0
LINE
  8
0
  6
CONTINUOUS
 62
3
 10
391.300720918507070
 20
-97.422579605165083
 11
391.300720918507070
 21
-159.821706679060300
  0
LINE
  8
0
  6
CONTINUOUS
 62
3
 10
344.147720918506820
 20
-162.821706679060300
 11
413.647720918506820
 21
-162.821706679060300
  0
LINE
  8
0
  6
CONTINUOUS
 62
3
 10
296.994720918507030
 20
-97.422579605165083
 11
296.994720918507030
 21
-159.821706679060300
  0
LINE
  8
0
  6
CONTINUOUS
 62
3
 10
344.147720918506820
 20
-162.821706679060300
 11
274.647720918506820
 21
-162.821706679060300
  0
LINE
  8
0
  6
CONTINUOUS
 62
3
 10
271.647720918506820
 20
-177.821706679060300
 11
271.647720918506820
 21
-165.821706679060300
  0
LINE
  8
0
  6
CONTINUOUS
 62
3
 10
295.647720918506820
 20
-177.821706679060300
 11
271.647720918506820
 21
-177.821706679060300
  0
LINE
  8
0
  6
CONTINUOUS
 62
3
 10
273.647720918506820
 20
-161.349570724060870
 11
273.647720918506820
 21
-97.422579605165083
  0
LINE
  8
0
  6
CONTINUOUS
 62
3
 10
344.147720918506820
 20
-175.821706679060300
 11
313.147720918506820
 21
-175.821706679060300
  0
LINE
  8
0
  6
DASHDOT
 62
4
 10
281.647720918506820
 20
-160.236900070741290
 11
281.647720918506820
 21
-180.233874190046660
  0
LINE
  8
0
  6
DASHDOT
 62
4
 10
406.647720918506820
 20
-159.736900070741290
 11
406.647720918506820
 21
-180.233874190046660
  0
LINE
  8
0
  6
CONTINUOUS
 62
3
 10
392.647720918506820
 20
-177.821706679060300
 11
392.647720918506820
 21
-177.821706679060300
  0
LINE
  8
0
  6
CONTINUOUS
 62
3
 10
295.647720918506820
 20
-177.821706679060300
 11
295.647720918506820
 21
-177.821706679060300
  0
CIRCLE
  8
0
  6
CONTINUOUS
 62
3
 10
344.147720918506820
 20
-92.821706679060298
 40
3.323500000000024
  0
CIRCLE
  8
0
  6
CONTINUOUS
 62
4
 10
344.147720918506820
 20
-92.821706679060298
 40
4.000000000000000
  0
LINE
  8
0
  6
CONTINUOUS
 62
3
 10
344.147720918506820
 20
-157.821706679060300
 11
381.147720918506820
 21
-157.821706679060300
  0
LINE
  8
0
  6
CONTINUOUS
 62
3
 10
386.147720918506820
 20
-95.321706679060298
 11
386.147720918506820
 21
-152.821706679060300
  0
LINE
  8
0
  6
CONTINUOUS
 62
3
 10
302.147720918506820
 20
-95.117322674395837
 11
302.147720918506820
 21
-152.821706679060300
  0
LINE
  8
0
  6
CONTINUOUS
 62
3
 10
344.147720918506820
 20
-157.821706679060300
 11
307.147720918506820
 21
-157.821706679060300
  0
LINE
  8
0
  6
CONTINUOUS
 62
3
 10
373.078673201485800
 20
-92.821706679060298
 11
383.647720918506820
 21
-92.821706679060298
  0
LINE
  8
0
  6
CONTINUOUS
 62
3
 10
315.216768635528300
 20
-92.821706679060298
 11
304.647720918506820
 21
-92.821706679060298
  0
LINE
  8
0
  6
CONTINUOUS
 62
3
 10
302.147720918506820
 20
-95.321706679060298
 11
302.147720918506820
 21
-152.821706679060300
  0
LINE
  8
0
  6
CONTINUOUS
 62
3
 10
344.147720918506820
 20
-157.821706679060300
 11
307.147720918506820
 21
-157.821706679060300
  0
POLYLINE
  8
0
  6
CONTINUOUS
 62
3
 66
1
  0
VERTEX
  8
0
  6
CONTINUOUS
 62
3
 10
294.822271567789020
 20
-97.422579605165083
  0
VERTEX
  8
0
  6
CONTINUOUS
 62
3
 10
294.673639330787860
 20
-94.496224774923164
  0
VERTEX
  8
0
  6
CONTINUOUS
 62
3
 10
294.233454473298540
 20
-91.682328119688734
  0
VERTEX
  8
0
  6
CONTINUOUS
 62
3
 10
293.518633052535790
 20
-89.089026109871043
  0
VERTEX
  8
0
  6
CONTINUOUS
 62
3
 10
292.556645254823080
 20
-86.815977887366870
  0
VERTEX
  8
0
  6
CONTINUOUS
 62
3
 10
291.384459731737540
 20
-84.950535420626906
  0
VERTEX
  8
0
  6
CONTINUOUS
 62
3
 10
290.047122915562110
 20
-83.564386617495785
  0
VERTEX
  8
0
  6
CONTINUOUS
 62
3
 10
288.596027910155270
 20
-82.710800399116636
  0
VERTEX
  8
0
  6
CONTINUOUS
 62
3
 10
287.086939482791420
 20
-82.422579605165083
  0
VERTEX
  8
0
  6
CONTINUOUS
 62
3
 10
285.577851055427570
 20
-82.710800399116636
  0
VERTEX
  8
0
  6
CONTINUOUS
 62
3
 10
284.126756050020730
 20
-83.564386617495785
  0
VERTEX
  8
0
  6
CONTINUOUS
 62
3
 10
282.789419233845310
 20
-84.950535420626906
  0
VERTEX
  8
0
  6
CONTINUOUS
 62
3
 10
281.617233710759760
 20
-86.815977887366870
  0
VERTEX
  8
0
  6
CONTINUOUS
 62
3
 10
280.655245913047050
 20
-89.089026109871057
  0
VERTEX
  8
0
  6
CONTINUOUS
 62
3
 10
279.940424492284310
 20
-91.682328119688734
  0
VERTEX
  8
0
  6
CONTINUOUS
 62
3
 10
279.500239634794980
 20
-94.496224774923164
  0
VERTEX
  8
0
  6
CONTINUOUS
 62
3
 10
279.351607397793830
 20
-97.422579605165083
  0
SEQEND
  8
0
  6
CONTINUOUS
 62
3
  0
POLYLINE
  8
0
  6
CONTINUOUS
 62
3
 66
1
  0
VERTEX
  8
0
  6
CONTINUOUS
 62
3
 10
408.943834439220270
 20
-97.422579605165083
  0
VERTEX
  8
0
  6
CONTINUOUS
 62
3
 10
408.795202202219120
 20
-94.496224774923164
  0
VERTEX
  8
0
  6
CONTINUOUS
 62
3
 10
408.355017344729790
 20
-91.682328119688734
  0
VERTEX
  8
0
  6
CONTINUOUS
 62
3
 10
407.640195923967040
 20
-89.089026109871043
  0
VERTEX
  8
0
  6
CONTINUOUS
 62
3
 10
406.678208126254330
 20
-86.815977887366870
  0
VERTEX
  8
0
  6
CONTINUOUS
 62
3
 10
405.506022603168790
 20
-84.950535420626906
  0
VERTEX
  8
0
  6
CONTINUOUS
 62
3
 10
404.168685786993360
 20
-83.564386617495785
  0
VERTEX
  8
0
  6
CONTINUOUS
 62
3
 10
402.717590781586520
 20
-82.710800399116636
  0
VERTEX
  8
0
  6
CONTINUOUS
 62
3
 10
401.208502354222670
 20
-82.422579605165083
  0
VERTEX
  8
0
  6
CONTINUOUS
 62
3
 10
399.699413926858820
 20
-82.710800399116636
  0
VERTEX
  8
0
  6
CONTINUOUS
 62
3
 10
398.248318921451980
 20
-83.564386617495785
  0
VERTEX
  8
0
  6
CONTINUOUS
 62
3
 10
396.910982105276560
 20
-84.950535420626906
  0
VERTEX
  8
0
  6
CONTINUOUS
 62
3
 10
395.738796582191010
 20
-86.815977887366870
  0
VERTEX
  8
0
  6
CONTINUOUS
 62
3
 10
394.776808784478310
 20
-89.089026109871057
  0
VERTEX
  8
0
  6
CONTINUOUS
 62
3
 10
394.061987363715560
 20
-91.682328119688734
  0
VERTEX
  8
0
  6
CONTINUOUS
 62
3
 10
393.621802506226230
 20
-94.496224774923164
  0
VERTEX
  8
0
  6
CONTINUOUS
 62
3
 10
393.473170269225080
 20
-97.422579605165083
  0
SEQEND
  8
0
  6
CONTINUOUS
 62
3
  0
LINE
  8
0
  6
CONTINUOUS
 62
3
 10
330.647720918506820
 20
-95.821706679060298
 11
336.647720918506820
 21
-95.821706679060298
  0
LINE
  8
0
  6
CONTINUOUS
 62
3
 10
336.647720918506820
 20
-95.821706679060298
 11
336.647720918506820
 21
-89.821706679060298
  0
ARC
  8
0
  6
CONTINUOUS
 62
3
 10
344.147720918506820
 20
-92.821706679060298
 40
11.000000000000037
 50
195.826620131872290
 51
164.173379868127710
  0
LINE
  8
0
  6
CONTINUOUS
 62
3
 10
330.647720918506820
 20
-89.821706679060298
 11
330.647720918506820
 21
-95.821706679060298
  0
ARC
  8
0
  6
CONTINUOUS
 62
3
 10
429.447720918506770
 20
-124.864206679060310
 40
20.799999999999994
 50
224.639772958603290
 51
265.808273843992540
  0
ARC
  8
0
  6
CONTINUOUS
 62
3
 10
427.447720918506770
 20
-84.864206679060317
 40
18.799999999999983
 50
100.598785266066050
 51
156.468884668278920
  0
ARC
  8
0
  6
CONTINUOUS
 62
3
 10
423.621966284419840
 20
-64.419070301922602
 40
1.999999999999958
 50
280.598785266065990
 51
2.862405226112724
  0
ARC
  8
0
  6
CONTINUOUS
 62
3
 10
429.214979382135650
 20
-64.139419647036789
 40
1.999999999999927
 50
182.862405226112710
 51
265.126025186159040
  0
LINE
  8
0
  6
CONTINUOUS
 62
3
 10
425.949592410190010
 20
-54.901636512725076
 11
431.043229338466970
 21
-156.774375078265170
  0
LINE
  8
0
  6
CONTINUOUS
 62
3
 10
450.143980270127710
 20
-122.789393711479300
 11
446.153955332471700
 21
-82.988894958362039
  0
ARC
  8
0
  6
CONTINUOUS
 62
3
 10
427.447720918506770
 20
-84.864206679060317
 40
18.799999999999933
 50
35.808626813495749
 51
85.126025186157264
  0
ARC
  8
0
  6
CONTINUOUS
 62
3
 10
427.447720918506770
 20
-84.864206679060317
 40
18.799999999999837
 50
5.724810452223617
 51
35.808626813495749
  0
LINE
  8
0
  6
CONTINUOUS
 62
3
 10
426.748594281292300
 20
-54.861686419169928
 11
425.150590539087720
 21
-54.941586606280111
  0
ARC
  8
0
  6
CONTINUOUS
 62
3
 10
420.606267778186750
 20
-60.175048842950218
 40
8.999999999999948
 50
346.260856815786500
 51
19.463936333592187
  0
POINT
  8
0
  6
CONTINUOUS
 62
3
 10
426.998282366011150
 20
-59.855448113558964
  0
LINE
  8
0
  6
CONTINUOUS
 62
3
 10
426.823500706707590
 20
-56.359814927486582
 11
427.173064025314720
 21
-63.351081299631460
  0
LINE
  8
0
  6
CONTINUOUS
 62
3
 10
426.823500706707590
 20
-56.359814927486582
 11
427.173064025314720
 21
-63.351081299631460
  0
LINE
  8
0
  6
CONTINUOUS
 62
3
 10
427.173064025314720
 20
-63.351081299631460
 11
428.150867837822490
 21
-63.302191109006117
  0
LINE
  8
0
  6
CONTINUOUS
 62
3
 10
426.823500706707590
 20
-56.359814927486582
 11
427.801304519215140
 21
-56.310924736861239
  0
ARC
  8
0
  6
CONTINUOUS
 62
3
 10
428.085948973894800
 20
-62.003813830452486
 40
1.299999237060550
 50
272.862387240019760
 51
346.260856815788600
  0
ARC
  8
0
  6
CONTINUOUS
 62
3
 10
427.866223383142820
 20
-57.609302015414755
 40
1.299999237060645
 50
19.463936333587132
 51
92.862405909348169
  0
LINE
  8
0
  6
CONTINUOUS
 62
3
 10
426.748594281292300
 20
-54.861686419169928
 11
431.842231209569260
 21
-156.734424984709900
  0
LINE
  8
0
  6
CONTINUOUS
 62
3
 10
425.150590539087720
 20
-54.941586606280111
 11
430.244227467364680
 21
-156.814325171820880
  0
ARC
  8
0
  6
CONTINUOUS
 62
3
 10
429.447720918506770
 20
-124.864206679060310
 40
20.799999999999926
 50
334.359929784105190
 51
5.724810452223396
  0
ARC
  8
0
  6
CONTINUOUS
 62
3
 10
429.447720918506770
 20
-124.864206679060310
 40
20.800000000000040
 50
279.916536608230560
 51
334.359929784105190
  0
ARC
  8
0
  6
CONTINUOUS
 62
3
 10
429.447720918506770
 20
-124.864206679060310
 40
20.799999999999926
 50
334.359929784105190
 51
5.724810452223396
  0
ARC
  8
0
  6
CONTINUOUS
 62
3
 10
427.781173652123240
 20
-147.603217655989620
 40
1.999999999999927
 50
2.862405226112724
 51
85.808273843998350
  0
ARC
  8
0
  6
CONTINUOUS
 62
3
 10
433.374186749839050
 20
-147.323567001103810
 40
1.999999999999995
 50
99.916536608232732
 51
182.862405226112400
  0
INSERT
  8
0
  2
SYM2
 10
431.592543124850180
 20
-151.740663290320750
 41
-1.000000000000000
 42
1.000000000000000
 43
1.000000000000000
 50
2.862405226113666
  0
LINE
  8
0
  6
DASHDOT
 62
4
 10
459.782813924253790
 20
-92.821706679060298
 11
233.797168659029920
 21
-92.821706679060298
  0
LINE
  8
0
  6
DASHDOT
 62
4
 10
344.147720918506820
 20
-37.428262052448190
 11
344.147720918506820
 21
-189.348493975168820
  0
LINE
  8
0
  6
DASHDOT
 62
4
 10
322.825222246912740
 20
-112.821706679060290
 11
366.884196185845210
 21
-112.821706679060290
  0
ARC
  8
0
  6
CONTINUOUS
 62
3
 10
393.574485058316330
 20
-62.806914539508966
 40
6.099999427795367
 50
11.129668378346095
 51
89.102338819830379
  0
ARC
  8
0
  6
CONTINUOUS
 62
3
 10
294.720956778697310
 20
-62.806914539508909
 40
6.099999427795386
 50
90.897661180169081
 51
168.870331621654540
  0
INSERT
  8
0
  2
SYM3
 10
76.998287084542881
 20
-114.821706679060410
  0
LINE
  8
0
  6
CONTINUOUS
 62
3
 10
73.998287084542881
 20
-61.821706679060412
 11
70.998287084542881
 21
-61.821706679060412
  0
LINE
  8
0
  6
CONTINUOUS
 62
3
 10
70.998287084542881
 20
-61.821706679060412
 11
70.998287084542881
 21
-51.821706679060412
  0
LINE
  8
0
  6
CONTINUOUS
 62
3
 10
74.253065521389772
 20
-51.821706679060412
 11
70.998287084542881
 21
-51.821706679060412
  0
LINE
  8
0
  6
CONTINUOUS
 62
4
 10
-17.602115405947529
 20
-148.536243819234190
 11
73.998287084542881
 21
-148.536243819234190
  0
LINE
  8
0
  6
CONTINUOUS
 62
4
 10
-17.602115405947302
 20
-77.107169538886410
 11
73.998287084542881
 21
-77.107169538886410
  0
LINE
  8
0
  6
CONTINUOUS
 62
4
 10
-17.301712915457188
 20
-81.070914962685947
 11
73.998287084542881
 21
-81.070914962685947
  0
LINE
  8
0
  6
CONTINUOUS
 62
3
 10
-18.301712915457188
 20
-148.821706679060300
 11
-106.301712915457180
 21
-148.821706679060300
  0
LINE
  8
0
  6
CONTINUOUS
 62
3
 10
-18.301712915457188
 20
-76.821706679060298
 11
-106.301712915457180
 21
-76.821706679060298
  0
LINE
  8
0
  6
CONTINUOUS
 62
3
 10
-107.301712915457180
 20
-77.821706679060298
 11
-107.301712915457180
 21
-147.821706679060300
  0
ARC
  8
0
  6
CONTINUOUS
 62
3
 10
-106.301712915457180
 20
-147.821706679060300
 40
1.000000000000000
 50
180.000000000000000
 51
270.000000000000000
  0
ARC
  8
0
  6
CONTINUOUS
 62
3
 10
-106.301712915457180
 20
-77.821706679060298
 40
1.000000000000000
 50
90.000000000000000
 51
180.000000000000000
  0
LINE
  8
0
  6
CONTINUOUS
 62
3
 10
-17.301712915457188
 20
-77.821706679060298
 11
-17.301712915457188
 21
-147.821706679060300
  0
ARC
  8
0
  6
CONTINUOUS
 62
3
 10
-18.301712915457188
 20
-77.821706679060298
 40
1.000000000000000
 50
0.000000000000000
 51
90.000000000000000
  0
ARC
  8
0
  6
CONTINUOUS
 62
3
 10
-18.301712915457188
 20
-147.821706679060300
 40
1.000000000000000
 50
270.000000000000000
 51
0.000000000000000
  0
LINE
  8
0
  6
CONTINUOUS
 62
3
 10
48.498287084541516
 20
-171.321706679060300
 11
-99.501712915457006
 21
-171.321706679060300
  0
LINE
  8
0
  6
DASHDOT
 62
4
 10
95.846475671307417
 20
-112.821706679060290
 11
-215.157326592769100
 21
-112.821706679060290
  0
LINE
  8
0
  6
CONTINUOUS
 62
3
 10
-110.501712915456430
 20
-59.081591578622692
 11
-112.501712915456430
 21
-60.734233217746123
  0
LINE
  8
0
  6
CONTINUOUS
 62
3
 10
-108.501712915456430
 20
-57.905806092999910
 11
-110.501712915456430
 21
-59.081591578622692
  0
LINE
  8
0
  6
CONTINUOUS
 62
3
 10
-110.501712915456430
 20
-59.081591578622692
 11
-108.501712915456430
 21
-60.734233217746123
  0
LINE
  8
0
  6
CONTINUOUS
 62
3
 10
-112.501712915456430
 20
-57.905806092999910
 11
-110.501712915456430
 21
-59.081591578622692
  0
POLYLINE
  8
0
  6
CONTINUOUS
 62
3
 66
1
 70
1
  0
VERTEX
  8
0
  6
CONTINUOUS
 62
3
 10
-105.801712915456440
 20
-60.898181647000229
  0
VERTEX
  8
0
  6
CONTINUOUS
 62
3
 10
-105.892022097561260
 20
-60.195224680799868
  0
VERTEX
  8
0
  6
CONTINUOUS
 62
3
 10
-106.159479112653400
 20
-59.519281956587776
  0
VERTEX
  8
0
  6
CONTINUOUS
 62
3
 10
-106.593805737634480
 20
-58.896329574182374
  0
VERTEX
  8
0
  6
CONTINUOUS
 62
3
 10
-107.178311043879670
 20
-58.350307244283790
  0
VERTEX
  8
0
  6
CONTINUOUS
 62
3
 10
-107.890532820264310
 20
-57.902198298817176
  0
VERTEX
  8
0
  6
CONTINUOUS
 62
3
 10
-108.703100783340510
 20
-57.569223313254419
  0
VERTEX
  8
0
  6
CONTINUOUS
 62
3
 10
-109.584788401980630
 20
-57.364178329556168
  0
VERTEX
  8
0
  6
CONTINUOUS
 62
3
 10
-110.501712915456430
 20
-57.294943111455396
  0
VERTEX
  8
0
  6
CONTINUOUS
 62
3
 10
-111.418637428932240
 20
-57.364178329556168
  0
VERTEX
  8
0
  6
CONTINUOUS
 62
3
 10
-112.300325047572350
 20
-57.569223313254419
  0
VERTEX
  8
0
  6
CONTINUOUS
 62
3
 10
-113.112893010648560
 20
-57.902198298817176
  0
VERTEX
  8
0
  6
CONTINUOUS
 62
3
 10
-113.825114787033200
 20
-58.350307244283790
  0
VERTEX
  8
0
  6
CONTINUOUS
 62
3
 10
-114.409620093278390
 20
-58.896329574182374
  0
VERTEX
  8
0
  6
CONTINUOUS
 62
3
 10
-114.843946718259470
 20
-59.519281956587776
  0
VERTEX
  8
0
  6
CONTINUOUS
 62
3
 10
-115.111403733351600
 20
-60.195224680799868
  0
VERTEX
  8
0
  6
CONTINUOUS
 62
3
 10
-115.201712915456420
 20
-60.898181647000229
  0
VERTEX
  8
0
  6
CONTINUOUS
 62
3
 10
-115.111403733351600
 20
-61.601138613200590
  0
VERTEX
  8
0
  6
CONTINUOUS
 62
3
 10
-114.843946718259470
 20
-62.277081337412682
  0
VERTEX
  8
0
  6
CONTINUOUS
 62
3
 10
-114.409620093278390
 20
-62.900033719818083
  0
VERTEX
  8
0
  6
CONTINUOUS
 62
3
 10
-113.825114787033200
 20
-63.446056049716660
  0
VERTEX
  8
0
  6
CONTINUOUS
 62
3
 10
-113.112893010648560
 20
-63.894164995183282
  0
VERTEX
  8
0
  6
CONTINUOUS
 62
3
 10
-112.300325047572350
 20
-64.227139980746045
  0
VERTEX
  8
0
  6
CONTINUOUS
 62
3
 10
-111.418637428932240
 20
-64.432184964444289
  0
VERTEX
  8
0
  6
CONTINUOUS
 62
3
 10
-110.501712915456430
 20
-64.501420182545061
  0
VERTEX
  8
0
  6
CONTINUOUS
 62
3
 10
-109.584788401980630
 20
-64.432184964444289
  0
VERTEX
  8
0
  6
CONTINUOUS
 62
3
 10
-108.703100783340510
 20
-64.227139980746045
  0
VERTEX
  8
0
  6
CONTINUOUS
 62
3
 10
-107.890532820264310
 20
-63.894164995183282
  0
VERTEX
  8
0
  6
CONTINUOUS
 62
3
 10
-107.178311043879670
 20
-63.446056049716660
  0
VERTEX
  8
0
  6
CONTINUOUS
 62
3
 10
-106.593805737634480
 20
-62.900033719818083
  0
VERTEX
  8
0
  6
CONTINUOUS
 62
3
 10
-106.159479112653400
 20
-62.277081337412682
  0
VERTEX
  8
0
  6
CONTINUOUS
 62
3
 10
-105.892022097561260
 20
-61.601138613200590
  0
SEQEND
  8
0
  6
CONTINUOUS
 62
3
  0
LINE
  8
0
  6
CONTINUOUS
 62
4
 10
-99.501712915457006
 20
-167.821706679060300
 11
48.498287084541516
 21
-167.821706679060300
  0
LINE
  8
0
  6
CONTINUOUS
 62
4
 10
-99.501712915457006
 20
-168.821706679060300
 11
48.498287084541516
 21
-168.821706679060300
  0
LINE
  8
0
  6
CONTINUOUS
 62
4
 10
-99.501712915457006
 20
-169.821706679060300
 11
48.498287084541516
 21
-169.821706679060300
  0
LINE
  8
0
  6
CONTINUOUS
 62
4
 10
-99.501712915457006
 20
-170.321706679060300
 11
48.498287084541516
 21
-170.321706679060300
  0
ARC
  8
0
  6
CONTINUOUS
 62
3
 10
-199.901712915406730
 20
-65.378501621814848
 40
2.599999999999721
 50
125.000000000001370
 51
180.000000000000000
  0
LINE
  8
0
  6
CONTINUOUS
 62
3
 10
-191.667265864898350
 20
-56.438665793280506
 11
-201.393011649919340
 21
-63.248706306663735
  0
ARC
  8
0
  6
CONTINUOUS
 62
3
 10
-180.195737137877360
 20
-72.821706679060298
 40
20.000000000000000
 50
90.000000000000000
 51
125.000000000000240
  0
LINE
  8
0
  6
CONTINUOUS
 62
3
 10
-202.501712915406870
 20
-112.821706679060290
 11
-202.501712915406870
 21
-65.378501621814848
  0
LINE
  8
0
  6
CONTINUOUS
 62
3
 10
-99.501712915457006
 20
-52.821706679060298
 11
-180.195737137877360
 21
-52.821706679060298
  0
LINE
  8
0
  6
CONTINUOUS
 62
3
 10
49.498287084542881
 20
-54.321706679060298
 11
49.498287084542881
 21
-112.821706679060290
  0
LINE
  8
0
  6
CONTINUOUS
 62
3
 10
49.498287084542881
 20
-54.321706679060298
 11
-99.501712915457006
 21
-54.321706679060298
  0
LINE
  8
0
  6
CONTINUOUS
 62
3
 10
-109.501712915456890
 20
-77.821706679060298
 11
-109.501712915456890
 21
-112.821706679060290
  0
ARC
  8
0
  6
CONTINUOUS
 62
3
 10
-102.501712915457000
 20
-71.821706679060298
 40
3.000000000000000
 50
270.000000000000000
 51
0.000000000000000
  0
LINE
  8
0
  6
CONTINUOUS
 62
3
 10
-102.501712915457000
 20
-74.821706679060298
 11
-106.501712915456890
 21
-74.821706679060298
  0
ARC
  8
0
  6
CONTINUOUS
 62
3
 10
-106.501712915456890
 20
-77.821706679060298
 40
3.000000000000000
 50
90.000000000000000
 51
180.000000000000000
  0
LINE
  8
0
  6
CONTINUOUS
 62
3
 10
-99.501712915457006
 20
-71.821706679060298
 11
-99.501712915457006
 21
-52.821706679060298
  0
LINE
  8
0
  6
CONTINUOUS
 62
4
 10
-109.501712915456890
 20
-81.070914962685947
 11
-107.301712915457180
 21
-81.070914962685947
  0
LINE
  8
0
  6
CONTINUOUS
 62
4
 10
-109.415376704453820
 20
-77.107169538886410
 11
-107.001310424966840
 21
-77.107169538886410
  0
LINE
  8
0
  6
CONTINUOUS
 62
4
 10
-108.404705473837110
 20
-75.502521623324355
 11
73.998287084542881
 21
-75.502521623324355
  0
LINE
  8
0
  6
CONTINUOUS
 62
4
 10
-99.501712915457006
 20
-67.455919960590563
 11
73.998287084542881
 21
-67.455919960590563
  0
LINE
  8
0
  6
CONTINUOUS
 62
4
 10
-99.501712915457006
 20
-62.506172492284804
 11
73.998287084542881
 21
-62.506172492284804
  0
LINE
  8
0
  6
CONTINUOUS
 62
4
 10
-99.501712915457006
 20
-57.821706679060298
 11
70.998287084542881
 21
-57.821706679060298
  0
LINE
  8
0
  6
CONTINUOUS
 62
4
 10
-99.501712915457006
 20
-56.821706679060298
 11
70.998287084542881
 21
-56.821706679060298
  0
LINE
  8
0
  6
CONTINUOUS
 62
4
 10
-99.501712915457006
 20
-55.321706679060298
 11
70.998287084542881
 21
-55.321706679060298
  0
LINE
  8
0
  6
CONTINUOUS
 62
4
 10
-99.501712915457006
 20
-55.821706679060298
 11
70.998287084542881
 21
-55.821706679060298
  0
LINE
  8
0
  6
CONTINUOUS
 62
4
 10
-109.501712915456890
 20
-92.821706679060298
 11
-107.301712915457180
 21
-92.821706679060298
  0
LINE
  8
0
  6
CONTINUOUS
 62
4
 10
-17.301712915457188
 20
-92.821706679060298
 11
72.998287084542881
 21
-92.821706679060298
  0
LINE
  8
0
  6
CONTINUOUS
 62
4
 10
-109.501712915456890
 20
-86.629772886580668
 11
-107.301712915457180
 21
-86.629772886580668
  0
LINE
  8
0
  6
CONTINUOUS
 62
4
 10
-17.301712915457188
 20
-86.629772886580668
 11
72.998287084542881
 21
-86.629772886580668
  0
LINE
  8
0
  6
CONTINUOUS
 62
4
 10
-17.301712915457188
 20
-139.013640471539930
 11
73.998287084542881
 21
-139.013640471539930
  0
LINE
  8
0
  6
CONTINUOUS
 62
4
 10
-109.501712915456890
 20
-87.991653221929937
 11
-107.301712915457180
 21
-87.991653221929937
  0
LINE
  8
0
  6
CONTINUOUS
 62
4
 10
-17.301712915457188
 20
-132.821706679060300
 11
73.998287084542881
 21
-132.821706679060300
  0
LINE
  8
0
  6
CONTINUOUS
 62
4
 10
-17.301712915457188
 20
-87.991653221929937
 11
72.998287084542881
 21
-87.991653221929937
  0
LINE
  8
0
  6
CONTINUOUS
 62
4
 10
-17.301712915457188
 20
-143.104141005629570
 11
73.998287084542881
 21
-143.104141005629570
  0
LINE
  8
0
  6
CONTINUOUS
 62
4
 10
-109.501712915456890
 20
-82.539272352491025
 11
-107.301712915457180
 21
-82.539272352491025
  0
LINE
  8
0
  6
CONTINUOUS
 62
4
 10
-17.301712915457188
 20
-137.651760136190660
 11
73.998287084542881
 21
-137.651760136190660
  0
LINE
  8
0
  6
CONTINUOUS
 62
4
 10
-17.301712915457188
 20
-82.539272352491025
 11
73.998287084542881
 21
-82.539272352491025
  0
LINE
  8
0
  6
CONTINUOUS
 62
4
 10
-109.501712915456890
 20
-132.821706679060300
 11
-107.301712915457180
 21
-132.821706679060300
  0
LINE
  8
0
  6
CONTINUOUS
 62
4
 10
-109.501712915456890
 20
-137.651760136190660
 11
-107.301712915457180
 21
-137.651760136190660
  0
LINE
  8
0
  6
CONTINUOUS
 62
4
 10
-109.501712915456890
 20
-139.013640471539930
 11
-107.301712915457180
 21
-139.013640471539930
  0
LINE
  8
0
  6
CONTINUOUS
 62
4
 10
-109.501712915456890
 20
-143.104141005629570
 11
-107.301712915457180
 21
-143.104141005629570
  0
LINE
  8
0
  6
CONTINUOUS
 62
4
 10
-17.301712915457188
 20
-144.572498395434650
 11
73.998287084542881
 21
-144.572498395434650
  0
LINE
  8
0
  6
CONTINUOUS
 62
4
 10
-109.415376704453820
 20
-148.536243819234190
 11
-107.001310424966840
 21
-148.536243819234190
  0
LINE
  8
0
  6
CONTINUOUS
 62
4
 10
-108.404705473837110
 20
-150.140891734796240
 11
73.998287084542881
 21
-150.140891734796240
  0
LINE
  8
0
  6
CONTINUOUS
 62
4
 10
-99.501712915457006
 20
-158.187493397530030
 11
73.998287084542881
 21
-158.187493397530030
  0
LINE
  8
0
  6
CONTINUOUS
 62
4
 10
-99.501712915457006
 20
-163.137240865835790
 11
49.498287084542881
 21
-163.137240865835790
  0
LINE
  8
0
  6
CONTINUOUS
 62
3
 10
-109.501712915456890
 20
-147.821706679060300
 11
-109.501712915456890
 21
-112.821706679060290
  0
ARC
  8
0
  6
CONTINUOUS
 62
3
 10
-102.501712915457000
 20
-153.821706679060300
 40
3.000000000000000
 50
0.000000000000000
 51
90.000000000000000
  0
LINE
  8
0
  6
CONTINUOUS
 62
3
 10
-102.501712915457000
 20
-150.821706679060300
 11
-106.501712915456890
 21
-150.821706679060300
  0
ARC
  8
0
  6
CONTINUOUS
 62
3
 10
-106.501712915456890
 20
-147.821706679060300
 40
3.000000000000000
 50
180.000000000000000
 51
270.000000000000000
  0
LINE
  8
0
  6
CONTINUOUS
 62
3
 10
-99.501712915457006
 20
-153.821706679060300
 11
-99.501712915457006
 21
-172.821706679060300
  0
ARC
  8
0
  6
CONTINUOUS
 62
3
 10
-199.901712915406730
 20
-160.264911736305750
 40
2.600000000000136
 50
180.000000000000000
 51
234.999999999998610
  0
LINE
  8
0
  6
CONTINUOUS
 62
3
 10
-191.667265864898350
 20
-169.204747564840090
 11
-201.393011649919340
 21
-162.394707051456860
  0
ARC
  8
0
  6
CONTINUOUS
 62
3
 10
-180.195737137877360
 20
-152.821706679060300
 40
20.000000000000007
 50
234.999999999999740
 51
270.000000000000000
  0
LINE
  8
0
  6
CONTINUOUS
 62
3
 10
-202.501712915406870
 20
-112.821706679060290
 11
-202.501712915406870
 21
-160.264911736305750
  0
LINE
  8
0
  6
CONTINUOUS
 62
3
 10
-99.501712915457006
 20
-172.821706679060300
 11
-180.195737137877360
 21
-172.821706679060300
  0
LINE
  8
0
  6
CONTINUOUS
 62
3
 10
-110.501712915456430
 20
-166.561821779498130
 11
-112.501712915456430
 21
-164.909180140374700
  0
LINE
  8
0
  6
CONTINUOUS
 62
3
 10
-108.501712915456430
 20
-167.737607265120460
 11
-110.501712915456430
 21
-166.561821779498130
  0
LINE
  8
0
  6
CONTINUOUS
 62
3
 10
-110.501712915456430
 20
-166.561821779498130
 11
-108.501712915456430
 21
-164.909180140374700
  0
LINE
  8
0
  6
CONTINUOUS
 62
3
 10
-112.501712915456430
 20
-167.737607265120460
 11
-110.501712915456430
 21
-166.561821779498130
  0
POLYLINE
  8
0
  6
CONTINUOUS
 62
3
 66
1
 70
1
  0
VERTEX
  8
0
  6
CONTINUOUS
 62
3
 10
-105.801712915456440
 20
-164.745231711120140
  0
VERTEX
  8
0
  6
CONTINUOUS
 62
3
 10
-105.892022097561260
 20
-164.042274744919780
  0
VERTEX
  8
0
  6
CONTINUOUS
 62
3
 10
-106.159479112653400
 20
-163.366332020707690
  0
VERTEX
  8
0
  6
CONTINUOUS
 62
3
 10
-106.593805737634480
 20
-162.743379638302290
  0
VERTEX
  8
0
  6
CONTINUOUS
 62
3
 10
-107.178311043879670
 20
-162.197357308403700
  0
VERTEX
  8
0
  6
CONTINUOUS
 62
3
 10
-107.890532820264310
 20
-161.749248362937070
  0
VERTEX
  8
0
  6
CONTINUOUS
 62
3
 10
-108.703100783340510
 20
-161.416273377374320
  0
VERTEX
  8
0
  6
CONTINUOUS
 62
3
 10
-109.584788401980630
 20
-161.211228393676070
  0
VERTEX
  8
0
  6
CONTINUOUS
 62
3
 10
-110.501712915456430
 20
-161.141993175575290
  0
VERTEX
  8
0
  6
CONTINUOUS
 62
3
 10
-111.418637428932240
 20
-161.211228393676070
  0
VERTEX
  8
0
  6
CONTINUOUS
 62
3
 10
-112.300325047572350
 20
-161.416273377374320
  0
VERTEX
  8
0
  6
CONTINUOUS
 62
3
 10
-113.112893010648560
 20
-161.749248362937070
  0
VERTEX
  8
0
  6
CONTINUOUS
 62
3
 10
-113.825114787033200
 20
-162.197357308403700
  0
VERTEX
  8
0
  6
CONTINUOUS
 62
3
 10
-114.409620093278390
 20
-162.743379638302290
  0
VERTEX
  8
0
  6
CONTINUOUS
 62
3
 10
-114.843946718259470
 20
-163.366332020707690
  0
VERTEX
  8
0
  6
CONTINUOUS
 62
3
 10
-115.111403733351600
 20
-164.042274744919780
  0
VERTEX
  8
0
  6
CONTINUOUS
 62
3
 10
-115.201712915456420
 20
-164.745231711120140
  0
VERTEX
  8
0
  6
CONTINUOUS
 62
3
 10
-115.111403733351600
 20
-165.448188677320500
  0
VERTEX
  8
0
  6
CONTINUOUS
 62
3
 10
-114.843946718259470
 20
-166.124131401532590
  0
VERTEX
  8
0
  6
CONTINUOUS
 62
3
 10
-114.409620093278390
 20
-166.747083783938000
  0
VERTEX
  8
0
  6
CONTINUOUS
 62
3
 10
-113.825114787033200
 20
-167.293106113836590
  0
VERTEX
  8
0
  6
CONTINUOUS
 62
3
 10
-113.112893010648560
 20
-167.741215059303220
  0
VERTEX
  8
0
  6
CONTINUOUS
 62
3
 10
-112.300325047572350
 20
-168.074190044865960
  0
VERTEX
  8
0
  6
CONTINUOUS
 62
3
 10
-111.418637428932240
 20
-168.279235028564220
  0
VERTEX
  8
0
  6
CONTINUOUS
 62
3
 10
-110.501712915456430
 20
-168.348470246664990
  0
VERTEX
  8
0
  6
CONTINUOUS
 62
3
 10
-109.584788401980630
 20
-168.279235028564220
  0
VERTEX
  8
0
  6
CONTINUOUS
 62
3
 10
-108.703100783340510
 20
-168.074190044865960
  0
VERTEX
  8
0
  6
CONTINUOUS
 62
3
 10
-107.890532820264310
 20
-167.741215059303220
  0
VERTEX
  8
0
  6
CONTINUOUS
 62
3
 10
-107.178311043879670
 20
-167.293106113836590
  0
VERTEX
  8
0
  6
CONTINUOUS
 62
3
 10
-106.593805737634480
 20
-166.747083783938000
  0
VERTEX
  8
0
  6
CONTINUOUS
 62
3
 10
-106.159479112653400
 20
-166.124131401532590
  0
VERTEX
  8
0
  6
CONTINUOUS
 62
3
 10
-105.892022097561260
 20
-165.448188677320500
  0
SEQEND
  8
0
  6
CONTINUOUS
 62
3
  0
LINE
  8
0
  6
CONTINUOUS
 62
3
 10
83.498287084541971
 20
-154.464957010179210
 11
83.498287084541516
 21
-92.821706679060298
  0
LINE
  8
0
  6
CONTINUOUS
 62
3
 10
83.498287084541516
 20
-46.821706679060298
 11
83.498287084541516
 21
-92.821706679060298
  0
ARC
  8
0
  6
CONTINUOUS
 62
3
 10
51.498287084541516
 20
-165.712745789340260
 40
3.000000000000099
 50
92.119248310867050
 51
180.000000000000000
  0
ARC
  8
0
  6
CONTINUOUS
 62
3
 10
83.498287084541516
 20
-135.075014392527920
 40
2.000000000000000
 50
0.000000000000000
 51
90.000000000000000
  0
ARC
  8
0
  6
CONTINUOUS
 62
3
 10
73.375860128543081
 20
-158.899065292027440
 40
3.000000000000099
 50
272.119248310867080
 51
309.407385823772980
  0
ARC
  8
0
  6
CONTINUOUS
 62
3
 10
83.498287084541516
 20
-151.876468715687220
 40
2.000000000000103
 50
309.407385823781850
 51
0.000000000000000
  0
LINE
  8
0
  6
CONTINUOUS
 62
3
 10
117.498287084541510
 20
-47.415178886619287
 11
83.498287084541516
 21
-46.821706679060298
  0
LINE
  8
0
  6
CONTINUOUS
 62
3
 10
163.498287084541520
 20
-177.821706679060300
 11
50.498287084541516
 21
-177.821706679060300
  0
LINE
  8
0
  6
DASHDOT
 62
4
 10
60.498287084541516
 20
-180.655324690535050
 11
60.498287084541516
 21
-160.455257411696040
  0
LINE
  8
0
  6
CONTINUOUS
 62
3
 10
48.498287084541516
 20
-177.321706679060300
 11
48.498287084541516
 21
-165.712745789340260
  0
LINE
  8
0
  6
CONTINUOUS
 62
3
 10
51.387348802315046
 20
-162.714797708145850
 11
85.998287084543335
 21
-161.434029017264950
  0
LINE
  8
0
  6
CONTINUOUS
 62
3
 10
162.550644303853910
 20
-162.770255382938560
 11
85.998287084541516
 21
-161.434029017264950
  0
LINE
  8
0
  6
CONTINUOUS
 62
3
 10
75.280350484496012
 20
-161.217020529749790
 11
84.767947321843621
 21
-153.421772207501820
  0
LINE
  8
0
  6
CONTINUOUS
 62
3
 10
85.498287084541516
 20
-151.876468715687220
 11
85.498287084541516
 21
-135.075014392527920
  0
LINE
  8
0
  6
CONTINUOUS
 62
3
 10
50.498287084541516
 20
-177.321706679060300
 11
50.498287084541516
 21
-177.821706679060300
  0
LINE
  8
0
  6
CONTINUOUS
 62
3
 10
48.498287084541516
 20
-177.321706679060300
 11
50.498287084541516
 21
-177.321706679060300
  0
ARC
  8
0
  6
CONTINUOUS
 62
3
 10
74.998287084542881
 20
-47.821706679060298
 40
1.000000000000000
 50
90.000000000000000
 51
180.000000000000000
  0
LINE
  8
0
  6
CONTINUOUS
 62
3
 10
74.998287084542881
 20
-46.821706679060298
 11
82.998287084542881
 21
-46.821706679060298
  0
LINE
  8
0
  6
CONTINUOUS
 62
3
 10
82.998287084542881
 20
-46.821706679060298
 11
82.998287084542881
 21
-112.821706679060290
  0
LINE
  8
0
  6
CONTINUOUS
 62
3
 10
82.998287084543335
 20
-154.875769592958020
 11
82.998287084543790
 21
-112.821706679060290
  0
ARC
  8
0
  6
CONTINUOUS
 62
3
 10
72.998287084542881
 20
-84.821706679060298
 40
1.000000000000476
 50
299.999999999984250
 51
0.000000000000000
  0
ARC
  8
0
  6
CONTINUOUS
 62
3
 10
73.998287084542881
 20
-86.553757486629365
 40
0.999999999999688
 50
120.000000000010300
 51
180.000000000000000
  0
ARC
  8
0
  6
CONTINUOUS
 62
3
 10
72.998287084542881
 20
-102.821706679060290
 40
1.000000000000000
 50
0.000000000000000
 51
59.999999999989690
  0
LINE
  8
0
  6
CONTINUOUS
 62
3
 10
72.998287084542881
 20
-86.553757486629365
 11
72.998287084542881
 21
-101.089655871491230
  0
ARC
  8
0
  6
CONTINUOUS
 62
3
 10
73.998287084542881
 20
-101.089655871491230
 40
1.000000000000000
 50
180.000000000000000
 51
240.000000000015750
  0
ARC
  8
0
  6
CONTINUOUS
 62
3
 10
74.998287084542881
 20
-122.071706679060290
 40
1.000000000000000
 50
90.000000000000000
 51
180.000000000000000
  0
ARC
  8
0
  6
CONTINUOUS
 62
3
 10
74.998287084542881
 20
-107.571706679060290
 40
1.000000000000000
 50
180.000000000000000
 51
270.000000000000000
  0
ARC
  8
0
  6
CONTINUOUS
 62
3
 10
74.998287084542881
 20
-52.488523611817982
 40
1.000000000000000
 50
90.000000000000000
 51
180.000000000000000
  0
ARC
  8
0
  6
CONTINUOUS
 62
3
 10
74.998287084542881
 20
-48.950996853043762
 40
1.000000000000000
 50
90.000000000000000
 51
180.000000000000000
  0
LINE
  8
0
  6
CONTINUOUS
 62
3
 10
73.998287084542881
 20
-47.821706679060298
 11
73.998287084542881
 21
-51.821706679060298
  0
LINE
  8
0
  6
CONTINUOUS
 62
3
 10
73.998287084542881
 20
-52.488523611817982
 11
73.998287084542881
 21
-109.821706679060290
  0
LINE
  8
0
  6
CONTINUOUS
 62
3
 10
74.998287084542881
 20
-108.571706679060290
 11
76.898287084542517
 21
-108.571706679060290
  0
ARC
  8
0
  6
CONTINUOUS
 62
3
 10
76.898287084542517
 20
-108.671706679060660
 40
0.100000000000364
 50
0.000000000000000
 51
90.000000000000000
  0
LINE
  8
0
  6
CONTINUOUS
 62
3
 10
74.998287084542881
 20
-121.071706679060290
 11
76.898287084542517
 21
-121.071706679060290
  0
LINE
  8
0
  6
CONTINUOUS
 62
3
 10
76.998287084542881
 20
-120.971706679060840
 11
76.998287084542881
 21
-108.671706679060660
  0
ARC
  8
0
  6
CONTINUOUS
 62
3
 10
76.898287084542517
 20
-120.971706679060840
 40
0.099999999999454
 50
270.000000000000000
 51
0.000000000000000
  0
LINE
  8
0
  6
CONTINUOUS
 62
3
 10
74.998287084542881
 20
-47.950996853043762
 11
76.898287084543426
 21
-47.950996853043762
  0
ARC
  8
0
  6
CONTINUOUS
 62
3
 10
76.898287084543426
 20
-48.050996853044126
 40
0.099999999999454
 50
0.000000000000000
 51
90.000000000000000
  0
LINE
  8
0
  6
CONTINUOUS
 62
3
 10
74.998287084542881
 20
-51.488523611817982
 11
76.898287084543426
 21
-51.488523611817982
  0
LINE
  8
0
  6
CONTINUOUS
 62
3
 10
76.998287084542881
 20
-51.388523611817618
 11
76.998287084542881
 21
-48.050996853044126
  0
ARC
  8
0
  6
CONTINUOUS
 62
3
 10
76.898287084543426
 20
-51.388523611817618
 40
0.100000000000364
 50
270.000000000000000
 51
0.000000000000000
  0
LINE
  8
0
  6
CONTINUOUS
 62
3
 10
73.998287084542881
 20
-119.821706679060290
 11
73.998287084542881
 21
-161.833785838254700
  0
LINE
  8
0
  6
CONTINUOUS
 62
3
 10
49.498287084543790
 20
-112.821706679060290
 11
49.498287084543790
 21
-163.476677811838270
  0
LINE
  8
0
  6
CONTINUOUS
 62
3
 10
49.498287084542881
 20
-112.821706679060290
 11
49.498287084542881
 21
-54.321706679061208
  0
LINE
  8
0
  6
CONTINUOUS
 62
3
 10
49.498287084542881
 20
-54.312979146596263
 11
70.998287084542881
 21
-53.937695250639763
  0
LINE
  8
0
  6
CONTINUOUS
 62
3
 10
246.147720918506820
 20
-115.321706679060290
 11
246.147720918506820
 21
-110.321706679060290
  0
LINE
  8
0
  6
CONTINUOUS
 62
3
 10
246.647722775704550
 20
-110.321706679060290
 11
246.147720918506820
 21
-110.321706679060290
  0
LINE
  8
0
  6
CONTINUOUS
 62
3
 10
246.658137766024540
 20
-115.321706679060290
 11
246.147720918506820
 21
-115.321706679060290
  0
ARC
  8
0
  6
CONTINUOUS
 62
3
 10
546.647720918506820
 20
-112.821706679060410
 40
300.000000000000060
 50
173.967950853630190
 51
186.032049146369810
  0
LINE
  8
0
  6
CONTINUOUS
 62
3
 10
165.498287084541520
 20
-80.821706679060298
 11
167.098287084541430
 21
-80.821706679060298
  0
LINE
  8
0
  6
CONTINUOUS
 62
3
 10
165.498287084541520
 20
-80.821706679060298
 11
167.098287084541430
 21
-80.821706679060298
  0
LINE
  8
0
  6
CONTINUOUS
 62
3
 10
203.498287084541520
 20
-92.821706679060298
 11
203.498287084541520
 21
-82.221706679060844
  0
LINE
  8
0
  6
CONTINUOUS
 62
3
 10
203.098287084541430
 20
-81.821706679060298
 11
170.058094705676920
 21
-81.821706679060298
  0
LINE
  8
0
  6
CONTINUOUS
 62
3
 10
203.098287084541430
 20
-81.821706679060298
 11
170.058094705676920
 21
-81.821706679060298
  0
ARC
  8
0
  6
CONTINUOUS
 62
3
 10
203.098287084541430
 20
-82.221706679060844
 40
0.400000000000091
 50
0.000000000000000
 51
90.000000000000000
  0
LINE
  8
0
  6
CONTINUOUS
 62
3
 10
167.498287084541520
 20
-92.821706679060298
 11
167.498287084541520
 21
-81.221706679060844
  0
LINE
  8
0
  6
CONTINUOUS
 62
3
 10
169.498287084541520
 20
-81.971706679060844
 11
168.298287084541240
 21
-81.971706679060844
  0
LINE
  8
0
  6
CONTINUOUS
 62
3
 10
170.058094705676920
 20
-81.821706679060298
 11
169.498287084541520
 21
-81.971706679060844
  0
LINE
  8
0
  6
CONTINUOUS
 62
3
 10
167.498287084541520
 20
-81.221706679060844
 11
167.098287084541430
 21
-80.821706679060298
  0
ARC
  8
0
  6
CONTINUOUS
 62
3
 10
168.298287084541240
 20
-81.171706679060662
 40
0.799999999999783
 50
183.703196634282420
 51
270.000000000000000
  0
LINE
  8
0
  6
CONTINUOUS
 62
3
 10
169.498287084541520
 20
-81.971706679060844
 11
168.298287084541240
 21
-81.971706679060844
  0
LINE
  8
0
  6
CONTINUOUS
 62
3
 10
170.058094705676920
 20
-81.821706679060298
 11
169.498287084541520
 21
-81.971706679060844
  0
LINE
  8
0
  6
CONTINUOUS
 62
3
 10
167.498287084541520
 20
-81.221706679060844
 11
167.098287084541430
 21
-80.821706679060298
  0
ARC
  8
0
  6
CONTINUOUS
 62
3
 10
174.498287084541970
 20
-92.821706679060298
 40
3.000000000000000
 50
90.000000000000000
 51
270.000000000000000
  0
LINE
  8
0
  6
CONTINUOUS
 62
3
 10
203.498287084541520
 20
-95.821706679060298
 11
174.498287084541970
 21
-95.821706679060298
  0
LINE
  8
0
  6
CONTINUOUS
 62
3
 10
167.498287084541520
 20
-92.821706679060298
 11
167.498287084541520
 21
-104.421706679060660
  0
LINE
  8
0
  6
CONTINUOUS
 62
3
 10
169.498287084541520
 20
-103.671706679060660
 11
168.298287084541240
 21
-103.671706679060660
  0
LINE
  8
0
  6
CONTINUOUS
 62
3
 10
170.058094705676920
 20
-103.821706679060290
 11
169.498287084541520
 21
-103.671706679060660
  0
LINE
  8
0
  6
CONTINUOUS
 62
3
 10
167.498287084541520
 20
-104.421706679060660
 11
167.098287084541430
 21
-104.821706679060290
  0
LINE
  8
0
  6
CONTINUOUS
 62
3
 10
203.098287084541430
 20
-103.821706679060290
 11
170.058094705676920
 21
-103.821706679060290
  0
ARC
  8
0
  6
CONTINUOUS
 62
3
 10
168.298287084541240
 20
-104.471706679059930
 40
0.799999999999272
 50
90.000000000000000
 51
176.296803365782610
  0
LINE
  8
0
  6
CONTINUOUS
 62
3
 10
169.498287084541520
 20
-103.671706679060660
 11
168.298287084541240
 21
-103.671706679060660
  0
LINE
  8
0
  6
CONTINUOUS
 62
3
 10
170.058094705676920
 20
-103.821706679060290
 11
169.498287084541520
 21
-103.671706679060660
  0
LINE
  8
0
  6
CONTINUOUS
 62
3
 10
167.498287084541520
 20
-104.421706679060660
 11
167.098287084541430
 21
-104.821706679060290
  0
LINE
  8
0
  6
CONTINUOUS
 62
3
 10
203.098287084541430
 20
-103.821706679060290
 11
170.058094705676920
 21
-103.821706679060290
  0
LINE
  8
0
  6
CONTINUOUS
 62
3
 10
203.498287084541520
 20
-92.821706679060298
 11
203.498287084541520
 21
-103.421706679060660
  0
ARC
  8
0
  6
CONTINUOUS
 62
3
 10
203.098287084541430
 20
-103.421706679060660
 40
0.399999999999636
 50
270.000000000000000
 51
0.000000000000000
  0
LINE
  8
0
  6
CONTINUOUS
 62
3
 10
203.498287084541520
 20
-89.821706679060298
 11
174.498287084541970
 21
-89.821706679060298
  0
LINE
  8
0
  6
CONTINUOUS
 62
3
 10
165.498287084541520
 20
-104.821706679060290
 11
167.098287084541430
 21
-104.821706679060290
  0
ARC
  8
0
  6
CONTINUOUS
 62
3
 10
143.702668197594900
 20
-159.440805752105920
 40
3.000000000000000
 50
180.000000000000000
 51
268.999999999989370
  0
ARC
  8
0
  6
CONTINUOUS
 62
3
 10
164.665593243106740
 20
-160.174909370753080
 40
3.000000000000000
 50
180.000000000000000
 51
248.825002431728220
  0
POLYLINE
  8
0
  6
CONTINUOUS
 62
3
 66
1
  0
VERTEX
  8
0
  6
CONTINUOUS
 62
3
 10
161.665593243106400
 20
-97.922579605165083
  0
VERTEX
  8
0
  6
CONTINUOUS
 62
3
 10
161.464194884660200
 20
-94.996224810123508
  0
VERTEX
  8
0
  6
CONTINUOUS
 62
3
 10
160.867739435103150
 20
-92.182328186004753
  0
VERTEX
  8
0
  6
CONTINUOUS
 62
3
 10
159.899148342308790
 20
-89.589026199395306
  0
VERTEX
  8
0
  6
CONTINUOUS
 62
3
 10
158.595644017876880
 20
-87.315977988879027
  0
VERTEX
  8
0
  6
CONTINUOUS
 62
3
 10
157.007319400764740
 20
-85.450535520323896
  0
VERTEX
  8
0
  6
CONTINUOUS
 62
3
 10
155.195212913782460
 20
-84.064386699902755
  0
VERTEX
  8
0
  6
CONTINUOUS
 62
3
 10
153.228962791292050
 20
-83.210800448129120
  0
VERTEX
  8
0
  6
CONTINUOUS
 62
3
 10
151.184130920979360
 20
-82.922579605165083
  0
VERTEX
  8
0
  6
CONTINUOUS
 62
3
 10
149.139299042956620
 20
-83.210800336100561
  0
VERTEX
  8
0
  6
CONTINUOUS
 62
3
 10
147.173048897632300
 20
-84.064386480150816
  0
VERTEX
  8
0
  6
CONTINUOUS
 62
3
 10
145.360942373569830
 20
-85.450535201293519
  0
VERTEX
  8
0
  6
CONTINUOUS
 62
3
 10
143.772617706556100
 20
-87.315977582830385
  0
VERTEX
  8
0
  6
CONTINUOUS
 62
3
 10
142.469113321318930
 20
-89.589025721932614
  0
VERTEX
  8
0
  6
CONTINUOUS
 62
3
 10
141.500522159152380
 20
-92.182327655476641
  0
VERTEX
  8
0
  6
CONTINUOUS
 62
3
 10
140.904066634322110
 20
-94.996224246917862
  0
VERTEX
  8
0
  6
CONTINUOUS
 62
3
 10
140.702668197594330
 20
-97.922579030925590
  0
SEQEND
  8
0
  6
CONTINUOUS
 62
3
  0
LINE
  8
0
  6
CONTINUOUS
 62
3
 10
161.665593243106740
 20
-97.922579605165083
 11
161.665593243106740
 21
-160.174909370753080
  0
LINE
  8
0
  6
CONTINUOUS
 62
3
 10
140.702668197594900
 20
-97.922579048226908
 11
140.702668197594900
 21
-159.440805752105920
  0
LINE
  8
0
  6
CONTINUOUS
 62
3
 10
163.498287084541520
 20
-177.321706679060300
 11
165.498287084541520
 21
-177.321706679060300
  0
LINE
  8
0
  6
CONTINUOUS
 62
3
 10
163.498287084541520
 20
-177.821706679060300
 11
163.498287084541520
 21
-177.321706679060300
  0
LINE
  8
0
  6
CONTINUOUS
 62
3
 10
163.498287084541520
 20
-70.169416083293072
 11
163.498287084541520
 21
-162.305696853269180
  0
LINE
  8
0
  6
CONTINUOUS
 62
3
 10
165.498287084541520
 20
-92.821706679060298
 11
165.498287084541520
 21
-71.821706679060298
  0
LINE
  8
0
  6
CONTINUOUS
 62
3
 10
165.498287084541520
 20
-92.821706679060298
 11
165.498287084541520
 21
-113.821706679060290
  0
LINE
  8
0
  6
DASHDOT
 62
4
 10
153.498287084541520
 20
-160.719137949659850
 11
153.498287084541520
 21
-180.469762709333740
  0
LINE
  8
0
  6
CONTINUOUS
 62
3
 10
165.498287084541520
 20
-165.769798468407320
 11
165.498287084541520
 21
-177.321706679060300
  0
LINE
  8
0
  6
DASHDOT
 62
4
 10
216.995583902084040
 20
-92.821706679060298
 11
126.528449079569320
 21
-92.821706679060298
  0
ARC
  8
0
  6
CONTINUOUS
 62
3
 10
162.498287084541520
 20
-165.769798468407320
 40
3.000000000000000
 50
0.000000000000000
 51
88.999999999989399
  0
ARC
  8
0
  6
CONTINUOUS
 62
3
 10
164.498287084541520
 20
-162.305696853269180
 40
1.000000000000000
 50
180.000000000000000
 51
240.000000000015750
  0
ARC
  8
0
  6
CONTINUOUS
 62
3
 10
164.498287084541520
 20
-113.821706679060290
 40
1.000000000000000
 50
270.000000000000000
 51
0.000000000000000
  0
ARC
  8
0
  6
CONTINUOUS
 62
3
 10
164.498287084541520
 20
-115.821706679060290
 40
1.000000000000000
 50
90.000000000000000
 51
180.000000000000000
  0
ARC
  8
0
  6
CONTINUOUS
 62
3
 10
116.451142698304460
 20
-107.406040596003550
 40
60.000000000000639
 50
38.432783305177523
 51
88.999999999999972
  0
ARC
  8
0
  6
CONTINUOUS
 62
3
 10
165.018093913499340
 20
-68.867083037956945
 40
1.999999999999653
 50
218.432783305167020
 51
260.022062996055920
  0
ARC
  8
0
  6
CONTINUOUS
 62
3
 10
164.498287084541520
 20
-71.821706679060298
 40
1.000000000000000
 50
0.000000000000000
 51
80.022062996017439
  0
ENDSEC
  0
EOF
