  0
SECTION
  2
HEADER
  9
$FILLMODE
 70
1
  9
$TEXTSTYLE
  7
STANDARD1
  9
$ACADVER
  1
AC1009
  9
$DIMASZ
 40
1.931851648807023
  9
$DIMEXE
 40
2.000000000000000
  9
$DIMEXO
 40
1.000000000000000
  9
$DIMLFAC
 40
1.000000000000000
  9
$DIMSCALE
 40
1.000000000000000
  9
$DIMTAD
 70
1
  9
$DIMTFAC
 40
0.714285731315613
  9
$DIMTXT
 40
2.799999952316284
  9
$LUPREC
 70
3
  9
$TEXTSIZE
 40
2.799999952316284
  9
$REGENMODE
 70
1
  0
ENDSEC
  0
SECTION
  2
TABLES
  0
TABLE
  2
LTYPE
 70
4
  0
LTYPE
  2
CONTINUOUS
 70
64
  3
Solid line
 72
65
 73
0
 40
0.0
  0
LTYPE
  2
DASHED
 70
64
  3
-- -- -- -- -- -- -- -- -- -- -- -- -- -- --
 72
65
 73
2
 40
0.75
 49
0.5
 49
-0.25
  0
LTYPE
  2
DASHDOT
 70
64
  3
__ . __ . __ . __ . __ . __ . __ . __ . __ . __
 72
65
 73
4
 40
1.0
 49
0.5
 49
-0.25
 49
0.0
 49
-0.25
  0
LTYPE
  2
DIVIDE
 70
64
  3
__ . . __ . . __ . . __ . . __ . . __ . . __
 72
65
 73
6
 40
1.25
 49
0.5
 49
-0.25
 49
0.0
 49
-0.25
 49
0.0
 49
-0.25
  0
ENDTAB
  0
TABLE
  2
LAYER
 70
1
  0
LAYER
  2
0
 70
64
 62
2
  6
CONTINUOUS
  0
ENDTAB
  0
TABLE
  2
STYLE
 70
4
  0
STYLE
  2
STANDARD1
 70
64
 40
0.0
 41
1.0
 50
0.0
 71
0
 42
2.799999952316284
  3
MONOTXT
  4
BIGFONT
  0
STYLE
  2
STANDARD2
 70
68
 40
0.0
 41
1.0
 50
0.0
 71
0
 42
2.799999952316284
  3
MONOTXT
  4
BIGFONT
  0
STYLE
  2
STANDARD3
 70
64
 40
0.0
 41
1.0
 50
0.0
 71
0
 42
2.799999952316284
  3
MONOTXT
  4

  0
STYLE
  2
STANDARD4
 70
68
 40
0.0
 41
1.0
 50
0.0
 71
0
 42
2.799999952316284
  3
MONOTXT
  4

  0
ENDTAB
  0
TABLE
  2
VIEW
 70
0
  0
ENDTAB
  0
ENDSEC
  0
SECTION
  2
BLOCKS
  0
BLOCK
  8
0
  2
SYM1
 70
64
 10
0.000000000000000
 20
0.000000000000000
  0
ARC
  8
0
  6
CONTINUOUS
 62
3
 10
-0.979025304317474
 20
-2.200000762939453
 40
1.299999237060547
 50
196.601531107481040
 51
270.000000000000000
  0
ARC
  8
0
  6
CONTINUOUS
 62
3
 10
-0.979025304317474
 20
2.200000762939453
 40
1.299999237060547
 50
90.000000000000000
 51
163.398451589674950
  0
LINE
  8
0
  6
CONTINUOUS
 62
3
 10
-0.000000000000000
 20
-3.500000000000000
 11
-0.979025304317474
 21
-3.500000000000000
  0
LINE
  8
0
  6
CONTINUOUS
 62
3
 10
0.000000000000000
 20
3.500000000000000
 11
-0.979025304317474
 21
3.500000000000000
  0
LINE
  8
0
  6
CONTINUOUS
 62
3
 10
0.000000000000000
 20
-3.500000000000000
 11
-0.000000000000000
 21
3.500000000000000
  0
LINE
  8
0
  6
CONTINUOUS
 62
3
 10
0.000000000000000
 20
-3.500000000000000
 11
-0.000000000000000
 21
3.500000000000000
  0
POINT
  8
0
  6
CONTINUOUS
 62
3
 10
0.000000000000000
 20
0.000000000000000
  0
ARC
  8
0
  6
CONTINUOUS
 62
3
 10
6.399999618530273
 20
0.000000000000000
 40
9.000000000000000
 50
163.398451589674950
 51
196.601531107481040
  0
ENDBLK
  8
0
  0
BLOCK
  8
0
  2
SYM2
 70
64
 10
0.000000000000000
 20
0.000000000000000
  0
LINE
  8
0
  6
CONTINUOUS
 62
3
 10
-0.000000000000000
 20
-5.000000000000000
 11
-6.000000000000000
 21
-5.000000000000000
  0
LINE
  8
0
  6
CONTINUOUS
 62
3
 10
0.000000000000000
 20
5.000000000000000
 11
-6.000000000000000
 21
5.000000000000000
  0
LINE
  8
0
  6
CONTINUOUS
 62
3
 10
-6.000000000000000
 20
-5.000000000000000
 11
-6.000000000000000
 21
5.000000000000000
  0
LINE
  8
0
  6
CONTINUOUS
 62
3
 10
0.000000000000000
 20
5.000000000000000
 11
0.000000000000000
 21
-5.000000000000000
  0
POINT
  8
0
  6
CONTINUOUS
 62
3
 10
0.000000000000000
 20
0.000000000000000
  0
ENDBLK
  8
0
  0
BLOCK
  8
0
  2
SYM3
 70
64
 10
0.000000000000000
 20
0.000000000000000
  0
ARC
  8
0
  6
CONTINUOUS
 62
3
 10
6.399999618530273
 20
0.000000000000000
 40
9.000000000000000
 50
163.398451589674950
 51
196.601531107481040
  0
POINT
  8
0
  6
CONTINUOUS
 62
3
 10
0.000000000000000
 20
0.000000000000000
  0
LINE
  8
0
  6
CONTINUOUS
 62
3
 10
0.000000000000000
 20
-3.500000000000000
 11
-0.000000000000000
 21
3.500000000000000
  0
LINE
  8
0
  6
CONTINUOUS
 62
3
 10
0.000000000000000
 20
-3.500000000000000
 11
-0.000000000000000
 21
3.500000000000000
  0
LINE
  8
0
  6
CONTINUOUS
 62
3
 10
0.000000000000000
 20
3.500000000000000
 11
-0.979025304317474
 21
3.500000000000000
  0
LINE
  8
0
  6
CONTINUOUS
 62
3
 10
-0.000000000000000
 20
-3.500000000000000
 11
-0.979025304317474
 21
-3.500000000000000
  0
ARC
  8
0
  6
CONTINUOUS
 62
3
 10
-0.979025304317474
 20
2.200000762939453
 40
1.299999237060547
 50
90.000000000000000
 51
163.398451589674950
  0
ARC
  8
0
  6
CONTINUOUS
 62
3
 10
-0.979025304317474
 20
-2.200000762939453
 40
1.299999237060547
 50
196.601531107481040
 51
270.000000000000000
  0
ENDBLK
  8
0
  0
ENDSEC
  0
SECTION
  2
ENTITIES
  0
TEXT
  8
0
  6
CONTINUOUS
 62
3
 10
-411.959838867187500
 20
150.204681396484380
 40
10.295999526977539
  1
Ｓ１００
 50
0.000002504478167
 41
0.984848625190477
  7
STANDARD1
  0
TEXT
  8
0
  6
CONTINUOUS
 62
3
 10
-411.959838867187500
 20
133.668670654296880
 40
10.295999526977539
  1
三菱ギヤードモートル
 50
0.000002504478167
 41
0.984848625190477
  7
STANDARD1
  0
TEXT
  8
0
  6
CONTINUOUS
 62
3
 10
-411.959838867187500
 20
117.132675170898430
 40
10.295999526977539
  1
ＧＭ－ＳＳＢ
 50
0.000002504478167
 41
0.984848625190477
  7
STANDARD1
  0
TEXT
  8
0
  6
CONTINUOUS
 62
3
 10
-411.959838867187500
 20
100.596672058105460
 40
10.295999526977539
  1
０．４ｋＷ
 50
0.000002504478167
 41
0.984848625190477
  7
STANDARD1
  0
TEXT
  8
0
  6
CONTINUOUS
 62
3
 10
-411.959838867187500
 20
84.060676574707031
 40
10.295999526977539
  1
１／６０～１／１００
 50
0.000002504478167
 41
0.984848625190477
  7
STANDARD1
  0
TEXT
  8
0
  6
CONTINUOUS
 62
3
 10
-411.959838867187500
 20
67.524673461914062
 40
10.295999526977539
  1
ＳＣＡＬＥ１／１
 50
0.000002504478167
 41
0.984848625190477
  7
STANDARD1
  0
LINE
  8
0
  6
CONTINUOUS
 62
3
 10
42.052273637791586
 20
105.877941956470730
 11
63.552273637775215
 21
105.877941956470750
  0
LINE
  8
0
  6
CONTINUOUS
 62
3
 10
42.052273637791586
 20
135.877941956470750
 11
63.552273637775215
 21
135.877941956470750
  0
CIRCLE
  8
0
  6
CONTINUOUS
 62
3
 10
-325.991599571174450
 20
-190.572184390499420
 40
5.000000000000000
  0
LINE
  8
0
  6
CONTINUOUS
 62
3
 10
-328.491597186989910
 20
-192.015556035497330
 11
-328.491598140664110
 21
-189.128806767919200
  0
LINE
  8
0
  6
CONTINUOUS
 62
3
 10
-323.491601955359560
 20
-189.128812745500370
 11
-323.491601001685240
 21
-192.015558198381230
  0
LINE
  8
0
  6
CONTINUOUS
 62
3
 10
-325.991594849967210
 20
-187.685435650143320
 11
-323.491601065175930
 21
-189.128812294690790
  0
LINE
  8
0
  6
CONTINUOUS
 62
3
 10
-325.991605083299870
 20
-193.458931328221550
 11
-328.491597388343510
 21
-192.015555981477320
  0
LINE
  8
0
  6
CONTINUOUS
 62
3
 10
-325.991594788737760
 20
-187.685436130286040
 11
-328.491599516784620
 21
-189.128807165379190
  0
LINE
  8
0
  6
CONTINUOUS
 62
3
 10
-323.491600219230350
 20
-192.015558365175390
 11
-325.991604568736880
 21
-193.458931941871270
  0
CIRCLE
  8
0
  6
CONTINUOUS
 62
3
 10
-411.991599571174450
 20
-190.572184390499420
 40
5.000000000000000
  0
LINE
  8
0
  6
CONTINUOUS
 62
3
 10
-409.491601955358870
 20
-192.015556035497330
 11
-409.491601001684560
 21
-189.128806767919200
  0
LINE
  8
0
  6
CONTINUOUS
 62
3
 10
-414.491597186989220
 20
-189.128812745500370
 11
-414.491598140663540
 21
-192.015558198381230
  0
LINE
  8
0
  6
CONTINUOUS
 62
3
 10
-411.991604292381680
 20
-187.685435650143320
 11
-414.491598077172970
 21
-189.128812294690790
  0
LINE
  8
0
  6
CONTINUOUS
 62
3
 10
-411.991594059048910
 20
-193.458931328221550
 11
-409.491601754005390
 21
-192.015555981477320
  0
LINE
  8
0
  6
CONTINUOUS
 62
3
 10
-411.991604353611140
 20
-187.685436130286040
 11
-409.491599625564280
 21
-189.128807165379190
  0
LINE
  8
0
  6
CONTINUOUS
 62
3
 10
-414.491598923118430
 20
-192.015558365175390
 11
-411.991594573612020
 21
-193.458931941871270
  0
CIRCLE
  8
0
  6
CONTINUOUS
 62
3
 10
-326.991599571174330
 20
-53.072184390499388
 40
5.000000000000000
  0
LINE
  8
0
  6
CONTINUOUS
 62
3
 10
-329.491597186989790
 20
-54.515556035497184
 11
-329.491598140664110
 21
-51.628806767919059
  0
LINE
  8
0
  6
CONTINUOUS
 62
3
 10
-324.491601955359560
 20
-51.628812745500454
 11
-324.491601001685240
 21
-54.515558198381314
  0
LINE
  8
0
  6
CONTINUOUS
 62
3
 10
-326.991594849967100
 20
-50.185435650143290
 11
-324.491601065175810
 21
-51.628812294690761
  0
LINE
  8
0
  6
CONTINUOUS
 62
3
 10
-326.991605083299870
 20
-55.958931328221524
 11
-329.491597388343390
 21
-54.515555981477291
  0
LINE
  8
0
  6
CONTINUOUS
 62
3
 10
-326.991594788737640
 20
-50.185436130286007
 11
-329.491599516784500
 21
-51.628807165379158
  0
LINE
  8
0
  6
CONTINUOUS
 62
3
 10
-324.491600219230350
 20
-54.515558365175366
 11
-326.991604568736760
 21
-55.958931941871242
  0
CIRCLE
  8
0
  6
CONTINUOUS
 62
3
 10
-410.991599571174450
 20
-53.072184390499388
 40
5.000000000000000
  0
LINE
  8
0
  6
CONTINUOUS
 62
3
 10
-408.491601955358870
 20
-54.515556035497184
 11
-408.491601001684670
 21
-51.628806767919059
  0
LINE
  8
0
  6
CONTINUOUS
 62
3
 10
-413.491597186989220
 20
-51.628812745500454
 11
-413.491598140663540
 21
-54.515558198381314
  0
LINE
  8
0
  6
CONTINUOUS
 62
3
 10
-410.991604292381680
 20
-50.185435650143290
 11
-413.491598077172970
 21
-51.628812294690761
  0
LINE
  8
0
  6
CONTINUOUS
 62
3
 10
-410.991594059048910
 20
-55.958931328221524
 11
-408.491601754005390
 21
-54.515555981477291
  0
LINE
  8
0
  6
CONTINUOUS
 62
3
 10
-410.991604353611140
 20
-50.185436130286007
 11
-408.491599625564280
 21
-51.628807165379158
  0
LINE
  8
0
  6
CONTINUOUS
 62
3
 10
-413.491598923118430
 20
-54.515558365175366
 11
-410.991594573612020
 21
-55.958931941871242
  0
ARC
  8
0
  6
CONTINUOUS
 62
3
 10
-368.991599571174330
 20
-488.072184390723350
 40
450.000000000000000
 50
90.000000000000000
 51
92.158403465040564
  0
ARC
  8
0
  6
CONTINUOUS
 62
3
 10
-368.991599571174330
 20
-488.072184390723350
 40
449.999999999999830
 50
87.841596534959436
 51
90.000000000000000
  0
ARC
  8
0
  6
CONTINUOUS
 62
3
 10
-309.241076560910870
 20
-66.392729192101797
 40
2.999999999999944
 50
44.999999999998472
 51
135.000000000000000
  0
ARC
  8
0
  6
CONTINUOUS
 62
3
 10
-316.312144372776290
 20
-59.321661380236492
 40
2.999999999999944
 50
315.000000000001530
 51
45.000000000001542
  0
ARC
  8
0
  6
CONTINUOUS
 62
3
 10
-428.742122581438030
 20
-66.392729192101797
 40
3.000000000000024
 50
44.999999999996930
 51
135.000000000000000
  0
ARC
  8
0
  6
CONTINUOUS
 62
3
 10
-421.671054769572490
 20
-59.321661380236492
 40
3.000000000000105
 50
134.999999999998470
 51
225.000000000000000
  0
ARC
  8
0
  6
CONTINUOUS
 62
3
 10
-428.742122581438030
 20
-171.751639588896750
 40
3.000000000000024
 50
225.000000000003070
 51
315.000000000000000
  0
ARC
  8
0
  6
CONTINUOUS
 62
3
 10
-421.671054769572490
 20
-178.822707400762310
 40
2.999999999999864
 50
135.000000000000000
 51
224.999999999998470
  0
ARC
  8
0
  6
CONTINUOUS
 62
3
 10
-309.241076560910870
 20
-171.751639588896750
 40
3.000000000000024
 50
225.000000000003070
 51
315.000000000000000
  0
ARC
  8
0
  6
CONTINUOUS
 62
3
 10
-316.312144372776290
 20
-178.822707400762310
 40
2.999999999999944
 50
315.000000000001530
 51
44.999999999998472
  0
ARC
  8
0
  6
CONTINUOUS
 62
3
 10
-425.688689686446420
 20
-187.675682642853220
 40
6.000000000000070
 50
348.059665094244340
 51
50.428105065558938
  0
ARC
  8
0
  6
CONTINUOUS
 62
3
 10
-411.991599571174330
 20
-190.572184390499420
 40
7.999999999999997
 50
168.059665094243630
 51
223.432536557789380
  0
LINE
  8
0
  6
CONTINUOUS
 62
3
 10
-417.801074590485540
 20
-196.072184390499420
 11
-368.991599571174450
 21
-196.072184390499420
  0
LINE
  8
0
  6
CONTINUOUS
 62
3
 10
-320.182124551863240
 20
-196.072184390499420
 11
-368.991599571174450
 21
-196.072184390499420
  0
ARC
  8
0
  6
CONTINUOUS
 62
3
 10
-325.991599571174450
 20
-190.572184390499420
 40
8.000000000000060
 50
316.567463442210680
 51
11.940334905756371
  0
ARC
  8
0
  6
CONTINUOUS
 62
3
 10
-312.294509455902360
 20
-187.675682642853220
 40
5.999999999999928
 50
129.571894934441900
 51
191.940334905755690
  0
ARC
  8
0
  6
CONTINUOUS
 62
3
 10
-398.991599571174450
 20
-45.381982745486766
 40
4.999999999999875
 50
104.971190995947770
 51
180.000000000000000
  0
LINE
  8
0
  6
CONTINUOUS
 62
3
 10
-403.991599571174450
 20
-45.381982745486766
 11
-403.991599571174450
 21
-53.072184390499388
  0
ARC
  8
0
  6
CONTINUOUS
 62
3
 10
-410.991599571174450
 20
-53.072184390499388
 40
6.999999999999935
 50
201.479465819260750
 51
0.000000000000000
  0
ARC
  8
0
  6
CONTINUOUS
 62
3
 10
-422.158185870267970
 20
-57.466197411064513
 40
5.000000000000025
 50
21.479465819262810
 51
130.123934227061850
  0
ARC
  8
0
  6
CONTINUOUS
 62
3
 10
-417.760900882276700
 20
-180.050057115955070
 40
4.999999999999917
 50
223.887028754551240
 51
298.736037863438240
  0
ARC
  8
0
  6
CONTINUOUS
 62
3
 10
-338.991599571174450
 20
-45.381982745486766
 40
5.000000000000000
 50
0.000000000000000
 51
75.028809004050956
  0
LINE
  8
0
  6
CONTINUOUS
 62
3
 10
-333.991599571174450
 20
-45.381982745486766
 11
-333.991599571174450
 21
-53.072184390499388
  0
ARC
  8
0
  6
CONTINUOUS
 62
3
 10
-326.991599571174450
 20
-53.072184390499388
 40
7.000000000000000
 50
180.000000000000000
 51
338.520534180739620
  0
ARC
  8
0
  6
CONTINUOUS
 62
3
 10
-315.825013272080810
 20
-57.466197411064513
 40
5.000000000000052
 50
49.876065772938119
 51
158.520534180737200
  0
ARC
  8
0
  6
CONTINUOUS
 62
3
 10
-320.222298260071970
 20
-180.050057115955070
 40
5.000000000000031
 50
241.263962136560650
 51
316.112971245447850
  0
LINE
  8
0
  6
CONTINUOUS
 62
3
 10
-314.491599571174450
 20
-198.072184390499420
 11
-314.491599571174450
 21
-187.004135635844960
  0
LINE
  8
0
  6
CONTINUOUS
 62
3
 10
-286.491599571174450
 20
-183.072184390499640
 11
-286.491599571174450
 21
-198.072184390499420
  0
LINE
  8
0
  6
CONTINUOUS
 62
3
 10
-286.491599571174450
 20
-198.072184390499420
 11
-314.491599571174450
 21
-198.072184390499420
  0
ARC
  8
0
  6
CONTINUOUS
 62
3
 10
-425.688689686446420
 20
-187.675682642853220
 40
6.000000000000070
 50
348.059665094244340
 51
50.428105065558938
  0
ARC
  8
0
  6
CONTINUOUS
 62
3
 10
-312.294509455902240
 20
-187.675682642853220
 40
6.000000000000001
 50
129.571894934442720
 51
191.940334905755690
  0
ARC
  8
0
  6
CONTINUOUS
 62
3
 10
-448.491599571174450
 20
-183.072184390499640
 40
3.000000000000000
 50
90.000000000000000
 51
180.000000000000000
  0
ARC
  8
0
  6
CONTINUOUS
 62
3
 10
-289.491599571174450
 20
-183.072184390499640
 40
3.000000000000000
 50
0.000000000000000
 51
90.000000000000000
  0
LINE
  8
0
  6
CONTINUOUS
 62
3
 10
-448.491599571174450
 20
-180.072184390499640
 11
-430.838183955439380
 21
-180.072184390499420
  0
LINE
  8
0
  6
CONTINUOUS
 62
3
 10
-289.491599571174450
 20
-180.072184390499640
 11
-307.145015186909400
 21
-180.072184390499420
  0
LINE
  8
0
  6
CONTINUOUS
 62
3
 10
-421.491599571174450
 20
-196.072184390499420
 11
-368.991599571174450
 21
-196.072184390499420
  0
ARC
  8
0
  6
CONTINUOUS
 62
3
 10
-421.491599571174450
 20
-198.072184390499420
 40
2.000000000000000
 50
90.000000000000000
 51
180.000000000000000
  0
ARC
  8
0
  6
CONTINUOUS
 62
3
 10
-368.991599571174450
 20
-119.072184390499380
 40
86.000000000000014
 50
210.733842610396410
 51
229.754246113652730
  0
ARC
  8
0
  6
CONTINUOUS
 62
3
 10
-411.991599571174450
 20
-190.572184390499420
 40
7.999999999999885
 50
168.059665094243460
 51
223.432536557789920
  0
ARC
  8
0
  6
CONTINUOUS
 62
3
 10
-325.991599571174450
 20
-190.572184390499420
 40
8.000000000000142
 50
316.567463442211190
 51
11.940334905756204
  0
ARC
  8
0
  6
CONTINUOUS
 62
3
 10
-368.991599571174450
 20
-119.072184390499380
 40
86.000000000000099
 50
310.245753886347360
 51
329.266157389603560
  0
ARC
  8
0
  6
CONTINUOUS
 62
3
 10
-316.491599571174450
 20
-198.072184390499420
 40
2.000000000000000
 50
0.000000000000000
 51
90.000000000000000
  0
LINE
  8
0
  6
CONTINUOUS
 62
3
 10
-316.491599571174450
 20
-196.072184390499420
 11
-368.991599571174450
 21
-196.072184390499420
  0
LINE
  8
0
  6
DASHDOT
 62
4
 10
-298.991599571174450
 20
-201.152688159420480
 11
-298.991599571174450
 21
-170.916867198421870
  0
ARC
  8
0
  6
CONTINUOUS
 62
3
 10
-368.991599571174450
 20
-488.072184390723350
 40
450.000000000000000
 50
90.000000000000000
 51
92.158403465040564
  0
ARC
  8
0
  6
CONTINUOUS
 62
3
 10
-368.991599571174450
 20
-488.072184390723350
 40
449.999999999999830
 50
87.841596534959436
 51
90.000000000000000
  0
ARC
  8
0
  6
CONTINUOUS
 62
3
 10
-292.491599571174450
 20
-164.555697887150020
 40
3.000000000000000
 50
0.000000000000000
 51
149.266157389601970
  0
ARC
  8
0
  6
CONTINUOUS
 62
3
 10
-445.491599571174450
 20
-164.555697887149900
 40
2.999999999999919
 50
30.733842610396163
 51
180.000000000000000
  0
LINE
  8
0
  6
CONTINUOUS
 62
3
 10
-423.491599571174330
 20
-198.072184390499420
 11
-423.491599571174330
 21
-187.004135635844960
  0
LINE
  8
0
  6
DASHDOT
 62
4
 10
-438.991599571174330
 20
-201.152688159420480
 11
-438.991599571174450
 21
-170.916867198421870
  0
LINE
  8
0
  6
CONTINUOUS
 62
3
 10
-451.491599571174330
 20
-183.072184390499640
 11
-451.491599571174330
 21
-198.072184390499420
  0
ARC
  8
0
  6
CONTINUOUS
 62
3
 10
-307.145015186909400
 20
-183.072184390499420
 40
3.000000000000000
 50
90.000000000000000
 51
134.019682679973360
  0
ARC
  8
0
  6
CONTINUOUS
 62
3
 10
-311.491599571174450
 20
-187.004135635844960
 40
2.999999999999934
 50
130.245753886346360
 51
180.000000000000000
  0
ARC
  8
0
  6
CONTINUOUS
 62
3
 10
-426.491599571174450
 20
-187.004135635844960
 40
3.000000000000000
 50
0.000000000000000
 51
49.754246113650318
  0
ARC
  8
0
  6
CONTINUOUS
 62
3
 10
-430.838183955439260
 20
-183.072184390499420
 40
2.999999999999905
 50
45.980317320029776
 51
90.000000000000000
  0
ARC
  8
0
  6
CONTINUOUS
 62
3
 10
-286.491599571174450
 20
-177.876031967793010
 40
3.000000000000000
 50
180.000000000000000
 51
239.999999999999460
  0
ARC
  8
0
  6
CONTINUOUS
 62
3
 10
-451.491599571174450
 20
-177.876031967793010
 40
2.999999999999951
 50
300.000000000000510
 51
0.000000000000000
  0
LINE
  8
0
  6
CONTINUOUS
 62
3
 10
-423.491599571174330
 20
-198.072184390499420
 11
-451.491599571174330
 21
-198.072184390499420
  0
LINE
  8
0
  6
CONTINUOUS
 62
3
 10
-423.491599571174330
 20
-197.572184390499420
 11
-451.491599571174330
 21
-197.572184390499420
  0
LINE
  8
0
  6
CONTINUOUS
 62
3
 10
-286.491599571174450
 20
-197.572184390499420
 11
-314.491599571174450
 21
-197.572184390499420
  0
INSERT
  8
0
  2
SYM1
 10
-456.436421777517810
 20
-159.991141001759840
 41
1.000000000000000
 42
1.000000000000000
 43
1.000000000000000
 50
357.137594773886350
  0
ARC
  8
0
  6
CONTINUOUS
 62
3
 10
-571.491599571174450
 20
-119.072184390499500
 40
300.000000000000060
 50
353.967950853630210
 51
6.032049146369816
  0
LINE
  8
0
  6
CONTINUOUS
 62
3
 10
-271.502016418692160
 20
-121.572184390499380
 11
-270.991599571174450
 21
-121.572184390499380
  0
LINE
  8
0
  6
CONTINUOUS
 62
3
 10
-271.491601428372180
 20
-116.572184390499380
 11
-270.991599571174450
 21
-116.572184390499380
  0
LINE
  8
0
  6
CONTINUOUS
 62
3
 10
-270.991599571174450
 20
-121.572184390499380
 11
-270.991599571174450
 21
-116.572184390499380
  0
ARC
  8
0
  6
CONTINUOUS
 62
3
 10
-278.124934798232060
 20
-150.072184390499390
 40
5.000000000000000
 50
270.000000000000000
 51
353.967950853629650
  0
LINE
  8
0
  6
CONTINUOUS
 62
3
 10
-306.685296062253880
 20
-155.072184390499390
 11
-278.124934798232060
 21
-155.072184390499390
  0
LINE
  8
0
  6
CONTINUOUS
 62
3
 10
-306.685296062253880
 20
-83.072184390499388
 11
-278.124934798232060
 21
-83.072184390499388
  0
ARC
  8
0
  6
CONTINUOUS
 62
3
 10
-278.124934798232060
 20
-88.072184390499388
 40
5.000000000000131
 50
6.032049146369048
 51
90.000000000000000
  0
LINE
  8
0
  6
CONTINUOUS
 62
3
 10
-305.491599571174450
 20
-149.064683452766190
 11
-305.491599571174450
 21
-155.072184390499390
  0
LINE
  8
0
  6
CONTINUOUS
 62
3
 10
-305.491599571174450
 20
-89.079685328232586
 11
-305.491599571174450
 21
-83.072184390499388
  0
ARC
  8
0
  6
CONTINUOUS
 62
4
 10
-133.391599571174310
 20
-119.072184390499380
 40
289.397000000000160
 50
180.000000000000000
 51
186.051985358668500
  0
ARC
  8
0
  6
CONTINUOUS
 62
4
 10
-405.864500496384840
 20
-147.960214115637650
 40
15.397000000000052
 50
186.051985358668840
 51
225.000000000000000
  0
LINE
  8
0
  6
CONTINUOUS
 62
4
 10
-412.175758213675640
 20
-163.423602618205680
 11
-416.751823606314250
 21
-158.847537225567070
  0
ARC
  8
0
  6
CONTINUOUS
 62
4
 10
-407.933117526556540
 20
-159.180961931086130
 40
6.000000000000049
 50
225.000000000003070
 51
262.102011327574360
  0
ARC
  8
0
  6
CONTINUOUS
 62
4
 10
-368.991599571174220
 20
121.527815609500520
 40
289.396999999999820
 50
262.102011327572200
 51
270.000000000000000
  0
ARC
  8
0
  6
CONTINUOUS
 62
4
 10
-604.591599571174360
 20
-119.072184390499380
 40
289.397000000000160
 50
353.948014641331500
 51
0.000000000000000
  0
ARC
  8
0
  6
CONTINUOUS
 62
4
 10
-332.118698645963830
 20
-147.960214115637650
 40
15.396999999999876
 50
315.000000000000000
 51
353.948014641331160
  0
LINE
  8
0
  6
CONTINUOUS
 62
4
 10
-325.807440928673030
 20
-163.423602618205680
 11
-321.231375536034420
 21
-158.847537225567070
  0
ARC
  8
0
  6
CONTINUOUS
 62
4
 10
-330.050081615792120
 20
-159.180961931086130
 40
5.999999999999923
 50
277.897988672425640
 51
314.999999999996870
  0
ARC
  8
0
  6
CONTINUOUS
 62
4
 10
-368.991599571174450
 20
121.527815609500520
 40
289.396999999999930
 50
270.000000000000000
 51
277.897988672427800
  0
ARC
  8
0
  6
CONTINUOUS
 62
4
 10
-604.591599571174360
 20
-119.072184390499380
 40
289.397000000000160
 50
0.000000000000000
 51
6.051985358668508
  0
ARC
  8
0
  6
CONTINUOUS
 62
4
 10
-332.118698645963830
 20
-90.184154665361120
 40
15.397000000000052
 50
6.051985358668849
 51
45.000000000000000
  0
LINE
  8
0
  6
CONTINUOUS
 62
4
 10
-325.807440928673030
 20
-74.720766162793097
 11
-321.231375536034420
 21
-79.296831555431709
  0
ARC
  8
0
  6
CONTINUOUS
 62
4
 10
-330.050081615792120
 20
-78.963406849912644
 40
6.000000000000049
 50
45.000000000003077
 51
82.102011327574374
  0
ARC
  8
0
  6
CONTINUOUS
 62
4
 10
-368.991599571174450
 20
-359.672184390499300
 40
289.396999999999820
 50
82.102011327572214
 51
90.000000000000000
  0
ARC
  8
0
  6
CONTINUOUS
 62
4
 10
-133.391599571174540
 20
-119.072184390499380
 40
289.396999999999930
 50
173.948014641331470
 51
180.000000000000000
  0
LINE
  8
0
  6
CONTINUOUS
 62
4
 10
-412.175758213675640
 20
-74.720766162793097
 11
-416.751823606314250
 21
-79.296831555431709
  0
ARC
  8
0
  6
CONTINUOUS
 62
4
 10
-405.864500496384840
 20
-90.184154665361120
 40
15.396999999999876
 50
135.000000000000000
 51
173.948014641331160
  0
ARC
  8
0
  6
CONTINUOUS
 62
3
 10
-332.118698645963830
 20
-147.960214115637650
 40
26.599999999999955
 50
315.000000000001020
 51
353.948014641331380
  0
LINE
  8
0
  6
CONTINUOUS
 62
3
 10
-320.376107385060780
 20
-173.835703613859100
 11
-313.309658266401360
 21
-166.769254495199450
  0
ARC
  8
0
  6
CONTINUOUS
 62
3
 10
-604.591599571174360
 20
-119.072184390499380
 40
300.600000000000080
 50
353.948014641331500
 51
6.051985358668499
  0
ARC
  8
0
  6
CONTINUOUS
 62
3
 10
-405.864500496384840
 20
-147.960214115637650
 40
26.599999999999969
 50
186.051985358668590
 51
224.999999999998980
  0
ARC
  8
0
  6
CONTINUOUS
 62
3
 10
-133.391599571174540
 20
-119.072184390499380
 40
300.599999999999850
 50
173.948014641331500
 51
186.051985358668500
  0
LINE
  8
0
  6
CONTINUOUS
 62
3
 10
-417.607091757288120
 20
-173.835703613859100
 11
-424.673540875947310
 21
-166.769254495199450
  0
ARC
  8
0
  6
CONTINUOUS
 62
3
 10
-405.864500496384840
 20
-90.184154665361120
 40
26.600000000000119
 50
135.000000000000000
 51
173.948014641331410
  0
LINE
  8
0
  6
CONTINUOUS
 62
3
 10
-417.607091757288120
 20
-64.308665167139907
 11
-424.673540875947080
 21
-71.375114285798873
  0
ARC
  8
0
  6
CONTINUOUS
 62
3
 10
-332.118698645964060
 20
-90.184154665361120
 40
26.600000000000193
 50
6.051985358668552
 51
45.000000000000000
  0
LINE
  8
0
  6
CONTINUOUS
 62
3
 10
-320.376107385060780
 20
-64.308665167139907
 11
-313.309658266401810
 21
-71.375114285798873
  0
ARC
  8
0
  6
CONTINUOUS
 62
3
 10
-412.940187001456930
 20
-169.168798858027910
 40
6.599999999999957
 50
225.000000000000000
 51
261.402917762751090
  0
ARC
  8
0
  6
CONTINUOUS
 62
3
 10
-368.991599571174450
 20
121.527815609500740
 40
300.600000000000020
 50
261.402917762750920
 51
270.000000000000000
  0
ARC
  8
0
  6
CONTINUOUS
 62
3
 10
-325.043012140891960
 20
-169.168798858027910
 40
6.599999999999747
 50
278.597082237248910
 51
315.000000000000000
  0
ARC
  8
0
  6
CONTINUOUS
 62
3
 10
-368.991599571174450
 20
-359.672184390499300
 40
300.599999999999800
 50
81.402917762750931
 51
90.000000000000000
  0
ARC
  8
0
  6
CONTINUOUS
 62
3
 10
-325.043012140891960
 20
-68.975569922971090
 40
6.600000000000118
 50
45.000000000001400
 51
81.402917762751386
  0
ARC
  8
0
  6
CONTINUOUS
 62
3
 10
-368.991599571174450
 20
121.527815609500740
 40
300.600000000000140
 50
270.000000000000000
 51
278.597082237249080
  0
ARC
  8
0
  6
CONTINUOUS
 62
3
 10
-368.991599571174450
 20
-359.672184390499300
 40
300.599999999999910
 50
90.000000000000000
 51
98.597082237249069
  0
ARC
  8
0
  6
CONTINUOUS
 62
3
 10
-364.991599571174450
 20
-77.765405285853831
 40
1.500000000000203
 50
84.468928475159132
 51
180.000000000000000
  0
ARC
  8
0
  6
CONTINUOUS
 62
3
 10
-372.991599571174450
 20
-77.765405285853603
 40
1.500000000000000
 50
0.000000000000000
 51
95.531071524841693
  0
ARC
  8
0
  6
CONTINUOUS
 62
3
 10
-368.991599571174220
 20
-119.072184390498930
 40
17.999999999999922
 50
41.837004155893325
 51
78.162995844107314
  0
ARC
  8
0
  6
CONTINUOUS
 62
3
 10
-368.991599571174670
 20
-119.072184390498930
 40
27.499999999999815
 50
97.928141766201691
 51
142.071858233797880
  0
LINE
  8
0
  6
CONTINUOUS
 62
3
 10
-366.491599571174450
 20
-77.765405285853831
 11
-366.491599571174450
 21
-80.780540393407819
  0
LINE
  8
0
  6
CONTINUOUS
 62
3
 10
-337.080063117023660
 20
-97.761298882492611
 11
-334.468879518039560
 21
-96.253731328715503
  0
LINE
  8
0
  6
CONTINUOUS
 62
3
 10
-366.491599571174450
 20
-87.323168657724409
 11
-366.491599571174450
 21
-90.349371157808946
  0
ARC
  8
0
  6
CONTINUOUS
 62
3
 10
-364.991599571174450
 20
-87.323168657724409
 40
1.499999999999998
 50
82.819244218541712
 51
180.000000000000000
  0
ARC
  8
0
  6
CONTINUOUS
 62
3
 10
-364.991599571174450
 20
-80.780540393407819
 40
1.500000000000000
 50
180.000000000000000
 51
264.036429881682580
  0
ARC
  8
0
  6
CONTINUOUS
 62
3
 10
-335.218879518039560
 20
-94.954693223038703
 40
1.500000000000123
 50
299.999999999997270
 51
35.531071524839192
  0
ARC
  8
0
  6
CONTINUOUS
 62
3
 10
-368.991599571174900
 20
-119.072184390499380
 40
42.999999999999908
 50
35.531071524839248
 51
84.468928475160212
  0
ARC
  8
0
  6
CONTINUOUS
 62
3
 10
-331.218879518039100
 20
-101.882896453314740
 40
1.500000000000034
 50
24.468928475159590
 51
119.999999999997270
  0
LINE
  8
0
  6
CONTINUOUS
 62
3
 10
-334.580063117023430
 20
-102.091425901415050
 11
-331.968879518039100
 21
-100.583858347637940
  0
ARC
  8
0
  6
CONTINUOUS
 62
3
 10
-333.830063117023430
 20
-103.390464007091850
 40
1.500000000000123
 50
119.999999999997270
 51
204.036429881680680
  0
ARC
  8
0
  6
CONTINUOUS
 62
3
 10
-368.991599571174670
 20
-119.072184390499840
 40
36.999999999999972
 50
335.963570118321740
 51
24.036429881678870
  0
ARC
  8
0
  6
CONTINUOUS
 62
3
 10
-368.991599571174670
 20
-119.072184390499840
 40
42.999999999999936
 50
335.531071524839770
 51
24.468928475160769
  0
ARC
  8
0
  6
CONTINUOUS
 62
3
 10
-331.218879518039100
 20
-136.261472327684260
 40
1.500000000000320
 50
240.000000000007050
 51
335.531071524832500
  0
LINE
  8
0
  6
CONTINUOUS
 62
3
 10
-331.968879518039100
 20
-137.560510433361290
 11
-334.580063117023200
 21
-136.052942879583950
  0
ARC
  8
0
  6
CONTINUOUS
 62
3
 10
-333.830063117023200
 20
-134.753904773907380
 40
1.500000000000063
 50
155.963570118322880
 51
239.999999999998410
  0
ARC
  8
0
  6
CONTINUOUS
 62
3
 10
-335.218879518039100
 20
-143.189675557960070
 40
1.499999999999844
 50
324.468928475167900
 51
59.999999999998380
  0
LINE
  8
0
  6
CONTINUOUS
 62
3
 10
-334.468879518039100
 20
-141.890637452283500
 11
-337.080063117023200
 21
-140.383069898506160
  0
LINE
  8
0
  6
CONTINUOUS
 62
3
 10
-371.491599571174450
 20
-77.765405285853603
 11
-371.491599571174450
 21
-80.780540393407819
  0
ARC
  8
0
  6
CONTINUOUS
 62
3
 10
-372.991599571174450
 20
-80.780540393407819
 40
1.499999999999933
 50
275.963570118318330
 51
0.000000000000000
  0
LINE
  8
0
  6
CONTINUOUS
 62
3
 10
-371.491599571174450
 20
-87.323168657724409
 11
-371.491599571174450
 21
-90.349371157808946
  0
ARC
  8
0
  6
CONTINUOUS
 62
3
 10
-372.991599571174450
 20
-87.323168657724409
 40
1.500000000000000
 50
0.000000000000000
 51
97.180755781458288
  0
ARC
  8
0
  6
CONTINUOUS
 62
3
 10
-368.991599571174900
 20
-119.072184390498930
 40
23.999999999999901
 50
100.240348321185670
 51
139.759651678813550
  0
ARC
  8
0
  6
CONTINUOUS
 62
3
 10
-386.166778840219420
 20
-104.537287862618990
 40
1.499999999999802
 50
139.759651678811420
 51
239.999999999998410
  0
LINE
  8
0
  6
CONTINUOUS
 62
3
 10
-384.269984247240250
 20
-107.364453539041730
 11
-386.916778840219420
 21
-105.836325968295560
  0
ARC
  8
0
  6
CONTINUOUS
 62
3
 10
-383.519984247240250
 20
-106.065415433365160
 40
1.499999999999926
 50
239.999999999998410
 51
318.162995844106720
  0
ARC
  8
0
  6
CONTINUOUS
 62
3
 10
-368.991599571174900
 20
-119.072184390498930
 40
17.999999999999829
 50
101.837004155891980
 51
138.162995844106210
  0
ARC
  8
0
  6
CONTINUOUS
 62
3
 10
-372.991599571174450
 20
-99.986849706506746
 40
1.499999999999954
 50
281.837004155896690
 51
0.000000000000000
  0
LINE
  8
0
  6
CONTINUOUS
 62
3
 10
-371.491599571174450
 20
-96.930594565014417
 11
-371.491599571174450
 21
-99.986849706506746
  0
ARC
  8
0
  6
CONTINUOUS
 62
3
 10
-372.991599571174450
 20
-96.930594565014417
 40
1.500000000000000
 50
0.000000000000000
 51
100.240348321194510
  0
ARC
  8
0
  6
CONTINUOUS
 62
3
 10
-368.991599571174900
 20
-119.072184390498930
 40
14.499999999999980
 50
107.920213139390830
 51
132.079786860607560
  0
ARC
  8
0
  6
CONTINUOUS
 62
3
 10
-377.703742213989020
 20
-109.423424336934650
 40
1.499999999999792
 50
132.079786860611680
 51
239.999999999998410
  0
LINE
  8
0
  6
CONTINUOUS
 62
3
 10
-375.678853504368360
 20
-112.324545186082100
 11
-378.453742213989020
 21
-110.722462442611230
  0
ARC
  8
0
  6
CONTINUOUS
 62
3
 10
-374.928853504368360
 20
-111.025507080405530
 40
1.499999999999926
 50
239.999999999998410
 51
306.421821521797600
  0
ARC
  8
0
  6
CONTINUOUS
 62
3
 10
-368.991599571174900
 20
-119.072184390498930
 40
8.499999999999879
 50
113.578178478199500
 51
126.421821521797340
  0
ARC
  8
0
  6
CONTINUOUS
 62
3
 10
-372.991599571174450
 20
-109.907033000587030
 40
1.500000000000139
 50
293.578178478195700
 51
0.000000000000000
  0
LINE
  8
0
  6
CONTINUOUS
 62
3
 10
-371.491599571174450
 20
-106.702867513645970
 11
-371.491599571174450
 21
-109.907033000587030
  0
ARC
  8
0
  6
CONTINUOUS
 62
3
 10
-372.991599571174450
 20
-106.702867513645970
 40
1.500000000000000
 50
0.000000000000000
 51
107.920213139394770
  0
ARC
  8
0
  6
CONTINUOUS
 62
3
 10
-368.991599571174450
 20
-119.072184390499380
 40
23.999999999999716
 50
280.240348321186270
 51
319.759651678814690
  0
ARC
  8
0
  6
CONTINUOUS
 62
3
 10
-364.991599571174450
 20
-141.213774215983900
 40
1.500000000000000
 50
180.000000000000000
 51
280.240348321187530
  0
LINE
  8
0
  6
CONTINUOUS
 62
3
 10
-366.491599571174450
 20
-138.157519074491570
 11
-366.491599571174450
 21
-141.213774215983900
  0
ARC
  8
0
  6
CONTINUOUS
 62
3
 10
-364.991599571174450
 20
-138.157519074491570
 40
1.499999999999731
 50
101.837004155898450
 51
180.000000000000000
  0
ARC
  8
0
  6
CONTINUOUS
 62
3
 10
-368.991599571174450
 20
-119.072184390499380
 40
18.000000000000146
 50
281.837004155893230
 51
318.162995844107680
  0
ARC
  8
0
  6
CONTINUOUS
 62
3
 10
-354.463214895108650
 20
-132.078953347633160
 40
1.499999999999926
 50
59.999999999998380
 51
138.162995844100240
  0
LINE
  8
0
  6
CONTINUOUS
 62
3
 10
-351.066420302129700
 20
-132.308042812702750
 11
-353.713214895108650
 21
-130.779915241956590
  0
ARC
  8
0
  6
CONTINUOUS
 62
3
 10
-351.816420302129700
 20
-133.607080918379320
 40
1.499999999999828
 50
319.759651678823670
 51
59.999999999998380
  0
ARC
  8
0
  6
CONTINUOUS
 62
3
 10
-368.991599571174450
 20
-119.072184390499380
 40
14.500000000000121
 50
287.920213139392560
 51
312.079786860608860
  0
ARC
  8
0
  6
CONTINUOUS
 62
3
 10
-364.991599571174450
 20
-131.441501267352120
 40
1.500000000000000
 50
180.000000000000000
 51
287.920213139392100
  0
LINE
  8
0
  6
CONTINUOUS
 62
3
 10
-366.491599571174450
 20
-128.237335780410830
 11
-366.491599571174450
 21
-131.441501267352120
  0
ARC
  8
0
  6
CONTINUOUS
 62
3
 10
-364.991599571174450
 20
-128.237335780411290
 40
1.500000000000139
 50
113.578178478195690
 51
179.999999999982630
  0
ARC
  8
0
  6
CONTINUOUS
 62
3
 10
-368.991599571174450
 20
-119.072184390499380
 40
8.500000000000060
 50
293.578178478202350
 51
306.421821521799190
  0
ARC
  8
0
  6
CONTINUOUS
 62
3
 10
-363.054345637980530
 20
-127.118861700592780
 40
1.499999999999926
 50
59.999999999998380
 51
126.421821521801260
  0
LINE
  8
0
  6
CONTINUOUS
 62
3
 10
-359.529456928360100
 20
-127.421906338386630
 11
-362.304345637980530
 21
-125.819823594916210
  0
ARC
  8
0
  6
CONTINUOUS
 62
3
 10
-360.279456928360100
 20
-128.720944444063660
 40
1.499999999999944
 50
312.079786860618130
 51
60.000000000007070
  0
ARC
  8
0
  6
CONTINUOUS
 62
3
 10
-368.991599571174450
 20
-119.072184390499380
 40
23.999999999999844
 50
220.240348321185340
 51
259.759651678813730
  0
ARC
  8
0
  6
CONTINUOUS
 62
3
 10
-372.991599571174450
 20
-141.213774215983900
 40
1.499999999999728
 50
259.759651678812470
 51
0.000000000000000
  0
LINE
  8
0
  6
CONTINUOUS
 62
3
 10
-371.491599571174450
 20
-138.157519074491570
 11
-371.491599571174450
 21
-141.213774215983900
  0
ARC
  8
0
  6
CONTINUOUS
 62
3
 10
-372.991599571174450
 20
-138.157519074491570
 40
1.500000000000000
 50
0.000000000000000
 51
78.162995844101530
  0
ARC
  8
0
  6
CONTINUOUS
 62
3
 10
-368.991599571174450
 20
-119.072184390499380
 40
17.999999999999940
 50
221.837004155892320
 51
258.162995844106770
  0
ARC
  8
0
  6
CONTINUOUS
 62
3
 10
-383.519984247240250
 20
-132.078953347633160
 40
1.500000000000118
 50
41.837004155899741
 51
120.000000000001620
  0
LINE
  8
0
  6
CONTINUOUS
 62
3
 10
-386.916778840219190
 20
-132.308042812702750
 11
-384.269984247240250
 21
-130.779915241956590
  0
ARC
  8
0
  6
CONTINUOUS
 62
3
 10
-386.166778840219190
 20
-133.607080918379320
 40
1.499999999999926
 50
120.000000000001620
 51
220.240348321176330
  0
ARC
  8
0
  6
CONTINUOUS
 62
3
 10
-368.991599571174450
 20
-119.072184390499380
 40
14.500000000000011
 50
227.920213139391080
 51
252.079786860607410
  0
ARC
  8
0
  6
CONTINUOUS
 62
3
 10
-372.991599571174450
 20
-131.441501267352120
 40
1.500000000000355
 50
252.079786860607900
 51
0.000000000000000
  0
LINE
  8
0
  6
CONTINUOUS
 62
3
 10
-371.491599571174450
 20
-128.237335780410830
 11
-371.491599571174450
 21
-131.441501267352120
  0
ARC
  8
0
  6
CONTINUOUS
 62
3
 10
-372.991599571174450
 20
-128.237335780411290
 40
1.500000000000000
 50
0.000000000017370
 51
66.421821521804304
  0
ARC
  8
0
  6
CONTINUOUS
 62
3
 10
-368.991599571174450
 20
-119.072184390499380
 40
8.499999999999870
 50
233.578178478199590
 51
246.421821521797680
  0
ARC
  8
0
  6
CONTINUOUS
 62
3
 10
-374.928853504368360
 20
-127.118861700592780
 40
1.500000000000059
 50
53.578178478205707
 51
120.000000000001620
  0
LINE
  8
0
  6
CONTINUOUS
 62
3
 10
-378.453742213988790
 20
-127.421906338386630
 11
-375.678853504368360
 21
-125.819823594916210
  0
ARC
  8
0
  6
CONTINUOUS
 62
3
 10
-377.703742213988790
 20
-128.720944444063660
 40
1.500000000000320
 50
119.999999999992930
 51
227.920213139381870
  0
ARC
  8
0
  6
CONTINUOUS
 62
3
 10
-368.991599571174900
 20
-119.072184390498930
 40
23.999999999999925
 50
160.240348321185910
 51
199.759651678814090
  0
ARC
  8
0
  6
CONTINUOUS
 62
3
 10
-390.166778840219420
 20
-111.465491092894350
 40
1.499999999999926
 50
59.999999999998380
 51
160.240348321185250
  0
LINE
  8
0
  6
CONTINUOUS
 62
3
 10
-386.769984247240250
 20
-111.694580557963940
 11
-389.416778840219420
 21
-110.166452987217780
  0
ARC
  8
0
  6
CONTINUOUS
 62
3
 10
-387.519984247240250
 20
-112.993618663640510
 40
1.500000000000038
 50
341.837004155895390
 51
59.999999999998380
  0
ARC
  8
0
  6
CONTINUOUS
 62
3
 10
-368.991599571174900
 20
-119.072184390498930
 40
17.999999999999726
 50
161.837004155893140
 51
198.162995844106860
  0
ARC
  8
0
  6
CONTINUOUS
 62
3
 10
-387.519984247240250
 20
-125.150750117357340
 40
1.500000000000320
 50
299.999999999992950
 51
18.162995844104589
  0
LINE
  8
0
  6
CONTINUOUS
 62
3
 10
-389.416778840219190
 20
-127.977915793780080
 11
-386.769984247240250
 21
-126.449788223034370
  0
ARC
  8
0
  6
CONTINUOUS
 62
3
 10
-390.166778840219190
 20
-126.678877688103510
 40
1.500000000000246
 50
199.759651678811820
 51
300.000000000001590
  0
ARC
  8
0
  6
CONTINUOUS
 62
3
 10
-368.991599571174900
 20
-119.072184390498930
 40
14.499999999999851
 50
167.920213139392840
 51
192.079786860608920
  0
ARC
  8
0
  6
CONTINUOUS
 62
3
 10
-381.703742213989020
 20
-116.351627567210010
 40
1.499999999999926
 50
59.999999999998380
 51
167.920213139405550
  0
LINE
  8
0
  6
CONTINUOUS
 62
3
 10
-378.178853504368360
 20
-116.654672205004310
 11
-380.953742213989020
 21
-115.052589461533440
  0
ARC
  8
0
  6
CONTINUOUS
 62
3
 10
-378.928853504368360
 20
-117.953710310680890
 40
1.499999999999873
 50
353.578178478198030
 51
59.999999999998380
  0
ARC
  8
0
  6
CONTINUOUS
 62
3
 10
-368.991599571174900
 20
-119.072184390498930
 40
8.499999999999813
 50
173.578178478202550
 51
186.421821521800500
  0
ARC
  8
0
  6
CONTINUOUS
 62
3
 10
-378.928853504368360
 20
-120.190658470317430
 40
1.499999999999926
 50
300.000000000001590
 51
6.421821521801967
  0
LINE
  8
0
  6
CONTINUOUS
 62
3
 10
-380.953742213988790
 20
-123.091779319464420
 11
-378.178853504368360
 21
-121.489696575994000
  0
ARC
  8
0
  6
CONTINUOUS
 62
3
 10
-381.703742213988790
 20
-121.792741213787840
 40
1.500000000000287
 50
192.079786860609600
 51
300.000000000001590
  0
ARC
  8
0
  6
CONTINUOUS
 62
3
 10
-368.991599571174220
 20
-119.072184390498930
 40
24.000000000000139
 50
340.240348321186050
 51
19.759651678813924
  0
ARC
  8
0
  6
CONTINUOUS
 62
3
 10
-347.816420302129700
 20
-111.465491092894350
 40
1.500000000000246
 50
19.759651678811824
 51
120.000000000001620
  0
LINE
  8
0
  6
CONTINUOUS
 62
3
 10
-351.213214895108650
 20
-111.694580557963940
 11
-348.566420302129700
 21
-110.166452987217780
  0
ARC
  8
0
  6
CONTINUOUS
 62
3
 10
-350.463214895108650
 20
-112.993618663640510
 40
1.499999999999926
 50
120.000000000001620
 51
198.162995844104590
  0
ARC
  8
0
  6
CONTINUOUS
 62
3
 10
-368.991599571174220
 20
-119.072184390498930
 40
17.999999999999943
 50
341.837004155893340
 51
18.162995844106646
  0
ARC
  8
0
  6
CONTINUOUS
 62
3
 10
-350.463214895108650
 20
-125.150750117357340
 40
1.500000000000038
 50
161.837004155895410
 51
240.000000000007050
  0
LINE
  8
0
  6
CONTINUOUS
 62
3
 10
-348.566420302129700
 20
-127.977915793780080
 11
-351.213214895108650
 21
-126.449788223034370
  0
ARC
  8
0
  6
CONTINUOUS
 62
3
 10
-347.816420302129700
 20
-126.678877688103510
 40
1.499999999999926
 50
239.999999999998410
 51
340.240348321188210
  0
ARC
  8
0
  6
CONTINUOUS
 62
3
 10
-368.991599571174220
 20
-119.072184390498930
 40
14.500000000000169
 50
347.920213139391310
 51
12.079786860606980
  0
ARC
  8
0
  6
CONTINUOUS
 62
3
 10
-356.279456928360100
 20
-116.351627567210010
 40
1.500000000000192
 50
12.079786860592611
 51
120.000000000001620
  0
LINE
  8
0
  6
CONTINUOUS
 62
3
 10
-359.804345637980530
 20
-116.654672205004310
 11
-357.029456928360100
 21
-115.052589461533440
  0
ARC
  8
0
  6
CONTINUOUS
 62
3
 10
-359.054345637980530
 20
-117.953710310680890
 40
1.499999999999926
 50
120.000000000001620
 51
186.421821521801010
  0
ARC
  8
0
  6
CONTINUOUS
 62
3
 10
-368.991599571174220
 20
-119.072184390498930
 40
8.499999999999865
 50
353.578178478199500
 51
6.421821521797448
  0
ARC
  8
0
  6
CONTINUOUS
 62
3
 10
-359.054345637980530
 20
-120.190658470317430
 40
1.500000000000099
 50
173.578178478198990
 51
239.999999999998410
  0
LINE
  8
0
  6
CONTINUOUS
 62
3
 10
-357.029456928360100
 20
-123.091779319464420
 11
-359.804345637980530
 21
-121.489696575994000
  0
ARC
  8
0
  6
CONTINUOUS
 62
3
 10
-356.279456928360100
 20
-121.792741213787840
 40
1.499999999999926
 50
239.999999999998410
 51
347.920213139390400
  0
ARC
  8
0
  6
CONTINUOUS
 62
3
 10
-368.991599571174220
 20
-119.072184390498930
 40
8.500000000000101
 50
53.578178478202659
 51
66.421821521799089
  0
ARC
  8
0
  6
CONTINUOUS
 62
3
 10
-368.991599571174220
 20
-119.072184390498930
 40
23.999999999999819
 50
40.240348321186090
 51
79.759651678814322
  0
LINE
  8
0
  6
CONTINUOUS
 62
3
 10
-362.304345637980530
 20
-112.324545186082100
 11
-359.529456928360100
 21
-110.722462442611230
  0
LINE
  8
0
  6
CONTINUOUS
 62
3
 10
-366.491599571174450
 20
-96.930594565014417
 11
-366.491599571174450
 21
-99.986849706506746
  0
LINE
  8
0
  6
CONTINUOUS
 62
3
 10
-366.491599571174450
 20
-106.702867513645970
 11
-366.491599571174450
 21
-109.907033000587030
  0
ARC
  8
0
  6
CONTINUOUS
 62
3
 10
-368.991599571174220
 20
-119.072184390498930
 40
14.499999999999860
 50
47.920213139391755
 51
72.079786860608309
  0
LINE
  8
0
  6
CONTINUOUS
 62
3
 10
-353.713214895108650
 20
-107.364453539041730
 11
-351.066420302129700
 21
-105.836325968295560
  0
ARC
  8
0
  6
CONTINUOUS
 62
3
 10
-360.279456928360100
 20
-109.423424336934650
 40
1.499999999999926
 50
300.000000000001590
 51
47.920213139381872
  0
ARC
  8
0
  6
CONTINUOUS
 62
3
 10
-364.991599571174450
 20
-96.930594565014417
 40
1.499999999999952
 50
79.759651678814024
 51
180.000000000000000
  0
ARC
  8
0
  6
CONTINUOUS
 62
3
 10
-354.463214895108650
 20
-106.065415433365160
 40
1.499999999999967
 50
221.837004155893280
 51
300.000000000001590
  0
ARC
  8
0
  6
CONTINUOUS
 62
3
 10
-364.991599571174450
 20
-99.986849706506746
 40
1.500000000000000
 50
180.000000000000000
 51
258.162995844103310
  0
ARC
  8
0
  6
CONTINUOUS
 62
3
 10
-364.991599571174450
 20
-106.702867513645970
 40
1.500000000000138
 50
72.079786860605225
 51
180.000000000000000
  0
ARC
  8
0
  6
CONTINUOUS
 62
3
 10
-351.816420302129700
 20
-104.537287862618990
 40
1.499999999999926
 50
300.000000000001590
 51
40.240348321182964
  0
ARC
  8
0
  6
CONTINUOUS
 62
3
 10
-364.991599571174450
 20
-109.907033000587030
 40
1.500000000000000
 50
180.000000000000000
 51
246.421821521804280
  0
ARC
  8
0
  6
CONTINUOUS
 62
3
 10
-363.054345637980530
 20
-111.025507080405530
 40
1.499999999999693
 50
233.578178478195410
 51
300.000000000001590
  0
CIRCLE
  8
0
  6
CONTINUOUS
 62
3
 10
-368.991599571174450
 20
-119.072184390498930
 40
5.000000000000000
  0
ARC
  8
0
  6
CONTINUOUS
 62
3
 10
-346.116913643508720
 20
-101.246676159016260
 40
1.499999999999843
 50
217.928141766204990
 51
300.000000000001590
  0
LINE
  8
0
  6
CONTINUOUS
 62
3
 10
-345.366913643508720
 20
-102.545714264692830
 11
-342.746145401439890
 21
-101.032613014650670
  0
ARC
  8
0
  6
CONTINUOUS
 62
3
 10
-364.991599571174450
 20
-90.349371157808946
 40
1.500000000000000
 50
180.000000000000000
 51
262.071858233795980
  0
ARC
  8
0
  6
CONTINUOUS
 62
3
 10
-368.991599571174220
 20
-119.072184390498930
 40
27.500000000000060
 50
37.928141766201819
 51
82.071858233798309
  0
ARC
  8
0
  6
CONTINUOUS
 62
3
 10
-343.496145401439890
 20
-99.733574908974106
 40
1.499999999999926
 50
300.000000000001590
 51
37.180755781457485
  0
ARC
  8
0
  6
CONTINUOUS
 62
3
 10
-337.830063117023660
 20
-96.462260776815810
 40
1.500000000000102
 50
215.963570118316280
 51
299.999999999997270
  0
ARC
  8
0
  6
CONTINUOUS
 62
3
 10
-368.991599571174900
 20
-119.072184390499380
 40
36.999999999999943
 50
35.963570118321194
 51
84.036429881678174
  0
ARC
  8
0
  6
CONTINUOUS
 62
3
 10
-368.991599571174900
 20
-119.072184390499380
 40
33.500000000000071
 50
37.180755781458259
 51
82.819244218540931
  0
LINE
  8
0
  6
CONTINUOUS
 62
3
 10
-342.866913643508500
 20
-106.875841283615500
 11
-340.246145401439660
 21
-105.362740033573340
  0
ARC
  8
0
  6
CONTINUOUS
 62
3
 10
-339.496145401439660
 20
-106.661778139250140
 40
1.499999999999948
 50
22.819244218550043
 51
119.999999999997270
  0
ARC
  8
0
  6
CONTINUOUS
 62
3
 10
-342.116913643508500
 20
-108.174879389292070
 40
1.499999999999926
 50
120.000000000001620
 51
202.071858233797370
  0
ARC
  8
0
  6
CONTINUOUS
 62
3
 10
-368.991599571173990
 20
-119.072184390499380
 40
27.499999999999886
 50
337.928141766202200
 51
22.071858233797812
  0
ARC
  8
0
  6
CONTINUOUS
 62
3
 10
-368.991599571174670
 20
-119.072184390499840
 40
33.500000000000128
 50
337.180755781459030
 51
22.819244218541968
  0
ARC
  8
0
  6
CONTINUOUS
 62
3
 10
-342.116913643508720
 20
-129.969489391706700
 40
1.499999999999899
 50
157.928141766199360
 51
240.000000000007050
  0
LINE
  8
0
  6
CONTINUOUS
 62
3
 10
-340.246145401439430
 20
-132.781628747425660
 11
-342.866913643508720
 21
-131.268527497383730
  0
ARC
  8
0
  6
CONTINUOUS
 62
3
 10
-339.496145401439430
 20
-131.482590641749080
 40
1.499999999999926
 50
239.999999999998410
 51
337.180755781453340
  0
ARC
  8
0
  6
CONTINUOUS
 62
3
 10
-364.991599571174220
 20
-160.378963495144490
 40
1.500000000000000
 50
180.000000000000000
 51
275.531071524831360
  0
LINE
  8
0
  6
CONTINUOUS
 62
3
 10
-366.491599571174220
 20
-157.363828387590270
 11
-366.491599571174220
 21
-160.378963495144490
  0
LINE
  8
0
  6
CONTINUOUS
 62
3
 10
-366.491599571174220
 20
-147.794997623189830
 11
-366.491599571174220
 21
-150.821200123274140
  0
ARC
  8
0
  6
CONTINUOUS
 62
3
 10
-364.991599571174220
 20
-157.363828387590730
 40
1.500000000000182
 50
95.963570118326047
 51
179.999999999982630
  0
ARC
  8
0
  6
CONTINUOUS
 62
3
 10
-364.991599571174220
 20
-150.821200123274140
 40
1.500000000000000
 50
180.000000000000000
 51
277.180755781458290
  0
ARC
  8
0
  6
CONTINUOUS
 62
3
 10
-364.991599571174220
 20
-147.794997623189830
 40
1.499999999999967
 50
97.928141766195438
 51
180.000000000000000
  0
ARC
  8
0
  6
CONTINUOUS
 62
3
 10
-368.991599571174220
 20
-119.072184390499840
 40
27.499999999999879
 50
277.928141766202600
 51
322.071858233798930
  0
ARC
  8
0
  6
CONTINUOUS
 62
3
 10
-368.991599571174220
 20
-119.072184390498930
 40
37.000000000000028
 50
275.963570118320770
 51
324.036429881678030
  0
ARC
  8
0
  6
CONTINUOUS
 62
3
 10
-368.991599571174220
 20
-119.072184390498930
 40
43.000000000000199
 50
275.531071524838860
 51
324.468928475160340
  0
ARC
  8
0
  6
CONTINUOUS
 62
3
 10
-368.991599571174220
 20
-119.072184390498930
 40
33.500000000000114
 50
277.180755781458230
 51
322.819244218540860
  0
ARC
  8
0
  6
CONTINUOUS
 62
3
 10
-346.116913643508720
 20
-136.897692621982510
 40
1.500000000000320
 50
60.000000000007070
 51
142.071858233781280
  0
ARC
  8
0
  6
CONTINUOUS
 62
3
 10
-337.830063117023200
 20
-141.682108004182740
 40
1.499999999999926
 50
59.999999999998380
 51
144.036429881690740
  0
LINE
  8
0
  6
CONTINUOUS
 62
3
 10
-342.746145401439430
 20
-137.111755766347870
 11
-345.366913643508720
 21
-135.598654516305490
  0
ARC
  8
0
  6
CONTINUOUS
 62
3
 10
-343.496145401439430
 20
-138.410793872024440
 40
1.500000000000240
 50
322.819244218535570
 51
59.999999999998380
  0
ARC
  8
0
  6
CONTINUOUS
 62
3
 10
-372.991599571174670
 20
-160.378963495144490
 40
1.500000000000430
 50
264.468928475160000
 51
0.000000000000000
  0
LINE
  8
0
  6
CONTINUOUS
 62
3
 10
-371.491599571174670
 20
-157.363828387590270
 11
-371.491599571174670
 21
-160.378963495144490
  0
LINE
  8
0
  6
CONTINUOUS
 62
3
 10
-371.491599571174670
 20
-147.794997623189830
 11
-371.491599571174670
 21
-150.821200123274140
  0
ARC
  8
0
  6
CONTINUOUS
 62
3
 10
-372.991599571174670
 20
-157.363828387590730
 40
1.500000000000000
 50
0.000000000017370
 51
84.036429881682594
  0
ARC
  8
0
  6
CONTINUOUS
 62
3
 10
-372.991599571174670
 20
-150.821200123274140
 40
1.499999999999998
 50
262.819244218541710
 51
0.000000000000000
  0
ARC
  8
0
  6
CONTINUOUS
 62
3
 10
-372.991599571174670
 20
-147.794997623189830
 40
1.500000000000000
 50
0.000000000000000
 51
82.071858233804562
  0
ARC
  8
0
  6
CONTINUOUS
 62
3
 10
-368.991599571174670
 20
-119.072184390499840
 40
27.499999999999780
 50
217.928141766201070
 51
262.071858233797400
  0
ARC
  8
0
  6
CONTINUOUS
 62
3
 10
-368.991599571174670
 20
-119.072184390498930
 40
37.000000000000021
 50
215.963570118321970
 51
264.036429881678940
  0
ARC
  8
0
  6
CONTINUOUS
 62
3
 10
-368.991599571174670
 20
-119.072184390498930
 40
42.999999999999858
 50
215.531071524839690
 51
264.468928475160850
  0
ARC
  8
0
  6
CONTINUOUS
 62
3
 10
-368.991599571174670
 20
-119.072184390498930
 40
33.500000000000163
 50
217.180755781459110
 51
262.819244218541770
  0
ARC
  8
0
  6
CONTINUOUS
 62
3
 10
-391.866285498840170
 20
-136.897692621982510
 40
1.500000000000122
 50
37.928141766218701
 51
119.999999999992930
  0
ARC
  8
0
  6
CONTINUOUS
 62
3
 10
-402.764319624309790
 20
-143.189675557960070
 40
1.499999999999926
 50
120.000000000001620
 51
215.531071524832130
  0
LINE
  8
0
  6
CONTINUOUS
 62
3
 10
-403.514319624309790
 20
-141.890637452283500
 11
-400.903136025325690
 21
-140.383069898506160
  0
ARC
  8
0
  6
CONTINUOUS
 62
3
 10
-400.153136025325690
 20
-141.682108004182740
 40
1.499999999999968
 50
35.963570118309242
 51
120.000000000001620
  0
LINE
  8
0
  6
CONTINUOUS
 62
3
 10
-395.237053740909460
 20
-137.111755766347870
 11
-392.616285498840170
 21
-135.598654516305490
  0
ARC
  8
0
  6
CONTINUOUS
 62
3
 10
-394.487053740909460
 20
-138.410793872024440
 40
1.499999999999926
 50
120.000000000001620
 51
217.180755781464400
  0
ARC
  8
0
  6
CONTINUOUS
 62
3
 10
-406.764319624309790
 20
-101.882896453314740
 40
1.499999999999926
 50
59.999999999998380
 51
155.531071524840400
  0
LINE
  8
0
  6
CONTINUOUS
 62
3
 10
-403.403136025325240
 20
-102.091425901415270
 11
-406.014319624309790
 21
-100.583858347638170
  0
LINE
  8
0
  6
CONTINUOUS
 62
3
 10
-395.116285498840400
 20
-106.875841283615500
 11
-397.737053740909230
 21
-105.362740033573340
  0
ARC
  8
0
  6
CONTINUOUS
 62
3
 10
-404.153136025325470
 20
-103.390464007091850
 40
1.499999999999855
 50
335.963570118319300
 51
59.999999999990862
  0
ARC
  8
0
  6
CONTINUOUS
 62
3
 10
-398.487053740909230
 20
-106.661778139250140
 40
1.500000000000123
 50
60.000000000002721
 51
157.180755781457980
  0
ARC
  8
0
  6
CONTINUOUS
 62
3
 10
-395.866285498840400
 20
-108.174879389292070
 40
1.500000000000110
 50
337.928141766202600
 51
59.999999999998380
  0
ARC
  8
0
  6
CONTINUOUS
 62
3
 10
-368.991599571174900
 20
-119.072184390499380
 40
27.499999999999886
 50
157.928141766202200
 51
202.071858233798680
  0
ARC
  8
0
  6
CONTINUOUS
 62
3
 10
-368.991599571174220
 20
-119.072184390499840
 40
37.000000000000156
 50
155.963570118321120
 51
204.036429881678230
  0
ARC
  8
0
  6
CONTINUOUS
 62
3
 10
-368.991599571174220
 20
-119.072184390499840
 40
43.000000000000121
 50
155.531071524839230
 51
204.468928475160200
  0
ARC
  8
0
  6
CONTINUOUS
 62
3
 10
-368.991599571174220
 20
-119.072184390499840
 40
33.499999999999794
 50
157.180755781458400
 51
202.819244218540940
  0
ARC
  8
0
  6
CONTINUOUS
 62
3
 10
-395.866285498840170
 20
-129.969489391706700
 40
1.500000000000320
 50
299.999999999992950
 51
22.071858233784546
  0
ARC
  8
0
  6
CONTINUOUS
 62
3
 10
-406.764319624309790
 20
-136.261472327684260
 40
1.500000000000128
 50
204.468928475167470
 51
299.999999999992950
  0
LINE
  8
0
  6
CONTINUOUS
 62
3
 10
-406.014319624309790
 20
-137.560510433361290
 11
-403.403136025325690
 21
-136.052942879583950
  0
ARC
  8
0
  6
CONTINUOUS
 62
3
 10
-404.153136025325690
 20
-134.753904773907380
 40
1.499999999999926
 50
300.000000000001590
 51
24.036429881677126
  0
LINE
  8
0
  6
CONTINUOUS
 62
3
 10
-397.737053740909460
 20
-132.781628747425660
 11
-395.116285498840170
 21
-131.268527497383730
  0
ARC
  8
0
  6
CONTINUOUS
 62
3
 10
-398.487053740909460
 20
-131.482590641749080
 40
1.500000000000157
 50
202.819244218546660
 51
300.000000000001590
  0
ARC
  8
0
  6
CONTINUOUS
 62
3
 10
-402.764319624309340
 20
-94.954693223038703
 40
1.499999999999976
 50
144.468928475160790
 51
240.000000000002730
  0
LINE
  8
0
  6
CONTINUOUS
 62
3
 10
-400.903136025325240
 20
-97.761298882492611
 11
-403.514319624309340
 21
-96.253731328715503
  0
LINE
  8
0
  6
CONTINUOUS
 62
3
 10
-392.616285498840170
 20
-102.545714264692830
 11
-395.237053740909000
 21
-101.032613014650670
  0
ARC
  8
0
  6
CONTINUOUS
 62
3
 10
-400.153136025325240
 20
-96.462260776815810
 40
1.500000000000123
 50
240.000000000002730
 51
324.036429881683720
  0
ARC
  8
0
  6
CONTINUOUS
 62
3
 10
-394.487053740909000
 20
-99.733574908974106
 40
1.500000000000103
 50
142.819244218542510
 51
239.999999999998410
  0
ARC
  8
0
  6
CONTINUOUS
 62
3
 10
-391.866285498840170
 20
-101.246676159016260
 40
1.499999999999926
 50
239.999999999998410
 51
322.071858233800300
  0
ARC
  8
0
  6
CONTINUOUS
 62
3
 10
-368.991599571173990
 20
-119.072184390499380
 40
37.000000000000099
 50
95.963570118321798
 51
144.036429881678830
  0
ARC
  8
0
  6
CONTINUOUS
 62
3
 10
-368.991599571173990
 20
-119.072184390499380
 40
43.000000000000043
 50
95.531071524839788
 51
144.468928475160770
  0
ARC
  8
0
  6
CONTINUOUS
 62
3
 10
-368.991599571173990
 20
-119.072184390499380
 40
33.499999999999950
 50
97.180755781459069
 51
142.819244218541740
  0
ARC
  8
0
  6
CONTINUOUS
 62
3
 10
-372.991599571174450
 20
-90.349371157808946
 40
1.499999999999998
 50
277.928141766204020
 51
0.000000000000000
  0
ARC
  8
0
  6
CONTINUOUS
 62
3
 10
-412.940187001456930
 20
-68.975569922971090
 40
6.599999999999971
 50
98.597082237248614
 51
134.999999999998610
  0
ARC
  8
0
  6
CONTINUOUS
 62
4
 10
-407.933117526556540
 20
-78.963406849912644
 40
5.999999999999923
 50
97.897988672425626
 51
134.999999999996930
  0
ARC
  8
0
  6
CONTINUOUS
 62
4
 10
-368.991599571174450
 20
-359.672184390499300
 40
289.396999999999930
 50
90.000000000000000
 51
97.897988672427743
  0
ARC
  8
0
  6
CONTINUOUS
 62
3
 10
-452.291599571174400
 20
-93.114684390499406
 40
18.799999999999955
 50
0.000000000000000
 51
79.401214733933941
  0
ARC
  8
0
  6
CONTINUOUS
 62
3
 10
-448.465844937087470
 20
-72.669548013361691
 40
1.999999999999927
 50
177.137594773887290
 51
259.401214733934010
  0
ARC
  8
0
  6
CONTINUOUS
 62
3
 10
-454.058858034803280
 20
-72.389897358475878
 40
1.999999999999928
 50
274.873974813840960
 51
357.137594773887320
  0
LINE
  8
0
  6
CONTINUOUS
 62
3
 10
-450.793471062857630
 20
-63.152114224164166
 11
-455.887107991134600
 21
-165.024852789704250
  0
LINE
  8
0
  6
CONTINUOUS
 62
3
 10
-474.987858922795340
 20
-131.039871422918400
 11
-470.997833985139320
 21
-91.239372669801128
  0
ARC
  8
0
  6
CONTINUOUS
 62
3
 10
-452.291599571174400
 20
-93.114684390499406
 40
18.800000000000036
 50
94.873974813842736
 51
144.191373186504250
  0
ARC
  8
0
  6
CONTINUOUS
 62
3
 10
-452.291599571174400
 20
-93.114684390499406
 40
18.799999999999933
 50
144.191373186504250
 51
174.275189547776390
  0
LINE
  8
0
  6
CONTINUOUS
 62
3
 10
-451.592472933959930
 20
-63.112164130609017
 11
-449.994469191755340
 21
-63.192064317719201
  0
ARC
  8
0
  6
CONTINUOUS
 62
3
 10
-445.450146430854370
 20
-68.425526554389307
 40
9.000000000000060
 50
160.536063666407810
 51
193.739143184213500
  0
POINT
  8
0
  6
CONTINUOUS
 62
3
 10
-451.842161018678780
 20
-68.105925824998053
  0
LINE
  8
0
  6
CONTINUOUS
 62
3
 10
-451.667379359375220
 20
-64.610292638925671
 11
-452.016942677982340
 21
-71.601559011070549
  0
LINE
  8
0
  6
CONTINUOUS
 62
3
 10
-451.667379359375220
 20
-64.610292638925671
 11
-452.016942677982340
 21
-71.601559011070549
  0
LINE
  8
0
  6
CONTINUOUS
 62
3
 10
-452.016942677982340
 20
-71.601559011070549
 11
-452.994746490490120
 21
-71.552668820445206
  0
LINE
  8
0
  6
CONTINUOUS
 62
3
 10
-451.667379359375220
 20
-64.610292638925671
 11
-452.645183171882760
 21
-64.561402448300328
  0
ARC
  8
0
  6
CONTINUOUS
 62
3
 10
-452.929827626562430
 20
-70.254291541891575
 40
1.299999237060493
 50
193.739143184211430
 51
267.137612759980240
  0
ARC
  8
0
  6
CONTINUOUS
 62
3
 10
-452.710102035810450
 20
-65.859779726853844
 40
1.299999237060474
 50
87.137594090651831
 51
160.536063666412870
  0
LINE
  8
0
  6
CONTINUOUS
 62
3
 10
-451.592472933959930
 20
-63.112164130609017
 11
-456.686109862236890
 21
-164.984902696148990
  0
LINE
  8
0
  6
CONTINUOUS
 62
3
 10
-449.994469191755340
 20
-63.192064317719201
 11
-455.088106120032310
 21
-165.064802883259970
  0
ARC
  8
0
  6
CONTINUOUS
 62
3
 10
-454.291599571174400
 20
-133.114684390499410
 40
20.800000000000082
 50
274.191726156007460
 51
354.952683218987540
  0
ARC
  8
0
  6
CONTINUOUS
 62
3
 10
-454.291599571174400
 20
-133.114684390499410
 40
20.799999999999986
 50
174.275189547776620
 51
205.640070215894870
  0
ARC
  8
0
  6
CONTINUOUS
 62
3
 10
-454.291599571174400
 20
-133.114684390499410
 40
20.799999999999926
 50
205.640070215894870
 51
260.083463391769440
  0
ARC
  8
0
  6
CONTINUOUS
 62
3
 10
-454.291599571174400
 20
-133.114684390499410
 40
20.799999999999986
 50
174.275189547776620
 51
205.640070215894870
  0
ARC
  8
0
  6
CONTINUOUS
 62
3
 10
-452.625052304790870
 20
-155.853695367428710
 40
1.999999999999962
 50
94.191726156001650
 51
177.137594773887290
  0
ARC
  8
0
  6
CONTINUOUS
 62
3
 10
-458.218065402506680
 20
-155.574044712542900
 40
2.000000000000154
 50
357.137594773887600
 51
80.083463391767268
  0
LINE
  8
0
  6
CONTINUOUS
 62
3
 10
-455.088106120032310
 20
-165.064802883259970
 11
-456.686109862236890
 21
-164.984902696148990
  0
LINE
  8
0
  6
CONTINUOUS
 62
3
 10
-433.491599571174450
 20
-101.741575630273980
 11
-433.491599571174450
 21
-93.114684390499406
  0
ARC
  8
0
  6
CONTINUOUS
 62
3
 10
-354.491599571174330
 20
-103.345333235257380
 40
64.999999999999986
 50
18.173444894457759
 51
87.841596534959464
  0
LINE
  8
0
  6
CONTINUOUS
 62
3
 10
-289.491599571174450
 20
-155.072184390499440
 11
-289.491599571174450
 21
-177.876031967793010
  0
ARC
  8
0
  6
CONTINUOUS
 62
3
 10
-368.991599571174450
 20
-119.072184390499380
 40
83.000000000000071
 50
309.571894934440880
 51
334.295176584100890
  0
LINE
  8
0
  6
CONTINUOUS
 62
3
 10
-313.978692129731030
 20
-70.706080422469711
 11
-313.491888738025410
 21
-70.219277030764090
  0
LINE
  8
0
  6
CONTINUOUS
 62
3
 10
-320.625495603144710
 20
-64.059276949055970
 11
-320.138692211439090
 21
-63.572473557350349
  0
LINE
  8
0
  6
CONTINUOUS
 62
3
 10
-313.665553520762160
 20
-70.453533471619323
 11
-320.342652823235080
 21
-63.776434169146398
  0
LINE
  8
0
  6
CONTINUOUS
 62
3
 10
-313.978692129731030
 20
-70.706080422469711
 11
-320.625495603144710
 21
-64.059276949055970
  0
POINT
  8
0
  6
CONTINUOUS
 62
3
 10
-317.302093866437870
 20
-67.382678685762812
  0
ARC
  8
0
  6
CONTINUOUS
 62
3
 10
-319.564835431364830
 20
-69.645420250689881
 40
6.099999427795395
 50
354.601910595265110
 51
95.398072101891529
  0
LINE
  8
0
  6
CONTINUOUS
 62
3
 10
-424.004507012617860
 20
-70.706080422469711
 11
-424.491310404323490
 21
-70.219277030764090
  0
LINE
  8
0
  6
CONTINUOUS
 62
3
 10
-417.357703539204180
 20
-64.059276949055970
 11
-417.844506930909800
 21
-63.572473557350349
  0
LINE
  8
0
  6
CONTINUOUS
 62
3
 10
-424.317645621586730
 20
-70.453533471619323
 11
-417.640546319113810
 21
-63.776434169146398
  0
LINE
  8
0
  6
CONTINUOUS
 62
3
 10
-424.004507012617860
 20
-70.706080422469711
 11
-417.357703539204180
 21
-64.059276949055970
  0
POINT
  8
0
  6
CONTINUOUS
 62
3
 10
-420.681105275911020
 20
-67.382678685762812
  0
ARC
  8
0
  6
CONTINUOUS
 62
3
 10
-418.418363710984070
 20
-69.645420250689881
 40
6.099999427795406
 50
84.601927898108471
 51
185.398089404734830
  0
LINE
  8
0
  6
CONTINUOUS
 62
3
 10
-424.004507012617860
 20
-167.438288358529350
 11
-424.491310404323490
 21
-167.925091750234970
  0
LINE
  8
0
  6
CONTINUOUS
 62
3
 10
-417.357703539204180
 20
-174.085091831943090
 11
-417.844506930909800
 21
-174.571895223648710
  0
LINE
  8
0
  6
CONTINUOUS
 62
3
 10
-424.317645621586730
 20
-167.690835309379740
 11
-417.640546319113810
 21
-174.367934611852660
  0
LINE
  8
0
  6
CONTINUOUS
 62
3
 10
-424.004507012617860
 20
-167.438288358529350
 11
-417.357703539204180
 21
-174.085091831943090
  0
POINT
  8
0
  6
CONTINUOUS
 62
3
 10
-420.681105275911020
 20
-170.761690095236190
  0
ARC
  8
0
  6
CONTINUOUS
 62
3
 10
-418.418363710984070
 20
-168.498948530309180
 40
6.099999427795400
 50
174.601910595264630
 51
275.398072101891500
  0
LINE
  8
0
  6
CONTINUOUS
 62
3
 10
-313.978692129731030
 20
-167.438288358529350
 11
-313.491888738025410
 21
-167.925091750234970
  0
LINE
  8
0
  6
CONTINUOUS
 62
3
 10
-320.625495603144710
 20
-174.085091831943090
 11
-320.138692211439090
 21
-174.571895223648710
  0
LINE
  8
0
  6
CONTINUOUS
 62
3
 10
-313.665553520762160
 20
-167.690835309379740
 11
-320.342652823235080
 21
-174.367934611852660
  0
LINE
  8
0
  6
CONTINUOUS
 62
3
 10
-313.978692129731030
 20
-167.438288358529350
 11
-320.625495603144710
 21
-174.085091831943090
  0
POINT
  8
0
  6
CONTINUOUS
 62
3
 10
-317.302093866437870
 20
-170.761690095236190
  0
ARC
  8
0
  6
CONTINUOUS
 62
3
 10
-319.564835431364830
 20
-168.498948530309180
 40
6.099999427795406
 50
264.601927898108500
 51
5.398089404735375
  0
LINE
  8
0
  6
CONTINUOUS
 62
3
 10
-316.904126109859590
 20
-64.156283804438999
 11
-314.190824029216630
 21
-61.442981723796038
  0
LINE
  8
0
  6
CONTINUOUS
 62
3
 10
-314.075698985113600
 20
-66.984710929185439
 11
-311.362396904470420
 21
-64.271408848542251
  0
LINE
  8
0
  6
CONTINUOUS
 62
3
 10
-423.907500157235180
 20
-66.984710929185326
 11
-426.620802237878250
 21
-64.271408848542251
  0
LINE
  8
0
  6
CONTINUOUS
 62
3
 10
-421.079073032489080
 20
-64.156283804438942
 11
-423.792375113132040
 21
-61.442981723796038
  0
ARC
  8
0
  6
CONTINUOUS
 62
3
 10
-383.491599571174330
 20
-103.345333235257380
 40
64.999999999999730
 50
92.158403465040536
 51
155.951883362998050
  0
ARC
  8
0
  6
CONTINUOUS
 62
3
 10
-368.991599571174330
 20
-119.072184390499380
 40
82.999999999999972
 50
203.257104416820250
 51
230.428105065559090
  0
LINE
  8
0
  6
CONTINUOUS
 62
3
 10
-448.491599571174450
 20
-153.089668745937620
 11
-448.491599571174450
 21
-177.876031967793010
  0
ARC
  8
0
  6
CONTINUOUS
 62
3
 10
-438.991599571174450
 20
-100.072184390499380
 40
8.000000000000016
 50
41.576902883208120
 51
46.567463442210077
  0
LINE
  8
0
  6
CONTINUOUS
 62
3
 10
-423.907500157235290
 20
-171.159657851813560
 11
-426.620802237878250
 21
-173.872959932456520
  0
LINE
  8
0
  6
CONTINUOUS
 62
3
 10
-421.079073032489300
 20
-173.988084976560000
 11
-423.792375113132040
 21
-176.701387057202770
  0
ARC
  8
0
  6
CONTINUOUS
 62
3
 10
-411.991599571174450
 20
-190.572184390499420
 40
7.000000000000010
 50
357.984456850931680
 51
118.736037863439060
  0
ARC
  8
0
  6
CONTINUOUS
 62
3
 10
-399.991599571174450
 20
-191.072184390499420
 40
4.999999999999979
 50
175.483028524530710
 51
270.000000000000000
  0
ARC
  8
0
  6
CONTINUOUS
 62
3
 10
-325.991599571174450
 20
-190.572184390499420
 40
6.999999999999920
 50
61.263962136560927
 51
182.379631430129880
  0
ARC
  8
0
  6
CONTINUOUS
 62
3
 10
-337.991599571174450
 20
-191.072184390499420
 40
5.000000000000000
 50
270.000000000000000
 51
2.599867951551138
  0
LINE
  8
0
  6
CONTINUOUS
 62
3
 10
-314.075698985113600
 20
-171.159657851813450
 11
-311.362396904470420
 21
-173.872959932456520
  0
LINE
  8
0
  6
CONTINUOUS
 62
3
 10
-316.904126109859480
 20
-173.988084976559950
 11
-314.190824029216630
 21
-176.701387057202770
  0
LINE
  8
0
  6
DASHDOT
 62
4
 10
-254.497154472624970
 20
-119.072184390499380
 11
-487.504997474399720
 21
-119.072184390499380
  0
LINE
  8
0
  6
DASHDOT
 62
4
 10
-368.991599571174450
 20
-24.500005883106496
 11
-368.991599571174450
 21
-207.053841790040710
  0
LINE
  8
0
  6
DASHDOT
 62
4
 10
-392.970854592651450
 20
-93.072184390499388
 11
-345.720205743560650
 21
-93.072184390499388
  0
LINE
  8
0
  6
CONTINUOUS
 62
3
 10
68.552273637777034
 20
168.977941384267070
 11
68.552273637777034
 21
156.777942528676250
  0
LINE
  8
0
  6
CONTINUOUS
 62
3
 10
62.552273637777034
 20
157.877941956471660
 11
62.552273637777034
 21
167.877941956471660
  0
LINE
  8
0
  6
CONTINUOUS
 62
3
 10
68.552273637777034
 20
167.877941956471660
 11
62.552273637777034
 21
167.877941956471660
  0
LINE
  8
0
  6
CONTINUOUS
 62
3
 10
68.552273637777034
 20
157.877941956471660
 11
62.552273637777034
 21
157.877941956471660
  0
LINE
  8
0
  6
CONTINUOUS
 62
3
 10
68.552273637777034
 20
72.777942528674430
 11
68.552273637777034
 21
84.977941384265250
  0
LINE
  8
0
  6
CONTINUOUS
 62
3
 10
62.552273637777034
 20
83.877941956469840
 11
62.552273637777034
 21
73.877941956469840
  0
LINE
  8
0
  6
CONTINUOUS
 62
3
 10
68.552273637777034
 20
73.877941956469840
 11
62.552273637777034
 21
73.877941956469840
  0
LINE
  8
0
  6
CONTINUOUS
 62
3
 10
68.552273637777034
 20
83.877941956469840
 11
62.552273637777034
 21
83.877941956469840
  0
LINE
  8
0
  6
CONTINUOUS
 62
3
 10
64.552260694159486
 20
157.877941956469840
 11
64.552259237309045
 21
157.877941956469840
  0
ARC
  8
0
  6
CONTINUOUS
 62
3
 10
58.552273637776125
 20
185.301939823913020
 40
4.999999999999158
 50
273.000000000006140
 51
0.000000000000000
  0
ARC
  8
0
  6
CONTINUOUS
 62
3
 10
64.552273637777034
 20
170.877941956470750
 40
1.000000000000000
 50
180.000000000000000
 51
270.000000000000000
  0
LINE
  8
0
  6
CONTINUOUS
 62
3
 10
64.552260694160395
 20
157.877941956470750
 11
64.552259237309954
 21
157.877941956470750
  0
ARC
  8
0
  6
CONTINUOUS
 62
3
 10
64.552273637777034
 20
154.877941956472570
 40
1.000000000000000
 50
90.000000000000000
 51
180.000000000000000
  0
LINE
  8
0
  6
CONTINUOUS
 62
3
 10
64.552273637777034
 20
155.877941956472570
 11
67.552273637777034
 21
155.877941956472570
  0
ARC
  8
0
  6
CONTINUOUS
 62
3
 10
67.552273637777034
 20
156.877941956472570
 40
1.000000000000000
 50
270.000000000000000
 51
0.000000000000000
  0
LINE
  8
0
  6
CONTINUOUS
 62
3
 10
64.552273637777034
 20
169.877941956470750
 11
67.552273637777034
 21
169.877941956470750
  0
LINE
  8
0
  6
CONTINUOUS
 62
3
 10
68.552273637777034
 20
156.877941956472570
 11
68.552273637777034
 21
168.877941956470750
  0
ARC
  8
0
  6
CONTINUOUS
 62
3
 10
67.552273637777034
 20
168.877941956470750
 40
1.000000000000000
 50
0.000000000000000
 51
90.000000000000000
  0
LINE
  8
0
  6
CONTINUOUS
 62
3
 10
63.552273637775215
 20
120.877941956470750
 11
63.552273637775215
 21
157.877941956471660
  0
LINE
  8
0
  6
CONTINUOUS
 62
3
 10
63.552273637777034
 20
167.877941956471660
 11
63.552273637777944
 21
198.377941956470750
  0
LINE
  8
0
  6
CONTINUOUS
 62
3
 10
74.552273637780672
 20
200.377941956470750
 11
74.552273637780672
 21
120.877941956471650
  0
ARC
  8
0
  6
CONTINUOUS
 62
3
 10
62.552273637777034
 20
198.377941956470750
 40
2.000000000000000
 50
90.000000000000000
 51
180.000000000000000
  0
LINE
  8
0
  6
CONTINUOUS
 62
3
 10
75.052273637780672
 20
200.377941956470750
 11
62.552273637777034
 21
200.377941956470750
  0
ARC
  8
0
  6
CONTINUOUS
 62
3
 10
65.552273637777944
 20
198.377941956470750
 40
2.000000000000000
 50
90.000000000000000
 51
180.000000000000000
  0
LINE
  8
0
  6
CONTINUOUS
 62
3
 10
60.552273637777034
 20
185.144716486063770
 11
60.552273637777034
 21
198.377941956470750
  0
ARC
  8
0
  6
CONTINUOUS
 62
3
 10
55.552273637777034
 20
185.144716486063770
 40
4.999999999999158
 50
273.000000000006140
 51
0.000000000000000
  0
LINE
  8
0
  6
CONTINUOUS
 62
3
 10
58.813953418990423
 20
180.308792150141020
 11
42.052273637791586
 21
179.430349735754130
  0
LINE
  8
0
  6
CONTINUOUS
 62
3
 10
42.052273637791586
 20
179.430349735754130
 11
42.052273637791586
 21
120.877941956470750
  0
LINE
  8
0
  6
CONTINUOUS
 62
3
 10
64.552260694159486
 20
83.877941956471659
 11
64.552259237309045
 21
83.877941956471659
  0
ARC
  8
0
  6
CONTINUOUS
 62
3
 10
58.552273637776125
 20
56.453944089028482
 40
5.000000000000000
 50
0.000000000000000
 51
86.999999999993889
  0
ARC
  8
0
  6
CONTINUOUS
 62
3
 10
64.552273637777034
 20
70.877941956470750
 40
1.000000000000000
 50
90.000000000000000
 51
180.000000000000000
  0
LINE
  8
0
  6
CONTINUOUS
 62
3
 10
64.552260694160395
 20
83.877941956470750
 11
64.552259237309954
 21
83.877941956470750
  0
ARC
  8
0
  6
CONTINUOUS
 62
3
 10
64.552273637777034
 20
86.877941956468931
 40
1.000000000000000
 50
180.000000000000000
 51
270.000000000000000
  0
LINE
  8
0
  6
CONTINUOUS
 62
3
 10
64.552273637777034
 20
85.877941956468931
 11
67.552273637777034
 21
85.877941956468931
  0
ARC
  8
0
  6
CONTINUOUS
 62
3
 10
67.552273637777034
 20
84.877941956468931
 40
1.000000000000000
 50
0.000000000000000
 51
90.000000000000000
  0
LINE
  8
0
  6
CONTINUOUS
 62
3
 10
64.552273637777034
 20
71.877941956470750
 11
67.552273637777034
 21
71.877941956470750
  0
LINE
  8
0
  6
CONTINUOUS
 62
3
 10
68.552273637777034
 20
84.877941956468931
 11
68.552273637777034
 21
72.877941956470750
  0
ARC
  8
0
  6
CONTINUOUS
 62
3
 10
67.552273637777034
 20
72.877941956470750
 40
1.000000000000000
 50
270.000000000000000
 51
0.000000000000000
  0
LINE
  8
0
  6
CONTINUOUS
 62
3
 10
63.552273637775215
 20
120.877941956470750
 11
63.552273637775215
 21
83.877941956469840
  0
LINE
  8
0
  6
CONTINUOUS
 62
3
 10
63.552273637777034
 20
73.877941956469840
 11
63.552273637777944
 21
43.377941956470750
  0
LINE
  8
0
  6
CONTINUOUS
 62
3
 10
74.552273637780672
 20
41.377941956470750
 11
74.552273637780672
 21
120.877941956469840
  0
ARC
  8
0
  6
CONTINUOUS
 62
3
 10
62.552273637777034
 20
43.377941956470750
 40
2.000000000000000
 50
180.000000000000000
 51
270.000000000000000
  0
LINE
  8
0
  6
CONTINUOUS
 62
3
 10
75.052273637780672
 20
41.377941956470750
 11
62.552273637777034
 21
41.377941956470750
  0
ARC
  8
0
  6
CONTINUOUS
 62
3
 10
65.552273637777944
 20
43.377941956470750
 40
2.000000000000000
 50
180.000000000000000
 51
270.000000000000000
  0
LINE
  8
0
  6
CONTINUOUS
 62
3
 10
60.552273637777034
 20
56.611167426877728
 11
60.552273637777034
 21
43.377941956470750
  0
ARC
  8
0
  6
CONTINUOUS
 62
3
 10
55.552273637777034
 20
56.611167426877728
 40
5.000000000000000
 50
0.000000000000000
 51
86.999999999993889
  0
LINE
  8
0
  6
CONTINUOUS
 62
3
 10
58.813953418990423
 20
61.447091762800483
 11
42.052273637791586
 21
62.325534177187365
  0
LINE
  8
0
  6
CONTINUOUS
 62
3
 10
42.052273637791586
 20
62.325534177187365
 11
42.052273637791586
 21
120.877941956470750
  0
ARC
  8
0
  6
CONTINUOUS
 62
3
 10
136.000553194701750
 20
193.692647403539010
 40
2.000000000000027
 50
1.000000000001762
 51
69.480947953768009
  0
LINE
  8
0
  6
CONTINUOUS
 62
3
 10
138.054558210434610
 20
190.616155859911490
 11
138.000248585014560
 21
193.727552216413640
  0
ARC
  8
0
  6
CONTINUOUS
 62
3
 10
164.552273637780670
 20
201.412547430239100
 40
2.000000000000000
 50
0.000000000000000
 51
88.999999999998238
  0
ARC
  8
0
  6
CONTINUOUS
 62
3
 10
31.552273637780672
 20
201.442638595531210
 40
1.999999999999623
 50
91.883722866755974
 51
180.000000000000000
  0
LINE
  8
0
  6
DASHDOT
 62
4
 10
54.052273637780672
 20
190.877941956470750
 11
32.052273637780672
 21
190.877941956470750
  0
LINE
  8
0
  6
DASHDOT
 62
4
 10
164.052273637780670
 20
190.877941956470750
 11
142.052273637780670
 21
190.877941956470750
  0
LINE
  8
0
  6
CONTINUOUS
 62
3
 10
77.052273637780672
 20
204.940170267545910
 11
164.587178450655300
 21
203.412242820551910
  0
LINE
  8
0
  6
CONTINUOUS
 62
3
 10
75.052273637780672
 20
200.377941956470750
 11
115.052273637780670
 21
199.679739359341510
  0
ARC
  8
0
  6
CONTINUOUS
 62
3
 10
113.917867219356140
 20
134.689639174175680
 40
65.000000000000327
 50
69.480947953772983
 51
88.999999999999034
  0
LINE
  8
0
  6
CONTINUOUS
 62
3
 10
31.486531150431802
 20
203.441557784832180
 11
77.052273637780672
 21
204.940170267545910
  0
LINE
  8
0
  6
CONTINUOUS
 62
3
 10
138.054558210434610
 20
51.139728053030012
 11
138.000248585014560
 21
48.028331696527857
  0
ARC
  8
0
  6
CONTINUOUS
 62
3
 10
136.000553194701750
 20
48.063236509402486
 40
1.999999999999985
 50
290.519052046231990
 51
358.999999999998240
  0
LINE
  8
0
  6
CONTINUOUS
 62
3
 10
75.052273637780672
 20
41.369214424006714
 11
75.052273637780672
 21
120.814433629574520
  0
LINE
  8
0
  6
CONTINUOUS
 62
3
 10
75.052273637780672
 20
200.386669488934790
 11
75.052273637780672
 21
120.941450283366970
  0
ARC
  8
0
  6
CONTINUOUS
 62
3
 10
162.552273637780670
 20
68.044069729377043
 40
2.000000000000027
 50
271.000000000001760
 51
0.000000000000000
  0
ARC
  8
0
  6
CONTINUOUS
 62
3
 10
31.552273637780672
 20
40.313245317410292
 40
2.000000000000000
 50
180.000000000000000
 51
268.116277133244010
  0
ARC
  8
0
  6
CONTINUOUS
 62
3
 10
164.552273637780670
 20
40.343336482702398
 40
2.000000000000027
 50
271.000000000001760
 51
0.000000000000000
  0
CIRCLE
  8
0
  6
CONTINUOUS
 62
3
 10
43.052273637780672
 20
50.877941956470750
 40
6.000000000000000
  0
LINE
  8
0
  6
DASHDOT
 62
4
 10
54.052273637780672
 20
50.877941956470750
 11
32.052273637780672
 21
50.877941956470750
  0
CIRCLE
  8
0
  6
CONTINUOUS
 62
3
 10
153.052273637780670
 20
50.877941956470750
 40
6.000000000000000
  0
LINE
  8
0
  6
DASHDOT
 62
4
 10
164.052273637780670
 20
50.877941956470750
 11
142.052273637780670
 21
50.877941956470750
  0
LINE
  8
0
  6
DASHDOT
 62
4
 10
153.052273637780670
 20
61.877941956470750
 11
153.052273637780670
 21
39.877941956470750
  0
LINE
  8
0
  6
CONTINUOUS
 62
3
 10
77.052273637780672
 20
36.815713645395590
 11
164.587178450655300
 21
38.343641092389589
  0
LINE
  8
0
  6
CONTINUOUS
 62
3
 10
75.052273637780672
 20
41.377941956470750
 11
115.052273637780670
 21
42.076144553599988
  0
ARC
  8
0
  6
CONTINUOUS
 62
3
 10
153.052273637780670
 20
50.877941956470750
 40
15.000000000000000
 50
90.000000000000000
 51
178.999999999999970
  0
LINE
  8
0
  6
CONTINUOUS
 62
3
 10
153.052273637780670
 20
65.877941956470750
 11
162.587178450655300
 21
66.044374339064234
  0
ARC
  8
0
  6
CONTINUOUS
 62
3
 10
113.917867219356140
 20
107.066244738765810
 40
65.000000000000426
 50
271.000000000000970
 51
290.519052046226990
  0
LINE
  8
0
  6
CONTINUOUS
 62
3
 10
31.486531150431802
 20
38.314326128109315
 11
77.052273637780672
 21
36.815713645395590
  0
CIRCLE
  8
0
  6
CONTINUOUS
 62
3
 10
43.052273637780672
 20
190.877941956470750
 40
6.000000000000000
  0
LINE
  8
0
  6
CONTINUOUS
 62
3
 10
168.352273637780400
 20
106.377941956470750
 11
166.552273637780670
 21
106.377941956470750
  0
LINE
  8
0
  6
CONTINUOUS
 62
3
 10
168.552273637780670
 20
120.877941956470750
 11
168.552273637780670
 21
106.577941956470560
  0
LINE
  8
0
  6
CONTINUOUS
 62
3
 10
168.552273637780670
 20
106.577941956470560
 11
168.352273637780400
 21
106.377941956470750
  0
ARC
  8
0
  6
CONTINUOUS
 62
3
 10
168.952273637780310
 20
106.627941956470750
 40
0.399999999999636
 50
90.000000000000000
 51
180.000000000000000
  0
LINE
  8
0
  6
CONTINUOUS
 62
3
 10
171.112081258915620
 20
106.877941956470750
 11
170.552273637780670
 21
107.027941956470380
  0
LINE
  8
0
  6
CONTINUOUS
 62
3
 10
170.552273637780670
 20
107.027941956470380
 11
168.952273637780310
 21
107.027941956470380
  0
LINE
  8
0
  6
CONTINUOUS
 62
3
 10
168.352273637780400
 20
135.377941956470750
 11
166.552273637780670
 21
135.377941956470750
  0
LINE
  8
0
  6
CONTINUOUS
 62
3
 10
168.552273637780670
 20
120.877941956470750
 11
168.552273637780670
 21
135.177941956470930
  0
LINE
  8
0
  6
CONTINUOUS
 62
3
 10
168.552273637780670
 20
135.177941956470930
 11
168.352273637780400
 21
135.377941956470750
  0
ARC
  8
0
  6
CONTINUOUS
 62
3
 10
168.952273637780310
 20
135.127941956470750
 40
0.399999999999636
 50
180.000000000000000
 51
270.000000000000000
  0
LINE
  8
0
  6
CONTINUOUS
 62
3
 10
171.112081258915620
 20
134.877941956470750
 11
170.552273637780670
 21
134.727941956471110
  0
LINE
  8
0
  6
CONTINUOUS
 62
3
 10
170.552273637780670
 20
134.727941956471110
 11
168.952273637780310
 21
134.727941956471110
  0
LINE
  8
0
  6
CONTINUOUS
 62
3
 10
174.552273637780670
 20
103.877941956470750
 11
174.552273637780670
 21
106.877941956470750
  0
LINE
  8
0
  6
CONTINUOUS
 62
3
 10
210.552273637780670
 20
134.477941956471110
 11
210.552273637780670
 21
120.877941956470750
  0
LINE
  8
0
  6
CONTINUOUS
 62
3
 10
210.152273637780580
 20
134.877941956470750
 11
171.112081258915620
 21
134.877941956470750
  0
ARC
  8
0
  6
CONTINUOUS
 62
3
 10
210.152273637780580
 20
134.477941956471110
 40
0.400000000000091
 50
0.000000000000000
 51
90.000000000000000
  0
LINE
  8
0
  6
CONTINUOUS
 62
3
 10
210.552273637780670
 20
103.877941956470750
 11
210.552273637780670
 21
107.277941956470380
  0
LINE
  8
0
  6
CONTINUOUS
 62
3
 10
210.552273637780670
 20
103.877941956470750
 11
174.552273637780670
 21
103.877941956470750
  0
LINE
  8
0
  6
CONTINUOUS
 62
3
 10
210.552273637780670
 20
107.277941956470380
 11
210.552273637780670
 21
120.877941956470750
  0
LINE
  8
0
  6
CONTINUOUS
 62
3
 10
210.152273637780580
 20
106.877941956470750
 11
171.112081258915620
 21
106.877941956470750
  0
ARC
  8
0
  6
CONTINUOUS
 62
3
 10
210.152273637780580
 20
107.277941956470380
 40
0.399999999999636
 50
270.000000000000000
 51
0.000000000000000
  0
ARC
  8
0
  6
CONTINUOUS
 62
3
 10
162.552273637780670
 20
173.711814183564460
 40
2.000000000000000
 50
0.000000000000000
 51
88.999999999998238
  0
ARC
  8
0
  6
CONTINUOUS
 62
3
 10
165.552273637780670
 20
94.377941956470750
 40
1.000000000000000
 50
270.000000000000000
 51
0.000000000000000
  0
ARC
  8
0
  6
CONTINUOUS
 62
3
 10
165.552273637780670
 20
92.377941956470750
 40
1.000000000000000
 50
90.000000000000000
 51
180.000000000000000
  0
LINE
  8
0
  6
CONTINUOUS
 62
3
 10
166.552273637780670
 20
40.343336482702398
 11
166.552273637780670
 21
120.877941956470750
  0
LINE
  8
0
  6
CONTINUOUS
 62
3
 10
164.552273637780670
 20
68.044069729377043
 11
164.552273637780670
 21
120.877941956470750
  0
ARC
  8
0
  6
CONTINUOUS
 62
3
 10
165.552273637780670
 20
147.377941956470750
 40
1.000000000000000
 50
0.000000000000000
 51
90.000000000000000
  0
ARC
  8
0
  6
CONTINUOUS
 62
3
 10
165.552273637780670
 20
149.377941956470750
 40
1.000000000000000
 50
180.000000000000000
 51
270.000000000000000
  0
LINE
  8
0
  6
CONTINUOUS
 62
3
 10
166.552273637780670
 20
201.412547430239100
 11
166.552273637780670
 21
120.877941956470750
  0
LINE
  8
0
  6
CONTINUOUS
 62
3
 10
164.552273637780670
 20
173.711814183564460
 11
164.552273637780670
 21
120.877941956470750
  0
CIRCLE
  8
0
  6
CONTINUOUS
 62
3
 10
153.052273637780670
 20
190.877941956470750
 40
6.000000000000000
  0
LINE
  8
0
  6
DASHDOT
 62
4
 10
153.052273637780670
 20
179.877941956470750
 11
153.052273637780670
 21
201.877941956470750
  0
ARC
  8
0
  6
CONTINUOUS
 62
3
 10
153.052273637780670
 20
190.877941956470750
 40
15.000000000000197
 50
181.000000000000000
 51
270.000000000000000
  0
LINE
  8
0
  6
CONTINUOUS
 62
3
 10
153.052273637780670
 20
175.877941956470750
 11
162.587178450655300
 21
175.711509573877270
  0
LINE
  8
0
  6
CONTINUOUS
 62
3
 10
-24.747726362208368
 20
62.377941956470750
 11
-106.947726362229560
 21
62.377941956470750
  0
LINE
  8
0
  6
CONTINUOUS
 62
3
 10
-24.747726362208368
 20
62.377941956470750
 11
-24.747726362208368
 21
24.377941956470750
  0
ARC
  8
0
  6
CONTINUOUS
 62
3
 10
-25.747726362208368
 20
24.377941956470750
 40
1.000000000000000
 50
270.000000000000000
 51
0.000000000000000
  0
LINE
  8
0
  6
CONTINUOUS
 62
3
 10
-113.747726362208360
 20
23.377941956470750
 11
-25.747726362208368
 21
23.377941956470750
  0
ARC
  8
0
  6
CONTINUOUS
 62
3
 10
-113.747726362208360
 20
24.377941956470750
 40
1.000000000000000
 50
180.000000000000000
 51
270.000000000000000
  0
LINE
  8
0
  6
CONTINUOUS
 62
3
 10
-107.747726362208360
 20
22.877941956470750
 11
-99.747726362208368
 21
22.877941956470750
  0
LINE
  8
0
  6
CONTINUOUS
 62
3
 10
-39.747726362208368
 20
22.877941956470750
 11
-31.747726362208368
 21
22.877941956470750
  0
LINE
  8
0
  6
CONTINUOUS
 62
3
 10
-39.747726362208368
 20
23.377941956470750
 11
-39.747726362208368
 21
22.877941956470750
  0
LINE
  8
0
  6
CONTINUOUS
 62
3
 10
-31.747726362208368
 20
23.377941956470750
 11
-31.747726362208368
 21
22.877941956470750
  0
LINE
  8
0
  6
CONTINUOUS
 62
3
 10
-99.747726362208368
 20
23.377941956470750
 11
-99.747726362208368
 21
22.877941956470750
  0
LINE
  8
0
  6
CONTINUOUS
 62
3
 10
-107.747726362208360
 20
23.377941956470750
 11
-107.747726362208360
 21
22.877941956470750
  0
LINE
  8
0
  6
CONTINUOUS
 62
3
 10
-114.747726362208360
 20
57.377941956470750
 11
-24.747726362208368
 21
57.377941956470750
  0
LINE
  8
0
  6
CONTINUOUS
 62
4
 10
-106.947726362208180
 20
70.562407769695028
 11
42.052273637791586
 21
70.562407769695028
  0
LINE
  8
0
  6
CONTINUOUS
 62
3
 10
-116.947726362208180
 20
55.877941956470750
 11
-116.947726362208180
 21
56.258721039597958
  0
LINE
  8
0
  6
CONTINUOUS
 62
3
 10
-106.947726362208180
 20
180.377941956470520
 11
42.052273637791586
 21
180.377941956470520
  0
LINE
  8
0
  6
CONTINUOUS
 62
3
 10
-199.113279311649650
 20
59.494901070690958
 11
-208.839025096670640
 21
66.304941584074186
  0
ARC
  8
0
  6
CONTINUOUS
 62
3
 10
-207.347726362158030
 20
68.434736899225300
 40
2.600000000000136
 50
180.000000000000000
 51
234.999999999998610
  0
LINE
  8
0
  6
CONTINUOUS
 62
3
 10
-116.947726362208180
 20
55.877941956470750
 11
-187.641750584628650
 21
55.877941956470750
  0
POLYLINE
  8
0
  6
CONTINUOUS
 62
3
 66
1
 70
1
  0
VERTEX
  8
0
  6
CONTINUOUS
 62
3
 10
-113.247726362207740
 20
68.954416924410907
  0
VERTEX
  8
0
  6
CONTINUOUS
 62
3
 10
-113.338035544312560
 20
69.657373890611268
  0
VERTEX
  8
0
  6
CONTINUOUS
 62
3
 10
-113.605492559404690
 20
70.333316614823360
  0
VERTEX
  8
0
  6
CONTINUOUS
 62
3
 10
-114.039819184385770
 20
70.956268997228761
  0
VERTEX
  8
0
  6
CONTINUOUS
 62
3
 10
-114.624324490630960
 20
71.502291327127338
  0
VERTEX
  8
0
  6
CONTINUOUS
 62
3
 10
-115.336546267015600
 20
71.950400272593953
  0
VERTEX
  8
0
  6
CONTINUOUS
 62
3
 10
-116.149114230091810
 20
72.283375258156724
  0
VERTEX
  8
0
  6
CONTINUOUS
 62
3
 10
-117.030801848731920
 20
72.488420241854968
  0
VERTEX
  8
0
  6
CONTINUOUS
 62
3
 10
-117.947726362207730
 20
72.557655459955740
  0
VERTEX
  8
0
  6
CONTINUOUS
 62
3
 10
-118.864650875683530
 20
72.488420241854968
  0
VERTEX
  8
0
  6
CONTINUOUS
 62
3
 10
-119.746338494323650
 20
72.283375258156724
  0
VERTEX
  8
0
  6
CONTINUOUS
 62
3
 10
-120.558906457399850
 20
71.950400272593953
  0
VERTEX
  8
0
  6
CONTINUOUS
 62
3
 10
-121.271128233784490
 20
71.502291327127338
  0
VERTEX
  8
0
  6
CONTINUOUS
 62
3
 10
-121.855633540029680
 20
70.956268997228761
  0
VERTEX
  8
0
  6
CONTINUOUS
 62
3
 10
-122.289960165010760
 20
70.333316614823360
  0
VERTEX
  8
0
  6
CONTINUOUS
 62
3
 10
-122.557417180102900
 20
69.657373890611268
  0
VERTEX
  8
0
  6
CONTINUOUS
 62
3
 10
-122.647726362207720
 20
68.954416924410907
  0
VERTEX
  8
0
  6
CONTINUOUS
 62
3
 10
-122.557417180102900
 20
68.251459958210546
  0
VERTEX
  8
0
  6
CONTINUOUS
 62
3
 10
-122.289960165010760
 20
67.575517233998454
  0
VERTEX
  8
0
  6
CONTINUOUS
 62
3
 10
-121.855633540029680
 20
66.952564851593053
  0
VERTEX
  8
0
  6
CONTINUOUS
 62
3
 10
-121.271128233784490
 20
66.406542521694476
  0
VERTEX
  8
0
  6
CONTINUOUS
 62
3
 10
-120.558906457399850
 20
65.958433576227861
  0
VERTEX
  8
0
  6
CONTINUOUS
 62
3
 10
-119.746338494323650
 20
65.625458590665090
  0
VERTEX
  8
0
  6
CONTINUOUS
 62
3
 10
-118.864650875683530
 20
65.420413606966846
  0
VERTEX
  8
0
  6
CONTINUOUS
 62
3
 10
-117.947726362207730
 20
65.351178388866074
  0
VERTEX
  8
0
  6
CONTINUOUS
 62
3
 10
-117.030801848731920
 20
65.420413606966846
  0
VERTEX
  8
0
  6
CONTINUOUS
 62
3
 10
-116.149114230091810
 20
65.625458590665090
  0
VERTEX
  8
0
  6
CONTINUOUS
 62
3
 10
-115.336546267015600
 20
65.958433576227861
  0
VERTEX
  8
0
  6
CONTINUOUS
 62
3
 10
-114.624324490630960
 20
66.406542521694476
  0
VERTEX
  8
0
  6
CONTINUOUS
 62
3
 10
-114.039819184385770
 20
66.952564851593053
  0
VERTEX
  8
0
  6
CONTINUOUS
 62
3
 10
-113.605492559404690
 20
67.575517233998454
  0
VERTEX
  8
0
  6
CONTINUOUS
 62
3
 10
-113.338035544312560
 20
68.251459958210546
  0
SEQEND
  8
0
  6
CONTINUOUS
 62
3
  0
LINE
  8
0
  6
CONTINUOUS
 62
3
 10
-119.947726362207730
 20
65.962041370410589
 11
-117.947726362207730
 21
67.137826856032916
  0
LINE
  8
0
  6
CONTINUOUS
 62
3
 10
-117.947726362207730
 20
67.137826856032916
 11
-115.947726362207730
 21
68.790468495156347
  0
ARC
  8
0
  6
CONTINUOUS
 62
3
 10
-187.641750584628650
 20
75.877941956470750
 40
20.000000000000007
 50
234.999999999999740
 51
270.000000000000000
  0
LINE
  8
0
  6
CONTINUOUS
 62
3
 10
-24.747726362208368
 20
61.377941956470750
 11
42.052273637791586
 21
61.377941956470750
  0
LINE
  8
0
  6
CONTINUOUS
 62
3
 10
-115.947726362207730
 20
65.962041370410589
 11
-117.947726362207730
 21
67.137826856032916
  0
LINE
  8
0
  6
CONTINUOUS
 62
3
 10
-117.947726362207730
 20
67.137826856032916
 11
-119.947726362207730
 21
68.790468495156347
  0
POLYLINE
  8
0
  6
CONTINUOUS
 62
3
 66
1
 70
1
  0
VERTEX
  8
0
  6
CONTINUOUS
 62
3
 10
-113.247726362207740
 20
172.801466988530820
  0
VERTEX
  8
0
  6
CONTINUOUS
 62
3
 10
-113.338035544312560
 20
173.504423954731180
  0
VERTEX
  8
0
  6
CONTINUOUS
 62
3
 10
-113.605492559404690
 20
174.180366678943270
  0
VERTEX
  8
0
  6
CONTINUOUS
 62
3
 10
-114.039819184385770
 20
174.803319061348670
  0
VERTEX
  8
0
  6
CONTINUOUS
 62
3
 10
-114.624324490630960
 20
175.349341391247260
  0
VERTEX
  8
0
  6
CONTINUOUS
 62
3
 10
-115.336546267015600
 20
175.797450336713890
  0
VERTEX
  8
0
  6
CONTINUOUS
 62
3
 10
-116.149114230091810
 20
176.130425322276640
  0
VERTEX
  8
0
  6
CONTINUOUS
 62
3
 10
-117.030801848731920
 20
176.335470305974890
  0
VERTEX
  8
0
  6
CONTINUOUS
 62
3
 10
-117.947726362207730
 20
176.404705524075670
  0
VERTEX
  8
0
  6
CONTINUOUS
 62
3
 10
-118.864650875683530
 20
176.335470305974890
  0
VERTEX
  8
0
  6
CONTINUOUS
 62
3
 10
-119.746338494323650
 20
176.130425322276640
  0
VERTEX
  8
0
  6
CONTINUOUS
 62
3
 10
-120.558906457399850
 20
175.797450336713890
  0
VERTEX
  8
0
  6
CONTINUOUS
 62
3
 10
-121.271128233784490
 20
175.349341391247260
  0
VERTEX
  8
0
  6
CONTINUOUS
 62
3
 10
-121.855633540029680
 20
174.803319061348670
  0
VERTEX
  8
0
  6
CONTINUOUS
 62
3
 10
-122.289960165010760
 20
174.180366678943270
  0
VERTEX
  8
0
  6
CONTINUOUS
 62
3
 10
-122.557417180102900
 20
173.504423954731180
  0
VERTEX
  8
0
  6
CONTINUOUS
 62
3
 10
-122.647726362207720
 20
172.801466988530820
  0
VERTEX
  8
0
  6
CONTINUOUS
 62
3
 10
-122.557417180102900
 20
172.098510022330460
  0
VERTEX
  8
0
  6
CONTINUOUS
 62
3
 10
-122.289960165010760
 20
171.422567298118370
  0
VERTEX
  8
0
  6
CONTINUOUS
 62
3
 10
-121.855633540029680
 20
170.799614915712970
  0
VERTEX
  8
0
  6
CONTINUOUS
 62
3
 10
-121.271128233784490
 20
170.253592585814370
  0
VERTEX
  8
0
  6
CONTINUOUS
 62
3
 10
-120.558906457399850
 20
169.805483640347750
  0
VERTEX
  8
0
  6
CONTINUOUS
 62
3
 10
-119.746338494323650
 20
169.472508654785000
  0
VERTEX
  8
0
  6
CONTINUOUS
 62
3
 10
-118.864650875683530
 20
169.267463671086740
  0
VERTEX
  8
0
  6
CONTINUOUS
 62
3
 10
-117.947726362207730
 20
169.198228452985970
  0
VERTEX
  8
0
  6
CONTINUOUS
 62
3
 10
-117.030801848731920
 20
169.267463671086740
  0
VERTEX
  8
0
  6
CONTINUOUS
 62
3
 10
-116.149114230091810
 20
169.472508654785000
  0
VERTEX
  8
0
  6
CONTINUOUS
 62
3
 10
-115.336546267015600
 20
169.805483640347750
  0
VERTEX
  8
0
  6
CONTINUOUS
 62
3
 10
-114.624324490630960
 20
170.253592585814370
  0
VERTEX
  8
0
  6
CONTINUOUS
 62
3
 10
-114.039819184385770
 20
170.799614915712970
  0
VERTEX
  8
0
  6
CONTINUOUS
 62
3
 10
-113.605492559404690
 20
171.422567298118370
  0
VERTEX
  8
0
  6
CONTINUOUS
 62
3
 10
-113.338035544312560
 20
172.098510022330460
  0
SEQEND
  8
0
  6
CONTINUOUS
 62
3
  0
LINE
  8
0
  6
CONTINUOUS
 62
3
 10
-119.947726362207730
 20
175.793842542531140
 11
-117.947726362207730
 21
174.618057056908360
  0
LINE
  8
0
  6
CONTINUOUS
 62
3
 10
-117.947726362207730
 20
174.618057056908360
 11
-115.947726362207730
 21
172.965415417784930
  0
LINE
  8
0
  6
CONTINUOUS
 62
3
 10
-115.947726362207730
 20
175.793842542531140
 11
-117.947726362207730
 21
174.618057056908360
  0
LINE
  8
0
  6
CONTINUOUS
 62
3
 10
-117.947726362207730
 20
174.618057056908360
 11
-119.947726362207730
 21
172.965415417784930
  0
LINE
  8
0
  6
CONTINUOUS
 62
4
 10
-106.947726362208180
 20
63.877941956470750
 11
42.052273637791586
 21
63.877941956470750
  0
LINE
  8
0
  6
CONTINUOUS
 62
4
 10
-106.947726362208180
 20
64.877941956470750
 11
42.052273637791586
 21
64.877941956470750
  0
LINE
  8
0
  6
CONTINUOUS
 62
4
 10
-106.947726362208180
 20
65.877941956470750
 11
42.052273637791586
 21
65.877941956470750
  0
LINE
  8
0
  6
CONTINUOUS
 62
4
 10
-106.947726362208180
 20
75.512155238000787
 11
42.052273637791586
 21
75.512155238000787
  0
LINE
  8
0
  6
CONTINUOUS
 62
4
 10
-106.947726362208180
 20
83.558756900734807
 11
42.052273637791586
 21
83.558756900734807
  0
LINE
  8
0
  6
CONTINUOUS
 62
4
 10
-106.947726362208180
 20
85.163404816296861
 11
42.052273637791586
 21
85.163404816296861
  0
LINE
  8
0
  6
CONTINUOUS
 62
4
 10
-106.947726362208180
 20
89.127150240096398
 11
42.052273637791586
 21
89.127150240096398
  0
LINE
  8
0
  6
CONTINUOUS
 62
4
 10
-106.947726362208180
 20
90.595507629901022
 11
42.052273637791586
 21
90.595507629901022
  0
LINE
  8
0
  6
CONTINUOUS
 62
4
 10
-106.947726362208180
 20
94.686008163990891
 11
42.052273637791586
 21
94.686008163990891
  0
LINE
  8
0
  6
CONTINUOUS
 62
4
 10
-106.947726362208180
 20
96.047888499340161
 11
42.052273637791586
 21
96.047888499340161
  0
LINE
  8
0
  6
CONTINUOUS
 62
4
 10
-106.947726362208180
 20
100.238442230882350
 11
42.052273637791586
 21
100.238442230882350
  0
LINE
  8
0
  6
CONTINUOUS
 62
4
 10
-106.947726362208180
 20
101.504680146969570
 11
42.052273637791586
 21
101.504680146969570
  0
LINE
  8
0
  6
CONTINUOUS
 62
4
 10
-106.947726362208180
 20
105.877941956470750
 11
42.052273637791586
 21
105.877941956470730
  0
LINE
  8
0
  6
CONTINUOUS
 62
4
 10
-106.947726362208180
 20
158.197127012206690
 11
42.052273637791586
 21
158.197127012206690
  0
LINE
  8
0
  6
CONTINUOUS
 62
4
 10
-106.947726362208180
 20
156.592479096644640
 11
42.052273637791586
 21
156.592479096644640
  0
LINE
  8
0
  6
CONTINUOUS
 62
4
 10
-106.947726362208180
 20
152.628733672845100
 11
42.052273637791586
 21
152.628733672845100
  0
LINE
  8
0
  6
CONTINUOUS
 62
4
 10
-106.947726362208180
 20
151.160376283040480
 11
42.052273637791586
 21
151.160376283040480
  0
LINE
  8
0
  6
CONTINUOUS
 62
4
 10
-106.947726362208180
 20
147.069875748950610
 11
42.052273637791586
 21
147.069875748950610
  0
LINE
  8
0
  6
CONTINUOUS
 62
4
 10
-106.947726362208180
 20
145.707995413601340
 11
42.052273637791586
 21
145.707995413601340
  0
LINE
  8
0
  6
CONTINUOUS
 62
4
 10
-106.947726362208180
 20
141.517441682059140
 11
42.052273637791586
 21
141.517441682059140
  0
LINE
  8
0
  6
CONTINUOUS
 62
4
 10
-106.947726362208180
 20
140.251203765971920
 11
42.052273637791586
 21
140.251203765971920
  0
LINE
  8
0
  6
CONTINUOUS
 62
4
 10
-106.947726362208180
 20
135.877941956470750
 11
42.052273637791586
 21
135.877941956470750
  0
LINE
  8
0
  6
CONTINUOUS
 62
4
 10
-106.947726362208180
 20
166.243728674940710
 11
42.052273637791586
 21
166.243728674940710
  0
LINE
  8
0
  6
CONTINUOUS
 62
4
 10
-106.947726362208180
 20
171.193476143246470
 11
42.052273637791586
 21
171.193476143246470
  0
LINE
  8
0
  6
CONTINUOUS
 62
3
 10
-106.947726362208180
 20
120.877941956470750
 11
-106.947726362208180
 21
185.877941956470750
  0
LINE
  8
0
  6
CONTINUOUS
 62
4
 10
-106.947726362208180
 20
175.877941956470750
 11
42.052273637791586
 21
175.877941956470750
  0
LINE
  8
0
  6
CONTINUOUS
 62
4
 10
-106.947726362208180
 20
176.877941956470750
 11
42.052273637791586
 21
176.877941956470750
  0
LINE
  8
0
  6
CONTINUOUS
 62
4
 10
-106.947726362208180
 20
177.877941956470750
 11
42.052273637791586
 21
177.877941956470750
  0
LINE
  8
0
  6
CONTINUOUS
 62
3
 10
-39.947726362208186
 20
180.377941956470750
 11
42.052273637791586
 21
180.377941956470750
  0
LINE
  8
0
  6
CONTINUOUS
 62
3
 10
42.052273637791586
 20
180.377941956470520
 11
42.052273637791586
 21
120.877941956470750
  0
LINE
  8
0
  6
CONTINUOUS
 62
3
 10
-106.947726362208180
 20
185.877941956470750
 11
-187.641750584628650
 21
185.877941956470750
  0
LINE
  8
0
  6
CONTINUOUS
 62
3
 10
-209.947726362158160
 20
120.877941956470750
 11
-209.947726362158160
 21
173.321147013716200
  0
ARC
  8
0
  6
CONTINUOUS
 62
3
 10
-187.641750584628650
 20
165.877941956470750
 40
20.000000000000000
 50
90.000000000000000
 51
125.000000000000240
  0
LINE
  8
0
  6
CONTINUOUS
 62
3
 10
-199.113279311649650
 20
182.260982842250540
 11
-208.839025096670640
 21
175.450942328867310
  0
ARC
  8
0
  6
CONTINUOUS
 62
3
 10
-207.347726362158030
 20
173.321147013716200
 40
2.599999999999721
 50
125.000000000001370
 51
180.000000000000000
  0
ARC
  8
0
  6
CONTINUOUS
 62
3
 10
-109.947726362208180
 20
62.258721039597958
 40
3.000000000000000
 50
270.000000000000000
 51
0.000000000000000
  0
ARC
  8
0
  6
CONTINUOUS
 62
3
 10
-113.947726362208180
 20
56.258721039597958
 40
3.000000000000000
 50
90.000000000000000
 51
180.000000000000000
  0
LINE
  8
0
  6
CONTINUOUS
 62
3
 10
-106.947726362208180
 20
120.877941956470750
 11
-106.947726362208180
 21
62.258721039597958
  0
LINE
  8
0
  6
CONTINUOUS
 62
3
 10
42.052273637791586
 20
61.377941956470750
 11
42.052273637791586
 21
120.877941956470750
  0
LINE
  8
0
  6
CONTINUOUS
 62
3
 10
-209.947726362158160
 20
120.877941956470750
 11
-209.947726362158160
 21
68.434736899225300
  0
LINE
  8
0
  6
CONTINUOUS
 62
3
 10
-113.947726362208180
 20
59.258721039597958
 11
-109.947726362208180
 21
59.258721039597958
  0
ARC
  8
0
  6
CONTINUOUS
 62
3
 10
18.552273637791586
 20
203.880811577051420
 40
2.000000000000000
 50
270.000000000000000
 51
0.000000000000000
  0
ARC
  8
0
  6
CONTINUOUS
 62
3
 10
18.552273637791586
 20
204.679813448170310
 40
2.000000000000000
 50
270.000000000000000
 51
0.000000000000000
  0
ARC
  8
0
  6
CONTINUOUS
 62
3
 10
18.552273637791586
 20
205.478815319255550
 40
2.000000000000000
 50
270.000000000000000
 51
0.000000000000000
  0
ARC
  8
0
  6
CONTINUOUS
 62
3
 10
18.552273637791586
 20
206.572452247532740
 40
2.000000000000000
 50
0.000000000000000
 51
90.000000000000000
  0
LINE
  8
0
  6
CONTINUOUS
 62
3
 10
17.552273637791586
 20
208.572452247532740
 11
18.552273637791586
 21
208.572452247532740
  0
LINE
  8
0
  6
CONTINUOUS
 62
3
 10
18.552273637791586
 20
201.880811577051420
 11
-107.447726362208410
 21
201.880811577051420
  0
LINE
  8
0
  6
CONTINUOUS
 62
3
 10
18.552273637791586
 20
202.679813448153480
 11
-107.447726362208410
 21
202.679813448153480
  0
LINE
  8
0
  6
CONTINUOUS
 62
3
 10
20.552273637791586
 20
206.572452247532740
 11
20.552273637791586
 21
203.880811577051420
  0
LINE
  8
0
  6
CONTINUOUS
 62
3
 10
17.552273637791586
 20
190.377941956470520
 11
17.552273637791586
 21
201.679813448170310
  0
LINE
  8
0
  6
CONTINUOUS
 62
3
 10
-101.447726362208410
 20
226.977941956470430
 11
12.552273637791586
 21
226.977941956470430
  0
ARC
  8
0
  6
CONTINUOUS
 62
3
 10
12.552273637791586
 20
221.977941956470430
 40
5.000000000000000
 50
0.000000000000000
 51
90.000000000000000
  0
LINE
  8
0
  6
CONTINUOUS
 62
3
 10
-106.447726362208410
 20
190.377941956470520
 11
-106.447726362208410
 21
201.880811577051420
  0
ARC
  8
0
  6
CONTINUOUS
 62
3
 10
-107.447726362208410
 20
203.880811577051420
 40
2.000000000000000
 50
180.000000000000000
 51
270.000000000000000
  0
LINE
  8
0
  6
CONTINUOUS
 62
3
 10
-109.447726362208410
 20
206.572452247532740
 11
-109.447726362208410
 21
203.880811577051420
  0
ARC
  8
0
  6
CONTINUOUS
 62
3
 10
-107.447726362208410
 20
204.679813448170310
 40
2.000000000000000
 50
180.000000000000000
 51
270.000000000000000
  0
ARC
  8
0
  6
CONTINUOUS
 62
3
 10
-107.447726362208410
 20
205.478815319255550
 40
2.000000000000000
 50
180.000000000000000
 51
270.000000000000000
  0
ARC
  8
0
  6
CONTINUOUS
 62
3
 10
-107.447726362208410
 20
206.572452247532740
 40
2.000000000000000
 50
90.000000000000000
 51
180.000000000000000
  0
ARC
  8
0
  6
CONTINUOUS
 62
3
 10
-101.447726362208410
 20
221.977941956470430
 40
5.000000000000000
 50
90.000000000000000
 51
180.000000000000000
  0
LINE
  8
0
  6
CONTINUOUS
 62
3
 10
18.552273637791586
 20
203.478815319255550
 11
-107.447726362208410
 21
203.478815319255550
  0
LINE
  8
0
  6
CONTINUOUS
 62
3
 10
-106.447726362208410
 20
208.572452247532740
 11
-107.447726362208410
 21
208.572452247532740
  0
LINE
  8
0
  6
CONTINUOUS
 62
3
 10
-106.447726362208410
 20
209.038967016157360
 11
-106.447726362208410
 21
221.977941956470430
  0
LINE
  8
0
  6
CONTINUOUS
 62
3
 10
17.552273637791586
 20
209.038967016157360
 11
17.552273637791586
 21
221.977941956470430
  0
POLYLINE
  8
0
  6
CONTINUOUS
 62
3
 66
1
  0
VERTEX
  8
0
  6
CONTINUOUS
 62
3
 10
-102.947726362208410
 20
203.728503403975310
  0
VERTEX
  8
0
  6
CONTINUOUS
 62
3
 10
-102.880474843619720
 20
203.694405193779320
  0
VERTEX
  8
0
  6
CONTINUOUS
 62
3
 10
-102.681304725997910
 20
203.661617358678680
  0
VERTEX
  8
0
  6
CONTINUOUS
 62
3
 10
-102.357870005267310
 20
203.631399916788670
  0
VERTEX
  8
0
  6
CONTINUOUS
 62
3
 10
-101.922600096361330
 20
203.604914107454960
  0
VERTEX
  8
0
  6
CONTINUOUS
 62
3
 10
-101.392222177777020
 20
203.583177765476880
  0
VERTEX
  8
0
  6
CONTINUOUS
 62
3
 10
-100.787118375486230
 20
203.567026206286700
  0
VERTEX
  8
0
  6
CONTINUOUS
 62
3
 10
-100.130542489264860
 20
203.557080125246240
  0
VERTEX
  8
0
  6
CONTINUOUS
 62
3
 10
-99.447726362208414
 20
203.553721744672090
  0
VERTEX
  8
0
  6
CONTINUOUS
 62
3
 10
-98.764910235151973
 20
203.557080125246240
  0
VERTEX
  8
0
  6
CONTINUOUS
 62
3
 10
-98.108334348930597
 20
203.567026206286700
  0
VERTEX
  8
0
  6
CONTINUOUS
 62
3
 10
-97.503230546639813
 20
203.583177765476880
  0
VERTEX
  8
0
  6
CONTINUOUS
 62
3
 10
-96.972852628055506
 20
203.604914107454960
  0
VERTEX
  8
0
  6
CONTINUOUS
 62
3
 10
-96.537582719149512
 20
203.631399916788670
  0
VERTEX
  8
0
  6
CONTINUOUS
 62
3
 10
-96.214147998418909
 20
203.661617358678680
  0
VERTEX
  8
0
  6
CONTINUOUS
 62
3
 10
-96.014977880797105
 20
203.694405193779320
  0
VERTEX
  8
0
  6
CONTINUOUS
 62
3
 10
-95.947726362208414
 20
203.728503403975310
  0
SEQEND
  8
0
  6
CONTINUOUS
 62
3
  0
ARC
  8
0
  6
CONTINUOUS
 62
3
 10
-97.247726362208596
 20
204.715513141899690
 40
1.300000000000182
 50
0.000000000000000
 51
73.398450400977637
  0
ARC
  8
0
  6
CONTINUOUS
 62
3
 10
-99.447726362208414
 20
197.336488816150220
 40
9.000000000000123
 50
73.398450400980877
 51
106.601549599019120
  0
ARC
  8
0
  6
CONTINUOUS
 62
3
 10
-101.647726362208230
 20
204.715513141899690
 40
1.300000000000019
 50
106.601549599022360
 51
180.000000000000000
  0
LINE
  8
0
  6
CONTINUOUS
 62
3
 10
-95.947726362208414
 20
204.715513141899690
 11
-95.947726362208414
 21
203.728503403975310
  0
LINE
  8
0
  6
CONTINUOUS
 62
3
 10
-102.947726362208410
 20
204.715513141899690
 11
-102.947726362208410
 21
203.728503403975310
  0
ARC
  8
0
  6
CONTINUOUS
 62
3
 10
-101.447726362208410
 20
209.038967016157360
 40
5.000000000000000
 50
180.000000000000000
 51
252.542396876278160
  0
LINE
  8
0
  6
CONTINUOUS
 62
3
 10
7.052273637791586
 20
204.715513141899690
 11
7.052273637791586
 21
203.728503403975310
  0
POLYLINE
  8
0
  6
CONTINUOUS
 62
3
 66
1
  0
VERTEX
  8
0
  6
CONTINUOUS
 62
3
 10
7.052273637791586
 20
203.728503403975310
  0
VERTEX
  8
0
  6
CONTINUOUS
 62
3
 10
7.119525156380280
 20
203.694405193779320
  0
VERTEX
  8
0
  6
CONTINUOUS
 62
3
 10
7.318695274002083
 20
203.661617358678680
  0
VERTEX
  8
0
  6
CONTINUOUS
 62
3
 10
7.642129994732677
 20
203.631399916788670
  0
VERTEX
  8
0
  6
CONTINUOUS
 62
3
 10
8.077399903638669
 20
203.604914107454960
  0
VERTEX
  8
0
  6
CONTINUOUS
 62
3
 10
8.607777822222978
 20
203.583177765476880
  0
VERTEX
  8
0
  6
CONTINUOUS
 62
3
 10
9.212881624513772
 20
203.567026206286700
  0
VERTEX
  8
0
  6
CONTINUOUS
 62
3
 10
9.869457510735137
 20
203.557080125246240
  0
VERTEX
  8
0
  6
CONTINUOUS
 62
3
 10
10.552273637791586
 20
203.553721744672090
  0
VERTEX
  8
0
  6
CONTINUOUS
 62
3
 10
11.235089764848034
 20
203.557080125246240
  0
VERTEX
  8
0
  6
CONTINUOUS
 62
3
 10
11.891665651069399
 20
203.567026206286700
  0
VERTEX
  8
0
  6
CONTINUOUS
 62
3
 10
12.496769453360193
 20
203.583177765476880
  0
VERTEX
  8
0
  6
CONTINUOUS
 62
3
 10
13.027147371944501
 20
203.604914107454960
  0
VERTEX
  8
0
  6
CONTINUOUS
 62
3
 10
13.462417280850492
 20
203.631399916788670
  0
VERTEX
  8
0
  6
CONTINUOUS
 62
3
 10
13.785852001581087
 20
203.661617358678680
  0
VERTEX
  8
0
  6
CONTINUOUS
 62
3
 10
13.985022119202890
 20
203.694405193779320
  0
VERTEX
  8
0
  6
CONTINUOUS
 62
3
 10
14.052273637791584
 20
203.728503403975310
  0
SEQEND
  8
0
  6
CONTINUOUS
 62
3
  0
LINE
  8
0
  6
CONTINUOUS
 62
3
 10
14.052273637791586
 20
204.715513141899690
 11
14.052273637791586
 21
203.728503403975310
  0
ARC
  8
0
  6
CONTINUOUS
 62
3
 10
8.352273637791768
 20
204.715513141899690
 40
1.300000000000019
 50
106.601549599022360
 51
180.000000000000000
  0
ARC
  8
0
  6
CONTINUOUS
 62
3
 10
10.552273637791586
 20
197.336488816150220
 40
9.000000000000123
 50
73.398450400980877
 51
106.601549599019120
  0
ARC
  8
0
  6
CONTINUOUS
 62
3
 10
12.752273637791404
 20
204.715513141899690
 40
1.300000000000182
 50
0.000000000000000
 51
73.398450400977637
  0
ARC
  8
0
  6
CONTINUOUS
 62
3
 10
12.552273637791586
 20
209.038967016157360
 40
5.000000000000072
 50
287.457603123721870
 51
0.000000000000000
  0
LINE
  8
0
  6
CONTINUOUS
 62
3
 10
7.052273637791586
 20
204.038967016157360
 11
-95.947726362208414
 21
204.038967016157360
  0
LINE
  8
0
  6
CONTINUOUS
 62
3
 10
-106.447726362208410
 20
185.377941956470520
 11
17.552273637791586
 21
185.377941956470520
  0
LINE
  8
0
  6
DASHDOT
 62
3
 10
17.552273637791586
 20
180.377941956470520
 11
17.552273637791586
 21
185.377941956470520
  0
ARC
  8
0
  6
CONTINUOUS
 62
3
 10
12.552273637791586
 20
190.377941956470520
 40
5.000000000000000
 50
270.000000000000000
 51
0.000000000000000
  0
LINE
  8
0
  6
DASHDOT
 62
3
 10
17.552273637791586
 20
180.377941956470520
 11
17.552273637791586
 21
185.377941956470520
  0
LINE
  8
0
  6
CONTINUOUS
 62
3
 10
-106.447726362208410
 20
180.377941956470520
 11
-106.447726362208410
 21
185.377941956470520
  0
ARC
  8
0
  6
CONTINUOUS
 62
3
 10
-101.447726362208410
 20
190.377941956470520
 40
5.000000000000000
 50
180.000000000000000
 51
270.000000000000000
  0
LINE
  8
0
  6
DASHDOT
 62
4
 10
-102.747726362208360
 20
28.377941956470750
 11
-102.747726362208360
 21
55.379541279020486
  0
LINE
  8
0
  6
DASHDOT
 62
4
 10
-93.747726362208368
 20
37.377941956470750
 11
-111.747726362208360
 21
37.377941956470750
  0
LINE
  8
0
  6
DASHDOT
 62
4
 10
234.435901462639320
 20
120.877941956470750
 11
-242.282913769056450
 21
120.877941956470750
  0
CIRCLE
  8
0
  6
DASHED
 62
4
 10
-102.747726362208360
 20
37.377941956470750
 40
6.000000000000000
  0
ARC
  8
0
  6
DASHED
 62
4
 10
-102.747726362208360
 20
37.377941956470750
 40
7.000000000000000
 50
180.000000000000000
 51
0.000000000000000
  0
LINE
  8
0
  6
DASHED
 62
4
 10
-95.747726362208368
 20
57.377941956470750
 11
-95.747726362208368
 21
37.377941956470750
  0
LINE
  8
0
  6
DASHED
 62
4
 10
-109.747726362208360
 20
57.377941956470750
 11
-109.747726362208360
 21
37.377941956470750
  0
LINE
  8
0
  6
CONTINUOUS
 62
3
 10
-114.747726362208360
 20
59.150087498558094
 11
-114.747726362208360
 21
24.377941956470750
  0
LINE
  8
0
  6
CONTINUOUS
 62
3
 10
29.552273637780672
 20
201.442638595531210
 11
29.552273637780672
 21
180.377941956470520
  0
LINE
  8
0
  6
CONTINUOUS
 62
3
 10
29.552273637780672
 20
40.313245317410292
 11
29.552273637780672
 21
61.377941956470750
  0
LINE
  8
0
  6
DASHDOT
 62
4
 10
43.052273637780672
 20
180.969732140976700
 11
43.052273637780672
 21
201.877941956470750
  0
LINE
  8
0
  6
DASHDOT
 62
4
 10
43.052273637780672
 20
60.951191118540009
 11
43.052273637780672
 21
39.877941956470750
  0
INSERT
  8
0
  2
SYM2
 10
68.552273637793405
 20
-119.072184390499380
  0
LINE
  8
0
  6
CONTINUOUS
 62
3
 10
63.552273637794087
 20
-58.072184390499388
 11
62.552273637795224
 21
-58.072184390499388
  0
LINE
  8
0
  6
CONTINUOUS
 62
3
 10
68.552273637795224
 20
-48.072184390499388
 11
62.552273637795224
 21
-48.072184390499388
  0
LINE
  8
0
  6
CONTINUOUS
 62
3
 10
62.552273637795224
 20
-58.072184390499388
 11
62.552273637795224
 21
-48.072184390499388
  0
LINE
  8
0
  6
CONTINUOUS
 62
3
 10
63.552273637795224
 20
-48.072184390499388
 11
63.552273637795224
 21
-40.072184390499615
  0
INSERT
  8
0
  2
SYM3
 10
448.486173897271780
 20
-151.991141001759840
 41
-1.000000000000000
 42
1.000000000000000
 43
1.000000000000000
 50
2.862405226113666
  0
LINE
  8
0
  6
DASHDOT
 62
4
 10
248.692440131162580
 20
-93.072184390499388
 11
477.707302485683610
 21
-93.072184390499388
  0
LINE
  8
0
  6
CONTINUOUS
 62
3
 10
447.137858239786280
 20
-157.064802883259970
 11
448.735861981990870
 21
-156.984902696148990
  0
ARC
  8
0
  6
CONTINUOUS
 62
3
 10
450.267817522260660
 20
-147.574044712542900
 40
1.999999999999995
 50
99.916536608232732
 51
182.862405226112400
  0
ARC
  8
0
  6
CONTINUOUS
 62
3
 10
444.674804424544850
 20
-147.853695367428710
 40
1.999999999999927
 50
2.862405226112724
 51
85.808273843998350
  0
ARC
  8
0
  6
CONTINUOUS
 62
3
 10
446.341351690928380
 20
-125.114684390499400
 40
20.799999999999926
 50
334.359929784105190
 51
5.724810452223396
  0
ARC
  8
0
  6
CONTINUOUS
 62
3
 10
446.341351690928380
 20
-125.114684390499400
 40
20.800000000000040
 50
279.916536608230560
 51
334.359929784105190
  0
ARC
  8
0
  6
CONTINUOUS
 62
3
 10
446.341351690928380
 20
-125.114684390499400
 40
20.799999999999926
 50
334.359929784105190
 51
5.724810452223396
  0
LINE
  8
0
  6
CONTINUOUS
 62
3
 10
442.044221311509320
 20
-55.192064317719201
 11
447.137858239786280
 21
-157.064802883259970
  0
LINE
  8
0
  6
CONTINUOUS
 62
3
 10
443.642225053713900
 20
-55.112164130609017
 11
448.735861981990870
 21
-156.984902696148990
  0
ARC
  8
0
  6
CONTINUOUS
 62
3
 10
444.759854155564430
 20
-57.859779726853844
 40
1.299999237060645
 50
19.463936333587132
 51
92.862405909348169
  0
ARC
  8
0
  6
CONTINUOUS
 62
3
 10
444.979579746316400
 20
-62.254291541891575
 40
1.299999237060550
 50
272.862387240019760
 51
346.260856815788600
  0
LINE
  8
0
  6
CONTINUOUS
 62
3
 10
443.717131479129190
 20
-56.610292638925671
 11
444.694935291636740
 21
-56.561402448300328
  0
LINE
  8
0
  6
CONTINUOUS
 62
3
 10
444.066694797736320
 20
-63.601559011070549
 11
445.044498610244090
 21
-63.552668820445206
  0
LINE
  8
0
  6
CONTINUOUS
 62
3
 10
443.717131479129190
 20
-56.610292638925671
 11
444.066694797736320
 21
-63.601559011070549
  0
LINE
  8
0
  6
CONTINUOUS
 62
3
 10
443.717131479129190
 20
-56.610292638925671
 11
444.066694797736320
 21
-63.601559011070549
  0
POINT
  8
0
  6
CONTINUOUS
 62
3
 10
443.891913138432760
 20
-60.105925824998053
  0
ARC
  8
0
  6
CONTINUOUS
 62
3
 10
437.499898550608350
 20
-60.425526554389307
 40
8.999999999999948
 50
346.260856815786500
 51
19.463936333592187
  0
LINE
  8
0
  6
CONTINUOUS
 62
3
 10
443.642225053713900
 20
-55.112164130609017
 11
442.044221311509320
 21
-55.192064317719201
  0
ARC
  8
0
  6
CONTINUOUS
 62
3
 10
444.341351690928380
 20
-85.114684390499406
 40
18.799999999999837
 50
5.724810452223617
 51
35.808626813495749
  0
ARC
  8
0
  6
CONTINUOUS
 62
3
 10
444.341351690928380
 20
-85.114684390499406
 40
18.799999999999933
 50
35.808626813495749
 51
85.126025186157264
  0
LINE
  8
0
  6
CONTINUOUS
 62
3
 10
467.037611042549320
 20
-123.039871422918390
 11
463.047586104893300
 21
-83.239372669801128
  0
LINE
  8
0
  6
CONTINUOUS
 62
3
 10
442.843223182611610
 20
-55.152114224164166
 11
447.936860110888570
 21
-157.024852789704250
  0
ARC
  8
0
  6
CONTINUOUS
 62
3
 10
446.108610154557250
 20
-64.389897358475878
 40
1.999999999999927
 50
182.862405226112710
 51
265.126025186159040
  0
ARC
  8
0
  6
CONTINUOUS
 62
3
 10
440.515597056841440
 20
-64.669548013361691
 40
1.999999999999958
 50
280.598785266065990
 51
2.862405226112724
  0
ARC
  8
0
  6
CONTINUOUS
 62
3
 10
444.341351690928380
 20
-85.114684390499406
 40
18.799999999999983
 50
100.598785266066050
 51
131.344544145945970
  0
ARC
  8
0
  6
CONTINUOUS
 62
3
 10
446.341351690928380
 20
-125.114684390499400
 40
20.800000000000018
 50
253.808648361383460
 51
265.808273843992540
  0
LINE
  8
0
  6
CONTINUOUS
 62
3
 10
-25.747726362206663
 20
-155.072184390499390
 11
-113.747726362206660
 21
-155.072184390499390
  0
LINE
  8
0
  6
CONTINUOUS
 62
3
 10
-25.747726362206663
 20
-83.072184390499388
 11
-113.747726362206660
 21
-83.072184390499388
  0
LINE
  8
0
  6
CONTINUOUS
 62
3
 10
-114.747726362206660
 20
-84.072184390499388
 11
-114.747726362206660
 21
-154.072184390499390
  0
ARC
  8
0
  6
CONTINUOUS
 62
3
 10
-113.747726362206660
 20
-154.072184390499390
 40
1.000000000000000
 50
180.000000000000000
 51
270.000000000000000
  0
ARC
  8
0
  6
CONTINUOUS
 62
3
 10
-113.747726362206660
 20
-84.072184390499388
 40
1.000000000000000
 50
90.000000000000000
 51
180.000000000000000
  0
LINE
  8
0
  6
CONTINUOUS
 62
3
 10
-24.747726362206663
 20
-84.072184390499388
 11
-24.747726362206663
 21
-154.072184390499390
  0
ARC
  8
0
  6
CONTINUOUS
 62
3
 10
-25.747726362206663
 20
-84.072184390499388
 40
1.000000000000000
 50
0.000000000000000
 51
90.000000000000000
  0
ARC
  8
0
  6
CONTINUOUS
 62
3
 10
-25.747726362206663
 20
-154.072184390499390
 40
1.000000000000000
 50
270.000000000000000
 51
0.000000000000000
  0
LINE
  8
0
  6
CONTINUOUS
 62
3
 10
-117.947726362205910
 20
-65.332069290061781
 11
-119.947726362205910
 21
-66.984710929185212
  0
LINE
  8
0
  6
CONTINUOUS
 62
3
 10
-115.947726362205910
 20
-64.156283804438999
 11
-117.947726362205910
 21
-65.332069290061781
  0
LINE
  8
0
  6
CONTINUOUS
 62
3
 10
-117.947726362205910
 20
-65.332069290061781
 11
-115.947726362205910
 21
-66.984710929185212
  0
LINE
  8
0
  6
CONTINUOUS
 62
3
 10
-119.947726362205910
 20
-64.156283804438999
 11
-117.947726362205910
 21
-65.332069290061781
  0
POLYLINE
  8
0
  6
CONTINUOUS
 62
3
 66
1
 70
1
  0
VERTEX
  8
0
  6
CONTINUOUS
 62
3
 10
-113.247726362205920
 20
-67.148659358439318
  0
VERTEX
  8
0
  6
CONTINUOUS
 62
3
 10
-113.338035544310740
 20
-66.445702392238957
  0
VERTEX
  8
0
  6
CONTINUOUS
 62
3
 10
-113.605492559402870
 20
-65.769759668026865
  0
VERTEX
  8
0
  6
CONTINUOUS
 62
3
 10
-114.039819184383950
 20
-65.146807285621463
  0
VERTEX
  8
0
  6
CONTINUOUS
 62
3
 10
-114.624324490629140
 20
-64.600784955722887
  0
VERTEX
  8
0
  6
CONTINUOUS
 62
3
 10
-115.336546267013780
 20
-64.152676010256272
  0
VERTEX
  8
0
  6
CONTINUOUS
 62
3
 10
-116.149114230089990
 20
-63.819701024693508
  0
VERTEX
  8
0
  6
CONTINUOUS
 62
3
 10
-117.030801848730100
 20
-63.614656040995257
  0
VERTEX
  8
0
  6
CONTINUOUS
 62
3
 10
-117.947726362205910
 20
-63.545420822894485
  0
VERTEX
  8
0
  6
CONTINUOUS
 62
3
 10
-118.864650875681710
 20
-63.614656040995257
  0
VERTEX
  8
0
  6
CONTINUOUS
 62
3
 10
-119.746338494321830
 20
-63.819701024693508
  0
VERTEX
  8
0
  6
CONTINUOUS
 62
3
 10
-120.558906457398030
 20
-64.152676010256272
  0
VERTEX
  8
0
  6
CONTINUOUS
 62
3
 10
-121.271128233782670
 20
-64.600784955722887
  0
VERTEX
  8
0
  6
CONTINUOUS
 62
3
 10
-121.855633540027860
 20
-65.146807285621463
  0
VERTEX
  8
0
  6
CONTINUOUS
 62
3
 10
-122.289960165008940
 20
-65.769759668026865
  0
VERTEX
  8
0
  6
CONTINUOUS
 62
3
 10
-122.557417180101080
 20
-66.445702392238957
  0
VERTEX
  8
0
  6
CONTINUOUS
 62
3
 10
-122.647726362205900
 20
-67.148659358439318
  0
VERTEX
  8
0
  6
CONTINUOUS
 62
3
 10
-122.557417180101080
 20
-67.851616324639679
  0
VERTEX
  8
0
  6
CONTINUOUS
 62
3
 10
-122.289960165008940
 20
-68.527559048851771
  0
VERTEX
  8
0
  6
CONTINUOUS
 62
3
 10
-121.855633540027860
 20
-69.150511431257172
  0
VERTEX
  8
0
  6
CONTINUOUS
 62
3
 10
-121.271128233782670
 20
-69.696533761155749
  0
VERTEX
  8
0
  6
CONTINUOUS
 62
3
 10
-120.558906457398030
 20
-70.144642706622363
  0
VERTEX
  8
0
  6
CONTINUOUS
 62
3
 10
-119.746338494321830
 20
-70.477617692185135
  0
VERTEX
  8
0
  6
CONTINUOUS
 62
3
 10
-118.864650875681710
 20
-70.682662675883378
  0
VERTEX
  8
0
  6
CONTINUOUS
 62
3
 10
-117.947726362205910
 20
-70.751897893984150
  0
VERTEX
  8
0
  6
CONTINUOUS
 62
3
 10
-117.030801848730100
 20
-70.682662675883378
  0
VERTEX
  8
0
  6
CONTINUOUS
 62
3
 10
-116.149114230089990
 20
-70.477617692185135
  0
VERTEX
  8
0
  6
CONTINUOUS
 62
3
 10
-115.336546267013780
 20
-70.144642706622363
  0
VERTEX
  8
0
  6
CONTINUOUS
 62
3
 10
-114.624324490629140
 20
-69.696533761155749
  0
VERTEX
  8
0
  6
CONTINUOUS
 62
3
 10
-114.039819184383950
 20
-69.150511431257172
  0
VERTEX
  8
0
  6
CONTINUOUS
 62
3
 10
-113.605492559402870
 20
-68.527559048851771
  0
VERTEX
  8
0
  6
CONTINUOUS
 62
3
 10
-113.338035544310740
 20
-67.851616324639679
  0
SEQEND
  8
0
  6
CONTINUOUS
 62
3
  0
ARC
  8
0
  6
CONTINUOUS
 62
3
 10
-207.347726362156210
 20
-71.628979333253938
 40
2.599999999999721
 50
125.000000000001370
 51
180.000000000000000
  0
LINE
  8
0
  6
CONTINUOUS
 62
3
 10
-199.113279311647830
 20
-62.689143504719596
 11
-208.839025096668820
 21
-69.499184018102824
  0
ARC
  8
0
  6
CONTINUOUS
 62
3
 10
-187.641750584626830
 20
-79.072184390499388
 40
20.000000000000000
 50
90.000000000000000
 51
125.000000000000240
  0
LINE
  8
0
  6
CONTINUOUS
 62
3
 10
-209.947726362156350
 20
-119.072184390499380
 11
-209.947726362156350
 21
-71.628979333253938
  0
LINE
  8
0
  6
CONTINUOUS
 62
3
 10
-106.947726362206480
 20
-59.072184390499388
 11
-187.641750584626830
 21
-59.072184390499388
  0
LINE
  8
0
  6
CONTINUOUS
 62
3
 10
-116.947726362206360
 20
-84.072184390499388
 11
-116.947726362206360
 21
-119.072184390499380
  0
ARC
  8
0
  6
CONTINUOUS
 62
3
 10
-109.947726362206480
 20
-78.072184390499388
 40
3.000000000000000
 50
270.000000000000000
 51
0.000000000000000
  0
LINE
  8
0
  6
CONTINUOUS
 62
3
 10
-109.947726362206480
 20
-81.072184390499388
 11
-113.947726362206360
 21
-81.072184390499388
  0
ARC
  8
0
  6
CONTINUOUS
 62
3
 10
-113.947726362206360
 20
-84.072184390499388
 40
3.000000000000000
 50
90.000000000000000
 51
180.000000000000000
  0
LINE
  8
0
  6
CONTINUOUS
 62
3
 10
-106.947726362206480
 20
-78.072184390499388
 11
-106.947726362206480
 21
-59.072184390499388
  0
LINE
  8
0
  6
CONTINUOUS
 62
4
 10
-116.947726362206360
 20
-87.321392674125036
 11
-114.747726362206660
 21
-87.321392674125036
  0
LINE
  8
0
  6
CONTINUOUS
 62
4
 10
-116.861390151203290
 20
-83.357647250325499
 11
-114.447323871716320
 21
-83.357647250325499
  0
LINE
  8
0
  6
CONTINUOUS
 62
4
 10
-116.947726362206360
 20
-99.072184390499388
 11
-114.747726362206660
 21
-99.072184390499388
  0
LINE
  8
0
  6
CONTINUOUS
 62
4
 10
-116.947726362206360
 20
-92.880250598019757
 11
-114.747726362206660
 21
-92.880250598019757
  0
LINE
  8
0
  6
CONTINUOUS
 62
4
 10
-116.947726362206360
 20
-94.242130933369026
 11
-114.747726362206660
 21
-94.242130933369026
  0
LINE
  8
0
  6
CONTINUOUS
 62
4
 10
-116.947726362206360
 20
-88.789750063930114
 11
-114.747726362206660
 21
-88.789750063930114
  0
LINE
  8
0
  6
CONTINUOUS
 62
4
 10
-116.947726362206360
 20
-139.072184390499390
 11
-114.747726362206660
 21
-139.072184390499390
  0
LINE
  8
0
  6
CONTINUOUS
 62
4
 10
-116.947726362206360
 20
-143.902237847629750
 11
-114.747726362206660
 21
-143.902237847629750
  0
LINE
  8
0
  6
CONTINUOUS
 62
4
 10
-116.947726362206360
 20
-145.264118182979020
 11
-114.747726362206660
 21
-145.264118182979020
  0
LINE
  8
0
  6
CONTINUOUS
 62
4
 10
-116.947726362206360
 20
-149.354618717068660
 11
-114.747726362206660
 21
-149.354618717068660
  0
LINE
  8
0
  6
CONTINUOUS
 62
4
 10
-116.861390151203290
 20
-154.786721530673280
 11
-114.447323871716320
 21
-154.786721530673280
  0
LINE
  8
0
  6
CONTINUOUS
 62
3
 10
-116.947726362206360
 20
-154.072184390499390
 11
-116.947726362206360
 21
-119.072184390499380
  0
ARC
  8
0
  6
CONTINUOUS
 62
3
 10
-109.947726362206480
 20
-160.072184390499390
 40
3.000000000000000
 50
0.000000000000000
 51
90.000000000000000
  0
LINE
  8
0
  6
CONTINUOUS
 62
3
 10
-109.947726362206480
 20
-157.072184390499390
 11
-113.947726362206360
 21
-157.072184390499390
  0
ARC
  8
0
  6
CONTINUOUS
 62
3
 10
-113.947726362206360
 20
-154.072184390499390
 40
3.000000000000000
 50
180.000000000000000
 51
270.000000000000000
  0
LINE
  8
0
  6
CONTINUOUS
 62
3
 10
-106.947726362206480
 20
-160.072184390499390
 11
-106.947726362206480
 21
-179.072184390499420
  0
ARC
  8
0
  6
CONTINUOUS
 62
3
 10
-207.347726362156210
 20
-166.515389447744840
 40
2.600000000000136
 50
180.000000000000000
 51
234.999999999998610
  0
LINE
  8
0
  6
CONTINUOUS
 62
3
 10
-199.113279311647830
 20
-175.455225276279180
 11
-208.839025096668820
 21
-168.645184762895950
  0
ARC
  8
0
  6
CONTINUOUS
 62
3
 10
-187.641750584626830
 20
-159.072184390499390
 40
20.000000000000007
 50
234.999999999999740
 51
270.000000000000000
  0
LINE
  8
0
  6
CONTINUOUS
 62
3
 10
-209.947726362156350
 20
-119.072184390499380
 11
-209.947726362156350
 21
-166.515389447744840
  0
LINE
  8
0
  6
CONTINUOUS
 62
3
 10
-106.947726362206480
 20
-179.072184390499420
 11
-187.641750584626830
 21
-179.072184390499420
  0
LINE
  8
0
  6
CONTINUOUS
 62
3
 10
-117.947726362205910
 20
-172.812299490937220
 11
-119.947726362205910
 21
-171.159657851813790
  0
LINE
  8
0
  6
CONTINUOUS
 62
3
 10
-115.947726362205910
 20
-173.988084976559550
 11
-117.947726362205910
 21
-172.812299490937220
  0
LINE
  8
0
  6
CONTINUOUS
 62
3
 10
-117.947726362205910
 20
-172.812299490937220
 11
-115.947726362205910
 21
-171.159657851813790
  0
LINE
  8
0
  6
CONTINUOUS
 62
3
 10
-119.947726362205910
 20
-173.988084976559550
 11
-117.947726362205910
 21
-172.812299490937220
  0
POLYLINE
  8
0
  6
CONTINUOUS
 62
3
 66
1
 70
1
  0
VERTEX
  8
0
  6
CONTINUOUS
 62
3
 10
-113.247726362205920
 20
-170.995709422559230
  0
VERTEX
  8
0
  6
CONTINUOUS
 62
3
 10
-113.338035544310740
 20
-170.292752456358870
  0
VERTEX
  8
0
  6
CONTINUOUS
 62
3
 10
-113.605492559402870
 20
-169.616809732146780
  0
VERTEX
  8
0
  6
CONTINUOUS
 62
3
 10
-114.039819184383950
 20
-168.993857349741380
  0
VERTEX
  8
0
  6
CONTINUOUS
 62
3
 10
-114.624324490629140
 20
-168.447835019842780
  0
VERTEX
  8
0
  6
CONTINUOUS
 62
3
 10
-115.336546267013780
 20
-167.999726074376160
  0
VERTEX
  8
0
  6
CONTINUOUS
 62
3
 10
-116.149114230089990
 20
-167.666751088813410
  0
VERTEX
  8
0
  6
CONTINUOUS
 62
3
 10
-117.030801848730100
 20
-167.461706105115160
  0
VERTEX
  8
0
  6
CONTINUOUS
 62
3
 10
-117.947726362205910
 20
-167.392470887014380
  0
VERTEX
  8
0
  6
CONTINUOUS
 62
3
 10
-118.864650875681710
 20
-167.461706105115160
  0
VERTEX
  8
0
  6
CONTINUOUS
 62
3
 10
-119.746338494321830
 20
-167.666751088813410
  0
VERTEX
  8
0
  6
CONTINUOUS
 62
3
 10
-120.558906457398030
 20
-167.999726074376160
  0
VERTEX
  8
0
  6
CONTINUOUS
 62
3
 10
-121.271128233782670
 20
-168.447835019842780
  0
VERTEX
  8
0
  6
CONTINUOUS
 62
3
 10
-121.855633540027860
 20
-168.993857349741380
  0
VERTEX
  8
0
  6
CONTINUOUS
 62
3
 10
-122.289960165008940
 20
-169.616809732146780
  0
VERTEX
  8
0
  6
CONTINUOUS
 62
3
 10
-122.557417180101080
 20
-170.292752456358870
  0
VERTEX
  8
0
  6
CONTINUOUS
 62
3
 10
-122.647726362205900
 20
-170.995709422559230
  0
VERTEX
  8
0
  6
CONTINUOUS
 62
3
 10
-122.557417180101080
 20
-171.698666388759590
  0
VERTEX
  8
0
  6
CONTINUOUS
 62
3
 10
-122.289960165008940
 20
-172.374609112971680
  0
VERTEX
  8
0
  6
CONTINUOUS
 62
3
 10
-121.855633540027860
 20
-172.997561495377080
  0
VERTEX
  8
0
  6
CONTINUOUS
 62
3
 10
-121.271128233782670
 20
-173.543583825275680
  0
VERTEX
  8
0
  6
CONTINUOUS
 62
3
 10
-120.558906457398030
 20
-173.991692770742300
  0
VERTEX
  8
0
  6
CONTINUOUS
 62
3
 10
-119.746338494321830
 20
-174.324667756305050
  0
VERTEX
  8
0
  6
CONTINUOUS
 62
3
 10
-118.864650875681710
 20
-174.529712740003300
  0
VERTEX
  8
0
  6
CONTINUOUS
 62
3
 10
-117.947726362205910
 20
-174.598947958104080
  0
VERTEX
  8
0
  6
CONTINUOUS
 62
3
 10
-117.030801848730100
 20
-174.529712740003300
  0
VERTEX
  8
0
  6
CONTINUOUS
 62
3
 10
-116.149114230089990
 20
-174.324667756305050
  0
VERTEX
  8
0
  6
CONTINUOUS
 62
3
 10
-115.336546267013780
 20
-173.991692770742300
  0
VERTEX
  8
0
  6
CONTINUOUS
 62
3
 10
-114.624324490629140
 20
-173.543583825275680
  0
VERTEX
  8
0
  6
CONTINUOUS
 62
3
 10
-114.039819184383950
 20
-172.997561495377080
  0
VERTEX
  8
0
  6
CONTINUOUS
 62
3
 10
-113.605492559402870
 20
-172.374609112971680
  0
VERTEX
  8
0
  6
CONTINUOUS
 62
3
 10
-113.338035544310740
 20
-171.698666388759590
  0
SEQEND
  8
0
  6
CONTINUOUS
 62
3
  0
LINE
  8
0
  6
CONTINUOUS
 62
3
 10
42.052273637793405
 20
-177.572184390499420
 11
-106.947726362206480
 21
-177.572184390499420
  0
LINE
  8
0
  6
DASHDOT
 62
4
 10
96.016257995335764
 20
-119.072184390499380
 11
-236.269745543082540
 21
-119.072184390499380
  0
LINE
  8
0
  6
CONTINUOUS
 62
3
 10
42.052273637793405
 20
-60.572184390499388
 11
-106.947726362206480
 21
-60.572184390499388
  0
LINE
  8
0
  6
CONTINUOUS
 62
4
 10
-24.747726362206663
 20
-88.789750063930114
 11
42.052273637794315
 21
-88.789750063930114
  0
LINE
  8
0
  6
CONTINUOUS
 62
4
 10
-24.747726362206663
 20
-94.242130933369026
 11
42.052273637794315
 21
-94.242130933369026
  0
LINE
  8
0
  6
CONTINUOUS
 62
4
 10
-24.747726362206663
 20
-92.880250598019757
 11
42.052273637794315
 21
-92.880250598019757
  0
LINE
  8
0
  6
CONTINUOUS
 62
4
 10
-24.747726362206663
 20
-99.072184390499388
 11
42.052273637794315
 21
-99.072184390499388
  0
LINE
  8
0
  6
CONTINUOUS
 62
4
 10
-106.947726362206480
 20
-68.756650203723893
 11
42.052273637794315
 21
-68.756650203723893
  0
LINE
  8
0
  6
CONTINUOUS
 62
4
 10
-106.947726362206480
 20
-73.706397672029652
 11
42.052273637794315
 21
-73.706397672029652
  0
LINE
  8
0
  6
CONTINUOUS
 62
4
 10
-115.850718920586580
 20
-81.752999334763444
 11
42.052273637794315
 21
-81.752999334763444
  0
LINE
  8
0
  6
CONTINUOUS
 62
4
 10
-24.747726362206663
 20
-87.321392674125036
 11
42.052273637794315
 21
-87.321392674125036
  0
LINE
  8
0
  6
CONTINUOUS
 62
4
 10
-25.048128852696777
 20
-83.357647250325499
 11
42.052273637794315
 21
-83.357647250325499
  0
LINE
  8
0
  6
CONTINUOUS
 62
4
 10
-106.947726362206480
 20
-61.572184390499388
 11
42.052273637794315
 21
-61.572184390499388
  0
LINE
  8
0
  6
CONTINUOUS
 62
4
 10
-106.947726362206480
 20
-62.072184390499388
 11
42.052273637794315
 21
-62.072184390499388
  0
LINE
  8
0
  6
CONTINUOUS
 62
4
 10
-106.947726362206480
 20
-63.072184390499388
 11
42.052273637794315
 21
-63.072184390499388
  0
LINE
  8
0
  6
CONTINUOUS
 62
4
 10
-106.947726362206480
 20
-64.072184390499388
 11
42.052273637794315
 21
-64.072184390499388
  0
LINE
  8
0
  6
CONTINUOUS
 62
4
 10
-106.947726362206480
 20
-164.437971108969120
 11
42.052273637794315
 21
-164.437971108969120
  0
LINE
  8
0
  6
CONTINUOUS
 62
4
 10
-115.850718920586580
 20
-156.391369446235330
 11
42.052273637794315
 21
-156.391369446235330
  0
LINE
  8
0
  6
CONTINUOUS
 62
4
 10
-24.747726362206663
 20
-150.822976106873740
 11
42.052273637794315
 21
-150.822976106873740
  0
LINE
  8
0
  6
CONTINUOUS
 62
4
 10
-24.747726362206663
 20
-143.902237847629750
 11
42.052273637794315
 21
-143.902237847629750
  0
LINE
  8
0
  6
CONTINUOUS
 62
4
 10
-24.747726362206663
 20
-149.354618717068660
 11
42.052273637794315
 21
-149.354618717068660
  0
LINE
  8
0
  6
CONTINUOUS
 62
4
 10
-24.747726362206663
 20
-139.072184390499390
 11
42.052273637794315
 21
-139.072184390499390
  0
LINE
  8
0
  6
CONTINUOUS
 62
4
 10
-24.747726362206663
 20
-145.264118182979020
 11
42.052273637794315
 21
-145.264118182979020
  0
LINE
  8
0
  6
CONTINUOUS
 62
4
 10
-25.048128852697005
 20
-154.786721530673280
 11
42.052273637794315
 21
-154.786721530673280
  0
LINE
  8
0
  6
CONTINUOUS
 62
4
 10
-106.947726362206480
 20
-169.387718577274880
 11
42.052273637794315
 21
-169.387718577274880
  0
LINE
  8
0
  6
CONTINUOUS
 62
4
 10
-106.947726362206480
 20
-176.572184390499420
 11
42.052273637794315
 21
-176.572184390499420
  0
LINE
  8
0
  6
CONTINUOUS
 62
4
 10
-106.947726362206480
 20
-176.072184390499420
 11
42.052273637794315
 21
-176.072184390499420
  0
LINE
  8
0
  6
CONTINUOUS
 62
4
 10
-106.947726362206480
 20
-175.072184390499390
 11
42.052273637794315
 21
-175.072184390499390
  0
LINE
  8
0
  6
CONTINUOUS
 62
4
 10
-106.947726362206480
 20
-174.072184390499390
 11
42.052273637794315
 21
-174.072184390499390
  0
ARC
  8
0
  6
CONTINUOUS
 62
3
 10
270.174686917986040
 20
-88.072184390499388
 40
5.000000000000000
 50
90.000000000000000
 51
173.967950853630950
  0
LINE
  8
0
  6
CONTINUOUS
 62
3
 10
284.783765631252440
 20
-83.072184390499388
 11
270.174686917986040
 21
-83.072184390499388
  0
LINE
  8
0
  6
CONTINUOUS
 62
3
 10
281.541351690928420
 20
-155.072184390499390
 11
270.174686917986040
 21
-155.072184390499390
  0
ARC
  8
0
  6
CONTINUOUS
 62
3
 10
270.174686917986040
 20
-150.072184390499390
 40
5.000000000000143
 50
186.032049146370330
 51
270.000000000000000
  0
LINE
  8
0
  6
CONTINUOUS
 62
3
 10
263.041351690928420
 20
-121.572184390499380
 11
263.041351690928420
 21
-116.572184390499380
  0
LINE
  8
0
  6
CONTINUOUS
 62
3
 10
263.541353548126150
 20
-116.572184390499380
 11
263.041351690928420
 21
-116.572184390499380
  0
LINE
  8
0
  6
CONTINUOUS
 62
3
 10
263.551768538446140
 20
-121.572184390499380
 11
263.041351690928420
 21
-121.572184390499380
  0
ARC
  8
0
  6
CONTINUOUS
 62
3
 10
563.541351690928420
 20
-119.072184390499500
 40
300.000000000000060
 50
173.967950853630190
 51
186.032049146369810
  0
LINE
  8
0
  6
CONTINUOUS
 62
3
 10
60.552273637794315
 20
-106.072184390500290
 11
60.552273637794315
 21
-94.072184390500297
  0
ARC
  8
0
  6
CONTINUOUS
 62
3
 10
62.552273637794315
 20
-106.072184390500290
 40
2.000000000000000
 50
180.000000000000000
 51
255.522487814045290
  0
ARC
  8
0
  6
CONTINUOUS
 62
3
 10
62.552273637794315
 20
-94.072184390500297
 40
1.999999999999850
 50
104.477512185957940
 51
180.000000000000000
  0
ARC
  8
0
  6
CONTINUOUS
 62
3
 10
58.552273637793405
 20
-183.496182257942560
 40
4.999999999999920
 50
65.063484552028228
 51
87.000000000004846
  0
LINE
  8
0
  6
CONTINUOUS
 62
3
 10
58.813953419007703
 20
-178.503034584169650
 11
42.052273637793405
 21
-177.624592169782770
  0
ARC
  8
0
  6
CONTINUOUS
 62
3
 10
58.552273637794315
 20
-54.648186523057120
 40
5.000000000000066
 50
273.000000000005570
 51
323.130102354173180
  0
LINE
  8
0
  6
CONTINUOUS
 62
3
 10
58.813953419009522
 20
-59.641334196830030
 11
42.052273637794315
 21
-60.519776611216457
  0
LINE
  8
0
  6
CONTINUOUS
 62
3
 10
42.052273637794315
 20
-119.072184390499380
 11
42.052273637794315
 21
-60.519776611216457
  0
LINE
  8
0
  6
CONTINUOUS
 62
3
 10
42.052273637793405
 20
-119.072184390499380
 11
42.052273637793405
 21
-177.624592169782770
  0
LINE
  8
0
  6
CONTINUOUS
 62
3
 10
42.052273637794315
 20
-99.072184390499388
 11
60.552273637794315
 21
-99.072184390499388
  0
LINE
  8
0
  6
CONTINUOUS
 62
3
 10
63.552273637793405
 20
-139.072184390499390
 11
42.052273637793405
 21
-139.072184390499390
  0
ARC
  8
0
  6
CONTINUOUS
 62
3
 10
59.421120785008043
 20
-176.088205274019860
 40
2.999999999999905
 50
271.883722866764340
 51
309.887635324183690
  0
LINE
  8
0
  6
DASHDOT
 62
4
 10
43.052273637780672
 20
-174.099015960171070
 11
43.052273637780672
 21
-200.904475039913450
  0
LINE
  8
0
  6
CONTINUOUS
 62
3
 10
32.453659906756911
 20
-179.976760647957240
 11
59.519734516031804
 21
-179.086584057971780
  0
LINE
  8
0
  6
CONTINUOUS
 62
3
 10
58.487195394282480
 20
-179.120543254777660
 11
77.052273637780672
 21
-178.509956079423320
  0
LINE
  8
0
  6
CONTINUOUS
 62
3
 10
29.552273637780672
 20
-197.572184390499390
 11
29.552273637780672
 21
-182.475139431909160
  0
ARC
  8
0
  6
CONTINUOUS
 62
3
 10
32.552273637780672
 20
-182.975139431909160
 40
2.999999999999905
 50
91.883722866764373
 51
180.000000000000000
  0
LINE
  8
0
  6
CONTINUOUS
 62
3
 10
42.052273637794315
 20
-177.572184390499390
 11
42.052273637794315
 21
-119.072184390499380
  0
LINE
  8
0
  6
CONTINUOUS
 62
3
 10
42.052273637794315
 20
-60.572184390499388
 11
42.052273637794315
 21
-119.072184390499380
  0
ARC
  8
0
  6
CONTINUOUS
 62
3
 10
162.552273637780220
 20
-61.985381134752970
 40
2.000000000000455
 50
0.000000000000000
 51
41.568310778590678
  0
ARC
  8
0
  6
CONTINUOUS
 62
3
 10
115.417867219356140
 20
-103.786669770186560
 40
65.000000000000014
 50
41.568310778586344
 51
88.999999999999034
  0
ARC
  8
0
  6
CONTINUOUS
 62
3
 10
165.552273637780670
 20
-64.572184390499388
 40
1.000000000000000
 50
180.000000000000000
 51
270.000000000000000
  0
ARC
  8
0
  6
CONTINUOUS
 62
3
 10
165.552273637780670
 20
-121.572184390499380
 40
1.000000000000000
 50
90.000000000000000
 51
180.000000000000000
  0
ARC
  8
0
  6
CONTINUOUS
 62
3
 10
165.552273637780670
 20
-66.572184390499388
 40
1.000000000000000
 50
0.000000000000000
 51
90.000000000000000
  0
ARC
  8
0
  6
CONTINUOUS
 62
3
 10
165.552273637780670
 20
-119.572184390499380
 40
1.000000000000000
 50
270.000000000000000
 51
0.000000000000000
  0
LINE
  8
0
  6
CONTINUOUS
 62
3
 10
164.552273637780670
 20
-179.556174564708730
 11
164.552273637780670
 21
-93.072184390499388
  0
LINE
  8
0
  6
CONTINUOUS
 62
3
 10
164.552273637780670
 20
-61.985381134752970
 11
164.552273637780670
 21
-93.072184390499388
  0
LINE
  8
0
  6
CONTINUOUS
 62
3
 10
166.552273637780670
 20
-93.072184390499388
 11
166.552273637780670
 21
-66.572184390499388
  0
LINE
  8
0
  6
CONTINUOUS
 62
3
 10
166.552273637780670
 20
-93.072184390499388
 11
166.552273637780670
 21
-119.572184390499380
  0
LINE
  8
0
  6
DASHDOT
 62
4
 10
229.265089130767590
 20
-93.072184390499388
 11
134.299635034636590
 21
-93.072184390499388
  0
LINE
  8
0
  6
CONTINUOUS
 62
3
 10
210.552273637781130
 20
-89.072184390499842
 11
178.552273637781130
 21
-89.072184390499842
  0
LINE
  8
0
  6
CONTINUOUS
 62
3
 10
210.552273637781130
 20
-97.072184390499842
 11
178.552273637781130
 21
-97.072184390499842
  0
ARC
  8
0
  6
CONTINUOUS
 62
3
 10
178.552273637781130
 20
-93.072184390499842
 40
4.000000000000000
 50
90.000000000000000
 51
270.000000000000000
  0
LINE
  8
0
  6
CONTINUOUS
 62
3
 10
162.304677938916940
 20
-98.072184390723123
 11
162.304677938916480
 21
-177.281889719755330
  0
LINE
  8
0
  6
CONTINUOUS
 62
3
 10
138.052273637780220
 20
-176.626623250697780
 11
138.052273637780670
 21
-98.072184390723123
  0
POLYLINE
  8
0
  6
CONTINUOUS
 62
3
 66
1
  0
VERTEX
  8
0
  6
CONTINUOUS
 62
3
 10
162.304677938916940
 20
-98.072184390723123
  0
VERTEX
  8
0
  6
CONTINUOUS
 62
3
 10
162.071676364820040
 20
-95.145829560481204
  0
VERTEX
  8
0
  6
CONTINUOUS
 62
3
 10
161.381625762353050
 20
-92.331932905246774
  0
VERTEX
  8
0
  6
CONTINUOUS
 62
3
 10
160.261044389183980
 20
-89.738630895429083
  0
VERTEX
  8
0
  6
CONTINUOUS
 62
3
 10
158.752995559054430
 20
-87.465582672924910
  0
VERTEX
  8
0
  6
CONTINUOUS
 62
3
 10
156.915432742782740
 20
-85.600140206184946
  0
VERTEX
  8
0
  6
CONTINUOUS
 62
3
 10
154.818972448881140
 20
-84.213991403053825
  0
VERTEX
  8
0
  6
CONTINUOUS
 62
3
 10
152.544180470735800
 20
-83.360405184674676
  0
VERTEX
  8
0
  6
CONTINUOUS
 62
3
 10
150.178475788348810
 20
-83.072184390723123
  0
VERTEX
  8
0
  6
CONTINUOUS
 62
3
 10
147.812771105961820
 20
-83.360405184674676
  0
VERTEX
  8
0
  6
CONTINUOUS
 62
3
 10
145.537979127816470
 20
-84.213991403053825
  0
VERTEX
  8
0
  6
CONTINUOUS
 62
3
 10
143.441518833914870
 20
-85.600140206184946
  0
VERTEX
  8
0
  6
CONTINUOUS
 62
3
 10
141.603956017643180
 20
-87.465582672924910
  0
VERTEX
  8
0
  6
CONTINUOUS
 62
3
 10
140.095907187513630
 20
-89.738630895429097
  0
VERTEX
  8
0
  6
CONTINUOUS
 62
3
 10
138.975325814344560
 20
-92.331932905246774
  0
VERTEX
  8
0
  6
CONTINUOUS
 62
3
 10
138.285275211877600
 20
-95.145829560481204
  0
VERTEX
  8
0
  6
CONTINUOUS
 62
3
 10
138.052273637780670
 20
-98.072184390723123
  0
SEQEND
  8
0
  6
CONTINUOUS
 62
3
  0
ARC
  8
0
  6
CONTINUOUS
 62
3
 10
210.152273637780580
 20
-106.672184390499290
 40
0.400000000000091
 50
270.000000000000000
 51
0.000000000000000
  0
LINE
  8
0
  6
CONTINUOUS
 62
3
 10
210.152273637780580
 20
-107.072184390499380
 11
171.112081258915620
 21
-107.072184390499380
  0
LINE
  8
0
  6
CONTINUOUS
 62
3
 10
210.552273637780670
 20
-106.672184390499290
 11
210.552273637780670
 21
-93.072184390499388
  0
ARC
  8
0
  6
CONTINUOUS
 62
3
 10
210.152273637780580
 20
-79.472184390499478
 40
0.400000000000091
 50
0.000000000000000
 51
90.000000000000000
  0
LINE
  8
0
  6
CONTINUOUS
 62
3
 10
210.152273637780580
 20
-79.072184390499388
 11
171.112081258915620
 21
-79.072184390499388
  0
LINE
  8
0
  6
CONTINUOUS
 62
3
 10
210.552273637780670
 20
-79.472184390499478
 11
210.552273637780670
 21
-93.072184390499388
  0
LINE
  8
0
  6
CONTINUOUS
 62
3
 10
170.552273637780670
 20
-79.222184390499478
 11
168.952273637780310
 21
-79.222184390499478
  0
LINE
  8
0
  6
CONTINUOUS
 62
3
 10
171.112081258915620
 20
-79.072184390499388
 11
170.552273637780670
 21
-79.222184390499478
  0
ARC
  8
0
  6
CONTINUOUS
 62
3
 10
168.952273637780310
 20
-78.822184390499388
 40
0.399999999999636
 50
180.000000000000000
 51
270.000000000000000
  0
LINE
  8
0
  6
CONTINUOUS
 62
3
 10
168.552273637780670
 20
-78.772184390499206
 11
168.352273637780400
 21
-78.572184390499388
  0
LINE
  8
0
  6
CONTINUOUS
 62
3
 10
168.552273637780670
 20
-93.072184390499388
 11
168.552273637780670
 21
-78.772184390499206
  0
LINE
  8
0
  6
CONTINUOUS
 62
3
 10
168.352273637780400
 20
-78.572184390499388
 11
166.552273637780220
 21
-78.572184390499388
  0
LINE
  8
0
  6
CONTINUOUS
 62
3
 10
170.552273637780670
 20
-106.922184390499290
 11
168.952273637780310
 21
-106.922184390499290
  0
LINE
  8
0
  6
CONTINUOUS
 62
3
 10
171.112081258915620
 20
-107.072184390499380
 11
170.552273637780670
 21
-106.922184390499290
  0
ARC
  8
0
  6
CONTINUOUS
 62
3
 10
168.952273637780310
 20
-107.322184390499380
 40
0.400000000000091
 50
90.000000000000000
 51
180.000000000000000
  0
LINE
  8
0
  6
CONTINUOUS
 62
3
 10
168.552273637780670
 20
-107.372184390499560
 11
168.352273637780400
 21
-107.572184390499380
  0
LINE
  8
0
  6
CONTINUOUS
 62
3
 10
168.552273637780670
 20
-93.072184390499388
 11
168.552273637780670
 21
-107.372184390499560
  0
LINE
  8
0
  6
CONTINUOUS
 62
3
 10
168.352273637780400
 20
-107.572184390499380
 11
166.552273637780220
 21
-107.572184390499380
  0
LINE
  8
0
  6
CONTINUOUS
 62
3
 10
77.052273637780672
 20
-165.262532510018900
 11
61.344972962284828
 21
-178.390115958644400
  0
ARC
  8
0
  6
CONTINUOUS
 62
3
 10
75.052273637780672
 20
-164.327528532748150
 40
1.999999999999287
 50
309.887635324181530
 51
0.000000000000000
  0
ARC
  8
0
  6
CONTINUOUS
 62
3
 10
75.052273637780672
 20
-150.783293423990470
 40
2.000000000000000
 50
0.000000000000000
 51
90.000000000000000
  0
LINE
  8
0
  6
CONTINUOUS
 62
3
 10
77.052273637780672
 20
-150.783293423990470
 11
77.052273637780672
 21
-164.327528532748150
  0
LINE
  8
0
  6
CONTINUOUS
 62
3
 10
75.052273637780672
 20
-38.072184390499388
 11
116.552273637780670
 21
-38.796569585020734
  0
LINE
  8
0
  6
CONTINUOUS
 62
3
 10
75.052273637780672
 20
-93.072184390499388
 11
75.052273637780672
 21
-38.072184390499388
  0
LINE
  8
0
  6
CONTINUOUS
 62
3
 10
75.052273637780672
 20
-93.072184390499388
 11
75.052273637780672
 21
-166.934058855612420
  0
LINE
  8
0
  6
CONTINUOUS
 62
3
 10
29.552273637780672
 20
-197.572184390499390
 11
31.552273637780672
 21
-197.572184390499390
  0
LINE
  8
0
  6
CONTINUOUS
 62
3
 10
31.552273637780672
 20
-198.072184390499390
 11
31.552273637780672
 21
-197.572184390499390
  0
ARC
  8
0
  6
CONTINUOUS
 62
3
 10
165.552273637780670
 20
-179.556174564708730
 40
1.000000000000000
 50
180.000000000000000
 51
240.000000000002730
  0
ARC
  8
0
  6
CONTINUOUS
 62
3
 10
163.552273637780670
 20
-183.020276179846410
 40
3.000000000000000
 50
0.000000000000000
 51
89.000000000006764
  0
LINE
  8
0
  6
CONTINUOUS
 62
3
 10
163.604630857092160
 20
-180.020733094377650
 11
77.052273637780672
 21
-178.509956079423320
  0
LINE
  8
0
  6
CONTINUOUS
 62
3
 10
166.552273637780670
 20
-197.572184390499390
 11
166.552273637780670
 21
-182.520276179846410
  0
LINE
  8
0
  6
CONTINUOUS
 62
3
 10
31.552273637780672
 20
-198.072184390499390
 11
164.552273637780670
 21
-198.072184390499390
  0
LINE
  8
0
  6
DASHDOT
 62
4
 10
153.052273637780670
 20
-176.316212672664730
 11
153.052273637780670
 21
-200.904475039913450
  0
LINE
  8
0
  6
CONTINUOUS
 62
3
 10
164.552273637780670
 20
-197.572184390499390
 11
166.552273637780670
 21
-197.572184390499390
  0
LINE
  8
0
  6
CONTINUOUS
 62
3
 10
164.552273637780670
 20
-198.072184390499390
 11
164.552273637780670
 21
-197.572184390499390
  0
ARC
  8
0
  6
CONTINUOUS
 62
3
 10
165.304677938916480
 20
-177.281889719755330
 40
3.000000000000000
 50
180.000000000000000
 51
253.018232129918400
  0
ARC
  8
0
  6
CONTINUOUS
 62
3
 10
141.052273637780220
 20
-176.626623250697780
 40
3.000000000000000
 50
180.000000000000000
 51
268.999999999998410
  0
ARC
  8
0
  6
CONTINUOUS
 62
3
 10
361.041351690928420
 20
-93.072184390499388
 40
13.999999999999572
 50
196.601549599020760
 51
163.398450400979240
  0
POLYLINE
  8
0
  6
CONTINUOUS
 62
3
 66
1
  0
VERTEX
  8
0
  6
CONTINUOUS
 62
3
 10
306.237763138603440
 20
-98.072184390723123
  0
VERTEX
  8
0
  6
CONTINUOUS
 62
3
 10
306.071537638279840
 20
-95.145829560481204
  0
VERTEX
  8
0
  6
CONTINUOUS
 62
3
 10
305.579249090066240
 20
-92.331932905246774
  0
VERTEX
  8
0
  6
CONTINUOUS
 62
3
 10
304.779815866791750
 20
-89.738630895429083
  0
VERTEX
  8
0
  6
CONTINUOUS
 62
3
 10
303.703959738899640
 20
-87.465582672924910
  0
VERTEX
  8
0
  6
CONTINUOUS
 62
3
 10
302.393025254037640
 20
-85.600140206184946
  0
VERTEX
  8
0
  6
CONTINUOUS
 62
3
 10
300.897390889278480
 20
-84.213991403053825
  0
VERTEX
  8
0
  6
CONTINUOUS
 62
3
 10
299.274533034498520
 20
-83.360405184674676
  0
VERTEX
  8
0
  6
CONTINUOUS
 62
3
 10
297.586817206947670
 20
-83.072184390723123
  0
VERTEX
  8
0
  6
CONTINUOUS
 62
3
 10
295.899101379396820
 20
-83.360405184674676
  0
VERTEX
  8
0
  6
CONTINUOUS
 62
3
 10
294.276243524616860
 20
-84.213991403053825
  0
VERTEX
  8
0
  6
CONTINUOUS
 62
3
 10
292.780609159857700
 20
-85.600140206184946
  0
VERTEX
  8
0
  6
CONTINUOUS
 62
3
 10
291.469674674995700
 20
-87.465582672924910
  0
VERTEX
  8
0
  6
CONTINUOUS
 62
3
 10
290.393818547103590
 20
-89.738630895429097
  0
VERTEX
  8
0
  6
CONTINUOUS
 62
3
 10
289.594385323829100
 20
-92.331932905246774
  0
VERTEX
  8
0
  6
CONTINUOUS
 62
3
 10
289.102096775615510
 20
-95.145829560481204
  0
VERTEX
  8
0
  6
CONTINUOUS
 62
3
 10
288.935871275291900
 20
-98.072184390723123
  0
SEQEND
  8
0
  6
CONTINUOUS
 62
3
  0
POLYLINE
  8
0
  6
CONTINUOUS
 62
3
 66
1
  0
VERTEX
  8
0
  6
CONTINUOUS
 62
3
 10
433.146832106564940
 20
-98.072184390723123
  0
VERTEX
  8
0
  6
CONTINUOUS
 62
3
 10
432.980606606241340
 20
-95.145829560481204
  0
VERTEX
  8
0
  6
CONTINUOUS
 62
3
 10
432.488318058027740
 20
-92.331932905246774
  0
VERTEX
  8
0
  6
CONTINUOUS
 62
3
 10
431.688884834753250
 20
-89.738630895429083
  0
VERTEX
  8
0
  6
CONTINUOUS
 62
3
 10
430.613028706861140
 20
-87.465582672924910
  0
VERTEX
  8
0
  6
CONTINUOUS
 62
3
 10
429.302094221999140
 20
-85.600140206184946
  0
VERTEX
  8
0
  6
CONTINUOUS
 62
3
 10
427.806459857239990
 20
-84.213991403053825
  0
VERTEX
  8
0
  6
CONTINUOUS
 62
3
 10
426.183602002460020
 20
-83.360405184674676
  0
VERTEX
  8
0
  6
CONTINUOUS
 62
3
 10
424.495886174909170
 20
-83.072184390723123
  0
VERTEX
  8
0
  6
CONTINUOUS
 62
3
 10
422.808170347358330
 20
-83.360405184674676
  0
VERTEX
  8
0
  6
CONTINUOUS
 62
3
 10
421.185312492578360
 20
-84.213991403053825
  0
VERTEX
  8
0
  6
CONTINUOUS
 62
3
 10
419.689678127819210
 20
-85.600140206184946
  0
VERTEX
  8
0
  6
CONTINUOUS
 62
3
 10
418.378743642957200
 20
-87.465582672924910
  0
VERTEX
  8
0
  6
CONTINUOUS
 62
3
 10
417.302887515065090
 20
-89.738630895429097
  0
VERTEX
  8
0
  6
CONTINUOUS
 62
3
 10
416.503454291790600
 20
-92.331932905246774
  0
VERTEX
  8
0
  6
CONTINUOUS
 62
3
 10
416.011165743577010
 20
-95.145829560481204
  0
VERTEX
  8
0
  6
CONTINUOUS
 62
3
 10
415.844940243253400
 20
-98.072184390723123
  0
SEQEND
  8
0
  6
CONTINUOUS
 62
3
  0
LINE
  8
0
  6
CONTINUOUS
 62
3
 10
344.041351690928420
 20
-89.072184390499388
 11
351.041351690928420
 21
-89.072184390499388
  0
LINE
  8
0
  6
CONTINUOUS
 62
3
 10
344.041351690928420
 20
-97.072184390499388
 11
351.041351690928420
 21
-97.072184390499388
  0
LINE
  8
0
  6
CONTINUOUS
 62
3
 10
351.041351690928420
 20
-97.072184390499388
 11
351.041351690928420
 21
-89.072184390499388
  0
LINE
  8
0
  6
CONTINUOUS
 62
3
 10
344.041351690928420
 20
-97.072184390499388
 11
344.041351690928420
 21
-89.072184390499388
  0
CIRCLE
  8
0
  6
CONTINUOUS
 62
4
 10
361.041351690928420
 20
-93.072184390499388
 40
4.000000000000000
  0
CIRCLE
  8
0
  6
CONTINUOUS
 62
3
 10
361.041351690928420
 20
-93.072184390499388
 40
3.323500000000024
  0
ARC
  8
0
  6
CONTINUOUS
 62
3
 10
361.041351690928420
 20
-488.072184390723120
 40
425.068989653195440
 50
87.543772634626876
 51
90.000000000000000
  0
LINE
  8
0
  6
CONTINUOUS
 62
3
 10
288.935871275291900
 20
-98.072184390723123
 11
288.935871275291900
 21
-177.072184390499390
  0
LINE
  8
0
  6
CONTINUOUS
 62
3
 10
306.237763138603440
 20
-98.072184390723123
 11
306.237763138603440
 21
-177.072184390499390
  0
LINE
  8
0
  6
CONTINUOUS
 62
3
 10
415.844940243253400
 20
-98.072184390723123
 11
415.844940243253400
 21
-177.072184390499390
  0
ARC
  8
0
  6
CONTINUOUS
 62
3
 10
361.041351690928420
 20
-93.072184390499388
 40
27.499999999999805
 50
80.268362606910614
 51
8.578456121525797
  0
LINE
  8
0
  6
DASHDOT
 62
4
 10
361.041351690928420
 20
-25.443846293805109
 11
361.041351690928420
 21
-215.622519186399590
  0
LINE
  8
0
  6
DASHDOT
 62
4
 10
385.991087276936010
 20
-119.072184390499380
 11
335.792806119032320
 21
-119.072184390499380
  0
ARC
  8
0
  6
CONTINUOUS
 62
3
 10
361.041351690928420
 20
-93.072184390499388
 40
27.499999999999865
 50
5.488856131040610
 51
82.579132733585610
  0
LINE
  8
0
  6
CONTINUOUS
 62
3
 10
281.541351690928420
 20
-103.345333235257380
 11
281.541351690928420
 21
-177.876031967793100
  0
ARC
  8
0
  6
CONTINUOUS
 62
3
 10
375.541351690928420
 20
-103.345333235257380
 40
65.000000000000000
 50
0.000000000000000
 51
87.841596534959265
  0
ARC
  8
0
  6
CONTINUOUS
 62
3
 10
346.541351690928420
 20
-103.345333235257380
 40
64.999999999999972
 50
92.158403465040735
 51
180.000000000000000
  0
LINE
  8
0
  6
CONTINUOUS
 62
3
 10
415.610341344123750
 20
-101.242540336656930
 11
415.610341344123750
 21
-177.072184390499390
  0
ARC
  8
0
  6
CONTINUOUS
 62
3
 10
375.541351690928420
 20
-103.345333235257380
 40
40.124128274671328
 50
3.004087123230390
 51
84.684912337861860
  0
ARC
  8
0
  6
CONTINUOUS
 62
3
 10
346.541351690928420
 20
-103.345333235257380
 40
40.124128274671627
 50
95.315087662138140
 51
176.995912876769610
  0
ARC
  8
0
  6
CONTINUOUS
 62
3
 10
361.041351690928420
 20
-488.072184390723120
 40
425.068989653195330
 50
90.000000000000000
 51
92.456227365373124
  0
LINE
  8
0
  6
CONTINUOUS
 62
3
 10
306.472362037733090
 20
-101.242540336656930
 11
306.472362037733090
 21
-177.072184390499390
  0
ARC
  8
0
  6
CONTINUOUS
 62
3
 10
361.041351690928420
 20
-93.072184390499388
 40
22.499999999999766
 50
20.020867282224401
 51
83.014856772411676
  0
ARC
  8
0
  6
CONTINUOUS
 62
3
 10
361.041351690928420
 20
-93.072184390499388
 40
22.500000000000291
 50
80.734831689036042
 51
22.461281280572095
  0
LINE
  8
0
  6
CONTINUOUS
 62
3
 10
395.984162110240500
 20
-93.072184390499388
 11
407.641351690928330
 21
-93.072184390499388
  0
LINE
  8
0
  6
CONTINUOUS
 62
3
 10
410.141351690928330
 20
-95.572184390499388
 11
410.141351690928330
 21
-169.672184390499300
  0
ARC
  8
0
  6
CONTINUOUS
 62
3
 10
361.041351690928420
 20
-93.072184390499388
 40
33.000000000000000
 50
270.000000000000000
 51
356.724171040201900
  0
ARC
  8
0
  6
CONTINUOUS
 62
3
 10
395.984162110240500
 20
-95.072184390499388
 40
2.000000000000000
 50
90.000000000000000
 51
176.724171040196380
  0
ARC
  8
0
  6
CONTINUOUS
 62
3
 10
407.641351690928330
 20
-95.572184390499388
 40
2.500000000000000
 50
0.000000000000000
 51
90.000000000000000
  0
LINE
  8
0
  6
CONTINUOUS
 62
3
 10
311.941351690928510
 20
-95.572184390499388
 11
311.941351690928510
 21
-169.672184390499300
  0
ARC
  8
0
  6
CONTINUOUS
 62
3
 10
314.441351690928510
 20
-95.572184390499388
 40
2.500000000000000
 50
90.000000000000000
 51
180.000000000000000
  0
ARC
  8
0
  6
CONTINUOUS
 62
3
 10
326.098541271616340
 20
-95.072184390499388
 40
1.999999999999555
 50
3.275828959803601
 51
90.000000000000000
  0
ARC
  8
0
  6
CONTINUOUS
 62
3
 10
361.041351690928420
 20
-93.072184390499388
 40
33.000000000000227
 50
183.275828959798100
 51
270.000000000000000
  0
LINE
  8
0
  6
CONTINUOUS
 62
3
 10
326.098541271616340
 20
-93.072184390499388
 11
314.441351690928510
 21
-93.072184390499388
  0
LINE
  8
0
  6
CONTINUOUS
 62
3
 10
433.146832106564940
 20
-98.072184390723123
 11
433.146832106564940
 21
-177.072184390499390
  0
LINE
  8
0
  6
CONTINUOUS
 62
3
 10
440.541351690928420
 20
-103.345333235257380
 11
440.541351690928420
 21
-177.876031967793100
  0
ARC
  8
0
  6
CONTINUOUS
 62
3
 10
361.041351690928420
 20
-488.072184390723120
 40
449.999999999999830
 50
87.841596534959393
 51
90.000000000000000
  0
ARC
  8
0
  6
CONTINUOUS
 62
3
 10
361.041351690928420
 20
-488.072184390723120
 40
450.000000000000000
 50
90.000000000000000
 51
92.158403465040607
  0
LINE
  8
0
  6
CONTINUOUS
 62
3
 10
413.541351690928420
 20
-196.072184390499390
 11
361.041351690928420
 21
-196.072184390499390
  0
LINE
  8
0
  6
CONTINUOUS
 62
3
 10
308.541351690928420
 20
-196.072184390499390
 11
361.041351690928420
 21
-196.072184390499390
  0
ARC
  8
0
  6
CONTINUOUS
 62
3
 10
303.237763138603440
 20
-177.072184390499390
 40
3.000000000000000
 50
270.000000000000000
 51
0.000000000000000
  0
ARC
  8
0
  6
CONTINUOUS
 62
3
 10
418.844940243253400
 20
-177.072184390499390
 40
3.000000000000000
 50
180.000000000000000
 51
270.000000000000000
  0
ARC
  8
0
  6
CONTINUOUS
 62
3
 10
285.935871275291900
 20
-177.072184390499390
 40
3.000000000000000
 50
270.000000000000000
 51
0.000000000000000
  0
ARC
  8
0
  6
CONTINUOUS
 62
3
 10
436.146832106564940
 20
-177.072184390499390
 40
3.000000000000000
 50
180.000000000000000
 51
270.000000000000000
  0
ARC
  8
0
  6
CONTINUOUS
 62
3
 10
413.541351690928420
 20
-198.072184390499390
 40
2.000000000000000
 50
0.000000000000000
 51
90.000000000000000
  0
LINE
  8
0
  6
CONTINUOUS
 62
3
 10
440.541351690928420
 20
-180.072184390499390
 11
361.041351690928420
 21
-180.072184390499390
  0
ARC
  8
0
  6
CONTINUOUS
 62
3
 10
440.541351690928420
 20
-183.072184390499390
 40
3.000000000000000
 50
0.000000000000000
 51
90.000000000000000
  0
LINE
  8
0
  6
CONTINUOUS
 62
3
 10
443.541351690928420
 20
-183.072184390499390
 11
443.541351690928420
 21
-198.072184390499390
  0
LINE
  8
0
  6
DASHDOT
 62
4
 10
291.041351690928420
 20
-201.652688159419990
 11
291.041351690928420
 21
-171.916867198421640
  0
LINE
  8
0
  6
CONTINUOUS
 62
3
 10
281.541351690928420
 20
-180.072184390499390
 11
361.041351690928420
 21
-180.072184390499390
  0
ARC
  8
0
  6
CONTINUOUS
 62
3
 10
281.541351690928420
 20
-183.072184390499390
 40
3.000000000000000
 50
90.000000000000000
 51
180.000000000000000
  0
LINE
  8
0
  6
CONTINUOUS
 62
3
 10
278.541351690928420
 20
-183.072184390499390
 11
278.541351690928420
 21
-198.072184390499390
  0
LINE
  8
0
  6
CONTINUOUS
 62
3
 10
278.541351690928420
 20
-198.072184390499390
 11
306.541351690928420
 21
-198.072184390499390
  0
ARC
  8
0
  6
CONTINUOUS
 62
3
 10
308.541351690928420
 20
-198.072184390499390
 40
2.000000000000000
 50
90.000000000000000
 51
180.000000000000000
  0
LINE
  8
0
  6
DASHDOT
 62
4
 10
431.041351690928420
 20
-201.652688159420450
 11
431.041351690928420
 21
-171.416867198421640
  0
LINE
  8
0
  6
CONTINUOUS
 62
3
 10
443.541351690928420
 20
-198.072184390499390
 11
415.541351690928420
 21
-198.072184390499390
  0
ARC
  8
0
  6
CONTINUOUS
 62
3
 10
443.541351690928420
 20
-177.876031967793100
 40
3.000000000000000
 50
180.000000000000000
 51
239.999999999998410
  0
ARC
  8
0
  6
CONTINUOUS
 62
3
 10
278.541351690928420
 20
-177.876031967793100
 40
2.999999999999853
 50
300.000000000001590
 51
0.000000000000000
  0
ARC
  8
0
  6
CONTINUOUS
 62
3
 10
418.610341344123750
 20
-177.072184390499390
 40
3.000000000000000
 50
180.000000000000000
 51
270.000000000000000
  0
ARC
  8
0
  6
CONTINUOUS
 62
3
 10
303.472362037733090
 20
-177.072184390499390
 40
3.000000000000000
 50
270.000000000000000
 51
0.000000000000000
  0
LINE
  8
0
  6
CONTINUOUS
 62
3
 10
405.141351690928330
 20
-174.672184390499300
 11
361.041351690928420
 21
-174.672184390499300
  0
ARC
  8
0
  6
CONTINUOUS
 62
3
 10
405.141351690928330
 20
-169.672184390499300
 40
5.000000000000000
 50
270.000000000000000
 51
0.000000000000000
  0
ARC
  8
0
  6
CONTINUOUS
 62
3
 10
316.941351690928510
 20
-169.672184390499300
 40
5.000000000000000
 50
180.000000000000000
 51
270.000000000000000
  0
LINE
  8
0
  6
CONTINUOUS
 62
3
 10
316.941351690928510
 20
-174.672184390499300
 11
361.041351690928420
 21
-174.672184390499300
  0
LINE
  8
0
  6
CONTINUOUS
 62
3
 10
64.552273637793405
 20
-126.072184390498470
 11
67.552273637793405
 21
-126.072184390498470
  0
ARC
  8
0
  6
CONTINUOUS
 62
3
 10
64.552273637793405
 20
-127.072184390498470
 40
1.000000000000000
 50
90.000000000000000
 51
180.000000000000000
  0
ARC
  8
0
  6
CONTINUOUS
 62
3
 10
67.552273637793405
 20
-125.072184390498470
 40
1.000000000000000
 50
270.000000000000000
 51
0.000000000000000
  0
ARC
  8
0
  6
CONTINUOUS
 62
3
 10
61.552273637793405
 20
-90.199201044293204
 40
2.000000000000063
 50
284.477512185929470
 51
359.999999999986980
  0
ARC
  8
0
  6
CONTINUOUS
 62
3
 10
61.552273637793405
 20
-109.945167736707840
 40
2.000000000000000
 50
0.000000000000000
 51
75.522487814070544
  0
LINE
  8
0
  6
CONTINUOUS
 62
3
 10
64.552273637793405
 20
-112.072184390500290
 11
67.552273637793405
 21
-112.072184390500290
  0
LINE
  8
0
  6
CONTINUOUS
 62
3
 10
68.552273637793405
 20
-125.072184390498470
 11
68.552273637793405
 21
-113.072184390500290
  0
ARC
  8
0
  6
CONTINUOUS
 62
3
 10
64.552273637793405
 20
-111.072184390500290
 40
1.000000000000000
 50
180.000000000000000
 51
270.000000000000000
  0
ARC
  8
0
  6
CONTINUOUS
 62
3
 10
67.552273637793405
 20
-113.072184390500290
 40
1.000000000000000
 50
0.000000000000000
 51
90.000000000000000
  0
LINE
  8
0
  6
CONTINUOUS
 62
3
 10
68.552273637795224
 20
-51.466197411064513
 11
68.552273637795224
 21
-42.662677650400838
  0
LINE
  8
0
  6
CONTINUOUS
 62
3
 10
64.552273637795224
 20
-52.466197411064513
 11
67.552273637795224
 21
-52.466197411064513
  0
ARC
  8
0
  6
CONTINUOUS
 62
3
 10
64.552273637795224
 20
-53.466197411064513
 40
1.000000000000000
 50
90.000000000000000
 51
180.000000000000000
  0
ARC
  8
0
  6
CONTINUOUS
 62
3
 10
67.552273637795224
 20
-51.466197411064513
 40
1.000000000000000
 50
270.000000000000000
 51
0.000000000000000
  0
LINE
  8
0
  6
CONTINUOUS
 62
3
 10
64.552273637795224
 20
-41.662677650400838
 11
67.552273637795224
 21
-41.662677650400838
  0
ARC
  8
0
  6
CONTINUOUS
 62
3
 10
64.552273637795224
 20
-40.662677650400838
 40
1.000000000000000
 50
180.000000000000000
 51
270.000000000000000
  0
ARC
  8
0
  6
CONTINUOUS
 62
3
 10
67.552273637795224
 20
-42.662677650400838
 40
1.000000000000000
 50
0.000000000000000
 51
90.000000000000000
  0
LINE
  8
0
  6
CONTINUOUS
 62
3
 10
63.552273637793405
 20
-124.072184390499380
 11
63.552273637793405
 21
-176.545335342765160
  0
LINE
  8
0
  6
CONTINUOUS
 62
3
 10
68.552273637795224
 20
-46.972184962703977
 11
68.552273637795224
 21
-51.466197411064513
  0
LINE
  8
0
  6
CONTINUOUS
 62
3
 10
74.552273637783401
 20
-119.072184390499840
 11
74.552273637795224
 21
-38.072184390499842
  0
LINE
  8
0
  6
CONTINUOUS
 62
3
 10
74.552273637793405
 20
-119.072184390499840
 11
74.552273637792950
 21
-167.351940442000340
  0
ARC
  8
0
  6
CONTINUOUS
 62
3
 10
65.552273637795224
 20
-40.072184390499842
 40
2.000000000000000
 50
90.000000000000000
 51
180.000000000000000
  0
LINE
  8
0
  6
CONTINUOUS
 62
3
 10
63.552273637793405
 20
-109.945167736707840
 11
63.552273637793405
 21
-114.072184390499380
  0
LINE
  8
0
  6
CONTINUOUS
 62
3
 10
63.552273637792496
 20
-90.199201044293204
 11
63.552273637794315
 21
-53.466197411064513
  0
LINE
  8
0
  6
CONTINUOUS
 62
3
 10
74.552273637795224
 20
-38.072184390499842
 11
65.552274990535807
 21
-38.072184390499388
  0
ENDSEC
  0
EOF
