  0
SECTION
  2
HEADER
  9
$FILLMODE
 70
1
  9
$TEXTSTYLE
  7
STANDARD1
  9
$ACADVER
  1
AC1009
  9
$DIMASZ
 40
1.931851648807023
  9
$DIMEXE
 40
2.000000000000000
  9
$DIMEXO
 40
1.000000000000000
  9
$DIMLFAC
 40
1.000000000000000
  9
$DIMSCALE
 40
1.000000000000000
  9
$DIMTAD
 70
1
  9
$DIMTFAC
 40
0.714285731315613
  9
$DIMTXT
 40
2.799999952316284
  9
$LUPREC
 70
3
  9
$TEXTSIZE
 40
3.299999952316284
  9
$REGENMODE
 70
1
  0
ENDSEC
  0
SECTION
  2
TABLES
  0
TABLE
  2
LTYPE
 70
4
  0
LTYPE
  2
CONTINUOUS
 70
64
  3
Solid line
 72
65
 73
0
 40
0.0
  0
LTYPE
  2
DASHED
 70
64
  3
-- -- -- -- -- -- -- -- -- -- -- -- -- -- --
 72
65
 73
2
 40
0.75
 49
0.5
 49
-0.25
  0
LTYPE
  2
DASHDOT
 70
64
  3
__ . __ . __ . __ . __ . __ . __ . __ . __ . __
 72
65
 73
4
 40
1.0
 49
0.5
 49
-0.25
 49
0.0
 49
-0.25
  0
LTYPE
  2
DIVIDE
 70
64
  3
__ . . __ . . __ . . __ . . __ . . __ . . __
 72
65
 73
6
 40
1.25
 49
0.5
 49
-0.25
 49
0.0
 49
-0.25
 49
0.0
 49
-0.25
  0
ENDTAB
  0
TABLE
  2
LAYER
 70
1
  0
LAYER
  2
0
 70
64
 62
2
  6
CONTINUOUS
  0
ENDTAB
  0
TABLE
  2
STYLE
 70
4
  0
STYLE
  2
STANDARD1
 70
64
 40
0.0
 41
1.0
 50
0.0
 71
0
 42
3.299999952316284
  3
MONOTXT
  4
BIGFONT
  0
STYLE
  2
STANDARD2
 70
68
 40
0.0
 41
1.0
 50
0.0
 71
0
 42
3.299999952316284
  3
MONOTXT
  4
BIGFONT
  0
STYLE
  2
STANDARD3
 70
64
 40
0.0
 41
1.0
 50
0.0
 71
0
 42
3.299999952316284
  3
MONOTXT
  4

  0
STYLE
  2
STANDARD4
 70
68
 40
0.0
 41
1.0
 50
0.0
 71
0
 42
3.299999952316284
  3
MONOTXT
  4

  0
ENDTAB
  0
TABLE
  2
VIEW
 70
0
  0
ENDTAB
  0
ENDSEC
  0
SECTION
  2
BLOCKS
  0
BLOCK
  8
0
  2
SYM1
 70
64
 10
0.000000000000000
 20
0.000000000000000
  0
ARC
  8
0
  6
CONTINUOUS
 62
3
 10
-0.979025304317474
 20
-2.200000762939453
 40
1.299999237060547
 50
196.601531107481040
 51
270.000000000000000
  0
ARC
  8
0
  6
CONTINUOUS
 62
3
 10
-0.979025304317474
 20
2.200000762939453
 40
1.299999237060547
 50
90.000000000000000
 51
163.398451589674950
  0
LINE
  8
0
  6
CONTINUOUS
 62
3
 10
-0.000000000000000
 20
-3.500000000000000
 11
-0.979025304317474
 21
-3.500000000000000
  0
LINE
  8
0
  6
CONTINUOUS
 62
3
 10
0.000000000000000
 20
3.500000000000000
 11
-0.979025304317474
 21
3.500000000000000
  0
LINE
  8
0
  6
CONTINUOUS
 62
3
 10
0.000000000000000
 20
-3.500000000000000
 11
-0.000000000000000
 21
3.500000000000000
  0
LINE
  8
0
  6
CONTINUOUS
 62
3
 10
0.000000000000000
 20
-3.500000000000000
 11
-0.000000000000000
 21
3.500000000000000
  0
POINT
  8
0
  6
CONTINUOUS
 62
3
 10
0.000000000000000
 20
0.000000000000000
  0
ARC
  8
0
  6
CONTINUOUS
 62
3
 10
6.399999618530273
 20
0.000000000000000
 40
9.000000000000000
 50
163.398451589674950
 51
196.601531107481040
  0
ENDBLK
  8
0
  0
BLOCK
  8
0
  2
SYM2
 70
64
 10
0.000000000000000
 20
0.000000000000000
  0
LINE
  8
0
  6
CONTINUOUS
 62
3
 10
-7.499999046325684
 20
6.500000000000000
 11
-7.499999046325684
 21
-6.500000000000000
  0
LINE
  8
0
  6
CONTINUOUS
 62
3
 10
-7.499997911632022
 20
-6.499999445138201
 11
-7.999998623386432
 21
-5.634070287011241
  0
LINE
  8
0
  6
CONTINUOUS
 62
3
 10
-7.499999203818277
 20
6.499999909101064
 11
-7.999999021366804
 21
5.633876130311293
  0
LINE
  8
0
  6
CONTINUOUS
 62
3
 10
-0.000000000000000
 20
-6.500000000000000
 11
-7.499998092651367
 21
-6.500000000000000
  0
LINE
  8
0
  6
CONTINUOUS
 62
3
 10
0.000000000000000
 20
6.500000000000000
 11
-7.499999046325684
 21
6.500000000000000
  0
LINE
  8
0
  6
CONTINUOUS
 62
3
 10
-7.999999046325684
 20
5.633875846862793
 11
-7.999999046325684
 21
-5.634070396423340
  0
LINE
  8
0
  6
CONTINUOUS
 62
3
 10
0.000000000000000
 20
-6.500000000000000
 11
-0.000000000000000
 21
6.500000000000000
  0
POINT
  8
0
  6
CONTINUOUS
 62
3
 10
0.000000000000000
 20
0.000000000000000
  0
ENDBLK
  8
0
  0
BLOCK
  8
0
  2
SYM3
 70
64
 10
0.000000000000000
 20
0.000000000000000
  0
LINE
  8
0
  6
CONTINUOUS
 62
3
 10
-7.499999046325684
 20
6.500000000000000
 11
-7.499999046325684
 21
-6.500000000000000
  0
LINE
  8
0
  6
CONTINUOUS
 62
3
 10
-7.499997911632022
 20
-6.499999445138201
 11
-7.999998623386432
 21
-5.634070287011241
  0
LINE
  8
0
  6
CONTINUOUS
 62
3
 10
-7.499999203818277
 20
6.499999909101064
 11
-7.999999021366804
 21
5.633876130311293
  0
LINE
  8
0
  6
CONTINUOUS
 62
3
 10
-0.000000000000000
 20
-6.500000000000000
 11
-7.499998092651367
 21
-6.500000000000000
  0
LINE
  8
0
  6
CONTINUOUS
 62
3
 10
0.000000000000000
 20
6.500000000000000
 11
-7.499999046325684
 21
6.500000000000000
  0
LINE
  8
0
  6
CONTINUOUS
 62
3
 10
-7.999999046325684
 20
5.633875846862793
 11
-7.999999046325684
 21
-5.634070396423340
  0
LINE
  8
0
  6
CONTINUOUS
 62
3
 10
0.000000000000000
 20
-6.500000000000000
 11
-0.000000000000000
 21
6.500000000000000
  0
POINT
  8
0
  6
CONTINUOUS
 62
3
 10
0.000000000000000
 20
0.000000000000000
  0
ENDBLK
  8
0
  0
BLOCK
  8
0
  2
SYM4
 70
64
 10
0.000000000000000
 20
0.000000000000000
  0
LINE
  8
0
  6
CONTINUOUS
 62
3
 10
-7.499999046325684
 20
6.500000000000000
 11
-7.499999046325684
 21
-6.500000000000000
  0
LINE
  8
0
  6
CONTINUOUS
 62
3
 10
-7.499997911632022
 20
-6.499999445138201
 11
-7.999998623386432
 21
-5.634070287011241
  0
LINE
  8
0
  6
CONTINUOUS
 62
3
 10
-7.499999203818277
 20
6.499999909101064
 11
-7.999999021366804
 21
5.633876130311293
  0
LINE
  8
0
  6
CONTINUOUS
 62
3
 10
-0.000000000000000
 20
-6.500000000000000
 11
-7.499998092651367
 21
-6.500000000000000
  0
LINE
  8
0
  6
CONTINUOUS
 62
3
 10
0.000000000000000
 20
6.500000000000000
 11
-7.499999046325684
 21
6.500000000000000
  0
LINE
  8
0
  6
CONTINUOUS
 62
3
 10
-7.999999046325684
 20
5.633875846862793
 11
-7.999999046325684
 21
-5.634070396423340
  0
LINE
  8
0
  6
CONTINUOUS
 62
3
 10
0.000000000000000
 20
-6.500000000000000
 11
-0.000000000000000
 21
6.500000000000000
  0
POINT
  8
0
  6
CONTINUOUS
 62
3
 10
0.000000000000000
 20
0.000000000000000
  0
ENDBLK
  8
0
  0
ENDSEC
  0
SECTION
  2
ENTITIES
  0
LINE
  8
0
  6
CONTINUOUS
 62
3
 10
-323.595643141016470
 20
-201.087350760778260
 11
-323.108839749310850
 21
-201.574154152483890
  0
LINE
  8
0
  6
CONTINUOUS
 62
3
 10
-330.242446614430150
 20
-207.734154234192000
 11
-329.755643222724530
 21
-208.220957625897600
  0
LINE
  8
0
  6
CONTINUOUS
 62
3
 10
-323.282504532047650
 20
-201.339897711628650
 11
-329.959603834520580
 21
-208.016997014101580
  0
LINE
  8
0
  6
CONTINUOUS
 62
3
 10
-323.595643141016470
 20
-201.087350760778260
 11
-330.242446614430150
 21
-207.734154234192000
  0
POINT
  8
0
  6
CONTINUOUS
 62
3
 10
-326.919044877723310
 20
-204.410752497485130
  0
ARC
  8
0
  6
CONTINUOUS
 62
3
 10
-329.181786442650320
 20
-202.148010932558090
 40
6.099999427795406
 50
264.601927898108500
 51
5.398089404735109
  0
LINE
  8
0
  6
CONTINUOUS
 62
3
 10
-433.621458023903300
 20
-201.087350760778260
 11
-434.108261415608920
 21
-201.574154152483890
  0
LINE
  8
0
  6
CONTINUOUS
 62
3
 10
-426.974654550489620
 20
-207.734154234192000
 11
-427.461457942195240
 21
-208.220957625897600
  0
LINE
  8
0
  6
CONTINUOUS
 62
3
 10
-433.934596632872110
 20
-201.339897711628650
 11
-427.257497330399190
 21
-208.016997014101580
  0
LINE
  8
0
  6
CONTINUOUS
 62
3
 10
-433.621458023903300
 20
-201.087350760778260
 11
-426.974654550489620
 21
-207.734154234192000
  0
POINT
  8
0
  6
CONTINUOUS
 62
3
 10
-430.298056287196460
 20
-204.410752497485130
  0
ARC
  8
0
  6
CONTINUOUS
 62
3
 10
-428.035314722269450
 20
-202.148010932558090
 40
6.099999427795398
 50
174.601910595264880
 51
275.398072101891500
  0
LINE
  8
0
  6
CONTINUOUS
 62
3
 10
-433.621458023903300
 20
-104.355142824718610
 11
-434.108261415608920
 21
-103.868339433012990
  0
LINE
  8
0
  6
CONTINUOUS
 62
3
 10
-426.974654550489620
 20
-97.708339351304900
 11
-427.461457942195240
 21
-97.221535959599279
  0
LINE
  8
0
  6
CONTINUOUS
 62
3
 10
-433.934596632872110
 20
-104.102595873868230
 11
-427.257497330399190
 21
-97.425496571395328
  0
LINE
  8
0
  6
CONTINUOUS
 62
3
 10
-433.621458023903300
 20
-104.355142824718610
 11
-426.974654550489620
 21
-97.708339351304900
  0
POINT
  8
0
  6
CONTINUOUS
 62
3
 10
-430.298056287196460
 20
-101.031741088011750
  0
ARC
  8
0
  6
CONTINUOUS
 62
3
 10
-428.035314722269450
 20
-103.294482652938790
 40
6.099999427795419
 50
84.601927898108485
 51
185.398089404735120
  0
LINE
  8
0
  6
CONTINUOUS
 62
3
 10
-323.595643141016470
 20
-104.355142824718610
 11
-323.108839749310850
 21
-103.868339433012990
  0
LINE
  8
0
  6
CONTINUOUS
 62
3
 10
-330.242446614430150
 20
-97.708339351304900
 11
-329.755643222724530
 21
-97.221535959599279
  0
LINE
  8
0
  6
CONTINUOUS
 62
3
 10
-323.282504532047650
 20
-104.102595873868230
 11
-329.959603834520580
 21
-97.425496571395328
  0
LINE
  8
0
  6
CONTINUOUS
 62
3
 10
-323.595643141016470
 20
-104.355142824718610
 11
-330.242446614430150
 21
-97.708339351304900
  0
POINT
  8
0
  6
CONTINUOUS
 62
3
 10
-326.919044877723310
 20
-101.031741088011750
  0
ARC
  8
0
  6
CONTINUOUS
 62
3
 10
-329.181786442650320
 20
-103.294482652938790
 40
6.099999427795398
 50
354.601910595264880
 51
95.398072101891515
  0
TEXT
  8
0
  6
CONTINUOUS
 62
3
 10
-427.521667480468750
 20
149.581634521484380
 40
10.295999526977539
  1
Ｓ１０１
 50
0.000002504478167
 41
0.984848625190477
  7
STANDARD1
  0
TEXT
  8
0
  6
CONTINUOUS
 62
3
 10
-427.521667480468750
 20
133.045639038085940
 40
10.295999526977539
  1
三菱ギヤードモートル
 50
0.000002504478167
 41
0.984848625190477
  7
STANDARD1
  0
TEXT
  8
0
  6
CONTINUOUS
 62
3
 10
-427.521667480468750
 20
116.509635925292960
 40
10.295999526977539
  1
ＧＭ－ＳＳＢ
 50
0.000002504478167
 41
0.984848625190477
  7
STANDARD1
  0
TEXT
  8
0
  6
CONTINUOUS
 62
3
 10
-427.521667480468750
 20
99.973632812500000
 40
10.295999526977539
  1
０．４ｋＷ
 50
0.000002504478167
 41
0.984848625190477
  7
STANDARD1
  0
TEXT
  8
0
  6
CONTINUOUS
 62
3
 10
-427.521667480468750
 20
83.437637329101562
 40
10.295999526977539
  1
１／１２０～１／２００
 50
0.000002504478167
 41
0.984848625190477
  7
STANDARD1
  0
TEXT
  8
0
  6
CONTINUOUS
 62
3
 10
-427.521667480468750
 20
66.901634216308594
 40
10.295999526977539
  1
ＳＣＡＬＥ１／１
 50
0.000002504478167
 41
0.984848625190477
  7
STANDARD1
  0
ARC
  8
0
  6
CONTINUOUS
 62
3
 10
-363.108550582460110
 20
-66.721246792757483
 40
5.000000000000000
 50
270.000000000000000
 51
0.000000000000000
  0
CIRCLE
  8
0
  6
CONTINUOUS
 62
3
 10
-368.108550582459880
 20
-61.721246792757483
 40
5.633955001831055
  0
CIRCLE
  8
0
  6
CONTINUOUS
 62
3
 10
-368.108550582459880
 20
-61.721246792757483
 40
6.500000000000000
  0
LINE
  8
0
  6
CONTINUOUS
 62
3
 10
-371.108547244600910
 20
-63.453292792308730
 11
-371.108548198275230
 21
-59.989194815624160
  0
LINE
  8
0
  6
CONTINUOUS
 62
3
 10
-365.108553920319080
 20
-59.989199839531921
 11
-365.108552966644990
 21
-63.453297816216491
  0
LINE
  8
0
  6
CONTINUOUS
 62
3
 10
-368.108543880739030
 20
-58.257149792822247
 11
-371.108548522011460
 21
-59.989194971051802
  0
LINE
  8
0
  6
CONTINUOUS
 62
3
 10
-365.108552470366250
 20
-63.453298185536141
 11
-368.108555046871970
 21
-65.185345158172595
  0
LINE
  8
0
  6
CONTINUOUS
 62
3
 10
-368.108543963858210
 20
-58.257149896371857
 11
-365.108553156510880
 21
-59.989200010621062
  0
LINE
  8
0
  6
CONTINUOUS
 62
3
 10
-368.108555287448550
 20
-65.185344968506229
 11
-371.108548159560310
 21
-63.453293010790162
  0
ARC
  8
0
  6
CONTINUOUS
 62
3
 10
-394.108550582459880
 20
-66.721246792757483
 40
5.000000000000000
 50
180.000000000000000
 51
270.000000000000000
  0
LINE
  8
0
  6
CONTINUOUS
 62
3
 10
-363.108550582460110
 20
-71.721246792757483
 11
-394.108550582459880
 21
-71.721246792757483
  0
CIRCLE
  8
0
  6
CONTINUOUS
 62
3
 10
-389.108550582459880
 20
-61.721246792757483
 40
5.633955001831055
  0
CIRCLE
  8
0
  6
CONTINUOUS
 62
3
 10
-389.108550582459880
 20
-61.721246792757483
 40
6.500000000000000
  0
LINE
  8
0
  6
CONTINUOUS
 62
3
 10
-386.108553920318850
 20
-63.453292792308730
 11
-386.108552966644540
 21
-59.989194815624160
  0
LINE
  8
0
  6
CONTINUOUS
 62
3
 10
-392.108547244600690
 20
-59.989199839531921
 11
-392.108548198274780
 21
-63.453297816216491
  0
LINE
  8
0
  6
CONTINUOUS
 62
3
 10
-389.108557284180730
 20
-58.257149792822247
 11
-386.108552642908310
 21
-59.989194971051802
  0
LINE
  8
0
  6
CONTINUOUS
 62
3
 10
-392.108548694553520
 20
-63.453298185536141
 11
-389.108546118047570
 21
-65.185345158172595
  0
LINE
  8
0
  6
CONTINUOUS
 62
3
 10
-389.108557201061560
 20
-58.257149896371857
 11
-392.108548008408890
 21
-59.989200010621062
  0
LINE
  8
0
  6
CONTINUOUS
 62
3
 10
-389.108545877471220
 20
-65.185344968506229
 11
-386.108553005359450
 21
-63.453293010790162
  0
CIRCLE
  8
0
  6
CONTINUOUS
 62
3
 10
-430.608550582459660
 20
-235.721246792748100
 40
5.633955001831055
  0
CIRCLE
  8
0
  6
CONTINUOUS
 62
3
 10
-430.608550582459660
 20
-235.721246792748100
 40
6.500000000000000
  0
LINE
  8
0
  6
CONTINUOUS
 62
3
 10
-427.608553920318630
 20
-237.453292792299350
 11
-427.608552966644310
 21
-233.989194815614780
  0
LINE
  8
0
  6
CONTINUOUS
 62
3
 10
-433.608547244600460
 20
-233.989199839522540
 11
-433.608548198274550
 21
-237.453297816207110
  0
LINE
  8
0
  6
CONTINUOUS
 62
3
 10
-430.608557284180510
 20
-232.257149792812870
 11
-427.608552642908080
 21
-233.989194971042540
  0
LINE
  8
0
  6
CONTINUOUS
 62
3
 10
-433.608548694553290
 20
-237.453298185526880
 11
-430.608546118047340
 21
-239.185345158163220
  0
LINE
  8
0
  6
CONTINUOUS
 62
3
 10
-430.608557201061330
 20
-232.257149896362480
 11
-433.608548008408660
 21
-233.989200010611740
  0
LINE
  8
0
  6
CONTINUOUS
 62
3
 10
-430.608545877470990
 20
-239.185344968496910
 11
-427.608553005359230
 21
-237.453293010780840
  0
CIRCLE
  8
0
  6
CONTINUOUS
 62
3
 10
-428.608550582459880
 20
-71.721246792748104
 40
5.633955001831055
  0
CIRCLE
  8
0
  6
CONTINUOUS
 62
3
 10
-428.608550582459880
 20
-71.721246792748104
 40
6.500000000000000
  0
LINE
  8
0
  6
CONTINUOUS
 62
3
 10
-425.608553920318850
 20
-73.453292792299351
 11
-425.608552966644540
 21
-69.989194815614781
  0
LINE
  8
0
  6
CONTINUOUS
 62
3
 10
-431.608547244600690
 20
-69.989199839522541
 11
-431.608548198274780
 21
-73.453297816207112
  0
LINE
  8
0
  6
CONTINUOUS
 62
3
 10
-428.608557284180730
 20
-68.257149792812868
 11
-425.608552642908310
 21
-69.989194971042537
  0
LINE
  8
0
  6
CONTINUOUS
 62
3
 10
-431.608548694553520
 20
-73.453298185526876
 11
-428.608546118047570
 21
-75.185345158163216
  0
LINE
  8
0
  6
CONTINUOUS
 62
3
 10
-428.608557201061560
 20
-68.257149896362478
 11
-431.608548008408890
 21
-69.989200010611739
  0
LINE
  8
0
  6
CONTINUOUS
 62
3
 10
-428.608545877471220
 20
-75.185344968496906
 11
-425.608553005359450
 21
-73.453293010780840
  0
CIRCLE
  8
0
  6
CONTINUOUS
 62
3
 10
-328.608550582459880
 20
-71.721246792747877
 40
5.633955001831055
  0
CIRCLE
  8
0
  6
CONTINUOUS
 62
3
 10
-328.608550582459880
 20
-71.721246792747877
 40
6.500000000000000
  0
LINE
  8
0
  6
CONTINUOUS
 62
3
 10
-331.608547244600910
 20
-73.453292792299123
 11
-331.608548198275230
 21
-69.989194815614553
  0
LINE
  8
0
  6
CONTINUOUS
 62
3
 10
-325.608553920319080
 20
-69.989199839522314
 11
-325.608552966644990
 21
-73.453297816206884
  0
LINE
  8
0
  6
CONTINUOUS
 62
3
 10
-328.608543880739030
 20
-68.257149792812640
 11
-331.608548522011460
 21
-69.989194971042309
  0
LINE
  8
0
  6
CONTINUOUS
 62
3
 10
-325.608552470366250
 20
-73.453298185526648
 11
-328.608555046871970
 21
-75.185345158162988
  0
LINE
  8
0
  6
CONTINUOUS
 62
3
 10
-328.608543963858210
 20
-68.257149896362250
 11
-325.608553156510880
 21
-69.989200010611512
  0
LINE
  8
0
  6
CONTINUOUS
 62
3
 10
-328.608555287448550
 20
-75.185344968496679
 11
-331.608548159560310
 21
-73.453293010780612
  0
CIRCLE
  8
0
  6
CONTINUOUS
 62
3
 10
-326.608550582459880
 20
-235.721246792747880
 40
5.633955001831055
  0
CIRCLE
  8
0
  6
CONTINUOUS
 62
3
 10
-326.608550582459880
 20
-235.721246792747880
 40
6.500000000000000
  0
LINE
  8
0
  6
CONTINUOUS
 62
3
 10
-329.608547244600910
 20
-237.453292792299120
 11
-329.608548198275230
 21
-233.989194815614550
  0
LINE
  8
0
  6
CONTINUOUS
 62
3
 10
-323.608553920319080
 20
-233.989199839522310
 11
-323.608552966644990
 21
-237.453297816206880
  0
LINE
  8
0
  6
CONTINUOUS
 62
3
 10
-326.608543880739030
 20
-232.257149792812640
 11
-329.608548522011460
 21
-233.989194971042310
  0
LINE
  8
0
  6
CONTINUOUS
 62
3
 10
-323.608552470366250
 20
-237.453298185526650
 11
-326.608555046871970
 21
-239.185345158162990
  0
LINE
  8
0
  6
CONTINUOUS
 62
3
 10
-326.608543963858210
 20
-232.257149896362250
 11
-323.608553156510880
 21
-233.989200010611510
  0
LINE
  8
0
  6
CONTINUOUS
 62
3
 10
-326.608555287448550
 20
-239.185344968496680
 11
-329.608548159560310
 21
-237.453293010780610
  0
LINE
  8
0
  6
CONTINUOUS
 62
3
 10
-399.108550582459880
 20
-27.721246792747934
 11
-399.108550582459880
 21
-66.721246792757483
  0
ARC
  8
0
  6
CONTINUOUS
 62
3
 10
-389.108550582459880
 20
-27.721246792747934
 40
10.000000000000000
 50
90.000000000000000
 51
180.000000000000000
  0
LINE
  8
0
  6
CONTINUOUS
 62
3
 10
-368.108550582459880
 20
-17.721246792747934
 11
-389.108550582459880
 21
-17.721246792747934
  0
ARC
  8
0
  6
CONTINUOUS
 62
3
 10
-368.108550582459880
 20
-27.721246792747934
 40
10.000000000000000
 50
0.000000000000000
 51
90.000000000000000
  0
LINE
  8
0
  6
DASHDOT
 62
4
 10
-355.440637583578340
 20
-37.721246792747934
 11
-402.463151485113030
 21
-37.721246792747934
  0
LINE
  8
0
  6
CONTINUOUS
 62
3
 10
-358.108550582459880
 20
-27.721246792747934
 11
-358.108550582459880
 21
-66.721246792757483
  0
CIRCLE
  8
0
  6
CONTINUOUS
 62
3
 10
-378.608550582459880
 20
-37.721246792747934
 40
10.000000000000000
  0
LINE
  8
0
  6
CONTINUOUS
 62
3
 10
-430.608550582459880
 20
-245.721246792747880
 11
-378.608550582460110
 21
-245.721246792747880
  0
LINE
  8
0
  6
CONTINUOUS
 62
3
 10
-326.608550582459880
 20
-245.721246792747880
 11
-378.608550582459880
 21
-245.721246792747880
  0
LINE
  8
0
  6
CONTINUOUS
 62
4
 10
-378.608550582459880
 20
-152.721246792747880
 11
-378.225145354434740
 21
-152.337841564722740
  0
LINE
  8
0
  6
CONTINUOUS
 62
3
 10
-381.608550582459880
 20
-74.721246792757483
 11
-381.608550582459880
 21
-91.221246792747877
  0
LINE
  8
0
  6
CONTINUOUS
 62
3
 10
-375.608550582459880
 20
-74.721246792757483
 11
-375.608550582459880
 21
-91.221246792747877
  0
ARC
  8
0
  6
CONTINUOUS
 62
3
 10
-308.617253512249140
 20
-236.280916098158000
 40
7.999999999999901
 50
129.950233661982820
 51
178.218230102087180
  0
ARC
  8
0
  6
CONTINUOUS
 62
3
 10
-326.608550582459880
 20
-235.721246792747880
 40
10.000000000000000
 50
270.000000000000000
 51
358.218230102088230
  0
ARC
  8
0
  6
CONTINUOUS
 62
3
 10
-430.608550582459880
 20
-235.721246792747880
 40
10.000000000000128
 50
181.781769897911770
 51
270.000000000000000
  0
ARC
  8
0
  6
CONTINUOUS
 62
3
 10
-448.599847652670860
 20
-236.280916098158000
 40
7.999999999999879
 50
1.781769897912804
 51
50.049766338017157
  0
ARC
  8
0
  6
CONTINUOUS
 62
3
 10
-289.608550582459660
 20
-188.707355223641060
 40
4.999999999999877
 50
337.984630459601990
 51
0.000000000000000
  0
ARC
  8
0
  6
CONTINUOUS
 62
3
 10
-467.608550582460110
 20
-188.707355223641060
 40
5.000000000000000
 50
180.000000000000000
 51
202.015369540398010
  0
ARC
  8
0
  6
CONTINUOUS
 62
3
 10
-378.608550582460110
 20
-152.721246792747880
 40
101.000000000000090
 50
202.015369540396880
 51
230.049766338017580
  0
ARC
  8
0
  6
CONTINUOUS
 62
3
 10
-378.608550582459880
 20
-152.721246792747880
 40
101.000000000000050
 50
309.950233661982400
 51
337.984630459603120
  0
ARC
  8
0
  6
CONTINUOUS
 62
3
 10
-384.608550582459880
 20
-74.721246792757483
 40
3.000000000000000
 50
0.000000000000000
 51
90.000000000000000
  0
ARC
  8
0
  6
CONTINUOUS
 62
3
 10
-372.608550582459880
 20
-74.721246792757483
 40
3.000000000000000
 50
90.000000000000000
 51
180.000000000000000
  0
ARC
  8
0
  6
CONTINUOUS
 62
3
 10
-289.608550582459430
 20
-188.707355223641060
 40
4.999999999999877
 50
337.984630459601990
 51
0.000000000000000
  0
ARC
  8
0
  6
CONTINUOUS
 62
3
 10
-467.608550582459880
 20
-188.707355223641060
 40
5.000000000000000
 50
180.000000000000000
 51
202.015369540397050
  0
ARC
  8
0
  6
CONTINUOUS
 62
3
 10
-378.608550582459430
 20
-152.721246792747880
 40
105.999999999999970
 50
311.146783655315970
 51
311.328658646343400
  0
ARC
  8
0
  6
CONTINUOUS
 62
3
 10
-287.608550582459430
 20
-212.721246792747880
 40
3.000000000000000
 50
0.000000000000000
 51
146.601511532013290
  0
LINE
  8
0
  6
CONTINUOUS
 62
3
 10
-311.597652641902640
 20
-238.566253579114740
 11
-311.597652641902640
 21
-243.851093649294800
  0
ARC
  8
0
  6
CONTINUOUS
 62
3
 10
-309.597652641902640
 20
-243.851093649294800
 40
2.000000000000000
 50
180.000000000000000
 51
255.361208056745620
  0
ARC
  8
0
  6
CONTINUOUS
 62
3
 10
-304.770890814560520
 20
-232.221246792747880
 40
2.500000000000000
 50
90.000000000000000
 51
132.885184548963080
  0
ARC
  8
0
  6
CONTINUOUS
 62
3
 10
-306.108550582459430
 20
-233.442991075190040
 40
2.499999999999951
 50
131.928504432621510
 51
180.000000000000000
  0
ARC
  8
0
  6
CONTINUOUS
 62
3
 10
-378.608550582459430
 20
-152.721246792747880
 40
105.999999999999920
 50
311.328658646343400
 51
326.601511532012750
  0
ARC
  8
0
  6
CONTINUOUS
 62
3
 10
-378.608550582459880
 20
-152.721246792747880
 40
106.000000000000010
 50
213.398488467987190
 51
228.671341353656570
  0
ARC
  8
0
  6
CONTINUOUS
 62
3
 10
-452.446210350358800
 20
-232.221246792747880
 40
2.499999999999758
 50
47.114815451040748
 51
90.000000000000000
  0
ARC
  8
0
  6
CONTINUOUS
 62
3
 10
-378.608550582459880
 20
-152.721246792747880
 40
105.999999999999920
 50
228.671341353656570
 51
228.853216344683940
  0
ARC
  8
0
  6
CONTINUOUS
 62
3
 10
-451.108550582459880
 20
-233.442991075190040
 40
2.500000000000000
 50
0.000000000000000
 51
48.071495567382364
  0
LINE
  8
0
  6
CONTINUOUS
 62
3
 10
-445.619448523016670
 20
-238.566253579114740
 11
-445.619448523016670
 21
-243.851093649294800
  0
ARC
  8
0
  6
CONTINUOUS
 62
3
 10
-447.619448523016670
 20
-243.851093649294800
 40
2.000000000000327
 50
284.638791943254380
 51
0.000000000000000
  0
ARC
  8
0
  6
CONTINUOUS
 62
3
 10
-469.608550582459880
 20
-212.721246792747880
 40
2.999999999999984
 50
33.398488467989075
 51
180.000000000000000
  0
ARC
  8
0
  6
CONTINUOUS
 62
3
 10
-453.619448523016670
 20
-238.566253579114740
 40
8.000000000000000
 50
0.000000000000000
 51
48.853216344683936
  0
ARC
  8
0
  6
CONTINUOUS
 62
3
 10
-303.597652641902640
 20
-238.566253579114740
 40
8.000000000000025
 50
131.146783655317310
 51
180.000000000000000
  0
LINE
  8
0
  6
CONTINUOUS
 62
3
 10
-446.608550582459880
 20
-245.721246792747880
 11
-378.608550582459880
 21
-245.721246792747880
  0
LINE
  8
0
  6
CONTINUOUS
 62
3
 10
-310.608550582459430
 20
-245.721246792747880
 11
-378.608550582459430
 21
-245.721246792747880
  0
LINE
  8
0
  6
CONTINUOUS
 62
3
 10
-478.608550582459880
 20
-247.721246792747880
 11
-448.608550582459880
 21
-247.721246792747880
  0
LINE
  8
0
  6
DASHDOT
 62
4
 10
-466.108550582459880
 20
-225.560967938377810
 11
-466.108550582459880
 21
-252.138038632347560
  0
LINE
  8
0
  6
CONTINUOUS
 62
3
 10
-478.608550582459880
 20
-232.221246792747880
 11
-478.608550582459880
 21
-247.721246792747880
  0
LINE
  8
0
  6
CONTINUOUS
 62
3
 10
-281.108550582459430
 20
-229.721246792747880
 11
-304.770890814560520
 21
-229.721246792747880
  0
LINE
  8
0
  6
CONTINUOUS
 62
3
 10
-278.608550582459430
 20
-247.721246792747880
 11
-308.608550582459430
 21
-247.721246792747880
  0
LINE
  8
0
  6
DASHDOT
 62
4
 10
-291.108550582459430
 20
-225.560967938377810
 11
-291.108550582459430
 21
-252.138038632347560
  0
LINE
  8
0
  6
CONTINUOUS
 62
3
 10
-278.608550582459430
 20
-232.221246792747880
 11
-278.608550582459430
 21
-247.721246792747880
  0
LINE
  8
0
  6
CONTINUOUS
 62
3
 10
-308.608550582459430
 20
-233.442991075190040
 11
-308.608550582459430
 21
-247.721246792747880
  0
ARC
  8
0
  6
CONTINUOUS
 62
3
 10
-326.608550582459880
 20
-235.721246792747880
 40
10.000000000000000
 50
270.000000000000000
 51
358.218230102088230
  0
ARC
  8
0
  6
CONTINUOUS
 62
3
 10
-378.608550582459430
 20
-152.721246792747880
 40
100.999999999999940
 50
320.054316807191530
 51
337.984630459603070
  0
ARC
  8
0
  6
CONTINUOUS
 62
3
 10
-475.608550582459880
 20
-226.721246792747880
 40
3.000000000000000
 50
270.000000000000000
 51
0.000000000000000
  0
ARC
  8
0
  6
CONTINUOUS
 62
3
 10
-430.608550582459880
 20
-235.721246792747880
 40
9.999999999999675
 50
181.781769897911860
 51
270.000000000000000
  0
ARC
  8
0
  6
CONTINUOUS
 62
3
 10
-308.617253512248680
 20
-236.280916098158230
 40
8.000000000000075
 50
129.950233661981800
 51
178.218230102085610
  0
ARC
  8
0
  6
CONTINUOUS
 62
3
 10
-378.608550582459430
 20
-152.721246792747880
 40
101.000000000000050
 50
309.950233661982400
 51
320.054316807191530
  0
ARC
  8
0
  6
CONTINUOUS
 62
3
 10
-281.608550582459430
 20
-226.721246792747880
 40
3.000000000000000
 50
180.000000000000000
 51
270.000000000000000
  0
ARC
  8
0
  6
CONTINUOUS
 62
3
 10
-476.108550582459880
 20
-232.221246792747880
 40
2.500000000000000
 50
90.000000000000000
 51
180.000000000000000
  0
ARC
  8
0
  6
CONTINUOUS
 62
3
 10
-446.608550582459880
 20
-247.721246792747880
 40
2.000000000000000
 50
90.000000000000000
 51
180.000000000000000
  0
ARC
  8
0
  6
CONTINUOUS
 62
3
 10
-281.108550582459430
 20
-232.221246792747880
 40
2.500000000000000
 50
0.000000000000000
 51
90.000000000000000
  0
ARC
  8
0
  6
CONTINUOUS
 62
3
 10
-310.608550582459430
 20
-247.721246792747880
 40
2.000000000000000
 50
0.000000000000000
 51
90.000000000000000
  0
LINE
  8
0
  6
CONTINUOUS
 62
3
 10
-476.108550582459880
 20
-229.721246792747880
 11
-452.446210350358800
 21
-229.721246792747880
  0
LINE
  8
0
  6
CONTINUOUS
 62
3
 10
-448.608550582459880
 20
-233.442991075190040
 11
-448.608550582459880
 21
-247.721246792747880
  0
ARC
  8
0
  6
CONTINUOUS
 62
3
 10
-378.608550582459880
 20
-152.721246792747880
 40
101.000000000000090
 50
202.015369540396880
 51
230.049766338017580
  0
ARC
  8
0
  6
CONTINUOUS
 62
3
 10
-448.599847652670630
 20
-236.280916098158230
 40
8.000000000000114
 50
1.781769897914381
 51
50.049766338018202
  0
INSERT
  8
0
  2
SYM1
 10
-466.053372788803240
 20
-193.640203404008790
 41
1.000000000000000
 42
1.000000000000000
 43
1.000000000000000
 50
357.137594773886350
  0
ARC
  8
0
  6
CONTINUOUS
 62
3
 10
-581.108550582459880
 20
-152.721246792748450
 40
300.000000000000060
 50
353.967950853630210
 51
6.032049146369816
  0
LINE
  8
0
  6
CONTINUOUS
 62
3
 10
-281.118967429977600
 20
-155.221246792748330
 11
-280.608550582459880
 21
-155.221246792748330
  0
LINE
  8
0
  6
CONTINUOUS
 62
3
 10
-281.108552439657610
 20
-150.221246792748330
 11
-280.608550582459880
 21
-150.221246792748330
  0
LINE
  8
0
  6
CONTINUOUS
 62
3
 10
-280.608550582459880
 20
-155.221246792748330
 11
-280.608550582459880
 21
-150.221246792748330
  0
ARC
  8
0
  6
CONTINUOUS
 62
3
 10
-287.741885809517500
 20
-183.721246792748330
 40
5.000000000000000
 50
270.000000000000000
 51
353.967950853629650
  0
LINE
  8
0
  6
CONTINUOUS
 62
3
 10
-316.302247073539320
 20
-188.721246792748330
 11
-287.741885809517500
 21
-188.721246792748330
  0
LINE
  8
0
  6
CONTINUOUS
 62
3
 10
-316.302247073539320
 20
-116.721246792748330
 11
-287.741885809517500
 21
-116.721246792748330
  0
ARC
  8
0
  6
CONTINUOUS
 62
3
 10
-287.741885809517500
 20
-121.721246792748330
 40
5.000000000000131
 50
6.032049146369048
 51
90.000000000000000
  0
LINE
  8
0
  6
CONTINUOUS
 62
3
 10
-315.108550582459880
 20
-182.713745855015130
 11
-315.108550582459880
 21
-188.721246792748330
  0
LINE
  8
0
  6
CONTINUOUS
 62
3
 10
-315.108550582459880
 20
-122.728747730481530
 11
-315.108550582459880
 21
-116.721246792748330
  0
ARC
  8
0
  6
CONTINUOUS
 62
4
 10
-143.008550582459750
 20
-152.721246792748330
 40
289.397000000000160
 50
180.000000000000000
 51
186.051985358668500
  0
ARC
  8
0
  6
CONTINUOUS
 62
4
 10
-415.481451507670270
 20
-181.609276517886600
 40
15.397000000000052
 50
186.051985358668840
 51
225.000000000000000
  0
LINE
  8
0
  6
CONTINUOUS
 62
4
 10
-421.792709224961070
 20
-197.072665020454620
 11
-426.368774617599680
 21
-192.496599627816010
  0
ARC
  8
0
  6
CONTINUOUS
 62
4
 10
-417.550068537841980
 20
-192.830024333335070
 40
6.000000000000049
 50
225.000000000003070
 51
262.102011327574360
  0
ARC
  8
0
  6
CONTINUOUS
 62
4
 10
-378.608550582459660
 20
87.878753207251521
 40
289.396999999999760
 50
262.102011327572200
 51
270.000000000000000
  0
ARC
  8
0
  6
CONTINUOUS
 62
4
 10
-614.208550582459790
 20
-152.721246792748330
 40
289.397000000000160
 50
353.948014641331500
 51
0.000000000000000
  0
ARC
  8
0
  6
CONTINUOUS
 62
4
 10
-341.735649657249270
 20
-181.609276517886600
 40
15.396999999999876
 50
315.000000000000000
 51
353.948014641331160
  0
LINE
  8
0
  6
CONTINUOUS
 62
4
 10
-335.424391939958470
 20
-197.072665020454620
 11
-330.848326547319860
 21
-192.496599627816010
  0
ARC
  8
0
  6
CONTINUOUS
 62
4
 10
-339.667032627077560
 20
-192.830024333335070
 40
5.999999999999923
 50
277.897988672425640
 51
314.999999999996870
  0
ARC
  8
0
  6
CONTINUOUS
 62
4
 10
-378.608550582459880
 20
87.878753207251521
 40
289.396999999999880
 50
270.000000000000000
 51
277.897988672427800
  0
ARC
  8
0
  6
CONTINUOUS
 62
4
 10
-614.208550582459790
 20
-152.721246792748330
 40
289.397000000000160
 50
0.000000000000000
 51
6.051985358668508
  0
ARC
  8
0
  6
CONTINUOUS
 62
4
 10
-341.735649657249270
 20
-123.833217067610060
 40
15.397000000000052
 50
6.051985358668849
 51
45.000000000000000
  0
LINE
  8
0
  6
CONTINUOUS
 62
4
 10
-335.424391939958470
 20
-108.369828565042040
 11
-330.848326547319860
 21
-112.945893957680650
  0
ARC
  8
0
  6
CONTINUOUS
 62
4
 10
-339.667032627077560
 20
-112.612469252161580
 40
6.000000000000049
 50
45.000000000003077
 51
82.102011327574374
  0
ARC
  8
0
  6
CONTINUOUS
 62
4
 10
-378.608550582459880
 20
-393.321246792748180
 40
289.396999999999760
 50
82.102011327572200
 51
90.000000000000000
  0
ARC
  8
0
  6
CONTINUOUS
 62
4
 10
-143.008550582459970
 20
-152.721246792748330
 40
289.396999999999930
 50
173.948014641331470
 51
180.000000000000000
  0
LINE
  8
0
  6
CONTINUOUS
 62
4
 10
-421.792709224961070
 20
-108.369828565042040
 11
-426.368774617599680
 21
-112.945893957680650
  0
ARC
  8
0
  6
CONTINUOUS
 62
4
 10
-415.481451507670270
 20
-123.833217067610060
 40
15.396999999999876
 50
135.000000000000000
 51
173.948014641331160
  0
ARC
  8
0
  6
CONTINUOUS
 62
3
 10
-341.735649657249270
 20
-181.609276517886600
 40
26.599999999999955
 50
315.000000000001020
 51
353.948014641331380
  0
LINE
  8
0
  6
CONTINUOUS
 62
3
 10
-329.993058396346210
 20
-207.484766016108040
 11
-322.926609277686790
 21
-200.418316897448390
  0
ARC
  8
0
  6
CONTINUOUS
 62
3
 10
-614.208550582459790
 20
-152.721246792748330
 40
300.600000000000080
 50
353.948014641331500
 51
6.051985358668499
  0
ARC
  8
0
  6
CONTINUOUS
 62
3
 10
-415.481451507670270
 20
-181.609276517886600
 40
26.599999999999969
 50
186.051985358668590
 51
224.999999999998980
  0
ARC
  8
0
  6
CONTINUOUS
 62
3
 10
-143.008550582459750
 20
-152.721246792748330
 40
300.600000000000080
 50
173.948014641331500
 51
186.051985358668500
  0
LINE
  8
0
  6
CONTINUOUS
 62
3
 10
-427.224042768573550
 20
-207.484766016108040
 11
-434.290491887232750
 21
-200.418316897448390
  0
ARC
  8
0
  6
CONTINUOUS
 62
3
 10
-415.481451507670270
 20
-123.833217067610060
 40
26.600000000000119
 50
135.000000000000000
 51
173.948014641331410
  0
LINE
  8
0
  6
CONTINUOUS
 62
3
 10
-427.224042768573550
 20
-97.957727569388851
 11
-434.290491887232520
 21
-105.024176688047810
  0
ARC
  8
0
  6
CONTINUOUS
 62
3
 10
-341.735649657249500
 20
-123.833217067610060
 40
26.600000000000193
 50
6.051985358668552
 51
45.000000000000000
  0
LINE
  8
0
  6
CONTINUOUS
 62
3
 10
-329.993058396346210
 20
-97.957727569388851
 11
-322.926609277687250
 21
-105.024176688047810
  0
ARC
  8
0
  6
CONTINUOUS
 62
3
 10
-422.557138012742370
 20
-202.817861260276860
 40
6.599999999999957
 50
225.000000000000000
 51
261.402917762751090
  0
ARC
  8
0
  6
CONTINUOUS
 62
3
 10
-378.608550582459880
 20
87.878753207251748
 40
300.599999999999970
 50
261.402917762750920
 51
270.000000000000000
  0
ARC
  8
0
  6
CONTINUOUS
 62
3
 10
-334.659963152177400
 20
-202.817861260276860
 40
6.599999999999747
 50
278.597082237248910
 51
315.000000000000000
  0
ARC
  8
0
  6
CONTINUOUS
 62
3
 10
-378.608550582459880
 20
-393.321246792748180
 40
300.599999999999740
 50
81.402917762750931
 51
90.000000000000000
  0
ARC
  8
0
  6
CONTINUOUS
 62
3
 10
-334.659963152177400
 20
-102.624632325220030
 40
6.600000000000118
 50
45.000000000001400
 51
81.402917762751386
  0
ARC
  8
0
  6
CONTINUOUS
 62
3
 10
-378.608550582459880
 20
87.878753207251748
 40
300.600000000000080
 50
270.000000000000000
 51
278.597082237249080
  0
ARC
  8
0
  6
CONTINUOUS
 62
3
 10
-378.608550582459880
 20
-393.321246792748180
 40
300.599999999999850
 50
90.000000000000000
 51
98.597082237249069
  0
ARC
  8
0
  6
CONTINUOUS
 62
3
 10
-374.608550582459880
 20
-111.414467688102770
 40
1.500000000000203
 50
84.468928475159132
 51
180.000000000000000
  0
ARC
  8
0
  6
CONTINUOUS
 62
3
 10
-382.608550582459880
 20
-111.414467688102540
 40
1.500000000000000
 50
0.000000000000000
 51
95.531071524841693
  0
ARC
  8
0
  6
CONTINUOUS
 62
3
 10
-378.608550582459660
 20
-152.721246792747880
 40
17.999999999999922
 50
41.837004155893325
 51
78.162995844107314
  0
ARC
  8
0
  6
CONTINUOUS
 62
3
 10
-378.608550582460110
 20
-152.721246792747880
 40
27.499999999999815
 50
97.928141766201691
 51
142.071858233797880
  0
LINE
  8
0
  6
CONTINUOUS
 62
3
 10
-376.108550582459880
 20
-111.414467688102770
 11
-376.108550582459880
 21
-114.429602795656760
  0
LINE
  8
0
  6
CONTINUOUS
 62
3
 10
-346.697014128309090
 20
-131.410361284741550
 11
-344.085830529324990
 21
-129.902793730964450
  0
LINE
  8
0
  6
CONTINUOUS
 62
3
 10
-376.108550582459880
 20
-120.972231059973350
 11
-376.108550582459880
 21
-123.998433560057890
  0
ARC
  8
0
  6
CONTINUOUS
 62
3
 10
-374.608550582459880
 20
-120.972231059973350
 40
1.499999999999998
 50
82.819244218541712
 51
180.000000000000000
  0
ARC
  8
0
  6
CONTINUOUS
 62
3
 10
-374.608550582459880
 20
-114.429602795656760
 40
1.500000000000000
 50
180.000000000000000
 51
264.036429881682580
  0
ARC
  8
0
  6
CONTINUOUS
 62
3
 10
-344.835830529324990
 20
-128.603755625287650
 40
1.500000000000123
 50
299.999999999997270
 51
35.531071524839192
  0
ARC
  8
0
  6
CONTINUOUS
 62
3
 10
-378.608550582460340
 20
-152.721246792748330
 40
42.999999999999908
 50
35.531071524839248
 51
84.468928475160212
  0
ARC
  8
0
  6
CONTINUOUS
 62
3
 10
-340.835830529324540
 20
-135.531958855563690
 40
1.500000000000034
 50
24.468928475159590
 51
119.999999999997270
  0
LINE
  8
0
  6
CONTINUOUS
 62
3
 10
-344.197014128308870
 20
-135.740488303663990
 11
-341.585830529324540
 21
-134.232920749886890
  0
ARC
  8
0
  6
CONTINUOUS
 62
3
 10
-343.447014128308870
 20
-137.039526409340790
 40
1.500000000000123
 50
119.999999999997270
 51
204.036429881680680
  0
ARC
  8
0
  6
CONTINUOUS
 62
3
 10
-378.608550582460110
 20
-152.721246792748790
 40
36.999999999999972
 50
335.963570118321740
 51
24.036429881678870
  0
ARC
  8
0
  6
CONTINUOUS
 62
3
 10
-378.608550582460110
 20
-152.721246792748790
 40
42.999999999999936
 50
335.531071524839770
 51
24.468928475160769
  0
ARC
  8
0
  6
CONTINUOUS
 62
3
 10
-340.835830529324540
 20
-169.910534729933200
 40
1.500000000000320
 50
240.000000000007050
 51
335.531071524832500
  0
LINE
  8
0
  6
CONTINUOUS
 62
3
 10
-341.585830529324540
 20
-171.209572835610230
 11
-344.197014128308640
 21
-169.702005281832900
  0
ARC
  8
0
  6
CONTINUOUS
 62
3
 10
-343.447014128308640
 20
-168.402967176156320
 40
1.500000000000063
 50
155.963570118322880
 51
239.999999999998410
  0
ARC
  8
0
  6
CONTINUOUS
 62
3
 10
-344.835830529324540
 20
-176.838737960209020
 40
1.499999999999844
 50
324.468928475167900
 51
59.999999999998380
  0
LINE
  8
0
  6
CONTINUOUS
 62
3
 10
-344.085830529324540
 20
-175.539699854532440
 11
-346.697014128308640
 21
-174.032132300755110
  0
LINE
  8
0
  6
CONTINUOUS
 62
3
 10
-381.108550582459880
 20
-111.414467688102540
 11
-381.108550582459880
 21
-114.429602795656760
  0
ARC
  8
0
  6
CONTINUOUS
 62
3
 10
-382.608550582459880
 20
-114.429602795656760
 40
1.499999999999933
 50
275.963570118318330
 51
0.000000000000000
  0
LINE
  8
0
  6
CONTINUOUS
 62
3
 10
-381.108550582459880
 20
-120.972231059973350
 11
-381.108550582459880
 21
-123.998433560057890
  0
ARC
  8
0
  6
CONTINUOUS
 62
3
 10
-382.608550582459880
 20
-120.972231059973350
 40
1.500000000000000
 50
0.000000000000000
 51
97.180755781458288
  0
ARC
  8
0
  6
CONTINUOUS
 62
3
 10
-378.608550582460340
 20
-152.721246792747880
 40
23.999999999999901
 50
100.240348321185670
 51
139.759651678813550
  0
ARC
  8
0
  6
CONTINUOUS
 62
3
 10
-395.783729851504860
 20
-138.186350264867940
 40
1.499999999999802
 50
139.759651678811420
 51
239.999999999998410
  0
LINE
  8
0
  6
CONTINUOUS
 62
3
 10
-393.886935258525680
 20
-141.013515941290680
 11
-396.533729851504860
 21
-139.485388370544510
  0
ARC
  8
0
  6
CONTINUOUS
 62
3
 10
-393.136935258525680
 20
-139.714477835614100
 40
1.499999999999926
 50
239.999999999998410
 51
318.162995844106720
  0
ARC
  8
0
  6
CONTINUOUS
 62
3
 10
-378.608550582460340
 20
-152.721246792747880
 40
17.999999999999829
 50
101.837004155891980
 51
138.162995844106210
  0
ARC
  8
0
  6
CONTINUOUS
 62
3
 10
-382.608550582459880
 20
-133.635912108755690
 40
1.499999999999954
 50
281.837004155896690
 51
0.000000000000000
  0
LINE
  8
0
  6
CONTINUOUS
 62
3
 10
-381.108550582459880
 20
-130.579656967263360
 11
-381.108550582459880
 21
-133.635912108755690
  0
ARC
  8
0
  6
CONTINUOUS
 62
3
 10
-382.608550582459880
 20
-130.579656967263360
 40
1.500000000000000
 50
0.000000000000000
 51
100.240348321194510
  0
ARC
  8
0
  6
CONTINUOUS
 62
3
 10
-378.608550582460340
 20
-152.721246792747880
 40
14.499999999999980
 50
107.920213139390830
 51
132.079786860607560
  0
ARC
  8
0
  6
CONTINUOUS
 62
3
 10
-387.320693225274450
 20
-143.072486739183600
 40
1.499999999999792
 50
132.079786860611680
 51
239.999999999998410
  0
LINE
  8
0
  6
CONTINUOUS
 62
3
 10
-385.295804515653800
 20
-145.973607588331050
 11
-388.070693225274450
 21
-144.371524844860180
  0
ARC
  8
0
  6
CONTINUOUS
 62
3
 10
-384.545804515653800
 20
-144.674569482654480
 40
1.499999999999926
 50
239.999999999998410
 51
306.421821521797600
  0
ARC
  8
0
  6
CONTINUOUS
 62
3
 10
-378.608550582460340
 20
-152.721246792747880
 40
8.499999999999879
 50
113.578178478199500
 51
126.421821521797340
  0
ARC
  8
0
  6
CONTINUOUS
 62
3
 10
-382.608550582459880
 20
-143.556095402835980
 40
1.500000000000139
 50
293.578178478195700
 51
0.000000000000000
  0
LINE
  8
0
  6
CONTINUOUS
 62
3
 10
-381.108550582459880
 20
-140.351929915894910
 11
-381.108550582459880
 21
-143.556095402835980
  0
ARC
  8
0
  6
CONTINUOUS
 62
3
 10
-382.608550582459880
 20
-140.351929915894910
 40
1.500000000000000
 50
0.000000000000000
 51
107.920213139394770
  0
ARC
  8
0
  6
CONTINUOUS
 62
3
 10
-378.608550582459880
 20
-152.721246792748330
 40
23.999999999999716
 50
280.240348321186270
 51
319.759651678814690
  0
ARC
  8
0
  6
CONTINUOUS
 62
3
 10
-374.608550582459880
 20
-174.862836618232850
 40
1.500000000000000
 50
180.000000000000000
 51
280.240348321187530
  0
LINE
  8
0
  6
CONTINUOUS
 62
3
 10
-376.108550582459880
 20
-171.806581476740520
 11
-376.108550582459880
 21
-174.862836618232850
  0
ARC
  8
0
  6
CONTINUOUS
 62
3
 10
-374.608550582459880
 20
-171.806581476740520
 40
1.499999999999731
 50
101.837004155898450
 51
180.000000000000000
  0
ARC
  8
0
  6
CONTINUOUS
 62
3
 10
-378.608550582459880
 20
-152.721246792748330
 40
18.000000000000146
 50
281.837004155893230
 51
318.162995844107680
  0
ARC
  8
0
  6
CONTINUOUS
 62
3
 10
-364.080165906394090
 20
-165.728015749882100
 40
1.499999999999926
 50
59.999999999998380
 51
138.162995844100240
  0
LINE
  8
0
  6
CONTINUOUS
 62
3
 10
-360.683371313415140
 20
-165.957105214951700
 11
-363.330165906394090
 21
-164.428977644205530
  0
ARC
  8
0
  6
CONTINUOUS
 62
3
 10
-361.433371313415140
 20
-167.256143320628270
 40
1.499999999999828
 50
319.759651678823670
 51
59.999999999998380
  0
ARC
  8
0
  6
CONTINUOUS
 62
3
 10
-378.608550582459880
 20
-152.721246792748330
 40
14.500000000000121
 50
287.920213139392560
 51
312.079786860608860
  0
ARC
  8
0
  6
CONTINUOUS
 62
3
 10
-374.608550582459880
 20
-165.090563669601070
 40
1.500000000000000
 50
180.000000000000000
 51
287.920213139392100
  0
LINE
  8
0
  6
CONTINUOUS
 62
3
 10
-376.108550582459880
 20
-161.886398182659780
 11
-376.108550582459880
 21
-165.090563669601070
  0
ARC
  8
0
  6
CONTINUOUS
 62
3
 10
-374.608550582459880
 20
-161.886398182660230
 40
1.500000000000139
 50
113.578178478195690
 51
179.999999999982630
  0
ARC
  8
0
  6
CONTINUOUS
 62
3
 10
-378.608550582459880
 20
-152.721246792748330
 40
8.500000000000060
 50
293.578178478202350
 51
306.421821521799190
  0
ARC
  8
0
  6
CONTINUOUS
 62
3
 10
-372.671296649265970
 20
-160.767924102841730
 40
1.499999999999926
 50
59.999999999998380
 51
126.421821521801260
  0
LINE
  8
0
  6
CONTINUOUS
 62
3
 10
-369.146407939645540
 20
-161.070968740635580
 11
-371.921296649265970
 21
-159.468885997165160
  0
ARC
  8
0
  6
CONTINUOUS
 62
3
 10
-369.896407939645540
 20
-162.370006846312610
 40
1.499999999999944
 50
312.079786860618130
 51
60.000000000007070
  0
ARC
  8
0
  6
CONTINUOUS
 62
3
 10
-378.608550582459880
 20
-152.721246792748330
 40
23.999999999999844
 50
220.240348321185340
 51
259.759651678813730
  0
ARC
  8
0
  6
CONTINUOUS
 62
3
 10
-382.608550582459880
 20
-174.862836618232850
 40
1.499999999999728
 50
259.759651678812470
 51
0.000000000000000
  0
LINE
  8
0
  6
CONTINUOUS
 62
3
 10
-381.108550582459880
 20
-171.806581476740520
 11
-381.108550582459880
 21
-174.862836618232850
  0
ARC
  8
0
  6
CONTINUOUS
 62
3
 10
-382.608550582459880
 20
-171.806581476740520
 40
1.500000000000000
 50
0.000000000000000
 51
78.162995844101530
  0
ARC
  8
0
  6
CONTINUOUS
 62
3
 10
-378.608550582459880
 20
-152.721246792748330
 40
17.999999999999940
 50
221.837004155892320
 51
258.162995844106770
  0
ARC
  8
0
  6
CONTINUOUS
 62
3
 10
-393.136935258525680
 20
-165.728015749882100
 40
1.500000000000118
 50
41.837004155899741
 51
120.000000000001620
  0
LINE
  8
0
  6
CONTINUOUS
 62
3
 10
-396.533729851504630
 20
-165.957105214951700
 11
-393.886935258525680
 21
-164.428977644205530
  0
ARC
  8
0
  6
CONTINUOUS
 62
3
 10
-395.783729851504630
 20
-167.256143320628270
 40
1.499999999999926
 50
120.000000000001620
 51
220.240348321176330
  0
ARC
  8
0
  6
CONTINUOUS
 62
3
 10
-378.608550582459880
 20
-152.721246792748330
 40
14.500000000000011
 50
227.920213139391080
 51
252.079786860607410
  0
ARC
  8
0
  6
CONTINUOUS
 62
3
 10
-382.608550582459880
 20
-165.090563669601070
 40
1.500000000000355
 50
252.079786860607900
 51
0.000000000000000
  0
LINE
  8
0
  6
CONTINUOUS
 62
3
 10
-381.108550582459880
 20
-161.886398182659780
 11
-381.108550582459880
 21
-165.090563669601070
  0
ARC
  8
0
  6
CONTINUOUS
 62
3
 10
-382.608550582459880
 20
-161.886398182660230
 40
1.500000000000000
 50
0.000000000017370
 51
66.421821521804304
  0
ARC
  8
0
  6
CONTINUOUS
 62
3
 10
-378.608550582459880
 20
-152.721246792748330
 40
8.499999999999870
 50
233.578178478199590
 51
246.421821521797680
  0
ARC
  8
0
  6
CONTINUOUS
 62
3
 10
-384.545804515653800
 20
-160.767924102841730
 40
1.500000000000059
 50
53.578178478205707
 51
120.000000000001620
  0
LINE
  8
0
  6
CONTINUOUS
 62
3
 10
-388.070693225274230
 20
-161.070968740635580
 11
-385.295804515653800
 21
-159.468885997165160
  0
ARC
  8
0
  6
CONTINUOUS
 62
3
 10
-387.320693225274230
 20
-162.370006846312610
 40
1.500000000000320
 50
119.999999999992930
 51
227.920213139381870
  0
ARC
  8
0
  6
CONTINUOUS
 62
3
 10
-378.608550582460340
 20
-152.721246792747880
 40
23.999999999999925
 50
160.240348321185910
 51
199.759651678814090
  0
ARC
  8
0
  6
CONTINUOUS
 62
3
 10
-399.783729851504860
 20
-145.114553495143300
 40
1.499999999999926
 50
59.999999999998380
 51
160.240348321185250
  0
LINE
  8
0
  6
CONTINUOUS
 62
3
 10
-396.386935258525680
 20
-145.343642960212890
 11
-399.033729851504860
 21
-143.815515389466730
  0
ARC
  8
0
  6
CONTINUOUS
 62
3
 10
-397.136935258525680
 20
-146.642681065889460
 40
1.500000000000038
 50
341.837004155895390
 51
59.999999999998380
  0
ARC
  8
0
  6
CONTINUOUS
 62
3
 10
-378.608550582460340
 20
-152.721246792747880
 40
17.999999999999726
 50
161.837004155893140
 51
198.162995844106860
  0
ARC
  8
0
  6
CONTINUOUS
 62
3
 10
-397.136935258525680
 20
-158.799812519606290
 40
1.500000000000320
 50
299.999999999992950
 51
18.162995844104589
  0
LINE
  8
0
  6
CONTINUOUS
 62
3
 10
-399.033729851504630
 20
-161.626978196029030
 11
-396.386935258525680
 21
-160.098850625283320
  0
ARC
  8
0
  6
CONTINUOUS
 62
3
 10
-399.783729851504630
 20
-160.327940090352460
 40
1.500000000000246
 50
199.759651678811820
 51
300.000000000001590
  0
ARC
  8
0
  6
CONTINUOUS
 62
3
 10
-378.608550582460340
 20
-152.721246792747880
 40
14.499999999999851
 50
167.920213139392840
 51
192.079786860608920
  0
ARC
  8
0
  6
CONTINUOUS
 62
3
 10
-391.320693225274450
 20
-150.000689969458960
 40
1.499999999999926
 50
59.999999999998380
 51
167.920213139405550
  0
LINE
  8
0
  6
CONTINUOUS
 62
3
 10
-387.795804515653800
 20
-150.303734607253260
 11
-390.570693225274450
 21
-148.701651863782390
  0
ARC
  8
0
  6
CONTINUOUS
 62
3
 10
-388.545804515653800
 20
-151.602772712929830
 40
1.499999999999873
 50
353.578178478198030
 51
59.999999999998380
  0
ARC
  8
0
  6
CONTINUOUS
 62
3
 10
-378.608550582460340
 20
-152.721246792747880
 40
8.499999999999813
 50
173.578178478202550
 51
186.421821521800500
  0
ARC
  8
0
  6
CONTINUOUS
 62
3
 10
-388.545804515653800
 20
-153.839720872566370
 40
1.499999999999926
 50
300.000000000001590
 51
6.421821521801967
  0
LINE
  8
0
  6
CONTINUOUS
 62
3
 10
-390.570693225274230
 20
-156.740841721713370
 11
-387.795804515653800
 21
-155.138758978242950
  0
ARC
  8
0
  6
CONTINUOUS
 62
3
 10
-391.320693225274230
 20
-155.441803616036790
 40
1.500000000000287
 50
192.079786860609600
 51
300.000000000001590
  0
ARC
  8
0
  6
CONTINUOUS
 62
3
 10
-378.608550582459660
 20
-152.721246792747880
 40
24.000000000000139
 50
340.240348321186050
 51
19.759651678813924
  0
ARC
  8
0
  6
CONTINUOUS
 62
3
 10
-357.433371313415140
 20
-145.114553495143300
 40
1.500000000000246
 50
19.759651678811824
 51
120.000000000001620
  0
LINE
  8
0
  6
CONTINUOUS
 62
3
 10
-360.830165906394090
 20
-145.343642960212890
 11
-358.183371313415140
 21
-143.815515389466730
  0
ARC
  8
0
  6
CONTINUOUS
 62
3
 10
-360.080165906394090
 20
-146.642681065889460
 40
1.499999999999926
 50
120.000000000001620
 51
198.162995844104590
  0
ARC
  8
0
  6
CONTINUOUS
 62
3
 10
-378.608550582459660
 20
-152.721246792747880
 40
17.999999999999943
 50
341.837004155893340
 51
18.162995844106646
  0
ARC
  8
0
  6
CONTINUOUS
 62
3
 10
-360.080165906394090
 20
-158.799812519606290
 40
1.500000000000038
 50
161.837004155895410
 51
240.000000000007050
  0
LINE
  8
0
  6
CONTINUOUS
 62
3
 10
-358.183371313415140
 20
-161.626978196029030
 11
-360.830165906394090
 21
-160.098850625283320
  0
ARC
  8
0
  6
CONTINUOUS
 62
3
 10
-357.433371313415140
 20
-160.327940090352460
 40
1.499999999999926
 50
239.999999999998410
 51
340.240348321188210
  0
ARC
  8
0
  6
CONTINUOUS
 62
3
 10
-378.608550582459660
 20
-152.721246792747880
 40
14.500000000000169
 50
347.920213139391310
 51
12.079786860606980
  0
ARC
  8
0
  6
CONTINUOUS
 62
3
 10
-365.896407939645540
 20
-150.000689969458960
 40
1.500000000000192
 50
12.079786860592611
 51
120.000000000001620
  0
LINE
  8
0
  6
CONTINUOUS
 62
3
 10
-369.421296649265970
 20
-150.303734607253260
 11
-366.646407939645540
 21
-148.701651863782390
  0
ARC
  8
0
  6
CONTINUOUS
 62
3
 10
-368.671296649265970
 20
-151.602772712929830
 40
1.499999999999926
 50
120.000000000001620
 51
186.421821521801010
  0
ARC
  8
0
  6
CONTINUOUS
 62
3
 10
-378.608550582459660
 20
-152.721246792747880
 40
8.499999999999865
 50
353.578178478199500
 51
6.421821521797448
  0
ARC
  8
0
  6
CONTINUOUS
 62
3
 10
-368.671296649265970
 20
-153.839720872566370
 40
1.500000000000099
 50
173.578178478198990
 51
239.999999999998410
  0
LINE
  8
0
  6
CONTINUOUS
 62
3
 10
-366.646407939645540
 20
-156.740841721713370
 11
-369.421296649265970
 21
-155.138758978242950
  0
ARC
  8
0
  6
CONTINUOUS
 62
3
 10
-365.896407939645540
 20
-155.441803616036790
 40
1.499999999999926
 50
239.999999999998410
 51
347.920213139390400
  0
ARC
  8
0
  6
CONTINUOUS
 62
3
 10
-378.608550582459660
 20
-152.721246792747880
 40
8.500000000000101
 50
53.578178478202659
 51
66.421821521799089
  0
ARC
  8
0
  6
CONTINUOUS
 62
3
 10
-378.608550582459660
 20
-152.721246792747880
 40
23.999999999999819
 50
40.240348321186090
 51
79.759651678814322
  0
LINE
  8
0
  6
CONTINUOUS
 62
3
 10
-371.921296649265970
 20
-145.973607588331050
 11
-369.146407939645540
 21
-144.371524844860180
  0
LINE
  8
0
  6
CONTINUOUS
 62
3
 10
-376.108550582459880
 20
-130.579656967263360
 11
-376.108550582459880
 21
-133.635912108755690
  0
LINE
  8
0
  6
CONTINUOUS
 62
3
 10
-376.108550582459880
 20
-140.351929915894910
 11
-376.108550582459880
 21
-143.556095402835980
  0
ARC
  8
0
  6
CONTINUOUS
 62
3
 10
-378.608550582459660
 20
-152.721246792747880
 40
14.499999999999860
 50
47.920213139391755
 51
72.079786860608309
  0
LINE
  8
0
  6
CONTINUOUS
 62
3
 10
-363.330165906394090
 20
-141.013515941290680
 11
-360.683371313415140
 21
-139.485388370544510
  0
ARC
  8
0
  6
CONTINUOUS
 62
3
 10
-369.896407939645540
 20
-143.072486739183600
 40
1.499999999999926
 50
300.000000000001590
 51
47.920213139381872
  0
ARC
  8
0
  6
CONTINUOUS
 62
3
 10
-374.608550582459880
 20
-130.579656967263360
 40
1.499999999999952
 50
79.759651678814024
 51
180.000000000000000
  0
ARC
  8
0
  6
CONTINUOUS
 62
3
 10
-364.080165906394090
 20
-139.714477835614100
 40
1.499999999999967
 50
221.837004155893280
 51
300.000000000001590
  0
ARC
  8
0
  6
CONTINUOUS
 62
3
 10
-374.608550582459880
 20
-133.635912108755690
 40
1.500000000000000
 50
180.000000000000000
 51
258.162995844103310
  0
ARC
  8
0
  6
CONTINUOUS
 62
3
 10
-374.608550582459880
 20
-140.351929915894910
 40
1.500000000000138
 50
72.079786860605225
 51
180.000000000000000
  0
ARC
  8
0
  6
CONTINUOUS
 62
3
 10
-361.433371313415140
 20
-138.186350264867940
 40
1.499999999999926
 50
300.000000000001590
 51
40.240348321182964
  0
ARC
  8
0
  6
CONTINUOUS
 62
3
 10
-374.608550582459880
 20
-143.556095402835980
 40
1.500000000000000
 50
180.000000000000000
 51
246.421821521804280
  0
ARC
  8
0
  6
CONTINUOUS
 62
3
 10
-372.671296649265970
 20
-144.674569482654480
 40
1.499999999999693
 50
233.578178478195410
 51
300.000000000001590
  0
CIRCLE
  8
0
  6
CONTINUOUS
 62
3
 10
-378.608550582459880
 20
-152.721246792747880
 40
5.000000000000000
  0
ARC
  8
0
  6
CONTINUOUS
 62
3
 10
-355.733864654794160
 20
-134.895738561265200
 40
1.499999999999843
 50
217.928141766204990
 51
300.000000000001590
  0
LINE
  8
0
  6
CONTINUOUS
 62
3
 10
-354.983864654794160
 20
-136.194776666941780
 11
-352.363096412725330
 21
-134.681675416899620
  0
ARC
  8
0
  6
CONTINUOUS
 62
3
 10
-374.608550582459880
 20
-123.998433560057890
 40
1.500000000000000
 50
180.000000000000000
 51
262.071858233795980
  0
ARC
  8
0
  6
CONTINUOUS
 62
3
 10
-378.608550582459660
 20
-152.721246792747880
 40
27.500000000000060
 50
37.928141766201819
 51
82.071858233798309
  0
ARC
  8
0
  6
CONTINUOUS
 62
3
 10
-353.113096412725330
 20
-133.382637311223050
 40
1.499999999999926
 50
300.000000000001590
 51
37.180755781457485
  0
ARC
  8
0
  6
CONTINUOUS
 62
3
 10
-347.447014128309090
 20
-130.111323179064750
 40
1.500000000000102
 50
215.963570118316280
 51
299.999999999997270
  0
ARC
  8
0
  6
CONTINUOUS
 62
3
 10
-378.608550582460340
 20
-152.721246792748330
 40
36.999999999999943
 50
35.963570118321194
 51
84.036429881678174
  0
ARC
  8
0
  6
CONTINUOUS
 62
3
 10
-378.608550582460340
 20
-152.721246792748330
 40
33.500000000000071
 50
37.180755781458259
 51
82.819244218540931
  0
LINE
  8
0
  6
CONTINUOUS
 62
3
 10
-352.483864654793930
 20
-140.524903685864440
 11
-349.863096412725100
 21
-139.011802435822290
  0
ARC
  8
0
  6
CONTINUOUS
 62
3
 10
-349.113096412725100
 20
-140.310840541499090
 40
1.499999999999948
 50
22.819244218550043
 51
119.999999999997270
  0
ARC
  8
0
  6
CONTINUOUS
 62
3
 10
-351.733864654793930
 20
-141.823941791541020
 40
1.499999999999926
 50
120.000000000001620
 51
202.071858233797370
  0
ARC
  8
0
  6
CONTINUOUS
 62
3
 10
-378.608550582459430
 20
-152.721246792748330
 40
27.499999999999886
 50
337.928141766202200
 51
22.071858233797812
  0
ARC
  8
0
  6
CONTINUOUS
 62
3
 10
-378.608550582460110
 20
-152.721246792748790
 40
33.500000000000128
 50
337.180755781459030
 51
22.819244218541968
  0
ARC
  8
0
  6
CONTINUOUS
 62
3
 10
-351.733864654794160
 20
-163.618551793955650
 40
1.499999999999899
 50
157.928141766199360
 51
240.000000000007050
  0
LINE
  8
0
  6
CONTINUOUS
 62
3
 10
-349.863096412724870
 20
-166.430691149674600
 11
-352.483864654794160
 21
-164.917589899632670
  0
ARC
  8
0
  6
CONTINUOUS
 62
3
 10
-349.113096412724870
 20
-165.131653043998030
 40
1.499999999999926
 50
239.999999999998410
 51
337.180755781453340
  0
ARC
  8
0
  6
CONTINUOUS
 62
3
 10
-374.608550582459660
 20
-194.028025897393430
 40
1.500000000000000
 50
180.000000000000000
 51
275.531071524831360
  0
LINE
  8
0
  6
CONTINUOUS
 62
3
 10
-376.108550582459660
 20
-191.012890789839220
 11
-376.108550582459660
 21
-194.028025897393430
  0
LINE
  8
0
  6
CONTINUOUS
 62
3
 10
-376.108550582459660
 20
-181.444060025438770
 11
-376.108550582459660
 21
-184.470262525523080
  0
ARC
  8
0
  6
CONTINUOUS
 62
3
 10
-374.608550582459660
 20
-191.012890789839670
 40
1.500000000000182
 50
95.963570118326047
 51
179.999999999982630
  0
ARC
  8
0
  6
CONTINUOUS
 62
3
 10
-374.608550582459660
 20
-184.470262525523080
 40
1.500000000000000
 50
180.000000000000000
 51
277.180755781458290
  0
ARC
  8
0
  6
CONTINUOUS
 62
3
 10
-374.608550582459660
 20
-181.444060025438770
 40
1.499999999999967
 50
97.928141766195438
 51
180.000000000000000
  0
ARC
  8
0
  6
CONTINUOUS
 62
3
 10
-378.608550582459660
 20
-152.721246792748790
 40
27.499999999999879
 50
277.928141766202600
 51
322.071858233798930
  0
ARC
  8
0
  6
CONTINUOUS
 62
3
 10
-378.608550582459660
 20
-152.721246792747880
 40
37.000000000000028
 50
275.963570118320770
 51
324.036429881678030
  0
ARC
  8
0
  6
CONTINUOUS
 62
3
 10
-378.608550582459660
 20
-152.721246792747880
 40
43.000000000000199
 50
275.531071524838860
 51
324.468928475160340
  0
ARC
  8
0
  6
CONTINUOUS
 62
3
 10
-378.608550582459660
 20
-152.721246792747880
 40
33.500000000000114
 50
277.180755781458230
 51
322.819244218540860
  0
ARC
  8
0
  6
CONTINUOUS
 62
3
 10
-355.733864654794160
 20
-170.546755024231460
 40
1.500000000000320
 50
60.000000000007070
 51
142.071858233781280
  0
ARC
  8
0
  6
CONTINUOUS
 62
3
 10
-347.447014128308640
 20
-175.331170406431680
 40
1.499999999999926
 50
59.999999999998380
 51
144.036429881690740
  0
LINE
  8
0
  6
CONTINUOUS
 62
3
 10
-352.363096412724870
 20
-170.760818168596810
 11
-354.983864654794160
 21
-169.247716918554430
  0
ARC
  8
0
  6
CONTINUOUS
 62
3
 10
-353.113096412724870
 20
-172.059856274273390
 40
1.500000000000240
 50
322.819244218535570
 51
59.999999999998380
  0
ARC
  8
0
  6
CONTINUOUS
 62
3
 10
-382.608550582460110
 20
-194.028025897393430
 40
1.500000000000430
 50
264.468928475160000
 51
0.000000000000000
  0
LINE
  8
0
  6
CONTINUOUS
 62
3
 10
-381.108550582460110
 20
-191.012890789839220
 11
-381.108550582460110
 21
-194.028025897393430
  0
LINE
  8
0
  6
CONTINUOUS
 62
3
 10
-381.108550582460110
 20
-181.444060025438770
 11
-381.108550582460110
 21
-184.470262525523080
  0
ARC
  8
0
  6
CONTINUOUS
 62
3
 10
-382.608550582460110
 20
-191.012890789839670
 40
1.500000000000000
 50
0.000000000017370
 51
84.036429881682594
  0
ARC
  8
0
  6
CONTINUOUS
 62
3
 10
-382.608550582460110
 20
-184.470262525523080
 40
1.499999999999998
 50
262.819244218541710
 51
0.000000000000000
  0
ARC
  8
0
  6
CONTINUOUS
 62
3
 10
-382.608550582460110
 20
-181.444060025438770
 40
1.500000000000000
 50
0.000000000000000
 51
82.071858233804562
  0
ARC
  8
0
  6
CONTINUOUS
 62
3
 10
-378.608550582460110
 20
-152.721246792748790
 40
27.499999999999780
 50
217.928141766201070
 51
262.071858233797400
  0
ARC
  8
0
  6
CONTINUOUS
 62
3
 10
-378.608550582460110
 20
-152.721246792747880
 40
37.000000000000021
 50
215.963570118321970
 51
264.036429881678940
  0
ARC
  8
0
  6
CONTINUOUS
 62
3
 10
-378.608550582460110
 20
-152.721246792747880
 40
42.999999999999858
 50
215.531071524839690
 51
264.468928475160850
  0
ARC
  8
0
  6
CONTINUOUS
 62
3
 10
-378.608550582460110
 20
-152.721246792747880
 40
33.500000000000163
 50
217.180755781459110
 51
262.819244218541770
  0
ARC
  8
0
  6
CONTINUOUS
 62
3
 10
-401.483236510125610
 20
-170.546755024231460
 40
1.500000000000122
 50
37.928141766218701
 51
119.999999999992930
  0
ARC
  8
0
  6
CONTINUOUS
 62
3
 10
-412.381270635595230
 20
-176.838737960209020
 40
1.499999999999926
 50
120.000000000001620
 51
215.531071524832130
  0
LINE
  8
0
  6
CONTINUOUS
 62
3
 10
-413.131270635595230
 20
-175.539699854532440
 11
-410.520087036611130
 21
-174.032132300755110
  0
ARC
  8
0
  6
CONTINUOUS
 62
3
 10
-409.770087036611130
 20
-175.331170406431680
 40
1.499999999999968
 50
35.963570118309242
 51
120.000000000001620
  0
LINE
  8
0
  6
CONTINUOUS
 62
3
 10
-404.854004752194900
 20
-170.760818168596810
 11
-402.233236510125610
 21
-169.247716918554430
  0
ARC
  8
0
  6
CONTINUOUS
 62
3
 10
-404.104004752194900
 20
-172.059856274273390
 40
1.499999999999926
 50
120.000000000001620
 51
217.180755781464400
  0
ARC
  8
0
  6
CONTINUOUS
 62
3
 10
-416.381270635595230
 20
-135.531958855563690
 40
1.499999999999926
 50
59.999999999998380
 51
155.531071524840400
  0
LINE
  8
0
  6
CONTINUOUS
 62
3
 10
-413.020087036610680
 20
-135.740488303664220
 11
-415.631270635595230
 21
-134.232920749887110
  0
LINE
  8
0
  6
CONTINUOUS
 62
3
 10
-404.733236510125830
 20
-140.524903685864440
 11
-407.354004752194670
 21
-139.011802435822290
  0
ARC
  8
0
  6
CONTINUOUS
 62
3
 10
-413.770087036610900
 20
-137.039526409340790
 40
1.499999999999855
 50
335.963570118319300
 51
59.999999999990862
  0
ARC
  8
0
  6
CONTINUOUS
 62
3
 10
-408.104004752194670
 20
-140.310840541499090
 40
1.500000000000123
 50
60.000000000002721
 51
157.180755781457980
  0
ARC
  8
0
  6
CONTINUOUS
 62
3
 10
-405.483236510125830
 20
-141.823941791541020
 40
1.500000000000110
 50
337.928141766202600
 51
59.999999999998380
  0
ARC
  8
0
  6
CONTINUOUS
 62
3
 10
-378.608550582460340
 20
-152.721246792748330
 40
27.499999999999886
 50
157.928141766202200
 51
202.071858233798680
  0
ARC
  8
0
  6
CONTINUOUS
 62
3
 10
-378.608550582459660
 20
-152.721246792748790
 40
37.000000000000156
 50
155.963570118321120
 51
204.036429881678230
  0
ARC
  8
0
  6
CONTINUOUS
 62
3
 10
-378.608550582459660
 20
-152.721246792748790
 40
43.000000000000121
 50
155.531071524839230
 51
204.468928475160200
  0
ARC
  8
0
  6
CONTINUOUS
 62
3
 10
-378.608550582459660
 20
-152.721246792748790
 40
33.499999999999794
 50
157.180755781458400
 51
202.819244218540940
  0
ARC
  8
0
  6
CONTINUOUS
 62
3
 10
-405.483236510125610
 20
-163.618551793955650
 40
1.500000000000320
 50
299.999999999992950
 51
22.071858233784546
  0
ARC
  8
0
  6
CONTINUOUS
 62
3
 10
-416.381270635595230
 20
-169.910534729933200
 40
1.500000000000128
 50
204.468928475167470
 51
299.999999999992950
  0
LINE
  8
0
  6
CONTINUOUS
 62
3
 10
-415.631270635595230
 20
-171.209572835610230
 11
-413.020087036611130
 21
-169.702005281832900
  0
ARC
  8
0
  6
CONTINUOUS
 62
3
 10
-413.770087036611130
 20
-168.402967176156320
 40
1.499999999999926
 50
300.000000000001590
 51
24.036429881677126
  0
LINE
  8
0
  6
CONTINUOUS
 62
3
 10
-407.354004752194900
 20
-166.430691149674600
 11
-404.733236510125610
 21
-164.917589899632670
  0
ARC
  8
0
  6
CONTINUOUS
 62
3
 10
-408.104004752194900
 20
-165.131653043998030
 40
1.500000000000157
 50
202.819244218546660
 51
300.000000000001590
  0
ARC
  8
0
  6
CONTINUOUS
 62
3
 10
-412.381270635594770
 20
-128.603755625287650
 40
1.499999999999976
 50
144.468928475160790
 51
240.000000000002730
  0
LINE
  8
0
  6
CONTINUOUS
 62
3
 10
-410.520087036610680
 20
-131.410361284741550
 11
-413.131270635594770
 21
-129.902793730964450
  0
LINE
  8
0
  6
CONTINUOUS
 62
3
 10
-402.233236510125610
 20
-136.194776666941780
 11
-404.854004752194440
 21
-134.681675416899620
  0
ARC
  8
0
  6
CONTINUOUS
 62
3
 10
-409.770087036610680
 20
-130.111323179064750
 40
1.500000000000123
 50
240.000000000002730
 51
324.036429881683720
  0
ARC
  8
0
  6
CONTINUOUS
 62
3
 10
-404.104004752194440
 20
-133.382637311223050
 40
1.500000000000103
 50
142.819244218542510
 51
239.999999999998410
  0
ARC
  8
0
  6
CONTINUOUS
 62
3
 10
-401.483236510125610
 20
-134.895738561265200
 40
1.499999999999926
 50
239.999999999998410
 51
322.071858233800300
  0
ARC
  8
0
  6
CONTINUOUS
 62
3
 10
-378.608550582459430
 20
-152.721246792748330
 40
37.000000000000099
 50
95.963570118321798
 51
144.036429881678830
  0
ARC
  8
0
  6
CONTINUOUS
 62
3
 10
-378.608550582459430
 20
-152.721246792748330
 40
43.000000000000043
 50
95.531071524839788
 51
144.468928475160770
  0
ARC
  8
0
  6
CONTINUOUS
 62
3
 10
-378.608550582459430
 20
-152.721246792748330
 40
33.499999999999950
 50
97.180755781459069
 51
142.819244218541740
  0
ARC
  8
0
  6
CONTINUOUS
 62
3
 10
-382.608550582459880
 20
-123.998433560057890
 40
1.499999999999998
 50
277.928141766204020
 51
0.000000000000000
  0
ARC
  8
0
  6
CONTINUOUS
 62
3
 10
-422.557138012742370
 20
-102.624632325220030
 40
6.599999999999971
 50
98.597082237248614
 51
134.999999999998610
  0
ARC
  8
0
  6
CONTINUOUS
 62
4
 10
-417.550068537841980
 20
-112.612469252161580
 40
5.999999999999923
 50
97.897988672425626
 51
134.999999999996930
  0
ARC
  8
0
  6
CONTINUOUS
 62
4
 10
-378.608550582459880
 20
-393.321246792748180
 40
289.396999999999880
 50
90.000000000000000
 51
97.897988672427743
  0
ARC
  8
0
  6
CONTINUOUS
 62
3
 10
-461.908550582459840
 20
-126.763746792748350
 40
18.799999999999955
 50
0.000000000000000
 51
79.401214733933941
  0
ARC
  8
0
  6
CONTINUOUS
 62
3
 10
-458.082795948372900
 20
-106.318610415610630
 40
1.999999999999927
 50
177.137594773887290
 51
259.401214733934010
  0
ARC
  8
0
  6
CONTINUOUS
 62
3
 10
-463.675809046088720
 20
-106.038959760724820
 40
1.999999999999928
 50
274.873974813840960
 51
357.137594773887320
  0
LINE
  8
0
  6
CONTINUOUS
 62
3
 10
-460.410422074143070
 20
-96.801176626413110
 11
-465.504059002420040
 21
-198.673915191953200
  0
LINE
  8
0
  6
CONTINUOUS
 62
3
 10
-484.604809934080780
 20
-164.688933825167340
 11
-480.614784996424760
 21
-124.888435072050070
  0
ARC
  8
0
  6
CONTINUOUS
 62
3
 10
-461.908550582459840
 20
-126.763746792748350
 40
18.800000000000036
 50
94.873974813842736
 51
144.191373186504250
  0
ARC
  8
0
  6
CONTINUOUS
 62
3
 10
-461.908550582459840
 20
-126.763746792748350
 40
18.799999999999933
 50
144.191373186504250
 51
174.275189547776390
  0
LINE
  8
0
  6
CONTINUOUS
 62
3
 10
-461.209423945245360
 20
-96.761226532857961
 11
-459.611420203040780
 21
-96.841126719968145
  0
ARC
  8
0
  6
CONTINUOUS
 62
3
 10
-455.067097442139810
 20
-102.074588956638250
 40
9.000000000000060
 50
160.536063666407810
 51
193.739143184213500
  0
POINT
  8
0
  6
CONTINUOUS
 62
3
 10
-461.459112029964220
 20
-101.754988227246990
  0
LINE
  8
0
  6
CONTINUOUS
 62
3
 10
-461.284330370660650
 20
-98.259355041174615
 11
-461.633893689267780
 21
-105.250621413319490
  0
LINE
  8
0
  6
CONTINUOUS
 62
3
 10
-461.284330370660650
 20
-98.259355041174615
 11
-461.633893689267780
 21
-105.250621413319490
  0
LINE
  8
0
  6
CONTINUOUS
 62
3
 10
-461.633893689267780
 20
-105.250621413319490
 11
-462.611697501775550
 21
-105.201731222694150
  0
LINE
  8
0
  6
CONTINUOUS
 62
3
 10
-461.284330370660650
 20
-98.259355041174615
 11
-462.262134183168200
 21
-98.210464850549272
  0
ARC
  8
0
  6
CONTINUOUS
 62
3
 10
-462.546778637847860
 20
-103.903353944140520
 40
1.299999237060493
 50
193.739143184211430
 51
267.137612759980240
  0
ARC
  8
0
  6
CONTINUOUS
 62
3
 10
-462.327053047095890
 20
-99.508842129102788
 40
1.299999237060474
 50
87.137594090651831
 51
160.536063666412870
  0
LINE
  8
0
  6
CONTINUOUS
 62
3
 10
-461.209423945245360
 20
-96.761226532857961
 11
-466.303060873522330
 21
-198.633965098397940
  0
LINE
  8
0
  6
CONTINUOUS
 62
3
 10
-459.611420203040780
 20
-96.841126719968145
 11
-464.705057131317740
 21
-198.713865285508920
  0
ARC
  8
0
  6
CONTINUOUS
 62
3
 10
-463.908550582459840
 20
-166.763746792748350
 40
20.800000000000082
 50
274.191726156007460
 51
354.952683218987540
  0
ARC
  8
0
  6
CONTINUOUS
 62
3
 10
-463.908550582459840
 20
-166.763746792748350
 40
20.799999999999986
 50
174.275189547776620
 51
205.640070215894870
  0
ARC
  8
0
  6
CONTINUOUS
 62
3
 10
-463.908550582459840
 20
-166.763746792748350
 40
20.799999999999926
 50
205.640070215894870
 51
260.083463391769440
  0
ARC
  8
0
  6
CONTINUOUS
 62
3
 10
-463.908550582459840
 20
-166.763746792748350
 40
20.799999999999986
 50
174.275189547776620
 51
205.640070215894870
  0
ARC
  8
0
  6
CONTINUOUS
 62
3
 10
-462.242003316076310
 20
-189.502757769677660
 40
1.999999999999962
 50
94.191726156001650
 51
177.137594773887290
  0
ARC
  8
0
  6
CONTINUOUS
 62
3
 10
-467.835016413792120
 20
-189.223107114791840
 40
2.000000000000154
 50
357.137594773887600
 51
80.083463391767268
  0
LINE
  8
0
  6
CONTINUOUS
 62
3
 10
-464.705057131317740
 20
-198.713865285508920
 11
-466.303060873522330
 21
-198.633965098397940
  0
LINE
  8
0
  6
CONTINUOUS
 62
3
 10
-443.108550582459880
 20
-135.390638032522930
 11
-443.108550582459880
 21
-126.763746792748350
  0
ARC
  8
0
  6
CONTINUOUS
 62
3
 10
-364.608550582459660
 20
-132.954644976929270
 40
80.000000000000000
 50
11.535170617278499
 51
85.339580615885367
  0
LINE
  8
0
  6
CONTINUOUS
 62
3
 10
-284.608550582459430
 20
-187.617682388889650
 11
-284.608550582459430
 21
-226.721246792747880
  0
LINE
  8
0
  6
CONTINUOUS
 62
3
 10
-472.608550582460110
 20
-185.656867233797640
 11
-472.608550582460110
 21
-188.707355223641060
  0
ARC
  8
0
  6
CONTINUOUS
 62
3
 10
-392.608550582460110
 20
-132.954644976929270
 40
80.000000000000000
 50
94.660419384114633
 51
162.857588701217420
  0
LINE
  8
0
  6
CONTINUOUS
 62
3
 10
-472.608550582459880
 20
-185.656867233797750
 11
-472.608550582459880
 21
-226.721246792747880
  0
ARC
  8
0
  6
CONTINUOUS
 62
3
 10
-417.402822782818930
 20
-180.987913459414360
 40
26.999999999999940
 50
161.248570830536290
 51
231.704372189438090
  0
ARC
  8
0
  6
CONTINUOUS
 62
3
 10
-364.389173863071390
 20
-191.261813800266280
 40
27.000000000000032
 50
232.608236715360050
 51
313.223998195749860
  0
ARC
  8
0
  6
CONTINUOUS
 62
3
 10
-384.608550582459880
 20
-91.221246792747877
 40
3.000000000000151
 50
329.571714196289520
 51
0.000000000000000
  0
ARC
  8
0
  6
CONTINUOUS
 62
3
 10
-372.608550582459880
 20
-91.221246792747877
 40
3.000000000000000
 50
180.000000000000000
 51
210.428285803710510
  0
LINE
  8
0
  6
DASHDOT
 62
4
 10
-496.639878888705430
 20
-152.721246792747880
 11
-264.361789401984420
 21
-152.721246792747880
  0
LINE
  8
0
  6
DASHDOT
 62
4
 10
-378.608550582459880
 20
-5.816198025250742
 11
-378.608550582459880
 21
-261.804964151330240
  0
LINE
  8
0
  6
DASHDOT
 62
4
 10
-358.976393541332070
 20
-122.721246792747870
 11
-398.305495323373180
 21
-122.721246792747870
  0
LINE
  8
0
  6
CONTINUOUS
 62
3
 10
48.585019084840894
 20
223.924370080696920
 11
48.585019084840894
 21
210.656420888265980
  0
LINE
  8
0
  6
CONTINUOUS
 62
3
 10
27.085020038514756
 20
136.790494233835720
 11
27.085020038515665
 21
148.058440477121850
  0
LINE
  8
0
  6
CONTINUOUS
 62
3
 10
35.085019084840440
 20
135.924370080697830
 11
27.585020038514756
 21
135.924370080698280
  0
LINE
  8
0
  6
CONTINUOUS
 62
3
 10
35.085019084841349
 20
148.924370080697830
 11
27.585020992189982
 21
148.924370080698280
  0
LINE
  8
0
  6
CONTINUOUS
 62
3
 10
27.585020676372494
 20
135.924370056630320
 11
27.085020650225658
 21
136.790494196764260
  0
LINE
  8
0
  6
CONTINUOUS
 62
3
 10
27.585021303000474
 20
148.924370057997290
 11
27.085020352807476
 21
148.058440486928930
  0
LINE
  8
0
  6
CONTINUOUS
 62
3
 10
27.585020038514756
 20
135.924370080698280
 11
27.585020038515665
 21
148.924370080698280
  0
LINE
  8
0
  6
CONTINUOUS
 62
3
 10
27.085020038514756
 20
127.058245927561070
 11
27.085020038514756
 21
115.790299684274940
  0
LINE
  8
0
  6
CONTINUOUS
 62
3
 10
35.085019084840440
 20
127.924370080698280
 11
27.585020038514756
 21
127.924370080698280
  0
LINE
  8
0
  6
CONTINUOUS
 62
3
 10
35.085019084840440
 20
114.924370080698280
 11
27.585020992189072
 21
114.924370080698280
  0
LINE
  8
0
  6
CONTINUOUS
 62
3
 10
27.585020676372494
 20
127.924370104766460
 11
27.085020650225431
 21
127.058245964632300
  0
LINE
  8
0
  6
CONTINUOUS
 62
3
 10
27.585021302999792
 20
114.924370103399260
 11
27.085020352806566
 21
115.790299674467630
  0
LINE
  8
0
  6
CONTINUOUS
 62
3
 10
27.585020038514756
 20
127.924370080698280
 11
27.585020038514756
 21
114.924370080698280
  0
LINE
  8
0
  6
CONTINUOUS
 62
3
 10
50.585019084834983
 20
89.624369889963418
 11
50.585019084834983
 21
74.224370271433145
  0
LINE
  8
0
  6
CONTINUOUS
 62
3
 10
42.585020038509299
 20
87.558245927560847
 11
42.585020038509299
 21
76.290299684274714
  0
LINE
  8
0
  6
CONTINUOUS
 62
3
 10
50.585019084834983
 20
88.424370080698054
 11
43.085020038509299
 21
88.424370080698054
  0
LINE
  8
0
  6
CONTINUOUS
 62
3
 10
50.585019084834983
 20
75.424370080698054
 11
43.085020992183615
 21
75.424370080698054
  0
LINE
  8
0
  6
CONTINUOUS
 62
3
 10
43.085020676367037
 20
88.424370104766240
 11
42.585020650219974
 21
87.558245964632306
  0
LINE
  8
0
  6
CONTINUOUS
 62
3
 10
43.085021302994335
 20
75.424370103399042
 11
42.585020352801109
 21
76.290299674467406
  0
LINE
  8
0
  6
CONTINUOUS
 62
3
 10
43.085020038509299
 20
88.424370080698054
 11
43.085020038509299
 21
75.424370080698054
  0
LINE
  8
0
  6
CONTINUOUS
 62
3
 10
50.585019084837711
 20
174.224370271431780
 11
50.585019084838621
 21
189.624369889962050
  0
LINE
  8
0
  6
CONTINUOUS
 62
3
 10
42.585020038512027
 20
176.290494233834580
 11
42.585020038512937
 21
187.558440477120710
  0
LINE
  8
0
  6
CONTINUOUS
 62
3
 10
50.585019084837711
 20
175.424370080696920
 11
43.085020038512027
 21
175.424370080697370
  0
LINE
  8
0
  6
CONTINUOUS
 62
3
 10
50.585019084838621
 20
188.424370080696920
 11
43.085020992187253
 21
188.424370080697370
  0
LINE
  8
0
  6
CONTINUOUS
 62
3
 10
43.085020676369766
 20
175.424370056629190
 11
42.585020650222930
 21
176.290494196763350
  0
LINE
  8
0
  6
CONTINUOUS
 62
3
 10
43.085021302997745
 20
188.424370057996380
 11
42.585020352804747
 21
187.558440486928020
  0
LINE
  8
0
  6
CONTINUOUS
 62
3
 10
43.085020038512027
 20
175.424370080697370
 11
43.085020038512937
 21
188.424370080697370
  0
LINE
  8
0
  6
CONTINUOUS
 62
3
 10
62.585019084834983
 20
131.924370080696920
 11
62.585019084834983
 21
37.924370080698282
  0
ARC
  8
0
  6
CONTINUOUS
 62
3
 10
52.585019084834983
 20
39.924370080698282
 40
2.000000000000000
 50
180.000000000000000
 51
270.000000000000000
  0
ARC
  8
0
  6
CONTINUOUS
 62
3
 10
42.585019084840894
 20
114.424370080698280
 40
3.000000000000000
 50
180.000000000000000
 51
270.000000000000000
  0
LINE
  8
0
  6
CONTINUOUS
 62
3
 10
47.585019084834983
 20
111.424370080698280
 11
42.585019084840894
 21
111.424370080698280
  0
ARC
  8
0
  6
CONTINUOUS
 62
3
 10
47.585019084834983
 20
108.424370080698280
 40
3.000000000000000
 50
0.000000000000000
 51
90.000000000000000
  0
LINE
  8
0
  6
CONTINUOUS
 62
3
 10
35.085019084839985
 20
131.924370080698280
 11
35.085019084839985
 21
111.424370080698280
  0
LINE
  8
0
  6
CONTINUOUS
 62
3
 10
39.585019084840894
 20
131.924370080697830
 11
39.585019084840894
 21
111.424370080698280
  0
LINE
  8
0
  6
CONTINUOUS
 62
3
 10
39.585019084840894
 20
111.424370080698280
 11
35.085019084839985
 21
111.424370080698280
  0
LINE
  8
0
  6
CONTINUOUS
 62
3
 10
28.085019084836802
 20
131.924370080698280
 11
28.085019084836802
 21
127.924370080698280
  0
ARC
  8
0
  6
CONTINUOUS
 62
3
 10
48.585019084834983
 20
56.656420888267348
 40
2.000000000000164
 50
299.999999999997270
 51
0.000000000000000
  0
ARC
  8
0
  6
CONTINUOUS
 62
3
 10
50.585019084834983
 20
53.192319273129215
 40
2.000000000000164
 50
119.999999999997270
 51
180.000000000000000
  0
LINE
  8
0
  6
CONTINUOUS
 62
3
 10
63.085019084834983
 20
37.924370080698282
 11
50.585019084834983
 21
37.924370080698282
  0
ARC
  8
0
  6
CONTINUOUS
 62
3
 10
50.585019084834983
 20
39.924370080698282
 40
2.000000000000000
 50
180.000000000000000
 51
270.000000000000000
  0
LINE
  8
0
  6
CONTINUOUS
 62
3
 10
42.585020038509299
 20
53.558245927560847
 11
42.585020038509299
 21
42.290299684274714
  0
LINE
  8
0
  6
CONTINUOUS
 62
3
 10
49.009566512534263
 20
54.424370080698054
 11
43.085020038509299
 21
54.424370080698054
  0
LINE
  8
0
  6
CONTINUOUS
 62
3
 10
48.585019084834983
 20
41.424370080698054
 11
43.085020992183615
 21
41.424370080698054
  0
LINE
  8
0
  6
CONTINUOUS
 62
3
 10
43.085020676367037
 20
54.424370104766012
 11
42.585020650219974
 21
53.558245964632306
  0
LINE
  8
0
  6
CONTINUOUS
 62
3
 10
43.085021302994335
 20
41.424370103399042
 11
42.585020352801109
 21
42.290299674467633
  0
LINE
  8
0
  6
CONTINUOUS
 62
3
 10
43.085020038509299
 20
54.424370080698054
 11
43.085020038509299
 21
41.424370080698054
  0
LINE
  8
0
  6
CONTINUOUS
 62
3
 10
48.585019084834983
 20
53.192319273129215
 11
48.585019084834983
 21
39.924370080698282
  0
LINE
  8
0
  6
CONTINUOUS
 62
3
 10
50.585019084834983
 20
108.424370080698280
 11
50.585019084834983
 21
39.924370080698282
  0
ARC
  8
0
  6
CONTINUOUS
 62
3
 10
47.585019084834983
 20
68.398301346685457
 40
3.000000000000000
 50
0.000000000000000
 51
86.999999999994344
  0
LINE
  8
0
  6
CONTINUOUS
 62
3
 10
28.085019084836802
 20
72.424370080698282
 11
47.742026953564107
 21
71.394189950949112
  0
LINE
  8
0
  6
CONTINUOUS
 62
3
 10
28.085019084836802
 20
114.924370080698280
 11
28.085019084836802
 21
72.424370080698282
  0
LINE
  8
0
  6
CONTINUOUS
 62
3
 10
62.585019084834983
 20
131.924370080697370
 11
62.585019084840894
 21
225.924370080696010
  0
ARC
  8
0
  6
CONTINUOUS
 62
3
 10
52.585019084840894
 20
223.924370080696920
 40
2.000000000000000
 50
90.000000000000000
 51
180.000000000000000
  0
ARC
  8
0
  6
CONTINUOUS
 62
3
 10
42.585019084841804
 20
149.424370080697370
 40
3.000000000000000
 50
90.000000000000000
 51
179.999999999991330
  0
LINE
  8
0
  6
CONTINUOUS
 62
3
 10
47.585019084835892
 20
152.424370080697370
 11
42.585019084841804
 21
152.424370080697370
  0
ARC
  8
0
  6
CONTINUOUS
 62
3
 10
47.585019084836347
 20
155.424370080697370
 40
3.000000000000000
 50
270.000000000000000
 51
359.999999999991300
  0
LINE
  8
0
  6
CONTINUOUS
 62
3
 10
35.085019084839985
 20
131.924370080697830
 11
35.085019084840894
 21
152.424370080697830
  0
LINE
  8
0
  6
CONTINUOUS
 62
3
 10
39.585019084840894
 20
131.924370080698280
 11
39.585019084841804
 21
152.424370080697830
  0
LINE
  8
0
  6
CONTINUOUS
 62
3
 10
39.585019084841804
 20
152.424370080697830
 11
35.085019084840894
 21
152.424370080697830
  0
LINE
  8
0
  6
CONTINUOUS
 62
3
 10
28.085019084836802
 20
131.924370080698280
 11
28.085019084836802
 21
135.924370080698280
  0
ARC
  8
0
  6
CONTINUOUS
 62
3
 10
48.585019084839530
 20
207.192319273127850
 40
2.000000000000000
 50
0.000000000000000
 51
60.000000000002721
  0
ARC
  8
0
  6
CONTINUOUS
 62
3
 10
50.585019084839985
 20
210.656420888265980
 40
2.000000000000000
 50
180.000000000000000
 51
239.999999999991450
  0
LINE
  8
0
  6
CONTINUOUS
 62
3
 10
63.085019084834983
 20
225.924370080696010
 11
50.585019084840894
 21
225.924370080696920
  0
ARC
  8
0
  6
CONTINUOUS
 62
3
 10
50.585019084840894
 20
223.924370080696920
 40
2.000000000000000
 50
90.000000000000000
 51
180.000000000000000
  0
LINE
  8
0
  6
CONTINUOUS
 62
3
 10
42.585020038514301
 20
210.290494233834810
 11
42.585020038514756
 21
221.558440477120940
  0
LINE
  8
0
  6
CONTINUOUS
 62
3
 10
49.009566512539493
 20
209.424370080696920
 11
43.085020038514301
 21
209.424370080697140
  0
LINE
  8
0
  6
CONTINUOUS
 62
3
 10
48.585019084840894
 20
222.424370080696690
 11
43.085020992189072
 21
222.424370080697140
  0
LINE
  8
0
  6
CONTINUOUS
 62
3
 10
43.085020676372039
 20
209.424370056629190
 11
42.585020650224976
 21
210.290494196763350
  0
LINE
  8
0
  6
CONTINUOUS
 62
3
 10
43.085021302999792
 20
222.424370057996160
 11
42.585020352806566
 21
221.558440486928020
  0
LINE
  8
0
  6
CONTINUOUS
 62
3
 10
43.085020038514301
 20
209.424370080697140
 11
43.085020038514756
 21
222.424370080697140
  0
LINE
  8
0
  6
CONTINUOUS
 62
3
 10
50.585019084836347
 20
155.424370080697370
 11
50.585019084840894
 21
223.924370080696920
  0
ARC
  8
0
  6
CONTINUOUS
 62
3
 10
47.585019084839075
 20
195.450438814710200
 40
2.999999999999925
 50
272.999999999996990
 51
359.999999999991300
  0
LINE
  8
0
  6
CONTINUOUS
 62
3
 10
28.085019084840440
 20
191.424370080698280
 11
47.742026953567745
 21
192.454550210446540
  0
LINE
  8
0
  6
CONTINUOUS
 62
3
 10
28.085019084837711
 20
148.924370080698280
 11
28.085019084840440
 21
191.424370080698280
  0
ARC
  8
0
  6
CONTINUOUS
 62
3
 10
222.685019084857630
 20
116.324370080696550
 40
0.400000000000091
 50
270.000000000000000
 51
0.000000000000000
  0
LINE
  8
0
  6
CONTINUOUS
 62
3
 10
223.085019084857720
 20
131.924370080696920
 11
223.085019084857720
 21
147.524370080696830
  0
LINE
  8
0
  6
CONTINUOUS
 62
3
 10
173.085019084857720
 20
115.124370080696730
 11
172.885019084857900
 21
114.924370080696460
  0
ARC
  8
0
  6
CONTINUOUS
 62
3
 10
173.885019084857900
 20
115.274370080696370
 40
0.800000000000182
 50
90.000000000000000
 51
176.296803365719710
  0
LINE
  8
0
  6
CONTINUOUS
 62
3
 10
173.085019084857720
 20
115.124370080696730
 11
173.085019084857720
 21
131.924370080696460
  0
LINE
  8
0
  6
CONTINUOUS
 62
3
 10
175.085019084857720
 20
116.074370080696550
 11
173.885019084857900
 21
116.074370080696550
  0
LINE
  8
0
  6
CONTINUOUS
 62
3
 10
222.685019084857630
 20
115.924370080696460
 11
175.644826705993130
 21
115.924370080696460
  0
LINE
  8
0
  6
CONTINUOUS
 62
3
 10
171.085019084835440
 20
114.924370080696000
 11
172.885019084857900
 21
114.924370080696460
  0
LINE
  8
0
  6
CONTINUOUS
 62
3
 10
175.085019084857720
 20
116.074370080696550
 11
175.644826705993130
 21
115.924370080696460
  0
LINE
  8
0
  6
CONTINUOUS
 62
3
 10
173.085019084857720
 20
148.724370080696640
 11
172.885019084857900
 21
148.924370080696460
  0
ARC
  8
0
  6
CONTINUOUS
 62
3
 10
173.885019084857900
 20
148.574370080696550
 40
0.800000000000237
 50
183.703196634280290
 51
270.000000000000000
  0
LINE
  8
0
  6
CONTINUOUS
 62
3
 10
173.085019084857720
 20
148.724370080696640
 11
173.085019084857720
 21
131.924370080696460
  0
LINE
  8
0
  6
CONTINUOUS
 62
3
 10
171.085019084835440
 20
148.924370080696920
 11
172.885019084857900
 21
148.924370080696460
  0
LINE
  8
0
  6
CONTINUOUS
 62
3
 10
175.085019084857720
 20
147.774370080696370
 11
173.885019084857900
 21
147.774370080696370
  0
LINE
  8
0
  6
CONTINUOUS
 62
3
 10
175.085019084857720
 20
147.774370080696370
 11
175.644826705993130
 21
147.924370080696460
  0
LINE
  8
0
  6
CONTINUOUS
 62
3
 10
178.085019084857720
 20
115.924370080696910
 11
178.085019084857720
 21
112.924370080696910
  0
LINE
  8
0
  6
CONTINUOUS
 62
3
 10
222.685019084857630
 20
147.924370080696460
 11
175.644826705993130
 21
147.924370080696460
  0
LINE
  8
0
  6
CONTINUOUS
 62
3
 10
223.085019084857720
 20
112.924370080696910
 11
178.085019084857720
 21
112.924370080696910
  0
ARC
  8
0
  6
CONTINUOUS
 62
3
 10
222.685019084857630
 20
147.524370080696370
 40
0.400000000000091
 50
0.000000000000000
 51
90.000000000000000
  0
LINE
  8
0
  6
CONTINUOUS
 62
3
 10
223.085019084857720
 20
131.924370080696920
 11
223.085019084857720
 21
112.924370080696910
  0
LINE
  8
0
  6
CONTINUOUS
 62
3
 10
68.085019084834983
 20
30.126498393089946
 11
166.172281117020650
 21
31.838617920492993
  0
ARC
  8
0
  6
CONTINUOUS
 62
3
 10
166.085019084834980
 20
197.660546824311040
 40
3.000000000000000
 50
0.000000000000000
 51
39.469308363515758
  0
ARC
  8
0
  6
CONTINUOUS
 62
3
 10
164.684861057384240
 20
199.306122849671740
 40
3.000000000000300
 50
41.317082812093204
 51
88.999999999989555
  0
ARC
  8
0
  6
CONTINUOUS
 62
3
 10
138.159242362823480
 20
217.702910808879550
 40
2.999999999999899
 50
4.937727294942317
 51
69.196592175621532
  0
ARC
  8
0
  6
CONTINUOUS
 62
3
 10
114.363350634224780
 20
155.071005705802240
 40
70.000000000000043
 50
39.469308363516802
 51
41.317082812097503
  0
ARC
  8
0
  6
CONTINUOUS
 62
3
 10
114.363350634224780
 20
155.071005705802240
 40
70.000000000000156
 50
69.196592175610675
 51
88.999999999999716
  0
CIRCLE
  8
0
  6
CONTINUOUS
 62
3
 10
23.085019084834983
 20
219.424370080696920
 40
6.000000000000000
  0
ARC
  8
0
  6
CONTINUOUS
 62
3
 10
170.085019084835890
 20
166.424370080696920
 40
1.000000000000000
 50
180.000000000000000
 51
270.000000000000000
  0
ARC
  8
0
  6
CONTINUOUS
 62
3
 10
158.085019084834980
 20
219.424370080696920
 40
16.999999999999638
 50
184.937727294950460
 51
268.999999999999770
  0
ARC
  8
0
  6
CONTINUOUS
 62
3
 10
158.085019084834980
 20
44.424370080696917
 40
16.999999999999773
 50
91.000000000000256
 51
175.062272705051070
  0
ARC
  8
0
  6
CONTINUOUS
 62
3
 10
170.085019084834980
 20
97.424370080696917
 40
1.000000000000000
 50
90.000000000000000
 51
180.000000000000000
  0
CIRCLE
  8
0
  6
CONTINUOUS
 62
3
 10
158.085019084834980
 20
44.424370080696917
 40
6.000000000000000
  0
CIRCLE
  8
0
  6
CONTINUOUS
 62
3
 10
23.085019084834983
 20
44.424370080696917
 40
6.000000000000000
  0
ARC
  8
0
  6
CONTINUOUS
 62
3
 10
114.363350634224780
 20
108.777734455591140
 40
70.000000000000014
 50
271.000000000000280
 51
290.803407824389690
  0
ARC
  8
0
  6
CONTINUOUS
 62
3
 10
114.363350634224780
 20
108.777734455591140
 40
70.000000000000327
 50
318.682917187902550
 51
320.530691636482910
  0
ARC
  8
0
  6
CONTINUOUS
 62
3
 10
138.159242362823480
 20
46.145829352514284
 40
3.000000000000189
 50
290.803407824383500
 51
355.062272705049050
  0
ARC
  8
0
  6
CONTINUOUS
 62
3
 10
164.684861057384240
 20
64.542617311721642
 40
3.000000000000049
 50
271.000000000010400
 51
318.682917187906810
  0
ARC
  8
0
  6
CONTINUOUS
 62
3
 10
166.085019084834980
 20
66.188193337081884
 40
3.000000000000058
 50
320.530691636484220
 51
0.000000000000000
  0
CIRCLE
  8
0
  6
CONTINUOUS
 62
3
 10
158.085019084834980
 20
219.424370080696920
 40
6.000000000000000
  0
LINE
  8
0
  6
DASHDOT
 62
4
 10
23.085019084834983
 20
231.448466466239100
 11
23.085019084834983
 21
207.400273695154740
  0
LINE
  8
0
  6
DASHDOT
 62
4
 10
35.109115470377162
 20
219.424370080696920
 11
11.060922699292803
 21
219.424370080696920
  0
LINE
  8
0
  6
CONTINUOUS
 62
3
 10
63.085019084834983
 20
131.924370080696920
 11
63.085019084834983
 21
225.924370080696920
  0
LINE
  8
0
  6
CONTINUOUS
 62
3
 10
63.085019084834983
 20
225.976735275481590
 11
115.585019084834980
 21
225.060344366749630
  0
LINE
  8
0
  6
CONTINUOUS
 62
3
 10
157.788328175401090
 20
202.426959263038040
 11
164.737218276696640
 21
202.305665935140950
  0
LINE
  8
0
  6
CONTINUOUS
 62
3
 10
169.085019084834980
 20
131.924370080696920
 11
169.085019084834980
 21
197.660546824311040
  0
LINE
  8
0
  6
CONTINUOUS
 62
3
 10
171.085019084836350
 20
131.924370080696920
 11
171.085019084834070
 21
227.010883765118250
  0
LINE
  8
0
  6
CONTINUOUS
 62
3
 10
171.085019084834980
 20
56.924370080696463
 11
171.085019084834070
 21
36.924373052292594
  0
LINE
  8
0
  6
CONTINUOUS
 62
3
 10
171.085019084835890
 20
131.924370080696920
 11
171.085019084834070
 21
36.837856396275129
  0
LINE
  8
0
  6
CONTINUOUS
 62
3
 10
169.085019084834980
 20
131.924370080696920
 11
169.085019084834980
 21
66.188193337081884
  0
LINE
  8
0
  6
CONTINUOUS
 62
3
 10
157.788328175401090
 20
61.421780898355337
 11
164.737218276696640
 21
61.543074226252429
  0
LINE
  8
0
  6
CONTINUOUS
 62
3
 10
63.085019084834983
 20
37.872004885912247
 11
115.585019084834980
 21
38.788395794643748
  0
LINE
  8
0
  6
CONTINUOUS
 62
3
 10
63.085019084834983
 20
131.924370080696920
 11
63.085019084834983
 21
37.924370080696917
  0
LINE
  8
0
  6
DASHDOT
 62
4
 10
35.109115470377162
 20
44.424370080696917
 11
11.060922699292803
 21
44.424370080696917
  0
LINE
  8
0
  6
CONTINUOUS
 62
3
 10
10.085019084834983
 20
206.623902991007980
 11
10.085019084834983
 21
227.076957438933730
  0
LINE
  8
0
  6
CONTINUOUS
 62
3
 10
68.085019084834983
 20
233.722241768302870
 11
166.172281117020650
 21
232.010122240900270
  0
LINE
  8
0
  6
CONTINUOUS
 62
3
 10
10.085019084834983
 20
57.224837170384944
 11
10.085019084834983
 21
36.771782722459193
  0
ARC
  8
0
  6
CONTINUOUS
 62
3
 10
29.720341102396958
 20
67.267867541619125
 40
5.000000000000068
 50
271.000000000001760
 51
273.824403028645630
  0
LINE
  8
0
  6
CONTINUOUS
 62
3
 10
30.053835458345418
 20
62.279001787307152
 11
50.585019084834983
 21
63.651464827519703
  0
ARC
  8
0
  6
CONTINUOUS
 62
3
 10
15.085019084834983
 20
57.010883765118251
 40
4.999999999999606
 50
90.999999999996646
 51
180.000000000000000
  0
LINE
  8
0
  6
CONTINUOUS
 62
3
 10
14.997757052648865
 20
62.010122240899818
 11
29.807603134583530
 21
62.268629065837104
  0
LINE
  8
0
  6
CONTINUOUS
 62
3
 10
30.053835458345418
 20
201.569738374086680
 11
50.585019084839530
 21
200.197275333873220
  0
ARC
  8
0
  6
CONTINUOUS
 62
3
 10
29.720341102396958
 20
196.580872619774250
 40
5.000000000000079
 50
86.175596971354679
 51
88.999999999998138
  0
ARC
  8
0
  6
CONTINUOUS
 62
3
 10
15.085019084834983
 20
206.837856396275130
 40
5.000000000000000
 50
180.000000000000000
 51
269.000000000003410
  0
LINE
  8
0
  6
CONTINUOUS
 62
3
 10
14.997757052648865
 20
201.838617920493110
 11
29.807603134583530
 21
201.580111095555820
  0
LINE
  8
0
  6
CONTINUOUS
 62
3
 10
15.093091241546460
 20
58.150233313075205
 11
43.849205651121281
 21
58.652173157177913
  0
LINE
  8
0
  6
CONTINUOUS
 62
3
 10
15.093091241546460
 20
205.698506848318170
 11
43.849205651121281
 21
205.196567004215920
  0
ARC
  8
0
  6
CONTINUOUS
 62
3
 10
15.085019084834983
 20
36.771782722459193
 40
5.000000000000000
 50
180.000000000000000
 51
268.224526106217870
  0
LINE
  8
0
  6
CONTINUOUS
 62
3
 10
14.930104554186926
 20
31.774183149845499
 11
68.085019084834983
 21
30.126498393089946
  0
ARC
  8
0
  6
CONTINUOUS
 62
3
 10
166.085019084834070
 20
36.837856396275129
 40
5.000000000000182
 50
271.000000000001760
 51
359.999999999994830
  0
LINE
  8
0
  6
CONTINUOUS
 62
3
 10
170.085019084834980
 20
98.424370080696917
 11
171.085019084834980
 21
98.424370080696917
  0
LINE
  8
0
  6
CONTINUOUS
 62
3
 10
170.085019084835890
 20
165.424370080696920
 11
171.085019084835890
 21
165.424370080696920
  0
LINE
  8
0
  6
CONTINUOUS
 62
3
 10
14.930104554186926
 20
232.074557011548220
 11
68.085019084834983
 21
233.722241768302870
  0
ARC
  8
0
  6
CONTINUOUS
 62
3
 10
15.085019084834983
 20
227.076957438933730
 40
5.000000000000244
 50
91.775473893781850
 51
180.000000000000000
  0
ARC
  8
0
  6
CONTINUOUS
 62
3
 10
166.085019084834070
 20
227.010883765118250
 40
5.000000000000000
 50
0.000000000000000
 51
88.999999999998238
  0
ARC
  8
0
  6
CONTINUOUS
 62
3
 10
-115.414980915163190
 20
201.424370080696690
 40
5.000000000000000
 50
180.000000000000000
 51
270.000000000000000
  0
LINE
  8
0
  6
CONTINUOUS
 62
3
 10
-120.414980915163190
 20
191.424370080696690
 11
-120.414980915163190
 21
196.424370080696690
  0
LINE
  8
0
  6
DASHDOT
 62
3
 10
3.585019084836802
 20
191.424370080696690
 11
3.585019084836802
 21
196.424370080696690
  0
ARC
  8
0
  6
CONTINUOUS
 62
3
 10
-1.414980915163198
 20
201.424370080696690
 40
5.000000000000000
 50
270.000000000000000
 51
0.000000000000000
  0
LINE
  8
0
  6
DASHDOT
 62
3
 10
3.585019084836802
 20
191.424370080696690
 11
3.585019084836802
 21
196.424370080696690
  0
LINE
  8
0
  6
CONTINUOUS
 62
3
 10
-120.414980915163190
 20
196.424370080696690
 11
3.585019084836802
 21
196.424370080696690
  0
LINE
  8
0
  6
CONTINUOUS
 62
3
 10
-6.914980915163198
 20
215.085395140383640
 11
-109.914980915163190
 21
215.085395140383640
  0
ARC
  8
0
  6
CONTINUOUS
 62
3
 10
-1.414980915163198
 20
220.085395140383640
 40
5.000000000000072
 50
287.457603123721870
 51
0.000000000000000
  0
ARC
  8
0
  6
CONTINUOUS
 62
3
 10
-1.214980915163380
 20
215.761941266125970
 40
1.300000000000182
 50
0.000000000000000
 51
73.398450400977637
  0
ARC
  8
0
  6
CONTINUOUS
 62
3
 10
-3.414980915163198
 20
208.382916940376390
 40
9.000000000000233
 50
73.398450400981076
 51
106.601549599018900
  0
ARC
  8
0
  6
CONTINUOUS
 62
3
 10
-5.614980915163017
 20
215.761941266125970
 40
1.300000000000019
 50
106.601549599022360
 51
180.000000000000000
  0
LINE
  8
0
  6
CONTINUOUS
 62
3
 10
0.085019084836802
 20
215.761941266125970
 11
0.085019084836802
 21
214.774931528201590
  0
POLYLINE
  8
0
  6
CONTINUOUS
 62
3
 66
1
  0
VERTEX
  8
0
  6
CONTINUOUS
 62
3
 10
-6.914980915163198
 20
214.774931528201590
  0
VERTEX
  8
0
  6
CONTINUOUS
 62
3
 10
-6.847729396574505
 20
214.740833318005600
  0
VERTEX
  8
0
  6
CONTINUOUS
 62
3
 10
-6.648559278952701
 20
214.708045482904960
  0
VERTEX
  8
0
  6
CONTINUOUS
 62
3
 10
-6.325124558222107
 20
214.677828041014950
  0
VERTEX
  8
0
  6
CONTINUOUS
 62
3
 10
-5.889854649316115
 20
214.651342231681240
  0
VERTEX
  8
0
  6
CONTINUOUS
 62
3
 10
-5.359476730731807
 20
214.629605889703160
  0
VERTEX
  8
0
  6
CONTINUOUS
 62
3
 10
-4.754372928441013
 20
214.613454330512980
  0
VERTEX
  8
0
  6
CONTINUOUS
 62
3
 10
-4.097797042219648
 20
214.603508249472530
  0
VERTEX
  8
0
  6
CONTINUOUS
 62
3
 10
-3.414980915163199
 20
214.600149868898370
  0
VERTEX
  8
0
  6
CONTINUOUS
 62
3
 10
-2.732164788106751
 20
214.603508249472530
  0
VERTEX
  8
0
  6
CONTINUOUS
 62
3
 10
-2.075588901885386
 20
214.613454330512980
  0
VERTEX
  8
0
  6
CONTINUOUS
 62
3
 10
-1.470485099594592
 20
214.629605889703160
  0
VERTEX
  8
0
  6
CONTINUOUS
 62
3
 10
-0.940107181010284
 20
214.651342231681240
  0
VERTEX
  8
0
  6
CONTINUOUS
 62
3
 10
-0.504837272104292
 20
214.677828041014950
  0
VERTEX
  8
0
  6
CONTINUOUS
 62
3
 10
-0.181402551373697
 20
214.708045482904960
  0
VERTEX
  8
0
  6
CONTINUOUS
 62
3
 10
0.017767566248106
 20
214.740833318005600
  0
VERTEX
  8
0
  6
CONTINUOUS
 62
3
 10
0.085019084836799
 20
214.774931528201590
  0
SEQEND
  8
0
  6
CONTINUOUS
 62
3
  0
LINE
  8
0
  6
CONTINUOUS
 62
3
 10
-6.914980915163198
 20
215.761941266125970
 11
-6.914980915163198
 21
214.774931528201590
  0
ARC
  8
0
  6
CONTINUOUS
 62
3
 10
-115.414980915163190
 20
220.085395140383640
 40
5.000000000000000
 50
180.000000000000000
 51
252.542396876278160
  0
LINE
  8
0
  6
CONTINUOUS
 62
3
 10
-116.914980915163190
 20
215.761941266125970
 11
-116.914980915163190
 21
214.774931528201590
  0
LINE
  8
0
  6
CONTINUOUS
 62
3
 10
-109.914980915163190
 20
215.761941266125970
 11
-109.914980915163190
 21
214.774931528201590
  0
ARC
  8
0
  6
CONTINUOUS
 62
3
 10
-115.614980915163010
 20
215.761941266125970
 40
1.300000000000019
 50
106.601549599022360
 51
180.000000000000000
  0
ARC
  8
0
  6
CONTINUOUS
 62
3
 10
-113.414980915163190
 20
208.382916940376390
 40
9.000000000000233
 50
73.398450400981076
 51
106.601549599018900
  0
ARC
  8
0
  6
CONTINUOUS
 62
3
 10
-111.214980915163380
 20
215.761941266125970
 40
1.300000000000182
 50
0.000000000000000
 51
73.398450400977637
  0
POLYLINE
  8
0
  6
CONTINUOUS
 62
3
 66
1
  0
VERTEX
  8
0
  6
CONTINUOUS
 62
3
 10
-116.914980915163190
 20
214.774931528201590
  0
VERTEX
  8
0
  6
CONTINUOUS
 62
3
 10
-116.847729396574500
 20
214.740833318005600
  0
VERTEX
  8
0
  6
CONTINUOUS
 62
3
 10
-116.648559278952700
 20
214.708045482904960
  0
VERTEX
  8
0
  6
CONTINUOUS
 62
3
 10
-116.325124558222100
 20
214.677828041014950
  0
VERTEX
  8
0
  6
CONTINUOUS
 62
3
 10
-115.889854649316120
 20
214.651342231681240
  0
VERTEX
  8
0
  6
CONTINUOUS
 62
3
 10
-115.359476730731810
 20
214.629605889703160
  0
VERTEX
  8
0
  6
CONTINUOUS
 62
3
 10
-114.754372928441010
 20
214.613454330512980
  0
VERTEX
  8
0
  6
CONTINUOUS
 62
3
 10
-114.097797042219650
 20
214.603508249472530
  0
VERTEX
  8
0
  6
CONTINUOUS
 62
3
 10
-113.414980915163190
 20
214.600149868898370
  0
VERTEX
  8
0
  6
CONTINUOUS
 62
3
 10
-112.732164788106750
 20
214.603508249472530
  0
VERTEX
  8
0
  6
CONTINUOUS
 62
3
 10
-112.075588901885380
 20
214.613454330512980
  0
VERTEX
  8
0
  6
CONTINUOUS
 62
3
 10
-111.470485099594590
 20
214.629605889703160
  0
VERTEX
  8
0
  6
CONTINUOUS
 62
3
 10
-110.940107181010290
 20
214.651342231681240
  0
VERTEX
  8
0
  6
CONTINUOUS
 62
3
 10
-110.504837272104290
 20
214.677828041014950
  0
VERTEX
  8
0
  6
CONTINUOUS
 62
3
 10
-110.181402551373690
 20
214.708045482904960
  0
VERTEX
  8
0
  6
CONTINUOUS
 62
3
 10
-109.982232433751880
 20
214.740833318005600
  0
VERTEX
  8
0
  6
CONTINUOUS
 62
3
 10
-109.914980915163190
 20
214.774931528201590
  0
SEQEND
  8
0
  6
CONTINUOUS
 62
3
  0
LINE
  8
0
  6
CONTINUOUS
 62
3
 10
3.585019084836802
 20
220.085395140383640
 11
3.585019084836802
 21
233.024370080696710
  0
LINE
  8
0
  6
CONTINUOUS
 62
3
 10
-120.414980915163190
 20
220.085395140383640
 11
-120.414980915163190
 21
233.024370080696710
  0
LINE
  8
0
  6
CONTINUOUS
 62
3
 10
-120.414980915163190
 20
219.618880371759020
 11
-121.414980915163190
 21
219.618880371759020
  0
LINE
  8
0
  6
CONTINUOUS
 62
3
 10
4.585019084836802
 20
214.525243443481830
 11
-121.414980915163190
 21
214.525243443481830
  0
ARC
  8
0
  6
CONTINUOUS
 62
3
 10
-115.414980915163190
 20
233.024370080696710
 40
5.000000000000000
 50
90.000000000000000
 51
180.000000000000000
  0
ARC
  8
0
  6
CONTINUOUS
 62
3
 10
-121.414980915163190
 20
217.618880371759020
 40
2.000000000000000
 50
90.000000000000000
 51
180.000000000000000
  0
ARC
  8
0
  6
CONTINUOUS
 62
3
 10
-121.414980915163190
 20
216.525243443481830
 40
2.000000000000000
 50
180.000000000000000
 51
270.000000000000000
  0
ARC
  8
0
  6
CONTINUOUS
 62
3
 10
-121.414980915163190
 20
215.726241572396590
 40
2.000000000000000
 50
180.000000000000000
 51
270.000000000000000
  0
LINE
  8
0
  6
CONTINUOUS
 62
3
 10
-123.414980915163190
 20
217.618880371759020
 11
-123.414980915163190
 21
214.927239701277700
  0
ARC
  8
0
  6
CONTINUOUS
 62
3
 10
-121.414980915163190
 20
214.927239701277700
 40
2.000000000000000
 50
180.000000000000000
 51
270.000000000000000
  0
LINE
  8
0
  6
CONTINUOUS
 62
3
 10
-120.414980915163190
 20
201.424370080696690
 11
-120.414980915163190
 21
212.927239701277700
  0
ARC
  8
0
  6
CONTINUOUS
 62
3
 10
-1.414980915163198
 20
233.024370080696710
 40
5.000000000000000
 50
0.000000000000000
 51
90.000000000000000
  0
LINE
  8
0
  6
CONTINUOUS
 62
3
 10
-115.414980915163190
 20
238.024370080696710
 11
-1.414980915163198
 21
238.024370080696710
  0
LINE
  8
0
  6
CONTINUOUS
 62
3
 10
3.585019084836802
 20
201.424370080696690
 11
3.585019084836802
 21
212.726241572396590
  0
LINE
  8
0
  6
CONTINUOUS
 62
3
 10
6.585019084836802
 20
217.618880371759020
 11
6.585019084836802
 21
214.927239701277700
  0
LINE
  8
0
  6
CONTINUOUS
 62
3
 10
4.585019084836802
 20
213.726241572379760
 11
-121.414980915163190
 21
213.726241572379760
  0
LINE
  8
0
  6
CONTINUOUS
 62
3
 10
4.585019084836802
 20
212.927239701277700
 11
-121.414980915163190
 21
212.927239701277700
  0
LINE
  8
0
  6
CONTINUOUS
 62
3
 10
3.585019084836802
 20
219.618880371759020
 11
4.585019084836802
 21
219.618880371759020
  0
ARC
  8
0
  6
CONTINUOUS
 62
3
 10
4.585019084836802
 20
217.618880371759020
 40
2.000000000000000
 50
0.000000000000000
 51
90.000000000000000
  0
ARC
  8
0
  6
CONTINUOUS
 62
3
 10
4.585019084836802
 20
216.525243443481830
 40
2.000000000000000
 50
270.000000000000000
 51
0.000000000000000
  0
ARC
  8
0
  6
CONTINUOUS
 62
3
 10
4.585019084836802
 20
215.726241572396590
 40
2.000000000000000
 50
270.000000000000000
 51
0.000000000000000
  0
ARC
  8
0
  6
CONTINUOUS
 62
3
 10
4.585019084836802
 20
214.927239701277700
 40
2.000000000000000
 50
270.000000000000000
 51
0.000000000000000
  0
LINE
  8
0
  6
CONTINUOUS
 62
3
 10
-127.914980915162970
 20
70.305149163824126
 11
-123.914980915163190
 21
70.305149163824126
  0
LINE
  8
0
  6
CONTINUOUS
 62
3
 10
-223.914980915112950
 20
131.924370080696920
 11
-223.914980915112950
 21
79.481165023451467
  0
LINE
  8
0
  6
CONTINUOUS
 62
3
 10
-120.914980915163190
 20
131.924370080696920
 11
-120.914980915163190
 21
73.305149163824126
  0
ARC
  8
0
  6
CONTINUOUS
 62
3
 10
-127.914980915162970
 20
67.305149163824126
 40
3.000000000000000
 50
90.000000000000000
 51
180.000000000000000
  0
ARC
  8
0
  6
CONTINUOUS
 62
3
 10
-123.914980915163190
 20
73.305149163824126
 40
3.000000000000000
 50
270.000000000000000
 51
0.000000000000000
  0
ARC
  8
0
  6
CONTINUOUS
 62
3
 10
-221.314980915112810
 20
184.367575137942370
 40
2.599999999999721
 50
125.000000000001370
 51
180.000000000000000
  0
LINE
  8
0
  6
CONTINUOUS
 62
3
 10
-213.080533864604430
 20
193.307410966476710
 11
-222.806279649625420
 21
186.497370453093480
  0
ARC
  8
0
  6
CONTINUOUS
 62
3
 10
-201.609005137583440
 20
176.924370080696920
 40
20.000000000000000
 50
90.000000000000000
 51
125.000000000000240
  0
LINE
  8
0
  6
CONTINUOUS
 62
3
 10
-223.914980915112950
 20
131.924370080696920
 11
-223.914980915112950
 21
184.367575137942370
  0
LINE
  8
0
  6
CONTINUOUS
 62
3
 10
-120.914980915163190
 20
196.924370080696920
 11
-201.609005137583440
 21
196.924370080696920
  0
LINE
  8
0
  6
CONTINUOUS
 62
3
 10
-53.914980915163198
 20
191.424370080696920
 11
28.085019084836802
 21
191.424370080696920
  0
LINE
  8
0
  6
CONTINUOUS
 62
4
 10
-120.914980915163190
 20
188.924370080696920
 11
28.085019084836802
 21
188.924370080696920
  0
LINE
  8
0
  6
CONTINUOUS
 62
4
 10
-120.914980915163190
 20
187.924370080696920
 11
28.085019084836802
 21
187.924370080696920
  0
LINE
  8
0
  6
CONTINUOUS
 62
4
 10
-120.914980915163190
 20
186.924370080696920
 11
28.085019084836802
 21
186.924370080696920
  0
LINE
  8
0
  6
CONTINUOUS
 62
3
 10
-120.914980915163190
 20
131.924370080696920
 11
-120.914980915163190
 21
196.924370080696920
  0
LINE
  8
0
  6
CONTINUOUS
 62
4
 10
-120.914980915163190
 20
182.239904267472640
 11
28.085019084836802
 21
182.239904267472640
  0
LINE
  8
0
  6
CONTINUOUS
 62
4
 10
-120.914980915163190
 20
177.290156799166880
 11
28.085019084836802
 21
177.290156799166880
  0
LINE
  8
0
  6
CONTINUOUS
 62
4
 10
-120.914980915163190
 20
151.297631890198090
 11
28.085019084836802
 21
151.297631890198090
  0
LINE
  8
0
  6
CONTINUOUS
 62
4
 10
-120.914980915163190
 20
152.563869806285310
 11
28.085019084836802
 21
152.563869806285310
  0
LINE
  8
0
  6
CONTINUOUS
 62
4
 10
-120.914980915163190
 20
156.754423537827510
 11
28.085019084836802
 21
156.754423537827510
  0
LINE
  8
0
  6
CONTINUOUS
 62
4
 10
-120.914980915163190
 20
158.116303873176780
 11
28.085019084836802
 21
158.116303873176780
  0
LINE
  8
0
  6
CONTINUOUS
 62
4
 10
-120.914980915163190
 20
162.206804407266650
 11
28.085019084836802
 21
162.206804407266650
  0
LINE
  8
0
  6
CONTINUOUS
 62
4
 10
-120.914980915163190
 20
163.675161797071270
 11
28.085019084836802
 21
163.675161797071270
  0
LINE
  8
0
  6
CONTINUOUS
 62
4
 10
-120.914980915163190
 20
167.638907220870810
 11
28.085019084836802
 21
167.638907220870810
  0
LINE
  8
0
  6
CONTINUOUS
 62
4
 10
-120.914980915163190
 20
169.243555136432860
 11
28.085019084836802
 21
169.243555136432860
  0
LINE
  8
0
  6
CONTINUOUS
 62
4
 10
-120.914980915163190
 20
112.551108271195740
 11
28.085019084836802
 21
112.551108271195740
  0
LINE
  8
0
  6
CONTINUOUS
 62
4
 10
-120.914980915163190
 20
111.284870355108520
 11
28.085019084836802
 21
111.284870355108520
  0
LINE
  8
0
  6
CONTINUOUS
 62
4
 10
-120.914980915163190
 20
107.094316623566320
 11
28.085019084836802
 21
107.094316623566320
  0
LINE
  8
0
  6
CONTINUOUS
 62
4
 10
-120.914980915163190
 20
105.732436288217050
 11
28.085019084836802
 21
105.732436288217050
  0
LINE
  8
0
  6
CONTINUOUS
 62
4
 10
-120.914980915163190
 20
101.641935754127180
 11
28.085019084836802
 21
101.641935754127180
  0
LINE
  8
0
  6
CONTINUOUS
 62
4
 10
-120.914980915163190
 20
100.173578364322560
 11
28.085019084836802
 21
100.173578364322560
  0
LINE
  8
0
  6
CONTINUOUS
 62
4
 10
-120.914980915163190
 20
96.209832940523029
 11
28.085019084836802
 21
96.209832940523029
  0
LINE
  8
0
  6
CONTINUOUS
 62
4
 10
-120.914980915163190
 20
94.605185024960974
 11
28.085019084836802
 21
94.605185024960974
  0
LINE
  8
0
  6
CONTINUOUS
 62
4
 10
-120.914980915163190
 20
86.558583362226955
 11
28.085019084836802
 21
86.558583362226955
  0
LINE
  8
0
  6
CONTINUOUS
 62
4
 10
-120.914980915163190
 20
76.924370080696917
 11
28.085019084836802
 21
76.924370080696917
  0
LINE
  8
0
  6
CONTINUOUS
 62
4
 10
-120.914980915163190
 20
75.924370080696917
 11
28.085019084836802
 21
75.924370080696917
  0
LINE
  8
0
  6
CONTINUOUS
 62
4
 10
-120.914980915163190
 20
74.924370080696917
 11
28.085019084836802
 21
74.924370080696917
  0
LINE
  8
0
  6
CONTINUOUS
 62
3
 10
-131.914980915162520
 20
185.664485181134520
 11
-133.914980915162520
 21
184.011843542011090
  0
LINE
  8
0
  6
CONTINUOUS
 62
3
 10
-129.914980915162520
 20
186.840270666757310
 11
-131.914980915162520
 21
185.664485181134520
  0
LINE
  8
0
  6
CONTINUOUS
 62
3
 10
-131.914980915162520
 20
185.664485181134520
 11
-129.914980915162520
 21
184.011843542011090
  0
LINE
  8
0
  6
CONTINUOUS
 62
3
 10
-133.914980915162520
 20
186.840270666757310
 11
-131.914980915162520
 21
185.664485181134520
  0
POLYLINE
  8
0
  6
CONTINUOUS
 62
3
 66
1
 70
1
  0
VERTEX
  8
0
  6
CONTINUOUS
 62
3
 10
-127.214980915162520
 20
183.847895112756990
  0
VERTEX
  8
0
  6
CONTINUOUS
 62
3
 10
-127.305290097267340
 20
184.550852078957350
  0
VERTEX
  8
0
  6
CONTINUOUS
 62
3
 10
-127.572747112359480
 20
185.226794803169440
  0
VERTEX
  8
0
  6
CONTINUOUS
 62
3
 10
-128.007073737340560
 20
185.849747185574840
  0
VERTEX
  8
0
  6
CONTINUOUS
 62
3
 10
-128.591579043585740
 20
186.395769515473430
  0
VERTEX
  8
0
  6
CONTINUOUS
 62
3
 10
-129.303800819970410
 20
186.843878460940060
  0
VERTEX
  8
0
  6
CONTINUOUS
 62
3
 10
-130.116368783046600
 20
187.176853446502800
  0
VERTEX
  8
0
  6
CONTINUOUS
 62
3
 10
-130.998056401686710
 20
187.381898430201060
  0
VERTEX
  8
0
  6
CONTINUOUS
 62
3
 10
-131.914980915162520
 20
187.451133648301830
  0
VERTEX
  8
0
  6
CONTINUOUS
 62
3
 10
-132.831905428638320
 20
187.381898430201060
  0
VERTEX
  8
0
  6
CONTINUOUS
 62
3
 10
-133.713593047278440
 20
187.176853446502800
  0
VERTEX
  8
0
  6
CONTINUOUS
 62
3
 10
-134.526161010354630
 20
186.843878460940060
  0
VERTEX
  8
0
  6
CONTINUOUS
 62
3
 10
-135.238382786739290
 20
186.395769515473430
  0
VERTEX
  8
0
  6
CONTINUOUS
 62
3
 10
-135.822888092984470
 20
185.849747185574840
  0
VERTEX
  8
0
  6
CONTINUOUS
 62
3
 10
-136.257214717965550
 20
185.226794803169440
  0
VERTEX
  8
0
  6
CONTINUOUS
 62
3
 10
-136.524671733057690
 20
184.550852078957350
  0
VERTEX
  8
0
  6
CONTINUOUS
 62
3
 10
-136.614980915162500
 20
183.847895112756990
  0
VERTEX
  8
0
  6
CONTINUOUS
 62
3
 10
-136.524671733057690
 20
183.144938146556630
  0
VERTEX
  8
0
  6
CONTINUOUS
 62
3
 10
-136.257214717965550
 20
182.468995422344530
  0
VERTEX
  8
0
  6
CONTINUOUS
 62
3
 10
-135.822888092984470
 20
181.846043039939130
  0
VERTEX
  8
0
  6
CONTINUOUS
 62
3
 10
-135.238382786739270
 20
181.300020710040540
  0
VERTEX
  8
0
  6
CONTINUOUS
 62
3
 10
-134.526161010354630
 20
180.851911764573910
  0
VERTEX
  8
0
  6
CONTINUOUS
 62
3
 10
-133.713593047278440
 20
180.518936779011170
  0
VERTEX
  8
0
  6
CONTINUOUS
 62
3
 10
-132.831905428638320
 20
180.313891795312910
  0
VERTEX
  8
0
  6
CONTINUOUS
 62
3
 10
-131.914980915162520
 20
180.244656577212140
  0
VERTEX
  8
0
  6
CONTINUOUS
 62
3
 10
-130.998056401686710
 20
180.313891795312910
  0
VERTEX
  8
0
  6
CONTINUOUS
 62
3
 10
-130.116368783046600
 20
180.518936779011170
  0
VERTEX
  8
0
  6
CONTINUOUS
 62
3
 10
-129.303800819970410
 20
180.851911764573910
  0
VERTEX
  8
0
  6
CONTINUOUS
 62
3
 10
-128.591579043585770
 20
181.300020710040540
  0
VERTEX
  8
0
  6
CONTINUOUS
 62
3
 10
-128.007073737340560
 20
181.846043039939130
  0
VERTEX
  8
0
  6
CONTINUOUS
 62
3
 10
-127.572747112359480
 20
182.468995422344530
  0
VERTEX
  8
0
  6
CONTINUOUS
 62
3
 10
-127.305290097267340
 20
183.144938146556630
  0
SEQEND
  8
0
  6
CONTINUOUS
 62
3
  0
LINE
  8
0
  6
CONTINUOUS
 62
3
 10
-131.914980915162520
 20
78.184254980259084
 11
-133.914980915162520
 21
79.836896619382514
  0
LINE
  8
0
  6
CONTINUOUS
 62
3
 10
-129.914980915162520
 20
77.008469494636756
 11
-131.914980915162520
 21
78.184254980259084
  0
LINE
  8
0
  6
CONTINUOUS
 62
3
 10
-38.714980915163380
 20
72.424370080696917
 11
28.085019084836802
 21
72.424370080696917
  0
ARC
  8
0
  6
CONTINUOUS
 62
3
 10
-201.609005137583440
 20
86.924370080696917
 40
20.000000000000007
 50
234.999999999999740
 51
270.000000000000000
  0
LINE
  8
0
  6
CONTINUOUS
 62
3
 10
-131.914980915162520
 20
78.184254980259084
 11
-129.914980915162520
 21
79.836896619382514
  0
LINE
  8
0
  6
CONTINUOUS
 62
3
 10
-133.914980915162520
 20
77.008469494636756
 11
-131.914980915162520
 21
78.184254980259084
  0
POLYLINE
  8
0
  6
CONTINUOUS
 62
3
 66
1
 70
1
  0
VERTEX
  8
0
  6
CONTINUOUS
 62
3
 10
-127.214980915162520
 20
80.000845048637075
  0
VERTEX
  8
0
  6
CONTINUOUS
 62
3
 10
-127.305290097267340
 20
80.703802014837436
  0
VERTEX
  8
0
  6
CONTINUOUS
 62
3
 10
-127.572747112359480
 20
81.379744739049528
  0
VERTEX
  8
0
  6
CONTINUOUS
 62
3
 10
-128.007073737340560
 20
82.002697121454929
  0
VERTEX
  8
0
  6
CONTINUOUS
 62
3
 10
-128.591579043585740
 20
82.548719451353506
  0
VERTEX
  8
0
  6
CONTINUOUS
 62
3
 10
-129.303800819970410
 20
82.996828396820121
  0
VERTEX
  8
0
  6
CONTINUOUS
 62
3
 10
-130.116368783046600
 20
83.329803382382892
  0
VERTEX
  8
0
  6
CONTINUOUS
 62
3
 10
-130.998056401686710
 20
83.534848366081135
  0
VERTEX
  8
0
  6
CONTINUOUS
 62
3
 10
-131.914980915162520
 20
83.604083584181907
  0
VERTEX
  8
0
  6
CONTINUOUS
 62
3
 10
-132.831905428638320
 20
83.534848366081135
  0
VERTEX
  8
0
  6
CONTINUOUS
 62
3
 10
-133.713593047278440
 20
83.329803382382892
  0
VERTEX
  8
0
  6
CONTINUOUS
 62
3
 10
-134.526161010354630
 20
82.996828396820121
  0
VERTEX
  8
0
  6
CONTINUOUS
 62
3
 10
-135.238382786739290
 20
82.548719451353506
  0
VERTEX
  8
0
  6
CONTINUOUS
 62
3
 10
-135.822888092984470
 20
82.002697121454929
  0
VERTEX
  8
0
  6
CONTINUOUS
 62
3
 10
-136.257214717965550
 20
81.379744739049528
  0
VERTEX
  8
0
  6
CONTINUOUS
 62
3
 10
-136.524671733057690
 20
80.703802014837436
  0
VERTEX
  8
0
  6
CONTINUOUS
 62
3
 10
-136.614980915162500
 20
80.000845048637075
  0
VERTEX
  8
0
  6
CONTINUOUS
 62
3
 10
-136.524671733057690
 20
79.297888082436714
  0
VERTEX
  8
0
  6
CONTINUOUS
 62
3
 10
-136.257214717965550
 20
78.621945358224622
  0
VERTEX
  8
0
  6
CONTINUOUS
 62
3
 10
-135.822888092984470
 20
77.998992975819220
  0
VERTEX
  8
0
  6
CONTINUOUS
 62
3
 10
-135.238382786739270
 20
77.452970645920644
  0
VERTEX
  8
0
  6
CONTINUOUS
 62
3
 10
-134.526161010354630
 20
77.004861700454029
  0
VERTEX
  8
0
  6
CONTINUOUS
 62
3
 10
-133.713593047278440
 20
76.671886714891258
  0
VERTEX
  8
0
  6
CONTINUOUS
 62
3
 10
-132.831905428638320
 20
76.466841731193014
  0
VERTEX
  8
0
  6
CONTINUOUS
 62
3
 10
-131.914980915162520
 20
76.397606513092242
  0
VERTEX
  8
0
  6
CONTINUOUS
 62
3
 10
-130.998056401686710
 20
76.466841731193014
  0
VERTEX
  8
0
  6
CONTINUOUS
 62
3
 10
-130.116368783046600
 20
76.671886714891258
  0
VERTEX
  8
0
  6
CONTINUOUS
 62
3
 10
-129.303800819970410
 20
77.004861700454029
  0
VERTEX
  8
0
  6
CONTINUOUS
 62
3
 10
-128.591579043585770
 20
77.452970645920644
  0
VERTEX
  8
0
  6
CONTINUOUS
 62
3
 10
-128.007073737340560
 20
77.998992975819220
  0
VERTEX
  8
0
  6
CONTINUOUS
 62
3
 10
-127.572747112359480
 20
78.621945358224622
  0
VERTEX
  8
0
  6
CONTINUOUS
 62
3
 10
-127.305290097267340
 20
79.297888082436714
  0
SEQEND
  8
0
  6
CONTINUOUS
 62
3
  0
LINE
  8
0
  6
CONTINUOUS
 62
3
 10
-130.914980915162970
 20
66.924370080696917
 11
-201.609005137583440
 21
66.924370080696917
  0
ARC
  8
0
  6
CONTINUOUS
 62
3
 10
-221.314980915112810
 20
79.481165023451467
 40
2.600000000000136
 50
180.000000000000000
 51
234.999999999998610
  0
LINE
  8
0
  6
CONTINUOUS
 62
3
 10
-213.080533864604430
 20
70.541329194917125
 11
-222.806279649625420
 21
77.351369708300354
  0
LINE
  8
0
  6
CONTINUOUS
 62
3
 10
-120.914980915163190
 20
191.424370080696690
 11
28.085019084836802
 21
191.424370080696690
  0
LINE
  8
0
  6
CONTINUOUS
 62
3
 10
-130.914980915162970
 20
66.924370080696917
 11
-130.914980915162970
 21
67.305149163824126
  0
LINE
  8
0
  6
CONTINUOUS
 62
4
 10
-120.914980915163190
 20
81.608835893921196
 11
28.085019084836802
 21
81.608835893921196
  0
LINE
  8
0
  6
CONTINUOUS
 62
3
 10
-128.714980915163380
 20
68.424370080696917
 11
-38.714980915163380
 21
68.424370080696917
  0
LINE
  8
0
  6
CONTINUOUS
 62
3
 10
-121.714980915163380
 20
34.424370080696917
 11
-121.714980915163380
 21
33.924370080696917
  0
LINE
  8
0
  6
CONTINUOUS
 62
3
 10
-113.714980915163380
 20
34.424370080696917
 11
-113.714980915163380
 21
33.924370080696917
  0
LINE
  8
0
  6
CONTINUOUS
 62
3
 10
-45.714980915163380
 20
34.424370080696917
 11
-45.714980915163380
 21
33.924370080696917
  0
LINE
  8
0
  6
CONTINUOUS
 62
3
 10
-53.714980915163380
 20
34.424370080696917
 11
-53.714980915163380
 21
33.924370080696917
  0
LINE
  8
0
  6
CONTINUOUS
 62
3
 10
-53.714980915163380
 20
33.924370080696917
 11
-45.714980915163380
 21
33.924370080696917
  0
LINE
  8
0
  6
CONTINUOUS
 62
3
 10
-121.714980915163380
 20
33.924370080696917
 11
-113.714980915163380
 21
33.924370080696917
  0
ARC
  8
0
  6
CONTINUOUS
 62
3
 10
-127.714980915163380
 20
35.424370080696917
 40
1.000000000000000
 50
180.000000000000000
 51
270.000000000000000
  0
LINE
  8
0
  6
CONTINUOUS
 62
3
 10
-127.714980915163380
 20
34.424370080696917
 11
-39.714980915163380
 21
34.424370080696917
  0
ARC
  8
0
  6
CONTINUOUS
 62
3
 10
-39.714980915163380
 20
35.424370080696917
 40
1.000000000000000
 50
270.000000000000000
 51
0.000000000000000
  0
LINE
  8
0
  6
CONTINUOUS
 62
3
 10
-38.714980915163380
 20
73.424370080696917
 11
-38.714980915163380
 21
35.424370080696917
  0
LINE
  8
0
  6
CONTINUOUS
 62
3
 10
-38.714980915163380
 20
73.424370080696917
 11
-120.914980915184570
 21
73.424370080696917
  0
LINE
  8
0
  6
DASHDOT
 62
4
 10
-116.714980915163380
 20
39.424370080696917
 11
-116.714980915163380
 21
66.425969403246654
  0
LINE
  8
0
  6
DASHDOT
 62
4
 10
-107.714980915163380
 20
48.424370080696917
 11
-125.714980915163380
 21
48.424370080696917
  0
CIRCLE
  8
0
  6
DASHED
 62
4
 10
-116.714980915163380
 20
48.424370080696917
 40
6.000000000000000
  0
ARC
  8
0
  6
DASHED
 62
4
 10
-116.714980915163380
 20
48.424370080696917
 40
7.000000000000000
 50
180.000000000000000
 51
0.000000000000000
  0
LINE
  8
0
  6
DASHED
 62
4
 10
-109.714980915163380
 20
68.424370080696917
 11
-109.714980915163380
 21
48.424370080696917
  0
LINE
  8
0
  6
DASHED
 62
4
 10
-123.714980915163380
 20
68.424370080696917
 11
-123.714980915163380
 21
48.424370080696917
  0
LINE
  8
0
  6
CONTINUOUS
 62
3
 10
-128.714980915163380
 20
70.196515622784204
 11
-128.714980915163380
 21
35.424370080696917
  0
LINE
  8
0
  6
DASHDOT
 62
4
 10
-244.392014390571660
 20
131.924370080696920
 11
241.165717297199930
 21
131.924370080696920
  0
LINE
  8
0
  6
CONTINUOUS
 62
4
 10
-120.914980915163190
 20
146.924370080696920
 11
27.085020038515552
 21
146.924370080696920
  0
LINE
  8
0
  6
CONTINUOUS
 62
4
 10
-120.914980915163190
 20
116.924370080696910
 11
27.085020038514756
 21
116.924370080696910
  0
LINE
  8
0
  6
DASHDOT
 62
4
 10
23.085019084834983
 20
32.400273695154624
 11
23.085019084834983
 21
55.868744423281896
  0
LINE
  8
0
  6
DASHDOT
 62
4
 10
168.662697522689030
 20
219.424370080696920
 11
146.644536223516240
 21
219.424370080696920
  0
LINE
  8
0
  6
DASHDOT
 62
4
 10
158.085019084834980
 20
230.216052735722770
 11
158.085019084834980
 21
207.982730251216710
  0
LINE
  8
0
  6
DASHDOT
 62
4
 10
168.388352693606920
 20
44.424370080696917
 11
147.033492432404220
 21
44.424370080696917
  0
LINE
  8
0
  6
DASHDOT
 62
4
 10
158.085019084834980
 20
33.011636324627034
 11
158.085019084834980
 21
56.307847518663038
  0
INSERT
  8
0
  2
SYM2
 10
50.585019084833220
 20
-71.721246792749298
  0
ARC
  8
0
  6
CONTINUOUS
 62
3
 10
39.585019084837882
 20
-75.917399215455475
 40
3.000000000002046
 50
359.999999999991300
 51
59.999999999991253
  0
ARC
  8
0
  6
CONTINUOUS
 62
3
 10
42.585019084838677
 20
-70.721246792749298
 40
3.000000000000000
 50
180.000000000000000
 51
239.999999999991270
  0
INSERT
  8
0
  2
SYM3
 10
35.085019084836858
 20
-61.721246792749298
  0
INSERT
  8
0
  2
SYM4
 10
50.585019084833220
 20
-147.721246792749300
  0
LINE
  8
0
  6
CONTINUOUS
 62
3
 10
-39.714980915165029
 20
-188.721246792747880
 11
-127.714980915165020
 21
-188.721246792747880
  0
LINE
  8
0
  6
CONTINUOUS
 62
3
 10
-39.714980915165029
 20
-116.721246792747870
 11
-127.714980915165020
 21
-116.721246792747870
  0
LINE
  8
0
  6
CONTINUOUS
 62
3
 10
-128.714980915165030
 20
-117.721246792747870
 11
-128.714980915165030
 21
-187.721246792747880
  0
ARC
  8
0
  6
CONTINUOUS
 62
3
 10
-127.714980915165020
 20
-187.721246792747880
 40
1.000000000000000
 50
180.000000000000000
 51
270.000000000000000
  0
ARC
  8
0
  6
CONTINUOUS
 62
3
 10
-127.714980915165020
 20
-117.721246792747870
 40
1.000000000000000
 50
90.000000000000000
 51
180.000000000000000
  0
LINE
  8
0
  6
CONTINUOUS
 62
3
 10
-38.714980915165029
 20
-117.721246792747870
 11
-38.714980915165029
 21
-187.721246792747880
  0
ARC
  8
0
  6
CONTINUOUS
 62
3
 10
-39.714980915165029
 20
-117.721246792747870
 40
1.000000000000000
 50
0.000000000000000
 51
90.000000000000000
  0
ARC
  8
0
  6
CONTINUOUS
 62
3
 10
-39.714980915165029
 20
-187.721246792747880
 40
1.000000000000000
 50
270.000000000000000
 51
0.000000000000000
  0
LINE
  8
0
  6
CONTINUOUS
 62
3
 10
-131.914980915164280
 20
-98.981131692310271
 11
-133.914980915164280
 21
-100.633773331433700
  0
LINE
  8
0
  6
CONTINUOUS
 62
3
 10
-129.914980915164280
 20
-97.805346206687489
 11
-131.914980915164280
 21
-98.981131692310271
  0
LINE
  8
0
  6
CONTINUOUS
 62
3
 10
-131.914980915164280
 20
-98.981131692310271
 11
-129.914980915164280
 21
-100.633773331433700
  0
LINE
  8
0
  6
CONTINUOUS
 62
3
 10
-133.914980915164280
 20
-97.805346206687489
 11
-131.914980915164280
 21
-98.981131692310271
  0
POLYLINE
  8
0
  6
CONTINUOUS
 62
3
 66
1
 70
1
  0
VERTEX
  8
0
  6
CONTINUOUS
 62
3
 10
-127.214980915164290
 20
-100.797721760687800
  0
VERTEX
  8
0
  6
CONTINUOUS
 62
3
 10
-127.305290097269100
 20
-100.094764794487440
  0
VERTEX
  8
0
  6
CONTINUOUS
 62
3
 10
-127.572747112361240
 20
-99.418822070275354
  0
VERTEX
  8
0
  6
CONTINUOUS
 62
3
 10
-128.007073737342320
 20
-98.795869687869953
  0
VERTEX
  8
0
  6
CONTINUOUS
 62
3
 10
-128.591579043587500
 20
-98.249847357971376
  0
VERTEX
  8
0
  6
CONTINUOUS
 62
3
 10
-129.303800819972170
 20
-97.801738412504761
  0
VERTEX
  8
0
  6
CONTINUOUS
 62
3
 10
-130.116368783048360
 20
-97.468763426941990
  0
VERTEX
  8
0
  6
CONTINUOUS
 62
3
 10
-130.998056401688470
 20
-97.263718443243746
  0
VERTEX
  8
0
  6
CONTINUOUS
 62
3
 10
-131.914980915164280
 20
-97.194483225142974
  0
VERTEX
  8
0
  6
CONTINUOUS
 62
3
 10
-132.831905428640080
 20
-97.263718443243746
  0
VERTEX
  8
0
  6
CONTINUOUS
 62
3
 10
-133.713593047280200
 20
-97.468763426941990
  0
VERTEX
  8
0
  6
CONTINUOUS
 62
3
 10
-134.526161010356390
 20
-97.801738412504761
  0
VERTEX
  8
0
  6
CONTINUOUS
 62
3
 10
-135.238382786741060
 20
-98.249847357971376
  0
VERTEX
  8
0
  6
CONTINUOUS
 62
3
 10
-135.822888092986230
 20
-98.795869687869953
  0
VERTEX
  8
0
  6
CONTINUOUS
 62
3
 10
-136.257214717967320
 20
-99.418822070275354
  0
VERTEX
  8
0
  6
CONTINUOUS
 62
3
 10
-136.524671733059450
 20
-100.094764794487440
  0
VERTEX
  8
0
  6
CONTINUOUS
 62
3
 10
-136.614980915164270
 20
-100.797721760687800
  0
VERTEX
  8
0
  6
CONTINUOUS
 62
3
 10
-136.524671733059450
 20
-101.500678726888160
  0
VERTEX
  8
0
  6
CONTINUOUS
 62
3
 10
-136.257214717967320
 20
-102.176621451100260
  0
VERTEX
  8
0
  6
CONTINUOUS
 62
3
 10
-135.822888092986230
 20
-102.799573833505660
  0
VERTEX
  8
0
  6
CONTINUOUS
 62
3
 10
-135.238382786741030
 20
-103.345596163404230
  0
VERTEX
  8
0
  6
CONTINUOUS
 62
3
 10
-134.526161010356390
 20
-103.793705108870850
  0
VERTEX
  8
0
  6
CONTINUOUS
 62
3
 10
-133.713593047280200
 20
-104.126680094433620
  0
VERTEX
  8
0
  6
CONTINUOUS
 62
3
 10
-132.831905428640080
 20
-104.331725078131860
  0
VERTEX
  8
0
  6
CONTINUOUS
 62
3
 10
-131.914980915164280
 20
-104.400960296232640
  0
VERTEX
  8
0
  6
CONTINUOUS
 62
3
 10
-130.998056401688470
 20
-104.331725078131860
  0
VERTEX
  8
0
  6
CONTINUOUS
 62
3
 10
-130.116368783048360
 20
-104.126680094433620
  0
VERTEX
  8
0
  6
CONTINUOUS
 62
3
 10
-129.303800819972170
 20
-103.793705108870850
  0
VERTEX
  8
0
  6
CONTINUOUS
 62
3
 10
-128.591579043587530
 20
-103.345596163404230
  0
VERTEX
  8
0
  6
CONTINUOUS
 62
3
 10
-128.007073737342320
 20
-102.799573833505660
  0
VERTEX
  8
0
  6
CONTINUOUS
 62
3
 10
-127.572747112361240
 20
-102.176621451100260
  0
VERTEX
  8
0
  6
CONTINUOUS
 62
3
 10
-127.305290097269100
 20
-101.500678726888160
  0
SEQEND
  8
0
  6
CONTINUOUS
 62
3
  0
ARC
  8
0
  6
CONTINUOUS
 62
3
 10
-221.314980915114570
 20
-105.278041735502420
 40
2.599999999999721
 50
125.000000000001370
 51
180.000000000000000
  0
LINE
  8
0
  6
CONTINUOUS
 62
3
 10
-213.080533864606200
 20
-96.338205906968085
 11
-222.806279649627190
 21
-103.148246420351310
  0
ARC
  8
0
  6
CONTINUOUS
 62
3
 10
-201.609005137585200
 20
-112.721246792747870
 40
20.000000000000000
 50
90.000000000000000
 51
125.000000000000240
  0
LINE
  8
0
  6
CONTINUOUS
 62
3
 10
-223.914980915114710
 20
-152.721246792747880
 11
-223.914980915114710
 21
-105.278041735502420
  0
LINE
  8
0
  6
CONTINUOUS
 62
3
 10
-120.914980915164840
 20
-92.721246792747877
 11
-201.609005137585200
 21
-92.721246792747877
  0
LINE
  8
0
  6
CONTINUOUS
 62
3
 10
-130.914980915164730
 20
-117.721246792747870
 11
-130.914980915164730
 21
-152.721246792747880
  0
ARC
  8
0
  6
CONTINUOUS
 62
3
 10
-123.914980915164840
 20
-111.721246792747870
 40
3.000000000000000
 50
270.000000000000000
 51
0.000000000000000
  0
LINE
  8
0
  6
CONTINUOUS
 62
3
 10
-123.914980915164840
 20
-114.721246792747870
 11
-127.914980915164730
 21
-114.721246792747870
  0
ARC
  8
0
  6
CONTINUOUS
 62
3
 10
-127.914980915164730
 20
-117.721246792747870
 40
3.000000000000000
 50
90.000000000000000
 51
180.000000000000000
  0
LINE
  8
0
  6
CONTINUOUS
 62
3
 10
-120.914980915164840
 20
-111.721246792747870
 11
-120.914980915164840
 21
-92.721246792747877
  0
LINE
  8
0
  6
CONTINUOUS
 62
4
 10
-130.914980915164730
 20
-120.970455076373520
 11
-128.714980915165030
 21
-120.970455076373520
  0
LINE
  8
0
  6
CONTINUOUS
 62
4
 10
-130.828644704161660
 20
-117.006709652573980
 11
-128.414578424674690
 21
-117.006709652573980
  0
LINE
  8
0
  6
CONTINUOUS
 62
4
 10
-130.914980915164730
 20
-132.721246792747880
 11
-128.714980915165030
 21
-132.721246792747880
  0
LINE
  8
0
  6
CONTINUOUS
 62
4
 10
-130.914980915164730
 20
-126.529313000268240
 11
-128.714980915165030
 21
-126.529313000268240
  0
LINE
  8
0
  6
CONTINUOUS
 62
4
 10
-130.914980915164730
 20
-127.891193335617510
 11
-128.714980915165030
 21
-127.891193335617510
  0
LINE
  8
0
  6
CONTINUOUS
 62
4
 10
-130.914980915164730
 20
-122.438812466178600
 11
-128.714980915165030
 21
-122.438812466178600
  0
LINE
  8
0
  6
CONTINUOUS
 62
4
 10
-130.914980915164730
 20
-172.721246792747880
 11
-128.714980915165030
 21
-172.721246792747880
  0
LINE
  8
0
  6
CONTINUOUS
 62
4
 10
-130.914980915164730
 20
-177.551300249878240
 11
-128.714980915165030
 21
-177.551300249878240
  0
LINE
  8
0
  6
CONTINUOUS
 62
4
 10
-130.914980915164730
 20
-178.913180585227510
 11
-128.714980915165030
 21
-178.913180585227510
  0
LINE
  8
0
  6
CONTINUOUS
 62
4
 10
-130.914980915164730
 20
-183.003681119317150
 11
-128.714980915165030
 21
-183.003681119317150
  0
LINE
  8
0
  6
CONTINUOUS
 62
4
 10
-130.828644704161660
 20
-188.435783932921770
 11
-128.414578424674690
 21
-188.435783932921770
  0
LINE
  8
0
  6
CONTINUOUS
 62
3
 10
-130.914980915164730
 20
-187.721246792747880
 11
-130.914980915164730
 21
-152.721246792747880
  0
ARC
  8
0
  6
CONTINUOUS
 62
3
 10
-123.914980915164840
 20
-193.721246792747880
 40
3.000000000000000
 50
0.000000000000000
 51
90.000000000000000
  0
LINE
  8
0
  6
CONTINUOUS
 62
3
 10
-123.914980915164840
 20
-190.721246792747880
 11
-127.914980915164730
 21
-190.721246792747880
  0
ARC
  8
0
  6
CONTINUOUS
 62
3
 10
-127.914980915164730
 20
-187.721246792747880
 40
3.000000000000000
 50
180.000000000000000
 51
270.000000000000000
  0
LINE
  8
0
  6
CONTINUOUS
 62
3
 10
-120.914980915164840
 20
-193.721246792747880
 11
-120.914980915164840
 21
-212.721246792747880
  0
ARC
  8
0
  6
CONTINUOUS
 62
3
 10
-221.314980915114570
 20
-200.164451849993330
 40
2.600000000000136
 50
180.000000000000000
 51
234.999999999998610
  0
LINE
  8
0
  6
CONTINUOUS
 62
3
 10
-213.080533864606200
 20
-209.104287678527670
 11
-222.806279649627190
 21
-202.294247165144440
  0
ARC
  8
0
  6
CONTINUOUS
 62
3
 10
-201.609005137585200
 20
-192.721246792747880
 40
20.000000000000007
 50
234.999999999999740
 51
270.000000000000000
  0
LINE
  8
0
  6
CONTINUOUS
 62
3
 10
-223.914980915114710
 20
-152.721246792747880
 11
-223.914980915114710
 21
-200.164451849993330
  0
LINE
  8
0
  6
CONTINUOUS
 62
3
 10
-120.914980915164840
 20
-212.721246792747880
 11
-201.609005137585200
 21
-212.721246792747880
  0
LINE
  8
0
  6
CONTINUOUS
 62
3
 10
-131.914980915164280
 20
-206.461361893185710
 11
-133.914980915164280
 21
-204.808720254062280
  0
LINE
  8
0
  6
CONTINUOUS
 62
3
 10
-129.914980915164280
 20
-207.637147378808040
 11
-131.914980915164280
 21
-206.461361893185710
  0
LINE
  8
0
  6
CONTINUOUS
 62
3
 10
-131.914980915164280
 20
-206.461361893185710
 11
-129.914980915164280
 21
-204.808720254062280
  0
LINE
  8
0
  6
CONTINUOUS
 62
3
 10
-133.914980915164280
 20
-207.637147378808040
 11
-131.914980915164280
 21
-206.461361893185710
  0
POLYLINE
  8
0
  6
CONTINUOUS
 62
3
 66
1
 70
1
  0
VERTEX
  8
0
  6
CONTINUOUS
 62
3
 10
-127.214980915164290
 20
-204.644771824807720
  0
VERTEX
  8
0
  6
CONTINUOUS
 62
3
 10
-127.305290097269100
 20
-203.941814858607360
  0
VERTEX
  8
0
  6
CONTINUOUS
 62
3
 10
-127.572747112361240
 20
-203.265872134395270
  0
VERTEX
  8
0
  6
CONTINUOUS
 62
3
 10
-128.007073737342320
 20
-202.642919751989870
  0
VERTEX
  8
0
  6
CONTINUOUS
 62
3
 10
-128.591579043587500
 20
-202.096897422091270
  0
VERTEX
  8
0
  6
CONTINUOUS
 62
3
 10
-129.303800819972170
 20
-201.648788476624650
  0
VERTEX
  8
0
  6
CONTINUOUS
 62
3
 10
-130.116368783048360
 20
-201.315813491061900
  0
VERTEX
  8
0
  6
CONTINUOUS
 62
3
 10
-130.998056401688470
 20
-201.110768507363640
  0
VERTEX
  8
0
  6
CONTINUOUS
 62
3
 10
-131.914980915164280
 20
-201.041533289262870
  0
VERTEX
  8
0
  6
CONTINUOUS
 62
3
 10
-132.831905428640080
 20
-201.110768507363640
  0
VERTEX
  8
0
  6
CONTINUOUS
 62
3
 10
-133.713593047280200
 20
-201.315813491061900
  0
VERTEX
  8
0
  6
CONTINUOUS
 62
3
 10
-134.526161010356390
 20
-201.648788476624650
  0
VERTEX
  8
0
  6
CONTINUOUS
 62
3
 10
-135.238382786741060
 20
-202.096897422091270
  0
VERTEX
  8
0
  6
CONTINUOUS
 62
3
 10
-135.822888092986230
 20
-202.642919751989870
  0
VERTEX
  8
0
  6
CONTINUOUS
 62
3
 10
-136.257214717967320
 20
-203.265872134395270
  0
VERTEX
  8
0
  6
CONTINUOUS
 62
3
 10
-136.524671733059450
 20
-203.941814858607360
  0
VERTEX
  8
0
  6
CONTINUOUS
 62
3
 10
-136.614980915164270
 20
-204.644771824807720
  0
VERTEX
  8
0
  6
CONTINUOUS
 62
3
 10
-136.524671733059450
 20
-205.347728791008080
  0
VERTEX
  8
0
  6
CONTINUOUS
 62
3
 10
-136.257214717967320
 20
-206.023671515220170
  0
VERTEX
  8
0
  6
CONTINUOUS
 62
3
 10
-135.822888092986230
 20
-206.646623897625570
  0
VERTEX
  8
0
  6
CONTINUOUS
 62
3
 10
-135.238382786741030
 20
-207.192646227524160
  0
VERTEX
  8
0
  6
CONTINUOUS
 62
3
 10
-134.526161010356390
 20
-207.640755172990790
  0
VERTEX
  8
0
  6
CONTINUOUS
 62
3
 10
-133.713593047280200
 20
-207.973730158553540
  0
VERTEX
  8
0
  6
CONTINUOUS
 62
3
 10
-132.831905428640080
 20
-208.178775142251790
  0
VERTEX
  8
0
  6
CONTINUOUS
 62
3
 10
-131.914980915164280
 20
-208.248010360352570
  0
VERTEX
  8
0
  6
CONTINUOUS
 62
3
 10
-130.998056401688470
 20
-208.178775142251790
  0
VERTEX
  8
0
  6
CONTINUOUS
 62
3
 10
-130.116368783048360
 20
-207.973730158553540
  0
VERTEX
  8
0
  6
CONTINUOUS
 62
3
 10
-129.303800819972170
 20
-207.640755172990790
  0
VERTEX
  8
0
  6
CONTINUOUS
 62
3
 10
-128.591579043587530
 20
-207.192646227524160
  0
VERTEX
  8
0
  6
CONTINUOUS
 62
3
 10
-128.007073737342320
 20
-206.646623897625570
  0
VERTEX
  8
0
  6
CONTINUOUS
 62
3
 10
-127.572747112361240
 20
-206.023671515220170
  0
VERTEX
  8
0
  6
CONTINUOUS
 62
3
 10
-127.305290097269100
 20
-205.347728791008080
  0
SEQEND
  8
0
  6
CONTINUOUS
 62
3
  0
LINE
  8
0
  6
CONTINUOUS
 62
3
 10
28.085019084835039
 20
-211.221246792747880
 11
-120.914980915164840
 21
-211.221246792747880
  0
LINE
  8
0
  6
DASHDOT
 62
4
 10
73.300938149313424
 20
-152.721246792747880
 11
-241.519165704547500
 21
-152.721246792747880
  0
LINE
  8
0
  6
CONTINUOUS
 62
3
 10
28.085019084835039
 20
-94.221246792747877
 11
-120.914980915164840
 21
-94.221246792747877
  0
LINE
  8
0
  6
CONTINUOUS
 62
4
 10
-38.714980915165029
 20
-122.438812466178600
 11
28.085019084835039
 21
-122.438812466178600
  0
LINE
  8
0
  6
CONTINUOUS
 62
4
 10
-38.714980915165029
 20
-127.891193335617510
 11
28.085019084835039
 21
-127.891193335617510
  0
LINE
  8
0
  6
CONTINUOUS
 62
4
 10
-38.714980915165029
 20
-126.529313000268240
 11
28.085019084835039
 21
-126.529313000268240
  0
LINE
  8
0
  6
CONTINUOUS
 62
4
 10
-38.714980915165029
 20
-132.721246792747880
 11
28.085019084835039
 21
-132.721246792747880
  0
LINE
  8
0
  6
CONTINUOUS
 62
4
 10
-120.914980915164840
 20
-102.405712605972380
 11
28.085019084835039
 21
-102.405712605972380
  0
LINE
  8
0
  6
CONTINUOUS
 62
4
 10
-120.914980915164840
 20
-107.355460074278140
 11
28.085019084835039
 21
-107.355460074278140
  0
LINE
  8
0
  6
CONTINUOUS
 62
4
 10
-129.817973473544950
 20
-115.402061737011930
 11
28.085019084835039
 21
-115.402061737011930
  0
LINE
  8
0
  6
CONTINUOUS
 62
4
 10
-38.714980915165029
 20
-120.970455076373520
 11
28.085019084835039
 21
-120.970455076373520
  0
LINE
  8
0
  6
CONTINUOUS
 62
4
 10
-39.015383405655143
 20
-117.006709652573980
 11
28.085019084835039
 21
-117.006709652573980
  0
LINE
  8
0
  6
CONTINUOUS
 62
4
 10
-120.914980915164840
 20
-95.221246792747877
 11
28.085019084835039
 21
-95.221246792747877
  0
LINE
  8
0
  6
CONTINUOUS
 62
4
 10
-120.914980915164840
 20
-95.721246792747877
 11
28.085019084835039
 21
-95.721246792747877
  0
LINE
  8
0
  6
CONTINUOUS
 62
4
 10
-120.914980915164840
 20
-96.721246792747877
 11
28.085019084835039
 21
-96.721246792747877
  0
LINE
  8
0
  6
CONTINUOUS
 62
4
 10
-120.914980915164840
 20
-97.721246792747877
 11
28.085019084835039
 21
-97.721246792747877
  0
LINE
  8
0
  6
CONTINUOUS
 62
4
 10
-120.914980915164840
 20
-198.087033511217610
 11
28.085019084835039
 21
-198.087033511217610
  0
LINE
  8
0
  6
CONTINUOUS
 62
4
 10
-129.817973473544950
 20
-190.040431848483820
 11
28.085019084835039
 21
-190.040431848483820
  0
LINE
  8
0
  6
CONTINUOUS
 62
4
 10
-38.714980915165029
 20
-184.472038509122230
 11
28.085019084835039
 21
-184.472038509122230
  0
LINE
  8
0
  6
CONTINUOUS
 62
4
 10
-38.714980915165029
 20
-177.551300249878240
 11
28.085019084835039
 21
-177.551300249878240
  0
LINE
  8
0
  6
CONTINUOUS
 62
4
 10
-38.714980915165029
 20
-183.003681119317150
 11
28.085019084835039
 21
-183.003681119317150
  0
LINE
  8
0
  6
CONTINUOUS
 62
4
 10
-38.714980915165029
 20
-172.721246792747880
 11
28.085019084835039
 21
-172.721246792747880
  0
LINE
  8
0
  6
CONTINUOUS
 62
4
 10
-38.714980915165029
 20
-178.913180585227510
 11
28.085019084835039
 21
-178.913180585227510
  0
LINE
  8
0
  6
CONTINUOUS
 62
4
 10
-39.015383405655371
 20
-188.435783932921770
 11
28.085019084835039
 21
-188.435783932921770
  0
LINE
  8
0
  6
CONTINUOUS
 62
4
 10
-120.914980915164840
 20
-203.036780979523370
 11
28.085019084835039
 21
-203.036780979523370
  0
LINE
  8
0
  6
CONTINUOUS
 62
4
 10
-120.914980915164840
 20
-210.221246792747880
 11
28.085019084835039
 21
-210.221246792747880
  0
LINE
  8
0
  6
CONTINUOUS
 62
4
 10
-120.914980915164840
 20
-209.721246792747880
 11
28.085019084835039
 21
-209.721246792747880
  0
LINE
  8
0
  6
CONTINUOUS
 62
4
 10
-120.914980915164840
 20
-208.721246792747880
 11
28.085019084835039
 21
-208.721246792747880
  0
LINE
  8
0
  6
CONTINUOUS
 62
4
 10
-120.914980915164840
 20
-207.721246792747880
 11
28.085019084835039
 21
-207.721246792747880
  0
ARC
  8
0
  6
CONTINUOUS
 62
3
 10
464.637253190450560
 20
-154.763746792749320
 40
20.799999999999990
 50
294.725364927288070
 51
334.359929784105190
  0
LINE
  8
0
  6
CONTINUOUS
 62
3
 10
462.777464095154300
 20
-93.229878023425726
 11
463.340400109766280
 21
-93.201731222695116
  0
LINE
  8
0
  6
DASHDOT
 62
4
 10
264.282211125548660
 20
-122.721246792749290
 11
497.397880171902670
 21
-122.721246792749290
  0
ARC
  8
0
  6
CONTINUOUS
 62
3
 10
464.637253190450560
 20
-154.763746792749320
 40
20.799999999999926
 50
334.359929784105190
 51
5.724810452223396
  0
ARC
  8
0
  6
CONTINUOUS
 62
3
 10
464.637253190450560
 20
-154.763746792749320
 40
20.799999999999926
 50
334.359929784105190
 51
5.724810452223396
  0
LINE
  8
0
  6
CONTINUOUS
 62
3
 10
460.340122811031510
 20
-84.841126719969111
 11
460.578661806586520
 21
-89.611906631068564
  0
LINE
  8
0
  6
CONTINUOUS
 62
3
 10
461.938126553236090
 20
-84.761226532858927
 11
462.322295070607080
 21
-92.444596880278425
  0
ARC
  8
0
  6
CONTINUOUS
 62
3
 10
463.055755655086610
 20
-87.508842129103755
 40
1.299999237060645
 50
19.463936333587132
 51
92.862405909348169
  0
ARC
  8
0
  6
CONTINUOUS
 62
3
 10
463.275481245838590
 20
-91.903353944141486
 40
1.299999237060550
 50
272.862387240019760
 51
346.260856815788600
  0
LINE
  8
0
  6
CONTINUOUS
 62
3
 10
462.013032978651380
 20
-86.259355041175581
 11
462.990836791158930
 21
-86.210464850550238
  0
LINE
  8
0
  6
CONTINUOUS
 62
3
 10
462.013032978651380
 20
-86.259355041175581
 11
462.322295070606290
 21
-92.444596880277231
  0
LINE
  8
0
  6
CONTINUOUS
 62
3
 10
462.013032978651380
 20
-86.259355041175581
 11
462.322295070606290
 21
-92.444596880277231
  0
POINT
  8
0
  6
CONTINUOUS
 62
3
 10
462.187814637954940
 20
-89.754988227247964
  0
ARC
  8
0
  6
CONTINUOUS
 62
3
 10
455.795800050130540
 20
-90.074588956639218
 40
8.999999999999948
 50
346.260856815786500
 51
19.463936333592187
  0
LINE
  8
0
  6
CONTINUOUS
 62
3
 10
461.938126553236090
 20
-84.761226532858927
 11
460.340122811031510
 21
-84.841126719969111
  0
ARC
  8
0
  6
CONTINUOUS
 62
3
 10
462.637253190450560
 20
-114.763746792749310
 40
18.799999999999837
 50
5.724810452223617
 51
35.808626813495749
  0
ARC
  8
0
  6
CONTINUOUS
 62
3
 10
462.637253190450560
 20
-114.763746792749310
 40
18.799999999999933
 50
35.808626813495749
 51
85.126025186157264
  0
LINE
  8
0
  6
CONTINUOUS
 62
3
 10
485.333512542071500
 20
-152.688933825168310
 11
481.343487604415490
 21
-112.888435072051030
  0
LINE
  8
0
  6
CONTINUOUS
 62
3
 10
461.139124682133800
 20
-84.801176626414076
 11
461.448684075862500
 21
-90.992364500986696
  0
POLYLINE
  8
0
  6
CONTINUOUS
 62
3
 66
1
  0
VERTEX
  8
0
  6
CONTINUOUS
 62
3
 10
165.299903972500940
 20
-122.721246792749290
  0
VERTEX
  8
0
  6
CONTINUOUS
 62
3
 10
165.068090456149240
 20
-120.770343572588010
  0
VERTEX
  8
0
  6
CONTINUOUS
 62
3
 10
164.381558370525030
 20
-118.894412469098390
  0
VERTEX
  8
0
  6
CONTINUOUS
 62
3
 10
163.266690758667210
 20
-117.165544462553270
  0
VERTEX
  8
0
  6
CONTINUOUS
 62
3
 10
161.766331357674490
 20
-115.650178980883820
  0
VERTEX
  8
0
  6
CONTINUOUS
 62
3
 10
159.938138137915810
 20
-114.406550669723840
  0
VERTEX
  8
0
  6
CONTINUOUS
 62
3
 10
157.852367539563940
 20
-113.482451467636430
  0
VERTEX
  8
0
  6
CONTINUOUS
 62
3
 10
155.589174556999860
 20
-112.913393988716990
  0
VERTEX
  8
0
  6
CONTINUOUS
 62
3
 10
153.235532427330330
 20
-112.721246792749290
  0
VERTEX
  8
0
  6
CONTINUOUS
 62
3
 10
150.881890297660790
 20
-112.913393988716990
  0
VERTEX
  8
0
  6
CONTINUOUS
 62
3
 10
148.618697315096710
 20
-113.482451467636430
  0
VERTEX
  8
0
  6
CONTINUOUS
 62
3
 10
146.532926716744840
 20
-114.406550669723840
  0
VERTEX
  8
0
  6
CONTINUOUS
 62
3
 10
144.704733496986170
 20
-115.650178980883820
  0
VERTEX
  8
0
  6
CONTINUOUS
 62
3
 10
143.204374095993470
 20
-117.165544462553270
  0
VERTEX
  8
0
  6
CONTINUOUS
 62
3
 10
142.089506484135630
 20
-118.894412469098390
  0
VERTEX
  8
0
  6
CONTINUOUS
 62
3
 10
141.402974398511420
 20
-120.770343572588010
  0
VERTEX
  8
0
  6
CONTINUOUS
 62
3
 10
141.171160882159710
 20
-122.721246792749290
  0
SEQEND
  8
0
  6
CONTINUOUS
 62
3
  0
POLYLINE
  8
0
  6
CONTINUOUS
 62
3
 66
1
  0
VERTEX
  8
0
  6
CONTINUOUS
 62
3
 10
308.965779051361040
 20
-122.721247393678820
  0
VERTEX
  8
0
  6
CONTINUOUS
 62
3
 10
308.834507559102010
 20
-120.883752170534230
  0
VERTEX
  8
0
  6
CONTINUOUS
 62
3
 10
308.445163205460630
 20
-119.108830625304320
  0
VERTEX
  8
0
  6
CONTINUOUS
 62
3
 10
307.811004645938910
 20
-117.456925584733860
  0
VERTEX
  8
0
  6
CONTINUOUS
 62
3
 10
306.953627390515810
 20
-115.984290695883710
  0
VERTEX
  8
0
  6
CONTINUOUS
 62
3
 10
305.902228394427880
 20
-114.741074775575810
  0
VERTEX
  8
0
  6
CONTINUOUS
 62
3
 10
304.692611790838550
 20
-113.769614052518130
  0
VERTEX
  8
0
  6
CONTINUOUS
 62
3
 10
303.365969623979310
 20
-113.102990457757680
  0
VERTEX
  8
0
  6
CONTINUOUS
 62
3
 10
301.967479103433960
 20
-112.763905059153130
  0
VERTEX
  8
0
  6
CONTINUOUS
 62
3
 10
300.544764148392010
 20
-112.763905003706350
  0
VERTEX
  8
0
  6
CONTINUOUS
 62
3
 10
299.146273612136950
 20
-113.102990293305510
  0
VERTEX
  8
0
  6
CONTINUOUS
 62
3
 10
297.819631414393310
 20
-113.769613784660790
  0
VERTEX
  8
0
  6
CONTINUOUS
 62
3
 10
296.610014765796620
 20
-114.741074413434850
  0
VERTEX
  8
0
  6
CONTINUOUS
 62
3
 10
295.558615712110960
 20
-115.984290251791420
  0
VERTEX
  8
0
  6
CONTINUOUS
 62
3
 10
294.701238388461210
 20
-117.456925073813280
  0
VERTEX
  8
0
  6
CONTINUOUS
 62
3
 10
294.067079752407380
 20
-119.108830064954230
  0
VERTEX
  8
0
  6
CONTINUOUS
 62
3
 10
293.677735316534610
 20
-120.883751579836680
  0
VERTEX
  8
0
  6
CONTINUOUS
 62
3
 10
293.546463739145170
 20
-122.721246792749290
  0
SEQEND
  8
0
  6
CONTINUOUS
 62
3
  0
POLYLINE
  8
0
  6
CONTINUOUS
 62
3
 66
1
  0
VERTEX
  8
0
  6
CONTINUOUS
 62
3
 10
465.128042641756050
 20
-122.721246792749290
  0
VERTEX
  8
0
  6
CONTINUOUS
 62
3
 10
464.996771064366610
 20
-120.883751579836680
  0
VERTEX
  8
0
  6
CONTINUOUS
 62
3
 10
464.607426628493840
 20
-119.108830064954230
  0
VERTEX
  8
0
  6
CONTINUOUS
 62
3
 10
463.973267992439960
 20
-117.456925073813280
  0
VERTEX
  8
0
  6
CONTINUOUS
 62
3
 10
463.115890668790260
 20
-115.984290251791420
  0
VERTEX
  8
0
  6
CONTINUOUS
 62
3
 10
462.064491615104600
 20
-114.741074413434850
  0
VERTEX
  8
0
  6
CONTINUOUS
 62
3
 10
460.854874966507910
 20
-113.769613784660790
  0
VERTEX
  8
0
  6
CONTINUOUS
 62
3
 10
459.528232768764270
 20
-113.102990293305510
  0
VERTEX
  8
0
  6
CONTINUOUS
 62
3
 10
458.129742232509220
 20
-112.763905003706350
  0
VERTEX
  8
0
  6
CONTINUOUS
 62
3
 10
456.707027277467260
 20
-112.763905059153130
  0
VERTEX
  8
0
  6
CONTINUOUS
 62
3
 10
455.308536756921910
 20
-113.102990457757680
  0
VERTEX
  8
0
  6
CONTINUOUS
 62
3
 10
453.981894590062670
 20
-113.769614052518130
  0
VERTEX
  8
0
  6
CONTINUOUS
 62
3
 10
452.772277986473340
 20
-114.741074775575810
  0
VERTEX
  8
0
  6
CONTINUOUS
 62
3
 10
451.720878990385420
 20
-115.984290695883710
  0
VERTEX
  8
0
  6
CONTINUOUS
 62
3
 10
450.863501734962310
 20
-117.456925584733880
  0
VERTEX
  8
0
  6
CONTINUOUS
 62
3
 10
450.229343175440590
 20
-119.108830625304330
  0
VERTEX
  8
0
  6
CONTINUOUS
 62
3
 10
449.839998821799210
 20
-120.883752170534250
  0
VERTEX
  8
0
  6
CONTINUOUS
 62
3
 10
449.708727329540180
 20
-122.721247393678820
  0
SEQEND
  8
0
  6
CONTINUOUS
 62
3
  0
ARC
  8
0
  6
DASHED
 62
3
 10
53.585019084839587
 20
-55.721246792748389
 40
3.000000000000000
 50
90.000000000000000
 51
180.000000000000000
  0
ARC
  8
0
  6
CONTINUOUS
 62
3
 10
42.585019084839587
 20
-55.721246792747934
 40
3.000000000000000
 50
90.000000000000000
 51
179.999999999991330
  0
ARC
  8
0
  6
CONTINUOUS
 62
3
 10
39.585019084837768
 20
-90.614440292999461
 40
2.999999999999901
 50
272.999999999988290
 51
0.000000000000000
  0
ARC
  8
0
  6
CONTINUOUS
 62
3
 10
47.585019084833220
 20
-218.240209773846350
 40
3.000000000000000
 50
0.000000000000000
 51
86.999999999994344
  0
ARC
  8
0
  6
CONTINUOUS
 62
3
 10
47.585019084837768
 20
-90.195178058735110
 40
2.999999999999901
 50
272.999999999988290
 51
0.000000000000000
  0
ARC
  8
0
  6
CONTINUOUS
 62
3
 10
183.085019084858690
 20
-122.721246792749290
 40
5.000000000000000
 50
90.000000000000000
 51
270.000000000000000
  0
CIRCLE
  8
0
  6
CONTINUOUS
 62
4
 10
379.337253190450610
 20
-122.721246792749290
 40
4.000000000000000
  0
CIRCLE
  8
0
  6
CONTINUOUS
 62
3
 10
379.337253190450610
 20
-122.721246792749290
 40
3.323500000000024
  0
ARC
  8
0
  6
CONTINUOUS
 62
3
 10
222.685019084857690
 20
-138.321246792749210
 40
0.400000000000091
 50
270.000000000000000
 51
0.000000000000000
  0
ARC
  8
0
  6
CONTINUOUS
 62
3
 10
173.885019084857960
 20
-139.371246792748930
 40
0.799999999999727
 50
90.000000000000000
 51
176.296803365752200
  0
ARC
  8
0
  6
CONTINUOUS
 62
3
 10
173.885019084857960
 20
-106.071246792749200
 40
0.800000000000237
 50
183.703196634280290
 51
270.000000000000000
  0
ARC
  8
0
  6
CONTINUOUS
 62
3
 10
222.685019084857690
 20
-107.121246792748930
 40
0.400000000000091
 50
0.000000000000000
 51
90.000000000000000
  0
ARC
  8
0
  6
CONTINUOUS
 62
3
 10
379.337253190449700
 20
-122.721246792749290
 40
16.000000000000192
 50
198.209956864282790
 51
161.790043135717210
  0
ARC
  8
0
  6
CONTINUOUS
 62
3
 10
368.837253190450610
 20
-27.721246792749298
 40
10.000000000000000
 50
90.000000000000000
 51
180.000000000000000
  0
CIRCLE
  8
0
  6
CONTINUOUS
 62
3
 10
379.337253190450610
 20
-37.721246792749298
 40
10.000000000000000
  0
ARC
  8
0
  6
CONTINUOUS
 62
3
 10
389.837253190450610
 20
-27.721246792749298
 40
10.000000000000000
 50
0.000000000000000
 51
90.000000000000000
  0
ARC
  8
0
  6
CONTINUOUS
 62
3
 10
63.085019084835949
 20
-191.667153196571690
 40
2.000000000000000
 50
0.000000000000000
 51
90.000000000000000
  0
ARC
  8
0
  6
CONTINUOUS
 62
3
 10
449.084253190450910
 20
-226.721246792749300
 40
3.000000000000000
 50
180.000000000000000
 51
270.000000000000000
  0
ARC
  8
0
  6
CONTINUOUS
 62
3
 10
309.590253190450310
 20
-226.721246792749300
 40
3.000000000000000
 50
270.000000000000000
 51
0.000000000000000
  0
ARC
  8
0
  6
CONTINUOUS
 62
3
 10
468.128042641756110
 20
-226.721246792749300
 40
3.000000000000000
 50
180.000000000000000
 51
270.000000000000000
  0
ARC
  8
0
  6
CONTINUOUS
 62
3
 10
452.708727329540120
 20
-226.721246792749300
 40
3.000000000000000
 50
180.000000000000000
 51
270.000000000000000
  0
ARC
  8
0
  6
CONTINUOUS
 62
3
 10
305.965779051361100
 20
-226.721246792749300
 40
3.000000000000000
 50
270.000000000000000
 51
0.000000000000000
  0
ARC
  8
0
  6
CONTINUOUS
 62
3
 10
290.546463739145110
 20
-226.721246792749300
 40
3.000000000000000
 50
270.000000000000000
 51
0.000000000000000
  0
ARC
  8
0
  6
CONTINUOUS
 62
3
 10
311.337253190450610
 20
-247.721246792749300
 40
2.000000000000000
 50
90.000000000000000
 51
180.000000000000000
  0
ARC
  8
0
  6
CONTINUOUS
 62
3
 10
281.837253190450610
 20
-232.221246792749300
 40
2.500000000000000
 50
90.000000000000000
 51
180.000000000000000
  0
ARC
  8
0
  6
CONTINUOUS
 62
3
 10
447.337253190450610
 20
-247.721246792749300
 40
2.000000000000000
 50
0.000000000000000
 51
90.000000000000000
  0
ARC
  8
0
  6
CONTINUOUS
 62
3
 10
476.837253190450610
 20
-232.221246792749300
 40
2.500000000000000
 50
0.000000000000000
 51
90.000000000000000
  0
ARC
  8
0
  6
CONTINUOUS
 62
3
 10
282.337253190450610
 20
-226.721246792749300
 40
3.000000000000000
 50
270.000000000000000
 51
0.000000000000000
  0
ARC
  8
0
  6
CONTINUOUS
 62
3
 10
476.337253190450610
 20
-226.721246792749300
 40
3.000000000000000
 50
180.000000000000000
 51
270.000000000000000
  0
ARC
  8
0
  6
CONTINUOUS
 62
3
 10
393.337253190450610
 20
-132.954644976930470
 40
80.000000000000000
 50
0.000000000000000
 51
88.089786828289846
  0
ARC
  8
0
  6
CONTINUOUS
 62
3
 10
379.337253190450610
 20
-552.721246792749300
 40
500.000000000000060
 50
88.089786828290030
 51
90.000000000000000
  0
ARC
  8
0
  6
CONTINUOUS
 62
3
 10
365.337253190450610
 20
-132.954644976930470
 40
79.999999999999844
 50
91.910213171710154
 51
180.000000000000000
  0
ARC
  8
0
  6
CONTINUOUS
 62
3
 10
379.337253190450610
 20
-552.721246792749300
 40
500.000000000000000
 50
90.000000000000000
 51
91.910213171709970
  0
ARC
  8
0
  6
CONTINUOUS
 62
3
 10
379.337253190450610
 20
-552.721246792749300
 40
472.746750336800180
 50
88.089786828290045
 51
90.000000000000000
  0
ARC
  8
0
  6
CONTINUOUS
 62
3
 10
393.337253190450610
 20
-132.954644976930470
 40
52.746750336800233
 50
0.000000000000000
 51
88.089786828289888
  0
ARC
  8
0
  6
CONTINUOUS
 62
3
 10
379.337253190450610
 20
-552.721246792749300
 40
472.746750336799780
 50
90.000000000000000
 51
91.910213171709955
  0
ARC
  8
0
  6
CONTINUOUS
 62
3
 10
365.337253190450610
 20
-132.954644976930470
 40
52.746750336799941
 50
91.910213171710112
 51
180.000000000000000
  0
ARC
  8
0
  6
CONTINUOUS
 62
3
 10
170.085019084835950
 20
-87.971246792749298
 40
1.000000000000000
 50
180.000000000000000
 51
270.000000000000000
  0
ARC
  8
0
  6
CONTINUOUS
 62
3
 10
166.085019084835950
 20
-81.037435243919390
 40
3.000000000000000
 50
0.000000000000000
 51
39.469308363522465
  0
ARC
  8
0
  6
CONTINUOUS
 62
3
 10
168.085019084835950
 20
-232.618313117170600
 40
3.000000000000000
 50
0.000000000000000
 51
87.999999999996348
  0
ARC
  8
0
  6
CONTINUOUS
 62
3
 10
171.085019084835950
 20
-228.618313117170600
 40
2.000000000000000
 50
180.000000000000000
 51
233.130102354158570
  0
ARC
  8
0
  6
CONTINUOUS
 62
3
 10
168.299903972500940
 20
-226.622159797007040
 40
3.000000000000000
 50
180.000000000000000
 51
268.000000000005000
  0
ARC
  8
0
  6
CONTINUOUS
 62
3
 10
144.171160882159710
 20
-225.779565521423590
 40
3.000000000000000
 50
180.000000000000000
 51
268.000000000005000
  0
ARC
  8
0
  6
CONTINUOUS
 62
3
 10
13.085019084835949
 20
-232.525706988956700
 40
3.000000000000365
 50
93.858884296478166
 51
180.000000000000000
  0
ARC
  8
0
  6
CONTINUOUS
 62
3
 10
170.085019084835950
 20
-156.971235509052350
 40
1.000000000000000
 50
90.000000000000000
 51
180.000000000000000
  0
ARC
  8
0
  6
CONTINUOUS
 62
3
 10
114.363350634225750
 20
-123.626976362428190
 40
70.000000000000341
 50
39.469308363517086
 51
88.999999999999716
  0
ARC
  8
0
  6
CONTINUOUS
 62
3
 10
43.052570538566670
 20
-222.486149453402050
 40
4.999999999999822
 50
273.858884296473550
 51
311.410957896502510
  0
ARC
  8
0
  6
CONTINUOUS
 62
3
 10
63.085019084835949
 20
-208.818442398021030
 40
1.999999999999916
 50
311.410957896496880
 51
0.000000000000000
  0
ARC
  8
0
  6
CONTINUOUS
 62
3
 10
326.337253190450610
 20
-216.121246792749390
 40
7.000000000000000
 50
180.000000000000000
 51
270.000000000000000
  0
ARC
  8
0
  6
CONTINUOUS
 62
3
 10
379.337253190450610
 20
-122.721246792749290
 40
40.000000000000249
 50
184.000629961571520
 51
270.000000000000000
  0
ARC
  8
0
  6
CONTINUOUS
 62
3
 10
336.442032011395900
 20
-125.721246792749290
 40
3.000000000000032
 50
4.000629961575198
 51
90.000000000000000
  0
ARC
  8
0
  6
CONTINUOUS
 62
3
 10
322.837253190450610
 20
-126.221246792749290
 40
3.500000000000000
 50
90.000000000000000
 51
180.000000000000000
  0
ARC
  8
0
  6
CONTINUOUS
 62
3
 10
422.232474369505330
 20
-125.721246792749290
 40
3.000000000000000
 50
90.000000000000000
 51
175.999370038424810
  0
ARC
  8
0
  6
CONTINUOUS
 62
3
 10
435.837253190450610
 20
-126.221246792749290
 40
3.500000000000000
 50
0.000000000000000
 51
90.000000000000000
  0
ARC
  8
0
  6
CONTINUOUS
 62
3
 10
432.337253190450610
 20
-216.121246792749390
 40
7.000000000000000
 50
270.000000000000000
 51
0.000000000000000
  0
ARC
  8
0
  6
CONTINUOUS
 62
3
 10
379.337253190450610
 20
-122.721246792749290
 40
40.000000000000000
 50
270.000000000000000
 51
355.999370038428480
  0
CIRCLE
  8
0
  6
CONTINUOUS
 62
3
 10
379.337253190450610
 20
-122.721246792749290
 40
33.500000000000000
  0
CIRCLE
  8
0
  6
CONTINUOUS
 62
3
 10
379.337253190450610
 20
-122.721246792749290
 40
23.500000000000000
  0
ARC
  8
0
  6
CONTINUOUS
 62
3
 10
48.585019084833220
 20
-137.185348407886980
 40
2.000000000000000
 50
0.000000000000000
 51
59.999999999996206
  0
ARC
  8
0
  6
CONTINUOUS
 62
3
 10
50.585019084833220
 20
-133.721246792749300
 40
2.000000000000000
 50
180.000000000000000
 51
240.000000000002730
  0
ARC
  8
0
  6
CONTINUOUS
 62
3
 10
50.585019084833220
 20
-121.721246792749290
 40
2.000000000000164
 50
119.999999999997270
 51
180.000000000000000
  0
ARC
  8
0
  6
CONTINUOUS
 62
3
 10
48.585019084833220
 20
-118.257145177611610
 40
1.999999999999770
 50
300.000000000003810
 51
0.000000000000000
  0
ARC
  8
0
  6
CONTINUOUS
 62
3
 10
581.837253190450610
 20
-152.721246792749410
 40
300.000000000000060
 50
173.967950853630190
 51
186.032049146369810
  0
ARC
  8
0
  6
CONTINUOUS
 62
3
 10
288.470588417508220
 20
-183.721246792749300
 40
5.000000000000143
 50
186.032049146370330
 51
231.195350974325580
  0
ARC
  8
0
  6
CONTINUOUS
 62
3
 10
288.470588417508220
 20
-121.721246792749290
 40
5.000000000000011
 50
107.668019757175740
 51
173.967950853630950
  0
LINE
  8
0
  6
CONTINUOUS
 62
3
 10
39.585019084838677
 20
-70.721246792749298
 11
39.585019084839587
 21
-55.721246792747479
  0
LINE
  8
0
  6
CONTINUOUS
 62
3
 10
62.585019084839587
 20
-52.721246792749298
 11
42.585019084839587
 21
-52.721246792747934
  0
LINE
  8
0
  6
CONTINUOUS
 62
3
 10
62.585019084835039
 20
-152.721246792749300
 11
62.585019084839587
 21
-52.721246792749298
  0
LINE
  8
0
  6
CONTINUOUS
 62
3
 10
62.585019084833220
 20
-152.721246792749300
 11
62.585019084833220
 21
-211.926143171370310
  0
LINE
  8
0
  6
CONTINUOUS
 62
3
 10
28.085019084835039
 20
-152.721246792747930
 11
28.085019084835039
 21
-94.221246792747934
  0
LINE
  8
0
  6
CONTINUOUS
 62
3
 10
28.085019084835039
 20
-152.721246792747930
 11
28.085019084835039
 21
-214.214141039833520
  0
LINE
  8
0
  6
CONTINUOUS
 62
3
 10
28.085019084835039
 20
-214.214141039833520
 11
47.742026953562345
 21
-215.244321169582690
  0
LINE
  8
0
  6
CONTINUOUS
 62
3
 10
42.585019084837768
 20
-90.614440292999461
 11
42.585019084839757
 21
-77.355314695675588
  0
LINE
  8
0
  6
CONTINUOUS
 62
3
 10
47.742026953566892
 20
-93.191066662998765
 11
28.085019084835039
 21
-94.221246792748389
  0
LINE
  8
0
  6
CONTINUOUS
 62
3
 10
50.585019084833220
 20
-55.721246792748389
 11
50.585019084833220
 21
-118.257145177611610
  0
LINE
  8
0
  6
CONTINUOUS
 62
3
 10
223.085019084857780
 20
-127.721246792749290
 11
183.085019084858690
 21
-127.721246792749290
  0
LINE
  8
0
  6
CONTINUOUS
 62
3
 10
223.085019084857780
 20
-117.721246792749290
 11
183.085019084858690
 21
-117.721246792749290
  0
LINE
  8
0
  6
CONTINUOUS
 62
3
 10
50.585019084833220
 20
-137.185348407886980
 11
50.585019084833220
 21
-222.509645788741180
  0
LINE
  8
0
  6
CONTINUOUS
 62
3
 10
223.085019084857780
 20
-122.721246792749290
 11
223.085019084857780
 21
-138.321246792749210
  0
LINE
  8
0
  6
CONTINUOUS
 62
3
 10
173.085019084857780
 20
-139.521246792749030
 11
172.885019084857960
 21
-139.721246792749300
  0
LINE
  8
0
  6
CONTINUOUS
 62
3
 10
173.085019084857780
 20
-139.521246792749030
 11
173.085019084857780
 21
-122.721246792749290
  0
LINE
  8
0
  6
CONTINUOUS
 62
3
 10
175.085019084857780
 20
-138.571246792749210
 11
173.885019084857960
 21
-138.571246792749210
  0
LINE
  8
0
  6
CONTINUOUS
 62
3
 10
222.685019084857690
 20
-138.721246792749300
 11
175.644826705993180
 21
-138.721246792749300
  0
LINE
  8
0
  6
CONTINUOUS
 62
3
 10
171.085019084835950
 20
-139.721246792749300
 11
172.885019084857960
 21
-139.721246792749300
  0
LINE
  8
0
  6
CONTINUOUS
 62
3
 10
175.085019084857780
 20
-138.571246792749210
 11
175.644826705993180
 21
-138.721246792749300
  0
LINE
  8
0
  6
CONTINUOUS
 62
3
 10
173.085019084857780
 20
-105.921246792749110
 11
172.885019084857960
 21
-105.721246792749290
  0
LINE
  8
0
  6
CONTINUOUS
 62
3
 10
173.085019084857780
 20
-105.921246792749110
 11
173.085019084857780
 21
-122.721246792749290
  0
LINE
  8
0
  6
CONTINUOUS
 62
3
 10
171.085019084835950
 20
-105.721246792749290
 11
172.885019084857960
 21
-105.721246792749290
  0
LINE
  8
0
  6
CONTINUOUS
 62
3
 10
175.085019084857780
 20
-106.871246792748930
 11
173.885019084857960
 21
-106.871246792748930
  0
LINE
  8
0
  6
CONTINUOUS
 62
3
 10
175.085019084857780
 20
-106.871246792748930
 11
175.644826705993180
 21
-106.721246792749290
  0
LINE
  8
0
  6
CONTINUOUS
 62
3
 10
222.685019084857690
 20
-106.721246792749290
 11
175.644826705993180
 21
-106.721246792749290
  0
LINE
  8
0
  6
CONTINUOUS
 62
3
 10
223.085019084857780
 20
-122.721246792749290
 11
223.085019084857780
 21
-107.121246792748930
  0
LINE
  8
0
  6
CONTINUOUS
 62
3
 10
360.337253190449700
 20
-117.721246792749290
 11
368.337253190449700
 21
-117.721246792749290
  0
LINE
  8
0
  6
CONTINUOUS
 62
3
 10
360.337253190449700
 20
-127.721246792749290
 11
360.337253190449700
 21
-117.721246792749290
  0
LINE
  8
0
  6
CONTINUOUS
 62
3
 10
368.337253190449700
 20
-127.721246792749290
 11
368.337253190449700
 21
-117.721246792749290
  0
LINE
  8
0
  6
CONTINUOUS
 62
3
 10
360.337253190449700
 20
-127.721246792749290
 11
368.337253190449700
 21
-127.721246792749290
  0
LINE
  8
0
  6
CONTINUOUS
 62
3
 10
389.837253190450610
 20
-17.721246792749298
 11
368.837253190450610
 21
-17.721246792749298
  0
LINE
  8
0
  6
CONTINUOUS
 62
3
 10
358.837253190450610
 20
-27.721246792749298
 11
358.837253190450610
 21
-53.219144727669118
  0
LINE
  8
0
  6
CONTINUOUS
 62
3
 10
399.837253190450610
 20
-27.721246792749298
 11
399.837253190450610
 21
-52.721239831884759
  0
LINE
  8
0
  6
DASHDOT
 62
4
 10
402.505166189332160
 20
-37.721246792749298
 11
355.482652287797460
 21
-37.721246792749298
  0
LINE
  8
0
  6
CONTINUOUS
 62
3
 10
65.085019084835949
 20
-191.667153196571690
 11
65.085019084835949
 21
-208.818442398021030
  0
LINE
  8
0
  6
CONTINUOUS
 62
3
 10
141.085019084835950
 20
-228.673623707996740
 11
168.189717574943640
 21
-229.620140636113320
  0
LINE
  8
0
  6
CONTINUOUS
 62
3
 10
40.085019084835949
 20
-227.697679103279370
 11
12.883121093080263
 21
-229.532508498891730
  0
LINE
  8
0
  6
CONTINUOUS
 62
3
 10
446.084253190450910
 20
-132.721246792749300
 11
446.084253190450910
 21
-226.721246792749300
  0
LINE
  8
0
  6
CONTINUOUS
 62
3
 10
312.590253190450310
 20
-132.721246792749300
 11
312.590253190450310
 21
-226.721246792749300
  0
LINE
  8
0
  6
CONTINUOUS
 62
3
 10
465.128042641756110
 20
-122.721246792749290
 11
465.128042641756110
 21
-226.721246792749300
  0
LINE
  8
0
  6
CONTINUOUS
 62
3
 10
449.708727329540120
 20
-122.721247393678820
 11
449.708727329540120
 21
-226.721246792749300
  0
LINE
  8
0
  6
CONTINUOUS
 62
3
 10
308.965779051361100
 20
-122.721247393678820
 11
308.965779051361100
 21
-226.721246792749300
  0
LINE
  8
0
  6
CONTINUOUS
 62
3
 10
293.546463739145110
 20
-122.721246792749290
 11
293.546463739145110
 21
-226.721246792749300
  0
LINE
  8
0
  6
DASHDOT
 62
4
 10
379.337253190450610
 20
-4.186277200020413
 11
379.337253190450610
 21
-258.423324739549570
  0
LINE
  8
0
  6
DASHDOT
 62
4
 10
356.117287979698180
 20
-152.721246792749300
 11
403.221004368934250
 21
-152.721246792749300
  0
LINE
  8
0
  6
CONTINUOUS
 62
3
 10
281.837253190450610
 20
-229.721246792749300
 11
379.337253190450610
 21
-229.721246792749300
  0
LINE
  8
0
  6
CONTINUOUS
 62
3
 10
279.337253190450610
 20
-232.221246792749300
 11
279.337253190450610
 21
-247.721246792749300
  0
LINE
  8
0
  6
DASHDOT
 62
4
 10
466.837253190450610
 20
-225.560967938379240
 11
466.837253190450610
 21
-252.138038632348980
  0
LINE
  8
0
  6
CONTINUOUS
 62
3
 10
479.337253190450610
 20
-232.221246792749300
 11
479.337253190450610
 21
-247.721246792749300
  0
LINE
  8
0
  6
CONTINUOUS
 62
3
 10
473.337253190450610
 20
-132.954644976930470
 11
473.337253190450610
 21
-226.721246792749300
  0
LINE
  8
0
  6
CONTINUOUS
 62
3
 10
285.337253190450610
 20
-132.954644976930470
 11
285.337253190450610
 21
-226.721246792749300
  0
LINE
  8
0
  6
CONTINUOUS
 62
3
 10
311.337253190450610
 20
-245.721246792749300
 11
379.337253190450610
 21
-245.721246792749300
  0
LINE
  8
0
  6
CONTINUOUS
 62
3
 10
476.837253190450610
 20
-229.721246792749300
 11
379.337253190450610
 21
-229.721246792749300
  0
LINE
  8
0
  6
CONTINUOUS
 62
3
 10
447.337253190450610
 20
-245.721246792749300
 11
379.337253190450610
 21
-245.721246792749300
  0
LINE
  8
0
  6
CONTINUOUS
 62
3
 10
63.085019084835949
 20
-52.721246792749298
 11
63.085019084835949
 21
-211.485163895644290
  0
LINE
  8
0
  6
CONTINUOUS
 62
3
 10
141.171160882159710
 20
-122.721246792749290
 11
141.171160882159710
 21
-225.779565521423590
  0
LINE
  8
0
  6
CONTINUOUS
 62
3
 10
165.299903972500940
 20
-122.721246792749290
 11
165.299903972500940
 21
-226.622159797007040
  0
LINE
  8
0
  6
DASHDOT
 62
4
 10
291.837253190450610
 20
-225.560967938379240
 11
291.837253190450610
 21
-252.138038632348980
  0
LINE
  8
0
  6
DASHDOT
 62
4
 10
120.014640696943380
 20
-122.721246792749290
 11
248.035064513896490
 21
-122.721246792749290
  0
LINE
  8
0
  6
CONTINUOUS
 62
3
 10
65.004211360619138
 20
-226.016823358713740
 11
141.085019084835950
 21
-228.673623707996740
  0
LINE
  8
0
  6
CONTINUOUS
 62
4
 10
63.085019084835949
 20
-52.721246792749298
 11
83.442080241713484
 21
-52.721246792749298
  0
LINE
  8
0
  6
CONTINUOUS
 62
3
 10
170.085019084835950
 20
-88.971246792749298
 11
171.085019084835950
 21
-88.971246792749298
  0
LINE
  8
0
  6
CONTINUOUS
 62
3
 10
171.085019084835950
 20
-155.971235509052350
 11
170.085019084835950
 21
-155.971235509052350
  0
LINE
  8
0
  6
CONTINUOUS
 62
3
 10
65.004211360619138
 20
-226.016823358713740
 11
40.085019084835949
 21
-227.697679103279370
  0
LINE
  8
0
  6
DASHDOT
 62
4
 10
23.085019084835949
 20
-225.499207570032010
 11
23.085019084835949
 21
-254.423388783410700
  0
LINE
  8
0
  6
CONTINUOUS
 62
3
 10
10.085019084835949
 20
-232.525706988956700
 11
10.085019084835949
 21
-247.721246792749300
  0
LINE
  8
0
  6
CONTINUOUS
 62
3
 10
171.085019084835950
 20
-232.568140492893690
 11
171.085019084835950
 21
-234.367419229891770
  0
LINE
  8
0
  6
CONTINUOUS
 62
3
 10
169.085019084835950
 20
-156.971235509052350
 11
169.085019084835950
 21
-228.618313117170600
  0
LINE
  8
0
  6
DASHDOT
 62
4
 10
158.085019084835950
 20
-225.499207570032010
 11
158.085019084835950
 21
-253.939931179956150
  0
LINE
  8
0
  6
CONTINUOUS
 62
3
 10
171.085019084835950
 20
-88.971246792749298
 11
171.085019084835950
 21
-155.971235509052350
  0
LINE
  8
0
  6
CONTINUOUS
 62
3
 10
169.085019084835950
 20
-156.971235509052350
 11
169.085019084835950
 21
-87.971246792749298
  0
LINE
  8
0
  6
CONTINUOUS
 62
3
 10
63.085019084835949
 20
-52.721246792749298
 11
115.585019084835940
 21
-53.637637701480799
  0
LINE
  8
0
  6
CONTINUOUS
 62
3
 10
171.085019084835950
 20
-232.618313117170600
 11
171.085019084835950
 21
-247.721246792749300
  0
LINE
  8
0
  6
CONTINUOUS
 62
3
 10
169.085019084835950
 20
-92.971246792749298
 11
169.085019084835950
 21
-81.037435243919390
  0
LINE
  8
0
  6
CONTINUOUS
 62
3
 10
64.407929710836470
 20
-210.318411556242150
 11
46.359847103568427
 21
-226.236072348954620
  0
LINE
  8
0
  6
CONTINUOUS
 62
3
 10
326.337253190450610
 20
-223.121246792749390
 11
379.337253190450610
 21
-223.121246792749390
  0
LINE
  8
0
  6
CONTINUOUS
 62
3
 10
319.337253190450610
 20
-126.221246792749290
 11
319.337253190450610
 21
-216.121246792749390
  0
LINE
  8
0
  6
CONTINUOUS
 62
3
 10
336.442032011395900
 20
-122.721246792749290
 11
322.837253190450610
 21
-122.721246792749290
  0
LINE
  8
0
  6
CONTINUOUS
 62
3
 10
422.232474369505330
 20
-122.721246792749290
 11
435.837253190450610
 21
-122.721246792749290
  0
LINE
  8
0
  6
CONTINUOUS
 62
3
 10
439.337253190450610
 20
-126.221246792749290
 11
439.337253190450610
 21
-216.121246792749390
  0
LINE
  8
0
  6
CONTINUOUS
 62
3
 10
432.337253190450610
 20
-223.121246792749390
 11
379.337253190450610
 21
-223.121246792749390
  0
LINE
  8
0
  6
CONTINUOUS
 62
3
 10
279.337253190450610
 20
-247.721246792749300
 11
309.337253190450610
 21
-247.721246792749300
  0
LINE
  8
0
  6
CONTINUOUS
 62
3
 10
479.337253190450610
 20
-247.721246792749300
 11
449.337253190450610
 21
-247.721246792749300
  0
LINE
  8
0
  6
CONTINUOUS
 62
3
 10
279.337253190450610
 20
-247.721246792749300
 11
309.337253190450610
 21
-247.721246792749300
  0
LINE
  8
0
  6
CONTINUOUS
 62
3
 10
171.085019084835950
 20
-247.721246792749300
 11
54.085019084835949
 21
-247.721246792749300
  0
LINE
  8
0
  6
CONTINUOUS
 62
3
 10
54.085019084835949
 20
-247.721246792749300
 11
10.085019084835949
 21
-247.721246792749300
  0
LINE
  8
0
  6
CONTINUOUS
 62
3
 10
35.085019084835949
 20
-71.721246792749298
 11
39.585019084835949
 21
-71.721246792749298
  0
LINE
  8
0
  6
CONTINUOUS
 62
3
 10
28.085019084835039
 20
-172.721246792749300
 11
50.585019084833220
 21
-172.721246792749300
  0
LINE
  8
0
  6
CONTINUOUS
 62
3
 10
35.085019084835949
 20
-71.721246792749298
 11
35.085019084839587
 21
-17.721246792749298
  0
LINE
  8
0
  6
CONTINUOUS
 62
3
 10
28.085019084835039
 20
-132.721246792749300
 11
48.585019084833220
 21
-132.721246792749300
  0
LINE
  8
0
  6
DASHDOT
 62
4
 10
29.354771684023035
 20
-37.721246792749298
 11
47.454037699314540
 21
-37.721246792749298
  0
LINE
  8
0
  6
CONTINUOUS
 62
3
 10
35.085019084839587
 20
-17.721246792749298
 11
39.585019084839587
 21
-17.721246792749298
  0
LINE
  8
0
  6
CONTINUOUS
 62
3
 10
39.585019084839587
 20
-17.721246792749298
 11
39.585019084839587
 21
-71.721246792749298
  0
LINE
  8
0
  6
CONTINUOUS
 62
3
 10
48.585019084833220
 20
-121.721246792749290
 11
48.585019084833220
 21
-133.721246792749300
  0
LINE
  8
0
  6
CONTINUOUS
 62
3
 10
281.847670037968330
 20
-155.221246792749300
 11
281.337253190450610
 21
-155.221246792749300
  0
LINE
  8
0
  6
CONTINUOUS
 62
3
 10
281.837255047648340
 20
-150.221246792749300
 11
281.337253190450610
 21
-150.221246792749300
  0
LINE
  8
0
  6
CONTINUOUS
 62
3
 10
281.337253190450610
 20
-155.221246792749300
 11
281.337253190450610
 21
-150.221246792749300
  0
LINE
  8
0
  6
CONTINUOUS
 62
3
 10
28.085019084835039
 20
-132.721246792747880
 11
28.085019084835039
 21
-152.721246792747930
  0
LINE
  8
0
  6
CONTINUOUS
 62
3
 10
28.085019084835039
 20
-211.221246792747930
 11
28.085019084835039
 21
-152.721246792747930
  0
ENDSEC
  0
EOF
