  0
SECTION
  2
HEADER
  9
$FILLMODE
 70
1
  9
$TEXTSTYLE
  7
STANDARD1
  9
$ACADVER
  1
AC1009
  9
$DIMASZ
 40
1.931851648807023
  9
$DIMEXE
 40
2.000000000000000
  9
$DIMEXO
 40
1.000000000000000
  9
$DIMLFAC
 40
1.000000000000000
  9
$DIMSCALE
 40
1.000000000000000
  9
$DIMTAD
 70
1
  9
$DIMTFAC
 40
0.714285731315613
  9
$DIMTXT
 40
3.200000047683716
  9
$LUPREC
 70
3
  9
$TEXTSIZE
 40
2.799999952316284
  9
$REGENMODE
 70
1
  0
ENDSEC
  0
SECTION
  2
TABLES
  0
TABLE
  2
LTYPE
 70
4
  0
LTYPE
  2
CONTINUOUS
 70
64
  3
Solid line
 72
65
 73
0
 40
0.0
  0
LTYPE
  2
DASHED
 70
64
  3
-- -- -- -- -- -- -- -- -- -- -- -- -- -- --
 72
65
 73
2
 40
0.75
 49
0.5
 49
-0.25
  0
LTYPE
  2
DASHDOT
 70
64
  3
__ . __ . __ . __ . __ . __ . __ . __ . __ . __
 72
65
 73
4
 40
1.0
 49
0.5
 49
-0.25
 49
0.0
 49
-0.25
  0
LTYPE
  2
DIVIDE
 70
64
  3
__ . . __ . . __ . . __ . . __ . . __ . . __
 72
65
 73
6
 40
1.25
 49
0.5
 49
-0.25
 49
0.0
 49
-0.25
 49
0.0
 49
-0.25
  0
ENDTAB
  0
TABLE
  2
LAYER
 70
1
  0
LAYER
  2
0
 70
64
 62
2
  6
CONTINUOUS
  0
ENDTAB
  0
TABLE
  2
STYLE
 70
4
  0
STYLE
  2
STANDARD1
 70
64
 40
0.0
 41
1.0
 50
0.0
 71
0
 42
2.799999952316284
  3
MONOTXT
  4
BIGFONT
  0
STYLE
  2
STANDARD2
 70
68
 40
0.0
 41
1.0
 50
0.0
 71
0
 42
2.799999952316284
  3
MONOTXT
  4
BIGFONT
  0
STYLE
  2
STANDARD3
 70
64
 40
0.0
 41
1.0
 50
0.0
 71
0
 42
2.799999952316284
  3
MONOTXT
  4

  0
STYLE
  2
STANDARD4
 70
68
 40
0.0
 41
1.0
 50
0.0
 71
0
 42
2.799999952316284
  3
MONOTXT
  4

  0
ENDTAB
  0
TABLE
  2
VIEW
 70
0
  0
ENDTAB
  0
ENDSEC
  0
SECTION
  2
BLOCKS
  0
BLOCK
  8
0
  2
SYM1
 70
64
 10
0.000000000000000
 20
0.000000000000000
  0
POINT
  8
0
  6
CONTINUOUS
 62
3
 10
0.000000000000000
 20
0.000000000000000
  0
LINE
  8
0
  6
CONTINUOUS
 62
3
 10
0.000000000000000
 20
-6.500000000000000
 11
-0.000000000000000
 21
6.500000000000000
  0
LINE
  8
0
  6
CONTINUOUS
 62
3
 10
-7.999999046325684
 20
5.633875846862793
 11
-7.999999046325684
 21
-5.634070396423340
  0
LINE
  8
0
  6
CONTINUOUS
 62
3
 10
0.000000000000000
 20
6.500000000000000
 11
-7.499999046325684
 21
6.500000000000000
  0
LINE
  8
0
  6
CONTINUOUS
 62
3
 10
-0.000000000000000
 20
-6.500000000000000
 11
-7.499998092651367
 21
-6.500000000000000
  0
LINE
  8
0
  6
CONTINUOUS
 62
3
 10
-7.499999203818277
 20
6.499999909101064
 11
-7.999999021366804
 21
5.633876130311293
  0
LINE
  8
0
  6
CONTINUOUS
 62
3
 10
-7.499997911632022
 20
-6.499999445138201
 11
-7.999998623386432
 21
-5.634070287011241
  0
LINE
  8
0
  6
CONTINUOUS
 62
3
 10
-7.499999046325684
 20
6.500000000000000
 11
-7.499999046325684
 21
-6.500000000000000
  0
ENDBLK
  8
0
  0
BLOCK
  8
0
  2
SYM2
 70
64
 10
0.000000000000000
 20
0.000000000000000
  0
POINT
  8
0
  6
CONTINUOUS
 62
3
 10
0.000000000000000
 20
0.000000000000000
  0
LINE
  8
0
  6
CONTINUOUS
 62
3
 10
0.000000000000000
 20
-6.500000000000000
 11
-0.000000000000000
 21
6.500000000000000
  0
LINE
  8
0
  6
CONTINUOUS
 62
3
 10
-7.999999046325684
 20
5.633875846862793
 11
-7.999999046325684
 21
-5.634070396423340
  0
LINE
  8
0
  6
CONTINUOUS
 62
3
 10
0.000000000000000
 20
6.500000000000000
 11
-7.499999046325684
 21
6.500000000000000
  0
LINE
  8
0
  6
CONTINUOUS
 62
3
 10
-0.000000000000000
 20
-6.500000000000000
 11
-7.499998092651367
 21
-6.500000000000000
  0
LINE
  8
0
  6
CONTINUOUS
 62
3
 10
-7.499999203818277
 20
6.499999909101064
 11
-7.999999021366804
 21
5.633876130311293
  0
LINE
  8
0
  6
CONTINUOUS
 62
3
 10
-7.499997911632022
 20
-6.499999445138201
 11
-7.999998623386432
 21
-5.634070287011241
  0
LINE
  8
0
  6
CONTINUOUS
 62
3
 10
-7.499999046325684
 20
6.500000000000000
 11
-7.499999046325684
 21
-6.500000000000000
  0
ENDBLK
  8
0
  0
BLOCK
  8
0
  2
SYM3
 70
64
 10
0.000000000000000
 20
0.000000000000000
  0
POINT
  8
0
  6
CONTINUOUS
 62
3
 10
0.000000000000000
 20
0.000000000000000
  0
LINE
  8
0
  6
CONTINUOUS
 62
3
 10
0.000000000000000
 20
-6.500000000000000
 11
-0.000000000000000
 21
6.500000000000000
  0
LINE
  8
0
  6
CONTINUOUS
 62
3
 10
-7.999999046325684
 20
5.633875846862793
 11
-7.999999046325684
 21
-5.634070396423340
  0
LINE
  8
0
  6
CONTINUOUS
 62
3
 10
0.000000000000000
 20
6.500000000000000
 11
-7.499999046325684
 21
6.500000000000000
  0
LINE
  8
0
  6
CONTINUOUS
 62
3
 10
-0.000000000000000
 20
-6.500000000000000
 11
-7.499998092651367
 21
-6.500000000000000
  0
LINE
  8
0
  6
CONTINUOUS
 62
3
 10
-7.499999203818277
 20
6.499999909101064
 11
-7.999999021366804
 21
5.633876130311293
  0
LINE
  8
0
  6
CONTINUOUS
 62
3
 10
-7.499997911632022
 20
-6.499999445138201
 11
-7.999998623386432
 21
-5.634070287011241
  0
LINE
  8
0
  6
CONTINUOUS
 62
3
 10
-7.499999046325684
 20
6.500000000000000
 11
-7.499999046325684
 21
-6.500000000000000
  0
ENDBLK
  8
0
  0
BLOCK
  8
0
  2
SYM4
 70
64
 10
0.000000000000000
 20
0.000000000000000
  0
POINT
  8
0
  6
CONTINUOUS
 62
3
 10
0.000000000000000
 20
0.000000000000000
  0
LINE
  8
0
  6
CONTINUOUS
 62
3
 10
0.000000000000000
 20
-6.500000000000000
 11
-0.000000000000000
 21
6.500000000000000
  0
LINE
  8
0
  6
CONTINUOUS
 62
3
 10
-7.999999046325684
 20
5.633875846862793
 11
-7.999999046325684
 21
-5.634070396423340
  0
LINE
  8
0
  6
CONTINUOUS
 62
3
 10
0.000000000000000
 20
6.500000000000000
 11
-7.499999046325684
 21
6.500000000000000
  0
LINE
  8
0
  6
CONTINUOUS
 62
3
 10
-0.000000000000000
 20
-6.500000000000000
 11
-7.499998092651367
 21
-6.500000000000000
  0
LINE
  8
0
  6
CONTINUOUS
 62
3
 10
-7.499999203818277
 20
6.499999909101064
 11
-7.999999021366804
 21
5.633876130311293
  0
LINE
  8
0
  6
CONTINUOUS
 62
3
 10
-7.499997911632022
 20
-6.499999445138201
 11
-7.999998623386432
 21
-5.634070287011241
  0
LINE
  8
0
  6
CONTINUOUS
 62
3
 10
-7.499999046325684
 20
6.500000000000000
 11
-7.499999046325684
 21
-6.500000000000000
  0
ENDBLK
  8
0
  0
BLOCK
  8
0
  2
SYM5
 70
64
 10
0.000000000000000
 20
0.000000000000000
  0
POINT
  8
0
  6
CONTINUOUS
 62
3
 10
0.000000000000000
 20
0.000000000000000
  0
LINE
  8
0
  6
CONTINUOUS
 62
3
 10
-0.000027060931608
 20
-5.749995231614290
 11
-3.250020760774497
 21
-5.749981880178368
  0
LINE
  8
0
  6
CONTINUOUS
 62
3
 10
-3.250024308998832
 20
-5.749987011620533
 11
-4.000020133420207
 21
-4.899982163000686
  0
LINE
  8
0
  6
CONTINUOUS
 62
3
 10
-4.000014781949545
 20
-4.899978112209579
 11
-3.999973773958658
 21
4.900011588107803
  0
LINE
  8
0
  6
CONTINUOUS
 62
3
 10
-3.999972830514309
 20
4.900008662670757
 11
-3.249970339875063
 21
5.750006850331147
  0
LINE
  8
0
  6
CONTINUOUS
 62
3
 10
-3.249972343459831
 20
5.750005722029982
 11
0.000027906669402
 21
5.749993324257003
  0
LINE
  8
0
  6
CONTINUOUS
 62
3
 10
0.000023687533422
 20
5.749999046325684
 11
-0.000023687533422
 21
-5.749999046325684
  0
LINE
  8
0
  6
CONTINUOUS
 62
3
 10
-3.250009052584916
 20
-2.899986267083180
 11
-0.000013285950788
 21
-2.899999618524636
  0
LINE
  8
0
  6
CONTINUOUS
 62
3
 10
-3.249984168999890
 20
2.900012016287064
 11
0.000013133145058
 21
2.899999618522375
  0
ARC
  8
0
  6
CONTINUOUS
 62
3
 10
-2.270017623901367
 20
-4.324990272521973
 40
1.729999542236328
 50
124.499759285265280
 51
179.999745461767870
  0
ARC
  8
0
  6
CONTINUOUS
 62
3
 10
-2.269982337951660
 20
4.325008392333984
 40
1.729999542236328
 50
179.999745461767870
 51
235.499786279783790
  0
ARC
  8
0
  6
CONTINUOUS
 62
3
 10
1.981662750244141
 20
-0.000008163610801
 40
5.981661796569824
 50
150.999363302540700
 51
209.000072979481700
  0
ENDBLK
  8
0
  0
BLOCK
  8
0
  2
SYM6
 70
64
 10
0.000000000000000
 20
0.000000000000000
  0
POINT
  8
0
  6
CONTINUOUS
 62
3
 10
0.000000000000000
 20
0.000000000000000
  0
LINE
  8
0
  6
CONTINUOUS
 62
3
 10
-0.000027060931608
 20
-5.749995231614290
 11
-3.250020760774497
 21
-5.749981880178368
  0
LINE
  8
0
  6
CONTINUOUS
 62
3
 10
-3.250024308998832
 20
-5.749987011620533
 11
-4.000020133420207
 21
-4.899982163000686
  0
LINE
  8
0
  6
CONTINUOUS
 62
3
 10
-4.000014781949545
 20
-4.899978112209579
 11
-3.999973773958658
 21
4.900011588107803
  0
LINE
  8
0
  6
CONTINUOUS
 62
3
 10
-3.999972830514309
 20
4.900008662670757
 11
-3.249970339875063
 21
5.750006850331147
  0
LINE
  8
0
  6
CONTINUOUS
 62
3
 10
-3.249972343459831
 20
5.750005722029982
 11
0.000027906669402
 21
5.749993324257003
  0
LINE
  8
0
  6
CONTINUOUS
 62
3
 10
0.000023687533422
 20
5.749999046325684
 11
-0.000023687533422
 21
-5.749999046325684
  0
LINE
  8
0
  6
CONTINUOUS
 62
3
 10
-3.250009052584916
 20
-2.899986267083180
 11
-0.000013285950788
 21
-2.899999618524636
  0
LINE
  8
0
  6
CONTINUOUS
 62
3
 10
-3.249984168999890
 20
2.900012016287064
 11
0.000013133145058
 21
2.899999618522375
  0
ARC
  8
0
  6
CONTINUOUS
 62
3
 10
-2.270017623901367
 20
-4.324990272521973
 40
1.729999542236328
 50
124.499759285265280
 51
179.999745461767870
  0
ARC
  8
0
  6
CONTINUOUS
 62
3
 10
-2.269982337951660
 20
4.325008392333984
 40
1.729999542236328
 50
179.999745461767870
 51
235.499786279783790
  0
ARC
  8
0
  6
CONTINUOUS
 62
3
 10
1.981662750244141
 20
-0.000008163610801
 40
5.981661796569824
 50
150.999363302540700
 51
209.000072979481700
  0
ENDBLK
  8
0
  0
BLOCK
  8
0
  2
SYM7
 70
64
 10
0.000000000000000
 20
0.000000000000000
  0
POINT
  8
0
  6
CONTINUOUS
 62
3
 10
0.000000000000000
 20
0.000000000000000
  0
LINE
  8
0
  6
CONTINUOUS
 62
3
 10
0.000000000000000
 20
-6.500000000000000
 11
-0.000000000000000
 21
6.500000000000000
  0
LINE
  8
0
  6
CONTINUOUS
 62
3
 10
-7.999999046325684
 20
5.633875846862793
 11
-7.999999046325684
 21
-5.634070396423340
  0
LINE
  8
0
  6
CONTINUOUS
 62
3
 10
0.000000000000000
 20
6.500000000000000
 11
-7.499999046325684
 21
6.500000000000000
  0
LINE
  8
0
  6
CONTINUOUS
 62
3
 10
-0.000000000000000
 20
-6.500000000000000
 11
-7.499998092651367
 21
-6.500000000000000
  0
LINE
  8
0
  6
CONTINUOUS
 62
3
 10
-7.499999203818277
 20
6.499999909101064
 11
-7.999999021366804
 21
5.633876130311293
  0
LINE
  8
0
  6
CONTINUOUS
 62
3
 10
-7.499997911632022
 20
-6.499999445138201
 11
-7.999998623386432
 21
-5.634070287011241
  0
LINE
  8
0
  6
CONTINUOUS
 62
3
 10
-7.499999046325684
 20
6.500000000000000
 11
-7.499999046325684
 21
-6.500000000000000
  0
ENDBLK
  8
0
  0
BLOCK
  8
0
  2
SYM8
 70
64
 10
0.000000000000000
 20
0.000000000000000
  0
POINT
  8
0
  6
CONTINUOUS
 62
3
 10
0.000000000000000
 20
0.000000000000000
  0
LINE
  8
0
  6
CONTINUOUS
 62
3
 10
0.000000000000000
 20
-6.500000000000000
 11
-0.000000000000000
 21
6.500000000000000
  0
LINE
  8
0
  6
CONTINUOUS
 62
3
 10
-7.999999046325684
 20
5.633875846862793
 11
-7.999999046325684
 21
-5.634070396423340
  0
LINE
  8
0
  6
CONTINUOUS
 62
3
 10
0.000000000000000
 20
6.500000000000000
 11
-7.499999046325684
 21
6.500000000000000
  0
LINE
  8
0
  6
CONTINUOUS
 62
3
 10
-0.000000000000000
 20
-6.500000000000000
 11
-7.499998092651367
 21
-6.500000000000000
  0
LINE
  8
0
  6
CONTINUOUS
 62
3
 10
-7.499999203818277
 20
6.499999909101064
 11
-7.999999021366804
 21
5.633876130311293
  0
LINE
  8
0
  6
CONTINUOUS
 62
3
 10
-7.499997911632022
 20
-6.499999445138201
 11
-7.999998623386432
 21
-5.634070287011241
  0
LINE
  8
0
  6
CONTINUOUS
 62
3
 10
-7.499999046325684
 20
6.500000000000000
 11
-7.499999046325684
 21
-6.500000000000000
  0
ENDBLK
  8
0
  0
BLOCK
  8
0
  2
SYM9
 70
64
 10
0.000000000000000
 20
0.000000000000000
  0
POINT
  8
0
  6
CONTINUOUS
 62
3
 10
0.000000000000000
 20
0.000000000000000
  0
LINE
  8
0
  6
CONTINUOUS
 62
3
 10
-0.000027060931608
 20
-5.749995231614290
 11
-3.250020760774497
 21
-5.749981880178368
  0
LINE
  8
0
  6
CONTINUOUS
 62
3
 10
-3.250024308998832
 20
-5.749987011620533
 11
-4.000020133420207
 21
-4.899982163000686
  0
LINE
  8
0
  6
CONTINUOUS
 62
3
 10
-4.000014781949545
 20
-4.899978112209579
 11
-3.999973773958658
 21
4.900011588107803
  0
LINE
  8
0
  6
CONTINUOUS
 62
3
 10
-3.999972830514309
 20
4.900008662670757
 11
-3.249970339875063
 21
5.750006850331147
  0
LINE
  8
0
  6
CONTINUOUS
 62
3
 10
-3.249972343459831
 20
5.750005722029982
 11
0.000027906669402
 21
5.749993324257003
  0
LINE
  8
0
  6
CONTINUOUS
 62
3
 10
0.000023687533422
 20
5.749999046325684
 11
-0.000023687533422
 21
-5.749999046325684
  0
LINE
  8
0
  6
CONTINUOUS
 62
3
 10
-3.250009052584916
 20
-2.899986267083180
 11
-0.000013285950788
 21
-2.899999618524636
  0
LINE
  8
0
  6
CONTINUOUS
 62
3
 10
-3.249984168999890
 20
2.900012016287064
 11
0.000013133145058
 21
2.899999618522375
  0
ARC
  8
0
  6
CONTINUOUS
 62
3
 10
-2.270017623901367
 20
-4.324990272521973
 40
1.729999542236328
 50
124.499759285265280
 51
179.999745461767870
  0
ARC
  8
0
  6
CONTINUOUS
 62
3
 10
-2.269982337951660
 20
4.325008392333984
 40
1.729999542236328
 50
179.999745461767870
 51
235.499786279783790
  0
ARC
  8
0
  6
CONTINUOUS
 62
3
 10
1.981662750244141
 20
-0.000008163610801
 40
5.981661796569824
 50
150.999363302540700
 51
209.000072979481700
  0
ENDBLK
  8
0
  0
BLOCK
  8
0
  2
SYM10
 70
64
 10
0.000000000000000
 20
0.000000000000000
  0
POINT
  8
0
  6
CONTINUOUS
 62
3
 10
0.000000000000000
 20
0.000000000000000
  0
LINE
  8
0
  6
CONTINUOUS
 62
3
 10
-0.000027060931608
 20
-5.749995231614290
 11
-3.250020760774497
 21
-5.749981880178368
  0
LINE
  8
0
  6
CONTINUOUS
 62
3
 10
-3.250024308998832
 20
-5.749987011620533
 11
-4.000020133420207
 21
-4.899982163000686
  0
LINE
  8
0
  6
CONTINUOUS
 62
3
 10
-4.000014781949545
 20
-4.899978112209579
 11
-3.999973773958658
 21
4.900011588107803
  0
LINE
  8
0
  6
CONTINUOUS
 62
3
 10
-3.999972830514309
 20
4.900008662670757
 11
-3.249970339875063
 21
5.750006850331147
  0
LINE
  8
0
  6
CONTINUOUS
 62
3
 10
-3.249972343459831
 20
5.750005722029982
 11
0.000027906669402
 21
5.749993324257003
  0
LINE
  8
0
  6
CONTINUOUS
 62
3
 10
0.000023687533422
 20
5.749999046325684
 11
-0.000023687533422
 21
-5.749999046325684
  0
LINE
  8
0
  6
CONTINUOUS
 62
3
 10
-3.250009052584916
 20
-2.899986267083180
 11
-0.000013285950788
 21
-2.899999618524636
  0
LINE
  8
0
  6
CONTINUOUS
 62
3
 10
-3.249984168999890
 20
2.900012016287064
 11
0.000013133145058
 21
2.899999618522375
  0
ARC
  8
0
  6
CONTINUOUS
 62
3
 10
-2.270017623901367
 20
-4.324990272521973
 40
1.729999542236328
 50
124.499759285265280
 51
179.999745461767870
  0
ARC
  8
0
  6
CONTINUOUS
 62
3
 10
-2.269982337951660
 20
4.325008392333984
 40
1.729999542236328
 50
179.999745461767870
 51
235.499786279783790
  0
ARC
  8
0
  6
CONTINUOUS
 62
3
 10
1.981662750244141
 20
-0.000008163610801
 40
5.981661796569824
 50
150.999363302540700
 51
209.000072979481700
  0
ENDBLK
  8
0
  0
BLOCK
  8
0
  2
SYM11
 70
64
 10
0.000000000000000
 20
0.000000000000000
  0
POINT
  8
0
  6
CONTINUOUS
 62
3
 10
0.000000000000000
 20
0.000000000000000
  0
LINE
  8
0
  6
CONTINUOUS
 62
3
 10
0.000000000000000
 20
-6.500000000000000
 11
-0.000000000000000
 21
6.500000000000000
  0
LINE
  8
0
  6
CONTINUOUS
 62
3
 10
-7.999999046325684
 20
5.633875846862793
 11
-7.999999046325684
 21
-5.634070396423340
  0
LINE
  8
0
  6
CONTINUOUS
 62
3
 10
0.000000000000000
 20
6.500000000000000
 11
-7.499999046325684
 21
6.500000000000000
  0
LINE
  8
0
  6
CONTINUOUS
 62
3
 10
-0.000000000000000
 20
-6.500000000000000
 11
-7.499998092651367
 21
-6.500000000000000
  0
LINE
  8
0
  6
CONTINUOUS
 62
3
 10
-7.499999203818277
 20
6.499999909101064
 11
-7.999999021366804
 21
5.633876130311293
  0
LINE
  8
0
  6
CONTINUOUS
 62
3
 10
-7.499997911632022
 20
-6.499999445138201
 11
-7.999998623386432
 21
-5.634070287011241
  0
LINE
  8
0
  6
CONTINUOUS
 62
3
 10
-7.499999046325684
 20
6.500000000000000
 11
-7.499999046325684
 21
-6.500000000000000
  0
ENDBLK
  8
0
  0
BLOCK
  8
0
  2
SYM12
 70
64
 10
0.000000000000000
 20
0.000000000000000
  0
POINT
  8
0
  6
CONTINUOUS
 62
3
 10
0.000000000000000
 20
0.000000000000000
  0
LINE
  8
0
  6
CONTINUOUS
 62
3
 10
0.000000000000000
 20
-6.500000000000000
 11
-0.000000000000000
 21
6.500000000000000
  0
LINE
  8
0
  6
CONTINUOUS
 62
3
 10
-7.999999046325684
 20
5.633875846862793
 11
-7.999999046325684
 21
-5.634070396423340
  0
LINE
  8
0
  6
CONTINUOUS
 62
3
 10
0.000000000000000
 20
6.500000000000000
 11
-7.499999046325684
 21
6.500000000000000
  0
LINE
  8
0
  6
CONTINUOUS
 62
3
 10
-0.000000000000000
 20
-6.500000000000000
 11
-7.499998092651367
 21
-6.500000000000000
  0
LINE
  8
0
  6
CONTINUOUS
 62
3
 10
-7.499999203818277
 20
6.499999909101064
 11
-7.999999021366804
 21
5.633876130311293
  0
LINE
  8
0
  6
CONTINUOUS
 62
3
 10
-7.499997911632022
 20
-6.499999445138201
 11
-7.999998623386432
 21
-5.634070287011241
  0
LINE
  8
0
  6
CONTINUOUS
 62
3
 10
-7.499999046325684
 20
6.500000000000000
 11
-7.499999046325684
 21
-6.500000000000000
  0
ENDBLK
  8
0
  0
BLOCK
  8
0
  2
SYM13
 70
64
 10
0.000000000000000
 20
0.000000000000000
  0
ARC
  8
0
  6
CONTINUOUS
 62
3
 10
6.399999618530273
 20
0.000000000000000
 40
9.000000000000000
 50
163.398451589674950
 51
196.601531107481040
  0
POINT
  8
0
  6
CONTINUOUS
 62
3
 10
0.000000000000000
 20
0.000000000000000
  0
LINE
  8
0
  6
CONTINUOUS
 62
3
 10
0.000000000000000
 20
-3.500000000000000
 11
-0.000000000000000
 21
3.500000000000000
  0
LINE
  8
0
  6
CONTINUOUS
 62
3
 10
0.000000000000000
 20
-3.500000000000000
 11
-0.000000000000000
 21
3.500000000000000
  0
LINE
  8
0
  6
CONTINUOUS
 62
3
 10
0.000000000000000
 20
3.500000000000000
 11
-0.979025304317474
 21
3.500000000000000
  0
LINE
  8
0
  6
CONTINUOUS
 62
3
 10
-0.000000000000000
 20
-3.500000000000000
 11
-0.979025304317474
 21
-3.500000000000000
  0
ARC
  8
0
  6
CONTINUOUS
 62
3
 10
-0.979025304317474
 20
2.200000762939453
 40
1.299999237060547
 50
90.000000000000000
 51
163.398451589674950
  0
ARC
  8
0
  6
CONTINUOUS
 62
3
 10
-0.979025304317474
 20
-2.200000762939453
 40
1.299999237060547
 50
196.601531107481040
 51
270.000000000000000
  0
ENDBLK
  8
0
  0
BLOCK
  8
0
  2
SYM14
 70
64
 10
0.000000000000000
 20
0.000000000000000
  0
POINT
  8
0
  6
CONTINUOUS
 62
3
 10
0.000000000000000
 20
0.000000000000000
  0
LINE
  8
0
  6
CONTINUOUS
 62
3
 10
0.010171198458579
 20
-5.767622839547471
 11
-4.979645433681753
 21
-2.874994469174567
  0
LINE
  8
0
  6
CONTINUOUS
 62
3
 10
-4.979648434603448
 20
-2.874994693650046
 11
-4.989821279270270
 21
2.892629961559101
  0
LINE
  8
0
  6
CONTINUOUS
 62
3
 10
-4.989816965891634
 20
2.892629271321994
 11
-0.010171343047148
 21
5.767622431692701
  0
LINE
  8
0
  6
CONTINUOUS
 62
3
 10
-0.010171198458579
 20
5.767622839547471
 11
4.979645433681753
 21
2.874994469174567
  0
LINE
  8
0
  6
CONTINUOUS
 62
3
 10
4.979648434603448
 20
2.874994693650046
 11
4.989821279270270
 21
-2.892629961559101
  0
LINE
  8
0
  6
CONTINUOUS
 62
3
 10
4.989816965891634
 20
-2.892629271321994
 11
0.010171343047148
 21
-5.767622431692701
  0
CIRCLE
  8
0
  6
CONTINUOUS
 62
3
 10
0.000000000000000
 20
0.000000000000000
 40
5.000000000000000
  0
ENDBLK
  8
0
  0
BLOCK
  8
0
  2
SYM15
 70
64
 10
0.000000000000000
 20
0.000000000000000
  0
POINT
  8
0
  6
CONTINUOUS
 62
3
 10
0.000000000000000
 20
0.000000000000000
  0
LINE
  8
0
  6
CONTINUOUS
 62
3
 10
0.010171198458579
 20
-5.767622839547471
 11
-4.979645433681753
 21
-2.874994469174567
  0
LINE
  8
0
  6
CONTINUOUS
 62
3
 10
-4.979648434603448
 20
-2.874994693650046
 11
-4.989821279270270
 21
2.892629961559101
  0
LINE
  8
0
  6
CONTINUOUS
 62
3
 10
-4.989816965891634
 20
2.892629271321994
 11
-0.010171343047148
 21
5.767622431692701
  0
LINE
  8
0
  6
CONTINUOUS
 62
3
 10
-0.010171198458579
 20
5.767622839547471
 11
4.979645433681753
 21
2.874994469174567
  0
LINE
  8
0
  6
CONTINUOUS
 62
3
 10
4.979648434603448
 20
2.874994693650046
 11
4.989821279270270
 21
-2.892629961559101
  0
LINE
  8
0
  6
CONTINUOUS
 62
3
 10
4.989816965891634
 20
-2.892629271321994
 11
0.010171343047148
 21
-5.767622431692701
  0
CIRCLE
  8
0
  6
CONTINUOUS
 62
3
 10
0.000000000000000
 20
0.000000000000000
 40
5.000000000000000
  0
ENDBLK
  8
0
  0
BLOCK
  8
0
  2
SYM16
 70
64
 10
0.000000000000000
 20
0.000000000000000
  0
CIRCLE
  8
0
  6
CONTINUOUS
 62
3
 10
0.000000000000000
 20
0.000000000000000
 40
5.633955001831055
  0
CIRCLE
  8
0
  6
CONTINUOUS
 62
3
 10
0.000000000000000
 20
0.000000000000000
 40
6.500000000000000
  0
POINT
  8
0
  6
CONTINUOUS
 62
3
 10
0.000000000000000
 20
0.000000000000000
  0
LINE
  8
0
  6
CONTINUOUS
 62
3
 10
-2.999996662140960
 20
-1.732045999551255
 11
-2.999997615815242
 21
1.732051977133316
  0
LINE
  8
0
  6
CONTINUOUS
 62
3
 10
2.999996662140697
 20
1.732046953225571
 11
2.999997615814979
 21
-1.732051023458999
  0
LINE
  8
0
  6
CONTINUOUS
 62
3
 10
0.000006701720849
 20
3.464096999935236
 11
-2.999997939551520
 21
1.732051821705568
  0
LINE
  8
0
  6
CONTINUOUS
 62
3
 10
2.999998112093635
 20
-1.732051392778772
 11
-0.000004464412200
 21
-3.464098365415111
  0
LINE
  8
0
  6
CONTINUOUS
 62
3
 10
0.000006618601731
 20
3.464096896385627
 11
2.999997425948948
 21
1.732046782136365
  0
LINE
  8
0
  6
CONTINUOUS
 62
3
 10
-0.000004704988612
 20
-3.464098175748802
 11
-2.999997577100373
 21
-1.732046218032735
  0
POINT
  8
0
  6
CONTINUOUS
 62
3
 10
0.500000119209290
 20
6.500000000000000
  0
POINT
  8
0
  6
CONTINUOUS
 62
3
 10
0.000000000000000
 20
5.633955001831055
  0
ENDBLK
  8
0
  0
BLOCK
  8
0
  2
SYM17
 70
64
 10
0.000000000000000
 20
0.000000000000000
  0
CIRCLE
  8
0
  6
CONTINUOUS
 62
3
 10
0.000000000000000
 20
0.000000000000000
 40
5.633955001831055
  0
CIRCLE
  8
0
  6
CONTINUOUS
 62
3
 10
0.000000000000000
 20
0.000000000000000
 40
6.500000000000000
  0
POINT
  8
0
  6
CONTINUOUS
 62
3
 10
0.000000000000000
 20
0.000000000000000
  0
LINE
  8
0
  6
CONTINUOUS
 62
3
 10
-2.999996662140960
 20
-1.732045999551255
 11
-2.999997615815242
 21
1.732051977133316
  0
LINE
  8
0
  6
CONTINUOUS
 62
3
 10
2.999996662140697
 20
1.732046953225571
 11
2.999997615814979
 21
-1.732051023458999
  0
LINE
  8
0
  6
CONTINUOUS
 62
3
 10
0.000006701720849
 20
3.464096999935236
 11
-2.999997939551520
 21
1.732051821705568
  0
LINE
  8
0
  6
CONTINUOUS
 62
3
 10
2.999998112093635
 20
-1.732051392778772
 11
-0.000004464412200
 21
-3.464098365415111
  0
LINE
  8
0
  6
CONTINUOUS
 62
3
 10
0.000006618601731
 20
3.464096896385627
 11
2.999997425948948
 21
1.732046782136365
  0
LINE
  8
0
  6
CONTINUOUS
 62
3
 10
-0.000004704988612
 20
-3.464098175748802
 11
-2.999997577100373
 21
-1.732046218032735
  0
POINT
  8
0
  6
CONTINUOUS
 62
3
 10
0.500000119209290
 20
6.500000000000000
  0
POINT
  8
0
  6
CONTINUOUS
 62
3
 10
0.000000000000000
 20
5.633955001831055
  0
ENDBLK
  8
0
  0
BLOCK
  8
0
  2
SYM18
 70
64
 10
0.000000000000000
 20
0.000000000000000
  0
CIRCLE
  8
0
  6
CONTINUOUS
 62
3
 10
0.000000000000000
 20
0.000000000000000
 40
5.633955001831055
  0
CIRCLE
  8
0
  6
CONTINUOUS
 62
3
 10
0.000000000000000
 20
0.000000000000000
 40
6.500000000000000
  0
POINT
  8
0
  6
CONTINUOUS
 62
3
 10
0.000000000000000
 20
0.000000000000000
  0
LINE
  8
0
  6
CONTINUOUS
 62
3
 10
-2.999996662140960
 20
-1.732045999551255
 11
-2.999997615815242
 21
1.732051977133316
  0
LINE
  8
0
  6
CONTINUOUS
 62
3
 10
2.999996662140697
 20
1.732046953225571
 11
2.999997615814979
 21
-1.732051023458999
  0
LINE
  8
0
  6
CONTINUOUS
 62
3
 10
0.000006701720849
 20
3.464096999935236
 11
-2.999997939551520
 21
1.732051821705568
  0
LINE
  8
0
  6
CONTINUOUS
 62
3
 10
2.999998112093635
 20
-1.732051392778772
 11
-0.000004464412200
 21
-3.464098365415111
  0
LINE
  8
0
  6
CONTINUOUS
 62
3
 10
0.000006618601731
 20
3.464096896385627
 11
2.999997425948948
 21
1.732046782136365
  0
LINE
  8
0
  6
CONTINUOUS
 62
3
 10
-0.000004704988612
 20
-3.464098175748802
 11
-2.999997577100373
 21
-1.732046218032735
  0
POINT
  8
0
  6
CONTINUOUS
 62
3
 10
0.500000119209290
 20
6.500000000000000
  0
POINT
  8
0
  6
CONTINUOUS
 62
3
 10
0.000000000000000
 20
5.633955001831055
  0
ENDBLK
  8
0
  0
BLOCK
  8
0
  2
SYM19
 70
64
 10
0.000000000000000
 20
0.000000000000000
  0
CIRCLE
  8
0
  6
CONTINUOUS
 62
3
 10
0.000000000000000
 20
0.000000000000000
 40
5.633955001831055
  0
CIRCLE
  8
0
  6
CONTINUOUS
 62
3
 10
0.000000000000000
 20
0.000000000000000
 40
6.500000000000000
  0
POINT
  8
0
  6
CONTINUOUS
 62
3
 10
0.000000000000000
 20
0.000000000000000
  0
LINE
  8
0
  6
CONTINUOUS
 62
3
 10
-2.999996662140960
 20
-1.732045999551255
 11
-2.999997615815242
 21
1.732051977133316
  0
LINE
  8
0
  6
CONTINUOUS
 62
3
 10
2.999996662140697
 20
1.732046953225571
 11
2.999997615814979
 21
-1.732051023458999
  0
LINE
  8
0
  6
CONTINUOUS
 62
3
 10
0.000006701720849
 20
3.464096999935236
 11
-2.999997939551520
 21
1.732051821705568
  0
LINE
  8
0
  6
CONTINUOUS
 62
3
 10
2.999998112093635
 20
-1.732051392778772
 11
-0.000004464412200
 21
-3.464098365415111
  0
LINE
  8
0
  6
CONTINUOUS
 62
3
 10
0.000006618601731
 20
3.464096896385627
 11
2.999997425948948
 21
1.732046782136365
  0
LINE
  8
0
  6
CONTINUOUS
 62
3
 10
-0.000004704988612
 20
-3.464098175748802
 11
-2.999997577100373
 21
-1.732046218032735
  0
POINT
  8
0
  6
CONTINUOUS
 62
3
 10
0.500000119209290
 20
6.500000000000000
  0
POINT
  8
0
  6
CONTINUOUS
 62
3
 10
0.000000000000000
 20
5.633955001831055
  0
ENDBLK
  8
0
  0
BLOCK
  8
0
  2
SYM20
 70
64
 10
0.000000000000000
 20
0.000000000000000
  0
CIRCLE
  8
0
  6
CONTINUOUS
 62
3
 10
0.000000000000000
 20
0.000000000000000
 40
5.633955001831055
  0
CIRCLE
  8
0
  6
CONTINUOUS
 62
3
 10
0.000000000000000
 20
0.000000000000000
 40
6.500000000000000
  0
POINT
  8
0
  6
CONTINUOUS
 62
3
 10
0.000000000000000
 20
0.000000000000000
  0
LINE
  8
0
  6
CONTINUOUS
 62
3
 10
-2.999996662140960
 20
-1.732045999551255
 11
-2.999997615815242
 21
1.732051977133316
  0
LINE
  8
0
  6
CONTINUOUS
 62
3
 10
2.999996662140697
 20
1.732046953225571
 11
2.999997615814979
 21
-1.732051023458999
  0
LINE
  8
0
  6
CONTINUOUS
 62
3
 10
0.000006701720849
 20
3.464096999935236
 11
-2.999997939551520
 21
1.732051821705568
  0
LINE
  8
0
  6
CONTINUOUS
 62
3
 10
2.999998112093635
 20
-1.732051392778772
 11
-0.000004464412200
 21
-3.464098365415111
  0
LINE
  8
0
  6
CONTINUOUS
 62
3
 10
0.000006618601731
 20
3.464096896385627
 11
2.999997425948948
 21
1.732046782136365
  0
LINE
  8
0
  6
CONTINUOUS
 62
3
 10
-0.000004704988612
 20
-3.464098175748802
 11
-2.999997577100373
 21
-1.732046218032735
  0
POINT
  8
0
  6
CONTINUOUS
 62
3
 10
0.500000119209290
 20
6.500000000000000
  0
POINT
  8
0
  6
CONTINUOUS
 62
3
 10
0.000000000000000
 20
5.633955001831055
  0
ENDBLK
  8
0
  0
BLOCK
  8
0
  2
SYM21
 70
64
 10
0.000000000000000
 20
0.000000000000000
  0
CIRCLE
  8
0
  6
CONTINUOUS
 62
3
 10
0.000000000000000
 20
0.000000000000000
 40
5.633955001831055
  0
CIRCLE
  8
0
  6
CONTINUOUS
 62
3
 10
0.000000000000000
 20
0.000000000000000
 40
6.500000000000000
  0
POINT
  8
0
  6
CONTINUOUS
 62
3
 10
0.000000000000000
 20
0.000000000000000
  0
LINE
  8
0
  6
CONTINUOUS
 62
3
 10
-2.999996662140960
 20
-1.732045999551255
 11
-2.999997615815242
 21
1.732051977133316
  0
LINE
  8
0
  6
CONTINUOUS
 62
3
 10
2.999996662140697
 20
1.732046953225571
 11
2.999997615814979
 21
-1.732051023458999
  0
LINE
  8
0
  6
CONTINUOUS
 62
3
 10
0.000006701720849
 20
3.464096999935236
 11
-2.999997939551520
 21
1.732051821705568
  0
LINE
  8
0
  6
CONTINUOUS
 62
3
 10
2.999998112093635
 20
-1.732051392778772
 11
-0.000004464412200
 21
-3.464098365415111
  0
LINE
  8
0
  6
CONTINUOUS
 62
3
 10
0.000006618601731
 20
3.464096896385627
 11
2.999997425948948
 21
1.732046782136365
  0
LINE
  8
0
  6
CONTINUOUS
 62
3
 10
-0.000004704988612
 20
-3.464098175748802
 11
-2.999997577100373
 21
-1.732046218032735
  0
POINT
  8
0
  6
CONTINUOUS
 62
3
 10
0.500000119209290
 20
6.500000000000000
  0
POINT
  8
0
  6
CONTINUOUS
 62
3
 10
0.000000000000000
 20
5.633955001831055
  0
ENDBLK
  8
0
  0
BLOCK
  8
0
  2
SYM22
 70
64
 10
0.000000000000000
 20
0.000000000000000
  0
CIRCLE
  8
0
  6
CONTINUOUS
 62
3
 10
0.000000000000000
 20
0.000000000000000
 40
5.633955001831055
  0
CIRCLE
  8
0
  6
CONTINUOUS
 62
3
 10
0.000000000000000
 20
0.000000000000000
 40
6.500000000000000
  0
POINT
  8
0
  6
CONTINUOUS
 62
3
 10
0.000000000000000
 20
0.000000000000000
  0
LINE
  8
0
  6
CONTINUOUS
 62
3
 10
-2.999996662140960
 20
-1.732045999551255
 11
-2.999997615815242
 21
1.732051977133316
  0
LINE
  8
0
  6
CONTINUOUS
 62
3
 10
2.999996662140697
 20
1.732046953225571
 11
2.999997615814979
 21
-1.732051023458999
  0
LINE
  8
0
  6
CONTINUOUS
 62
3
 10
0.000006701720849
 20
3.464096999935236
 11
-2.999997939551520
 21
1.732051821705568
  0
LINE
  8
0
  6
CONTINUOUS
 62
3
 10
2.999998112093635
 20
-1.732051392778772
 11
-0.000004464412200
 21
-3.464098365415111
  0
LINE
  8
0
  6
CONTINUOUS
 62
3
 10
0.000006618601731
 20
3.464096896385627
 11
2.999997425948948
 21
1.732046782136365
  0
LINE
  8
0
  6
CONTINUOUS
 62
3
 10
-0.000004704988612
 20
-3.464098175748802
 11
-2.999997577100373
 21
-1.732046218032735
  0
POINT
  8
0
  6
CONTINUOUS
 62
3
 10
0.500000119209290
 20
6.500000000000000
  0
POINT
  8
0
  6
CONTINUOUS
 62
3
 10
0.000000000000000
 20
5.633955001831055
  0
ENDBLK
  8
0
  0
BLOCK
  8
0
  2
SYM23
 70
64
 10
0.000000000000000
 20
0.000000000000000
  0
CIRCLE
  8
0
  6
CONTINUOUS
 62
3
 10
0.000000000000000
 20
0.000000000000000
 40
5.633955001831055
  0
CIRCLE
  8
0
  6
CONTINUOUS
 62
3
 10
0.000000000000000
 20
0.000000000000000
 40
6.500000000000000
  0
POINT
  8
0
  6
CONTINUOUS
 62
3
 10
0.000000000000000
 20
0.000000000000000
  0
LINE
  8
0
  6
CONTINUOUS
 62
3
 10
-2.999996662140960
 20
-1.732045999551255
 11
-2.999997615815242
 21
1.732051977133316
  0
LINE
  8
0
  6
CONTINUOUS
 62
3
 10
2.999996662140697
 20
1.732046953225571
 11
2.999997615814979
 21
-1.732051023458999
  0
LINE
  8
0
  6
CONTINUOUS
 62
3
 10
0.000006701720849
 20
3.464096999935236
 11
-2.999997939551520
 21
1.732051821705568
  0
LINE
  8
0
  6
CONTINUOUS
 62
3
 10
2.999998112093635
 20
-1.732051392778772
 11
-0.000004464412200
 21
-3.464098365415111
  0
LINE
  8
0
  6
CONTINUOUS
 62
3
 10
0.000006618601731
 20
3.464096896385627
 11
2.999997425948948
 21
1.732046782136365
  0
LINE
  8
0
  6
CONTINUOUS
 62
3
 10
-0.000004704988612
 20
-3.464098175748802
 11
-2.999997577100373
 21
-1.732046218032735
  0
POINT
  8
0
  6
CONTINUOUS
 62
3
 10
0.500000119209290
 20
6.500000000000000
  0
POINT
  8
0
  6
CONTINUOUS
 62
3
 10
0.000000000000000
 20
5.633955001831055
  0
ENDBLK
  8
0
  0
BLOCK
  8
0
  2
SYM24
 70
64
 10
0.000000000000000
 20
0.000000000000000
  0
CIRCLE
  8
0
  6
CONTINUOUS
 62
3
 10
0.000000000000000
 20
0.000000000000000
 40
5.633955001831055
  0
CIRCLE
  8
0
  6
CONTINUOUS
 62
3
 10
0.000000000000000
 20
0.000000000000000
 40
6.500000000000000
  0
POINT
  8
0
  6
CONTINUOUS
 62
3
 10
0.000000000000000
 20
0.000000000000000
  0
LINE
  8
0
  6
CONTINUOUS
 62
3
 10
-2.999996662140960
 20
-1.732045999551255
 11
-2.999997615815242
 21
1.732051977133316
  0
LINE
  8
0
  6
CONTINUOUS
 62
3
 10
2.999996662140697
 20
1.732046953225571
 11
2.999997615814979
 21
-1.732051023458999
  0
LINE
  8
0
  6
CONTINUOUS
 62
3
 10
0.000006701720849
 20
3.464096999935236
 11
-2.999997939551520
 21
1.732051821705568
  0
LINE
  8
0
  6
CONTINUOUS
 62
3
 10
2.999998112093635
 20
-1.732051392778772
 11
-0.000004464412200
 21
-3.464098365415111
  0
LINE
  8
0
  6
CONTINUOUS
 62
3
 10
0.000006618601731
 20
3.464096896385627
 11
2.999997425948948
 21
1.732046782136365
  0
LINE
  8
0
  6
CONTINUOUS
 62
3
 10
-0.000004704988612
 20
-3.464098175748802
 11
-2.999997577100373
 21
-1.732046218032735
  0
POINT
  8
0
  6
CONTINUOUS
 62
3
 10
0.500000119209290
 20
6.500000000000000
  0
POINT
  8
0
  6
CONTINUOUS
 62
3
 10
0.000000000000000
 20
5.633955001831055
  0
ENDBLK
  8
0
  0
BLOCK
  8
0
  2
SYM25
 70
64
 10
0.000000000000000
 20
0.000000000000000
  0
ARC
  8
0
  6
CONTINUOUS
 62
3
 10
6.399999618530273
 20
0.000000000000000
 40
9.000000000000000
 50
163.398451589674950
 51
196.601531107481040
  0
POINT
  8
0
  6
CONTINUOUS
 62
3
 10
0.000000000000000
 20
0.000000000000000
  0
LINE
  8
0
  6
CONTINUOUS
 62
3
 10
0.000000000000000
 20
-3.500000000000000
 11
-0.000000000000000
 21
3.500000000000000
  0
LINE
  8
0
  6
CONTINUOUS
 62
3
 10
0.000000000000000
 20
-3.500000000000000
 11
-0.000000000000000
 21
3.500000000000000
  0
LINE
  8
0
  6
CONTINUOUS
 62
3
 10
0.000000000000000
 20
3.500000000000000
 11
-0.979025304317474
 21
3.500000000000000
  0
LINE
  8
0
  6
CONTINUOUS
 62
3
 10
-0.000000000000000
 20
-3.500000000000000
 11
-0.979025304317474
 21
-3.500000000000000
  0
ARC
  8
0
  6
CONTINUOUS
 62
3
 10
-0.979025304317474
 20
2.200000762939453
 40
1.299999237060547
 50
90.000000000000000
 51
163.398451589674950
  0
ARC
  8
0
  6
CONTINUOUS
 62
3
 10
-0.979025304317474
 20
-2.200000762939453
 40
1.299999237060547
 50
196.601531107481040
 51
270.000000000000000
  0
ENDBLK
  8
0
  0
BLOCK
  8
0
  2
SYM26
 70
64
 10
0.000000000000000
 20
0.000000000000000
  0
ARC
  8
0
  6
CONTINUOUS
 62
3
 10
-0.979025304317474
 20
-2.200000762939453
 40
1.299999237060547
 50
196.601531107481040
 51
270.000000000000000
  0
ARC
  8
0
  6
CONTINUOUS
 62
3
 10
-0.979025304317474
 20
2.200000762939453
 40
1.299999237060547
 50
90.000000000000000
 51
163.398451589674950
  0
LINE
  8
0
  6
CONTINUOUS
 62
3
 10
-0.000000000000000
 20
-3.500000000000000
 11
-0.979025304317474
 21
-3.500000000000000
  0
LINE
  8
0
  6
CONTINUOUS
 62
3
 10
0.000000000000000
 20
3.500000000000000
 11
-0.979025304317474
 21
3.500000000000000
  0
LINE
  8
0
  6
CONTINUOUS
 62
3
 10
0.000000000000000
 20
-3.500000000000000
 11
-0.000000000000000
 21
3.500000000000000
  0
LINE
  8
0
  6
CONTINUOUS
 62
3
 10
0.000000000000000
 20
-3.500000000000000
 11
-0.000000000000000
 21
3.500000000000000
  0
POINT
  8
0
  6
CONTINUOUS
 62
3
 10
0.000000000000000
 20
0.000000000000000
  0
ARC
  8
0
  6
CONTINUOUS
 62
3
 10
6.399999618530273
 20
0.000000000000000
 40
9.000000000000000
 50
163.398451589674950
 51
196.601531107481040
  0
ENDBLK
  8
0
  0
ENDSEC
  0
SECTION
  2
ENTITIES
  0
LINE
  8
0
  6
CONTINUOUS
 62
3
 10
428.934762512237850
 20
-151.747604582538770
 11
436.934762512237850
 21
-151.747604582538770
  0
LINE
  8
0
  6
CONTINUOUS
 62
3
 10
436.934762512237850
 20
-139.747604582538770
 11
436.934762512237850
 21
-151.747604582538770
  0
ARC
  8
0
  6
CONTINUOUS
 62
3
 10
451.934762512237850
 20
-145.747604582538770
 40
20.000000000000014
 50
197.457603123722070
 51
162.542396876277930
  0
LINE
  8
0
  6
CONTINUOUS
 62
3
 10
428.934762512237850
 20
-139.747604582538770
 11
436.934762512237850
 21
-139.747604582538770
  0
LINE
  8
0
  6
CONTINUOUS
 62
3
 10
428.934762512237850
 20
-139.747604582538770
 11
428.934762512237850
 21
-151.747604582538770
  0
LINE
  8
0
  6
CONTINUOUS
 62
3
 10
294.757006280272210
 20
-151.747604582538770
 11
245.757006280272210
 21
-151.747604582538770
  0
LINE
  8
0
  6
CONTINUOUS
 62
3
 10
294.757006280272210
 20
-139.747604582538770
 11
245.757006280272210
 21
-139.747604582538770
  0
ARC
  8
0
  6
CONTINUOUS
 62
3
 10
245.757006280272210
 20
-145.747604582538770
 40
6.000000000000000
 50
90.000000000000000
 51
270.000000000000000
  0
ARC
  8
0
  6
CONTINUOUS
 62
3
 10
-385.340605011608720
 20
-196.674368722347960
 40
6.099999427795406
 50
264.601927898108500
 51
5.398089404735109
  0
POINT
  8
0
  6
CONTINUOUS
 62
3
 10
-383.077863446681700
 20
-198.937110287275000
  0
LINE
  8
0
  6
CONTINUOUS
 62
3
 10
-379.754461709974860
 20
-195.613708550568130
 11
-386.401265183388550
 21
-202.260512023981870
  0
LINE
  8
0
  6
CONTINUOUS
 62
3
 10
-379.441323101006050
 20
-195.866255501418520
 11
-386.118422403478970
 21
-202.543354803891450
  0
LINE
  8
0
  6
CONTINUOUS
 62
3
 10
-386.401265183388550
 20
-202.260512023981870
 11
-385.914461791682920
 21
-202.747315415687470
  0
LINE
  8
0
  6
CONTINUOUS
 62
3
 10
-379.754461709974860
 20
-195.613708550568130
 11
-379.267658318269240
 21
-196.100511942273760
  0
ARC
  8
0
  6
CONTINUOUS
 62
3
 10
-484.194133291227840
 20
-196.674368722347960
 40
6.099999427795398
 50
174.601910595264880
 51
275.398072101891500
  0
POINT
  8
0
  6
CONTINUOUS
 62
3
 10
-486.456874856154850
 20
-198.937110287275000
  0
LINE
  8
0
  6
CONTINUOUS
 62
3
 10
-489.780276592861700
 20
-195.613708550568130
 11
-483.133473119448010
 21
-202.260512023981870
  0
LINE
  8
0
  6
CONTINUOUS
 62
3
 10
-490.093415201830510
 20
-195.866255501418520
 11
-483.416315899357580
 21
-202.543354803891450
  0
LINE
  8
0
  6
CONTINUOUS
 62
3
 10
-483.133473119448010
 20
-202.260512023981870
 11
-483.620276511153630
 21
-202.747315415687470
  0
LINE
  8
0
  6
CONTINUOUS
 62
3
 10
-489.780276592861700
 20
-195.613708550568130
 11
-490.267079984567320
 21
-196.100511942273760
  0
ARC
  8
0
  6
CONTINUOUS
 62
3
 10
-484.194133291227840
 20
-97.820840442728667
 40
6.099999427795419
 50
84.601927898108485
 51
185.398089404735120
  0
POINT
  8
0
  6
CONTINUOUS
 62
3
 10
-486.456874856154850
 20
-95.558098877801626
  0
LINE
  8
0
  6
CONTINUOUS
 62
3
 10
-489.780276592861700
 20
-98.881500614508482
 11
-483.133473119448010
 21
-92.234697141094770
  0
LINE
  8
0
  6
CONTINUOUS
 62
3
 10
-490.093415201830510
 20
-98.628953663658109
 11
-483.416315899357580
 21
-91.951854361185198
  0
LINE
  8
0
  6
CONTINUOUS
 62
3
 10
-483.133473119448010
 20
-92.234697141094770
 11
-483.620276511153630
 21
-91.747893749389149
  0
LINE
  8
0
  6
CONTINUOUS
 62
3
 10
-489.780276592861700
 20
-98.881500614508482
 11
-490.267079984567320
 21
-98.394697222802861
  0
ARC
  8
0
  6
CONTINUOUS
 62
3
 10
-385.340605011608720
 20
-97.820840442728667
 40
6.099999427795398
 50
354.601910595264880
 51
95.398072101891515
  0
POINT
  8
0
  6
CONTINUOUS
 62
3
 10
-383.077863446681700
 20
-95.558098877801626
  0
LINE
  8
0
  6
CONTINUOUS
 62
3
 10
-379.754461709974860
 20
-98.881500614508482
 11
-386.401265183388550
 21
-92.234697141094770
  0
LINE
  8
0
  6
CONTINUOUS
 62
3
 10
-379.441323101006050
 20
-98.628953663658109
 11
-386.118422403478970
 21
-91.951854361185198
  0
LINE
  8
0
  6
CONTINUOUS
 62
3
 10
-386.401265183388550
 20
-92.234697141094770
 11
-385.914461791682920
 21
-91.747893749389149
  0
LINE
  8
0
  6
CONTINUOUS
 62
3
 10
-379.754461709974860
 20
-98.881500614508482
 11
-379.267658318269240
 21
-98.394697222802861
  0
LINE
  8
0
  6
CONTINUOUS
 62
3
 10
55.040790771664064
 20
-255.057772742016430
 11
25.631528034942875
 21
-206.200449163269640
  0
ARC
  8
0
  6
CONTINUOUS
 62
3
 10
23.061253709383863
 20
-207.747604582538200
 40
2.999999999999986
 50
31.045490826863674
 51
90.000000000000000
  0
LINE
  8
0
  6
CONTINUOUS
 62
3
 10
26.533148588693024
 20
-204.747604582538140
 11
43.090127200863520
 21
-204.747604582538140
  0
LINE
  8
0
  6
CONTINUOUS
 62
3
 10
21.757000229065710
 20
-207.188818512824130
 11
21.757000229065710
 21
-193.444627006804690
  0
LINE
  8
0
  6
CONTINUOUS
 62
3
 10
26.372057387190893
 20
-207.430683409746050
 11
-5.742999770938042
 21
-205.747604582538540
  0
LINE
  8
0
  6
CONTINUOUS
 62
3
 10
51.757014055108328
 20
-230.611690035908740
 11
45.984296738008965
 21
-209.067615710761400
  0
LINE
  8
0
  6
CONTINUOUS
 62
3
 10
55.757000229065710
 20
-245.539841666691130
 11
53.816653043275750
 21
-238.298367384999550
  0
ARC
  8
0
  6
CONTINUOUS
 62
3
 10
50.757000229065596
 20
-257.636365107463970
 40
5.000000000000114
 50
0.000000000000000
 51
31.045490826862444
  0
ARC
  8
0
  6
CONTINUOUS
 62
3
 10
-637.267369151418280
 20
-147.247604582538320
 40
300.000000000000060
 50
353.967950853630210
 51
6.032049146369816
  0
ARC
  8
0
  6
CONTINUOUS
 62
3
 10
-343.900704378475890
 20
-178.247604582538200
 40
5.000000000000000
 50
270.000000000000000
 51
353.967950853629650
  0
LINE
  8
0
  6
CONTINUOUS
 62
3
 10
-372.461065642497720
 20
-183.247604582538200
 11
-343.900704378475890
 21
-183.247604582538200
  0
LINE
  8
0
  6
CONTINUOUS
 62
3
 10
-372.461065642497720
 20
-111.247604582538200
 11
-343.900704378475890
 21
-111.247604582538200
  0
ARC
  8
0
  6
CONTINUOUS
 62
3
 10
-343.900704378475890
 20
-116.247604582538200
 40
5.000000000000131
 50
6.032049146369048
 51
90.000000000000000
  0
LINE
  8
0
  6
CONTINUOUS
 62
3
 10
-337.277785998936000
 20
-149.747604582538200
 11
-336.767369151418280
 21
-149.747604582538200
  0
LINE
  8
0
  6
CONTINUOUS
 62
3
 10
-337.267371008616010
 20
-144.747604582538200
 11
-336.767369151418280
 21
-144.747604582538200
  0
LINE
  8
0
  6
CONTINUOUS
 62
3
 10
-336.767369151418280
 20
-149.747604582538200
 11
-336.767369151418280
 21
-144.747604582538200
  0
LINE
  8
0
  6
CONTINUOUS
 62
3
 10
-371.267369151418280
 20
-177.240103644805000
 11
-371.267369151418280
 21
-183.247604582538200
  0
LINE
  8
0
  6
CONTINUOUS
 62
3
 10
-371.267369151418280
 20
-117.255105520271400
 11
-371.267369151418280
 21
-111.247604582538200
  0
LINE
  8
0
  6
DASHDOT
 62
4
 10
-141.542999770928300
 20
69.252395417461798
 11
-159.542999770928300
 21
69.252395417461798
  0
LINE
  8
0
  6
DASHDOT
 62
4
 10
-150.542999770928300
 20
60.252395417461798
 11
-150.542999770928300
 21
87.253994740011535
  0
LINE
  8
0
  6
DASHED
 62
4
 10
-157.542999770928300
 20
89.252395417461798
 11
-157.542999770928300
 21
69.252395417461798
  0
LINE
  8
0
  6
DASHED
 62
4
 10
-143.542999770928300
 20
89.252395417461798
 11
-143.542999770928300
 21
69.252395417461798
  0
ARC
  8
0
  6
DASHED
 62
4
 10
-150.542999770928300
 20
69.252395417461798
 40
7.000000000000000
 50
180.000000000000000
 51
0.000000000000000
  0
CIRCLE
  8
0
  6
DASHED
 62
4
 10
-150.542999770928300
 20
69.252395417461798
 40
6.000000000000000
  0
LINE
  8
0
  6
DASHDOT
 62
4
 10
305.977557073660820
 20
-145.747604582538770
 11
163.093947553967920
 21
-145.747604582538770
  0
LINE
  8
0
  6
CONTINUOUS
 62
3
 10
294.757006280272210
 20
-145.747604582538770
 11
294.757006280272210
 21
-126.147604582539310
  0
LINE
  8
0
  6
CONTINUOUS
 62
3
 10
234.357006280272230
 20
-168.247604582538770
 11
232.757006280273230
 21
-168.247604582538770
  0
LINE
  8
0
  6
CONTINUOUS
 62
3
 10
234.357006280272230
 20
-123.247604582538770
 11
232.757006280273230
 21
-123.247604582538770
  0
LINE
  8
0
  6
CONTINUOUS
 62
3
 10
294.357006280272120
 20
-125.747604582538770
 11
237.816821027276890
 21
-125.747604582538770
  0
LINE
  8
0
  6
CONTINUOUS
 62
3
 10
237.257013406141030
 20
-125.897604582539310
 11
236.357006280272230
 21
-125.897604582539310
  0
LINE
  8
0
  6
CONTINUOUS
 62
3
 10
234.357006280272230
 20
-123.247604582538770
 11
234.757006280272320
 21
-123.647604582539310
  0
LINE
  8
0
  6
CONTINUOUS
 62
3
 10
234.757006280272320
 20
-145.747604582538770
 11
234.757006280272320
 21
-123.647604582539310
  0
LINE
  8
0
  6
CONTINUOUS
 62
3
 10
237.816821027276430
 20
-125.747604582538770
 11
237.257013406141030
 21
-125.897604582539310
  0
LINE
  8
0
  6
CONTINUOUS
 62
3
 10
237.257013406141030
 20
-165.597604582539130
 11
236.357006280272230
 21
-165.597604582539130
  0
LINE
  8
0
  6
CONTINUOUS
 62
3
 10
234.357006280272230
 20
-168.247604582538770
 11
234.757006280272320
 21
-167.847604582539130
  0
LINE
  8
0
  6
CONTINUOUS
 62
3
 10
234.757006280272320
 20
-145.747604582538770
 11
234.757006280272320
 21
-167.847604582539130
  0
LINE
  8
0
  6
CONTINUOUS
 62
3
 10
294.357006280272120
 20
-165.747604582538770
 11
237.816821027276890
 21
-165.747604582538770
  0
LINE
  8
0
  6
CONTINUOUS
 62
3
 10
237.816821027276430
 20
-165.747604582538770
 11
237.257013406141030
 21
-165.597604582539130
  0
LINE
  8
0
  6
CONTINUOUS
 62
3
 10
294.757006280272210
 20
-145.747604582538770
 11
294.757006280272210
 21
-165.347604582539130
  0
LINE
  8
0
  6
CONTINUOUS
 62
3
 10
231.757006255363080
 20
-186.747604582538770
 11
232.757006280273230
 21
-186.747604582538770
  0
LINE
  8
0
  6
CONTINUOUS
 62
3
 10
231.757006255363080
 20
-104.747604582538770
 11
232.757006280273230
 21
-104.747604582538770
  0
LINE
  8
0
  6
CONTINUOUS
 62
3
 10
191.242785778765070
 20
-145.747604582538770
 11
191.242785778765070
 21
-264.400843246313340
  0
LINE
  8
0
  6
CONTINUOUS
 62
3
 10
226.112785778764990
 20
-145.747604582538770
 11
226.112785778764990
 21
-265.618530478490360
  0
LINE
  8
0
  6
CONTINUOUS
 62
3
 10
232.757006280273230
 20
-186.747604582538770
 11
232.757006280273230
 21
-145.747604582538770
  0
LINE
  8
0
  6
CONTINUOUS
 62
3
 10
230.757006230452930
 20
-99.071076223799537
 11
230.757006230452930
 21
-145.747604582538770
  0
LINE
  8
0
  6
CONTINUOUS
 62
3
 10
230.756987237033970
 20
-145.747604582538770
 11
230.756987237033970
 21
-267.437112336438080
  0
LINE
  8
0
  6
CONTINUOUS
 62
3
 10
232.757006280273230
 20
-104.747604582538770
 11
232.757006280273230
 21
-145.747604582538770
  0
LINE
  8
0
  6
CONTINUOUS
 62
3
 10
232.756987286852450
 20
-272.127528144057580
 11
232.756987286852450
 21
-290.747631146638920
  0
LINE
  8
0
  6
DASHDOT
 62
4
 10
214.757000938984530
 20
-262.729642592950770
 11
214.757000938984530
 21
-296.199596478670170
  0
LINE
  8
0
  6
CONTINUOUS
 62
3
 10
192.756987286852420
 20
-267.350786652563330
 11
229.379135525311430
 21
-268.629660249490370
  0
ARC
  8
0
  6
CONTINUOUS
 62
3
 10
294.357006280272120
 20
-126.147604582539310
 40
0.400000000000091
 50
0.000000000000000
 51
90.000000000000000
  0
ARC
  8
0
  6
CONTINUOUS
 62
3
 10
236.357006280272230
 20
-124.297604582538950
 40
1.599999999999909
 50
180.000000000000000
 51
270.000000000000000
  0
ARC
  8
0
  6
CONTINUOUS
 62
3
 10
236.357006280272230
 20
-167.197604582538590
 40
1.599999999999454
 50
90.000000000000000
 51
180.000000000000000
  0
ARC
  8
0
  6
CONTINUOUS
 62
3
 10
294.357006280272120
 20
-165.347604582539130
 40
0.399999999999636
 50
270.000000000000000
 51
0.000000000000000
  0
ARC
  8
0
  6
CONTINUOUS
 62
3
 10
231.757006255363080
 20
-187.747604607448010
 40
1.000000024909241
 50
90.000000000000000
 51
180.000000000000000
  0
ARC
  8
0
  6
CONTINUOUS
 62
3
 10
227.757006230452930
 20
-99.071076223799537
 40
3.000000000000000
 50
0.000000000000000
 51
31.668452967603624
  0
ARC
  8
0
  6
CONTINUOUS
 62
3
 10
166.477784276483220
 20
-136.871300518321730
 40
74.999999999999915
 50
31.668452967610158
 51
88.999999999999616
  0
ARC
  8
0
  6
CONTINUOUS
 62
3
 10
231.757006255363080
 20
-103.747604557629520
 40
1.000000024909241
 50
180.000000000000000
 51
270.000000000000000
  0
ARC
  8
0
  6
CONTINUOUS
 62
3
 10
194.242785778765070
 20
-264.400843246313340
 40
3.000000000000000
 50
180.000000000000000
 51
267.999999999996650
  0
ARC
  8
0
  6
CONTINUOUS
 62
3
 10
229.112785778764990
 20
-265.618530478490360
 40
3.000000000000000
 50
180.000000000000000
 51
267.999999999996650
  0
ARC
  8
0
  6
CONTINUOUS
 62
3
 10
229.256987286852450
 20
-272.127528144057580
 40
3.500000000000000
 50
0.000000000000000
 51
46.186939148157336
  0
ARC
  8
0
  6
CONTINUOUS
 62
3
 10
229.256987286852450
 20
-272.127528144057580
 40
3.500000000000175
 50
46.186939148157336
 51
87.999999999996561
  0
ARC
  8
0
  6
CONTINUOUS
 62
3
 10
233.756987237033970
 20
-267.437112336438080
 40
3.000000000000000
 50
180.000000000000000
 51
226.186939148152190
  0
POLYLINE
  8
0
  6
CONTINUOUS
 62
3
 66
1
  0
VERTEX
  8
0
  6
CONTINUOUS
 62
3
 10
226.112785778764560
 20
-145.747604582538770
  0
VERTEX
  8
0
  6
CONTINUOUS
 62
3
 10
225.777777142594890
 20
-141.845798142216210
  0
VERTEX
  8
0
  6
CONTINUOUS
 62
3
 10
224.785625428098850
 20
-138.093935935236970
  0
VERTEX
  8
0
  6
CONTINUOUS
 62
3
 10
223.174458469259430
 20
-134.636199922146720
  0
VERTEX
  8
0
  6
CONTINUOUS
 62
3
 10
221.006192508752010
 20
-131.605468958807820
  0
VERTEX
  8
0
  6
CONTINUOUS
 62
3
 10
218.364152791461320
 20
-129.118212336487860
  0
VERTEX
  8
0
  6
CONTINUOUS
 62
3
 10
215.349871422049890
 20
-127.270013932313040
  0
VERTEX
  8
0
  6
CONTINUOUS
 62
3
 10
212.079185543115760
 20
-126.131898974474160
  0
VERTEX
  8
0
  6
CONTINUOUS
 62
3
 10
208.677785778764560
 20
-125.747604582538770
  0
VERTEX
  8
0
  6
CONTINUOUS
 62
3
 10
205.276386014413360
 20
-126.131898974474160
  0
VERTEX
  8
0
  6
CONTINUOUS
 62
3
 10
202.005700135479230
 20
-127.270013932313040
  0
VERTEX
  8
0
  6
CONTINUOUS
 62
3
 10
198.991418766067800
 20
-129.118212336487890
  0
VERTEX
  8
0
  6
CONTINUOUS
 62
3
 10
196.349379048777110
 20
-131.605468958807820
  0
VERTEX
  8
0
  6
CONTINUOUS
 62
3
 10
194.181113088269680
 20
-134.636199922146720
  0
VERTEX
  8
0
  6
CONTINUOUS
 62
3
 10
192.569946129430290
 20
-138.093935935236970
  0
VERTEX
  8
0
  6
CONTINUOUS
 62
3
 10
191.577794414934260
 20
-141.845798142216210
  0
VERTEX
  8
0
  6
CONTINUOUS
 62
3
 10
191.242785778764580
 20
-145.747604582538770
  0
SEQEND
  8
0
  6
CONTINUOUS
 62
3
  0
LINE
  8
0
  6
DASHDOT
 62
4
 10
232.257006280273120
 20
260.252398095222470
 11
197.257006280273150
 21
260.252398095222470
  0
LINE
  8
0
  6
DASHDOT
 62
4
 10
214.757006280273150
 20
277.752398095222470
 11
214.757006280273150
 21
242.752398095222470
  0
ARC
  8
0
  6
CONTINUOUS
 62
3
 10
166.483882986005280
 20
193.628614043597390
 40
75.000000000000327
 50
71.103485179946389
 51
88.999999999999972
  0
ARC
  8
0
  6
CONTINUOUS
 62
3
 10
227.757006280273120
 20
231.438723297149070
 40
3.000000000000000
 50
0.000000000000000
 51
31.677695816961705
  0
ARC
  8
0
  6
CONTINUOUS
 62
3
 10
166.483882986005280
 20
193.628614043597390
 40
75.000000000000739
 50
31.677695816952852
 51
35.133474768257884
  0
CIRCLE
  8
0
  6
CONTINUOUS
 62
3
 10
214.757006280273150
 20
260.252398095222470
 40
7.500000000000000
  0
ARC
  8
0
  6
CONTINUOUS
 62
3
 10
214.757006280273150
 20
260.252398095222470
 40
22.000000000000316
 50
176.569875503928870
 51
269.000000000000570
  0
ARC
  8
0
  6
CONTINUOUS
 62
3
 10
189.801793571743270
 20
261.748178383921750
 40
3.000000000000326
 50
356.569875503924440
 51
71.103485179939781
  0
LINE
  8
0
  6
CONTINUOUS
 62
3
 10
214.373053338653140
 20
238.255748801782490
 11
225.418821846893250
 21
238.062944195289330
  0
ARC
  8
0
  6
CONTINUOUS
 62
3
 10
225.366464627580850
 20
235.063401109819670
 40
3.000000000000104
 50
35.133474768258203
 51
88.999999999989711
  0
ARC
  8
0
  6
CONTINUOUS
 62
3
 10
224.757006280273120
 20
269.890820426211230
 40
8.000000000000000
 50
0.000000000000000
 51
89.000000000004761
  0
LINE
  8
0
  6
DASHDOT
 62
4
 10
232.257006280273120
 20
45.252392739701151
 11
197.257006280273150
 21
45.252392739701151
  0
ARC
  8
0
  6
CONTINUOUS
 62
3
 10
166.483882986005280
 20
111.876176791326200
 40
75.000000000000497
 50
271.000000000000060
 51
288.896514820053600
  0
ARC
  8
0
  6
CONTINUOUS
 62
3
 10
189.801793571743270
 20
43.756612451001871
 40
2.999999999999901
 50
288.896514820060250
 51
3.430124496075548
  0
ARC
  8
0
  6
CONTINUOUS
 62
3
 10
224.757006280273120
 20
35.613970408712390
 40
8.000000000000092
 50
270.999999999995280
 51
0.000000000000000
  0
ARC
  8
0
  6
CONTINUOUS
 62
3
 10
294.357006280272120
 20
133.152395417461430
 40
0.399999999999636
 50
270.000000000000000
 51
0.000000000000000
  0
LINE
  8
0
  6
CONTINUOUS
 62
3
 10
294.757006280272210
 20
152.752395417461800
 11
294.757006280272210
 21
129.752395417461800
  0
LINE
  8
0
  6
CONTINUOUS
 62
3
 10
237.816821027276320
 20
132.752395417461800
 11
237.257013406140910
 21
132.902395417461430
  0
LINE
  8
0
  6
CONTINUOUS
 62
3
 10
294.357006280272120
 20
132.752395417461800
 11
237.816821027276770
 21
132.752395417461800
  0
LINE
  8
0
  6
CONTINUOUS
 62
3
 10
234.757006280272210
 20
152.752395417461800
 11
234.757006280272210
 21
130.652395417461430
  0
LINE
  8
0
  6
CONTINUOUS
 62
3
 10
234.357006280272120
 20
130.252395417461800
 11
234.757006280272210
 21
130.652395417461430
  0
LINE
  8
0
  6
CONTINUOUS
 62
3
 10
237.257013406140910
 20
132.902395417461430
 11
236.357006280272120
 21
132.902395417461430
  0
ARC
  8
0
  6
CONTINUOUS
 62
3
 10
236.357006280272120
 20
131.302395417461980
 40
1.599999999999454
 50
90.000000000000000
 51
180.000000000000000
  0
LINE
  8
0
  6
CONTINUOUS
 62
3
 10
234.357006280272120
 20
130.252395417461800
 11
232.757006280273120
 21
130.252395417461800
  0
LINE
  8
0
  6
CONTINUOUS
 62
3
 10
237.816821027276320
 20
172.752395417460890
 11
237.257013406140910
 21
172.602395417461250
  0
LINE
  8
0
  6
CONTINUOUS
 62
3
 10
234.757006280272210
 20
152.752395417461800
 11
234.757006280272210
 21
174.852395417461250
  0
LINE
  8
0
  6
CONTINUOUS
 62
3
 10
234.357006280272120
 20
175.252395417461800
 11
232.757006280273120
 21
175.252395417461800
  0
LINE
  8
0
  6
CONTINUOUS
 62
3
 10
234.357006280272120
 20
175.252395417461800
 11
234.757006280272210
 21
174.852395417461250
  0
LINE
  8
0
  6
CONTINUOUS
 62
3
 10
237.257013406140910
 20
172.602395417461250
 11
236.357006280272120
 21
172.602395417461250
  0
ARC
  8
0
  6
CONTINUOUS
 62
3
 10
236.357006280272120
 20
174.202395417461620
 40
1.599999999999909
 50
180.000000000000000
 51
270.000000000000000
  0
LINE
  8
0
  6
CONTINUOUS
 62
3
 10
294.757006280272210
 20
152.752395417461800
 11
294.757006280272210
 21
172.352395417461250
  0
LINE
  8
0
  6
CONTINUOUS
 62
3
 10
294.357006280272120
 20
172.752395417461800
 11
237.816821027276770
 21
172.752395417460890
  0
ARC
  8
0
  6
CONTINUOUS
 62
3
 10
294.357006280272120
 20
172.352395417461250
 40
0.400000000000091
 50
0.000000000000000
 51
90.000000000000000
  0
LINE
  8
0
  6
CONTINUOUS
 62
3
 10
239.757006280272210
 20
132.752395417461800
 11
239.757006280272210
 21
129.752395417461800
  0
LINE
  8
0
  6
CONTINUOUS
 62
3
 10
294.757013406140910
 20
129.752395417461800
 11
239.757013406140910
 21
129.752395417461800
  0
CIRCLE
  8
0
  6
CONTINUOUS
 62
3
 10
214.757006280273150
 20
45.252392739701151
 40
7.500000000000000
  0
LINE
  8
0
  6
DASHDOT
 62
4
 10
214.757006280273150
 20
27.752392739701151
 11
214.757006280273150
 21
62.752392739701151
  0
LINE
  8
0
  6
CONTINUOUS
 62
3
 10
232.757006280273120
 20
152.752395417461800
 11
232.757006280273120
 21
35.477902502243211
  0
ARC
  8
0
  6
CONTINUOUS
 62
3
 10
166.483882986005280
 20
111.876176791326200
 40
75.000000000000043
 50
324.866525231742170
 51
328.322304183047150
  0
LINE
  8
0
  6
CONTINUOUS
 62
3
 10
214.373053338653140
 20
67.249042033141137
 11
225.418821846893250
 21
67.441846639634292
  0
ARC
  8
0
  6
CONTINUOUS
 62
3
 10
225.366464627580850
 20
70.441389725103960
 40
3.000000000000504
 50
271.000000000010350
 51
324.866525231741780
  0
ARC
  8
0
  6
CONTINUOUS
 62
3
 10
214.757006280273150
 20
45.252392739701151
 40
21.999999999999375
 50
90.999999999999432
 51
183.430124496071130
  0
ARC
  8
0
  6
CONTINUOUS
 62
3
 10
231.757006280273120
 20
110.752395417461790
 40
1.000000000000000
 50
90.000000000000000
 51
180.000000000000000
  0
ARC
  8
0
  6
CONTINUOUS
 62
3
 10
231.757006280273120
 20
194.752395417461800
 40
1.000000000000000
 50
180.000000000000000
 51
270.000000000000000
  0
ARC
  8
0
  6
CONTINUOUS
 62
3
 10
227.757006280273120
 20
74.066067537774558
 40
3.000000000000318
 50
328.322304183038280
 51
0.000000000000000
  0
LINE
  8
0
  6
CONTINUOUS
 62
3
 10
230.757006280273120
 20
152.752395417461800
 11
230.757006280273120
 21
74.066067537774558
  0
LINE
  8
0
  6
CONTINUOUS
 62
3
 10
232.757006280273120
 20
152.752395417461800
 11
232.757006280273120
 21
269.890820426211230
  0
LINE
  8
0
  6
CONTINUOUS
 62
3
 10
230.757006280273120
 20
152.752395417461800
 11
230.757006280273120
 21
231.438723297149070
  0
LINE
  8
0
  6
CONTINUOUS
 62
3
 10
231.757006280273120
 20
111.752395417461790
 11
232.757006280273120
 21
111.752395417461790
  0
LINE
  8
0
  6
CONTINUOUS
 62
3
 10
231.757006280273120
 20
193.752395417461800
 11
232.757006280273120
 21
193.752395417461800
  0
LINE
  8
0
  6
DASHDOT
 62
4
 10
83.683619676525296
 20
-73.747592572648500
 11
57.083513586574583
 21
-73.747592572648500
  0
LINE
  8
0
  6
CONTINUOUS
 62
3
 10
16.257000229058548
 20
137.752395417461680
 11
52.757000229065710
 21
137.752395417461680
  0
ARC
  8
0
  6
CONTINUOUS
 62
3
 10
52.757000229065710
 20
134.752395417461680
 40
3.000000000000000
 50
0.000000000000000
 51
90.000000000000000
  0
LINE
  8
0
  6
DASHDOT
 62
4
 10
35.757000229065710
 20
136.000056976563880
 11
35.757000229065710
 21
167.522864313099940
  0
CIRCLE
  8
0
  6
CONTINUOUS
 62
3
 10
35.757000229065710
 20
152.752395417461800
 40
10.500000000000000
  0
LINE
  8
0
  6
CONTINUOUS
 62
3
 10
16.257000229058548
 20
167.752395417461910
 11
52.757000229065710
 21
167.752395417461910
  0
ARC
  8
0
  6
CONTINUOUS
 62
3
 10
52.757000229065710
 20
170.752395417461910
 40
3.000000000000000
 50
270.000000000000000
 51
0.000000000000000
  0
LINE
  8
0
  6
CONTINUOUS
 62
3
 10
13.257000229058548
 20
152.752395417461800
 11
13.257000229058548
 21
98.252395417461713
  0
LINE
  8
0
  6
CONTINUOUS
 62
3
 10
13.257000229058548
 20
207.252395417461910
 11
13.257000229058548
 21
152.752395417461800
  0
ARC
  8
0
  6
CONTINUOUS
 62
3
 10
16.257000229058548
 20
134.752395417461680
 40
3.000000000000000
 50
90.000000000000000
 51
180.000000000000000
  0
ARC
  8
0
  6
CONTINUOUS
 62
3
 10
16.257000229058548
 20
170.752395417461910
 40
3.000000000000000
 50
180.000000000000000
 51
270.000000000000000
  0
ARC
  8
0
  6
CONTINUOUS
 62
3
 10
8.257000229058548
 20
207.252395417461910
 40
5.000000000000000
 50
0.000000000000000
 51
90.000000000000000
  0
ARC
  8
0
  6
CONTINUOUS
 62
3
 10
8.257000229058548
 20
98.252395417461713
 40
5.000000000000000
 50
270.000000000000000
 51
0.000000000000000
  0
LINE
  8
0
  6
CONTINUOUS
 62
3
 10
65.757000229065710
 20
-94.247604582538486
 11
65.757000229065710
 21
-248.747604582538260
  0
ARC
  8
0
  6
CONTINUOUS
 62
3
 10
16.757000229065710
 20
-193.444627006804350
 40
5.000000000000000
 50
0.000000000000000
 51
90.000000000000000
  0
LINE
  8
0
  6
CONTINUOUS
 62
3
 10
-5.742999770934290
 20
-188.444627006804300
 11
16.757000229065710
 21
-188.444627006804350
  0
ARC
  8
0
  6
CONTINUOUS
 62
3
 10
52.757000229065710
 20
-170.247604582540300
 40
3.000000000000000
 50
0.000000000000000
 51
90.000000000000000
  0
LINE
  8
0
  6
CONTINUOUS
 62
3
 10
-5.742999770934290
 20
-167.247604582540300
 11
52.757000229065710
 21
-167.247604582540300
  0
LINE
  8
0
  6
CONTINUOUS
 62
3
 10
13.257000229064289
 20
-127.247604582540300
 11
-5.742999770934290
 21
-127.247604582540300
  0
ARC
  8
0
  6
CONTINUOUS
 62
3
 10
18.257000229063834
 20
-137.747604582538540
 40
5.000000000000000
 50
179.999999999997410
 51
270.000000000000000
  0
ARC
  8
0
  6
CONTINUOUS
 62
3
 10
52.757000229065710
 20
-139.747604582538540
 40
3.000000000000000
 50
270.000000000000000
 51
0.000000000000000
  0
LINE
  8
0
  6
CONTINUOUS
 62
3
 10
18.257000229063834
 20
-142.747604582538540
 11
52.757000229065710
 21
-142.747604582538540
  0
POINT
  8
0
  6
CONTINUOUS
 62
3
 10
55.757000229065710
 20
-256.247604582538490
  0
ARC
  8
0
  6
CONTINUOUS
 62
3
 10
50.757000229065710
 20
-106.747604582538710
 40
5.000000000000000
 50
270.000000000000000
 51
0.000000000000000
  0
ARC
  8
0
  6
CONTINUOUS
 62
3
 10
58.757000229065710
 20
-258.001330563199820
 40
3.000000000000000
 50
180.000000000000000
 51
267.999999999999600
  0
LINE
  8
0
  6
DASHDOT
 62
4
 10
35.757000229065710
 20
-125.491716574257620
 11
35.757000229065710
 21
-96.851814313442162
  0
ARC
  8
0
  6
CONTINUOUS
 62
3
 10
50.898883406314866
 20
-95.747604582538486
 40
5.000000000000000
 50
270.000000000000000
 51
349.193077125139720
  0
ARC
  8
0
  6
CONTINUOUS
 62
3
 10
58.757000229065710
 20
-97.247604582538486
 40
3.000000000000000
 50
90.000000000000000
 51
180.000000000000000
  0
LINE
  8
0
  6
CONTINUOUS
 62
3
 10
58.757000229065710
 20
-94.247604582538486
 11
65.757000229065710
 21
-94.247604582538486
  0
LINE
  8
0
  6
CONTINUOUS
 62
3
 10
55.757000229065710
 20
-97.247604582538486
 11
55.757000229065710
 21
-245.539841666690730
  0
LINE
  8
0
  6
CONTINUOUS
 62
3
 10
58.652301738958187
 20
-260.999503044257100
 11
65.757000229065710
 21
-261.247604582538490
  0
LINE
  8
0
  6
CONTINUOUS
 62
3
 10
65.757000229065710
 20
-261.247604582538490
 11
65.757000229065710
 21
-248.747604582538260
  0
LINE
  8
0
  6
CONTINUOUS
 62
3
 10
55.757000229065710
 20
-245.539841666690850
 11
55.757000229065710
 21
-258.001330563199820
  0
ARC
  8
0
  6
CONTINUOUS
 62
3
 10
8.257000229065710
 20
-93.020757402565266
 40
5.000000000000000
 50
359.999999999998070
 51
92.999999999999716
  0
LINE
  8
0
  6
CONTINUOUS
 62
3
 10
13.257000229065596
 20
-95.747604582538258
 11
13.257000229065710
 21
-93.020757402565437
  0
ARC
  8
0
  6
CONTINUOUS
 62
3
 10
18.257000229065596
 20
-95.747604582538486
 40
5.000000000000000
 50
179.999999999997410
 51
270.000000000000000
  0
ARC
  8
0
  6
CONTINUOUS
 62
3
 10
18.257000229065142
 20
-106.747604582538710
 40
5.000000000000000
 50
179.999999999997410
 51
270.000000000000000
  0
LINE
  8
0
  6
CONTINUOUS
 62
3
 10
13.257000229063834
 20
-137.747604582538320
 11
13.257000229065596
 21
-95.747604582538258
  0
LINE
  8
0
  6
CONTINUOUS
 62
3
 10
50.898883406314866
 20
-100.747604582538480
 11
18.257000229065596
 21
-100.747604582538480
  0
LINE
  8
0
  6
CONTINUOUS
 62
3
 10
50.757000229065710
 20
-111.747604582538710
 11
18.257000229065142
 21
-111.747604582538710
  0
LINE
  8
0
  6
CONTINUOUS
 62
3
 10
-5.742999770934290
 20
-205.747604582538490
 11
-5.742999770934290
 21
-88.747604582537861
  0
LINE
  8
0
  6
CONTINUOUS
 62
3
 10
7.995320447851014
 20
-88.027609728792356
 11
-5.742999770934290
 21
-88.747604582538202
  0
LINE
  8
0
  6
DASHDOT
 62
4
 10
9.870791934213088
 20
-147.247604582538200
 11
-282.420926359533040
 21
-147.247604582538200
  0
LINE
  8
0
  6
DASHDOT
 62
4
 10
-276.714134856727470
 20
152.752395417461800
 11
311.771996521774550
 21
152.752395417461800
  0
ARC
  8
0
  6
CONTINUOUS
 62
3
 10
53.757006280273146
 20
35.455177453452649
 40
8.000000000000000
 50
180.000000000000000
 51
267.831324413388360
  0
LINE
  8
0
  6
CONTINUOUS
 62
3
 10
53.454274342658010
 20
27.460907419612937
 11
104.757006280273140
 21
25.518143992978054
  0
CIRCLE
  8
0
  6
CONTINUOUS
 62
3
 10
64.757006280273146
 20
45.252392739701151
 40
7.500000000000000
  0
LINE
  8
0
  6
DASHDOT
 62
4
 10
64.757006280273146
 20
27.752392739701151
 11
64.757006280273146
 21
62.752392739701151
  0
LINE
  8
0
  6
CONTINUOUS
 62
3
 10
224.896625531770720
 20
27.615188847461155
 11
104.757006280273140
 21
25.518143992978054
  0
LINE
  8
0
  6
CONTINUOUS
 62
3
 10
102.757000229073150
 20
152.752395417461800
 11
102.757000229073150
 21
35.752395417461827
  0
LINE
  8
0
  6
CONTINUOUS
 62
3
 10
45.757006280273146
 20
64.890815319784139
 11
45.757006280273146
 21
35.169235447294938
  0
LINE
  8
0
  6
CONTINUOUS
 62
3
 10
102.757006280273140
 20
35.752395417461827
 11
167.792813468801600
 21
36.887599654596357
  0
ARC
  8
0
  6
CONTINUOUS
 62
3
 10
53.757006280273146
 20
240.613975515139490
 40
8.000000000000000
 50
180.000000000000000
 51
268.999999999998240
  0
LINE
  8
0
  6
CONTINUOUS
 62
3
 10
53.617387028774630
 20
232.615193953888250
 11
55.757006280271781
 21
232.577846760931720
  0
LINE
  8
0
  6
CONTINUOUS
 62
3
 10
53.617387028774630
 20
72.889596881035374
 11
55.757006280271781
 21
72.926944073991905
  0
ARC
  8
0
  6
CONTINUOUS
 62
3
 10
53.757006280273146
 20
64.890815319784139
 40
8.000000000000108
 50
91.000000000001762
 51
180.000000000000000
  0
LINE
  8
0
  6
DASHDOT
 62
4
 10
64.757006280273146
 20
246.289165363782220
 11
64.757006280273146
 21
242.752398095222470
  0
LINE
  8
0
  6
DASHDOT
 62
4
 10
82.257006280273146
 20
45.252392739701151
 11
47.257006280273146
 21
45.252392739701151
  0
LINE
  8
0
  6
CONTINUOUS
 62
3
 10
53.454274342658010
 20
278.043883415310690
 11
104.757006280273140
 21
279.986646841945570
  0
ARC
  8
0
  6
CONTINUOUS
 62
3
 10
53.757006280273146
 20
270.049613381470980
 40
7.999999999999988
 50
92.168675586611627
 51
180.000000000000000
  0
LINE
  8
0
  6
CONTINUOUS
 62
3
 10
224.896625531770720
 20
277.889601987462470
 11
104.757006280273140
 21
279.986646841945570
  0
CIRCLE
  8
0
  6
CONTINUOUS
 62
3
 10
64.757006280273146
 20
260.252398095222470
 40
7.500000000000000
  0
LINE
  8
0
  6
CONTINUOUS
 62
3
 10
53.764773827296978
 20
59.023755339968062
 11
83.020126587796113
 21
59.534409421900506
  0
LINE
  8
0
  6
CONTINUOUS
 62
3
 10
102.757000229073150
 20
152.752395417461800
 11
102.757000229073150
 21
269.752395417461800
  0
LINE
  8
0
  6
CONTINUOUS
 62
3
 10
53.764773827296978
 20
246.481035494955560
 11
83.020126587796113
 21
245.970381413023120
  0
LINE
  8
0
  6
CONTINUOUS
 62
3
 10
102.757006280273140
 20
269.752395417461800
 11
167.792813468801600
 21
268.617191180327270
  0
LINE
  8
0
  6
DASHDOT
 62
4
 10
64.757006280273146
 20
277.752398095222470
 11
64.757006280273146
 21
246.289165363782220
  0
LINE
  8
0
  6
DASHDOT
 62
4
 10
82.257006280273146
 20
260.252398095222470
 11
47.257006280273146
 21
260.252398095222470
  0
LINE
  8
0
  6
CONTINUOUS
 62
3
 10
45.757006280273146
 20
240.169240553721120
 11
45.757006280273146
 21
270.049613381470980
  0
ARC
  8
0
  6
CONTINUOUS
 62
3
 10
86.257000229072929
 20
241.901445252097910
 40
4.999999999999244
 50
272.000000000003920
 51
344.651069713993190
  0
LINE
  8
0
  6
CONTINUOUS
 62
3
 10
65.757000229066563
 20
236.182521756022770
 11
65.757000229071792
 21
152.752395417461800
  0
LINE
  8
0
  6
CONTINUOUS
 62
3
 10
65.757000229066563
 20
236.182521756022770
 11
86.431497712585752
 21
236.904491117003200
  0
LINE
  8
0
  6
CONTINUOUS
 62
3
 10
91.257000229073157
 20
266.752395417461800
 11
91.257000229073384
 21
176.252395417461910
  0
LINE
  8
0
  6
CONTINUOUS
 62
3
 10
82.257000229073384
 20
173.252395417461910
 11
88.257000229073384
 21
173.252395417461910
  0
LINE
  8
0
  6
CONTINUOUS
 62
3
 10
74.757000229062470
 20
173.252395417461910
 11
79.257000229073384
 21
173.252395417461910
  0
LINE
  8
0
  6
CONTINUOUS
 62
3
 10
74.757000229062470
 20
173.252395417461910
 11
74.757000229063834
 21
152.752395417461910
  0
LINE
  8
0
  6
CONTINUOUS
 62
3
 10
79.257000229073384
 20
152.752395417461910
 11
79.257000229073384
 21
173.252395417461910
  0
ARC
  8
0
  6
CONTINUOUS
 62
3
 10
82.257000229073384
 20
170.252395417461910
 40
3.000000000000000
 50
90.000000000000000
 51
180.000000000000000
  0
ARC
  8
0
  6
CONTINUOUS
 62
3
 10
88.257000229073384
 20
176.252395417461910
 40
3.000000000000000
 50
270.000000000000000
 51
0.000000000000000
  0
ARC
  8
0
  6
CONTINUOUS
 62
3
 10
94.257000229073157
 20
266.752395417461800
 40
3.000000000000000
 50
90.000000000000000
 51
180.000000000000000
  0
LINE
  8
0
  6
CONTINUOUS
 62
3
 10
84.257000229073384
 20
252.252395417461800
 11
83.757001182747473
 21
252.252395417461800
  0
LINE
  8
0
  6
CONTINUOUS
 62
3
 10
84.257000229073157
 20
265.252395417461800
 11
83.757002136421789
 21
265.252395417461800
  0
LINE
  8
0
  6
CONTINUOUS
 62
3
 10
83.757001182747473
 20
252.252395417461800
 11
83.757001182747473
 21
265.252395417461800
  0
LINE
  8
0
  6
CONTINUOUS
 62
3
 10
83.757002447232509
 20
265.252395394760810
 11
83.257001497039283
 21
264.386465823692220
  0
LINE
  8
0
  6
CONTINUOUS
 62
3
 10
83.757001820605211
 20
252.252395393393390
 11
83.257001794458148
 21
253.118519533527550
  0
LINE
  8
0
  6
CONTINUOUS
 62
3
 10
83.257001182747473
 20
253.118519570599010
 11
83.257001182747473
 21
264.386465813885140
  0
ARC
  8
0
  6
CONTINUOUS
 62
3
 10
87.257000229073157
 20
266.752395417461800
 40
3.000000000000000
 50
90.000000000000000
 51
180.000000000000000
  0
LINE
  8
0
  6
CONTINUOUS
 62
3
 10
102.257000229073150
 20
269.752395417461340
 11
87.257000229073157
 21
269.752395417461800
  0
LINE
  8
0
  6
CONTINUOUS
 62
3
 10
84.257000229073384
 20
243.752395417461800
 11
84.257000229073157
 21
266.752395417461800
  0
ARC
  8
0
  6
CONTINUOUS
 62
3
 10
89.257000229073384
 20
239.752395417462250
 40
2.000000000000000
 50
0.000000000000000
 51
90.000000000000000
  0
LINE
  8
0
  6
CONTINUOUS
 62
3
 10
89.257000229073384
 20
241.752395417462250
 11
86.257000229073384
 21
241.752395417461800
  0
ARC
  8
0
  6
CONTINUOUS
 62
3
 10
86.257000229073384
 20
243.752395417461800
 40
2.000000000000000
 50
180.000000000000000
 51
270.000000000000000
  0
LINE
  8
0
  6
CONTINUOUS
 62
3
 10
102.257000229073150
 20
269.752395417461340
 11
102.257000229072920
 21
152.752395417461910
  0
INSERT
  8
0
  2
SYM1
 10
91.257000229073384
 20
219.752395417461910
 41
-1.000000000000000
 50
180.000000000000000
  0
INSERT
  8
0
  2
SYM2
 10
74.757000229062925
 20
163.252395417461910
 41
-1.000000000000000
 50
180.000000000000000
  0
ARC
  8
0
  6
CONTINUOUS
 62
3
 10
86.257000229072929
 20
63.603345582825824
 40
4.999999999999970
 50
15.348930286009365
 51
87.999999999996049
  0
LINE
  8
0
  6
CONTINUOUS
 62
3
 10
65.757000229066563
 20
69.322269078900973
 11
65.757000229072020
 21
152.752395417461800
  0
LINE
  8
0
  6
CONTINUOUS
 62
3
 10
65.757000229066563
 20
69.322269078900973
 11
86.431497712585752
 21
68.600299717920535
  0
LINE
  8
0
  6
CONTINUOUS
 62
3
 10
91.257000229073384
 20
38.752395417461940
 11
91.257000229073384
 21
129.252395417461910
  0
LINE
  8
0
  6
CONTINUOUS
 62
3
 10
82.257000229073384
 20
132.252395417461910
 11
88.257000229073384
 21
132.252395417461910
  0
LINE
  8
0
  6
CONTINUOUS
 62
3
 10
74.757000229062470
 20
132.252395417461910
 11
79.257000229073384
 21
132.252395417461910
  0
LINE
  8
0
  6
CONTINUOUS
 62
3
 10
74.757000229062470
 20
132.252395417461910
 11
74.757000229063834
 21
152.752395417461910
  0
LINE
  8
0
  6
CONTINUOUS
 62
3
 10
79.257000229073384
 20
152.752395417461910
 11
79.257000229073384
 21
132.252395417461910
  0
ARC
  8
0
  6
CONTINUOUS
 62
3
 10
82.257000229073384
 20
135.252395417461910
 40
3.000000000000000
 50
180.000000000000000
 51
270.000000000000000
  0
ARC
  8
0
  6
CONTINUOUS
 62
3
 10
88.257000229073384
 20
129.252395417461910
 40
3.000000000000000
 50
0.000000000000000
 51
90.000000000000000
  0
ARC
  8
0
  6
CONTINUOUS
 62
3
 10
94.257000229073384
 20
38.752395417461940
 40
3.000000000000000
 50
180.000000000000000
 51
270.000000000000000
  0
LINE
  8
0
  6
CONTINUOUS
 62
3
 10
84.257000229075203
 20
53.252395417461940
 11
83.757001182747700
 21
53.252395417461940
  0
LINE
  8
0
  6
CONTINUOUS
 62
3
 10
84.257000229075430
 20
40.252395417461940
 11
83.757002136422017
 21
40.252395417461940
  0
LINE
  8
0
  6
CONTINUOUS
 62
3
 10
83.757001182747700
 20
53.252395417461940
 11
83.757001182747700
 21
40.252395417461940
  0
LINE
  8
0
  6
CONTINUOUS
 62
3
 10
83.757002447232736
 20
40.252395440162928
 11
83.257001497039511
 21
41.118325011231519
  0
LINE
  8
0
  6
CONTINUOUS
 62
3
 10
83.757001820605439
 20
53.252395441530354
 11
83.257001794458375
 21
52.386271301396192
  0
LINE
  8
0
  6
CONTINUOUS
 62
3
 10
83.257001182747700
 20
52.386271264324733
 11
83.257001182747700
 21
41.118325021038601
  0
ARC
  8
0
  6
CONTINUOUS
 62
3
 10
87.257000229073384
 20
38.752395417461940
 40
3.000000000000000
 50
180.000000000000000
 51
270.000000000000000
  0
LINE
  8
0
  6
CONTINUOUS
 62
3
 10
102.257000229073380
 20
35.752395417462395
 11
87.257000229073384
 21
35.752395417461940
  0
LINE
  8
0
  6
CONTINUOUS
 62
3
 10
84.257000229073384
 20
61.752395417461940
 11
84.257000229073384
 21
38.752395417461940
  0
ARC
  8
0
  6
CONTINUOUS
 62
3
 10
89.257000229073384
 20
65.752395417461486
 40
2.000000000000000
 50
270.000000000000000
 51
0.000000000000000
  0
LINE
  8
0
  6
CONTINUOUS
 62
3
 10
89.257000229073384
 20
63.752395417461486
 11
86.257000229073384
 21
63.752395417461940
  0
ARC
  8
0
  6
CONTINUOUS
 62
3
 10
86.257000229073384
 20
61.752395417461940
 40
2.000000000000000
 50
90.000000000000000
 51
180.000000000000000
  0
LINE
  8
0
  6
CONTINUOUS
 62
3
 10
102.257000229073380
 20
35.752395417462395
 11
102.257000229072920
 21
152.752395417461910
  0
INSERT
  8
0
  2
SYM3
 10
91.257000229073384
 20
85.752395417461940
 50
0.000000000000014
  0
INSERT
  8
0
  2
SYM4
 10
74.757000229062925
 20
142.252395417461910
 50
0.000000000000014
  0
INSERT
  8
0
  2
SYM5
 10
55.757000229071792
 20
207.553170959419160
 41
-1.000000000000000
 50
180.000000000000000
  0
ARC
  8
0
  6
CONTINUOUS
 62
3
 10
58.757000229071792
 20
233.006121398123130
 40
3.000000000000001
 50
92.000000000003652
 51
180.000000000000000
  0
LINE
  8
0
  6
CONTINUOUS
 62
3
 10
55.757000229071792
 20
152.752395417461800
 11
55.757000229071792
 21
233.006121398123130
  0
LINE
  8
0
  6
CONTINUOUS
 62
3
 10
58.652301738964098
 20
236.004293879180410
 11
65.757000229071792
 21
236.252395417461800
  0
LINE
  8
0
  6
CONTINUOUS
 62
3
 10
-5.742999770928208
 20
212.252395417461910
 11
51.756986287174442
 21
212.252395417461910
  0
ARC
  8
0
  6
CONTINUOUS
 62
3
 10
50.757000229071792
 20
217.252395417461910
 40
5.000000000000009
 50
307.828636848032320
 51
0.000000000000000
  0
ARC
  8
0
  6
CONTINUOUS
 62
3
 10
50.757000229071792
 20
88.252395417461713
 40
5.000000000000000
 50
0.000000000000000
 51
52.171363151967725
  0
LINE
  8
0
  6
CONTINUOUS
 62
3
 10
-5.742999770928208
 20
93.252395417461713
 11
51.757484241875119
 21
93.252395417461713
  0
INSERT
  8
0
  2
SYM6
 10
55.757000229071792
 20
97.951619875504463
  0
ARC
  8
0
  6
CONTINUOUS
 62
3
 10
58.757000229071792
 20
72.498669436800498
 40
3.000000000000000
 50
180.000000000000000
 51
267.999999999996360
  0
LINE
  8
0
  6
CONTINUOUS
 62
3
 10
58.652301738964098
 20
69.500496955743216
 11
65.757000229071792
 21
69.252395417461827
  0
LINE
  8
0
  6
CONTINUOUS
 62
3
 10
55.757000229071792
 20
152.752395417461800
 11
55.757000229071792
 21
72.498669436800498
  0
LINE
  8
0
  6
CONTINUOUS
 62
3
 10
-5.742999770928208
 20
93.252395417461827
 11
-5.742999770928208
 21
152.752395417461800
  0
LINE
  8
0
  6
CONTINUOUS
 62
3
 10
-5.742999770928208
 20
212.252395417461570
 11
-5.742999770928208
 21
152.752395417461800
  0
INSERT
  8
0
  2
SYM7
 10
91.257000229066620
 20
-156.747592572647590
  0
INSERT
  8
0
  2
SYM8
 10
91.257000229066620
 20
-222.747592572647590
  0
INSERT
  8
0
  2
SYM9
 10
55.757000229065710
 20
-232.548380124496130
  0
INSERT
  8
0
  2
SYM10
 10
55.757000229065710
 20
-122.946829040581400
  0
INSERT
  8
0
  2
SYM11
 10
91.257000229066620
 20
-81.240152081310043
  0
ARC
  8
0
  6
CONTINUOUS
 62
3
 10
79.257000229066620
 20
-85.943744995354791
 40
3.000000000000000
 50
0.000000000000000
 51
59.999999999998380
  0
ARC
  8
0
  6
CONTINUOUS
 62
3
 10
82.257000229066620
 20
-80.747571662983319
 40
3.000000000000000
 50
180.000000000000000
 51
239.999999999989710
  0
INSERT
  8
0
  2
SYM12
 10
74.757000229063891
 20
-73.747592572648500
  0
ARC
  8
0
  6
CONTINUOUS
 62
3
 10
85.945902605208033
 20
-259.685699464022040
 40
5.999999999999782
 50
274.332468894032670
 51
317.350764207251640
  0
ARC
  8
0
  6
CONTINUOUS
 62
3
 10
102.757000229066620
 20
-247.339256590318660
 40
1.999999999999826
 50
317.350764207258010
 51
0.000000000000000
  0
ARC
  8
0
  6
CONTINUOUS
 62
3
 10
102.757000229066620
 20
-226.512977183999280
 40
2.000000000000000
 50
0.000000000000000
 51
90.000000000000000
  0
ARC
  8
0
  6
CONTINUOUS
 62
3
 10
49.256991791896183
 20
-271.992486367356830
 40
3.499999999999234
 50
94.332468894025979
 51
180.000000000000000
  0
ARC
  8
0
  6
CONTINUOUS
 62
3
 10
86.257000229066620
 20
-88.598490502991808
 40
5.000000000000153
 50
272.000000000003580
 51
356.081795638019740
  0
ARC
  8
0
  6
CONTINUOUS
 62
3
 10
82.257000229066620
 20
-63.747583672873589
 40
3.000000000000000
 50
90.000000000000000
 51
180.000000000000000
  0
ARC
  8
0
  6
CONTINUOUS
 62
3
 10
79.257000229066620
 20
-90.844154978031838
 40
3.000000000000455
 50
272.000000000003350
 51
0.000000000000000
  0
ARC
  8
0
  6
CONTINUOUS
 62
3
 10
86.257000229066620
 20
-266.896654417174430
 40
4.999999999999993
 50
37.176115582706863
 51
87.999999999996049
  0
ARC
  8
0
  6
CONTINUOUS
 62
3
 10
86.257000229066620
 20
-120.015541765078520
 40
2.000000000000000
 50
90.000000000000000
 51
180.000000000000000
  0
ARC
  8
0
  6
CONTINUOUS
 62
3
 10
86.257000229066620
 20
-141.479643380216660
 40
2.000000000000000
 50
180.000000000000000
 51
270.000000000000000
  0
ARC
  8
0
  6
CONTINUOUS
 62
3
 10
89.257000229066620
 20
-145.479643380216660
 40
2.000000000000000
 50
0.000000000000000
 51
90.000000000000000
  0
ARC
  8
0
  6
CONTINUOUS
 62
3
 10
89.257000229066620
 20
-116.015541765078520
 40
2.000000000000000
 50
270.000000000000000
 51
0.000000000000000
  0
ARC
  8
0
  6
CONTINUOUS
 62
3
 10
94.257000229066620
 20
-63.747604582538770
 40
3.000000000000000
 50
90.000000000000000
 51
180.000000000000000
  0
LINE
  8
0
  6
CONTINUOUS
 62
3
 10
85.756991791896183
 20
-265.717205633053710
 11
48.992588461418421
 21
-268.502487674115400
  0
LINE
  8
0
  6
CONTINUOUS
 62
3
 10
102.757000229066620
 20
-145.747604582538770
 11
102.757000229066620
 21
-250.291250087300800
  0
LINE
  8
0
  6
CONTINUOUS
 62
3
 10
104.757000229066620
 20
-264.277759389241510
 11
192.756987286852420
 21
-267.350786652563330
  0
LINE
  8
0
  6
DASHDOT
 62
4
 10
64.756978164673313
 20
-263.537534324783340
 11
64.756978164673313
 21
-296.199596478670170
  0
LINE
  8
0
  6
CONTINUOUS
 62
3
 10
45.756991791896183
 20
-290.747631146638920
 11
45.756991791896183
 21
-271.992486367356830
  0
LINE
  8
0
  6
CONTINUOUS
 62
3
 10
104.228030544706450
 20
-248.694273125446670
 11
90.358993552127544
 21
-263.750749069404260
  0
LINE
  8
0
  6
CONTINUOUS
 62
3
 10
104.757000229069340
 20
-264.277759389241510
 11
85.756991791896183
 21
-265.717205633053710
  0
LINE
  8
0
  6
CONTINUOUS
 62
3
 10
104.757000229066620
 20
-226.512977183999280
 11
104.757000229066620
 21
-247.339256590318660
  0
LINE
  8
0
  6
CONTINUOUS
 62
3
 10
232.756987286852450
 20
-290.747608194438950
 11
45.756991791896183
 21
-290.747608194438950
  0
LINE
  8
0
  6
CONTINUOUS
 62
3
 10
102.757000229067070
 20
-60.747625492203952
 11
167.786714759279990
 21
-61.882723381591859
  0
LINE
  8
0
  6
CONTINUOUS
 62
3
 10
102.757000229067070
 20
-60.747625492203952
 11
102.757000229066620
 21
-145.747604582538770
  0
LINE
  8
0
  6
CONTINUOUS
 62
3
 10
74.757000229062982
 20
-83.747592572648500
 11
74.757000229066620
 21
-25.747592572648500
  0
LINE
  8
0
  6
CONTINUOUS
 62
3
 10
79.257000229066620
 20
-25.747592572648500
 11
79.257000229066620
 21
-83.747592572648500
  0
LINE
  8
0
  6
DASHDOT
 62
4
 10
69.026752828250068
 20
-45.747592572648500
 11
87.126018843541573
 21
-45.747592572648500
  0
LINE
  8
0
  6
CONTINUOUS
 62
3
 10
74.757000229062982
 20
-83.747592572648500
 11
79.257000229062982
 21
-83.747592572648500
  0
LINE
  8
0
  6
CONTINUOUS
 62
3
 10
79.257000229066620
 20
-63.747604582538770
 11
79.257000229066620
 21
-80.747592572648500
  0
LINE
  8
0
  6
CONTINUOUS
 62
3
 10
74.757000229066620
 20
-25.747592572648500
 11
79.257000229066620
 21
-25.747592572648500
  0
LINE
  8
0
  6
CONTINUOUS
 62
3
 10
65.757000229060253
 20
-94.317413999066957
 11
86.431497712579443
 21
-93.595444638087429
  0
LINE
  8
0
  6
CONTINUOUS
 62
3
 10
82.257000229066620
 20
-85.943744995354791
 11
82.257000229066620
 21
-90.844154978031838
  0
LINE
  8
0
  6
CONTINUOUS
 62
3
 10
79.257000229066620
 20
-63.747583672873589
 11
79.257000229066620
 21
-80.747571662983319
  0
LINE
  8
0
  6
CONTINUOUS
 62
3
 10
65.757000229060253
 20
-261.177730921099280
 11
86.431497712579443
 21
-261.899700282079720
  0
LINE
  8
0
  6
CONTINUOUS
 62
3
 10
102.257000229066620
 20
-60.747604582538770
 11
82.257000229066620
 21
-60.747604582538770
  0
LINE
  8
0
  6
CONTINUOUS
 62
3
 10
91.257000229066620
 20
-145.479643380216660
 11
91.257000229066620
 21
-177.747604582538770
  0
LINE
  8
0
  6
CONTINUOUS
 62
3
 10
91.257000229066620
 20
-63.747604582538770
 11
91.257000229066620
 21
-116.015541765078520
  0
LINE
  8
0
  6
CONTINUOUS
 62
3
 10
89.257000229066620
 20
-118.015541765078520
 11
86.257000229066620
 21
-118.015541765078520
  0
LINE
  8
0
  6
CONTINUOUS
 62
3
 10
84.257000229066620
 20
-120.015541765078520
 11
84.257000229066620
 21
-141.479643380216660
  0
LINE
  8
0
  6
CONTINUOUS
 62
3
 10
89.257000229066620
 20
-143.479643380216660
 11
86.257000229066620
 21
-143.479643380216660
  0
LINE
  8
0
  6
CONTINUOUS
 62
3
 10
91.257000229066620
 20
-262.775856873494380
 11
91.257000229066620
 21
-177.747604582538770
  0
LINE
  8
0
  6
CONTINUOUS
 62
3
 10
102.257000229066620
 20
-60.747625492203952
 11
102.257000229066620
 21
-177.747604582538770
  0
LINE
  8
0
  6
CONTINUOUS
 62
3
 10
102.257000229066620
 20
-250.834059078006250
 11
102.257000229066620
 21
-177.747604582538770
  0
ARC
  8
0
  6
CONTINUOUS
 62
4
 10
-434.767369151418280
 20
-387.847604582538110
 40
289.396999999999930
 50
90.000000000000000
 51
97.897988672427743
  0
ARC
  8
0
  6
CONTINUOUS
 62
4
 10
-473.708887106800380
 20
-107.138827041951450
 40
5.999999999999923
 50
97.897988672425626
 51
134.999999999996930
  0
LINE
  8
0
  6
CONTINUOUS
 62
4
 10
-477.951527793919470
 20
-102.896186354831910
 11
-482.527593186558080
 21
-107.472251747470520
  0
ARC
  8
0
  6
CONTINUOUS
 62
4
 10
-199.167369151418370
 20
-147.247604582538200
 40
289.396999999999930
 50
173.948014641331470
 51
180.000000000000000
  0
ARC
  8
0
  6
CONTINUOUS
 62
3
 10
-478.715956581700770
 20
-97.150990115009904
 40
6.599999999999971
 50
98.597082237248614
 51
134.999999999998610
  0
ARC
  8
0
  6
CONTINUOUS
 62
3
 10
-438.767369151418280
 20
-118.524791349847760
 40
1.499999999999998
 50
277.928141766204020
 51
0.000000000000000
  0
ARC
  8
0
  6
CONTINUOUS
 62
3
 10
-434.767369151417820
 20
-147.247604582538200
 40
33.499999999999950
 50
97.180755781459069
 51
142.819244218541740
  0
ARC
  8
0
  6
CONTINUOUS
 62
3
 10
-434.767369151417820
 20
-147.247604582538200
 40
43.000000000000043
 50
95.531071524839788
 51
144.468928475160770
  0
ARC
  8
0
  6
CONTINUOUS
 62
3
 10
-434.767369151417820
 20
-147.247604582538200
 40
37.000000000000099
 50
95.963570118321798
 51
144.036429881678830
  0
ARC
  8
0
  6
CONTINUOUS
 62
3
 10
-457.642055079084000
 20
-129.422096351055070
 40
1.499999999999926
 50
239.999999999998410
 51
322.071858233800300
  0
ARC
  8
0
  6
CONTINUOUS
 62
3
 10
-460.262823321152840
 20
-127.908995101012920
 40
1.500000000000103
 50
142.819244218542510
 51
239.999999999998410
  0
ARC
  8
0
  6
CONTINUOUS
 62
3
 10
-465.928905605569070
 20
-124.637680968854620
 40
1.500000000000123
 50
240.000000000002730
 51
324.036429881683720
  0
LINE
  8
0
  6
CONTINUOUS
 62
3
 10
-458.392055079084000
 20
-130.721134456731650
 11
-461.012823321152840
 21
-129.208033206689490
  0
LINE
  8
0
  6
CONTINUOUS
 62
3
 10
-466.678905605569070
 20
-125.936719074531420
 11
-469.290089204553170
 21
-124.429151520754310
  0
ARC
  8
0
  6
CONTINUOUS
 62
3
 10
-468.540089204553170
 20
-123.130113415077510
 40
1.499999999999976
 50
144.468928475160790
 51
240.000000000002730
  0
ARC
  8
0
  6
CONTINUOUS
 62
3
 10
-464.262823321153290
 20
-159.658010833787900
 40
1.500000000000157
 50
202.819244218546660
 51
300.000000000001590
  0
LINE
  8
0
  6
CONTINUOUS
 62
3
 10
-463.512823321153290
 20
-160.957048939464470
 11
-460.892055079084000
 21
-159.443947689422540
  0
ARC
  8
0
  6
CONTINUOUS
 62
3
 10
-469.928905605569530
 20
-162.929324965946190
 40
1.499999999999926
 50
300.000000000001590
 51
24.036429881677126
  0
LINE
  8
0
  6
CONTINUOUS
 62
3
 10
-471.790089204553620
 20
-165.735930625400100
 11
-469.178905605569530
 21
-164.228363071622770
  0
ARC
  8
0
  6
CONTINUOUS
 62
3
 10
-472.540089204553620
 20
-164.436892519723070
 40
1.500000000000128
 50
204.468928475167470
 51
299.999999999992950
  0
ARC
  8
0
  6
CONTINUOUS
 62
3
 10
-461.642055079084000
 20
-158.144909583745520
 40
1.500000000000320
 50
299.999999999992950
 51
22.071858233784546
  0
ARC
  8
0
  6
CONTINUOUS
 62
3
 10
-434.767369151418050
 20
-147.247604582538660
 40
33.499999999999794
 50
157.180755781458400
 51
202.819244218540940
  0
ARC
  8
0
  6
CONTINUOUS
 62
3
 10
-434.767369151418050
 20
-147.247604582538660
 40
43.000000000000121
 50
155.531071524839230
 51
204.468928475160200
  0
ARC
  8
0
  6
CONTINUOUS
 62
3
 10
-434.767369151418050
 20
-147.247604582538660
 40
37.000000000000156
 50
155.963570118321120
 51
204.036429881678230
  0
ARC
  8
0
  6
CONTINUOUS
 62
3
 10
-434.767369151418730
 20
-147.247604582538200
 40
27.499999999999886
 50
157.928141766202200
 51
202.071858233798680
  0
ARC
  8
0
  6
CONTINUOUS
 62
3
 10
-461.642055079084230
 20
-136.350299581330890
 40
1.500000000000110
 50
337.928141766202600
 51
59.999999999998380
  0
ARC
  8
0
  6
CONTINUOUS
 62
3
 10
-464.262823321153060
 20
-134.837198331288960
 40
1.500000000000123
 50
60.000000000002721
 51
157.180755781457980
  0
ARC
  8
0
  6
CONTINUOUS
 62
3
 10
-469.928905605569300
 20
-131.565884199130660
 40
1.499999999999855
 50
335.963570118319300
 51
59.999999999990862
  0
LINE
  8
0
  6
CONTINUOUS
 62
3
 10
-460.892055079084230
 20
-135.051261475654310
 11
-463.512823321153060
 21
-133.538160225612160
  0
LINE
  8
0
  6
CONTINUOUS
 62
3
 10
-469.178905605569070
 20
-130.266846093454090
 11
-471.790089204553620
 21
-128.759278539676980
  0
ARC
  8
0
  6
CONTINUOUS
 62
3
 10
-472.540089204553620
 20
-130.058316645353560
 40
1.499999999999926
 50
59.999999999998380
 51
155.531071524840400
  0
ARC
  8
0
  6
CONTINUOUS
 62
3
 10
-460.262823321153290
 20
-166.586214064063260
 40
1.499999999999926
 50
120.000000000001620
 51
217.180755781464400
  0
LINE
  8
0
  6
CONTINUOUS
 62
3
 10
-461.012823321153290
 20
-165.287175958386680
 11
-458.392055079084000
 21
-163.774074708344300
  0
ARC
  8
0
  6
CONTINUOUS
 62
3
 10
-465.928905605569530
 20
-169.857528196221550
 40
1.499999999999968
 50
35.963570118309242
 51
120.000000000001620
  0
LINE
  8
0
  6
CONTINUOUS
 62
3
 10
-469.290089204553620
 20
-170.066057644322310
 11
-466.678905605569530
 21
-168.558490090544980
  0
ARC
  8
0
  6
CONTINUOUS
 62
3
 10
-468.540089204553620
 20
-171.365095749998890
 40
1.499999999999926
 50
120.000000000001620
 51
215.531071524832130
  0
ARC
  8
0
  6
CONTINUOUS
 62
3
 10
-457.642055079084000
 20
-165.073112814021330
 40
1.500000000000122
 50
37.928141766218701
 51
119.999999999992930
  0
ARC
  8
0
  6
CONTINUOUS
 62
3
 10
-434.767369151418510
 20
-147.247604582537750
 40
33.500000000000163
 50
217.180755781459110
 51
262.819244218541770
  0
ARC
  8
0
  6
CONTINUOUS
 62
3
 10
-434.767369151418510
 20
-147.247604582537750
 40
42.999999999999858
 50
215.531071524839690
 51
264.468928475160850
  0
ARC
  8
0
  6
CONTINUOUS
 62
3
 10
-434.767369151418510
 20
-147.247604582537750
 40
37.000000000000021
 50
215.963570118321970
 51
264.036429881678940
  0
ARC
  8
0
  6
CONTINUOUS
 62
3
 10
-434.767369151418510
 20
-147.247604582538660
 40
27.499999999999780
 50
217.928141766201070
 51
262.071858233797400
  0
ARC
  8
0
  6
CONTINUOUS
 62
3
 10
-438.767369151418510
 20
-175.970417815228640
 40
1.500000000000000
 50
0.000000000000000
 51
82.071858233804562
  0
ARC
  8
0
  6
CONTINUOUS
 62
3
 10
-438.767369151418510
 20
-178.996620315312950
 40
1.499999999999998
 50
262.819244218541710
 51
0.000000000000000
  0
ARC
  8
0
  6
CONTINUOUS
 62
3
 10
-438.767369151418510
 20
-185.539248579629540
 40
1.500000000000000
 50
0.000000000017370
 51
84.036429881682594
  0
LINE
  8
0
  6
CONTINUOUS
 62
3
 10
-437.267369151418510
 20
-175.970417815228640
 11
-437.267369151418510
 21
-178.996620315312950
  0
LINE
  8
0
  6
CONTINUOUS
 62
3
 10
-437.267369151418510
 20
-185.539248579629090
 11
-437.267369151418510
 21
-188.554383687183300
  0
ARC
  8
0
  6
CONTINUOUS
 62
3
 10
-438.767369151418510
 20
-188.554383687183300
 40
1.500000000000430
 50
264.468928475160000
 51
0.000000000000000
  0
ARC
  8
0
  6
CONTINUOUS
 62
3
 10
-409.271914981683270
 20
-166.586214064063260
 40
1.500000000000240
 50
322.819244218535570
 51
59.999999999998380
  0
LINE
  8
0
  6
CONTINUOUS
 62
3
 10
-408.521914981683270
 20
-165.287175958386680
 11
-411.142683223752560
 21
-163.774074708344300
  0
ARC
  8
0
  6
CONTINUOUS
 62
3
 10
-403.605832697267030
 20
-169.857528196221550
 40
1.499999999999926
 50
59.999999999998380
 51
144.036429881690740
  0
ARC
  8
0
  6
CONTINUOUS
 62
3
 10
-411.892683223752560
 20
-165.073112814021330
 40
1.500000000000320
 50
60.000000000007070
 51
142.071858233781280
  0
ARC
  8
0
  6
CONTINUOUS
 62
3
 10
-434.767369151418050
 20
-147.247604582537750
 40
33.500000000000114
 50
277.180755781458230
 51
322.819244218540860
  0
ARC
  8
0
  6
CONTINUOUS
 62
3
 10
-434.767369151418050
 20
-147.247604582537750
 40
43.000000000000199
 50
275.531071524838860
 51
324.468928475160340
  0
ARC
  8
0
  6
CONTINUOUS
 62
3
 10
-434.767369151418050
 20
-147.247604582537750
 40
37.000000000000028
 50
275.963570118320770
 51
324.036429881678030
  0
ARC
  8
0
  6
CONTINUOUS
 62
3
 10
-434.767369151418050
 20
-147.247604582538660
 40
27.499999999999879
 50
277.928141766202600
 51
322.071858233798930
  0
ARC
  8
0
  6
CONTINUOUS
 62
3
 10
-430.767369151418050
 20
-175.970417815228640
 40
1.499999999999967
 50
97.928141766195438
 51
180.000000000000000
  0
ARC
  8
0
  6
CONTINUOUS
 62
3
 10
-430.767369151418050
 20
-178.996620315312950
 40
1.500000000000000
 50
180.000000000000000
 51
277.180755781458290
  0
ARC
  8
0
  6
CONTINUOUS
 62
3
 10
-430.767369151418050
 20
-185.539248579629540
 40
1.500000000000182
 50
95.963570118326047
 51
179.999999999982630
  0
LINE
  8
0
  6
CONTINUOUS
 62
3
 10
-432.267369151418050
 20
-175.970417815228640
 11
-432.267369151418050
 21
-178.996620315312950
  0
LINE
  8
0
  6
CONTINUOUS
 62
3
 10
-432.267369151418050
 20
-185.539248579629090
 11
-432.267369151418050
 21
-188.554383687183300
  0
ARC
  8
0
  6
CONTINUOUS
 62
3
 10
-430.767369151418050
 20
-188.554383687183300
 40
1.500000000000000
 50
180.000000000000000
 51
275.531071524831360
  0
ARC
  8
0
  6
CONTINUOUS
 62
3
 10
-405.271914981683270
 20
-159.658010833787900
 40
1.499999999999926
 50
239.999999999998410
 51
337.180755781453340
  0
LINE
  8
0
  6
CONTINUOUS
 62
3
 10
-406.021914981683270
 20
-160.957048939464470
 11
-408.642683223752560
 21
-159.443947689422540
  0
ARC
  8
0
  6
CONTINUOUS
 62
3
 10
-407.892683223752560
 20
-158.144909583745520
 40
1.499999999999899
 50
157.928141766199360
 51
240.000000000007050
  0
ARC
  8
0
  6
CONTINUOUS
 62
3
 10
-434.767369151418510
 20
-147.247604582538660
 40
33.500000000000128
 50
337.180755781459030
 51
22.819244218541968
  0
ARC
  8
0
  6
CONTINUOUS
 62
3
 10
-434.767369151417820
 20
-147.247604582538200
 40
27.499999999999886
 50
337.928141766202200
 51
22.071858233797812
  0
ARC
  8
0
  6
CONTINUOUS
 62
3
 10
-407.892683223752330
 20
-136.350299581330890
 40
1.499999999999926
 50
120.000000000001620
 51
202.071858233797370
  0
ARC
  8
0
  6
CONTINUOUS
 62
3
 10
-405.271914981683490
 20
-134.837198331288960
 40
1.499999999999948
 50
22.819244218550043
 51
119.999999999997270
  0
LINE
  8
0
  6
CONTINUOUS
 62
3
 10
-408.642683223752330
 20
-135.051261475654310
 11
-406.021914981683490
 21
-133.538160225612160
  0
ARC
  8
0
  6
CONTINUOUS
 62
3
 10
-434.767369151418730
 20
-147.247604582538200
 40
33.500000000000071
 50
37.180755781458259
 51
82.819244218540931
  0
ARC
  8
0
  6
CONTINUOUS
 62
3
 10
-434.767369151418730
 20
-147.247604582538200
 40
36.999999999999943
 50
35.963570118321194
 51
84.036429881678174
  0
ARC
  8
0
  6
CONTINUOUS
 62
3
 10
-403.605832697267490
 20
-124.637680968854620
 40
1.500000000000102
 50
215.963570118316280
 51
299.999999999997270
  0
ARC
  8
0
  6
CONTINUOUS
 62
3
 10
-409.271914981683720
 20
-127.908995101012920
 40
1.499999999999926
 50
300.000000000001590
 51
37.180755781457485
  0
ARC
  8
0
  6
CONTINUOUS
 62
3
 10
-434.767369151418050
 20
-147.247604582537750
 40
27.500000000000060
 50
37.928141766201819
 51
82.071858233798309
  0
ARC
  8
0
  6
CONTINUOUS
 62
3
 10
-430.767369151418280
 20
-118.524791349847760
 40
1.500000000000000
 50
180.000000000000000
 51
262.071858233795980
  0
LINE
  8
0
  6
CONTINUOUS
 62
3
 10
-411.142683223752560
 20
-130.721134456731650
 11
-408.521914981683720
 21
-129.208033206689490
  0
ARC
  8
0
  6
CONTINUOUS
 62
3
 10
-411.892683223752560
 20
-129.422096351055070
 40
1.499999999999843
 50
217.928141766204990
 51
300.000000000001590
  0
CIRCLE
  8
0
  6
CONTINUOUS
 62
3
 10
-434.767369151418280
 20
-147.247604582537750
 40
5.000000000000000
  0
ARC
  8
0
  6
CONTINUOUS
 62
3
 10
-428.830115218224360
 20
-139.200927272444350
 40
1.499999999999693
 50
233.578178478195410
 51
300.000000000001590
  0
ARC
  8
0
  6
CONTINUOUS
 62
3
 10
-430.767369151418280
 20
-138.082453192625850
 40
1.500000000000000
 50
180.000000000000000
 51
246.421821521804280
  0
ARC
  8
0
  6
CONTINUOUS
 62
3
 10
-417.592189882373530
 20
-132.712708054657810
 40
1.499999999999926
 50
300.000000000001590
 51
40.240348321182964
  0
ARC
  8
0
  6
CONTINUOUS
 62
3
 10
-430.767369151418280
 20
-134.878287705684780
 40
1.500000000000138
 50
72.079786860605225
 51
180.000000000000000
  0
ARC
  8
0
  6
CONTINUOUS
 62
3
 10
-430.767369151418280
 20
-128.162269898545560
 40
1.500000000000000
 50
180.000000000000000
 51
258.162995844103310
  0
ARC
  8
0
  6
CONTINUOUS
 62
3
 10
-420.238984475352480
 20
-134.240835625403970
 40
1.499999999999967
 50
221.837004155893280
 51
300.000000000001590
  0
ARC
  8
0
  6
CONTINUOUS
 62
3
 10
-430.767369151418280
 20
-125.106014757053230
 40
1.499999999999952
 50
79.759651678814024
 51
180.000000000000000
  0
ARC
  8
0
  6
CONTINUOUS
 62
3
 10
-426.055226508603940
 20
-137.598844528973470
 40
1.499999999999926
 50
300.000000000001590
 51
47.920213139381872
  0
LINE
  8
0
  6
CONTINUOUS
 62
3
 10
-419.488984475352480
 20
-135.539873731080550
 11
-416.842189882373530
 21
-134.011746160334380
  0
ARC
  8
0
  6
CONTINUOUS
 62
3
 10
-434.767369151418050
 20
-147.247604582537750
 40
14.499999999999860
 50
47.920213139391755
 51
72.079786860608309
  0
LINE
  8
0
  6
CONTINUOUS
 62
3
 10
-432.267369151418280
 20
-134.878287705684780
 11
-432.267369151418280
 21
-138.082453192625850
  0
LINE
  8
0
  6
CONTINUOUS
 62
3
 10
-432.267369151418280
 20
-125.106014757053230
 11
-432.267369151418280
 21
-128.162269898545560
  0
LINE
  8
0
  6
CONTINUOUS
 62
3
 10
-428.080115218224360
 20
-140.499965378120920
 11
-425.305226508603940
 21
-138.897882634650050
  0
ARC
  8
0
  6
CONTINUOUS
 62
3
 10
-434.767369151418050
 20
-147.247604582537750
 40
23.999999999999819
 50
40.240348321186090
 51
79.759651678814322
  0
ARC
  8
0
  6
CONTINUOUS
 62
3
 10
-434.767369151418050
 20
-147.247604582537750
 40
8.500000000000101
 50
53.578178478202659
 51
66.421821521799089
  0
ARC
  8
0
  6
CONTINUOUS
 62
3
 10
-422.055226508603940
 20
-149.968161405826660
 40
1.499999999999926
 50
239.999999999998410
 51
347.920213139390400
  0
LINE
  8
0
  6
CONTINUOUS
 62
3
 10
-422.805226508603940
 20
-151.267199511503240
 11
-425.580115218224360
 21
-149.665116768032820
  0
ARC
  8
0
  6
CONTINUOUS
 62
3
 10
-424.830115218224360
 20
-148.366078662356240
 40
1.500000000000099
 50
173.578178478198990
 51
239.999999999998410
  0
ARC
  8
0
  6
CONTINUOUS
 62
3
 10
-434.767369151418050
 20
-147.247604582537750
 40
8.499999999999865
 50
353.578178478199500
 51
6.421821521797448
  0
ARC
  8
0
  6
CONTINUOUS
 62
3
 10
-424.830115218224360
 20
-146.129130502719700
 40
1.499999999999926
 50
120.000000000001620
 51
186.421821521801010
  0
LINE
  8
0
  6
CONTINUOUS
 62
3
 10
-425.580115218224360
 20
-144.830092397043130
 11
-422.805226508603940
 21
-143.228009653572260
  0
ARC
  8
0
  6
CONTINUOUS
 62
3
 10
-422.055226508603940
 20
-144.527047759248830
 40
1.500000000000192
 50
12.079786860592611
 51
120.000000000001620
  0
ARC
  8
0
  6
CONTINUOUS
 62
3
 10
-434.767369151418050
 20
-147.247604582537750
 40
14.500000000000169
 50
347.920213139391310
 51
12.079786860606980
  0
ARC
  8
0
  6
CONTINUOUS
 62
3
 10
-413.592189882373530
 20
-154.854297880142330
 40
1.499999999999926
 50
239.999999999998410
 51
340.240348321188210
  0
LINE
  8
0
  6
CONTINUOUS
 62
3
 10
-414.342189882373530
 20
-156.153335985818900
 11
-416.988984475352480
 21
-154.625208415073190
  0
ARC
  8
0
  6
CONTINUOUS
 62
3
 10
-416.238984475352480
 20
-153.326170309396160
 40
1.500000000000038
 50
161.837004155895410
 51
240.000000000007050
  0
ARC
  8
0
  6
CONTINUOUS
 62
3
 10
-434.767369151418050
 20
-147.247604582537750
 40
17.999999999999943
 50
341.837004155893340
 51
18.162995844106646
  0
ARC
  8
0
  6
CONTINUOUS
 62
3
 10
-416.238984475352480
 20
-141.169038855679330
 40
1.499999999999926
 50
120.000000000001620
 51
198.162995844104590
  0
LINE
  8
0
  6
CONTINUOUS
 62
3
 10
-416.988984475352480
 20
-139.870000750002760
 11
-414.342189882373530
 21
-138.341873179256590
  0
ARC
  8
0
  6
CONTINUOUS
 62
3
 10
-413.592189882373530
 20
-139.640911284933170
 40
1.500000000000246
 50
19.759651678811824
 51
120.000000000001620
  0
ARC
  8
0
  6
CONTINUOUS
 62
3
 10
-434.767369151418050
 20
-147.247604582537750
 40
24.000000000000139
 50
340.240348321186050
 51
19.759651678813924
  0
ARC
  8
0
  6
CONTINUOUS
 62
3
 10
-447.479511794232620
 20
-149.968161405826660
 40
1.500000000000287
 50
192.079786860609600
 51
300.000000000001590
  0
LINE
  8
0
  6
CONTINUOUS
 62
3
 10
-446.729511794232620
 20
-151.267199511503240
 11
-443.954623084612190
 21
-149.665116768032820
  0
ARC
  8
0
  6
CONTINUOUS
 62
3
 10
-444.704623084612190
 20
-148.366078662356240
 40
1.499999999999926
 50
300.000000000001590
 51
6.421821521801967
  0
ARC
  8
0
  6
CONTINUOUS
 62
3
 10
-434.767369151418730
 20
-147.247604582537750
 40
8.499999999999813
 50
173.578178478202550
 51
186.421821521800500
  0
ARC
  8
0
  6
CONTINUOUS
 62
3
 10
-444.704623084612190
 20
-146.129130502719700
 40
1.499999999999873
 50
353.578178478198030
 51
59.999999999998380
  0
LINE
  8
0
  6
CONTINUOUS
 62
3
 10
-443.954623084612190
 20
-144.830092397043130
 11
-446.729511794232850
 21
-143.228009653572260
  0
ARC
  8
0
  6
CONTINUOUS
 62
3
 10
-447.479511794232850
 20
-144.527047759248830
 40
1.499999999999926
 50
59.999999999998380
 51
167.920213139405550
  0
ARC
  8
0
  6
CONTINUOUS
 62
3
 10
-434.767369151418730
 20
-147.247604582537750
 40
14.499999999999851
 50
167.920213139392840
 51
192.079786860608920
  0
ARC
  8
0
  6
CONTINUOUS
 62
3
 10
-455.942548420463030
 20
-154.854297880142330
 40
1.500000000000246
 50
199.759651678811820
 51
300.000000000001590
  0
LINE
  8
0
  6
CONTINUOUS
 62
3
 10
-455.192548420463030
 20
-156.153335985818900
 11
-452.545753827484080
 21
-154.625208415073190
  0
ARC
  8
0
  6
CONTINUOUS
 62
3
 10
-453.295753827484080
 20
-153.326170309396160
 40
1.500000000000320
 50
299.999999999992950
 51
18.162995844104589
  0
ARC
  8
0
  6
CONTINUOUS
 62
3
 10
-434.767369151418730
 20
-147.247604582537750
 40
17.999999999999726
 50
161.837004155893140
 51
198.162995844106860
  0
ARC
  8
0
  6
CONTINUOUS
 62
3
 10
-453.295753827484080
 20
-141.169038855679330
 40
1.500000000000038
 50
341.837004155895390
 51
59.999999999998380
  0
LINE
  8
0
  6
CONTINUOUS
 62
3
 10
-452.545753827484080
 20
-139.870000750002760
 11
-455.192548420463250
 21
-138.341873179256590
  0
ARC
  8
0
  6
CONTINUOUS
 62
3
 10
-455.942548420463250
 20
-139.640911284933170
 40
1.499999999999926
 50
59.999999999998380
 51
160.240348321185250
  0
ARC
  8
0
  6
CONTINUOUS
 62
3
 10
-434.767369151418730
 20
-147.247604582537750
 40
23.999999999999925
 50
160.240348321185910
 51
199.759651678814090
  0
ARC
  8
0
  6
CONTINUOUS
 62
3
 10
-443.479511794232620
 20
-156.896364636102480
 40
1.500000000000320
 50
119.999999999992930
 51
227.920213139381870
  0
LINE
  8
0
  6
CONTINUOUS
 62
3
 10
-444.229511794232620
 20
-155.597326530425450
 11
-441.454623084612190
 21
-153.995243786955030
  0
ARC
  8
0
  6
CONTINUOUS
 62
3
 10
-440.704623084612190
 20
-155.294281892631600
 40
1.500000000000059
 50
53.578178478205707
 51
120.000000000001620
  0
ARC
  8
0
  6
CONTINUOUS
 62
3
 10
-434.767369151418280
 20
-147.247604582538200
 40
8.499999999999870
 50
233.578178478199590
 51
246.421821521797680
  0
ARC
  8
0
  6
CONTINUOUS
 62
3
 10
-438.767369151418280
 20
-156.412755972450100
 40
1.500000000000000
 50
0.000000000017370
 51
66.421821521804304
  0
LINE
  8
0
  6
CONTINUOUS
 62
3
 10
-437.267369151418280
 20
-156.412755972449650
 11
-437.267369151418280
 21
-159.616921459390940
  0
ARC
  8
0
  6
CONTINUOUS
 62
3
 10
-438.767369151418280
 20
-159.616921459390940
 40
1.500000000000355
 50
252.079786860607900
 51
0.000000000000000
  0
ARC
  8
0
  6
CONTINUOUS
 62
3
 10
-434.767369151418280
 20
-147.247604582538200
 40
14.500000000000011
 50
227.920213139391080
 51
252.079786860607410
  0
ARC
  8
0
  6
CONTINUOUS
 62
3
 10
-451.942548420463030
 20
-161.782501110418140
 40
1.499999999999926
 50
120.000000000001620
 51
220.240348321176330
  0
LINE
  8
0
  6
CONTINUOUS
 62
3
 10
-452.692548420463030
 20
-160.483463004741570
 11
-450.045753827484080
 21
-158.955335433995400
  0
ARC
  8
0
  6
CONTINUOUS
 62
3
 10
-449.295753827484080
 20
-160.254373539671970
 40
1.500000000000118
 50
41.837004155899741
 51
120.000000000001620
  0
ARC
  8
0
  6
CONTINUOUS
 62
3
 10
-434.767369151418280
 20
-147.247604582538200
 40
17.999999999999940
 50
221.837004155892320
 51
258.162995844106770
  0
ARC
  8
0
  6
CONTINUOUS
 62
3
 10
-438.767369151418280
 20
-166.332939266530390
 40
1.500000000000000
 50
0.000000000000000
 51
78.162995844101530
  0
LINE
  8
0
  6
CONTINUOUS
 62
3
 10
-437.267369151418280
 20
-166.332939266530390
 11
-437.267369151418280
 21
-169.389194408022720
  0
ARC
  8
0
  6
CONTINUOUS
 62
3
 10
-438.767369151418280
 20
-169.389194408022720
 40
1.499999999999728
 50
259.759651678812470
 51
0.000000000000000
  0
ARC
  8
0
  6
CONTINUOUS
 62
3
 10
-434.767369151418280
 20
-147.247604582538200
 40
23.999999999999844
 50
220.240348321185340
 51
259.759651678813730
  0
ARC
  8
0
  6
CONTINUOUS
 62
3
 10
-426.055226508603940
 20
-156.896364636102480
 40
1.499999999999944
 50
312.079786860618130
 51
60.000000000007070
  0
LINE
  8
0
  6
CONTINUOUS
 62
3
 10
-425.305226508603940
 20
-155.597326530425450
 11
-428.080115218224360
 21
-153.995243786955030
  0
ARC
  8
0
  6
CONTINUOUS
 62
3
 10
-428.830115218224360
 20
-155.294281892631600
 40
1.499999999999926
 50
59.999999999998380
 51
126.421821521801260
  0
ARC
  8
0
  6
CONTINUOUS
 62
3
 10
-434.767369151418280
 20
-147.247604582538200
 40
8.500000000000060
 50
293.578178478202350
 51
306.421821521799190
  0
ARC
  8
0
  6
CONTINUOUS
 62
3
 10
-430.767369151418280
 20
-156.412755972450100
 40
1.500000000000139
 50
113.578178478195690
 51
179.999999999982630
  0
LINE
  8
0
  6
CONTINUOUS
 62
3
 10
-432.267369151418280
 20
-156.412755972449650
 11
-432.267369151418280
 21
-159.616921459390940
  0
ARC
  8
0
  6
CONTINUOUS
 62
3
 10
-430.767369151418280
 20
-159.616921459390940
 40
1.500000000000000
 50
180.000000000000000
 51
287.920213139392100
  0
ARC
  8
0
  6
CONTINUOUS
 62
3
 10
-434.767369151418280
 20
-147.247604582538200
 40
14.500000000000121
 50
287.920213139392560
 51
312.079786860608860
  0
ARC
  8
0
  6
CONTINUOUS
 62
3
 10
-417.592189882373530
 20
-161.782501110418140
 40
1.499999999999828
 50
319.759651678823670
 51
59.999999999998380
  0
LINE
  8
0
  6
CONTINUOUS
 62
3
 10
-416.842189882373530
 20
-160.483463004741570
 11
-419.488984475352480
 21
-158.955335433995400
  0
ARC
  8
0
  6
CONTINUOUS
 62
3
 10
-420.238984475352480
 20
-160.254373539671970
 40
1.499999999999926
 50
59.999999999998380
 51
138.162995844100240
  0
ARC
  8
0
  6
CONTINUOUS
 62
3
 10
-434.767369151418280
 20
-147.247604582538200
 40
18.000000000000146
 50
281.837004155893230
 51
318.162995844107680
  0
ARC
  8
0
  6
CONTINUOUS
 62
3
 10
-430.767369151418280
 20
-166.332939266530390
 40
1.499999999999731
 50
101.837004155898450
 51
180.000000000000000
  0
LINE
  8
0
  6
CONTINUOUS
 62
3
 10
-432.267369151418280
 20
-166.332939266530390
 11
-432.267369151418280
 21
-169.389194408022720
  0
ARC
  8
0
  6
CONTINUOUS
 62
3
 10
-430.767369151418280
 20
-169.389194408022720
 40
1.500000000000000
 50
180.000000000000000
 51
280.240348321187530
  0
ARC
  8
0
  6
CONTINUOUS
 62
3
 10
-434.767369151418280
 20
-147.247604582538200
 40
23.999999999999716
 50
280.240348321186270
 51
319.759651678814690
  0
ARC
  8
0
  6
CONTINUOUS
 62
3
 10
-438.767369151418280
 20
-134.878287705684780
 40
1.500000000000000
 50
0.000000000000000
 51
107.920213139394770
  0
LINE
  8
0
  6
CONTINUOUS
 62
3
 10
-437.267369151418280
 20
-134.878287705684780
 11
-437.267369151418280
 21
-138.082453192625850
  0
ARC
  8
0
  6
CONTINUOUS
 62
3
 10
-438.767369151418280
 20
-138.082453192625850
 40
1.500000000000139
 50
293.578178478195700
 51
0.000000000000000
  0
ARC
  8
0
  6
CONTINUOUS
 62
3
 10
-434.767369151418730
 20
-147.247604582537750
 40
8.499999999999879
 50
113.578178478199500
 51
126.421821521797340
  0
ARC
  8
0
  6
CONTINUOUS
 62
3
 10
-440.704623084612190
 20
-139.200927272444350
 40
1.499999999999926
 50
239.999999999998410
 51
306.421821521797600
  0
LINE
  8
0
  6
CONTINUOUS
 62
3
 10
-441.454623084612190
 20
-140.499965378120920
 11
-444.229511794232850
 21
-138.897882634650050
  0
ARC
  8
0
  6
CONTINUOUS
 62
3
 10
-443.479511794232850
 20
-137.598844528973470
 40
1.499999999999792
 50
132.079786860611680
 51
239.999999999998410
  0
ARC
  8
0
  6
CONTINUOUS
 62
3
 10
-434.767369151418730
 20
-147.247604582537750
 40
14.499999999999980
 50
107.920213139390830
 51
132.079786860607560
  0
ARC
  8
0
  6
CONTINUOUS
 62
3
 10
-438.767369151418280
 20
-125.106014757053230
 40
1.500000000000000
 50
0.000000000000000
 51
100.240348321194510
  0
LINE
  8
0
  6
CONTINUOUS
 62
3
 10
-437.267369151418280
 20
-125.106014757053230
 11
-437.267369151418280
 21
-128.162269898545560
  0
ARC
  8
0
  6
CONTINUOUS
 62
3
 10
-438.767369151418280
 20
-128.162269898545560
 40
1.499999999999954
 50
281.837004155896690
 51
0.000000000000000
  0
ARC
  8
0
  6
CONTINUOUS
 62
3
 10
-434.767369151418730
 20
-147.247604582537750
 40
17.999999999999829
 50
101.837004155891980
 51
138.162995844106210
  0
ARC
  8
0
  6
CONTINUOUS
 62
3
 10
-449.295753827484080
 20
-134.240835625403970
 40
1.499999999999926
 50
239.999999999998410
 51
318.162995844106720
  0
LINE
  8
0
  6
CONTINUOUS
 62
3
 10
-450.045753827484080
 20
-135.539873731080550
 11
-452.692548420463250
 21
-134.011746160334380
  0
ARC
  8
0
  6
CONTINUOUS
 62
3
 10
-451.942548420463250
 20
-132.712708054657810
 40
1.499999999999802
 50
139.759651678811420
 51
239.999999999998410
  0
ARC
  8
0
  6
CONTINUOUS
 62
3
 10
-434.767369151418730
 20
-147.247604582537750
 40
23.999999999999901
 50
100.240348321185670
 51
139.759651678813550
  0
ARC
  8
0
  6
CONTINUOUS
 62
3
 10
-438.767369151418280
 20
-115.498588849763220
 40
1.500000000000000
 50
0.000000000000000
 51
97.180755781458288
  0
LINE
  8
0
  6
CONTINUOUS
 62
3
 10
-437.267369151418280
 20
-115.498588849763220
 11
-437.267369151418280
 21
-118.524791349847760
  0
ARC
  8
0
  6
CONTINUOUS
 62
3
 10
-438.767369151418280
 20
-108.955960585446630
 40
1.499999999999933
 50
275.963570118318330
 51
0.000000000000000
  0
LINE
  8
0
  6
CONTINUOUS
 62
3
 10
-437.267369151418280
 20
-105.940825477892410
 11
-437.267369151418280
 21
-108.955960585446630
  0
LINE
  8
0
  6
CONTINUOUS
 62
3
 10
-400.244649098282930
 20
-170.066057644322310
 11
-402.855832697267030
 21
-168.558490090544980
  0
ARC
  8
0
  6
CONTINUOUS
 62
3
 10
-400.994649098282930
 20
-171.365095749998890
 40
1.499999999999844
 50
324.468928475167900
 51
59.999999999998380
  0
ARC
  8
0
  6
CONTINUOUS
 62
3
 10
-399.605832697267030
 20
-162.929324965946190
 40
1.500000000000063
 50
155.963570118322880
 51
239.999999999998410
  0
LINE
  8
0
  6
CONTINUOUS
 62
3
 10
-397.744649098282930
 20
-165.735930625400100
 11
-400.355832697267030
 21
-164.228363071622770
  0
ARC
  8
0
  6
CONTINUOUS
 62
3
 10
-396.994649098282930
 20
-164.436892519723070
 40
1.500000000000320
 50
240.000000000007050
 51
335.531071524832500
  0
ARC
  8
0
  6
CONTINUOUS
 62
3
 10
-434.767369151418510
 20
-147.247604582538660
 40
42.999999999999936
 50
335.531071524839770
 51
24.468928475160769
  0
ARC
  8
0
  6
CONTINUOUS
 62
3
 10
-434.767369151418510
 20
-147.247604582538660
 40
36.999999999999972
 50
335.963570118321740
 51
24.036429881678870
  0
ARC
  8
0
  6
CONTINUOUS
 62
3
 10
-399.605832697267260
 20
-131.565884199130660
 40
1.500000000000123
 50
119.999999999997270
 51
204.036429881680680
  0
LINE
  8
0
  6
CONTINUOUS
 62
3
 10
-400.355832697267260
 20
-130.266846093453860
 11
-397.744649098282930
 21
-128.759278539676760
  0
ARC
  8
0
  6
CONTINUOUS
 62
3
 10
-396.994649098282930
 20
-130.058316645353560
 40
1.500000000000034
 50
24.468928475159590
 51
119.999999999997270
  0
ARC
  8
0
  6
CONTINUOUS
 62
3
 10
-434.767369151418730
 20
-147.247604582538200
 40
42.999999999999908
 50
35.531071524839248
 51
84.468928475160212
  0
ARC
  8
0
  6
CONTINUOUS
 62
3
 10
-400.994649098283390
 20
-123.130113415077510
 40
1.500000000000123
 50
299.999999999997270
 51
35.531071524839192
  0
ARC
  8
0
  6
CONTINUOUS
 62
3
 10
-430.767369151418280
 20
-108.955960585446630
 40
1.500000000000000
 50
180.000000000000000
 51
264.036429881682580
  0
ARC
  8
0
  6
CONTINUOUS
 62
3
 10
-430.767369151418280
 20
-115.498588849763220
 40
1.499999999999998
 50
82.819244218541712
 51
180.000000000000000
  0
LINE
  8
0
  6
CONTINUOUS
 62
3
 10
-432.267369151418280
 20
-115.498588849763220
 11
-432.267369151418280
 21
-118.524791349847760
  0
LINE
  8
0
  6
CONTINUOUS
 62
3
 10
-402.855832697267490
 20
-125.936719074531420
 11
-400.244649098283390
 21
-124.429151520754310
  0
LINE
  8
0
  6
CONTINUOUS
 62
3
 10
-432.267369151418280
 20
-105.940825477892640
 11
-432.267369151418280
 21
-108.955960585446630
  0
ARC
  8
0
  6
CONTINUOUS
 62
3
 10
-434.767369151418510
 20
-147.247604582537750
 40
27.499999999999815
 50
97.928141766201691
 51
142.071858233797880
  0
ARC
  8
0
  6
CONTINUOUS
 62
3
 10
-434.767369151418050
 20
-147.247604582537750
 40
17.999999999999922
 50
41.837004155893325
 51
78.162995844107314
  0
ARC
  8
0
  6
CONTINUOUS
 62
3
 10
-438.767369151418280
 20
-105.940825477892410
 40
1.500000000000000
 50
0.000000000000000
 51
95.531071524841693
  0
ARC
  8
0
  6
CONTINUOUS
 62
3
 10
-430.767369151418280
 20
-105.940825477892640
 40
1.500000000000203
 50
84.468928475159132
 51
180.000000000000000
  0
LINE
  8
0
  6
CONTINUOUS
 62
3
 10
-483.382861337531950
 20
-202.011123805897910
 11
-490.449310456191140
 21
-194.944674687238260
  0
LINE
  8
0
  6
CONTINUOUS
 62
3
 10
-386.151876965304610
 20
-92.484085359178721
 11
-379.085427846645640
 21
-99.550534477837687
  0
ARC
  8
0
  6
CONTINUOUS
 62
3
 10
-199.167369151418260
 20
-147.247604582538200
 40
300.599999999999970
 50
173.948014641331500
 51
186.051985358668500
  0
ARC
  8
0
  6
CONTINUOUS
 62
3
 10
-434.767369151418280
 20
-387.847604582538110
 40
300.599999999999910
 50
90.000000000000000
 51
98.597082237249069
  0
ARC
  8
0
  6
CONTINUOUS
 62
3
 10
-434.767369151418280
 20
93.352395417461935
 40
300.600000000000140
 50
270.000000000000000
 51
278.597082237249080
  0
ARC
  8
0
  6
CONTINUOUS
 62
3
 10
-390.818781721135790
 20
-97.150990115009904
 40
6.600000000000118
 50
45.000000000001400
 51
81.402917762751386
  0
ARC
  8
0
  6
CONTINUOUS
 62
3
 10
-434.767369151418280
 20
-387.847604582538110
 40
300.599999999999800
 50
81.402917762750931
 51
90.000000000000000
  0
ARC
  8
0
  6
CONTINUOUS
 62
3
 10
-670.367369151418190
 20
-147.247604582538200
 40
300.600000000000080
 50
353.948014641331500
 51
6.051985358668499
  0
LINE
  8
0
  6
CONTINUOUS
 62
3
 10
-386.151876965304610
 20
-202.011123805897910
 11
-379.085427846645190
 21
-194.944674687238260
  0
ARC
  8
0
  6
CONTINUOUS
 62
3
 10
-390.818781721135790
 20
-197.344219050066730
 40
6.599999999999747
 50
278.597082237248910
 51
315.000000000000000
  0
ARC
  8
0
  6
CONTINUOUS
 62
3
 10
-434.767369151418280
 20
93.352395417461935
 40
300.600000000000020
 50
261.402917762750920
 51
270.000000000000000
  0
ARC
  8
0
  6
CONTINUOUS
 62
3
 10
-478.715956581700770
 20
-197.344219050066730
 40
6.599999999999957
 50
225.000000000000000
 51
261.402917762751090
  0
LINE
  8
0
  6
CONTINUOUS
 62
3
 10
-483.382861337531950
 20
-92.484085359178721
 11
-490.449310456190910
 21
-99.550534477837687
  0
ARC
  8
0
  6
CONTINUOUS
 62
3
 10
-397.894468226207890
 20
-118.359574857399930
 40
26.600000000000193
 50
6.051985358668552
 51
45.000000000000000
  0
ARC
  8
0
  6
CONTINUOUS
 62
3
 10
-471.640270076628670
 20
-118.359574857399930
 40
26.600000000000119
 50
135.000000000000000
 51
173.948014641331410
  0
ARC
  8
0
  6
CONTINUOUS
 62
3
 10
-471.640270076628670
 20
-176.135634307676470
 40
26.599999999999969
 50
186.051985358668590
 51
224.999999999998980
  0
ARC
  8
0
  6
CONTINUOUS
 62
3
 10
-397.894468226207660
 20
-176.135634307676470
 40
26.599999999999955
 50
315.000000000001020
 51
353.948014641331380
  0
ARC
  8
0
  6
CONTINUOUS
 62
4
 10
-471.640270076628670
 20
-118.359574857399930
 40
15.396999999999876
 50
135.000000000000000
 51
173.948014641331160
  0
ARC
  8
0
  6
CONTINUOUS
 62
4
 10
-670.367369151418190
 20
-147.247604582538200
 40
289.397000000000160
 50
0.000000000000000
 51
6.051985358668508
  0
ARC
  8
0
  6
CONTINUOUS
 62
4
 10
-397.894468226207660
 20
-118.359574857399930
 40
15.397000000000052
 50
6.051985358668849
 51
45.000000000000000
  0
LINE
  8
0
  6
CONTINUOUS
 62
4
 10
-391.583210508916860
 20
-102.896186354831910
 11
-387.007145116278250
 21
-107.472251747470520
  0
ARC
  8
0
  6
CONTINUOUS
 62
4
 10
-395.825851196035960
 20
-107.138827041951450
 40
6.000000000000049
 50
45.000000000003077
 51
82.102011327574374
  0
ARC
  8
0
  6
CONTINUOUS
 62
4
 10
-434.767369151418280
 20
-387.847604582538110
 40
289.396999999999820
 50
82.102011327572214
 51
90.000000000000000
  0
ARC
  8
0
  6
CONTINUOUS
 62
4
 10
-670.367369151418190
 20
-147.247604582538200
 40
289.397000000000160
 50
353.948014641331500
 51
0.000000000000000
  0
ARC
  8
0
  6
CONTINUOUS
 62
4
 10
-397.894468226207660
 20
-176.135634307676470
 40
15.396999999999876
 50
315.000000000000000
 51
353.948014641331160
  0
LINE
  8
0
  6
CONTINUOUS
 62
4
 10
-391.583210508916860
 20
-191.599022810244490
 11
-387.007145116278250
 21
-187.022957417605880
  0
ARC
  8
0
  6
CONTINUOUS
 62
4
 10
-395.825851196035960
 20
-187.356382123124940
 40
5.999999999999923
 50
277.897988672425640
 51
314.999999999996870
  0
ARC
  8
0
  6
CONTINUOUS
 62
4
 10
-434.767369151418280
 20
93.352395417461707
 40
289.396999999999930
 50
270.000000000000000
 51
277.897988672427800
  0
ARC
  8
0
  6
CONTINUOUS
 62
4
 10
-199.167369151418140
 20
-147.247604582538200
 40
289.397000000000160
 50
180.000000000000000
 51
186.051985358668500
  0
ARC
  8
0
  6
CONTINUOUS
 62
4
 10
-471.640270076628670
 20
-176.135634307676470
 40
15.397000000000052
 50
186.051985358668840
 51
225.000000000000000
  0
LINE
  8
0
  6
CONTINUOUS
 62
4
 10
-477.951527793919470
 20
-191.599022810244490
 11
-482.527593186558080
 21
-187.022957417605880
  0
ARC
  8
0
  6
CONTINUOUS
 62
4
 10
-473.708887106800380
 20
-187.356382123124940
 40
6.000000000000049
 50
225.000000000003070
 51
262.102011327574360
  0
ARC
  8
0
  6
CONTINUOUS
 62
4
 10
-434.767369151418050
 20
93.352395417461707
 40
289.396999999999820
 50
262.102011327572200
 51
270.000000000000000
  0
LINE
  8
0
  6
DASHDOT
 62
4
 10
-502.497258194839560
 20
-147.247604582538200
 11
-492.865354805793340
 21
-147.247604582538200
  0
ARC
  8
0
  6
CONTINUOUS
 62
3
 10
-520.067369151418230
 20
-161.290104582538220
 40
20.800000000000082
 50
274.191726156007460
 51
354.952683218987430
  0
LINE
  8
0
  6
CONTINUOUS
 62
3
 10
-499.267369151418280
 20
-129.916995822312800
 11
-499.267369151418280
 21
-121.290104582538220
  0
POINT
  8
0
  6
DASHDOT
 62
4
 10
-499.267369151418280
 20
-147.261335075664190
  0
POINT
  8
0
  6
DASHDOT
 62
4
 10
-499.267369151418280
 20
-147.261335075664190
  0
ARC
  8
0
  6
CONTINUOUS
 62
3
 10
-518.067369151418230
 20
-121.290104582538220
 40
18.799999999999955
 50
0.000000000000000
 51
79.401214733933941
  0
ARC
  8
0
  6
CONTINUOUS
 62
3
 10
-520.067369151418230
 20
-161.290104582538220
 40
20.799999999999986
 50
174.275189547776620
 51
205.640070215894870
  0
ARC
  8
0
  6
CONTINUOUS
 62
3
 10
-520.067369151418230
 20
-161.290104582538220
 40
20.799999999999926
 50
205.640070215894870
 51
260.083463391769440
  0
ARC
  8
0
  6
CONTINUOUS
 62
3
 10
-520.067369151418230
 20
-161.290104582538220
 40
20.799999999999986
 50
174.275189547776620
 51
205.640070215894870
  0
ARC
  8
0
  6
CONTINUOUS
 62
3
 10
-514.241614517331300
 20
-100.844968205400500
 40
1.999999999999927
 50
177.137594773887290
 51
259.401214733934010
  0
ARC
  8
0
  6
CONTINUOUS
 62
3
 10
-519.834627615047110
 20
-100.565317550514690
 40
1.999999999999928
 50
274.873974813840960
 51
357.137594773887320
  0
ARC
  8
0
  6
CONTINUOUS
 62
3
 10
-518.400821885034700
 20
-184.029115559467530
 40
1.999999999999962
 50
94.191726156001650
 51
177.137594773887290
  0
LINE
  8
0
  6
CONTINUOUS
 62
3
 10
-516.569240643101470
 20
-91.327534416202980
 11
-521.662877571378430
 21
-193.200272981743070
  0
ARC
  8
0
  6
CONTINUOUS
 62
3
 10
-523.993834982750510
 20
-183.749464904581710
 40
2.000000000000154
 50
357.137594773887600
 51
80.083463391767268
  0
LINE
  8
0
  6
CONTINUOUS
 62
3
 10
-540.763628503039170
 20
-159.215291614957210
 11
-536.773603565383160
 21
-119.414792861839940
  0
ARC
  8
0
  6
CONTINUOUS
 62
3
 10
-518.067369151418230
 20
-121.290104582538220
 40
18.800000000000036
 50
94.873974813842736
 51
144.191373186504250
  0
ARC
  8
0
  6
CONTINUOUS
 62
3
 10
-518.067369151418230
 20
-121.290104582538220
 40
18.799999999999933
 50
144.191373186504250
 51
174.275189547776390
  0
LINE
  8
0
  6
CONTINUOUS
 62
3
 10
-517.368242514203760
 20
-91.287584322647831
 11
-515.770238771999170
 21
-91.367484509758015
  0
ARC
  8
0
  6
CONTINUOUS
 62
3
 10
-511.225916011098210
 20
-96.600946746428122
 40
9.000000000000060
 50
160.536063666407810
 51
193.739143184213500
  0
POINT
  8
0
  6
CONTINUOUS
 62
3
 10
-517.617930598922610
 20
-96.281346017036867
  0
LINE
  8
0
  6
CONTINUOUS
 62
3
 10
-517.443148939619050
 20
-92.785712830964485
 11
-517.792712258226170
 21
-99.776979203109363
  0
LINE
  8
0
  6
CONTINUOUS
 62
3
 10
-517.443148939619050
 20
-92.785712830964485
 11
-517.792712258226170
 21
-99.776979203109363
  0
LINE
  8
0
  6
CONTINUOUS
 62
3
 10
-517.792712258226170
 20
-99.776979203109363
 11
-518.770516070733950
 21
-99.728089012484020
  0
LINE
  8
0
  6
CONTINUOUS
 62
3
 10
-517.443148939619050
 20
-92.785712830964485
 11
-518.420952752126600
 21
-92.736822640339142
  0
ARC
  8
0
  6
CONTINUOUS
 62
3
 10
-518.705597206806260
 20
-98.429711733930390
 40
1.299999237060493
 50
193.739143184211430
 51
267.137612759980240
  0
ARC
  8
0
  6
CONTINUOUS
 62
3
 10
-518.485871616054280
 20
-94.035199918892658
 40
1.299999237060474
 50
87.137594090651831
 51
160.536063666412870
  0
LINE
  8
0
  6
CONTINUOUS
 62
3
 10
-517.368242514203760
 20
-91.287584322647831
 11
-522.461879442480720
 21
-193.160322888187810
  0
LINE
  8
0
  6
CONTINUOUS
 62
3
 10
-520.863875700276140
 20
-193.240223075298790
 11
-522.461879442480720
 21
-193.160322888187810
  0
LINE
  8
0
  6
CONTINUOUS
 62
3
 10
-515.770238771999170
 20
-91.367484509758015
 11
-520.863875700276140
 21
-193.240223075298790
  0
INSERT
  8
0
  2
SYM13
 10
-522.212191357761640
 20
-188.166561193798660
 41
1.000000000000000
 42
1.000000000000000
 43
1.000000000000000
 50
357.137594773886350
  0
LINE
  8
0
  6
DASHDOT
 62
4
 10
-403.999366017924330
 20
-145.747604582535700
 11
-465.210807219689740
 21
-145.747604582535700
  0
LINE
  8
0
  6
DASHDOT
 62
4
 10
-569.824437494484300
 20
-147.247604582538200
 11
-304.873238841726560
 21
-147.247604582538200
  0
INSERT
  8
0
  2
SYM14
 10
-489.568144693375870
 20
-232.548380124493750
  0
INSERT
  8
0
  2
SYM15
 10
-379.966593609460690
 20
-232.548380124493750
  0
ARC
  8
0
  6
CONTINUOUS
 62
3
 10
-448.267369151418280
 20
-191.247604582536380
 40
70.000000000000000
 50
180.000000000000000
 51
270.000000000000000
  0
ARC
  8
0
  6
CONTINUOUS
 62
3
 10
-421.267369151418280
 20
-191.247604582536380
 40
70.000000000000000
 50
270.000000000000000
 51
0.000000000000000
  0
LINE
  8
0
  6
CONTINUOUS
 62
3
 10
-421.267369151418280
 20
-261.247604582536380
 11
-448.267369151418280
 21
-261.247604582536380
  0
ARC
  8
0
  6
CONTINUOUS
 62
3
 10
-434.767369151418280
 20
-177.747604582536380
 40
35.000000000000028
 50
235.503770534084960
 51
304.496229465915060
  0
POINT
  8
0
  6
DASHDOT
 62
4
 10
-434.767369151418280
 20
-177.747604582536380
  0
POINT
  8
0
  6
CONTINUOUS
 62
4
 10
-434.767369151418280
 20
-177.747604582536380
  0
POINT
  8
0
  6
CONTINUOUS
 62
3
 10
-434.767369151418280
 20
-177.747604582536380
  0
POINT
  8
0
  6
DASHDOT
 62
4
 10
-434.767369151418280
 20
-177.747604582536380
  0
POINT
  8
0
  6
CONTINUOUS
 62
4
 10
-434.767369151418280
 20
-177.747604582536380
  0
POINT
  8
0
  6
CONTINUOUS
 62
3
 10
-434.767369151418280
 20
-177.747604582536380
  0
POINT
  8
0
  6
CONTINUOUS
 62
4
 10
-434.767369151418280
 20
-177.747604582536380
  0
POINT
  8
0
  6
DASHDOT
 62
4
 10
-434.767369151418280
 20
-177.747604582536380
  0
POINT
  8
0
  6
DASHDOT
 62
4
 10
-434.767369151418280
 20
-177.747604582536380
  0
POINT
  8
0
  6
DASHED
 62
3
 10
-434.767369151418280
 20
-177.747604582536380
  0
LINE
  8
0
  6
CONTINUOUS
 62
3
 10
-518.267369151418280
 20
-182.012073600949580
 11
-518.267369151418280
 21
-191.247604582536380
  0
LINE
  8
0
  6
CONTINUOUS
 62
3
 10
-351.267369151418280
 20
-183.247604582538200
 11
-351.267369151418280
 21
-191.247604582536380
  0
ARC
  8
0
  6
CONTINUOUS
 62
3
 10
-448.267369151418280
 20
-164.247604582536380
 40
70.000000000000028
 50
135.306935940307680
 51
137.401051550010270
  0
LINE
  8
0
  6
CONTINUOUS
 62
3
 10
-412.267369151418280
 20
-207.251333642765080
 11
-412.267369151418280
 21
-253.247604582536380
  0
LINE
  8
0
  6
CONTINUOUS
 62
3
 10
-417.267369151418280
 20
-212.872382161903370
 11
-417.267369151418280
 21
-253.247604582536380
  0
LINE
  8
0
  6
CONTINUOUS
 62
3
 10
-452.267369151418280
 20
-212.872382161903370
 11
-452.267369151418280
 21
-253.247604582536380
  0
LINE
  8
0
  6
CONTINUOUS
 62
3
 10
-457.267369151418280
 20
-207.251333642765080
 11
-457.267369151418280
 21
-253.247604582536380
  0
ARC
  8
0
  6
CONTINUOUS
 62
3
 10
-409.267369151418280
 20
-253.247604582536380
 40
3.000000000000000
 50
180.000000000000000
 51
270.000000000000000
  0
ARC
  8
0
  6
CONTINUOUS
 62
3
 10
-420.267369151418280
 20
-253.247604582536380
 40
3.000000000000000
 50
270.000000000000000
 51
0.000000000000000
  0
ARC
  8
0
  6
CONTINUOUS
 62
3
 10
-449.267369151418280
 20
-253.247604582536380
 40
3.000000000000000
 50
180.000000000000000
 51
270.000000000000000
  0
ARC
  8
0
  6
CONTINUOUS
 62
3
 10
-460.267369151418280
 20
-253.247604582536380
 40
3.000000000000000
 50
270.000000000000000
 51
0.000000000000000
  0
ARC
  8
0
  6
CONTINUOUS
 62
3
 10
-409.267369151418280
 20
-207.251333642765080
 40
3.000000000000246
 50
163.413785109986040
 51
180.000000000000000
  0
ARC
  8
0
  6
CONTINUOUS
 62
3
 10
-420.267369151418280
 20
-212.872382161903370
 40
3.000000000000000
 50
0.000000000000000
 51
112.431520635375430
  0
ARC
  8
0
  6
CONTINUOUS
 62
3
 10
-449.267369151418280
 20
-212.872382161903370
 40
3.000000000000127
 50
67.568479364624565
 51
180.000000000000000
  0
ARC
  8
0
  6
CONTINUOUS
 62
3
 10
-460.267369151418280
 20
-207.251333642765080
 40
3.000000000000000
 50
0.000000000000000
 51
16.586214890013956
  0
ARC
  8
0
  6
CONTINUOUS
 62
3
 10
-379.966593609460690
 20
-232.548380124493750
 40
7.500000000000062
 50
57.076446369969339
 51
212.923553630030680
  0
ARC
  8
0
  6
CONTINUOUS
 62
3
 10
-489.568144693375870
 20
-232.548380124493750
 40
7.500000000000062
 50
327.076446369969290
 51
122.923553630030650
  0
ARC
  8
0
  6
CONTINUOUS
 62
3
 10
-374.259638208179240
 20
-223.734716865224980
 40
2.999999999999918
 50
237.076446369970110
 51
322.764423686620200
  0
ARC
  8
0
  6
CONTINUOUS
 62
3
 10
-388.780256868729790
 20
-238.255335525775190
 40
3.000000000000068
 50
307.235576313381440
 51
32.923553630026383
  0
ARC
  8
0
  6
CONTINUOUS
 62
3
 10
-480.754481434106760
 20
-238.255335525775190
 40
3.000000000000205
 50
147.076446369973640
 51
232.764423686618530
  0
ARC
  8
0
  6
CONTINUOUS
 62
3
 10
-495.275100094657320
 20
-223.734716865224980
 40
2.999999999999999
 50
217.235576313379800
 51
302.923553630029910
  0
INSERT
  8
0
  2
SYM16
 10
-424.267369151418280
 20
-73.747603785435672
  0
INSERT
  8
0
  2
SYM17
 10
-367.767369151418280
 20
-80.747603785435444
  0
INSERT
  8
0
  2
SYM18
 10
-328.767369151418280
 20
-156.747603785435440
  0
INSERT
  8
0
  2
SYM19
 10
-327.767369151418280
 20
-222.747603785435670
  0
INSERT
  8
0
  2
SYM20
 10
-367.767369151418280
 20
-280.747603785435670
  0
INSERT
  8
0
  2
SYM21
 10
-501.767369151418280
 20
-280.747603785435670
 41
-1.000000000000000
  0
INSERT
  8
0
  2
SYM22
 10
-541.767369151418280
 20
-222.747603785435670
 41
-1.000000000000000
  0
INSERT
  8
0
  2
SYM23
 10
-501.767369151418280
 20
-80.747603785435444
 41
-1.000000000000000
  0
INSERT
  8
0
  2
SYM24
 10
-445.267369151418280
 20
-73.747603785435672
 41
-1.000000000000000
  0
ARC
  8
0
  6
CONTINUOUS
 62
3
 10
-549.767369151418280
 20
-145.747603785435440
 40
2.000000000000000
 50
90.000000000000000
 51
180.000000000000000
  0
ARC
  8
0
  6
CONTINUOUS
 62
3
 10
-545.767369151418280
 20
-223.343657043248300
 40
6.000000000000000
 50
180.000000000000000
 51
202.331645009221920
  0
LINE
  8
0
  6
CONTINUOUS
 62
3
 10
-539.212983106595860
 20
-143.747603785435440
 11
-549.767369151418280
 21
-143.747603785435440
  0
LINE
  8
0
  6
CONTINUOUS
 62
3
 10
-536.767369151418280
 20
-117.747603785435440
 11
-543.665606452722390
 21
-117.747603785435440
  0
LINE
  8
0
  6
CONTINUOUS
 62
3
 10
-332.767369151418280
 20
-143.747603785435440
 11
-320.767369151418280
 21
-143.747603785435440
  0
LINE
  8
0
  6
CONTINUOUS
 62
3
 10
-332.767369151418280
 20
-117.747603785435440
 11
-327.369307163668960
 21
-117.747603785435440
  0
LINE
  8
0
  6
CONTINUOUS
 62
3
 10
-434.767369151418280
 20
-85.747603785435672
 11
-417.267369151418280
 21
-85.747603785435672
  0
LINE
  8
0
  6
CONTINUOUS
 62
3
 10
-434.767369151418280
 20
-85.747603785435672
 11
-452.267369151418280
 21
-85.747603785435672
  0
LINE
  8
0
  6
CONTINUOUS
 62
3
 10
-363.671175073707330
 20
-111.247604582538210
 11
-343.229063684533230
 21
-90.805493193364441
  0
LINE
  8
0
  6
CONTINUOUS
 62
3
 10
-372.136206522260640
 20
-110.520247875666310
 11
-347.919712741851070
 21
-86.303754095257204
  0
LINE
  8
0
  6
CONTINUOUS
 62
3
 10
-497.398531780575920
 20
-110.520247875666310
 11
-515.807431932688810
 21
-92.111347723553706
  0
LINE
  8
0
  6
CONTINUOUS
 62
3
 10
-514.224014827803670
 20
-102.887152983863810
 11
-516.245164701994780
 21
-100.866003109672760
  0
LINE
  8
0
  6
CONTINUOUS
 62
3
 10
-501.994725858288350
 20
-240.378767211694030
 11
-523.927245759887680
 21
-262.311287113292910
  0
LINE
  8
0
  6
CONTINUOUS
 62
3
 10
-497.398531780575920
 20
-244.974961289406450
 11
-519.331051682174800
 21
-266.907481191005330
  0
LINE
  8
0
  6
CONTINUOUS
 62
3
 10
-363.730715321961720
 20
-244.188064334280280
 11
-345.607492542948880
 21
-262.311287113292680
  0
LINE
  8
0
  6
CONTINUOUS
 62
3
 10
-367.631161909022010
 20
-249.480005902644850
 11
-350.203686620661760
 21
-266.907481191005330
  0
ARC
  8
0
  6
CONTINUOUS
 62
3
 10
-536.767369151418280
 20
-130.747603785435440
 40
12.999999999999996
 50
88.958206020233135
 51
90.000000000000000
  0
ARC
  8
0
  6
CONTINUOUS
 62
3
 10
-543.665606452722390
 20
-115.747603785435440
 40
2.000000000000116
 50
157.893323870137750
 51
270.000000000000000
  0
ARC
  8
0
  6
CONTINUOUS
 62
3
 10
-332.767369151418280
 20
-130.747603785435440
 40
13.000000000000000
 50
90.000000000000000
 51
116.601446084541470
  0
ARC
  8
0
  6
CONTINUOUS
 62
3
 10
-434.767369151418280
 20
-177.747604582536380
 40
125.999999999999870
 50
309.364679251356730
 51
337.668354990778480
  0
ARC
  8
0
  6
CONTINUOUS
 62
3
 10
-323.767369151418280
 20
-223.343657043248300
 40
6.000000000000214
 50
337.668354990778080
 51
0.000000000000000
  0
ARC
  8
0
  6
CONTINUOUS
 62
3
 10
-434.767369151418280
 20
-177.747604582536380
 40
126.000000000000180
 50
202.331645009221490
 51
230.635320748643100
  0
ARC
  8
0
  6
CONTINUOUS
 62
3
 10
-349.777329038767220
 20
-281.346316358552140
 40
8.000000000000215
 50
129.364679251358580
 51
178.093887109017460
  0
ARC
  8
0
  6
CONTINUOUS
 62
3
 10
-501.767369151418280
 20
-280.747603785435670
 40
10.000000000000053
 50
306.869864344412290
 51
315.572968020398260
  0
ARC
  8
0
  6
CONTINUOUS
 62
3
 10
-519.757409264069340
 20
-281.346316358552140
 40
7.999999999999923
 50
1.906112890982627
 51
50.635320748643942
  0
ARC
  8
0
  6
CONTINUOUS
 62
3
 10
-501.767369151418280
 20
-280.747603785435670
 40
10.000000000000130
 50
181.906112890982260
 51
233.130135655587680
  0
ARC
  8
0
  6
CONTINUOUS
 62
3
 10
-367.767369151418280
 20
-280.747603785435670
 40
10.000000000000158
 50
224.427031979599950
 51
233.130135655587680
  0
ARC
  8
0
  6
CONTINUOUS
 62
3
 10
-367.767369151418280
 20
-280.747603785435670
 40
10.000000000000053
 50
306.869864344412290
 51
358.093887109017660
  0
ARC
  8
0
  6
CONTINUOUS
 62
3
 10
-417.267369151418280
 20
-82.747603785435672
 40
3.000000000000000
 50
270.000000000000000
 51
0.000000000000000
  0
ARC
  8
0
  6
CONTINUOUS
 62
3
 10
-452.267369151418280
 20
-82.747603785435672
 40
3.000000000000000
 50
180.000000000000000
 51
270.000000000000000
  0
ARC
  8
0
  6
CONTINUOUS
 62
3
 10
-396.491290428783030
 20
-220.520204366254010
 40
37.999999999999936
 50
264.588104602568250
 51
355.900478402576140
  0
ARC
  8
0
  6
CONTINUOUS
 62
3
 10
-353.601311094012090
 20
-223.594236354201830
 40
4.999999999999917
 50
154.450645436618710
 51
175.900478402575570
  0
ARC
  8
0
  6
CONTINUOUS
 62
3
 10
-400.546835589698730
 20
-263.328527779438330
 40
5.000000000000205
 50
84.588104602569331
 51
106.037937568522150
  0
ARC
  8
0
  6
CONTINUOUS
 62
3
 10
-428.517369151418280
 20
-88.747603785435672
 40
3.000000000000000
 50
90.000000000000000
 51
150.484698388831930
  0
ARC
  8
0
  6
CONTINUOUS
 62
3
 10
-441.017369151418280
 20
-88.747603785435672
 40
2.999999999999554
 50
29.515301611168077
 51
90.000000000000000
  0
ARC
  8
0
  6
CONTINUOUS
 62
3
 10
-341.107743340973680
 20
-92.926813536923987
 40
3.000000000000097
 50
41.240714208219508
 51
135.000000000000000
  0
ARC
  8
0
  6
CONTINUOUS
 62
3
 10
-374.257526865820180
 20
-108.398927532106760
 40
2.999999999999993
 50
308.162427868101360
 51
315.000000000000000
  0
ARC
  8
0
  6
CONTINUOUS
 62
3
 10
-350.041033085410620
 20
-84.182433751697431
 40
3.000000000000024
 50
314.999999999996870
 51
49.983805954135455
  0
ARC
  8
0
  6
CONTINUOUS
 62
3
 10
-519.493705217425940
 20
-84.182433751697431
 40
2.999999999999794
 50
130.016194045864520
 51
225.000000000003070
  0
ARC
  8
0
  6
CONTINUOUS
 62
3
 10
-495.277211437016380
 20
-108.398927532106760
 40
2.999999999999864
 50
225.000000000000000
 51
231.837572131898610
  0
ARC
  8
0
  6
CONTINUOUS
 62
3
 10
-528.426994961862870
 20
-92.926813536923987
 40
2.999999999999864
 50
45.000000000000000
 51
138.759285791780480
  0
ARC
  8
0
  6
CONTINUOUS
 62
3
 10
-327.369307163668960
 20
-114.747603785435440
 40
3.000000000000000
 50
270.000000000000000
 51
23.148572820069919
  0
ARC
  8
0
  6
CONTINUOUS
 62
3
 10
-320.767369151418280
 20
-146.747603785435440
 40
3.000000000000000
 50
0.000000000000000
 51
90.000000000000000
  0
ARC
  8
0
  6
CONTINUOUS
 62
3
 10
-504.116046201847890
 20
-238.257446868134250
 40
3.000000000000024
 50
314.999999999996870
 51
40.088526589902528
  0
ARC
  8
0
  6
CONTINUOUS
 62
3
 10
-495.277211437016380
 20
-247.096281632966000
 40
3.000000000000124
 50
49.911473410096967
 51
135.000000000000000
  0
ARC
  8
0
  6
CONTINUOUS
 62
3
 10
-526.048566103447230
 20
-260.189966769733130
 40
3.000000000000218
 50
222.087374790476100
 51
314.999999999996870
  0
ARC
  8
0
  6
CONTINUOUS
 62
3
 10
-517.209731338615260
 20
-269.028801534565100
 40
3.000000000000024
 50
134.999999999996930
 51
227.912625209521000
  0
ARC
  8
0
  6
CONTINUOUS
 62
3
 10
-352.325006964221300
 20
-269.028801534564880
 40
3.000000000000218
 50
312.087374790476080
 51
45.000000000000000
  0
ARC
  8
0
  6
CONTINUOUS
 62
3
 10
-343.486172199389330
 20
-260.189966769733130
 40
2.999999999999864
 50
225.000000000000000
 51
317.912625209518070
  0
ARC
  8
0
  6
CONTINUOUS
 62
3
 10
-369.752482252582010
 20
-251.601326246204390
 40
3.000000000000185
 50
44.999999999993868
 51
130.705112768216340
  0
ARC
  8
0
  6
CONTINUOUS
 62
3
 10
-361.609394978402180
 20
-242.066743990720510
 40
2.999999999999677
 50
148.296383256597580
 51
225.000000000003070
  0
LINE
  8
0
  6
CONTINUOUS
 62
3
 10
-414.267369151418280
 20
-61.168030544095132
 11
-414.267369151418280
 21
-82.747603785435672
  0
LINE
  8
0
  6
CONTINUOUS
 62
3
 10
-455.267369151418280
 20
-61.168030544095132
 11
-455.267369151418280
 21
-82.747603785435672
  0
ARC
  8
0
  6
CONTINUOUS
 62
3
 10
-434.767369151418280
 20
-560.747603785435670
 40
499.999999999999940
 50
92.349785605460426
 51
94.422377585978055
  0
ARC
  8
0
  6
CONTINUOUS
 62
3
 10
-434.767369151418280
 20
-560.747603785435670
 40
499.999999999999940
 50
85.577622414021945
 51
87.650214394539574
  0
ARC
  8
0
  6
CONTINUOUS
 62
3
 10
-424.267369151418280
 20
-35.747603785435672
 40
10.000000000000000
 50
0.000000000000000
 51
90.000000000000000
  0
LINE
  8
0
  6
CONTINUOUS
 62
3
 10
-414.267369151418280
 20
-35.747603785435672
 11
-414.267369151418280
 21
-61.168030544094904
  0
LINE
  8
0
  6
CONTINUOUS
 62
3
 10
-424.267369151418280
 20
-25.747603785435672
 11
-445.267369151418280
 21
-25.747603785435672
  0
ARC
  8
0
  6
CONTINUOUS
 62
3
 10
-445.267369151418280
 20
-35.747603785435672
 40
10.000000000000000
 50
90.000000000000000
 51
180.000000000000000
  0
LINE
  8
0
  6
DASHDOT
 62
4
 10
-411.599456152536730
 20
-45.747603785435672
 11
-458.621970054071430
 21
-45.747603785435672
  0
CIRCLE
  8
0
  6
CONTINUOUS
 62
3
 10
-434.767369151418280
 20
-45.747603785435672
 40
10.000000000000000
  0
LINE
  8
0
  6
CONTINUOUS
 62
3
 10
-455.267369151418280
 20
-35.747603785435672
 11
-455.267369151418280
 21
-61.168030544094904
  0
LINE
  8
0
  6
DASHDOT
 62
4
 10
-434.767369151418280
 20
-300.721469292100660
 11
-434.767369151418280
 21
-17.765065812226908
  0
ARC
  8
0
  6
CONTINUOUS
 62
3
 10
-546.767369151418280
 20
-253.120013327381570
 40
5.000000000000114
 50
33.939289208664569
 51
180.000000000000000
  0
ARC
  8
0
  6
CONTINUOUS
 62
3
 10
-434.767369151418280
 20
-177.747604582536380
 40
129.999999999999940
 50
213.939289208665090
 51
230.380873009517220
  0
ARC
  8
0
  6
CONTINUOUS
 62
3
 10
-322.767369151418280
 20
-253.120013327381570
 40
5.000000000000000
 50
0.000000000000000
 51
146.060710791332530
  0
ARC
  8
0
  6
CONTINUOUS
 62
3
 10
-434.767369151418280
 20
-177.747604582536380
 40
130.000000000000170
 50
309.619126990482750
 51
326.060710791335000
  0
ARC
  8
0
  6
CONTINUOUS
 62
3
 10
-367.767369151418280
 20
-280.747603785435670
 40
9.999999999999833
 50
224.427031979601790
 51
233.130135655587680
  0
ARC
  8
0
  6
CONTINUOUS
 62
3
 10
-466.767369151418280
 20
-146.983178055044960
 40
84.999999999999972
 50
94.422377585978197
 51
180.000000000000000
  0
ARC
  8
0
  6
CONTINUOUS
 62
3
 10
-554.767369151418280
 20
-265.747606849292310
 40
3.000000000000000
 50
270.000000000000000
 51
0.000000000000000
  0
ARC
  8
0
  6
CONTINUOUS
 62
3
 10
-556.767372265093850
 20
-271.747607646392340
 40
3.000000000000000
 50
90.000000000000000
 51
180.000000000000000
  0
ARC
  8
0
  6
CONTINUOUS
 62
3
 10
-512.767371144170740
 20
-290.747607272752130
 40
2.000000000000000
 50
90.000000000000000
 51
180.000000000000000
  0
ARC
  8
0
  6
CONTINUOUS
 62
3
 10
-528.857748967050610
 20
-271.747607646392340
 40
3.000000000000004
 50
44.972469343427150
 51
90.000000000000000
  0
ARC
  8
0
  6
CONTINUOUS
 62
3
 10
-501.767369151418280
 20
-280.747603785435670
 40
10.000000000000053
 50
306.869864344412290
 51
315.572968020398260
  0
ARC
  8
0
  6
CONTINUOUS
 62
3
 10
-356.767367158665820
 20
-290.747607272752130
 40
2.000000000000000
 50
0.000000000000000
 51
90.000000000000000
  0
ARC
  8
0
  6
CONTINUOUS
 62
3
 10
-402.767369151418280
 20
-146.983178055044960
 40
85.000000000000000
 50
0.000000000000000
 51
85.577622414021803
  0
ARC
  8
0
  6
CONTINUOUS
 62
3
 10
-314.767369151418280
 20
-265.747606849292310
 40
3.000000000000000
 50
180.000000000000000
 51
270.000000000000000
  0
ARC
  8
0
  6
CONTINUOUS
 62
3
 10
-312.767366037742700
 20
-271.747607646392340
 40
3.000000000000000
 50
0.000000000000000
 51
90.000000000000000
  0
ARC
  8
0
  6
CONTINUOUS
 62
3
 10
-340.676989335785950
 20
-271.747607646392340
 40
3.000000000000000
 50
90.000000000000000
 51
135.027530656572850
  0
LINE
  8
0
  6
DASHDOT
 62
4
 10
-542.267371829178960
 20
-298.572066088910450
 11
-542.267371829178960
 21
-263.034028888438000
  0
LINE
  8
0
  6
CONTINUOUS
 62
3
 10
-514.767371144170740
 20
-290.747608194399280
 11
-559.767372265093850
 21
-290.747608194399280
  0
LINE
  8
0
  6
CONTINUOUS
 62
3
 10
-559.767372265093850
 20
-290.747608194399280
 11
-559.767372265093850
 21
-271.747607646392340
  0
LINE
  8
0
  6
CONTINUOUS
 62
3
 10
-528.857748967050610
 20
-268.747607646392340
 11
-556.767372265093850
 21
-268.747607646392340
  0
LINE
  8
0
  6
CONTINUOUS
 62
3
 10
-495.767373801176290
 20
-288.747607272752130
 11
-512.767371144170740
 21
-288.747607272752130
  0
LINE
  8
0
  6
CONTINUOUS
 62
3
 10
-514.767371144170740
 20
-290.747607397299250
 11
-514.767371144170740
 21
-284.049061060214060
  0
LINE
  8
0
  6
CONTINUOUS
 62
3
 10
-434.767369151418280
 20
-287.747607272752130
 11
-494.625944141131190
 21
-287.747607272752130
  0
LINE
  8
0
  6
CONTINUOUS
 62
3
 10
-373.767364501660270
 20
-288.747607272752130
 11
-356.767367158665820
 21
-288.747607272752130
  0
LINE
  8
0
  6
CONTINUOUS
 62
3
 10
-434.767369151418280
 20
-287.747607272752130
 11
-374.908794161705370
 21
-287.747607272752130
  0
LINE
  8
0
  6
CONTINUOUS
 62
3
 10
-354.767367158665820
 20
-290.747607397299250
 11
-354.767367158665820
 21
-284.049061060214170
  0
LINE
  8
0
  6
DASHDOT
 62
4
 10
-327.267366473657600
 20
-298.572066088910450
 11
-327.267366473657600
 21
-263.034028888438000
  0
LINE
  8
0
  6
CONTINUOUS
 62
3
 10
-354.767367158665820
 20
-290.747608194399280
 11
-309.767366037742700
 21
-290.747608194399280
  0
LINE
  8
0
  6
CONTINUOUS
 62
3
 10
-309.767366037742700
 20
-290.747608194399280
 11
-309.767366037742700
 21
-271.747607646392340
  0
LINE
  8
0
  6
CONTINUOUS
 62
3
 10
-340.676989335785950
 20
-268.747607646392340
 11
-312.767366037742700
 21
-268.747607646392340
  0
LINE
  8
0
  6
CONTINUOUS
 62
3
 10
-551.767369151418280
 20
-265.747606849292310
 11
-551.767369151418280
 21
-146.983178055044960
  0
LINE
  8
0
  6
CONTINUOUS
 62
3
 10
-317.767369151418280
 20
-265.747606849292310
 11
-317.767369151418280
 21
-146.983178055044960
  0
ARC
  8
0
  6
CONTINUOUS
 62
3
 10
-323.767369151418280
 20
-220.642825761590870
 40
6.000000000000148
 50
338.871302745699890
 51
0.000000000000000
  0
ARC
  8
0
  6
CONTINUOUS
 62
3
 10
-346.767367158665820
 20
-284.049061060214170
 40
8.000000000000055
 50
129.619126990482750
 51
180.000000000000000
  0
ARC
  8
0
  6
CONTINUOUS
 62
3
 10
-522.767371144170740
 20
-284.049061060214060
 40
8.000000000000000
 50
0.000000000000000
 51
50.380873009517259
  0
TEXT
  8
0
  6
CONTINUOUS
 62
3
 10
-445.265106201171880
 20
195.731689453125000
 40
20.000000000000000
  1
S102
 50
0.000002504478167
 41
0.470000016689301
  7
STANDARD1
  0
TEXT
  8
0
  6
CONTINUOUS
 62
3
 10
-445.265106201171880
 20
173.131698608398440
 40
20.000000000000000
  1
三菱ギヤードモートル
 50
0.000002504478167
 41
0.625000000000000
  7
STANDARD1
  0
TEXT
  8
0
  6
CONTINUOUS
 62
3
 10
-445.265106201171880
 20
150.531692504882810
 40
20.000000000000000
  1
GM-SSB
 50
0.000002504478167
 41
0.470000016689301
  7
STANDARD1
  0
TEXT
  8
0
  6
CONTINUOUS
 62
3
 10
-445.265106201171880
 20
127.931694030761710
 40
20.000000000000000
  1
0.4kW
 50
0.000002504478167
 41
0.470000016689301
  7
STANDARD1
  0
TEXT
  8
0
  6
CONTINUOUS
 62
3
 10
-445.265106201171880
 20
105.331695556640620
 40
20.000000000000000
  1
1/270-1/450
 50
0.000002504478167
 41
0.470000016689301
  7
STANDARD1
  0
TEXT
  8
0
  6
CONTINUOUS
 62
3
 10
-445.265106201171880
 20
82.731697082519531
 40
20.000000000000000
  1
SCALE1/1
 50
0.000002504478167
 41
0.470000016689301
  7
STANDARD1
  0
ARC
  8
0
  6
CONTINUOUS
 62
3
 10
-332.767369151418280
 20
-130.747603785435440
 40
13.000000000000027
 50
249.601882274288640
 51
270.000000000000000
  0
LINE
  8
0
  6
CONTINUOUS
 62
3
 10
-520.221276540942430
 20
-96.889891270725229
 11
-526.305674618303330
 21
-90.805493193364441
  0
ARC
  8
0
  6
CONTINUOUS
 62
3
 10
-540.767369151418280
 20
-156.747603785435440
 40
5.633955001831040
 50
81.733191400067923
 51
269.274191076514280
  0
ARC
  8
0
  6
CONTINUOUS
 62
3
 10
-540.767369151418280
 20
-156.747603785435440
 40
6.500000000000009
 50
82.072061250027218
 51
269.932259467661880
  0
LINE
  8
0
  6
CONTINUOUS
 62
3
 10
-543.767365813558970
 20
-155.015556832209880
 11
-543.767366767233280
 21
-158.479654808894450
  0
LINE
  8
0
  6
CONTINUOUS
 62
3
 10
-540.767375853139130
 20
-153.283506785500210
 11
-540.201704124931890
 21
-153.610095943337910
  0
LINE
  8
0
  6
CONTINUOUS
 62
3
 10
-543.767367263511910
 20
-158.479655178214220
 11
-540.837260426974470
 21
-160.171347950570690
  0
LINE
  8
0
  6
CONTINUOUS
 62
3
 10
-540.767375770019950
 20
-153.283506889049820
 11
-543.767366577367170
 21
-155.015557003299080
  0
LINE
  8
0
  6
CONTINUOUS
 62
3
 10
-516.592403376720650
 20
-91.326376279521924
 11
-521.615025560985490
 21
-86.303754095257204
  0
ARC
  8
0
  6
CONTINUOUS
 62
3
 10
-424.267369151418280
 20
-73.747592572648500
 40
10.000000000000000
 50
270.000000000000000
 51
0.000000000000000
  0
LINE
  8
0
  6
CONTINUOUS
 62
3
 10
-424.267369151418280
 20
-83.747592572648500
 11
-445.267369151418280
 21
-83.747592572648500
  0
ARC
  8
0
  6
CONTINUOUS
 62
3
 10
-445.267369151418280
 20
-73.747592572648500
 40
10.000000000000000
 50
180.000000000000000
 51
270.000000000000000
  0
ARC
  8
0
  6
CONTINUOUS
 62
3
 10
-149.242999770928240
 20
222.252395417461570
 40
5.000000000000000
 50
180.000000000000000
 51
270.000000000000000
  0
LINE
  8
0
  6
CONTINUOUS
 62
3
 10
-154.242999770928240
 20
212.252395417461570
 11
-154.242999770928240
 21
217.252395417461570
  0
LINE
  8
0
  6
DASHDOT
 62
3
 10
-30.242999770928208
 20
212.252395417461570
 11
-30.242999770928208
 21
217.252395417461570
  0
ARC
  8
0
  6
CONTINUOUS
 62
3
 10
-35.242999770928208
 20
222.252395417461570
 40
5.000000000000000
 50
270.000000000000000
 51
0.000000000000000
  0
LINE
  8
0
  6
DASHDOT
 62
3
 10
-30.242999770928208
 20
212.252395417461570
 11
-30.242999770928208
 21
217.252395417461570
  0
LINE
  8
0
  6
CONTINUOUS
 62
3
 10
-154.242999770928240
 20
217.252395417461570
 11
-30.242999770928208
 21
217.252395417461570
  0
LINE
  8
0
  6
CONTINUOUS
 62
3
 10
-40.742999770928208
 20
235.913420477148520
 11
-143.742999770928240
 21
235.913420477148520
  0
ARC
  8
0
  6
CONTINUOUS
 62
3
 10
-35.242999770928208
 20
240.913420477148520
 40
5.000000000000072
 50
287.457603123721870
 51
0.000000000000000
  0
ARC
  8
0
  6
CONTINUOUS
 62
3
 10
-35.042999770928390
 20
236.589966602890850
 40
1.300000000000182
 50
0.000000000000000
 51
73.398450400977637
  0
ARC
  8
0
  6
CONTINUOUS
 62
3
 10
-37.242999770928208
 20
229.210942277141270
 40
9.000000000000233
 50
73.398450400981076
 51
106.601549599018900
  0
ARC
  8
0
  6
CONTINUOUS
 62
3
 10
-39.442999770928026
 20
236.589966602890850
 40
1.300000000000019
 50
106.601549599022360
 51
180.000000000000000
  0
LINE
  8
0
  6
CONTINUOUS
 62
3
 10
-33.742999770928208
 20
236.589966602890850
 11
-33.742999770928208
 21
235.602956864966470
  0
POLYLINE
  8
0
  6
CONTINUOUS
 62
3
 66
1
  0
VERTEX
  8
0
  6
CONTINUOUS
 62
3
 10
-40.742999770928208
 20
235.602956864966470
  0
VERTEX
  8
0
  6
CONTINUOUS
 62
3
 10
-40.675748252339517
 20
235.568858654770480
  0
VERTEX
  8
0
  6
CONTINUOUS
 62
3
 10
-40.476578134717712
 20
235.536070819669850
  0
VERTEX
  8
0
  6
CONTINUOUS
 62
3
 10
-40.153143413987117
 20
235.505853377779830
  0
VERTEX
  8
0
  6
CONTINUOUS
 62
3
 10
-39.717873505081123
 20
235.479367568446120
  0
VERTEX
  8
0
  6
CONTINUOUS
 62
3
 10
-39.187495586496816
 20
235.457631226468040
  0
VERTEX
  8
0
  6
CONTINUOUS
 62
3
 10
-38.582391784206024
 20
235.441479667277860
  0
VERTEX
  8
0
  6
CONTINUOUS
 62
3
 10
-37.925815897984656
 20
235.431533586237410
  0
VERTEX
  8
0
  6
CONTINUOUS
 62
3
 10
-37.242999770928208
 20
235.428175205663250
  0
VERTEX
  8
0
  6
CONTINUOUS
 62
3
 10
-36.560183643871760
 20
235.431533586237410
  0
VERTEX
  8
0
  6
CONTINUOUS
 62
3
 10
-35.903607757650391
 20
235.441479667277860
  0
VERTEX
  8
0
  6
CONTINUOUS
 62
3
 10
-35.298503955359600
 20
235.457631226468040
  0
VERTEX
  8
0
  6
CONTINUOUS
 62
3
 10
-34.768126036775293
 20
235.479367568446120
  0
VERTEX
  8
0
  6
CONTINUOUS
 62
3
 10
-34.332856127869299
 20
235.505853377779830
  0
VERTEX
  8
0
  6
CONTINUOUS
 62
3
 10
-34.009421407138703
 20
235.536070819669850
  0
VERTEX
  8
0
  6
CONTINUOUS
 62
3
 10
-33.810251289516906
 20
235.568858654770480
  0
VERTEX
  8
0
  6
CONTINUOUS
 62
3
 10
-33.742999770928208
 20
235.602956864966470
  0
SEQEND
  8
0
  6
CONTINUOUS
 62
3
  0
LINE
  8
0
  6
CONTINUOUS
 62
3
 10
-40.742999770928208
 20
236.589966602890850
 11
-40.742999770928208
 21
235.602956864966470
  0
ARC
  8
0
  6
CONTINUOUS
 62
3
 10
-149.242999770928240
 20
240.913420477148520
 40
5.000000000000000
 50
180.000000000000000
 51
252.542396876278160
  0
LINE
  8
0
  6
CONTINUOUS
 62
3
 10
-150.742999770928240
 20
236.589966602890850
 11
-150.742999770928240
 21
235.602956864966470
  0
LINE
  8
0
  6
CONTINUOUS
 62
3
 10
-143.742999770928240
 20
236.589966602890850
 11
-143.742999770928240
 21
235.602956864966470
  0
ARC
  8
0
  6
CONTINUOUS
 62
3
 10
-149.442999770928050
 20
236.589966602890850
 40
1.300000000000019
 50
106.601549599022360
 51
180.000000000000000
  0
ARC
  8
0
  6
CONTINUOUS
 62
3
 10
-147.242999770928240
 20
229.210942277141270
 40
9.000000000000233
 50
73.398450400981076
 51
106.601549599018900
  0
ARC
  8
0
  6
CONTINUOUS
 62
3
 10
-145.042999770928420
 20
236.589966602890850
 40
1.300000000000182
 50
0.000000000000000
 51
73.398450400977637
  0
POLYLINE
  8
0
  6
CONTINUOUS
 62
3
 66
1
  0
VERTEX
  8
0
  6
CONTINUOUS
 62
3
 10
-150.742999770928240
 20
235.602956864966470
  0
VERTEX
  8
0
  6
CONTINUOUS
 62
3
 10
-150.675748252339530
 20
235.568858654770480
  0
VERTEX
  8
0
  6
CONTINUOUS
 62
3
 10
-150.476578134717730
 20
235.536070819669850
  0
VERTEX
  8
0
  6
CONTINUOUS
 62
3
 10
-150.153143413987150
 20
235.505853377779830
  0
VERTEX
  8
0
  6
CONTINUOUS
 62
3
 10
-149.717873505081140
 20
235.479367568446120
  0
VERTEX
  8
0
  6
CONTINUOUS
 62
3
 10
-149.187495586496850
 20
235.457631226468040
  0
VERTEX
  8
0
  6
CONTINUOUS
 62
3
 10
-148.582391784206040
 20
235.441479667277860
  0
VERTEX
  8
0
  6
CONTINUOUS
 62
3
 10
-147.925815897984680
 20
235.431533586237410
  0
VERTEX
  8
0
  6
CONTINUOUS
 62
3
 10
-147.242999770928240
 20
235.428175205663250
  0
VERTEX
  8
0
  6
CONTINUOUS
 62
3
 10
-146.560183643871800
 20
235.431533586237410
  0
VERTEX
  8
0
  6
CONTINUOUS
 62
3
 10
-145.903607757650430
 20
235.441479667277860
  0
VERTEX
  8
0
  6
CONTINUOUS
 62
3
 10
-145.298503955359620
 20
235.457631226468040
  0
VERTEX
  8
0
  6
CONTINUOUS
 62
3
 10
-144.768126036775330
 20
235.479367568446120
  0
VERTEX
  8
0
  6
CONTINUOUS
 62
3
 10
-144.332856127869320
 20
235.505853377779830
  0
VERTEX
  8
0
  6
CONTINUOUS
 62
3
 10
-144.009421407138750
 20
235.536070819669850
  0
VERTEX
  8
0
  6
CONTINUOUS
 62
3
 10
-143.810251289516940
 20
235.568858654770480
  0
VERTEX
  8
0
  6
CONTINUOUS
 62
3
 10
-143.742999770928240
 20
235.602956864966470
  0
SEQEND
  8
0
  6
CONTINUOUS
 62
3
  0
LINE
  8
0
  6
CONTINUOUS
 62
3
 10
-30.242999770928208
 20
240.913420477148520
 11
-30.242999770928208
 21
253.852395417461590
  0
LINE
  8
0
  6
CONTINUOUS
 62
3
 10
-154.242999770928240
 20
240.913420477148520
 11
-154.242999770928240
 21
253.852395417461590
  0
LINE
  8
0
  6
CONTINUOUS
 62
3
 10
-154.242999770928240
 20
240.446905708523900
 11
-155.242999770928240
 21
240.446905708523900
  0
LINE
  8
0
  6
CONTINUOUS
 62
3
 10
-29.242999770928208
 20
235.353268780246710
 11
-155.242999770928240
 21
235.353268780246710
  0
ARC
  8
0
  6
CONTINUOUS
 62
3
 10
-149.242999770928240
 20
253.852395417461590
 40
5.000000000000000
 50
90.000000000000000
 51
180.000000000000000
  0
ARC
  8
0
  6
CONTINUOUS
 62
3
 10
-155.242999770928240
 20
238.446905708523900
 40
2.000000000000000
 50
90.000000000000000
 51
180.000000000000000
  0
ARC
  8
0
  6
CONTINUOUS
 62
3
 10
-155.242999770928240
 20
237.353268780246710
 40
2.000000000000000
 50
180.000000000000000
 51
270.000000000000000
  0
ARC
  8
0
  6
CONTINUOUS
 62
3
 10
-155.242999770928240
 20
236.554266909161470
 40
2.000000000000000
 50
180.000000000000000
 51
270.000000000000000
  0
LINE
  8
0
  6
CONTINUOUS
 62
3
 10
-157.242999770928240
 20
238.446905708523900
 11
-157.242999770928240
 21
235.755265038042580
  0
ARC
  8
0
  6
CONTINUOUS
 62
3
 10
-155.242999770928240
 20
235.755265038042580
 40
2.000000000000000
 50
180.000000000000000
 51
270.000000000000000
  0
LINE
  8
0
  6
CONTINUOUS
 62
3
 10
-154.242999770928240
 20
222.252395417461570
 11
-154.242999770928240
 21
233.755265038042580
  0
ARC
  8
0
  6
CONTINUOUS
 62
3
 10
-35.242999770928208
 20
253.852395417461590
 40
5.000000000000000
 50
0.000000000000000
 51
90.000000000000000
  0
LINE
  8
0
  6
CONTINUOUS
 62
3
 10
-149.242999770928240
 20
258.852395417461590
 11
-35.242999770928208
 21
258.852395417461590
  0
LINE
  8
0
  6
CONTINUOUS
 62
3
 10
-30.242999770928208
 20
222.252395417461570
 11
-30.242999770928208
 21
233.554266909161470
  0
LINE
  8
0
  6
CONTINUOUS
 62
3
 10
-27.242999770928208
 20
238.446905708523900
 11
-27.242999770928208
 21
235.755265038042580
  0
LINE
  8
0
  6
CONTINUOUS
 62
3
 10
-29.242999770928208
 20
234.554266909144640
 11
-155.242999770928240
 21
234.554266909144640
  0
LINE
  8
0
  6
CONTINUOUS
 62
3
 10
-29.242999770928208
 20
233.755265038042580
 11
-155.242999770928240
 21
233.755265038042580
  0
LINE
  8
0
  6
CONTINUOUS
 62
3
 10
-30.242999770928208
 20
240.446905708523900
 11
-29.242999770928208
 21
240.446905708523900
  0
ARC
  8
0
  6
CONTINUOUS
 62
3
 10
-29.242999770928208
 20
238.446905708523900
 40
2.000000000000000
 50
0.000000000000000
 51
90.000000000000000
  0
ARC
  8
0
  6
CONTINUOUS
 62
3
 10
-29.242999770928208
 20
237.353268780246710
 40
2.000000000000000
 50
270.000000000000000
 51
0.000000000000000
  0
ARC
  8
0
  6
CONTINUOUS
 62
3
 10
-29.242999770928208
 20
236.554266909161470
 40
2.000000000000000
 50
270.000000000000000
 51
0.000000000000000
  0
ARC
  8
0
  6
CONTINUOUS
 62
3
 10
-29.242999770928208
 20
235.755265038042580
 40
2.000000000000000
 50
270.000000000000000
 51
0.000000000000000
  0
LINE
  8
0
  6
CONTINUOUS
 62
3
 10
-161.742999770928010
 20
91.133174500589035
 11
-157.742999770928120
 21
91.133174500589035
  0
LINE
  8
0
  6
CONTINUOUS
 62
3
 10
-257.742999770877990
 20
152.752395417461800
 11
-257.742999770877990
 21
100.309190360216370
  0
LINE
  8
0
  6
CONTINUOUS
 62
3
 10
-154.742999770928120
 20
152.752395417461800
 11
-154.742999770928120
 21
94.133174500589035
  0
ARC
  8
0
  6
CONTINUOUS
 62
3
 10
-161.742999770928010
 20
88.133174500589035
 40
3.000000000000000
 50
90.000000000000000
 51
180.000000000000000
  0
ARC
  8
0
  6
CONTINUOUS
 62
3
 10
-157.742999770928120
 20
94.133174500589035
 40
3.000000000000000
 50
270.000000000000000
 51
0.000000000000000
  0
ARC
  8
0
  6
CONTINUOUS
 62
3
 10
-255.142999770877850
 20
205.195600474707250
 40
2.599999999999721
 50
125.000000000001370
 51
180.000000000000000
  0
LINE
  8
0
  6
CONTINUOUS
 62
3
 10
-246.908552720369470
 20
214.135436303241590
 11
-256.634298505390460
 21
207.325395789858360
  0
ARC
  8
0
  6
CONTINUOUS
 62
3
 10
-235.437023993348480
 20
197.752395417461800
 40
20.000000000000000
 50
90.000000000000000
 51
125.000000000000240
  0
LINE
  8
0
  6
CONTINUOUS
 62
3
 10
-257.742999770877990
 20
152.752395417461800
 11
-257.742999770877990
 21
205.195600474707250
  0
LINE
  8
0
  6
CONTINUOUS
 62
3
 10
-154.742999770928120
 20
217.752395417461800
 11
-235.437023993348480
 21
217.752395417461800
  0
LINE
  8
0
  6
CONTINUOUS
 62
3
 10
-87.742999770928122
 20
212.252395417461800
 11
-5.742999770928208
 21
212.252395417461800
  0
LINE
  8
0
  6
CONTINUOUS
 62
4
 10
-154.742999770928120
 20
209.752395417461800
 11
-5.742999770928208
 21
209.752395417461800
  0
LINE
  8
0
  6
CONTINUOUS
 62
4
 10
-154.742999770928120
 20
208.752395417461800
 11
-5.742999770928208
 21
208.752395417461800
  0
LINE
  8
0
  6
CONTINUOUS
 62
4
 10
-154.742999770928120
 20
207.752395417461800
 11
-5.742999770928208
 21
207.752395417461800
  0
LINE
  8
0
  6
CONTINUOUS
 62
3
 10
-154.742999770928120
 20
152.752395417461800
 11
-154.742999770928120
 21
217.752395417461800
  0
LINE
  8
0
  6
CONTINUOUS
 62
4
 10
-154.742999770928120
 20
203.067929604237520
 11
-5.742999770928208
 21
203.067929604237520
  0
LINE
  8
0
  6
CONTINUOUS
 62
4
 10
-154.742999770928120
 20
198.118182135931760
 11
-5.742999770928208
 21
198.118182135931760
  0
LINE
  8
0
  6
CONTINUOUS
 62
4
 10
-154.742999770928120
 20
167.752395417461800
 11
-5.742999770928208
 21
167.752395417461800
  0
LINE
  8
0
  6
CONTINUOUS
 62
4
 10
-154.742999770928120
 20
172.125657226962970
 11
-5.742999770928208
 21
172.125657226962970
  0
LINE
  8
0
  6
CONTINUOUS
 62
4
 10
-154.742999770928120
 20
173.391895143050190
 11
-5.742999770928208
 21
173.391895143050190
  0
LINE
  8
0
  6
CONTINUOUS
 62
4
 10
-154.742999770928120
 20
177.582448874592390
 11
-5.742999770928208
 21
177.582448874592390
  0
LINE
  8
0
  6
CONTINUOUS
 62
4
 10
-154.742999770928120
 20
178.944329209941660
 11
-5.742999770928208
 21
178.944329209941660
  0
LINE
  8
0
  6
CONTINUOUS
 62
4
 10
-154.742999770928120
 20
183.034829744031530
 11
-5.742999770928208
 21
183.034829744031530
  0
LINE
  8
0
  6
CONTINUOUS
 62
4
 10
-154.742999770928120
 20
184.503187133836150
 11
-5.742999770928208
 21
184.503187133836150
  0
LINE
  8
0
  6
CONTINUOUS
 62
4
 10
-154.742999770928120
 20
188.466932557635690
 11
-5.742999770928208
 21
188.466932557635690
  0
LINE
  8
0
  6
CONTINUOUS
 62
4
 10
-154.742999770928120
 20
190.071580473197740
 11
-5.742999770928208
 21
190.071580473197740
  0
LINE
  8
0
  6
CONTINUOUS
 62
4
 10
-154.742999770928120
 20
137.752395417461800
 11
-5.742999770928208
 21
137.752395417461800
  0
LINE
  8
0
  6
CONTINUOUS
 62
4
 10
-154.742999770928120
 20
133.379133607960630
 11
-5.742999770928208
 21
133.379133607960630
  0
LINE
  8
0
  6
CONTINUOUS
 62
4
 10
-154.742999770928120
 20
132.112895691873400
 11
-5.742999770928208
 21
132.112895691873400
  0
LINE
  8
0
  6
CONTINUOUS
 62
4
 10
-154.742999770928120
 20
127.922341960331210
 11
-5.742999770928208
 21
127.922341960331210
  0
LINE
  8
0
  6
CONTINUOUS
 62
4
 10
-154.742999770928120
 20
126.560461624981940
 11
-5.742999770928208
 21
126.560461624981940
  0
LINE
  8
0
  6
CONTINUOUS
 62
4
 10
-154.742999770928120
 20
122.469961090892070
 11
-5.742999770928208
 21
122.469961090892070
  0
LINE
  8
0
  6
CONTINUOUS
 62
4
 10
-154.742999770928120
 20
121.001603701087440
 11
-5.742999770928208
 21
121.001603701087440
  0
LINE
  8
0
  6
CONTINUOUS
 62
4
 10
-154.742999770928120
 20
117.037858277287910
 11
-5.742999770928208
 21
117.037858277287910
  0
LINE
  8
0
  6
CONTINUOUS
 62
4
 10
-154.742999770928120
 20
115.433210361725850
 11
-5.742999770928208
 21
115.433210361725850
  0
LINE
  8
0
  6
CONTINUOUS
 62
4
 10
-154.742999770928120
 20
107.386608698991860
 11
-5.742999770928208
 21
107.386608698991860
  0
LINE
  8
0
  6
CONTINUOUS
 62
4
 10
-154.742999770928120
 20
97.752395417461827
 11
-5.742999770928208
 21
97.752395417461827
  0
LINE
  8
0
  6
CONTINUOUS
 62
4
 10
-154.742999770928120
 20
96.752395417461827
 11
-5.742999770928208
 21
96.752395417461827
  0
LINE
  8
0
  6
CONTINUOUS
 62
4
 10
-154.742999770928120
 20
95.752395417461827
 11
-5.742999770928208
 21
95.752395417461827
  0
LINE
  8
0
  6
CONTINUOUS
 62
3
 10
-165.742999770927550
 20
206.492510517899400
 11
-167.742999770927550
 21
204.839868878775970
  0
LINE
  8
0
  6
CONTINUOUS
 62
3
 10
-163.742999770927550
 20
207.668296003522190
 11
-165.742999770927550
 21
206.492510517899400
  0
LINE
  8
0
  6
CONTINUOUS
 62
3
 10
-165.742999770927550
 20
206.492510517899400
 11
-163.742999770927550
 21
204.839868878775970
  0
LINE
  8
0
  6
CONTINUOUS
 62
3
 10
-167.742999770927550
 20
207.668296003522190
 11
-165.742999770927550
 21
206.492510517899400
  0
POLYLINE
  8
0
  6
CONTINUOUS
 62
3
 66
1
 70
1
  0
VERTEX
  8
0
  6
CONTINUOUS
 62
3
 10
-161.042999770927570
 20
204.675920449521870
  0
VERTEX
  8
0
  6
CONTINUOUS
 62
3
 10
-161.133308953032380
 20
205.378877415722230
  0
VERTEX
  8
0
  6
CONTINUOUS
 62
3
 10
-161.400765968124520
 20
206.054820139934320
  0
VERTEX
  8
0
  6
CONTINUOUS
 62
3
 10
-161.835092593105600
 20
206.677772522339720
  0
VERTEX
  8
0
  6
CONTINUOUS
 62
3
 10
-162.419597899350780
 20
207.223794852238310
  0
VERTEX
  8
0
  6
CONTINUOUS
 62
3
 10
-163.131819675735440
 20
207.671903797704940
  0
VERTEX
  8
0
  6
CONTINUOUS
 62
3
 10
-163.944387638811630
 20
208.004878783267690
  0
VERTEX
  8
0
  6
CONTINUOUS
 62
3
 10
-164.826075257451750
 20
208.209923766965940
  0
VERTEX
  8
0
  6
CONTINUOUS
 62
3
 10
-165.742999770927550
 20
208.279158985066720
  0
VERTEX
  8
0
  6
CONTINUOUS
 62
3
 10
-166.659924284403360
 20
208.209923766965940
  0
VERTEX
  8
0
  6
CONTINUOUS
 62
3
 10
-167.541611903043470
 20
208.004878783267690
  0
VERTEX
  8
0
  6
CONTINUOUS
 62
3
 10
-168.354179866119670
 20
207.671903797704940
  0
VERTEX
  8
0
  6
CONTINUOUS
 62
3
 10
-169.066401642504330
 20
207.223794852238310
  0
VERTEX
  8
0
  6
CONTINUOUS
 62
3
 10
-169.650906948749510
 20
206.677772522339720
  0
VERTEX
  8
0
  6
CONTINUOUS
 62
3
 10
-170.085233573730590
 20
206.054820139934320
  0
VERTEX
  8
0
  6
CONTINUOUS
 62
3
 10
-170.352690588822720
 20
205.378877415722230
  0
VERTEX
  8
0
  6
CONTINUOUS
 62
3
 10
-170.442999770927540
 20
204.675920449521870
  0
VERTEX
  8
0
  6
CONTINUOUS
 62
3
 10
-170.352690588822720
 20
203.972963483321510
  0
VERTEX
  8
0
  6
CONTINUOUS
 62
3
 10
-170.085233573730590
 20
203.297020759109420
  0
VERTEX
  8
0
  6
CONTINUOUS
 62
3
 10
-169.650906948749510
 20
202.674068376704010
  0
VERTEX
  8
0
  6
CONTINUOUS
 62
3
 10
-169.066401642504300
 20
202.128046046805420
  0
VERTEX
  8
0
  6
CONTINUOUS
 62
3
 10
-168.354179866119670
 20
201.679937101338790
  0
VERTEX
  8
0
  6
CONTINUOUS
 62
3
 10
-167.541611903043470
 20
201.346962115776050
  0
VERTEX
  8
0
  6
CONTINUOUS
 62
3
 10
-166.659924284403360
 20
201.141917132077790
  0
VERTEX
  8
0
  6
CONTINUOUS
 62
3
 10
-165.742999770927550
 20
201.072681913977020
  0
VERTEX
  8
0
  6
CONTINUOUS
 62
3
 10
-164.826075257451750
 20
201.141917132077790
  0
VERTEX
  8
0
  6
CONTINUOUS
 62
3
 10
-163.944387638811630
 20
201.346962115776050
  0
VERTEX
  8
0
  6
CONTINUOUS
 62
3
 10
-163.131819675735440
 20
201.679937101338790
  0
VERTEX
  8
0
  6
CONTINUOUS
 62
3
 10
-162.419597899350800
 20
202.128046046805420
  0
VERTEX
  8
0
  6
CONTINUOUS
 62
3
 10
-161.835092593105600
 20
202.674068376704010
  0
VERTEX
  8
0
  6
CONTINUOUS
 62
3
 10
-161.400765968124520
 20
203.297020759109420
  0
VERTEX
  8
0
  6
CONTINUOUS
 62
3
 10
-161.133308953032380
 20
203.972963483321510
  0
SEQEND
  8
0
  6
CONTINUOUS
 62
3
  0
LINE
  8
0
  6
CONTINUOUS
 62
3
 10
-165.742999770927550
 20
99.012280317023993
 11
-167.742999770927550
 21
100.664921956147420
  0
LINE
  8
0
  6
CONTINUOUS
 62
3
 10
-163.742999770927550
 20
97.836494831401666
 11
-165.742999770927550
 21
99.012280317023993
  0
LINE
  8
0
  6
CONTINUOUS
 62
3
 10
-72.542999770928304
 20
93.252395417461827
 11
-5.742999770928208
 21
93.252395417461827
  0
ARC
  8
0
  6
CONTINUOUS
 62
3
 10
-235.437023993348480
 20
107.752395417461820
 40
20.000000000000007
 50
234.999999999999740
 51
270.000000000000000
  0
LINE
  8
0
  6
CONTINUOUS
 62
3
 10
-165.742999770927550
 20
99.012280317023993
 11
-163.742999770927550
 21
100.664921956147420
  0
LINE
  8
0
  6
CONTINUOUS
 62
3
 10
-167.742999770927550
 20
97.836494831401666
 11
-165.742999770927550
 21
99.012280317023993
  0
POLYLINE
  8
0
  6
CONTINUOUS
 62
3
 66
1
 70
1
  0
VERTEX
  8
0
  6
CONTINUOUS
 62
3
 10
-161.042999770927570
 20
100.828870385401980
  0
VERTEX
  8
0
  6
CONTINUOUS
 62
3
 10
-161.133308953032380
 20
101.531827351602340
  0
VERTEX
  8
0
  6
CONTINUOUS
 62
3
 10
-161.400765968124520
 20
102.207770075814430
  0
VERTEX
  8
0
  6
CONTINUOUS
 62
3
 10
-161.835092593105600
 20
102.830722458219830
  0
VERTEX
  8
0
  6
CONTINUOUS
 62
3
 10
-162.419597899350780
 20
103.376744788118410
  0
VERTEX
  8
0
  6
CONTINUOUS
 62
3
 10
-163.131819675735440
 20
103.824853733585030
  0
VERTEX
  8
0
  6
CONTINUOUS
 62
3
 10
-163.944387638811630
 20
104.157828719147800
  0
VERTEX
  8
0
  6
CONTINUOUS
 62
3
 10
-164.826075257451750
 20
104.362873702846040
  0
VERTEX
  8
0
  6
CONTINUOUS
 62
3
 10
-165.742999770927550
 20
104.432108920946810
  0
VERTEX
  8
0
  6
CONTINUOUS
 62
3
 10
-166.659924284403360
 20
104.362873702846040
  0
VERTEX
  8
0
  6
CONTINUOUS
 62
3
 10
-167.541611903043470
 20
104.157828719147800
  0
VERTEX
  8
0
  6
CONTINUOUS
 62
3
 10
-168.354179866119670
 20
103.824853733585030
  0
VERTEX
  8
0
  6
CONTINUOUS
 62
3
 10
-169.066401642504330
 20
103.376744788118410
  0
VERTEX
  8
0
  6
CONTINUOUS
 62
3
 10
-169.650906948749510
 20
102.830722458219830
  0
VERTEX
  8
0
  6
CONTINUOUS
 62
3
 10
-170.085233573730590
 20
102.207770075814430
  0
VERTEX
  8
0
  6
CONTINUOUS
 62
3
 10
-170.352690588822720
 20
101.531827351602340
  0
VERTEX
  8
0
  6
CONTINUOUS
 62
3
 10
-170.442999770927540
 20
100.828870385401980
  0
VERTEX
  8
0
  6
CONTINUOUS
 62
3
 10
-170.352690588822720
 20
100.125913419201620
  0
VERTEX
  8
0
  6
CONTINUOUS
 62
3
 10
-170.085233573730590
 20
99.449970694989531
  0
VERTEX
  8
0
  6
CONTINUOUS
 62
3
 10
-169.650906948749510
 20
98.827018312584130
  0
VERTEX
  8
0
  6
CONTINUOUS
 62
3
 10
-169.066401642504300
 20
98.280995982685553
  0
VERTEX
  8
0
  6
CONTINUOUS
 62
3
 10
-168.354179866119670
 20
97.832887037218939
  0
VERTEX
  8
0
  6
CONTINUOUS
 62
3
 10
-167.541611903043470
 20
97.499912051656167
  0
VERTEX
  8
0
  6
CONTINUOUS
 62
3
 10
-166.659924284403360
 20
97.294867067957924
  0
VERTEX
  8
0
  6
CONTINUOUS
 62
3
 10
-165.742999770927550
 20
97.225631849857152
  0
VERTEX
  8
0
  6
CONTINUOUS
 62
3
 10
-164.826075257451750
 20
97.294867067957924
  0
VERTEX
  8
0
  6
CONTINUOUS
 62
3
 10
-163.944387638811630
 20
97.499912051656167
  0
VERTEX
  8
0
  6
CONTINUOUS
 62
3
 10
-163.131819675735440
 20
97.832887037218939
  0
VERTEX
  8
0
  6
CONTINUOUS
 62
3
 10
-162.419597899350800
 20
98.280995982685553
  0
VERTEX
  8
0
  6
CONTINUOUS
 62
3
 10
-161.835092593105600
 20
98.827018312584130
  0
VERTEX
  8
0
  6
CONTINUOUS
 62
3
 10
-161.400765968124520
 20
99.449970694989531
  0
VERTEX
  8
0
  6
CONTINUOUS
 62
3
 10
-161.133308953032380
 20
100.125913419201620
  0
SEQEND
  8
0
  6
CONTINUOUS
 62
3
  0
LINE
  8
0
  6
CONTINUOUS
 62
3
 10
-164.742999770928010
 20
87.752395417461827
 11
-235.437023993348480
 21
87.752395417461827
  0
ARC
  8
0
  6
CONTINUOUS
 62
3
 10
-255.142999770877850
 20
100.309190360216370
 40
2.600000000000136
 50
180.000000000000000
 51
234.999999999998610
  0
LINE
  8
0
  6
CONTINUOUS
 62
3
 10
-246.908552720369470
 20
91.369354531682035
 11
-256.634298505390460
 21
98.179395045065263
  0
LINE
  8
0
  6
CONTINUOUS
 62
3
 10
-154.742999770928120
 20
212.252395417461570
 11
-5.742999770928208
 21
212.252395417461570
  0
LINE
  8
0
  6
CONTINUOUS
 62
3
 10
-164.742999770928010
 20
87.752395417461827
 11
-164.742999770928010
 21
88.133174500589035
  0
LINE
  8
0
  6
CONTINUOUS
 62
4
 10
-154.742999770928120
 20
102.436861230686100
 11
-5.742999770928208
 21
102.436861230686100
  0
LINE
  8
0
  6
CONTINUOUS
 62
3
 10
-162.542999770928300
 20
89.252395417461798
 11
-72.542999770928304
 21
89.252395417461798
  0
LINE
  8
0
  6
CONTINUOUS
 62
3
 10
-162.542999770928300
 20
91.024540959549142
 11
-162.542999770928300
 21
56.252395417461798
  0
LINE
  8
0
  6
CONTINUOUS
 62
3
 10
-155.542999770928300
 20
55.252395417461798
 11
-155.542999770928300
 21
54.752395417461798
  0
LINE
  8
0
  6
CONTINUOUS
 62
3
 10
-147.542999770928300
 20
55.252395417461798
 11
-147.542999770928300
 21
54.752395417461798
  0
LINE
  8
0
  6
CONTINUOUS
 62
3
 10
-79.542999770928304
 20
55.252395417461798
 11
-79.542999770928304
 21
54.752395417461798
  0
LINE
  8
0
  6
CONTINUOUS
 62
3
 10
-87.542999770928304
 20
55.252395417461798
 11
-87.542999770928304
 21
54.752395417461798
  0
LINE
  8
0
  6
CONTINUOUS
 62
3
 10
-87.542999770928304
 20
54.752395417461798
 11
-79.542999770928304
 21
54.752395417461798
  0
LINE
  8
0
  6
CONTINUOUS
 62
3
 10
-155.542999770928300
 20
54.752395417461798
 11
-147.542999770928300
 21
54.752395417461798
  0
ARC
  8
0
  6
CONTINUOUS
 62
3
 10
-161.542999770928300
 20
56.252395417461798
 40
1.000000000000000
 50
180.000000000000000
 51
270.000000000000000
  0
LINE
  8
0
  6
CONTINUOUS
 62
3
 10
-161.542999770928300
 20
55.252395417461798
 11
-73.542999770928304
 21
55.252395417461798
  0
ARC
  8
0
  6
CONTINUOUS
 62
3
 10
-73.542999770928304
 20
56.252395417461798
 40
1.000000000000000
 50
270.000000000000000
 51
0.000000000000000
  0
LINE
  8
0
  6
CONTINUOUS
 62
3
 10
-72.542999770928304
 20
94.252395417461798
 11
-72.542999770928304
 21
56.252395417461798
  0
LINE
  8
0
  6
CONTINUOUS
 62
3
 10
-72.542999770928304
 20
94.252395417461798
 11
-154.742999770949500
 21
94.252395417461798
  0
LINE
  8
0
  6
CONTINUOUS
 62
3
 10
523.334762512237830
 20
-253.047607646395590
 11
523.334762512237830
 21
-149.747604582538770
  0
LINE
  8
0
  6
CONTINUOUS
 62
3
 10
531.352774936623970
 20
-265.747607646395410
 11
531.352774936623970
 21
-145.747604582538770
  0
LINE
  8
0
  6
CONTINUOUS
 62
3
 10
503.748151921907270
 20
-145.747604582538770
 11
519.334762512237830
 21
-145.747604582538770
  0
LINE
  8
0
  6
CONTINUOUS
 62
3
 10
563.358347201096880
 20
-145.747604582538770
 11
563.358347201096880
 21
-265.747607646395410
  0
LINE
  8
0
  6
CONTINUOUS
 62
3
 10
536.958347201096330
 20
-145.747604582538770
 11
536.958347201096330
 21
-265.747607646395410
  0
LINE
  8
0
  6
CONTINUOUS
 62
3
 10
568.834762512238740
 20
-265.747607646395410
 11
568.834762512238740
 21
-146.983178852147830
  0
ARC
  8
0
  6
CONTINUOUS
 62
3
 10
519.334762512237830
 20
-149.747604582538770
 40
4.000000000000000
 50
0.000000000000000
 51
90.000000000000000
  0
ARC
  8
0
  6
CONTINUOUS
 62
3
 10
483.834762512238740
 20
-146.983178852147830
 40
47.518012424385233
 50
0.000000000000000
 51
85.577622414022514
  0
ARC
  8
0
  6
CONTINUOUS
 62
3
 10
483.834762512238740
 20
-146.983178852147830
 40
85.000000000000000
 50
0.000000000000000
 51
85.577622414022414
  0
POLYLINE
  8
0
  6
CONTINUOUS
 62
3
 66
1
  0
VERTEX
  8
0
  6
CONTINUOUS
 62
3
 10
563.358347201097100
 20
-145.747604582538770
  0
VERTEX
  8
0
  6
CONTINUOUS
 62
3
 10
563.104712902419690
 20
-141.845798142216210
  0
VERTEX
  8
0
  6
CONTINUOUS
 62
3
 10
562.353557030246070
 20
-138.093935935236970
  0
VERTEX
  8
0
  6
CONTINUOUS
 62
3
 10
561.133746083490680
 20
-134.636199922146720
  0
VERTEX
  8
0
  6
CONTINUOUS
 62
3
 10
559.492156712759540
 20
-131.605468958807820
  0
VERTEX
  8
0
  6
CONTINUOUS
 62
3
 10
557.491874276955850
 20
-129.118212336487860
  0
VERTEX
  8
0
  6
CONTINUOUS
 62
3
 10
555.209768508316300
 20
-127.270013932313040
  0
VERTEX
  8
0
  6
CONTINUOUS
 62
3
 10
552.733539451709930
 20
-126.131898974474160
  0
VERTEX
  8
0
  6
CONTINUOUS
 62
3
 10
550.158347201097060
 20
-125.747604582538770
  0
VERTEX
  8
0
  6
CONTINUOUS
 62
3
 10
547.583154950484190
 20
-126.131898974474160
  0
VERTEX
  8
0
  6
CONTINUOUS
 62
3
 10
545.106925893877810
 20
-127.270013932313040
  0
VERTEX
  8
0
  6
CONTINUOUS
 62
3
 10
542.824820125238260
 20
-129.118212336487890
  0
VERTEX
  8
0
  6
CONTINUOUS
 62
3
 10
540.824537689434580
 20
-131.605468958807820
  0
VERTEX
  8
0
  6
CONTINUOUS
 62
3
 10
539.182948318703440
 20
-134.636199922146720
  0
VERTEX
  8
0
  6
CONTINUOUS
 62
3
 10
537.963137371948050
 20
-138.093935935236970
  0
VERTEX
  8
0
  6
CONTINUOUS
 62
3
 10
537.211981499774420
 20
-141.845798142216210
  0
VERTEX
  8
0
  6
CONTINUOUS
 62
3
 10
536.958347201097010
 20
-145.747604582538770
  0
SEQEND
  8
0
  6
CONTINUOUS
 62
3
  0
ARC
  8
0
  6
DASHED
 62
3
 10
535.772990567625810
 20
-98.429711733930503
 40
1.299999237060550
 50
272.862387240019760
 51
346.260856815788600
  0
ARC
  8
0
  6
DASHED
 62
3
 10
528.293309371917760
 20
-96.600946746428235
 40
8.999999999999948
 50
346.260856815786500
 51
19.463936333592187
  0
ARC
  8
0
  6
DASHED
 62
3
 10
535.134762512237780
 20
-121.290104582538330
 40
18.799999999999837
 50
5.724810452223617
 51
35.808626813495749
  0
ARC
  8
0
  6
DASHED
 62
3
 10
535.134762512237780
 20
-121.290104582538330
 40
18.799999999999933
 50
35.808626813495749
 51
85.126025186157264
  0
ARC
  8
0
  6
DASHED
 62
3
 10
541.061228343570060
 20
-183.749464904581830
 40
1.999999999999995
 50
99.916536608232732
 51
182.862405226112400
  0
ARC
  8
0
  6
DASHED
 62
3
 10
535.468215245854250
 20
-184.029115559467640
 40
1.999999999999927
 50
2.862405226112724
 51
85.808273843998350
  0
ARC
  8
0
  6
DASHED
 62
3
 10
531.309007878150850
 20
-100.844968205400610
 40
1.999999999999958
 50
280.598785266065990
 51
2.862405226112724
  0
ARC
  8
0
  6
DASHED
 62
3
 10
537.134762512237780
 20
-161.290104582538330
 40
20.799999999999926
 50
334.359929784105190
 51
5.724810452223396
  0
ARC
  8
0
  6
DASHED
 62
3
 10
537.134762512237780
 20
-161.290104582538330
 40
20.800000000000040
 50
279.916536608230560
 51
334.359929784105190
  0
ARC
  8
0
  6
DASHED
 62
3
 10
537.134762512237780
 20
-161.290104582538330
 40
20.799999999999926
 50
334.359929784105190
 51
5.724810452223396
  0
ARC
  8
0
  6
DASHED
 62
3
 10
535.134762512237780
 20
-121.290104582538330
 40
18.799999999999983
 50
100.598785266066050
 51
180.000000000000000
  0
ARC
  8
0
  6
DASHED
 62
3
 10
537.134762512237780
 20
-161.290104582538330
 40
20.799999999999901
 50
185.047316781012600
 51
265.808273843992540
  0
LINE
  8
0
  6
DASHED
 62
3
 10
532.837632132818730
 20
-91.367484509758128
 11
537.931269061095690
 21
-193.240223075298900
  0
LINE
  8
0
  6
DASHED
 62
3
 10
534.435635875023310
 20
-91.287584322647945
 11
539.529272803300270
 21
-193.160322888187920
  0
LINE
  8
0
  6
DASHED
 62
3
 10
534.860105619045730
 20
-99.776979203109477
 11
535.837909431553500
 21
-99.728089012484133
  0
LINE
  8
0
  6
DASHED
 62
3
 10
534.510542300438600
 20
-92.785712830964599
 11
534.860105619045730
 21
-99.776979203109477
  0
LINE
  8
0
  6
DASHED
 62
3
 10
534.510542300438600
 20
-92.785712830964599
 11
534.860105619045730
 21
-99.776979203109477
  0
LINE
  8
0
  6
DASHED
 62
3
 10
557.831021863858720
 20
-159.215291614957320
 11
553.840996926202710
 21
-119.414792861840050
  0
LINE
  8
0
  6
DASHED
 62
3
 10
533.636634003921020
 20
-91.327534416203093
 11
538.730270932197980
 21
-193.200272981743180
  0
LINE
  8
0
  6
DASHED
 62
3
 10
516.334762512237830
 20
-161.290104582538330
 11
516.334762512237830
 21
-121.290104582538330
  0
INSERT
  8
0
  2
SYM25
 10
539.279584718581190
 20
-188.166561193798770
 41
-1.000000000000000
 42
1.000000000000000
 43
1.000000000000000
 50
2.862405226113666
  0
ARC
  8
0
  6
DASHED
 62
3
 10
535.134762512237780
 20
-121.290104582538330
 40
18.799999999999983
 50
100.598785266066050
 51
180.000000000000000
  0
ARC
  8
0
  6
DASHED
 62
3
 10
531.309007878150850
 20
-100.844968205400610
 40
1.999999999999958
 50
280.598785266065990
 51
2.862405226112724
  0
ARC
  8
0
  6
DASHED
 62
3
 10
536.902020975866660
 20
-100.565317550514910
 40
1.999999999999927
 50
182.862405226112710
 51
265.126025186159040
  0
LINE
  8
0
  6
DASHED
 62
3
 10
533.636634003921020
 20
-91.327534416203207
 11
538.730270932197980
 21
-193.200272981743180
  0
LINE
  8
0
  6
DASHED
 62
3
 10
557.831021863858720
 20
-159.215291614957320
 11
553.840996926202710
 21
-119.414792861840160
  0
ARC
  8
0
  6
DASHED
 62
3
 10
535.134762512237780
 20
-121.290104582538330
 40
18.799999999999869
 50
35.808626813495465
 51
85.126025186157236
  0
ARC
  8
0
  6
DASHED
 62
3
 10
535.134762512237780
 20
-121.290104582538330
 40
18.799999999999827
 50
5.724810452223272
 51
35.808626813495465
  0
ARC
  8
0
  6
DASHED
 62
3
 10
528.293309371917760
 20
-96.600946746428235
 40
8.999999999999948
 50
346.260856815786500
 51
19.463936333591505
  0
LINE
  8
0
  6
DASHED
 62
3
 10
534.510542300438600
 20
-92.785712830964712
 11
534.860105619045730
 21
-99.776979203109477
  0
LINE
  8
0
  6
DASHED
 62
3
 10
534.510542300438600
 20
-92.785712830964712
 11
534.860105619045730
 21
-99.776979203109477
  0
LINE
  8
0
  6
DASHED
 62
3
 10
534.860105619045730
 20
-99.776979203109477
 11
535.837909431553500
 21
-99.728089012484133
  0
ARC
  8
0
  6
DASHED
 62
3
 10
535.772990567625810
 20
-98.429711733930617
 40
1.299999237060436
 50
272.862387240019930
 51
346.260856815788600
  0
LINE
  8
0
  6
DASHED
 62
3
 10
534.435635875023310
 20
-91.287584322647945
 11
539.529272803300270
 21
-193.160322888187920
  0
LINE
  8
0
  6
DASHED
 62
3
 10
532.837632132818730
 20
-91.367484509758242
 11
537.931269061095690
 21
-193.240223075298900
  0
ARC
  8
0
  6
DASHED
 62
3
 10
537.134762512237780
 20
-161.290104582538330
 40
20.799999999999901
 50
185.047316781012600
 51
265.808273843992540
  0
ARC
  8
0
  6
DASHED
 62
3
 10
537.134762512237780
 20
-161.290104582538330
 40
20.799999999999976
 50
334.359929784104850
 51
5.724810452223396
  0
ARC
  8
0
  6
DASHED
 62
3
 10
537.134762512237780
 20
-161.290104582538330
 40
20.800000000000040
 50
279.916536608230560
 51
334.359929784104850
  0
ARC
  8
0
  6
DASHED
 62
3
 10
537.134762512237780
 20
-161.290104582538330
 40
20.799999999999976
 50
334.359929784104850
 51
5.724810452223396
  0
ARC
  8
0
  6
DASHED
 62
3
 10
535.468215245854250
 20
-184.029115559467750
 40
1.999999999999927
 50
2.862405226112724
 51
85.808273843998577
  0
ARC
  8
0
  6
DASHED
 62
3
 10
541.061228343570060
 20
-183.749464904581830
 40
1.999999999999995
 50
99.916536608232732
 51
182.862405226112400
  0
INSERT
  8
0
  2
SYM26
 10
539.279584718581190
 20
-188.166561193798770
 41
-1.000000000000000
 42
1.000000000000000
 43
1.000000000000000
 50
2.862405226113666
  0
LINE
  8
0
  6
DASHED
 62
3
 10
516.334762512237830
 20
-161.290104582538330
 11
516.334762512237830
 21
-121.290104582538330
  0
LINE
  8
0
  6
DASHED
 62
3
 10
537.931269061095690
 20
-193.240223075298900
 11
539.529272803300270
 21
-193.160322888187920
  0
LINE
  8
0
  6
DASHED
 62
3
 10
537.931269061095690
 20
-193.240223075298900
 11
539.529272803300270
 21
-193.160322888187920
  0
LINE
  8
0
  6
DASHED
 62
3
 10
534.435635875023310
 20
-91.287584322647945
 11
532.837632132818730
 21
-91.367484509758242
  0
LINE
  8
0
  6
DASHED
 62
3
 10
534.510542300438600
 20
-92.785712830964712
 11
535.488346112946150
 21
-92.736822640339369
  0
ARC
  8
0
  6
DASHED
 62
3
 10
535.553264976873830
 20
-94.035199918892886
 40
1.299999237060683
 50
19.463936333591853
 51
92.862405909347913
  0
LINE
  8
0
  6
DASHDOT
 62
4
 10
323.227257504964650
 20
-145.747604582538770
 11
580.037996784780260
 21
-145.747604582538770
  0
LINE
  8
0
  6
DASHED
 62
3
 10
369.671386848480780
 20
-149.853301260699940
 11
369.671010147125800
 21
-149.853301260699940
  0
LINE
  8
0
  6
CONTINUOUS
 62
3
 10
334.834762512237830
 20
-265.747607646395410
 11
334.834762512237830
 21
-146.983178852147830
  0
LINE
  8
0
  6
CONTINUOUS
 62
3
 10
340.311177823378780
 20
-145.747604582538770
 11
340.311177823378780
 21
-265.747607646395410
  0
LINE
  8
0
  6
CONTINUOUS
 62
3
 10
380.334762512237830
 20
-253.047607646395590
 11
380.334762512237830
 21
-149.747604582538770
  0
LINE
  8
0
  6
CONTINUOUS
 62
3
 10
399.921373102568400
 20
-145.747604582538770
 11
384.334762512237830
 21
-145.747604582538770
  0
LINE
  8
0
  6
CONTINUOUS
 62
3
 10
372.316750087852140
 20
-265.747607646395410
 11
372.316750087852140
 21
-145.747604582538770
  0
LINE
  8
0
  6
CONTINUOUS
 62
3
 10
366.711177823378880
 20
-145.747604582538770
 11
366.711177823378880
 21
-265.747607646395410
  0
ARC
  8
0
  6
CONTINUOUS
 62
3
 10
384.334762512237830
 20
-149.747604582538770
 40
4.000000000000000
 50
90.000000000000000
 51
180.000000000000000
  0
ARC
  8
0
  6
CONTINUOUS
 62
3
 10
451.834762512237830
 20
-145.747604582538770
 40
48.999999999999531
 50
183.307362179670630
 51
270.000000000000000
  0
ARC
  8
0
  6
CONTINUOUS
 62
3
 10
399.921373102568400
 20
-148.747604582538770
 40
3.000000000000262
 50
3.307362179674563
 51
90.000000000000000
  0
ARC
  8
0
  6
CONTINUOUS
 62
3
 10
419.834762512236920
 20
-146.983178852147830
 40
47.518012424384935
 50
94.422377585977486
 51
180.000000000000000
  0
ARC
  8
0
  6
CONTINUOUS
 62
3
 10
419.834762512237830
 20
-146.983178852147830
 40
84.999999999999972
 50
94.422377585978197
 51
180.000000000000000
  0
POLYLINE
  8
0
  6
CONTINUOUS
 62
3
 66
1
  0
VERTEX
  8
0
  6
CONTINUOUS
 62
3
 10
366.711177823379050
 20
-145.747604582538770
  0
VERTEX
  8
0
  6
CONTINUOUS
 62
3
 10
366.457543524701690
 20
-141.845798142216210
  0
VERTEX
  8
0
  6
CONTINUOUS
 62
3
 10
365.706387652528010
 20
-138.093935935236970
  0
VERTEX
  8
0
  6
CONTINUOUS
 62
3
 10
364.486576705772620
 20
-134.636199922146720
  0
VERTEX
  8
0
  6
CONTINUOUS
 62
3
 10
362.844987335041480
 20
-131.605468958807820
  0
VERTEX
  8
0
  6
CONTINUOUS
 62
3
 10
360.844704899237800
 20
-129.118212336487860
  0
VERTEX
  8
0
  6
CONTINUOUS
 62
3
 10
358.562599130598240
 20
-127.270013932313040
  0
VERTEX
  8
0
  6
CONTINUOUS
 62
3
 10
356.086370073991930
 20
-126.131898974474160
  0
VERTEX
  8
0
  6
CONTINUOUS
 62
3
 10
353.511177823379060
 20
-125.747604582538770
  0
VERTEX
  8
0
  6
CONTINUOUS
 62
3
 10
350.935985572766190
 20
-126.131898974474160
  0
VERTEX
  8
0
  6
CONTINUOUS
 62
3
 10
348.459756516159870
 20
-127.270013932313040
  0
VERTEX
  8
0
  6
CONTINUOUS
 62
3
 10
346.177650747520320
 20
-129.118212336487890
  0
VERTEX
  8
0
  6
CONTINUOUS
 62
3
 10
344.177368311716630
 20
-131.605468958807820
  0
VERTEX
  8
0
  6
CONTINUOUS
 62
3
 10
342.535778940985490
 20
-134.636199922146720
  0
VERTEX
  8
0
  6
CONTINUOUS
 62
3
 10
341.315967994230110
 20
-138.093935935236970
  0
VERTEX
  8
0
  6
CONTINUOUS
 62
3
 10
340.564812122056420
 20
-141.845798142216210
  0
VERTEX
  8
0
  6
CONTINUOUS
 62
3
 10
340.311177823379070
 20
-145.747604582538770
  0
SEQEND
  8
0
  6
CONTINUOUS
 62
3
  0
ARC
  8
0
  6
DASHED
 62
3
 10
360.968097739295440
 20
-116.247604582538310
 40
5.000000000000000
 50
90.000000000000000
 51
173.967950853629390
  0
LINE
  8
0
  6
DASHED
 62
3
 10
393.334762512238060
 20
-111.247604582538310
 11
360.968097739295440
 21
-111.247604582538310
  0
ARC
  8
0
  6
DASHED
 62
3
 10
654.334762512238060
 20
-147.247604582538320
 40
300.000000000000060
 50
173.967950853630190
 51
186.032049146369810
  0
LINE
  8
0
  6
DASHED
 62
3
 10
353.834762512238060
 20
-149.747604582538320
 11
353.834762512238060
 21
-144.747604582538320
  0
LINE
  8
0
  6
DASHED
 62
3
 10
354.334764369435560
 20
-144.747604582538320
 11
353.834762512238060
 21
-144.747604582538320
  0
LINE
  8
0
  6
DASHED
 62
3
 10
354.345179359755780
 20
-149.747604582538320
 11
353.834762512238060
 21
-149.747604582538320
  0
LINE
  8
0
  6
DASHED
 62
3
 10
393.334762512238060
 20
-183.247604582538320
 11
360.968097739295440
 21
-183.247604582538320
  0
ARC
  8
0
  6
DASHED
 62
3
 10
360.968097739295440
 20
-178.247604582538320
 40
4.999999999999917
 50
186.032049146370610
 51
270.000000000000000
  0
LINE
  8
0
  6
DASHED
 62
3
 10
388.334762512238060
 20
-181.747604582538320
 11
388.334762512238060
 21
-183.247604582538320
  0
LINE
  8
0
  6
DASHED
 62
3
 10
393.334762512238060
 20
-167.747604582538320
 11
393.334762512238060
 21
-183.247604582538320
  0
ARC
  8
0
  6
DASHED
 62
3
 10
392.034762512238100
 20
-167.547604582538270
 40
0.200000000000045
 50
180.000000000000000
 51
270.000000000000000
  0
LINE
  8
0
  6
DASHED
 62
3
 10
393.334762512238060
 20
-167.747604582538320
 11
392.034762512238100
 21
-167.747604582538320
  0
LINE
  8
0
  6
DASHED
 62
3
 10
391.834762512238060
 20
-126.747604582538310
 11
391.834762512238060
 21
-167.547604582538270
  0
LINE
  8
0
  6
DASHED
 62
3
 10
388.334762512238060
 20
-183.247604582538320
 11
388.334762512238060
 21
-111.247604582538310
  0
LINE
  8
0
  6
DASHED
 62
3
 10
393.334762512238060
 20
-126.747604582538310
 11
393.334762512238060
 21
-111.247604582538310
  0
LINE
  8
0
  6
DASHED
 62
3
 10
393.334762512238060
 20
-126.747604582538310
 11
391.834762512238060
 21
-126.747604582538310
  0
POLYLINE
  8
0
  6
CONTINUOUS
 62
3
 66
1
 70
1
  0
VERTEX
  8
0
  6
CONTINUOUS
 62
3
 10
-161.042999770933650
 20
-199.171129614598040
  0
VERTEX
  8
0
  6
CONTINUOUS
 62
3
 10
-161.133308953038470
 20
-198.468172648397680
  0
VERTEX
  8
0
  6
CONTINUOUS
 62
3
 10
-161.400765968130600
 20
-197.792229924185590
  0
VERTEX
  8
0
  6
CONTINUOUS
 62
3
 10
-161.835092593111680
 20
-197.169277541780190
  0
VERTEX
  8
0
  6
CONTINUOUS
 62
3
 10
-162.419597899356860
 20
-196.623255211881600
  0
VERTEX
  8
0
  6
CONTINUOUS
 62
3
 10
-163.131819675741530
 20
-196.175146266414970
  0
VERTEX
  8
0
  6
CONTINUOUS
 62
3
 10
-163.944387638817720
 20
-195.842171280852230
  0
VERTEX
  8
0
  6
CONTINUOUS
 62
3
 10
-164.826075257457830
 20
-195.637126297153970
  0
VERTEX
  8
0
  6
CONTINUOUS
 62
3
 10
-165.742999770933640
 20
-195.567891079053200
  0
VERTEX
  8
0
  6
CONTINUOUS
 62
3
 10
-166.659924284409440
 20
-195.637126297153970
  0
VERTEX
  8
0
  6
CONTINUOUS
 62
3
 10
-167.541611903049560
 20
-195.842171280852230
  0
VERTEX
  8
0
  6
CONTINUOUS
 62
3
 10
-168.354179866125750
 20
-196.175146266414970
  0
VERTEX
  8
0
  6
CONTINUOUS
 62
3
 10
-169.066401642510410
 20
-196.623255211881600
  0
VERTEX
  8
0
  6
CONTINUOUS
 62
3
 10
-169.650906948755590
 20
-197.169277541780190
  0
VERTEX
  8
0
  6
CONTINUOUS
 62
3
 10
-170.085233573736670
 20
-197.792229924185590
  0
VERTEX
  8
0
  6
CONTINUOUS
 62
3
 10
-170.352690588828810
 20
-198.468172648397680
  0
VERTEX
  8
0
  6
CONTINUOUS
 62
3
 10
-170.442999770933620
 20
-199.171129614598040
  0
VERTEX
  8
0
  6
CONTINUOUS
 62
3
 10
-170.352690588828810
 20
-199.874086580798410
  0
VERTEX
  8
0
  6
CONTINUOUS
 62
3
 10
-170.085233573736670
 20
-200.550029305010500
  0
VERTEX
  8
0
  6
CONTINUOUS
 62
3
 10
-169.650906948755590
 20
-201.172981687415900
  0
VERTEX
  8
0
  6
CONTINUOUS
 62
3
 10
-169.066401642510390
 20
-201.719004017314490
  0
VERTEX
  8
0
  6
CONTINUOUS
 62
3
 10
-168.354179866125750
 20
-202.167112962781120
  0
VERTEX
  8
0
  6
CONTINUOUS
 62
3
 10
-167.541611903049560
 20
-202.500087948343860
  0
VERTEX
  8
0
  6
CONTINUOUS
 62
3
 10
-166.659924284409440
 20
-202.705132932042120
  0
VERTEX
  8
0
  6
CONTINUOUS
 62
3
 10
-165.742999770933640
 20
-202.774368150142890
  0
VERTEX
  8
0
  6
CONTINUOUS
 62
3
 10
-164.826075257457830
 20
-202.705132932042120
  0
VERTEX
  8
0
  6
CONTINUOUS
 62
3
 10
-163.944387638817720
 20
-202.500087948343860
  0
VERTEX
  8
0
  6
CONTINUOUS
 62
3
 10
-163.131819675741530
 20
-202.167112962781120
  0
VERTEX
  8
0
  6
CONTINUOUS
 62
3
 10
-162.419597899356890
 20
-201.719004017314490
  0
VERTEX
  8
0
  6
CONTINUOUS
 62
3
 10
-161.835092593111680
 20
-201.172981687415900
  0
VERTEX
  8
0
  6
CONTINUOUS
 62
3
 10
-161.400765968130600
 20
-200.550029305010500
  0
VERTEX
  8
0
  6
CONTINUOUS
 62
3
 10
-161.133308953038470
 20
-199.874086580798410
  0
SEQEND
  8
0
  6
CONTINUOUS
 62
3
  0
LINE
  8
0
  6
CONTINUOUS
 62
3
 10
-154.742999770934200
 20
-188.247604582538200
 11
-154.742999770934200
 21
-207.247604582538200
  0
ARC
  8
0
  6
CONTINUOUS
 62
3
 10
-161.742999770934090
 20
-182.247604582538200
 40
3.000000000000000
 50
180.000000000000000
 51
270.000000000000000
  0
LINE
  8
0
  6
CONTINUOUS
 62
3
 10
-157.742999770934200
 20
-185.247604582538200
 11
-161.742999770934090
 21
-185.247604582538200
  0
ARC
  8
0
  6
CONTINUOUS
 62
3
 10
-157.742999770934200
 20
-188.247604582538200
 40
3.000000000000000
 50
0.000000000000000
 51
90.000000000000000
  0
LINE
  8
0
  6
CONTINUOUS
 62
3
 10
-164.742999770934090
 20
-182.247604582538200
 11
-164.742999770934090
 21
-147.247604582538200
  0
LINE
  8
0
  6
CONTINUOUS
 62
4
 10
-154.742999770934200
 20
-192.613391301007940
 11
-5.742999770934347
 21
-192.613391301007940
  0
LINE
  8
0
  6
CONTINUOUS
 62
4
 10
-163.645992329314310
 20
-184.566789638274140
 11
-5.742999770934347
 21
-184.566789638274140
  0
LINE
  8
0
  6
CONTINUOUS
 62
4
 10
-164.656663559931020
 20
-182.962141722712090
 11
-162.242597280444040
 21
-182.962141722712090
  0
LINE
  8
0
  6
CONTINUOUS
 62
4
 10
-72.542999770934387
 20
-178.998396298912550
 11
-5.742999770934347
 21
-178.998396298912550
  0
LINE
  8
0
  6
CONTINUOUS
 62
4
 10
-164.742999770934090
 20
-177.530038909107470
 11
-162.542999770934390
 21
-177.530038909107470
  0
LINE
  8
0
  6
CONTINUOUS
 62
4
 10
-164.742999770934090
 20
-173.439538375017830
 11
-162.542999770934390
 21
-173.439538375017830
  0
LINE
  8
0
  6
CONTINUOUS
 62
4
 10
-164.742999770934090
 20
-172.077658039668560
 11
-162.542999770934390
 21
-172.077658039668560
  0
LINE
  8
0
  6
CONTINUOUS
 62
4
 10
-164.742999770934090
 20
-167.247604582538200
 11
-162.542999770934390
 21
-167.247604582538200
  0
LINE
  8
0
  6
CONTINUOUS
 62
4
 10
-72.542999770934387
 20
-116.965170255968920
 11
-5.742999770934347
 21
-116.965170255968920
  0
LINE
  8
0
  6
CONTINUOUS
 62
4
 10
-72.542999770934387
 20
-172.077658039668560
 11
-5.742999770934347
 21
-172.077658039668560
  0
LINE
  8
0
  6
CONTINUOUS
 62
4
 10
-164.742999770934090
 20
-116.965170255968920
 11
-162.542999770934390
 21
-116.965170255968920
  0
LINE
  8
0
  6
CONTINUOUS
 62
4
 10
-72.542999770934387
 20
-177.530038909107470
 11
-5.742999770934347
 21
-177.530038909107470
  0
LINE
  8
0
  6
CONTINUOUS
 62
4
 10
-72.542999770934387
 20
-122.417551125407840
 11
-5.742999770934347
 21
-122.417551125407840
  0
LINE
  8
0
  6
CONTINUOUS
 62
4
 10
-72.542999770934387
 20
-167.247604582538200
 11
-5.742999770934347
 21
-167.247604582538200
  0
LINE
  8
0
  6
CONTINUOUS
 62
4
 10
-164.742999770934090
 20
-122.417551125407840
 11
-162.542999770934390
 21
-122.417551125407840
  0
LINE
  8
0
  6
CONTINUOUS
 62
4
 10
-72.542999770934387
 20
-173.439538375017830
 11
-5.742999770934347
 21
-173.439538375017830
  0
LINE
  8
0
  6
CONTINUOUS
 62
4
 10
-72.542999770934387
 20
-121.055670790058570
 11
-5.742999770934347
 21
-121.055670790058570
  0
LINE
  8
0
  6
CONTINUOUS
 62
4
 10
-164.742999770934090
 20
-121.055670790058570
 11
-162.542999770934390
 21
-121.055670790058570
  0
LINE
  8
0
  6
CONTINUOUS
 62
4
 10
-72.542999770934387
 20
-127.247604582538200
 11
-5.742999770934347
 21
-127.247604582538200
  0
LINE
  8
0
  6
CONTINUOUS
 62
4
 10
-164.742999770934090
 20
-127.247604582538200
 11
-162.542999770934390
 21
-127.247604582538200
  0
LINE
  8
0
  6
CONTINUOUS
 62
4
 10
-154.742999770934200
 20
-90.247604582538202
 11
-5.742999770934347
 21
-90.247604582538202
  0
LINE
  8
0
  6
CONTINUOUS
 62
4
 10
-154.742999770934200
 20
-89.747604582538202
 11
-5.742999770934347
 21
-89.747604582538202
  0
LINE
  8
0
  6
CONTINUOUS
 62
4
 10
-154.742999770934200
 20
-91.247604582538202
 11
-5.742999770934347
 21
-91.247604582538202
  0
LINE
  8
0
  6
CONTINUOUS
 62
4
 10
-154.742999770934200
 20
-92.247604582538202
 11
-5.742999770934347
 21
-92.247604582538202
  0
LINE
  8
0
  6
CONTINUOUS
 62
4
 10
-154.742999770934200
 20
-96.932070395762707
 11
-5.742999770934347
 21
-96.932070395762707
  0
LINE
  8
0
  6
CONTINUOUS
 62
4
 10
-154.742999770934200
 20
-101.881817864068460
 11
-5.742999770934347
 21
-101.881817864068460
  0
LINE
  8
0
  6
CONTINUOUS
 62
4
 10
-163.645992329314310
 20
-109.928419526802250
 11
-5.742999770934347
 21
-109.928419526802250
  0
LINE
  8
0
  6
CONTINUOUS
 62
4
 10
-164.656663559931020
 20
-111.533067442364310
 11
-162.242597280444040
 21
-111.533067442364310
  0
LINE
  8
0
  6
CONTINUOUS
 62
4
 10
-164.742999770934090
 20
-115.496812866163850
 11
-162.542999770934390
 21
-115.496812866163850
  0
LINE
  8
0
  6
CONTINUOUS
 62
3
 10
-154.742999770934200
 20
-106.247604582538200
 11
-154.742999770934200
 21
-87.247604582538202
  0
ARC
  8
0
  6
CONTINUOUS
 62
3
 10
-161.742999770934090
 20
-112.247604582538200
 40
3.000000000000000
 50
90.000000000000000
 51
180.000000000000000
  0
LINE
  8
0
  6
CONTINUOUS
 62
3
 10
-157.742999770934200
 20
-109.247604582538200
 11
-161.742999770934090
 21
-109.247604582538200
  0
ARC
  8
0
  6
CONTINUOUS
 62
3
 10
-157.742999770934200
 20
-106.247604582538200
 40
3.000000000000000
 50
270.000000000000000
 51
0.000000000000000
  0
LINE
  8
0
  6
CONTINUOUS
 62
3
 10
-164.742999770934090
 20
-112.247604582538200
 11
-164.742999770934090
 21
-147.247604582538200
  0
LINE
  8
0
  6
CONTINUOUS
 62
3
 10
-5.742999770934347
 20
-88.747604582538202
 11
-154.742999770934200
 21
-88.747604582538202
  0
LINE
  8
0
  6
CONTINUOUS
 62
3
 10
-154.742999770934200
 20
-87.247604582538202
 11
-235.437023993354560
 21
-87.247604582538202
  0
POLYLINE
  8
0
  6
CONTINUOUS
 62
3
 66
1
 70
1
  0
VERTEX
  8
0
  6
CONTINUOUS
 62
3
 10
-161.042999770933650
 20
-95.324079550478132
  0
VERTEX
  8
0
  6
CONTINUOUS
 62
3
 10
-161.133308953038470
 20
-94.621122584277771
  0
VERTEX
  8
0
  6
CONTINUOUS
 62
3
 10
-161.400765968130600
 20
-93.945179860065679
  0
VERTEX
  8
0
  6
CONTINUOUS
 62
3
 10
-161.835092593111680
 20
-93.322227477660277
  0
VERTEX
  8
0
  6
CONTINUOUS
 62
3
 10
-162.419597899356860
 20
-92.776205147761701
  0
VERTEX
  8
0
  6
CONTINUOUS
 62
3
 10
-163.131819675741530
 20
-92.328096202295086
  0
VERTEX
  8
0
  6
CONTINUOUS
 62
3
 10
-163.944387638817720
 20
-91.995121216732315
  0
VERTEX
  8
0
  6
CONTINUOUS
 62
3
 10
-164.826075257457830
 20
-91.790076233034071
  0
VERTEX
  8
0
  6
CONTINUOUS
 62
3
 10
-165.742999770933640
 20
-91.720841014933299
  0
VERTEX
  8
0
  6
CONTINUOUS
 62
3
 10
-166.659924284409440
 20
-91.790076233034071
  0
VERTEX
  8
0
  6
CONTINUOUS
 62
3
 10
-167.541611903049560
 20
-91.995121216732315
  0
VERTEX
  8
0
  6
CONTINUOUS
 62
3
 10
-168.354179866125750
 20
-92.328096202295086
  0
VERTEX
  8
0
  6
CONTINUOUS
 62
3
 10
-169.066401642510410
 20
-92.776205147761701
  0
VERTEX
  8
0
  6
CONTINUOUS
 62
3
 10
-169.650906948755590
 20
-93.322227477660277
  0
VERTEX
  8
0
  6
CONTINUOUS
 62
3
 10
-170.085233573736670
 20
-93.945179860065679
  0
VERTEX
  8
0
  6
CONTINUOUS
 62
3
 10
-170.352690588828810
 20
-94.621122584277771
  0
VERTEX
  8
0
  6
CONTINUOUS
 62
3
 10
-170.442999770933620
 20
-95.324079550478132
  0
VERTEX
  8
0
  6
CONTINUOUS
 62
3
 10
-170.352690588828810
 20
-96.027036516678493
  0
VERTEX
  8
0
  6
CONTINUOUS
 62
3
 10
-170.085233573736670
 20
-96.702979240890585
  0
VERTEX
  8
0
  6
CONTINUOUS
 62
3
 10
-169.650906948755590
 20
-97.325931623295986
  0
VERTEX
  8
0
  6
CONTINUOUS
 62
3
 10
-169.066401642510390
 20
-97.871953953194563
  0
VERTEX
  8
0
  6
CONTINUOUS
 62
3
 10
-168.354179866125750
 20
-98.320062898661178
  0
VERTEX
  8
0
  6
CONTINUOUS
 62
3
 10
-167.541611903049560
 20
-98.653037884223949
  0
VERTEX
  8
0
  6
CONTINUOUS
 62
3
 10
-166.659924284409440
 20
-98.858082867922192
  0
VERTEX
  8
0
  6
CONTINUOUS
 62
3
 10
-165.742999770933640
 20
-98.927318086022964
  0
VERTEX
  8
0
  6
CONTINUOUS
 62
3
 10
-164.826075257457830
 20
-98.858082867922192
  0
VERTEX
  8
0
  6
CONTINUOUS
 62
3
 10
-163.944387638817720
 20
-98.653037884223949
  0
VERTEX
  8
0
  6
CONTINUOUS
 62
3
 10
-163.131819675741530
 20
-98.320062898661178
  0
VERTEX
  8
0
  6
CONTINUOUS
 62
3
 10
-162.419597899356890
 20
-97.871953953194563
  0
VERTEX
  8
0
  6
CONTINUOUS
 62
3
 10
-161.835092593111680
 20
-97.325931623295986
  0
VERTEX
  8
0
  6
CONTINUOUS
 62
3
 10
-161.400765968130600
 20
-96.702979240890585
  0
VERTEX
  8
0
  6
CONTINUOUS
 62
3
 10
-161.133308953038470
 20
-96.027036516678493
  0
SEQEND
  8
0
  6
CONTINUOUS
 62
3
  0
LINE
  8
0
  6
CONTINUOUS
 62
3
 10
-167.742999770933640
 20
-92.331703996477813
 11
-165.742999770933640
 21
-93.507489482100596
  0
LINE
  8
0
  6
CONTINUOUS
 62
3
 10
-165.742999770933640
 20
-93.507489482100596
 11
-163.742999770933640
 21
-95.160131121224026
  0
LINE
  8
0
  6
CONTINUOUS
 62
3
 10
-163.742999770933640
 20
-92.331703996477813
 11
-165.742999770933640
 21
-93.507489482100596
  0
LINE
  8
0
  6
CONTINUOUS
 62
3
 10
-165.742999770933640
 20
-93.507489482100596
 11
-167.742999770933640
 21
-95.160131121224026
  0
LINE
  8
0
  6
CONTINUOUS
 62
4
 10
-72.542999770934387
 20
-115.496812866163850
 11
-5.742999770934347
 21
-115.496812866163850
  0
LINE
  8
0
  6
CONTINUOUS
 62
4
 10
-72.843402261424501
 20
-111.533067442364310
 11
-5.742999770934347
 21
-111.533067442364310
  0
LINE
  8
0
  6
CONTINUOUS
 62
4
 10
-72.843402261424728
 20
-182.962141722712090
 11
-5.742999770934347
 21
-182.962141722712090
  0
LINE
  8
0
  6
CONTINUOUS
 62
3
 10
-72.542999770934387
 20
-112.247604582538200
 11
-72.542999770934387
 21
-182.247604582538200
  0
LINE
  8
0
  6
CONTINUOUS
 62
3
 10
-73.542999770934387
 20
-111.247604582538200
 11
-161.542999770934390
 21
-111.247604582538200
  0
ARC
  8
0
  6
CONTINUOUS
 62
3
 10
-73.542999770934387
 20
-112.247604582538200
 40
1.000000000000000
 50
0.000000000000000
 51
90.000000000000000
  0
LINE
  8
0
  6
CONTINUOUS
 62
3
 10
-73.542999770934387
 20
-183.247604582538200
 11
-161.542999770934390
 21
-183.247604582538200
  0
ARC
  8
0
  6
CONTINUOUS
 62
3
 10
-73.542999770934387
 20
-182.247604582538200
 40
1.000000000000000
 50
270.000000000000000
 51
0.000000000000000
  0
LINE
  8
0
  6
CONTINUOUS
 62
3
 10
-162.542999770934390
 20
-112.247604582538200
 11
-162.542999770934390
 21
-182.247604582538200
  0
ARC
  8
0
  6
CONTINUOUS
 62
3
 10
-161.542999770934390
 20
-182.247604582538200
 40
1.000000000000000
 50
180.000000000000000
 51
270.000000000000000
  0
ARC
  8
0
  6
CONTINUOUS
 62
3
 10
-161.542999770934390
 20
-112.247604582538200
 40
1.000000000000000
 50
90.000000000000000
 51
180.000000000000000
  0
CIRCLE
  8
0
  6
CONTINUOUS
 62
3
 10
451.834762512237830
 20
-145.747604582538770
 40
40.999999999999943
  0
CIRCLE
  8
0
  6
CONTINUOUS
 62
3
 10
451.834762512237830
 20
-145.747604582538770
 40
3.324999999999989
  0
CIRCLE
  8
0
  6
CONTINUOUS
 62
4
 10
451.834762512237830
 20
-145.747604582538770
 40
4.000000000000000
  0
CIRCLE
  8
0
  6
CONTINUOUS
 62
3
 10
451.834762512237830
 20
-145.747604582538770
 40
31.000000000000057
  0
ARC
  8
0
  6
CONTINUOUS
 62
3
 10
451.834762512237830
 20
-145.747604582538770
 40
31.000000000000000
 50
180.000000000000000
 51
0.000000000000000
  0
ARC
  8
0
  6
CONTINUOUS
 62
3
 10
451.834762512237830
 20
-145.747604582538770
 40
31.000000000000256
 50
70.008590721901967
 51
180.000000000000000
  0
ARC
  8
0
  6
CONTINUOUS
 62
3
 10
451.834762512237830
 20
-560.747604582538770
 40
462.518012424385230
 50
85.577622414021917
 51
90.000000000000000
  0
ARC
  8
0
  6
CONTINUOUS
 62
3
 10
451.834762512237830
 20
-560.747604582538770
 40
462.518012424385230
 50
90.000000000000000
 51
94.422377585978083
  0
ARC
  8
0
  6
CONTINUOUS
 62
3
 10
451.834762512237830
 20
-145.747604582538770
 40
49.000000000000000
 50
270.000000000000000
 51
356.692637820329420
  0
ARC
  8
0
  6
CONTINUOUS
 62
3
 10
503.748151921907270
 20
-148.747604582538770
 40
3.000000000000000
 50
90.000000000000000
 51
176.692637820325420
  0
LINE
  8
0
  6
DASHDOT
 62
4
 10
451.834762512237830
 20
-299.018415353148160
 11
451.834762512237830
 21
-9.533056013642636
  0
LINE
  8
0
  6
DASHDOT
 62
4
 10
488.035510254758260
 20
-147.247604582538320
 11
415.475814884786810
 21
-147.247604582538320
  0
LINE
  8
0
  6
CONTINUOUS
 62
3
 10
-5.742999770934347
 20
-205.747604582538200
 11
-5.742999770934347
 21
-147.247604582538200
  0
LINE
  8
0
  6
CONTINUOUS
 62
3
 10
-5.742999770934347
 20
-205.747604582538200
 11
-154.742999770934200
 21
-205.747604582538200
  0
LINE
  8
0
  6
CONTINUOUS
 62
4
 10
-154.742999770934200
 20
-202.247604582538200
 11
-5.742999770934347
 21
-202.247604582538200
  0
LINE
  8
0
  6
CONTINUOUS
 62
4
 10
-154.742999770934200
 20
-203.247604582538200
 11
-5.742999770934347
 21
-203.247604582538200
  0
LINE
  8
0
  6
CONTINUOUS
 62
4
 10
-154.742999770934200
 20
-204.247604582538200
 11
-5.742999770934347
 21
-204.247604582538200
  0
LINE
  8
0
  6
CONTINUOUS
 62
4
 10
-154.742999770934200
 20
-204.747604582538200
 11
-5.742999770934347
 21
-204.747604582538200
  0
ARC
  8
0
  6
CONTINUOUS
 62
3
 10
-255.142999770883930
 20
-99.804399525292752
 40
2.599999999999721
 50
125.000000000001370
 51
180.000000000000000
  0
LINE
  8
0
  6
CONTINUOUS
 62
3
 10
-246.908552720375550
 20
-90.864563696758410
 11
-256.634298505396540
 21
-97.674604210141638
  0
ARC
  8
0
  6
CONTINUOUS
 62
3
 10
-235.437023993354560
 20
-107.247604582538200
 40
20.000000000000000
 50
90.000000000000000
 51
125.000000000000240
  0
LINE
  8
0
  6
CONTINUOUS
 62
3
 10
-257.742999770884070
 20
-147.247604582538200
 11
-257.742999770884070
 21
-99.804399525292752
  0
LINE
  8
0
  6
CONTINUOUS
 62
4
 10
-154.742999770934200
 20
-197.563138769313700
 11
-5.742999770934347
 21
-197.563138769313700
  0
ARC
  8
0
  6
CONTINUOUS
 62
3
 10
-255.142999770883930
 20
-194.690809639783650
 40
2.600000000000136
 50
180.000000000000000
 51
234.999999999998610
  0
LINE
  8
0
  6
CONTINUOUS
 62
3
 10
-246.908552720375550
 20
-203.630645468317990
 11
-256.634298505396540
 21
-196.820604954934770
  0
ARC
  8
0
  6
CONTINUOUS
 62
3
 10
-235.437023993354560
 20
-187.247604582538200
 40
20.000000000000007
 50
234.999999999999740
 51
270.000000000000000
  0
LINE
  8
0
  6
CONTINUOUS
 62
3
 10
-257.742999770884070
 20
-147.247604582538200
 11
-257.742999770884070
 21
-194.690809639783650
  0
LINE
  8
0
  6
CONTINUOUS
 62
3
 10
-154.742999770934200
 20
-207.247604582538200
 11
-235.437023993354560
 21
-207.247604582538200
  0
LINE
  8
0
  6
CONTINUOUS
 62
3
 10
-165.742999770933640
 20
-200.987719682976040
 11
-167.742999770933640
 21
-199.335078043852600
  0
LINE
  8
0
  6
CONTINUOUS
 62
3
 10
-163.742999770933640
 20
-202.163505168598360
 11
-165.742999770933640
 21
-200.987719682976040
  0
LINE
  8
0
  6
CONTINUOUS
 62
3
 10
-165.742999770933640
 20
-200.987719682976040
 11
-163.742999770933640
 21
-199.335078043852600
  0
LINE
  8
0
  6
CONTINUOUS
 62
3
 10
-167.742999770933640
 20
-202.163505168598360
 11
-165.742999770933640
 21
-200.987719682976040
  0
LINE
  8
0
  6
CONTINUOUS
 62
3
 10
326.834759398562260
 20
-290.747608194402350
 11
326.834759398562260
 21
-271.747607646395410
  0
LINE
  8
0
  6
CONTINUOUS
 62
3
 10
451.834762512237830
 20
-261.047607646395590
 11
388.334762512237830
 21
-261.047607646395590
  0
LINE
  8
0
  6
CONTINUOUS
 62
3
 10
451.834762512237830
 20
-261.047607646395590
 11
515.334762512237830
 21
-261.047607646395590
  0
LINE
  8
0
  6
CONTINUOUS
 62
3
 10
390.834757862479820
 20
-288.747608194402350
 11
373.834760519485370
 21
-288.747608194402350
  0
LINE
  8
0
  6
CONTINUOUS
 62
3
 10
512.834767161995840
 20
-288.747608194402350
 11
529.834764504990740
 21
-288.747608194402350
  0
LINE
  8
0
  6
CONTINUOUS
 62
3
 10
451.834762512237830
 20
-287.747608069855230
 11
391.976187644605490
 21
-287.747608069855230
  0
LINE
  8
0
  6
DASHDOT
 62
4
 10
344.334759834476700
 20
-298.572066886014000
 11
344.334759834476700
 21
-263.034029685541100
  0
LINE
  8
0
  6
CONTINUOUS
 62
3
 10
371.834760519485370
 20
-290.747608194402350
 11
326.834759398562260
 21
-290.747608194402350
  0
LINE
  8
0
  6
CONTINUOUS
 62
3
 10
451.834762512237830
 20
-268.747607646395410
 11
329.834759398562260
 21
-268.747607646395410
  0
LINE
  8
0
  6
DASHDOT
 62
4
 10
559.334765189998510
 20
-298.572066886014000
 11
559.334765189998510
 21
-263.034029685541100
  0
LINE
  8
0
  6
CONTINUOUS
 62
3
 10
531.834764504990740
 20
-290.747608194402350
 11
576.834765625913860
 21
-290.747608194402350
  0
LINE
  8
0
  6
CONTINUOUS
 62
3
 10
576.834765625913860
 20
-290.747608194402350
 11
576.834765625913860
 21
-271.747607646395410
  0
LINE
  8
0
  6
CONTINUOUS
 62
3
 10
451.834762512237830
 20
-287.747608069855230
 11
511.693337379870170
 21
-287.747608069855230
  0
LINE
  8
0
  6
CONTINUOUS
 62
3
 10
451.834762512237830
 20
-268.747607646395410
 11
573.834765625913860
 21
-268.747607646395410
  0
LINE
  8
0
  6
CONTINUOUS
 62
3
 10
431.334762512237830
 20
-35.747604582538770
 11
431.334762512237830
 21
-61.168031341198002
  0
LINE
  8
0
  6
DASHDOT
 62
4
 10
475.002675511119380
 20
-45.747604582538770
 11
427.980161609584680
 21
-45.747604582538770
  0
LINE
  8
0
  6
CONTINUOUS
 62
3
 10
462.334762512237830
 20
-25.747604582538770
 11
441.334762512237830
 21
-25.747604582538770
  0
LINE
  8
0
  6
CONTINUOUS
 62
3
 10
472.334762512237830
 20
-35.747604582538770
 11
472.334762512237830
 21
-61.168031341198002
  0
ARC
  8
0
  6
CONTINUOUS
 62
3
 10
331.834762512237830
 20
-265.747607646395410
 40
3.000000000000000
 50
270.000000000000000
 51
0.000000000000000
  0
ARC
  8
0
  6
CONTINUOUS
 62
3
 10
329.834759398562260
 20
-271.747607646395410
 40
3.000000000000000
 50
90.000000000000000
 51
180.000000000000000
  0
ARC
  8
0
  6
CONTINUOUS
 62
3
 10
388.334762512237830
 20
-253.047607646395590
 40
8.000000000000000
 50
180.000000000000000
 51
270.000000000000000
  0
ARC
  8
0
  6
CONTINUOUS
 62
3
 10
515.334762512237830
 20
-253.047607646395590
 40
8.000000000000000
 50
270.000000000000000
 51
0.000000000000000
  0
ARC
  8
0
  6
CONTINUOUS
 62
3
 10
369.316750087852140
 20
-265.747607646395410
 40
3.000000000000000
 50
270.000000000000000
 51
0.000000000000000
  0
ARC
  8
0
  6
CONTINUOUS
 62
3
 10
534.352774936623970
 20
-265.747607646395410
 40
3.000000000000000
 50
180.000000000000000
 51
270.000000000000000
  0
ARC
  8
0
  6
CONTINUOUS
 62
3
 10
373.834760519485370
 20
-290.747608194402350
 40
2.000000000000000
 50
90.000000000000000
 51
180.000000000000000
  0
ARC
  8
0
  6
CONTINUOUS
 62
3
 10
529.834764504990740
 20
-290.747608194402350
 40
2.000000000000000
 50
0.000000000000000
 51
90.000000000000000
  0
ARC
  8
0
  6
CONTINUOUS
 62
3
 10
384.834762512237830
 20
-280.747604707085880
 40
10.000000000000053
 50
306.869864344412290
 51
315.572968020398260
  0
ARC
  8
0
  6
CONTINUOUS
 62
3
 10
518.834762512237830
 20
-280.747604707085880
 40
9.999999999999833
 50
224.427031979601790
 51
233.130135655587680
  0
ARC
  8
0
  6
CONTINUOUS
 62
3
 10
363.711177823378880
 20
-265.747607646395410
 40
3.000000000000000
 50
270.000000000000000
 51
0.000000000000000
  0
ARC
  8
0
  6
CONTINUOUS
 62
3
 10
337.311177823378780
 20
-265.747607646395410
 40
3.000000000000000
 50
270.000000000000000
 51
0.000000000000000
  0
ARC
  8
0
  6
CONTINUOUS
 62
3
 10
566.358347201096880
 20
-265.747607646395410
 40
3.000000000000000
 50
180.000000000000000
 51
270.000000000000000
  0
ARC
  8
0
  6
CONTINUOUS
 62
3
 10
571.834762512238740
 20
-265.747607646395410
 40
3.000000000000000
 50
180.000000000000000
 51
270.000000000000000
  0
ARC
  8
0
  6
CONTINUOUS
 62
3
 10
539.958347201096330
 20
-265.747607646395410
 40
3.000000000000000
 50
180.000000000000000
 51
270.000000000000000
  0
ARC
  8
0
  6
CONTINUOUS
 62
3
 10
573.834765625913860
 20
-271.747607646395410
 40
3.000000000000000
 50
0.000000000000000
 51
90.000000000000000
  0
ARC
  8
0
  6
CONTINUOUS
 62
3
 10
451.834762512237830
 20
-560.747604582538770
 40
500.000000000000000
 50
90.000000000000000
 51
94.422377585978055
  0
ARC
  8
0
  6
CONTINUOUS
 62
3
 10
451.834762512237830
 20
-560.747604582538770
 40
500.000000000000230
 50
85.577622414021945
 51
90.000000000000000
  0
CIRCLE
  8
0
  6
CONTINUOUS
 62
3
 10
451.834762512237830
 20
-45.747604582538770
 40
10.000000000000000
  0
ARC
  8
0
  6
CONTINUOUS
 62
3
 10
441.334762512237830
 20
-35.747604582538770
 40
10.000000000000000
 50
90.000000000000000
 51
180.000000000000000
  0
ARC
  8
0
  6
CONTINUOUS
 62
3
 10
462.334762512237830
 20
-35.747604582538770
 40
10.000000000000000
 50
0.000000000000000
 51
90.000000000000000
  0
ENDSEC
  0
EOF
