  0
SECTION
  2
HEADER
  9
$FILLMODE
 70
1
  9
$TEXTSTYLE
  7
STANDARD1
  9
$ACADVER
  1
AC1009
  9
$DIMASZ
 40
1.931851648807023
  9
$DIMEXE
 40
2.000000000000000
  9
$DIMEXO
 40
1.000000000000000
  9
$DIMLFAC
 40
1.000000000000000
  9
$DIMSCALE
 40
1.000000000000000
  9
$DIMTAD
 70
1
  9
$DIMTFAC
 40
0.714285731315613
  9
$DIMTXT
 40
3.200000047683716
  9
$LUPREC
 70
3
  9
$TEXTSIZE
 40
2.799999952316284
  9
$REGENMODE
 70
1
  0
ENDSEC
  0
SECTION
  2
TABLES
  0
TABLE
  2
LTYPE
 70
4
  0
LTYPE
  2
CONTINUOUS
 70
64
  3
Solid line
 72
65
 73
0
 40
0.0
  0
LTYPE
  2
DASHED
 70
64
  3
-- -- -- -- -- -- -- -- -- -- -- -- -- -- --
 72
65
 73
2
 40
0.75
 49
0.5
 49
-0.25
  0
LTYPE
  2
DASHDOT
 70
64
  3
__ . __ . __ . __ . __ . __ . __ . __ . __ . __
 72
65
 73
4
 40
1.0
 49
0.5
 49
-0.25
 49
0.0
 49
-0.25
  0
LTYPE
  2
DIVIDE
 70
64
  3
__ . . __ . . __ . . __ . . __ . . __ . . __
 72
65
 73
6
 40
1.25
 49
0.5
 49
-0.25
 49
0.0
 49
-0.25
 49
0.0
 49
-0.25
  0
ENDTAB
  0
TABLE
  2
LAYER
 70
1
  0
LAYER
  2
0
 70
64
 62
2
  6
CONTINUOUS
  0
ENDTAB
  0
TABLE
  2
STYLE
 70
4
  0
STYLE
  2
STANDARD1
 70
64
 40
0.0
 41
1.0
 50
0.0
 71
0
 42
2.799999952316284
  3
MONOTXT
  4
BIGFONT
  0
STYLE
  2
STANDARD2
 70
68
 40
0.0
 41
1.0
 50
0.0
 71
0
 42
2.799999952316284
  3
MONOTXT
  4
BIGFONT
  0
STYLE
  2
STANDARD3
 70
64
 40
0.0
 41
1.0
 50
0.0
 71
0
 42
2.799999952316284
  3
MONOTXT
  4

  0
STYLE
  2
STANDARD4
 70
68
 40
0.0
 41
1.0
 50
0.0
 71
0
 42
2.799999952316284
  3
MONOTXT
  4

  0
ENDTAB
  0
TABLE
  2
VIEW
 70
0
  0
ENDTAB
  0
ENDSEC
  0
SECTION
  2
BLOCKS
  0
BLOCK
  8
0
  2
SYM1
 70
64
 10
0.000000000000000
 20
0.000000000000000
  0
POINT
  8
0
  6
CONTINUOUS
 62
3
 10
0.000000000000000
 20
0.000000000000000
  0
LINE
  8
0
  6
CONTINUOUS
 62
3
 10
0.000000000000000
 20
-6.500000000000000
 11
-0.000000000000000
 21
6.500000000000000
  0
LINE
  8
0
  6
CONTINUOUS
 62
3
 10
-7.999999046325684
 20
5.633875846862793
 11
-7.999999046325684
 21
-5.634070396423340
  0
LINE
  8
0
  6
CONTINUOUS
 62
3
 10
0.000000000000000
 20
6.500000000000000
 11
-7.499999046325684
 21
6.500000000000000
  0
LINE
  8
0
  6
CONTINUOUS
 62
3
 10
-0.000000000000000
 20
-6.500000000000000
 11
-7.499998092651367
 21
-6.500000000000000
  0
LINE
  8
0
  6
CONTINUOUS
 62
3
 10
-7.499999203818277
 20
6.499999909101064
 11
-7.999999021366804
 21
5.633876130311293
  0
LINE
  8
0
  6
CONTINUOUS
 62
3
 10
-7.499997911632022
 20
-6.499999445138201
 11
-7.999998623386432
 21
-5.634070287011241
  0
LINE
  8
0
  6
CONTINUOUS
 62
3
 10
-7.499999046325684
 20
6.500000000000000
 11
-7.499999046325684
 21
-6.500000000000000
  0
ENDBLK
  8
0
  0
BLOCK
  8
0
  2
SYM2
 70
64
 10
0.000000000000000
 20
0.000000000000000
  0
POINT
  8
0
  6
CONTINUOUS
 62
3
 10
0.000000000000000
 20
0.000000000000000
  0
LINE
  8
0
  6
CONTINUOUS
 62
3
 10
0.000000000000000
 20
-6.500000000000000
 11
-0.000000000000000
 21
6.500000000000000
  0
LINE
  8
0
  6
CONTINUOUS
 62
3
 10
-7.999999046325684
 20
5.633875846862793
 11
-7.999999046325684
 21
-5.634070396423340
  0
LINE
  8
0
  6
CONTINUOUS
 62
3
 10
0.000000000000000
 20
6.500000000000000
 11
-7.499999046325684
 21
6.500000000000000
  0
LINE
  8
0
  6
CONTINUOUS
 62
3
 10
-0.000000000000000
 20
-6.500000000000000
 11
-7.499998092651367
 21
-6.500000000000000
  0
LINE
  8
0
  6
CONTINUOUS
 62
3
 10
-7.499999203818277
 20
6.499999909101064
 11
-7.999999021366804
 21
5.633876130311293
  0
LINE
  8
0
  6
CONTINUOUS
 62
3
 10
-7.499997911632022
 20
-6.499999445138201
 11
-7.999998623386432
 21
-5.634070287011241
  0
LINE
  8
0
  6
CONTINUOUS
 62
3
 10
-7.499999046325684
 20
6.500000000000000
 11
-7.499999046325684
 21
-6.500000000000000
  0
ENDBLK
  8
0
  0
BLOCK
  8
0
  2
SYM3
 70
64
 10
0.000000000000000
 20
0.000000000000000
  0
POINT
  8
0
  6
CONTINUOUS
 62
3
 10
0.000000000000000
 20
0.000000000000000
  0
LINE
  8
0
  6
CONTINUOUS
 62
3
 10
0.000000000000000
 20
-6.500000000000000
 11
-0.000000000000000
 21
6.500000000000000
  0
LINE
  8
0
  6
CONTINUOUS
 62
3
 10
-7.999999046325684
 20
5.633875846862793
 11
-7.999999046325684
 21
-5.634070396423340
  0
LINE
  8
0
  6
CONTINUOUS
 62
3
 10
0.000000000000000
 20
6.500000000000000
 11
-7.499999046325684
 21
6.500000000000000
  0
LINE
  8
0
  6
CONTINUOUS
 62
3
 10
-0.000000000000000
 20
-6.500000000000000
 11
-7.499998092651367
 21
-6.500000000000000
  0
LINE
  8
0
  6
CONTINUOUS
 62
3
 10
-7.499999203818277
 20
6.499999909101064
 11
-7.999999021366804
 21
5.633876130311293
  0
LINE
  8
0
  6
CONTINUOUS
 62
3
 10
-7.499997911632022
 20
-6.499999445138201
 11
-7.999998623386432
 21
-5.634070287011241
  0
LINE
  8
0
  6
CONTINUOUS
 62
3
 10
-7.499999046325684
 20
6.500000000000000
 11
-7.499999046325684
 21
-6.500000000000000
  0
ENDBLK
  8
0
  0
BLOCK
  8
0
  2
SYM4
 70
64
 10
0.000000000000000
 20
0.000000000000000
  0
POINT
  8
0
  6
CONTINUOUS
 62
3
 10
0.000000000000000
 20
0.000000000000000
  0
LINE
  8
0
  6
CONTINUOUS
 62
3
 10
0.000000000000000
 20
-6.500000000000000
 11
-0.000000000000000
 21
6.500000000000000
  0
LINE
  8
0
  6
CONTINUOUS
 62
3
 10
-7.999999046325684
 20
5.633875846862793
 11
-7.999999046325684
 21
-5.634070396423340
  0
LINE
  8
0
  6
CONTINUOUS
 62
3
 10
0.000000000000000
 20
6.500000000000000
 11
-7.499999046325684
 21
6.500000000000000
  0
LINE
  8
0
  6
CONTINUOUS
 62
3
 10
-0.000000000000000
 20
-6.500000000000000
 11
-7.499998092651367
 21
-6.500000000000000
  0
LINE
  8
0
  6
CONTINUOUS
 62
3
 10
-7.499999203818277
 20
6.499999909101064
 11
-7.999999021366804
 21
5.633876130311293
  0
LINE
  8
0
  6
CONTINUOUS
 62
3
 10
-7.499997911632022
 20
-6.499999445138201
 11
-7.999998623386432
 21
-5.634070287011241
  0
LINE
  8
0
  6
CONTINUOUS
 62
3
 10
-7.499999046325684
 20
6.500000000000000
 11
-7.499999046325684
 21
-6.500000000000000
  0
ENDBLK
  8
0
  0
BLOCK
  8
0
  2
SYM5
 70
64
 10
0.000000000000000
 20
0.000000000000000
  0
POINT
  8
0
  6
CONTINUOUS
 62
3
 10
0.000000000000000
 20
0.000000000000000
  0
LINE
  8
0
  6
CONTINUOUS
 62
3
 10
0.000000000000000
 20
-6.500000000000000
 11
-0.000000000000000
 21
6.500000000000000
  0
LINE
  8
0
  6
CONTINUOUS
 62
3
 10
-7.999999046325684
 20
5.633875846862793
 11
-7.999999046325684
 21
-5.634070396423340
  0
LINE
  8
0
  6
CONTINUOUS
 62
3
 10
0.000000000000000
 20
6.500000000000000
 11
-7.499999046325684
 21
6.500000000000000
  0
LINE
  8
0
  6
CONTINUOUS
 62
3
 10
-0.000000000000000
 20
-6.500000000000000
 11
-7.499998092651367
 21
-6.500000000000000
  0
LINE
  8
0
  6
CONTINUOUS
 62
3
 10
-7.499999203818277
 20
6.499999909101064
 11
-7.999999021366804
 21
5.633876130311293
  0
LINE
  8
0
  6
CONTINUOUS
 62
3
 10
-7.499997911632022
 20
-6.499999445138201
 11
-7.999998623386432
 21
-5.634070287011241
  0
LINE
  8
0
  6
CONTINUOUS
 62
3
 10
-7.499999046325684
 20
6.500000000000000
 11
-7.499999046325684
 21
-6.500000000000000
  0
ENDBLK
  8
0
  0
BLOCK
  8
0
  2
SYM6
 70
64
 10
0.000000000000000
 20
0.000000000000000
  0
POINT
  8
0
  6
CONTINUOUS
 62
3
 10
0.000000000000000
 20
0.000000000000000
  0
LINE
  8
0
  6
CONTINUOUS
 62
3
 10
0.000000000000000
 20
-6.500000000000000
 11
-0.000000000000000
 21
6.500000000000000
  0
LINE
  8
0
  6
CONTINUOUS
 62
3
 10
-7.999999046325684
 20
5.633875846862793
 11
-7.999999046325684
 21
-5.634070396423340
  0
LINE
  8
0
  6
CONTINUOUS
 62
3
 10
0.000000000000000
 20
6.500000000000000
 11
-7.499999046325684
 21
6.500000000000000
  0
LINE
  8
0
  6
CONTINUOUS
 62
3
 10
-0.000000000000000
 20
-6.500000000000000
 11
-7.499998092651367
 21
-6.500000000000000
  0
LINE
  8
0
  6
CONTINUOUS
 62
3
 10
-7.499999203818277
 20
6.499999909101064
 11
-7.999999021366804
 21
5.633876130311293
  0
LINE
  8
0
  6
CONTINUOUS
 62
3
 10
-7.499997911632022
 20
-6.499999445138201
 11
-7.999998623386432
 21
-5.634070287011241
  0
LINE
  8
0
  6
CONTINUOUS
 62
3
 10
-7.499999046325684
 20
6.500000000000000
 11
-7.499999046325684
 21
-6.500000000000000
  0
ENDBLK
  8
0
  0
BLOCK
  8
0
  2
SYM7
 70
64
 10
0.000000000000000
 20
0.000000000000000
  0
POINT
  8
0
  6
CONTINUOUS
 62
3
 10
0.000000000000000
 20
0.000000000000000
  0
LINE
  8
0
  6
CONTINUOUS
 62
3
 10
-0.000027060931608
 20
-5.749995231614290
 11
-3.250020760774497
 21
-5.749981880178368
  0
LINE
  8
0
  6
CONTINUOUS
 62
3
 10
-3.250024308998832
 20
-5.749987011620533
 11
-4.000020133420207
 21
-4.899982163000686
  0
LINE
  8
0
  6
CONTINUOUS
 62
3
 10
-4.000014781949545
 20
-4.899978112209579
 11
-3.999973773958658
 21
4.900011588107803
  0
LINE
  8
0
  6
CONTINUOUS
 62
3
 10
-3.999972830514309
 20
4.900008662670757
 11
-3.249970339875063
 21
5.750006850331147
  0
LINE
  8
0
  6
CONTINUOUS
 62
3
 10
-3.249972343459831
 20
5.750005722029982
 11
0.000027906669402
 21
5.749993324257003
  0
LINE
  8
0
  6
CONTINUOUS
 62
3
 10
0.000023687533422
 20
5.749999046325684
 11
-0.000023687533422
 21
-5.749999046325684
  0
LINE
  8
0
  6
CONTINUOUS
 62
3
 10
-3.250009052584916
 20
-2.899986267083180
 11
-0.000013285950788
 21
-2.899999618524636
  0
LINE
  8
0
  6
CONTINUOUS
 62
3
 10
-3.249984168999890
 20
2.900012016287064
 11
0.000013133145058
 21
2.899999618522375
  0
ARC
  8
0
  6
CONTINUOUS
 62
3
 10
-2.270017623901367
 20
-4.324990272521973
 40
1.729999542236328
 50
124.499759285265280
 51
179.999745461767870
  0
ARC
  8
0
  6
CONTINUOUS
 62
3
 10
-2.269982337951660
 20
4.325008392333984
 40
1.729999542236328
 50
179.999745461767870
 51
235.499786279783790
  0
ARC
  8
0
  6
CONTINUOUS
 62
3
 10
1.981662750244141
 20
-0.000008163610801
 40
5.981661796569824
 50
150.999363302540700
 51
209.000072979481700
  0
ENDBLK
  8
0
  0
BLOCK
  8
0
  2
SYM8
 70
64
 10
0.000000000000000
 20
0.000000000000000
  0
POINT
  8
0
  6
CONTINUOUS
 62
3
 10
0.000000000000000
 20
0.000000000000000
  0
LINE
  8
0
  6
CONTINUOUS
 62
3
 10
-0.000027060931608
 20
-5.749995231614290
 11
-3.250020760774497
 21
-5.749981880178368
  0
LINE
  8
0
  6
CONTINUOUS
 62
3
 10
-3.250024308998832
 20
-5.749987011620533
 11
-4.000020133420207
 21
-4.899982163000686
  0
LINE
  8
0
  6
CONTINUOUS
 62
3
 10
-4.000014781949545
 20
-4.899978112209579
 11
-3.999973773958658
 21
4.900011588107803
  0
LINE
  8
0
  6
CONTINUOUS
 62
3
 10
-3.999972830514309
 20
4.900008662670757
 11
-3.249970339875063
 21
5.750006850331147
  0
LINE
  8
0
  6
CONTINUOUS
 62
3
 10
-3.249972343459831
 20
5.750005722029982
 11
0.000027906669402
 21
5.749993324257003
  0
LINE
  8
0
  6
CONTINUOUS
 62
3
 10
0.000023687533422
 20
5.749999046325684
 11
-0.000023687533422
 21
-5.749999046325684
  0
LINE
  8
0
  6
CONTINUOUS
 62
3
 10
-3.250009052584916
 20
-2.899986267083180
 11
-0.000013285950788
 21
-2.899999618524636
  0
LINE
  8
0
  6
CONTINUOUS
 62
3
 10
-3.249984168999890
 20
2.900012016287064
 11
0.000013133145058
 21
2.899999618522375
  0
ARC
  8
0
  6
CONTINUOUS
 62
3
 10
-2.270017623901367
 20
-4.324990272521973
 40
1.729999542236328
 50
124.499759285265280
 51
179.999745461767870
  0
ARC
  8
0
  6
CONTINUOUS
 62
3
 10
-2.269982337951660
 20
4.325008392333984
 40
1.729999542236328
 50
179.999745461767870
 51
235.499786279783790
  0
ARC
  8
0
  6
CONTINUOUS
 62
3
 10
1.981662750244141
 20
-0.000008163610801
 40
5.981661796569824
 50
150.999363302540700
 51
209.000072979481700
  0
ENDBLK
  8
0
  0
BLOCK
  8
0
  2
SYM9
 70
64
 10
0.000000000000000
 20
0.000000000000000
  0
POINT
  8
0
  6
CONTINUOUS
 62
3
 10
0.000000000000000
 20
0.000000000000000
  0
LINE
  8
0
  6
CONTINUOUS
 62
3
 10
-0.000027060931608
 20
-5.749995231614290
 11
-3.250020760774497
 21
-5.749981880178368
  0
LINE
  8
0
  6
CONTINUOUS
 62
3
 10
-3.250024308998832
 20
-5.749987011620533
 11
-4.000020133420207
 21
-4.899982163000686
  0
LINE
  8
0
  6
CONTINUOUS
 62
3
 10
-4.000014781949545
 20
-4.899978112209579
 11
-3.999973773958658
 21
4.900011588107803
  0
LINE
  8
0
  6
CONTINUOUS
 62
3
 10
-3.999972830514309
 20
4.900008662670757
 11
-3.249970339875063
 21
5.750006850331147
  0
LINE
  8
0
  6
CONTINUOUS
 62
3
 10
-3.249972343459831
 20
5.750005722029982
 11
0.000027906669402
 21
5.749993324257003
  0
LINE
  8
0
  6
CONTINUOUS
 62
3
 10
0.000023687533422
 20
5.749999046325684
 11
-0.000023687533422
 21
-5.749999046325684
  0
LINE
  8
0
  6
CONTINUOUS
 62
3
 10
-3.250009052584916
 20
-2.899986267083180
 11
-0.000013285950788
 21
-2.899999618524636
  0
LINE
  8
0
  6
CONTINUOUS
 62
3
 10
-3.249984168999890
 20
2.900012016287064
 11
0.000013133145058
 21
2.899999618522375
  0
ARC
  8
0
  6
CONTINUOUS
 62
3
 10
-2.270017623901367
 20
-4.324990272521973
 40
1.729999542236328
 50
124.499759285265280
 51
179.999745461767870
  0
ARC
  8
0
  6
CONTINUOUS
 62
3
 10
-2.269982337951660
 20
4.325008392333984
 40
1.729999542236328
 50
179.999745461767870
 51
235.499786279783790
  0
ARC
  8
0
  6
CONTINUOUS
 62
3
 10
1.981662750244141
 20
-0.000008163610801
 40
5.981661796569824
 50
150.999363302540700
 51
209.000072979481700
  0
ENDBLK
  8
0
  0
BLOCK
  8
0
  2
SYM10
 70
64
 10
0.000000000000000
 20
0.000000000000000
  0
POINT
  8
0
  6
CONTINUOUS
 62
3
 10
0.000000000000000
 20
0.000000000000000
  0
LINE
  8
0
  6
CONTINUOUS
 62
3
 10
0.000000000000000
 20
-6.500000000000000
 11
-0.000000000000000
 21
6.500000000000000
  0
LINE
  8
0
  6
CONTINUOUS
 62
3
 10
-7.999999046325684
 20
5.633875846862793
 11
-7.999999046325684
 21
-5.634070396423340
  0
LINE
  8
0
  6
CONTINUOUS
 62
3
 10
0.000000000000000
 20
6.500000000000000
 11
-7.499999046325684
 21
6.500000000000000
  0
LINE
  8
0
  6
CONTINUOUS
 62
3
 10
-0.000000000000000
 20
-6.500000000000000
 11
-7.499998092651367
 21
-6.500000000000000
  0
LINE
  8
0
  6
CONTINUOUS
 62
3
 10
-7.499999203818277
 20
6.499999909101064
 11
-7.999999021366804
 21
5.633876130311293
  0
LINE
  8
0
  6
CONTINUOUS
 62
3
 10
-7.499997911632022
 20
-6.499999445138201
 11
-7.999998623386432
 21
-5.634070287011241
  0
LINE
  8
0
  6
CONTINUOUS
 62
3
 10
-7.499999046325684
 20
6.500000000000000
 11
-7.499999046325684
 21
-6.500000000000000
  0
ENDBLK
  8
0
  0
BLOCK
  8
0
  2
SYM11
 70
64
 10
0.000000000000000
 20
0.000000000000000
  0
POINT
  8
0
  6
CONTINUOUS
 62
3
 10
0.000000000000000
 20
0.000000000000000
  0
LINE
  8
0
  6
CONTINUOUS
 62
3
 10
0.000000000000000
 20
-6.500000000000000
 11
-0.000000000000000
 21
6.500000000000000
  0
LINE
  8
0
  6
CONTINUOUS
 62
3
 10
-7.999999046325684
 20
5.633875846862793
 11
-7.999999046325684
 21
-5.634070396423340
  0
LINE
  8
0
  6
CONTINUOUS
 62
3
 10
0.000000000000000
 20
6.500000000000000
 11
-7.499999046325684
 21
6.500000000000000
  0
LINE
  8
0
  6
CONTINUOUS
 62
3
 10
-0.000000000000000
 20
-6.500000000000000
 11
-7.499998092651367
 21
-6.500000000000000
  0
LINE
  8
0
  6
CONTINUOUS
 62
3
 10
-7.499999203818277
 20
6.499999909101064
 11
-7.999999021366804
 21
5.633876130311293
  0
LINE
  8
0
  6
CONTINUOUS
 62
3
 10
-7.499997911632022
 20
-6.499999445138201
 11
-7.999998623386432
 21
-5.634070287011241
  0
LINE
  8
0
  6
CONTINUOUS
 62
3
 10
-7.499999046325684
 20
6.500000000000000
 11
-7.499999046325684
 21
-6.500000000000000
  0
ENDBLK
  8
0
  0
BLOCK
  8
0
  2
SYM12
 70
64
 10
0.000000000000000
 20
0.000000000000000
  0
POINT
  8
0
  6
CONTINUOUS
 62
3
 10
0.000000000000000
 20
0.000000000000000
  0
LINE
  8
0
  6
CONTINUOUS
 62
3
 10
-0.000027060931608
 20
-5.749995231614290
 11
-3.250020760774497
 21
-5.749981880178368
  0
LINE
  8
0
  6
CONTINUOUS
 62
3
 10
-3.250024308998832
 20
-5.749987011620533
 11
-4.000020133420207
 21
-4.899982163000686
  0
LINE
  8
0
  6
CONTINUOUS
 62
3
 10
-4.000014781949545
 20
-4.899978112209579
 11
-3.999973773958658
 21
4.900011588107803
  0
LINE
  8
0
  6
CONTINUOUS
 62
3
 10
-3.999972830514309
 20
4.900008662670757
 11
-3.249970339875063
 21
5.750006850331147
  0
LINE
  8
0
  6
CONTINUOUS
 62
3
 10
-3.249972343459831
 20
5.750005722029982
 11
0.000027906669402
 21
5.749993324257003
  0
LINE
  8
0
  6
CONTINUOUS
 62
3
 10
0.000023687533422
 20
5.749999046325684
 11
-0.000023687533422
 21
-5.749999046325684
  0
LINE
  8
0
  6
CONTINUOUS
 62
3
 10
-3.250009052584916
 20
-2.899986267083180
 11
-0.000013285950788
 21
-2.899999618524636
  0
LINE
  8
0
  6
CONTINUOUS
 62
3
 10
-3.249984168999890
 20
2.900012016287064
 11
0.000013133145058
 21
2.899999618522375
  0
ARC
  8
0
  6
CONTINUOUS
 62
3
 10
-2.270017623901367
 20
-4.324990272521973
 40
1.729999542236328
 50
124.499759285265280
 51
179.999745461767870
  0
ARC
  8
0
  6
CONTINUOUS
 62
3
 10
-2.269982337951660
 20
4.325008392333984
 40
1.729999542236328
 50
179.999745461767870
 51
235.499786279783790
  0
ARC
  8
0
  6
CONTINUOUS
 62
3
 10
1.981662750244141
 20
-0.000008163610801
 40
5.981661796569824
 50
150.999363302540700
 51
209.000072979481700
  0
ENDBLK
  8
0
  0
BLOCK
  8
0
  2
SYM13
 70
64
 10
0.000000000000000
 20
0.000000000000000
  0
POINT
  8
0
  6
CONTINUOUS
 62
3
 10
0.000000000000000
 20
0.000000000000000
  0
LINE
  8
0
  6
CONTINUOUS
 62
3
 10
0.000000000000000
 20
-6.500000000000000
 11
-0.000000000000000
 21
6.500000000000000
  0
LINE
  8
0
  6
CONTINUOUS
 62
3
 10
-7.999999046325684
 20
5.633875846862793
 11
-7.999999046325684
 21
-5.634070396423340
  0
LINE
  8
0
  6
CONTINUOUS
 62
3
 10
0.000000000000000
 20
6.500000000000000
 11
-7.499999046325684
 21
6.500000000000000
  0
LINE
  8
0
  6
CONTINUOUS
 62
3
 10
-0.000000000000000
 20
-6.500000000000000
 11
-7.499998092651367
 21
-6.500000000000000
  0
LINE
  8
0
  6
CONTINUOUS
 62
3
 10
-7.499999203818277
 20
6.499999909101064
 11
-7.999999021366804
 21
5.633876130311293
  0
LINE
  8
0
  6
CONTINUOUS
 62
3
 10
-7.499997911632022
 20
-6.499999445138201
 11
-7.999998623386432
 21
-5.634070287011241
  0
LINE
  8
0
  6
CONTINUOUS
 62
3
 10
-7.499999046325684
 20
6.500000000000000
 11
-7.499999046325684
 21
-6.500000000000000
  0
ENDBLK
  8
0
  0
BLOCK
  8
0
  2
SYM14
 70
64
 10
0.000000000000000
 20
0.000000000000000
  0
POINT
  8
0
  6
CONTINUOUS
 62
3
 10
0.000000000000000
 20
0.000000000000000
  0
LINE
  8
0
  6
CONTINUOUS
 62
3
 10
0.000000000000000
 20
-6.500000000000000
 11
-0.000000000000000
 21
6.500000000000000
  0
LINE
  8
0
  6
CONTINUOUS
 62
3
 10
-7.999999046325684
 20
5.633875846862793
 11
-7.999999046325684
 21
-5.634070396423340
  0
LINE
  8
0
  6
CONTINUOUS
 62
3
 10
0.000000000000000
 20
6.500000000000000
 11
-7.499999046325684
 21
6.500000000000000
  0
LINE
  8
0
  6
CONTINUOUS
 62
3
 10
-0.000000000000000
 20
-6.500000000000000
 11
-7.499998092651367
 21
-6.500000000000000
  0
LINE
  8
0
  6
CONTINUOUS
 62
3
 10
-7.499999203818277
 20
6.499999909101064
 11
-7.999999021366804
 21
5.633876130311293
  0
LINE
  8
0
  6
CONTINUOUS
 62
3
 10
-7.499997911632022
 20
-6.499999445138201
 11
-7.999998623386432
 21
-5.634070287011241
  0
LINE
  8
0
  6
CONTINUOUS
 62
3
 10
-7.499999046325684
 20
6.500000000000000
 11
-7.499999046325684
 21
-6.500000000000000
  0
ENDBLK
  8
0
  0
BLOCK
  8
0
  2
SYM15
 70
64
 10
0.000000000000000
 20
0.000000000000000
  0
ARC
  8
0
  6
CONTINUOUS
 62
3
 10
6.399999618530273
 20
0.000000000000000
 40
9.000000000000000
 50
163.398451589674950
 51
196.601531107481040
  0
POINT
  8
0
  6
CONTINUOUS
 62
3
 10
0.000000000000000
 20
0.000000000000000
  0
LINE
  8
0
  6
CONTINUOUS
 62
3
 10
0.000000000000000
 20
-3.500000000000000
 11
-0.000000000000000
 21
3.500000000000000
  0
LINE
  8
0
  6
CONTINUOUS
 62
3
 10
0.000000000000000
 20
-3.500000000000000
 11
-0.000000000000000
 21
3.500000000000000
  0
LINE
  8
0
  6
CONTINUOUS
 62
3
 10
0.000000000000000
 20
3.500000000000000
 11
-0.979025304317474
 21
3.500000000000000
  0
LINE
  8
0
  6
CONTINUOUS
 62
3
 10
-0.000000000000000
 20
-3.500000000000000
 11
-0.979025304317474
 21
-3.500000000000000
  0
ARC
  8
0
  6
CONTINUOUS
 62
3
 10
-0.979025304317474
 20
2.200000762939453
 40
1.299999237060547
 50
90.000000000000000
 51
163.398451589674950
  0
ARC
  8
0
  6
CONTINUOUS
 62
3
 10
-0.979025304317474
 20
-2.200000762939453
 40
1.299999237060547
 50
196.601531107481040
 51
270.000000000000000
  0
ENDBLK
  8
0
  0
BLOCK
  8
0
  2
SYM16
 70
64
 10
0.000000000000000
 20
0.000000000000000
  0
CIRCLE
  8
0
  6
CONTINUOUS
 62
3
 10
0.000000000000000
 20
0.000000000000000
 40
5.000000000000000
  0
LINE
  8
0
  6
CONTINUOUS
 62
3
 10
4.989816965891634
 20
-2.892629271321994
 11
0.010171343047148
 21
-5.767622431692701
  0
LINE
  8
0
  6
CONTINUOUS
 62
3
 10
4.979648434603448
 20
2.874994693650046
 11
4.989821279270270
 21
-2.892629961559101
  0
LINE
  8
0
  6
CONTINUOUS
 62
3
 10
-0.010171198458579
 20
5.767622839547471
 11
4.979645433681753
 21
2.874994469174567
  0
LINE
  8
0
  6
CONTINUOUS
 62
3
 10
-4.989816965891634
 20
2.892629271321994
 11
-0.010171343047148
 21
5.767622431692701
  0
LINE
  8
0
  6
CONTINUOUS
 62
3
 10
-4.979648434603448
 20
-2.874994693650046
 11
-4.989821279270270
 21
2.892629961559101
  0
LINE
  8
0
  6
CONTINUOUS
 62
3
 10
0.010171198458579
 20
-5.767622839547471
 11
-4.979645433681753
 21
-2.874994469174567
  0
POINT
  8
0
  6
CONTINUOUS
 62
3
 10
0.000000000000000
 20
0.000000000000000
  0
ENDBLK
  8
0
  0
BLOCK
  8
0
  2
SYM17
 70
64
 10
0.000000000000000
 20
0.000000000000000
  0
CIRCLE
  8
0
  6
CONTINUOUS
 62
3
 10
0.000000000000000
 20
0.000000000000000
 40
5.633955001831055
  0
CIRCLE
  8
0
  6
CONTINUOUS
 62
3
 10
0.000000000000000
 20
0.000000000000000
 40
6.500000000000000
  0
POINT
  8
0
  6
CONTINUOUS
 62
3
 10
0.000000000000000
 20
0.000000000000000
  0
LINE
  8
0
  6
CONTINUOUS
 62
3
 10
-2.999996662140960
 20
-1.732045999551255
 11
-2.999997615815242
 21
1.732051977133316
  0
LINE
  8
0
  6
CONTINUOUS
 62
3
 10
2.999996662140697
 20
1.732046953225571
 11
2.999997615814979
 21
-1.732051023458999
  0
LINE
  8
0
  6
CONTINUOUS
 62
3
 10
0.000006701720849
 20
3.464096999935236
 11
-2.999997939551520
 21
1.732051821705568
  0
LINE
  8
0
  6
CONTINUOUS
 62
3
 10
2.999998112093635
 20
-1.732051392778772
 11
-0.000004464412200
 21
-3.464098365415111
  0
LINE
  8
0
  6
CONTINUOUS
 62
3
 10
0.000006618601731
 20
3.464096896385627
 11
2.999997425948948
 21
1.732046782136365
  0
LINE
  8
0
  6
CONTINUOUS
 62
3
 10
-0.000004704988612
 20
-3.464098175748802
 11
-2.999997577100373
 21
-1.732046218032735
  0
POINT
  8
0
  6
CONTINUOUS
 62
3
 10
0.500000119209290
 20
6.500000000000000
  0
POINT
  8
0
  6
CONTINUOUS
 62
3
 10
0.000000000000000
 20
5.633955001831055
  0
ENDBLK
  8
0
  0
BLOCK
  8
0
  2
SYM18
 70
64
 10
0.000000000000000
 20
0.000000000000000
  0
CIRCLE
  8
0
  6
CONTINUOUS
 62
3
 10
0.000000000000000
 20
0.000000000000000
 40
5.633955001831055
  0
CIRCLE
  8
0
  6
CONTINUOUS
 62
3
 10
0.000000000000000
 20
0.000000000000000
 40
6.500000000000000
  0
POINT
  8
0
  6
CONTINUOUS
 62
3
 10
0.000000000000000
 20
0.000000000000000
  0
LINE
  8
0
  6
CONTINUOUS
 62
3
 10
-2.999996662140960
 20
-1.732045999551255
 11
-2.999997615815242
 21
1.732051977133316
  0
LINE
  8
0
  6
CONTINUOUS
 62
3
 10
2.999996662140697
 20
1.732046953225571
 11
2.999997615814979
 21
-1.732051023458999
  0
LINE
  8
0
  6
CONTINUOUS
 62
3
 10
0.000006701720849
 20
3.464096999935236
 11
-2.999997939551520
 21
1.732051821705568
  0
LINE
  8
0
  6
CONTINUOUS
 62
3
 10
2.999998112093635
 20
-1.732051392778772
 11
-0.000004464412200
 21
-3.464098365415111
  0
LINE
  8
0
  6
CONTINUOUS
 62
3
 10
0.000006618601731
 20
3.464096896385627
 11
2.999997425948948
 21
1.732046782136365
  0
LINE
  8
0
  6
CONTINUOUS
 62
3
 10
-0.000004704988612
 20
-3.464098175748802
 11
-2.999997577100373
 21
-1.732046218032735
  0
POINT
  8
0
  6
CONTINUOUS
 62
3
 10
0.500000119209290
 20
6.500000000000000
  0
POINT
  8
0
  6
CONTINUOUS
 62
3
 10
0.000000000000000
 20
5.633955001831055
  0
ENDBLK
  8
0
  0
BLOCK
  8
0
  2
SYM19
 70
64
 10
0.000000000000000
 20
0.000000000000000
  0
CIRCLE
  8
0
  6
CONTINUOUS
 62
3
 10
0.000000000000000
 20
0.000000000000000
 40
5.633955001831055
  0
CIRCLE
  8
0
  6
CONTINUOUS
 62
3
 10
0.000000000000000
 20
0.000000000000000
 40
6.500000000000000
  0
POINT
  8
0
  6
CONTINUOUS
 62
3
 10
0.000000000000000
 20
0.000000000000000
  0
LINE
  8
0
  6
CONTINUOUS
 62
3
 10
-2.999996662140960
 20
-1.732045999551255
 11
-2.999997615815242
 21
1.732051977133316
  0
LINE
  8
0
  6
CONTINUOUS
 62
3
 10
2.999996662140697
 20
1.732046953225571
 11
2.999997615814979
 21
-1.732051023458999
  0
LINE
  8
0
  6
CONTINUOUS
 62
3
 10
0.000006701720849
 20
3.464096999935236
 11
-2.999997939551520
 21
1.732051821705568
  0
LINE
  8
0
  6
CONTINUOUS
 62
3
 10
2.999998112093635
 20
-1.732051392778772
 11
-0.000004464412200
 21
-3.464098365415111
  0
LINE
  8
0
  6
CONTINUOUS
 62
3
 10
0.000006618601731
 20
3.464096896385627
 11
2.999997425948948
 21
1.732046782136365
  0
LINE
  8
0
  6
CONTINUOUS
 62
3
 10
-0.000004704988612
 20
-3.464098175748802
 11
-2.999997577100373
 21
-1.732046218032735
  0
POINT
  8
0
  6
CONTINUOUS
 62
3
 10
0.500000119209290
 20
6.500000000000000
  0
POINT
  8
0
  6
CONTINUOUS
 62
3
 10
0.000000000000000
 20
5.633955001831055
  0
ENDBLK
  8
0
  0
BLOCK
  8
0
  2
SYM20
 70
64
 10
0.000000000000000
 20
0.000000000000000
  0
CIRCLE
  8
0
  6
CONTINUOUS
 62
3
 10
0.000000000000000
 20
0.000000000000000
 40
5.633955001831055
  0
CIRCLE
  8
0
  6
CONTINUOUS
 62
3
 10
0.000000000000000
 20
0.000000000000000
 40
6.500000000000000
  0
POINT
  8
0
  6
CONTINUOUS
 62
3
 10
0.000000000000000
 20
0.000000000000000
  0
LINE
  8
0
  6
CONTINUOUS
 62
3
 10
-2.999996662140960
 20
-1.732045999551255
 11
-2.999997615815242
 21
1.732051977133316
  0
LINE
  8
0
  6
CONTINUOUS
 62
3
 10
2.999996662140697
 20
1.732046953225571
 11
2.999997615814979
 21
-1.732051023458999
  0
LINE
  8
0
  6
CONTINUOUS
 62
3
 10
0.000006701720849
 20
3.464096999935236
 11
-2.999997939551520
 21
1.732051821705568
  0
LINE
  8
0
  6
CONTINUOUS
 62
3
 10
2.999998112093635
 20
-1.732051392778772
 11
-0.000004464412200
 21
-3.464098365415111
  0
LINE
  8
0
  6
CONTINUOUS
 62
3
 10
0.000006618601731
 20
3.464096896385627
 11
2.999997425948948
 21
1.732046782136365
  0
LINE
  8
0
  6
CONTINUOUS
 62
3
 10
-0.000004704988612
 20
-3.464098175748802
 11
-2.999997577100373
 21
-1.732046218032735
  0
POINT
  8
0
  6
CONTINUOUS
 62
3
 10
0.500000119209290
 20
6.500000000000000
  0
POINT
  8
0
  6
CONTINUOUS
 62
3
 10
0.000000000000000
 20
5.633955001831055
  0
ENDBLK
  8
0
  0
BLOCK
  8
0
  2
SYM21
 70
64
 10
0.000000000000000
 20
0.000000000000000
  0
CIRCLE
  8
0
  6
CONTINUOUS
 62
3
 10
0.000000000000000
 20
0.000000000000000
 40
5.633955001831055
  0
CIRCLE
  8
0
  6
CONTINUOUS
 62
3
 10
0.000000000000000
 20
0.000000000000000
 40
6.500000000000000
  0
POINT
  8
0
  6
CONTINUOUS
 62
3
 10
0.000000000000000
 20
0.000000000000000
  0
LINE
  8
0
  6
CONTINUOUS
 62
3
 10
-2.999996662140960
 20
-1.732045999551255
 11
-2.999997615815242
 21
1.732051977133316
  0
LINE
  8
0
  6
CONTINUOUS
 62
3
 10
2.999996662140697
 20
1.732046953225571
 11
2.999997615814979
 21
-1.732051023458999
  0
LINE
  8
0
  6
CONTINUOUS
 62
3
 10
0.000006701720849
 20
3.464096999935236
 11
-2.999997939551520
 21
1.732051821705568
  0
LINE
  8
0
  6
CONTINUOUS
 62
3
 10
2.999998112093635
 20
-1.732051392778772
 11
-0.000004464412200
 21
-3.464098365415111
  0
LINE
  8
0
  6
CONTINUOUS
 62
3
 10
0.000006618601731
 20
3.464096896385627
 11
2.999997425948948
 21
1.732046782136365
  0
LINE
  8
0
  6
CONTINUOUS
 62
3
 10
-0.000004704988612
 20
-3.464098175748802
 11
-2.999997577100373
 21
-1.732046218032735
  0
POINT
  8
0
  6
CONTINUOUS
 62
3
 10
0.500000119209290
 20
6.500000000000000
  0
POINT
  8
0
  6
CONTINUOUS
 62
3
 10
0.000000000000000
 20
5.633955001831055
  0
ENDBLK
  8
0
  0
BLOCK
  8
0
  2
SYM22
 70
64
 10
0.000000000000000
 20
0.000000000000000
  0
CIRCLE
  8
0
  6
CONTINUOUS
 62
3
 10
0.000000000000000
 20
0.000000000000000
 40
5.633955001831055
  0
CIRCLE
  8
0
  6
CONTINUOUS
 62
3
 10
0.000000000000000
 20
0.000000000000000
 40
6.500000000000000
  0
POINT
  8
0
  6
CONTINUOUS
 62
3
 10
0.000000000000000
 20
0.000000000000000
  0
LINE
  8
0
  6
CONTINUOUS
 62
3
 10
-2.999996662140960
 20
-1.732045999551255
 11
-2.999997615815242
 21
1.732051977133316
  0
LINE
  8
0
  6
CONTINUOUS
 62
3
 10
2.999996662140697
 20
1.732046953225571
 11
2.999997615814979
 21
-1.732051023458999
  0
LINE
  8
0
  6
CONTINUOUS
 62
3
 10
0.000006701720849
 20
3.464096999935236
 11
-2.999997939551520
 21
1.732051821705568
  0
LINE
  8
0
  6
CONTINUOUS
 62
3
 10
2.999998112093635
 20
-1.732051392778772
 11
-0.000004464412200
 21
-3.464098365415111
  0
LINE
  8
0
  6
CONTINUOUS
 62
3
 10
0.000006618601731
 20
3.464096896385627
 11
2.999997425948948
 21
1.732046782136365
  0
LINE
  8
0
  6
CONTINUOUS
 62
3
 10
-0.000004704988612
 20
-3.464098175748802
 11
-2.999997577100373
 21
-1.732046218032735
  0
POINT
  8
0
  6
CONTINUOUS
 62
3
 10
0.500000119209290
 20
6.500000000000000
  0
POINT
  8
0
  6
CONTINUOUS
 62
3
 10
0.000000000000000
 20
5.633955001831055
  0
ENDBLK
  8
0
  0
BLOCK
  8
0
  2
SYM23
 70
64
 10
0.000000000000000
 20
0.000000000000000
  0
CIRCLE
  8
0
  6
CONTINUOUS
 62
3
 10
0.000000000000000
 20
0.000000000000000
 40
5.633955001831055
  0
CIRCLE
  8
0
  6
CONTINUOUS
 62
3
 10
0.000000000000000
 20
0.000000000000000
 40
6.500000000000000
  0
POINT
  8
0
  6
CONTINUOUS
 62
3
 10
0.000000000000000
 20
0.000000000000000
  0
LINE
  8
0
  6
CONTINUOUS
 62
3
 10
-2.999996662140960
 20
-1.732045999551255
 11
-2.999997615815242
 21
1.732051977133316
  0
LINE
  8
0
  6
CONTINUOUS
 62
3
 10
2.999996662140697
 20
1.732046953225571
 11
2.999997615814979
 21
-1.732051023458999
  0
LINE
  8
0
  6
CONTINUOUS
 62
3
 10
0.000006701720849
 20
3.464096999935236
 11
-2.999997939551520
 21
1.732051821705568
  0
LINE
  8
0
  6
CONTINUOUS
 62
3
 10
2.999998112093635
 20
-1.732051392778772
 11
-0.000004464412200
 21
-3.464098365415111
  0
LINE
  8
0
  6
CONTINUOUS
 62
3
 10
0.000006618601731
 20
3.464096896385627
 11
2.999997425948948
 21
1.732046782136365
  0
LINE
  8
0
  6
CONTINUOUS
 62
3
 10
-0.000004704988612
 20
-3.464098175748802
 11
-2.999997577100373
 21
-1.732046218032735
  0
POINT
  8
0
  6
CONTINUOUS
 62
3
 10
0.500000119209290
 20
6.500000000000000
  0
POINT
  8
0
  6
CONTINUOUS
 62
3
 10
0.000000000000000
 20
5.633955001831055
  0
ENDBLK
  8
0
  0
BLOCK
  8
0
  2
SYM24
 70
64
 10
0.000000000000000
 20
0.000000000000000
  0
CIRCLE
  8
0
  6
CONTINUOUS
 62
3
 10
0.000000000000000
 20
0.000000000000000
 40
5.633955001831055
  0
CIRCLE
  8
0
  6
CONTINUOUS
 62
3
 10
0.000000000000000
 20
0.000000000000000
 40
6.500000000000000
  0
POINT
  8
0
  6
CONTINUOUS
 62
3
 10
0.000000000000000
 20
0.000000000000000
  0
LINE
  8
0
  6
CONTINUOUS
 62
3
 10
-2.999996662140960
 20
-1.732045999551255
 11
-2.999997615815242
 21
1.732051977133316
  0
LINE
  8
0
  6
CONTINUOUS
 62
3
 10
2.999996662140697
 20
1.732046953225571
 11
2.999997615814979
 21
-1.732051023458999
  0
LINE
  8
0
  6
CONTINUOUS
 62
3
 10
0.000006701720849
 20
3.464096999935236
 11
-2.999997939551520
 21
1.732051821705568
  0
LINE
  8
0
  6
CONTINUOUS
 62
3
 10
2.999998112093635
 20
-1.732051392778772
 11
-0.000004464412200
 21
-3.464098365415111
  0
LINE
  8
0
  6
CONTINUOUS
 62
3
 10
0.000006618601731
 20
3.464096896385627
 11
2.999997425948948
 21
1.732046782136365
  0
LINE
  8
0
  6
CONTINUOUS
 62
3
 10
-0.000004704988612
 20
-3.464098175748802
 11
-2.999997577100373
 21
-1.732046218032735
  0
POINT
  8
0
  6
CONTINUOUS
 62
3
 10
0.500000119209290
 20
6.500000000000000
  0
POINT
  8
0
  6
CONTINUOUS
 62
3
 10
0.000000000000000
 20
5.633955001831055
  0
ENDBLK
  8
0
  0
BLOCK
  8
0
  2
SYM25
 70
64
 10
0.000000000000000
 20
0.000000000000000
  0
CIRCLE
  8
0
  6
CONTINUOUS
 62
3
 10
0.000000000000000
 20
0.000000000000000
 40
5.633955001831055
  0
CIRCLE
  8
0
  6
CONTINUOUS
 62
3
 10
0.000000000000000
 20
0.000000000000000
 40
6.500000000000000
  0
POINT
  8
0
  6
CONTINUOUS
 62
3
 10
0.000000000000000
 20
0.000000000000000
  0
LINE
  8
0
  6
CONTINUOUS
 62
3
 10
-2.999996662140960
 20
-1.732045999551255
 11
-2.999997615815242
 21
1.732051977133316
  0
LINE
  8
0
  6
CONTINUOUS
 62
3
 10
2.999996662140697
 20
1.732046953225571
 11
2.999997615814979
 21
-1.732051023458999
  0
LINE
  8
0
  6
CONTINUOUS
 62
3
 10
0.000006701720849
 20
3.464096999935236
 11
-2.999997939551520
 21
1.732051821705568
  0
LINE
  8
0
  6
CONTINUOUS
 62
3
 10
2.999998112093635
 20
-1.732051392778772
 11
-0.000004464412200
 21
-3.464098365415111
  0
LINE
  8
0
  6
CONTINUOUS
 62
3
 10
0.000006618601731
 20
3.464096896385627
 11
2.999997425948948
 21
1.732046782136365
  0
LINE
  8
0
  6
CONTINUOUS
 62
3
 10
-0.000004704988612
 20
-3.464098175748802
 11
-2.999997577100373
 21
-1.732046218032735
  0
POINT
  8
0
  6
CONTINUOUS
 62
3
 10
0.500000119209290
 20
6.500000000000000
  0
POINT
  8
0
  6
CONTINUOUS
 62
3
 10
0.000000000000000
 20
5.633955001831055
  0
ENDBLK
  8
0
  0
BLOCK
  8
0
  2
SYM26
 70
64
 10
0.000000000000000
 20
0.000000000000000
  0
CIRCLE
  8
0
  6
CONTINUOUS
 62
3
 10
0.000000000000000
 20
0.000000000000000
 40
5.633955001831055
  0
CIRCLE
  8
0
  6
CONTINUOUS
 62
3
 10
0.000000000000000
 20
0.000000000000000
 40
6.500000000000000
  0
POINT
  8
0
  6
CONTINUOUS
 62
3
 10
0.000000000000000
 20
0.000000000000000
  0
LINE
  8
0
  6
CONTINUOUS
 62
3
 10
-2.999996662140960
 20
-1.732045999551255
 11
-2.999997615815242
 21
1.732051977133316
  0
LINE
  8
0
  6
CONTINUOUS
 62
3
 10
2.999996662140697
 20
1.732046953225571
 11
2.999997615814979
 21
-1.732051023458999
  0
LINE
  8
0
  6
CONTINUOUS
 62
3
 10
0.000006701720849
 20
3.464096999935236
 11
-2.999997939551520
 21
1.732051821705568
  0
LINE
  8
0
  6
CONTINUOUS
 62
3
 10
2.999998112093635
 20
-1.732051392778772
 11
-0.000004464412200
 21
-3.464098365415111
  0
LINE
  8
0
  6
CONTINUOUS
 62
3
 10
0.000006618601731
 20
3.464096896385627
 11
2.999997425948948
 21
1.732046782136365
  0
LINE
  8
0
  6
CONTINUOUS
 62
3
 10
-0.000004704988612
 20
-3.464098175748802
 11
-2.999997577100373
 21
-1.732046218032735
  0
POINT
  8
0
  6
CONTINUOUS
 62
3
 10
0.500000119209290
 20
6.500000000000000
  0
POINT
  8
0
  6
CONTINUOUS
 62
3
 10
0.000000000000000
 20
5.633955001831055
  0
ENDBLK
  8
0
  0
BLOCK
  8
0
  2
SYM27
 70
64
 10
0.000000000000000
 20
0.000000000000000
  0
CIRCLE
  8
0
  6
CONTINUOUS
 62
3
 10
0.000000000000000
 20
0.000000000000000
 40
5.633955001831055
  0
CIRCLE
  8
0
  6
CONTINUOUS
 62
3
 10
0.000000000000000
 20
0.000000000000000
 40
6.500000000000000
  0
POINT
  8
0
  6
CONTINUOUS
 62
3
 10
0.000000000000000
 20
0.000000000000000
  0
LINE
  8
0
  6
CONTINUOUS
 62
3
 10
-2.999996662140960
 20
-1.732045999551255
 11
-2.999997615815242
 21
1.732051977133316
  0
LINE
  8
0
  6
CONTINUOUS
 62
3
 10
2.999996662140697
 20
1.732046953225571
 11
2.999997615814979
 21
-1.732051023458999
  0
LINE
  8
0
  6
CONTINUOUS
 62
3
 10
0.000006701720849
 20
3.464096999935236
 11
-2.999997939551520
 21
1.732051821705568
  0
LINE
  8
0
  6
CONTINUOUS
 62
3
 10
2.999998112093635
 20
-1.732051392778772
 11
-0.000004464412200
 21
-3.464098365415111
  0
LINE
  8
0
  6
CONTINUOUS
 62
3
 10
0.000006618601731
 20
3.464096896385627
 11
2.999997425948948
 21
1.732046782136365
  0
LINE
  8
0
  6
CONTINUOUS
 62
3
 10
-0.000004704988612
 20
-3.464098175748802
 11
-2.999997577100373
 21
-1.732046218032735
  0
POINT
  8
0
  6
CONTINUOUS
 62
3
 10
0.500000119209290
 20
6.500000000000000
  0
POINT
  8
0
  6
CONTINUOUS
 62
3
 10
0.000000000000000
 20
5.633955001831055
  0
ENDBLK
  8
0
  0
BLOCK
  8
0
  2
SYM28
 70
64
 10
0.000000000000000
 20
0.000000000000000
  0
ARC
  8
0
  6
CONTINUOUS
 62
3
 10
-0.979025304317474
 20
-2.200000762939453
 40
1.299999237060547
 50
196.601531107481040
 51
270.000000000000000
  0
ARC
  8
0
  6
CONTINUOUS
 62
3
 10
-0.979025304317474
 20
2.200000762939453
 40
1.299999237060547
 50
90.000000000000000
 51
163.398451589674950
  0
LINE
  8
0
  6
CONTINUOUS
 62
3
 10
-0.000000000000000
 20
-3.500000000000000
 11
-0.979025304317474
 21
-3.500000000000000
  0
LINE
  8
0
  6
CONTINUOUS
 62
3
 10
0.000000000000000
 20
3.500000000000000
 11
-0.979025304317474
 21
3.500000000000000
  0
LINE
  8
0
  6
CONTINUOUS
 62
3
 10
0.000000000000000
 20
-3.500000000000000
 11
-0.000000000000000
 21
3.500000000000000
  0
LINE
  8
0
  6
CONTINUOUS
 62
3
 10
0.000000000000000
 20
-3.500000000000000
 11
-0.000000000000000
 21
3.500000000000000
  0
POINT
  8
0
  6
CONTINUOUS
 62
3
 10
0.000000000000000
 20
0.000000000000000
  0
ARC
  8
0
  6
CONTINUOUS
 62
3
 10
6.399999618530273
 20
0.000000000000000
 40
9.000000000000000
 50
163.398451589674950
 51
196.601531107481040
  0
ENDBLK
  8
0
  0
ENDSEC
  0
SECTION
  2
ENTITIES
  0
ARC
  8
0
  6
CONTINUOUS
 62
3
 10
-419.363614876765780
 20
-220.683392794641610
 40
6.099999427795406
 50
264.601927898108500
 51
5.398089404735109
  0
POINT
  8
0
  6
CONTINUOUS
 62
3
 10
-417.100873311838770
 20
-222.946134359568650
  0
LINE
  8
0
  6
CONTINUOUS
 62
3
 10
-413.777471575131930
 20
-219.622732622861780
 11
-420.424275048545610
 21
-226.269536096275520
  0
LINE
  8
0
  6
CONTINUOUS
 62
3
 10
-413.464332966163110
 20
-219.875279573712160
 11
-420.141432268636040
 21
-226.552378876185090
  0
LINE
  8
0
  6
CONTINUOUS
 62
3
 10
-420.424275048545610
 20
-226.269536096275520
 11
-419.937471656839990
 21
-226.756339487981110
  0
LINE
  8
0
  6
CONTINUOUS
 62
3
 10
-413.777471575131930
 20
-219.622732622861780
 11
-413.290668183426310
 21
-220.109536014567400
  0
ARC
  8
0
  6
CONTINUOUS
 62
3
 10
-518.217143156384850
 20
-220.683392794641610
 40
6.099999427795398
 50
174.601910595264880
 51
275.398072101890420
  0
POINT
  8
0
  6
CONTINUOUS
 62
3
 10
-520.479884721311920
 20
-222.946134359568650
  0
LINE
  8
0
  6
CONTINUOUS
 62
3
 10
-523.803286458018760
 20
-219.622732622861780
 11
-517.156482984605080
 21
-226.269536096275520
  0
LINE
  8
0
  6
CONTINUOUS
 62
3
 10
-524.116425066987520
 20
-219.875279573712160
 11
-517.439325764514590
 21
-226.552378876185090
  0
LINE
  8
0
  6
CONTINUOUS
 62
3
 10
-517.156482984605080
 20
-226.269536096275520
 11
-517.643286376310700
 21
-226.756339487981110
  0
LINE
  8
0
  6
CONTINUOUS
 62
3
 10
-523.803286458018760
 20
-219.622732622861780
 11
-524.290089849724380
 21
-220.109536014567400
  0
CIRCLE
  8
0
  6
CONTINUOUS
 62
3
 10
-523.591154558533390
 20
-256.557404196787390
 40
5.000000000000000
  0
LINE
  8
0
  6
CONTINUOUS
 62
3
 10
-518.601337592641810
 20
-259.450033468109380
 11
-523.580983215486190
 21
-262.325026628480090
  0
LINE
  8
0
  6
CONTINUOUS
 62
3
 10
-518.611506123929980
 20
-253.682409503137340
 11
-518.601333279263140
 21
-259.450034158346510
  0
LINE
  8
0
  6
CONTINUOUS
 62
3
 10
-523.601325756991970
 20
-250.789781357239920
 11
-518.611509124851640
 21
-253.682409727612820
  0
LINE
  8
0
  6
CONTINUOUS
 62
3
 10
-528.580971524424970
 20
-253.664774925465390
 11
-523.601325901580590
 21
-250.789781765094690
  0
LINE
  8
0
  6
CONTINUOUS
 62
3
 10
-528.570802993136790
 20
-259.432398890437410
 11
-528.580975837803630
 21
-253.664774235228290
  0
LINE
  8
0
  6
CONTINUOUS
 62
3
 10
-523.580983360074810
 20
-262.325027036334860
 11
-528.570799992215140
 21
-259.432398665961950
  0
POINT
  8
0
  6
CONTINUOUS
 62
3
 10
-523.591154558533390
 20
-256.557404196787390
  0
ARC
  8
0
  6
CONTINUOUS
 62
3
 10
-518.217143156384850
 20
-121.829864515022300
 40
6.099999427795408
 50
84.601927898109551
 51
185.398089404735120
  0
POINT
  8
0
  6
CONTINUOUS
 62
3
 10
-520.479884721311920
 20
-119.567122950095260
  0
LINE
  8
0
  6
CONTINUOUS
 62
3
 10
-523.803286458018760
 20
-122.890524686802120
 11
-517.156482984605080
 21
-116.243721213388410
  0
LINE
  8
0
  6
CONTINUOUS
 62
3
 10
-524.116425066987520
 20
-122.637977735951750
 11
-517.439325764514590
 21
-115.960878433478840
  0
LINE
  8
0
  6
CONTINUOUS
 62
3
 10
-517.156482984605080
 20
-116.243721213388410
 11
-517.643286376310700
 21
-115.756917821682790
  0
LINE
  8
0
  6
CONTINUOUS
 62
3
 10
-523.803286458018760
 20
-122.890524686802120
 11
-524.290089849724380
 21
-122.403721295096500
  0
ARC
  8
0
  6
CONTINUOUS
 62
3
 10
-419.363614876765780
 20
-121.829864515022300
 40
6.099999427795398
 50
354.601910595264880
 51
95.398072101891515
  0
POINT
  8
0
  6
CONTINUOUS
 62
3
 10
-417.100873311838770
 20
-119.567122950095260
  0
LINE
  8
0
  6
CONTINUOUS
 62
3
 10
-413.777471575131930
 20
-122.890524686802120
 11
-420.424275048545610
 21
-116.243721213388410
  0
LINE
  8
0
  6
CONTINUOUS
 62
3
 10
-413.464332966163110
 20
-122.637977735951750
 11
-420.141432268636040
 21
-115.960878433478840
  0
LINE
  8
0
  6
CONTINUOUS
 62
3
 10
-420.424275048545610
 20
-116.243721213388410
 11
-419.937471656839990
 21
-115.756917821682790
  0
LINE
  8
0
  6
CONTINUOUS
 62
3
 10
-413.777471575131930
 20
-122.890524686802120
 11
-413.290668183426310
 21
-122.403721295096500
  0
LINE
  8
0
  6
CONTINUOUS
 62
3
 10
34.010904207732807
 20
-279.066796814310180
 11
4.601641471011618
 21
-230.209473235563390
  0
ARC
  8
0
  6
CONTINUOUS
 62
3
 10
2.031367145452606
 20
-231.756628654831960
 40
2.999999999999986
 50
31.045490826863674
 51
90.000000000000000
  0
LINE
  8
0
  6
CONTINUOUS
 62
3
 10
5.503262024761767
 20
-228.756628654831900
 11
22.060240636932264
 21
-228.756628654831900
  0
LINE
  8
0
  6
CONTINUOUS
 62
3
 10
30.727127491177072
 20
-254.620714108202490
 11
24.954410174077708
 21
-233.076639783055160
  0
LINE
  8
0
  6
CONTINUOUS
 62
3
 10
0.727113665134453
 20
-231.197842585117880
 11
0.727113665134453
 21
-217.453651079098450
  0
LINE
  8
0
  6
CONTINUOUS
 62
3
 10
5.342170823259636
 20
-231.439707482039810
 11
-26.772886334869298
 21
-229.756628654832300
  0
LINE
  8
0
  6
CONTINUOUS
 62
3
 10
34.727113665134453
 20
-269.548865738984830
 11
32.786766479344493
 21
-262.307391457293310
  0
ARC
  8
0
  6
CONTINUOUS
 62
3
 10
29.727113665134340
 20
-281.645389179757730
 40
5.000000000000114
 50
0.000000000000000
 51
31.045490826862444
  0
ARC
  8
0
  6
CONTINUOUS
 62
3
 10
-671.290379016575340
 20
-171.256628654831960
 40
300.000000000000060
 50
353.967950853630210
 51
6.032049146369816
  0
ARC
  8
0
  6
CONTINUOUS
 62
3
 10
-377.923714243632960
 20
-202.256628654831840
 40
5.000000000000000
 50
270.000000000000000
 51
353.967950853629650
  0
LINE
  8
0
  6
CONTINUOUS
 62
3
 10
-406.484075507654780
 20
-207.256628654831840
 11
-377.923714243632960
 21
-207.256628654831840
  0
LINE
  8
0
  6
CONTINUOUS
 62
3
 10
-406.484075507654780
 20
-135.256628654831840
 11
-377.923714243632960
 21
-135.256628654831840
  0
ARC
  8
0
  6
CONTINUOUS
 62
3
 10
-377.923714243632960
 20
-140.256628654831840
 40
5.000000000000131
 50
6.032049146369048
 51
90.000000000000000
  0
LINE
  8
0
  6
CONTINUOUS
 62
3
 10
-371.300795864093060
 20
-173.756628654831840
 11
-370.790379016575340
 21
-173.756628654831840
  0
LINE
  8
0
  6
CONTINUOUS
 62
3
 10
-371.290380873773070
 20
-168.756628654831840
 11
-370.790379016575340
 21
-168.756628654831840
  0
LINE
  8
0
  6
CONTINUOUS
 62
3
 10
-370.790379016575340
 20
-173.756628654831840
 11
-370.790379016575340
 21
-168.756628654831840
  0
LINE
  8
0
  6
CONTINUOUS
 62
3
 10
-405.290379016575340
 20
-201.249127717098650
 11
-405.290379016575340
 21
-207.256628654831840
  0
LINE
  8
0
  6
CONTINUOUS
 62
3
 10
-405.290379016575340
 20
-141.264129592565040
 11
-405.290379016575340
 21
-135.256628654831840
  0
LINE
  8
0
  6
DASHDOT
 62
4
 10
446.720206580670490
 20
-171.828699242978470
 11
524.970117838038280
 21
-171.828699242978470
  0
LINE
  8
0
  6
DASHDOT
 62
4
 10
-162.572886334866780
 20
95.243371345168157
 11
-180.572886334866780
 21
95.243371345168157
  0
LINE
  8
0
  6
DASHDOT
 62
4
 10
-171.572886334866780
 20
86.243371345168157
 11
-171.572886334866780
 21
113.244970667717890
  0
LINE
  8
0
  6
DASHED
 62
4
 10
-178.572886334866780
 20
115.243371345168150
 11
-178.572886334866780
 21
95.243371345168157
  0
LINE
  8
0
  6
DASHED
 62
4
 10
-164.572886334866780
 20
115.243371345168150
 11
-164.572886334866780
 21
95.243371345168157
  0
ARC
  8
0
  6
DASHED
 62
4
 10
-171.572886334866780
 20
95.243371345168157
 40
7.000000000000000
 50
180.000000000000000
 51
0.000000000000000
  0
CIRCLE
  8
0
  6
DASHED
 62
4
 10
-171.572886334866780
 20
95.243371345168157
 40
6.000000000000000
  0
LINE
  8
0
  6
CONTINUOUS
 62
3
 10
223.227113665151510
 20
-313.619383754061230
 11
223.227113665151510
 21
-331.756628654832530
  0
LINE
  8
0
  6
CONTINUOUS
 62
3
 10
183.227113665151510
 20
-308.359797875162140
 11
80.727113665151506
 21
-304.780419002258780
  0
LINE
  8
0
  6
CONTINUOUS
 62
3
 10
219.366711651961770
 20
-309.621820445984550
 11
183.227113665151510
 21
-308.359797875162140
  0
LINE
  8
0
  6
DASHDOT
 62
4
 10
205.227113665151510
 20
-302.829667099352150
 11
205.227113665151510
 21
-340.167891128892620
  0
LINE
  8
0
  6
CONTINUOUS
 62
3
 10
221.227113665151510
 20
-161.756628654832530
 11
221.227113665151510
 21
-308.720404268494240
  0
LINE
  8
0
  6
CONTINUOUS
 62
3
 10
223.227113665151510
 20
-161.756628654832530
 11
223.227113665151510
 21
-205.756628654832530
  0
ARC
  8
0
  6
CONTINUOUS
 62
3
 10
222.227113665151510
 20
-116.756628654832520
 40
1.000000000000000
 50
180.000000000000000
 51
270.000000000000000
  0
LINE
  8
0
  6
CONTINUOUS
 62
3
 10
223.227113665151510
 20
-161.756628654832530
 11
223.227113665151510
 21
-117.756628654832520
  0
LINE
  8
0
  6
CONTINUOUS
 62
3
 10
221.227113665151510
 20
-161.756628654832530
 11
221.227113665151510
 21
-100.265027803259610
  0
ARC
  8
0
  6
CONTINUOUS
 62
3
 10
222.227113665151510
 20
-206.756628654832530
 40
1.000000000000000
 50
90.000000000000000
 51
180.000000000000000
  0
LINE
  8
0
  6
CONTINUOUS
 62
3
 10
77.727113665151506
 20
-161.756628654832530
 11
77.727113665151506
 21
-56.756628654832525
  0
LINE
  8
0
  6
DASHDOT
 62
4
 10
316.281296002176420
 20
-161.756628654832530
 11
166.146374252202720
 21
-161.756628654832530
  0
LINE
  8
0
  6
CONTINUOUS
 62
3
 10
77.727113665151506
 20
-161.756628654832530
 11
77.727113665151506
 21
-279.543700404707010
  0
ARC
  8
0
  6
CONTINUOUS
 62
3
 10
148.243659117982050
 20
-143.000447417957620
 40
84.999999999999844
 50
31.410339509413163
 51
88.999999999999758
  0
LINE
  8
0
  6
CONTINUOUS
 62
3
 10
149.727113665151510
 20
-58.013393329664609
 11
77.727113665151506
 21
-56.756628654832525
  0
ARC
  8
0
  6
CONTINUOUS
 62
3
 10
218.227113665151510
 20
-100.265027803259610
 40
3.000000000000000
 50
0.000000000000000
 51
31.410339509406533
  0
LINE
  8
0
  6
CONTINUOUS
 62
3
 10
213.805450945814210
 20
-169.588467364826900
 11
213.805450945814210
 21
-306.530550618360280
  0
LINE
  8
0
  6
CONTINUOUS
 62
3
 10
183.697284326680260
 20
-169.588467364826900
 11
183.697284326680260
 21
-305.479150272034420
  0
POLYLINE
  8
0
  6
CONTINUOUS
 62
3
 66
1
  0
VERTEX
  8
0
  6
CONTINUOUS
 62
3
 10
213.805450945814410
 20
-169.588467364826900
  0
VERTEX
  8
0
  6
CONTINUOUS
 62
3
 10
213.516190956234680
 20
-163.881526432351170
  0
VERTEX
  8
0
  6
CONTINUOUS
 62
3
 10
212.659527086676120
 20
-158.393900039421110
  0
VERTEX
  8
0
  6
CONTINUOUS
 62
3
 10
211.268380449223290
 20
-153.336474590820730
  0
VERTEX
  8
0
  6
CONTINUOUS
 62
3
 10
209.396212028989400
 20
-148.903604110302840
  0
VERTEX
  8
0
  6
CONTINUOUS
 62
3
 10
207.114968208439960
 20
-145.265641324451370
  0
VERTEX
  8
0
  6
CONTINUOUS
 62
3
 10
204.512315908262420
 20
-142.562391102933530
  0
VERTEX
  8
0
  6
CONTINUOUS
 62
3
 10
201.688273596768310
 20
-140.897737835762090
  0
VERTEX
  8
0
  6
CONTINUOUS
 62
3
 10
198.751367636247240
 20
-140.335653214446100
  0
VERTEX
  8
0
  6
CONTINUOUS
 62
3
 10
195.814461675726160
 20
-140.897737835762090
  0
VERTEX
  8
0
  6
CONTINUOUS
 62
3
 10
192.990419364232050
 20
-142.562391102933530
  0
VERTEX
  8
0
  6
CONTINUOUS
 62
3
 10
190.387767064054510
 20
-145.265641324451370
  0
VERTEX
  8
0
  6
CONTINUOUS
 62
3
 10
188.106523243505080
 20
-148.903604110302870
  0
VERTEX
  8
0
  6
CONTINUOUS
 62
3
 10
186.234354823271220
 20
-153.336474590820730
  0
VERTEX
  8
0
  6
CONTINUOUS
 62
3
 10
184.843208185818360
 20
-158.393900039421110
  0
VERTEX
  8
0
  6
CONTINUOUS
 62
3
 10
183.986544316259820
 20
-163.881526432351170
  0
VERTEX
  8
0
  6
CONTINUOUS
 62
3
 10
183.697284326680060
 20
-169.588467364826900
  0
SEQEND
  8
0
  6
CONTINUOUS
 62
3
  0
ARC
  8
0
  6
CONTINUOUS
 62
3
 10
219.227113665151510
 20
-313.619383754061230
 40
4.000000000000000
 50
0.000000000000000
 51
87.999999999996504
  0
ARC
  8
0
  6
CONTINUOUS
 62
3
 10
224.227113665151510
 20
-308.720404268494240
 40
3.000000000000000
 50
180.000000000000000
 51
224.415308597194890
  0
LINE
  8
0
  6
CONTINUOUS
 62
3
 10
80.727113665151506
 20
-221.791669120402620
 11
80.727113665151506
 21
-274.347648891630230
  0
LINE
  8
0
  6
CONTINUOUS
 62
3
 10
77.727113665151506
 20
-219.791669120402620
 11
78.727113665151506
 21
-219.791669120402620
  0
ARC
  8
0
  6
CONTINUOUS
 62
3
 10
78.727113665151506
 20
-221.791669120402620
 40
2.000000000000000
 50
0.000000000000000
 51
90.000000000000000
  0
ARC
  8
0
  6
CONTINUOUS
 62
3
 10
78.727113665151506
 20
-274.347648891630230
 40
1.999999999999625
 50
326.898306520914790
 51
0.000000000000000
  0
LINE
  8
0
  6
CONTINUOUS
 62
3
 10
222.227113665151510
 20
-117.756628654832520
 11
223.227113665151510
 21
-117.756628654832520
  0
LINE
  8
0
  6
CONTINUOUS
 62
3
 10
222.227113665151510
 20
-205.756628654832530
 11
223.227113665151510
 21
-205.756628654832530
  0
ARC
  8
0
  6
CONTINUOUS
 62
3
 10
216.805450945814210
 20
-306.530550618360280
 40
3.000000000000000
 50
180.000000000000000
 51
268.000000000005290
  0
ARC
  8
0
  6
CONTINUOUS
 62
3
 10
186.697284326680260
 20
-305.479150272034420
 40
3.000000000000000
 50
180.000000000000000
 51
267.999999999996080
  0
LINE
  8
0
  6
CONTINUOUS
 62
3
 10
77.227113665151506
 20
-201.756628654832530
 11
77.227113665151506
 21
-56.756628654832525
  0
LINE
  8
0
  6
CONTINUOUS
 62
3
 10
77.227113665151506
 20
-201.756628654832530
 11
77.227113665151506
 21
-280.310649304063990
  0
ARC
  8
0
  6
CONTINUOUS
 62
3
 10
299.827113665151840
 20
-138.156628654833070
 40
0.399999999999636
 50
0.000000000000000
 51
90.000000000000000
  0
LINE
  8
0
  6
CONTINUOUS
 62
3
 10
299.827113665151840
 20
-137.756628654832530
 11
227.786921286286910
 21
-137.756628654832530
  0
LINE
  8
0
  6
CONTINUOUS
 62
3
 10
300.227113665151480
 20
-161.756628654832530
 11
300.227113665151480
 21
-138.156628654833070
  0
ARC
  8
0
  6
CONTINUOUS
 62
3
 10
299.827113665151840
 20
-185.356628654831980
 40
0.400000000000546
 50
270.000000000000000
 51
0.000000000000000
  0
LINE
  8
0
  6
CONTINUOUS
 62
3
 10
300.227113665151480
 20
-161.756628654832530
 11
300.227113665151480
 21
-185.356628654831980
  0
LINE
  8
0
  6
CONTINUOUS
 62
3
 10
299.827113665151840
 20
-185.756628654832530
 11
227.786921286286910
 21
-185.756628654832530
  0
LINE
  8
0
  6
CONTINUOUS
 62
3
 10
225.227113665151510
 20
-186.556628654832710
 11
225.027113665151690
 21
-186.756628654832530
  0
ARC
  8
0
  6
CONTINUOUS
 62
3
 10
226.027113665151690
 20
-186.406628654833070
 40
0.800000000001091
 50
90.000000000000000
 51
180.000000000000000
  0
LINE
  8
0
  6
CONTINUOUS
 62
3
 10
225.227113665151510
 20
-186.406628654833070
 11
225.227113665151510
 21
-186.556628654832710
  0
LINE
  8
0
  6
CONTINUOUS
 62
3
 10
227.227113665151510
 20
-185.606628654831980
 11
226.027113665151690
 21
-185.606628654831980
  0
LINE
  8
0
  6
CONTINUOUS
 62
3
 10
227.227113665151510
 20
-185.606628654831980
 11
227.786921286286910
 21
-185.756628654832530
  0
LINE
  8
0
  6
CONTINUOUS
 62
3
 10
225.027113665151690
 20
-186.756628654832530
 11
223.227113665151510
 21
-186.756628654832530
  0
LINE
  8
0
  6
CONTINUOUS
 62
3
 10
225.227113665151510
 20
-161.756628654832530
 11
225.227113665151510
 21
-186.406628654833070
  0
LINE
  8
0
  6
CONTINUOUS
 62
3
 10
225.227113665151510
 20
-136.956628654832340
 11
225.027113665151690
 21
-136.756628654832530
  0
ARC
  8
0
  6
CONTINUOUS
 62
3
 10
226.027113665151690
 20
-137.106628654831980
 40
0.800000000000182
 50
180.000000000000000
 51
270.000000000000000
  0
LINE
  8
0
  6
CONTINUOUS
 62
3
 10
225.227113665151510
 20
-137.106628654831980
 11
225.227113665151510
 21
-136.956628654832340
  0
LINE
  8
0
  6
CONTINUOUS
 62
3
 10
227.227113665151510
 20
-137.906628654833070
 11
226.027113665151690
 21
-137.906628654833070
  0
LINE
  8
0
  6
CONTINUOUS
 62
3
 10
227.227113665151510
 20
-137.906628654833070
 11
227.786921286286910
 21
-137.756628654832530
  0
LINE
  8
0
  6
CONTINUOUS
 62
3
 10
225.027113665151690
 20
-136.756628654832530
 11
223.227113665151510
 21
-136.756628654832530
  0
LINE
  8
0
  6
CONTINUOUS
 62
3
 10
225.227113665151510
 20
-161.756628654832530
 11
225.227113665151510
 21
-137.106628654831980
  0
LINE
  8
0
  6
CONTINUOUS
 62
3
 10
300.227113665151020
 20
-154.787861206097550
 11
237.226706286009970
 21
-154.787861206097550
  0
LINE
  8
0
  6
CONTINUOUS
 62
3
 10
300.227113665151020
 20
-168.787861206097550
 11
237.226706286009970
 21
-168.787861206097550
  0
ARC
  8
0
  6
CONTINUOUS
 62
3
 10
237.226706286009970
 20
-161.787861206097550
 40
7.000000000000000
 50
90.000000000000000
 51
270.000000000000000
  0
ARC
  8
0
  6
CONTINUOUS
 62
3
 10
213.227113665151510
 20
46.070343976324580
 40
10.000000000000137
 50
271.000000000001760
 51
0.000000000000000
  0
ARC
  8
0
  6
CONTINUOUS
 62
3
 10
213.227113665151510
 20
311.416398714011730
 40
10.000000000000000
 50
0.000000000000000
 51
88.999999999998238
  0
LINE
  8
0
  6
CONTINUOUS
 62
3
 10
26.835705679051813
 20
321.619747725320740
 11
80.727113665151506
 21
323.730718097439310
  0
LINE
  8
0
  6
CONTINUOUS
 62
3
 10
213.401637729524650
 20
36.071867024760536
 11
80.727113665151506
 21
33.756024592897006
  0
LINE
  8
0
  6
CONTINUOUS
 62
3
 10
213.401637729524650
 20
321.414875665575780
 11
80.727113665151506
 21
323.730718097439310
  0
LINE
  8
0
  6
CONTINUOUS
 62
3
 10
77.727113665151506
 20
178.743371345168160
 11
77.727113665151506
 21
43.743371345167247
  0
LINE
  8
0
  6
CONTINUOUS
 62
3
 10
77.727113665151506
 20
178.743371345168160
 11
77.727113665151506
 21
313.743371345169070
  0
LINE
  8
0
  6
CONTINUOUS
 62
3
 10
221.227113665151510
 20
178.743371345168160
 11
221.227113665151510
 21
87.251770493595245
  0
LINE
  8
0
  6
CONTINUOUS
 62
3
 10
221.227113665151510
 20
178.743371345168160
 11
221.227113665151510
 21
270.234972196741070
  0
ARC
  8
0
  6
CONTINUOUS
 62
3
 10
222.227113665151510
 20
133.743371345168160
 40
1.000000000000000
 50
90.000000000000000
 51
180.000000000000000
  0
ARC
  8
0
  6
CONTINUOUS
 62
3
 10
222.227113665151510
 20
223.743371345168160
 40
1.000000000000000
 50
180.000000000000000
 51
270.000000000000000
  0
CIRCLE
  8
0
  6
CONTINUOUS
 62
3
 10
205.227113665151510
 20
53.743371345167247
 40
7.500000000000000
  0
CIRCLE
  8
0
  6
CONTINUOUS
 62
3
 10
205.227113665151510
 20
303.743371345169070
 40
7.500000000000000
  0
LINE
  8
0
  6
DASHDOT
 62
4
 10
218.800838796317210
 20
53.743371345167247
 11
192.547403853653040
 21
53.743371345167247
  0
LINE
  8
0
  6
DASHDOT
 62
4
 10
218.800838796317210
 20
303.743371345169070
 11
192.547403853653040
 21
303.743371345169070
  0
LINE
  8
0
  6
DASHDOT
 62
4
 10
205.227113665151510
 20
39.732886824558477
 11
205.227113665151510
 21
68.839956000110647
  0
LINE
  8
0
  6
DASHDOT
 62
4
 10
205.227113665151510
 20
317.753855865777840
 11
205.227113665151510
 21
288.646786690225670
  0
LINE
  8
0
  6
CONTINUOUS
 62
3
 10
223.227113665151510
 20
178.743371345168160
 11
223.227113665151510
 21
46.070343976324580
  0
LINE
  8
0
  6
CONTINUOUS
 62
3
 10
223.227113665151510
 20
178.743371345168160
 11
223.227113665151510
 21
311.416398714011730
  0
ARC
  8
0
  6
CONTINUOUS
 62
3
 10
218.227113665151510
 20
87.251770493595245
 40
3.000000000000031
 50
328.589660490578640
 51
0.000000000000000
  0
ARC
  8
0
  6
CONTINUOUS
 62
3
 10
218.227113665151510
 20
270.234972196741070
 40
3.000000000000000
 50
0.000000000000000
 51
31.410339509421355
  0
ARC
  8
0
  6
CONTINUOUS
 62
3
 10
148.243659117982050
 20
129.987190108292340
 40
84.999999999999801
 50
321.431062075717310
 51
328.589660490586820
  0
ARC
  8
0
  6
CONTINUOUS
 62
3
 10
148.243659117982050
 20
227.499552582043980
 40
84.999999999999844
 50
31.410339509413163
 51
38.568937924282686
  0
ARC
  8
0
  6
CONTINUOUS
 62
3
 10
205.674121324985120
 20
53.743371345167247
 40
22.000000000000302
 50
91.000000000001762
 51
177.852183309238170
  0
ARC
  8
0
  6
CONTINUOUS
 62
3
 10
205.674121324985120
 20
303.743371345169070
 40
21.999999999999797
 50
182.147816690761830
 51
268.999999999998240
  0
ARC
  8
0
  6
CONTINUOUS
 62
3
 10
212.356063073778300
 20
78.863813273336632
 40
2.999999999999579
 50
270.999999999993240
 51
321.431062075717930
  0
ARC
  8
0
  6
CONTINUOUS
 62
3
 10
212.356063073778300
 20
278.622929416999680
 40
2.999999999999281
 50
38.568937924282025
 51
89.000000000006764
  0
LINE
  8
0
  6
CONTINUOUS
 62
3
 10
205.290168383364200
 20
75.740020638608144
 11
212.408420293089790
 21
75.864270187867874
  0
LINE
  8
0
  6
CONTINUOUS
 62
3
 10
205.290168383364200
 20
281.746722051728170
 11
212.408420293089790
 21
281.622472502468440
  0
ARC
  8
0
  6
CONTINUOUS
 62
3
 10
180.691684713824460
 20
54.680313696297048
 40
2.999999999999306
 50
293.310114391449990
 51
357.852183309233620
  0
ARC
  8
0
  6
CONTINUOUS
 62
3
 10
180.691684713824460
 20
302.806428994039270
 40
3.000000000000230
 50
2.147816690766376
 51
66.689885608550057
  0
ARC
  8
0
  6
CONTINUOUS
 62
3
 10
148.243659117982050
 20
129.987190108292340
 40
84.999999999999758
 50
271.000000000000230
 51
293.310114391448960
  0
ARC
  8
0
  6
CONTINUOUS
 62
3
 10
148.243659117982050
 20
227.499552582043980
 40
84.999999999999162
 50
66.689885608551080
 51
88.999999999999758
  0
LINE
  8
0
  6
CONTINUOUS
 62
3
 10
149.727113665151510
 20
45.000136019999331
 11
77.727113665151506
 21
43.743371345167247
  0
LINE
  8
0
  6
CONTINUOUS
 62
3
 10
149.727113665151510
 20
312.486606670336980
 11
77.727113665151506
 21
313.743371345169070
  0
LINE
  8
0
  6
CONTINUOUS
 62
3
 10
222.227113665151510
 20
134.743371345168160
 11
223.227113665151510
 21
134.743371345168160
  0
LINE
  8
0
  6
CONTINUOUS
 62
3
 10
222.227113665151510
 20
222.743371345168160
 11
223.227113665151510
 21
222.743371345168160
  0
LINE
  8
0
  6
CONTINUOUS
 62
3
 10
77.227113665151506
 20
178.743371345168160
 11
77.227113665151279
 21
313.743371345168160
  0
LINE
  8
0
  6
CONTINUOUS
 62
3
 10
77.227113665151506
 20
178.743371345168160
 11
77.227113665151506
 21
43.743371345168157
  0
ARC
  8
0
  6
CONTINUOUS
 62
3
 10
299.827113665151840
 20
155.143371345168700
 40
0.400000000000546
 50
270.000000000000000
 51
0.000000000000000
  0
LINE
  8
0
  6
CONTINUOUS
 62
3
 10
299.827113665151840
 20
154.743371345168160
 11
227.786921286286910
 21
154.743371345168160
  0
LINE
  8
0
  6
CONTINUOUS
 62
3
 10
300.227113665151480
 20
178.743371345168160
 11
300.227113665151480
 21
151.243371345168160
  0
LINE
  8
0
  6
CONTINUOUS
 62
3
 10
300.227113665151480
 20
151.243371345168160
 11
230.227113665151510
 21
151.243371345168160
  0
ARC
  8
0
  6
CONTINUOUS
 62
3
 10
299.827113665151840
 20
202.343371345167610
 40
0.399999999999636
 50
0.000000000000000
 51
90.000000000000000
  0
LINE
  8
0
  6
CONTINUOUS
 62
3
 10
300.227113665151480
 20
178.743371345168160
 11
300.227113665151480
 21
202.343371345167610
  0
LINE
  8
0
  6
CONTINUOUS
 62
3
 10
299.827113665151840
 20
202.743371345168160
 11
227.786921286286910
 21
202.743371345168160
  0
LINE
  8
0
  6
CONTINUOUS
 62
3
 10
225.227113665151510
 20
153.943371345167980
 11
225.027113665151690
 21
153.743371345168160
  0
ARC
  8
0
  6
CONTINUOUS
 62
3
 10
226.027113665151690
 20
154.093371345167610
 40
0.800000000001091
 50
90.000000000000000
 51
180.000000000000000
  0
LINE
  8
0
  6
CONTINUOUS
 62
3
 10
225.227113665151510
 20
154.093371345167610
 11
225.227113665151510
 21
153.943371345167980
  0
LINE
  8
0
  6
CONTINUOUS
 62
3
 10
227.227113665151510
 20
154.893371345168700
 11
226.027113665151690
 21
154.893371345168700
  0
LINE
  8
0
  6
CONTINUOUS
 62
3
 10
227.227113665151510
 20
154.893371345168700
 11
227.786921286286910
 21
154.743371345168160
  0
LINE
  8
0
  6
CONTINUOUS
 62
3
 10
225.027113665151690
 20
153.743371345168160
 11
223.227113665151510
 21
153.743371345168160
  0
LINE
  8
0
  6
CONTINUOUS
 62
3
 10
225.227113665151510
 20
178.743371345168160
 11
225.227113665151510
 21
154.093371345167610
  0
LINE
  8
0
  6
CONTINUOUS
 62
3
 10
225.227113665151510
 20
203.543371345168340
 11
225.027113665151690
 21
203.743371345168160
  0
ARC
  8
0
  6
CONTINUOUS
 62
3
 10
226.027113665151690
 20
203.393371345168700
 40
0.800000000000182
 50
180.000000000000000
 51
270.000000000000000
  0
LINE
  8
0
  6
CONTINUOUS
 62
3
 10
225.227113665151510
 20
203.393371345168700
 11
225.227113665151510
 21
203.543371345168340
  0
LINE
  8
0
  6
CONTINUOUS
 62
3
 10
227.227113665151510
 20
202.593371345167610
 11
226.027113665151690
 21
202.593371345167610
  0
LINE
  8
0
  6
CONTINUOUS
 62
3
 10
227.227113665151510
 20
202.593371345167610
 11
227.786921286286910
 21
202.743371345168160
  0
LINE
  8
0
  6
CONTINUOUS
 62
3
 10
225.027113665151690
 20
203.743371345168160
 11
223.227113665151510
 21
203.743371345168160
  0
LINE
  8
0
  6
CONTINUOUS
 62
3
 10
225.227113665151510
 20
178.743371345168160
 11
225.227113665151510
 21
203.393371345168700
  0
LINE
  8
0
  6
CONTINUOUS
 62
3
 10
230.227113665151510
 20
151.243371345168160
 11
230.227113665151510
 21
154.743371345168160
  0
LINE
  8
0
  6
CONTINUOUS
 62
3
 10
63.227113665151279
 20
313.743371345168160
 11
77.727113665151506
 21
313.743371345168160
  0
LINE
  8
0
  6
CONTINUOUS
 62
3
 10
-4.772886334872709
 20
163.743371345168040
 11
31.727113665134453
 21
163.743371345168040
  0
ARC
  8
0
  6
CONTINUOUS
 62
3
 10
31.727113665134453
 20
160.743371345168040
 40
3.000000000000000
 50
0.000000000000000
 51
90.000000000000000
  0
LINE
  8
0
  6
DASHDOT
 62
4
 10
14.727113665134453
 20
161.991032904270240
 11
14.727113665134453
 21
193.513840240806300
  0
CIRCLE
  8
0
  6
CONTINUOUS
 62
3
 10
14.727113665134453
 20
178.743371345168160
 40
10.500000000000000
  0
LINE
  8
0
  6
CONTINUOUS
 62
3
 10
-4.772886334872709
 20
193.743371345168270
 11
31.727113665134453
 21
193.743371345168270
  0
ARC
  8
0
  6
CONTINUOUS
 62
3
 10
31.727113665134453
 20
196.743371345168270
 40
3.000000000000000
 50
270.000000000000000
 51
0.000000000000000
  0
LINE
  8
0
  6
CONTINUOUS
 62
3
 10
-7.772886334872737
 20
178.743371345168160
 11
-7.772886334872737
 21
124.243371345168040
  0
LINE
  8
0
  6
CONTINUOUS
 62
3
 10
-7.772886334872737
 20
233.243371345168270
 11
-7.772886334872737
 21
178.743371345168160
  0
ARC
  8
0
  6
CONTINUOUS
 62
3
 10
-4.772886334872709
 20
160.743371345168040
 40
3.000000000000000
 50
90.000000000000000
 51
180.000000000000000
  0
ARC
  8
0
  6
CONTINUOUS
 62
3
 10
-4.772886334872709
 20
196.743371345168270
 40
3.000000000000028
 50
180.000000000000000
 51
270.000000000000000
  0
ARC
  8
0
  6
CONTINUOUS
 62
3
 10
-12.772886334872737
 20
233.243371345168270
 40
5.000000000000000
 50
0.000000000000000
 51
90.000000000000000
  0
ARC
  8
0
  6
CONTINUOUS
 62
3
 10
-12.772886334872737
 20
124.243371345168040
 40
5.000000000000000
 50
270.000000000000000
 51
0.000000000000000
  0
LINE
  8
0
  6
CONTINUOUS
 62
3
 10
44.727113665134453
 20
-118.256628654832120
 11
44.727113665134453
 21
-272.756628654831900
  0
ARC
  8
0
  6
CONTINUOUS
 62
3
 10
-4.272886334865547
 20
-217.453651079097990
 40
5.000000000000000
 50
0.000000000000000
 51
90.000000000000000
  0
LINE
  8
0
  6
CONTINUOUS
 62
3
 10
-26.772886334865575
 20
-212.453651079097940
 11
-4.272886334865547
 21
-212.453651079097990
  0
ARC
  8
0
  6
CONTINUOUS
 62
3
 10
31.727113665134453
 20
-194.256628654833950
 40
3.000000000000000
 50
0.000000000000000
 51
90.000000000000000
  0
LINE
  8
0
  6
CONTINUOUS
 62
3
 10
-26.772886334865575
 20
-191.256628654833950
 11
31.727113665134453
 21
-191.256628654833950
  0
LINE
  8
0
  6
CONTINUOUS
 62
3
 10
-7.772886334866939
 20
-151.256628654833950
 11
-26.772886334865575
 21
-151.256628654833950
  0
ARC
  8
0
  6
CONTINUOUS
 62
3
 10
-2.772886334867366
 20
-161.756628654832180
 40
5.000000000000028
 50
179.999999999997410
 51
270.000000000000000
  0
ARC
  8
0
  6
CONTINUOUS
 62
3
 10
31.727113665134453
 20
-163.756628654832180
 40
3.000000000000000
 50
270.000000000000000
 51
0.000000000000000
  0
LINE
  8
0
  6
CONTINUOUS
 62
3
 10
-2.772886334867366
 20
-166.756628654832180
 11
31.727113665134453
 21
-166.756628654832180
  0
POINT
  8
0
  6
CONTINUOUS
 62
3
 10
34.727113665134453
 20
-280.256628654832130
  0
ARC
  8
0
  6
CONTINUOUS
 62
3
 10
29.727113665134453
 20
-130.756628654832350
 40
5.000000000000000
 50
270.000000000000000
 51
0.000000000000000
  0
ARC
  8
0
  6
CONTINUOUS
 62
3
 10
37.727113665134453
 20
-282.010354635493460
 40
3.000000000000000
 50
180.000000000000000
 51
267.999999999999600
  0
LINE
  8
0
  6
DASHDOT
 62
4
 10
14.727113665134453
 20
-149.500740646551260
 11
14.727113665134453
 21
-119.833445201256830
  0
ARC
  8
0
  6
CONTINUOUS
 62
3
 10
29.868996842383609
 20
-119.756628654832120
 40
5.000000000000000
 50
270.000000000000000
 51
349.193077125139720
  0
ARC
  8
0
  6
CONTINUOUS
 62
3
 10
37.727113665134453
 20
-121.256628654832120
 40
3.000000000000000
 50
90.000000000000000
 51
180.000000000000000
  0
LINE
  8
0
  6
CONTINUOUS
 62
3
 10
37.727113665134453
 20
-118.256628654832120
 11
44.727113665134453
 21
-118.256628654832120
  0
LINE
  8
0
  6
CONTINUOUS
 62
3
 10
34.727113665134453
 20
-121.256628654832120
 11
34.727113665134453
 21
-269.548865738984380
  0
LINE
  8
0
  6
CONTINUOUS
 62
3
 10
37.622415175026930
 20
-285.008527116550740
 11
44.727113665134453
 21
-285.256628654832130
  0
LINE
  8
0
  6
CONTINUOUS
 62
3
 10
44.727113665134453
 20
-285.256628654832130
 11
44.727113665134453
 21
-272.756628654831900
  0
LINE
  8
0
  6
CONTINUOUS
 62
3
 10
34.727113665134453
 20
-269.548865738984490
 11
34.727113665134453
 21
-282.010354635493460
  0
ARC
  8
0
  6
CONTINUOUS
 62
3
 10
-12.772886334865575
 20
-117.029781474858900
 40
5.000000000000000
 50
359.999999999998070
 51
92.999999999999048
  0
LINE
  8
0
  6
CONTINUOUS
 62
3
 10
-7.772886334865689
 20
-119.756628654831900
 11
-7.772886334865575
 21
-117.029781474859070
  0
ARC
  8
0
  6
CONTINUOUS
 62
3
 10
-2.772886334865660
 20
-119.756628654832120
 40
5.000000000000028
 50
179.999999999997410
 51
270.000000000000000
  0
ARC
  8
0
  6
CONTINUOUS
 62
3
 10
-2.772886334866115
 20
-130.756628654832350
 40
5.000000000000028
 50
179.999999999997410
 51
270.000000000000000
  0
LINE
  8
0
  6
CONTINUOUS
 62
3
 10
-7.772886334867394
 20
-161.756628654831960
 11
-7.772886334865689
 21
-119.756628654831900
  0
LINE
  8
0
  6
CONTINUOUS
 62
3
 10
29.868996842383609
 20
-124.756628654832120
 11
-2.772886334865660
 21
-124.756628654832120
  0
LINE
  8
0
  6
CONTINUOUS
 62
3
 10
29.727113665134453
 20
-135.756628654832350
 11
-2.772886334866115
 21
-135.756628654832350
  0
LINE
  8
0
  6
CONTINUOUS
 62
3
 10
-26.772886334865575
 20
-229.756628654832130
 11
-26.772886334865575
 21
-112.756628654831500
  0
LINE
  8
0
  6
CONTINUOUS
 62
3
 10
-13.034566116080214
 20
-112.036633801085990
 11
-26.772886334865575
 21
-112.756628654831840
  0
LINE
  8
0
  6
CONTINUOUS
 62
3
 10
66.227113665151506
 20
-218.672708437929830
 11
66.227113665151506
 21
-297.183525089932000
  0
LINE
  8
0
  6
CONTINUOUS
 62
3
 10
66.227113665151506
 20
-192.840548871730680
 11
66.227113665151506
 21
-58.756628654832525
  0
LINE
  8
0
  6
DASHDOT
 62
4
 10
57.217002379988372
 20
-69.756628654833435
 11
33.554795711381558
 21
-69.756628654833435
  0
LINE
  8
0
  6
DASHDOT
 62
4
 10
-11.823654575765772
 20
-171.256628654831840
 11
-296.929398862499510
 21
-171.256628654831840
  0
LINE
  8
0
  6
CONTINUOUS
 62
3
 10
63.227113665151506
 20
43.743371345168157
 11
77.727113665151506
 21
43.743371345168157
  0
ARC
  8
0
  6
CONTINUOUS
 62
3
 10
47.639956673250850
 20
115.282680957931120
 40
2.999999999999916
 50
20.345861640554002
 51
90.000000000000000
  0
ARC
  8
0
  6
CONTINUOUS
 62
3
 10
47.639956673250850
 20
242.204061732405190
 40
3.000000000000227
 50
270.000000000000000
 51
339.654138359445990
  0
ARC
  8
0
  6
CONTINUOUS
 62
3
 10
47.639956673250850
 20
110.631502997786470
 40
2.999999999999916
 50
20.345861640554002
 51
90.000000000000000
  0
ARC
  8
0
  6
CONTINUOUS
 62
3
 10
47.639956673250850
 20
246.855239692549840
 40
3.000000000000227
 50
270.000000000000000
 51
339.654138359445990
  0
ARC
  8
0
  6
CONTINUOUS
 62
3
 10
63.227113665151506
 20
73.248552873369476
 40
3.000000000000000
 50
0.000000000000000
 51
20.345861640555512
  0
ARC
  8
0
  6
CONTINUOUS
 62
3
 10
63.227113665151279
 20
284.238189816966840
 40
2.999999999999916
 50
339.654138359445990
 51
0.000000000000000
  0
ARC
  8
0
  6
CONTINUOUS
 62
3
 10
63.227113665151506
 20
68.597374913224826
 40
3.000000000000000
 50
0.000000000000000
 51
20.345861640555512
  0
ARC
  8
0
  6
CONTINUOUS
 62
3
 10
63.227113665151279
 20
288.889367777111490
 40
2.999999999999916
 50
339.654138359445990
 51
0.000000000000000
  0
LINE
  8
0
  6
CONTINUOUS
 62
3
 10
50.452789475809737
 20
116.325739740957370
 11
66.039946467710166
 21
74.291611656395730
  0
LINE
  8
0
  6
CONTINUOUS
 62
3
 10
50.452789475809737
 20
241.161002949378940
 11
66.039946467710166
 21
283.195131033940580
  0
LINE
  8
0
  6
CONTINUOUS
 62
3
 10
50.452789475809737
 20
111.674561780812720
 11
66.039946467710166
 21
69.640433696251080
  0
LINE
  8
0
  6
CONTINUOUS
 62
3
 10
50.452789475809737
 20
245.812180909523590
 11
66.039946467710166
 21
287.846308994085230
  0
LINE
  8
0
  6
CONTINUOUS
 62
3
 10
50.452789475809737
 20
118.282680957931340
 11
64.481666608563870
 21
118.282680957931340
  0
LINE
  8
0
  6
CONTINUOUS
 62
3
 10
50.452789475809737
 20
239.204061732404970
 11
64.481666608563870
 21
239.204061732404970
  0
LINE
  8
0
  6
CONTINUOUS
 62
3
 10
44.727113665138319
 20
161.743371345167020
 11
44.727113665158555
 21
95.243371345167247
  0
LINE
  8
0
  6
CONTINUOUS
 62
3
 10
44.727113665138319
 20
195.743371345169290
 11
44.727113665158555
 21
262.243371345169290
  0
LINE
  8
0
  6
CONTINUOUS
 62
3
 10
46.727113665156054
 20
161.743371345167020
 11
46.727113665156054
 21
97.141300478598055
  0
LINE
  8
0
  6
CONTINUOUS
 62
3
 10
46.727113665156054
 20
195.743371345169290
 11
46.727113665156054
 21
260.345442211738260
  0
LINE
  8
0
  6
CONTINUOUS
 62
3
 10
54.227113665151506
 20
158.243371345168160
 11
49.727113665147868
 21
158.243371345168160
  0
LINE
  8
0
  6
CONTINUOUS
 62
3
 10
54.227113665151506
 20
199.243371345168160
 11
49.727113665147868
 21
199.243371345168160
  0
LINE
  8
0
  6
CONTINUOUS
 62
3
 10
49.727113665147868
 20
178.743371345168160
 11
49.727113665147868
 21
158.243371345168160
  0
LINE
  8
0
  6
CONTINUOUS
 62
3
 10
49.727113665147868
 20
178.743371345168160
 11
49.727113665147868
 21
199.243371345168160
  0
ARC
  8
0
  6
CONTINUOUS
 62
3
 10
57.227113665151506
 20
161.035675361113930
 40
3.000000000000000
 50
180.000000000000000
 51
267.999999999996360
  0
ARC
  8
0
  6
CONTINUOUS
 62
3
 10
57.227113665151506
 20
196.451067329222380
 40
3.000000000000001
 50
92.000000000003652
 51
180.000000000000000
  0
ARC
  8
0
  6
CONTINUOUS
 62
3
 10
61.227113665151506
 20
152.891115928756220
 40
5.000000000000000
 50
0.000000000000000
 51
87.999999999998934
  0
ARC
  8
0
  6
CONTINUOUS
 62
3
 10
61.227113665151506
 20
204.595626761580090
 40
4.999999999999918
 50
272.000000000001080
 51
0.000000000000000
  0
LINE
  8
0
  6
CONTINUOUS
 62
3
 10
54.227113665151506
 20
178.743371345168160
 11
54.227113665151506
 21
158.243371345168160
  0
LINE
  8
0
  6
CONTINUOUS
 62
3
 10
54.227113665151506
 20
178.743371345168160
 11
54.227113665151506
 21
199.243371345168160
  0
LINE
  8
0
  6
CONTINUOUS
 62
3
 10
61.227113665151506
 20
64.243371345168157
 11
61.227113665151506
 21
66.785331453618141
  0
LINE
  8
0
  6
CONTINUOUS
 62
3
 10
61.227113665151279
 20
293.243371345168160
 11
61.227113665151279
 21
290.701411236718170
  0
ARC
  8
0
  6
CONTINUOUS
 62
3
 10
63.227113665151506
 20
45.743371345168157
 40
2.000000000000000
 50
180.000000000000000
 51
270.000000000000000
  0
ARC
  8
0
  6
CONTINUOUS
 62
3
 10
63.227113665151279
 20
311.743371345168160
 40
2.000000000000000
 50
90.000000000000000
 51
180.000000000000000
  0
LINE
  8
0
  6
CONTINUOUS
 62
3
 10
44.727113665133317
 20
178.743371345168160
 11
44.727113665134453
 21
174.743371345167020
  0
LINE
  8
0
  6
CONTINUOUS
 62
3
 10
44.727113665133317
 20
178.743371345168160
 11
44.727113665134453
 21
182.743371345169290
  0
LINE
  8
0
  6
CONTINUOUS
 62
3
 10
56.740425597265272
 20
94.718595903539040
 11
48.622441752669971
 21
95.144041409089255
  0
LINE
  8
0
  6
CONTINUOUS
 62
3
 10
56.740425597265272
 20
262.768146786797270
 11
48.622441752669971
 21
262.342701281247060
  0
LINE
  8
0
  6
CONTINUOUS
 62
3
 10
46.727113665156054
 20
178.743371345168160
 11
46.727113665156054
 21
174.743371345167020
  0
LINE
  8
0
  6
CONTINUOUS
 62
3
 10
46.727113665156054
 20
178.743371345168160
 11
46.727113665156054
 21
182.743371345169290
  0
ARC
  8
0
  6
CONTINUOUS
 62
3
 10
44.727113665154917
 20
105.743371345167930
 40
2.000000000000000
 50
0.000000000000000
 51
90.000000000000000
  0
ARC
  8
0
  6
CONTINUOUS
 62
3
 10
44.727113665154917
 20
251.743371345168380
 40
2.000000000000000
 50
270.000000000000000
 51
0.000000000000000
  0
ARC
  8
0
  6
CONTINUOUS
 62
3
 10
48.727113665156054
 20
97.141300478598055
 40
2.000000000000000
 50
180.000000000000000
 51
266.999999999993860
  0
ARC
  8
0
  6
CONTINUOUS
 62
3
 10
48.727113665156054
 20
260.345442211738260
 40
1.999999999999663
 50
93.000000000006111
 51
180.000000000000000
  0
LINE
  8
0
  6
CONTINUOUS
 62
3
 10
61.401611148664102
 20
157.888070063851610
 11
57.122415175043812
 21
158.037502880056650
  0
LINE
  8
0
  6
CONTINUOUS
 62
3
 10
61.401611148664102
 20
199.598672626484700
 11
57.122415175043812
 21
199.449239810279660
  0
LINE
  8
0
  6
CONTINUOUS
 62
3
 10
61.227113665151506
 20
45.743371345168157
 11
61.227113665151506
 21
51.243371345168157
  0
LINE
  8
0
  6
CONTINUOUS
 62
3
 10
61.227113665151279
 20
311.743371345168160
 11
61.227113665151279
 21
306.243371345168160
  0
ARC
  8
0
  6
CONTINUOUS
 62
3
 10
63.227113665151506
 20
72.701411236718172
 40
3.000000000000653
 50
279.594068226858330
 51
321.971096688727810
  0
ARC
  8
0
  6
CONTINUOUS
 62
3
 10
63.227113665151279
 20
284.785331453618140
 40
3.000000000000123
 50
38.028903311269509
 51
80.405931773141646
  0
ARC
  8
0
  6
CONTINUOUS
 62
3
 10
64.227113665151506
 20
66.785331453618141
 40
2.999999999999756
 50
99.594068226861253
 51
180.000000000000000
  0
ARC
  8
0
  6
CONTINUOUS
 62
3
 10
64.227113665151279
 20
290.701411236718170
 40
3.000000000000000
 50
180.000000000000000
 51
260.405931773138780
  0
ARC
  8
0
  6
CONTINUOUS
 62
3
 10
68.227113665151506
 20
45.743371345168157
 40
2.000000000000000
 50
180.000000000000000
 51
270.000000000000000
  0
ARC
  8
0
  6
CONTINUOUS
 62
3
 10
68.227113665151279
 20
311.743371345168160
 40
2.000000000000000
 50
90.000000000000000
 51
180.000000000000000
  0
LINE
  8
0
  6
CONTINUOUS
 62
3
 10
66.227113665151506
 20
178.743371345168160
 11
66.227113665151506
 21
45.743371345168157
  0
LINE
  8
0
  6
CONTINUOUS
 62
3
 10
66.227113665151506
 20
178.743371345168160
 11
66.227113665151279
 21
311.743371345168160
  0
LINE
  8
0
  6
CONTINUOUS
 62
3
 10
17.227113665151506
 20
76.416398714010825
 11
17.227113665151506
 21
45.859332018398959
  0
LINE
  8
0
  6
DASHDOT
 62
4
 10
314.057482318362300
 20
178.743371345168160
 11
-300.905523699148030
 21
178.743371345168160
  0
LINE
  8
0
  6
CONTINUOUS
 62
3
 10
23.227113665151506
 20
283.826445914215470
 11
52.610356884692379
 21
283.826445914215470
  0
LINE
  8
0
  6
CONTINUOUS
 62
3
 10
23.227113665151506
 20
73.660296776120845
 11
52.610356884692379
 21
73.660296776120845
  0
LINE
  8
0
  6
DASHDOT
 62
4
 10
35.227113665151506
 20
317.753855865792390
 11
35.227113665151506
 21
289.217513536817820
  0
LINE
  8
0
  6
DASHDOT
 62
4
 10
35.227113665151506
 20
39.732886824543925
 11
35.227113665151506
 21
68.269229153518495
  0
CIRCLE
  8
0
  6
CONTINUOUS
 62
3
 10
35.227113665151506
 20
303.743371345169070
 40
7.500000000000000
  0
CIRCLE
  8
0
  6
CONTINUOUS
 62
3
 10
35.227113665151506
 20
53.743371345167247
 40
7.500000000000000
  0
LINE
  8
0
  6
DASHDOT
 62
4
 10
49.865692208780189
 20
303.743371345169070
 11
21.329349879805619
 21
303.743371345169070
  0
LINE
  8
0
  6
DASHDOT
 62
4
 10
49.865692208780189
 20
53.743371345167247
 11
21.329349879805619
 21
53.743371345167247
  0
LINE
  8
0
  6
CONTINUOUS
 62
3
 10
17.227113665151506
 20
281.070343976325490
 11
17.227113665151506
 21
311.627410671937350
  0
ARC
  8
0
  6
CONTINUOUS
 62
3
 10
27.227113665151506
 20
311.627410671937350
 40
10.000000000000053
 50
92.243175574221979
 51
180.000000000000000
  0
ARC
  8
0
  6
CONTINUOUS
 62
3
 10
27.227113665151506
 20
45.859332018398959
 40
10.000000000000000
 50
180.000000000000000
 51
267.756824425778010
  0
LINE
  8
0
  6
CONTINUOUS
 62
3
 10
26.835705679051813
 20
35.866994965015579
 11
80.727113665151506
 21
33.756024592897006
  0
LINE
  8
0
  6
CONTINUOUS
 62
3
 10
27.052589600778362
 20
271.071867024761450
 11
59.608895689942898
 21
270.503594588151260
  0
ARC
  8
0
  6
CONTINUOUS
 62
3
 10
27.227113665151506
 20
281.070343976325490
 40
10.000000000000000
 50
180.000000000000000
 51
268.999999999998240
  0
LINE
  8
0
  6
CONTINUOUS
 62
3
 10
27.052589600778362
 20
86.414875665574868
 11
59.608895689942898
 21
86.983148102185055
  0
ARC
  8
0
  6
CONTINUOUS
 62
3
 10
27.227113665151506
 20
76.416398714010825
 40
10.000000000000137
 50
91.000000000001762
 51
180.000000000000000
  0
INSERT
  8
0
  2
SYM1
 10
49.727113665147186
 20
168.243371345167020
  0
INSERT
  8
0
  2
SYM2
 10
49.727113665147186
 20
189.243371345169290
 41
-1.000000000000000
 50
180.000000000000030
  0
INSERT
  8
0
  2
SYM3
 10
66.227113665151506
 20
57.743371345168157
  0
INSERT
  8
0
  2
SYM4
 10
66.227113665151279
 20
299.743371345168160
 41
-1.000000000000000
 50
180.000000000000030
  0
INSERT
  8
0
  2
SYM5
 10
66.227113665151506
 20
128.743371345168160
  0
INSERT
  8
0
  2
SYM6
 10
66.227113665151506
 20
228.743371345168160
 41
-1.000000000000000
 50
180.000000000000030
  0
INSERT
  8
0
  2
SYM7
 10
34.727113665133317
 20
233.544146887125520
 41
-1.000000000000000
 50
180.000000000000000
  0
ARC
  8
0
  6
CONTINUOUS
 62
3
 10
37.727113665133317
 20
258.997097325829490
 40
3.000000000000001
 50
92.000000000003652
 51
180.000000000000000
  0
LINE
  8
0
  6
CONTINUOUS
 62
3
 10
34.727113665133317
 20
178.743371345168160
 11
34.727113665133317
 21
258.997097325829490
  0
LINE
  8
0
  6
CONTINUOUS
 62
3
 10
37.622415175025623
 20
261.995269806886770
 11
44.727113665158555
 21
262.243371345169290
  0
LINE
  8
0
  6
CONTINUOUS
 62
3
 10
-26.772886334866712
 20
238.243371345168160
 11
-26.772886334866712
 21
178.743371345168160
  0
LINE
  8
0
  6
CONTINUOUS
 62
3
 10
-26.772886334866712
 20
238.243371345168160
 11
30.727099723235966
 21
238.243371345168160
  0
ARC
  8
0
  6
CONTINUOUS
 62
3
 10
29.727113665133317
 20
243.243371345168160
 40
4.999999999999829
 50
307.828636848033850
 51
0.000000000000000
  0
ARC
  8
0
  6
CONTINUOUS
 62
3
 10
29.727113665133317
 20
114.243371345168150
 40
5.000000000000000
 50
0.000000000000000
 51
52.171363151966126
  0
LINE
  8
0
  6
CONTINUOUS
 62
3
 10
-26.772886334866712
 20
119.243371345168150
 11
30.727597677936416
 21
119.243371345168150
  0
INSERT
  8
0
  2
SYM8
 10
34.727113665133317
 20
123.942595803210790
  0
ARC
  8
0
  6
CONTINUOUS
 62
3
 10
37.727113665133317
 20
98.489645364506828
 40
3.000000000000000
 50
180.000000000000000
 51
267.999999999996360
  0
LINE
  8
0
  6
CONTINUOUS
 62
3
 10
37.622415175025623
 20
95.491472883449546
 11
44.727113665158555
 21
95.243371345167247
  0
LINE
  8
0
  6
CONTINUOUS
 62
3
 10
34.727113665133317
 20
178.743371345168160
 11
34.727113665133317
 21
98.489645364506828
  0
LINE
  8
0
  6
CONTINUOUS
 62
3
 10
-26.772886334866712
 20
119.243371345168150
 11
-26.772886334866712
 21
178.743371345168160
  0
INSERT
  8
0
  2
SYM9
 10
34.727113665134681
 20
-256.557404196789890
  0
INSERT
  8
0
  2
SYM10
 10
66.227113665151506
 20
-229.756628654831620
  0
INSERT
  8
0
  2
SYM11
 10
66.227113665151506
 20
-139.756629467725250
  0
INSERT
  8
0
  2
SYM12
 10
34.727113665134681
 20
-146.955853112875160
  0
INSERT
  8
0
  2
SYM13
 10
66.227113665151506
 20
-70.756629467725247
  0
INSERT
  8
0
  2
SYM14
 10
49.727113665147868
 20
-69.756628654833435
  0
LINE
  8
0
  6
CONTINUOUS
 62
3
 10
56.227113665151506
 20
-56.756628654832525
 11
77.727113665151506
 21
-56.756628654832525
  0
ARC
  8
0
  6
CONTINUOUS
 62
3
 10
51.227113665151506
 20
-288.496580699599580
 40
3.000000000000000
 50
0.000000000000000
 51
86.999999999994799
  0
LINE
  8
0
  6
CONTINUOUS
 62
3
 10
58.227113665151506
 20
-112.909116359502940
 11
58.227113665151506
 21
-84.413482904324042
  0
LINE
  8
0
  6
CONTINUOUS
 62
3
 10
54.227113665151506
 20
-78.756628654832525
 11
54.227113665151506
 21
-58.756628654832525
  0
LINE
  8
0
  6
CONTINUOUS
 62
3
 10
57.227113665151506
 20
-81.756628654832525
 11
61.227113665151506
 21
-81.756628654832525
  0
LINE
  8
0
  6
CONTINUOUS
 62
3
 10
61.488793446365804
 20
-286.030255510652640
 11
48.622441752669971
 21
-285.355958590911430
  0
LINE
  8
0
  6
CONTINUOUS
 62
3
 10
46.727113665156054
 20
-201.756628654832530
 11
46.727113665156054
 21
-283.358699521402630
  0
LINE
  8
0
  6
CONTINUOUS
 62
3
 10
46.727113665152416
 20
-201.756628654832530
 11
46.727113665152416
 21
-120.154557788261510
  0
LINE
  8
0
  6
CONTINUOUS
 62
3
 10
61.488793446365804
 20
-117.483001799011500
 11
48.622441752666333
 21
-118.157298718752710
  0
ARC
  8
0
  6
CONTINUOUS
 62
3
 10
57.227113665151506
 20
-78.756628654832525
 40
3.000000000000000
 50
180.000000000000000
 51
270.000000000000000
  0
ARC
  8
0
  6
CONTINUOUS
 62
3
 10
56.227113665151506
 20
-58.756628654832525
 40
2.000000000000000
 50
90.000000000000000
 51
180.000000000000000
  0
ARC
  8
0
  6
CONTINUOUS
 62
3
 10
44.727113665156054
 20
-277.756628654831620
 40
2.000000000000000
 50
0.000000000000000
 51
90.000000000000000
  0
ARC
  8
0
  6
CONTINUOUS
 62
3
 10
44.727113665156054
 20
-125.756628654832520
 40
2.000000000000000
 50
270.000000000000000
 51
0.000000000000000
  0
ARC
  8
0
  6
CONTINUOUS
 62
3
 10
61.227113665151506
 20
-291.023403184425550
 40
5.000000000000000
 50
0.000000000000000
 51
87.000000000004846
  0
ARC
  8
0
  6
CONTINUOUS
 62
3
 10
61.227113665151506
 20
-112.489854125238590
 40
5.000000000000018
 50
272.999999999995110
 51
0.000000000000000
  0
ARC
  8
0
  6
CONTINUOUS
 62
3
 10
55.227113665151506
 20
-84.413482904324042
 40
3.000000000000000
 50
0.000000000000000
 51
70.528779365506566
  0
ARC
  8
0
  6
CONTINUOUS
 62
3
 10
53.227113665151506
 20
-112.909116359502940
 40
5.000000000000018
 50
272.999999999995110
 51
0.000000000000000
  0
ARC
  8
0
  6
CONTINUOUS
 62
3
 10
48.727113665156054
 20
-283.358699521402630
 40
2.000000000000000
 50
180.000000000000000
 51
266.999999999993860
  0
ARC
  8
0
  6
CONTINUOUS
 62
3
 10
48.727113665152416
 20
-120.154557788261510
 40
1.999999999999663
 50
93.000000000006111
 51
180.000000000000000
  0
ARC
  8
0
  6
CONTINUOUS
 62
3
 10
61.227113665151506
 20
-86.756628654832525
 40
5.000000000000000
 50
0.000000000000000
 51
90.000000000000000
  0
LINE
  8
0
  6
CONTINUOUS
 62
3
 10
54.227113665151506
 20
-288.496580699599580
 11
54.227113665151506
 21
-292.891856484173220
  0
LINE
  8
0
  6
CONTINUOUS
 62
3
 10
58.965433883937209
 20
-297.885004157946130
 11
61.488793446365804
 21
-298.017247828945870
  0
ARC
  8
0
  6
CONTINUOUS
 62
3
 10
59.227113665151506
 20
-292.891856484173220
 40
5.000000000000000
 50
180.000000000000000
 51
267.000000000004890
  0
ARC
  8
0
  6
CONTINUOUS
 62
3
 10
61.227113665151506
 20
-303.010395502718780
 40
5.000000000000159
 50
45.287618500673872
 51
87.000000000004846
  0
LINE
  8
0
  6
DASHDOT
 62
4
 10
43.996866264337683
 20
-41.756628654833435
 11
62.096132279629188
 21
-41.756628654833435
  0
LINE
  8
0
  6
CONTINUOUS
 62
3
 10
49.727113665147868
 20
-79.756628654833435
 11
54.227113665147868
 21
-79.756628654833435
  0
LINE
  8
0
  6
CONTINUOUS
 62
3
 10
49.727113665147868
 20
-79.756628654833435
 11
49.727113665151506
 21
-21.756628654833435
  0
LINE
  8
0
  6
CONTINUOUS
 62
3
 10
49.727113665151506
 20
-21.756628654833435
 11
54.227113665151506
 21
-21.756628654833435
  0
LINE
  8
0
  6
CONTINUOUS
 62
3
 10
54.227113665151506
 20
-21.756628654833435
 11
54.227113665151506
 21
-79.756628654833435
  0
LINE
  8
0
  6
CONTINUOUS
 62
3
 10
61.227113665151506
 20
-212.756628654830710
 11
61.227113665151506
 21
-205.756628654830710
  0
LINE
  8
0
  6
CONTINUOUS
 62
3
 10
61.227113665151506
 20
-198.756628654830710
 11
61.227113665151506
 21
-205.756628654830710
  0
ARC
  8
0
  6
CONTINUOUS
 62
3
 10
63.227113665151506
 20
-218.672708437929830
 40
3.000000000000000
 50
0.000000000000000
 51
80.405931773138747
  0
ARC
  8
0
  6
CONTINUOUS
 62
3
 10
63.227113665151506
 20
-192.840548871730680
 40
3.000000000000653
 50
279.594068226858330
 51
0.000000000000000
  0
ARC
  8
0
  6
CONTINUOUS
 62
3
 10
64.227113665151506
 20
-212.756628654830710
 40
3.000000000000000
 50
180.000000000000000
 51
260.405931773138780
  0
ARC
  8
0
  6
CONTINUOUS
 62
3
 10
64.227113665151506
 20
-198.756628654830710
 40
2.999999999999756
 50
99.594068226861253
 51
180.000000000000000
  0
ARC
  8
0
  6
CONTINUOUS
 62
3
 10
68.227113665151506
 20
-58.756628654832525
 40
2.000000000000000
 50
90.000000000000000
 51
180.000000000000000
  0
LINE
  8
0
  6
CONTINUOUS
 62
3
 10
80.402518815622813
 20
-275.439902333727220
 11
61.840099530281719
 21
-303.912756414341740
  0
ARC
  8
0
  6
CONTINUOUS
 62
3
 10
56.813884078866892
 20
-300.635996088050770
 40
6.000000000000744
 50
274.480855207353900
 51
326.898306520919500
  0
ARC
  8
0
  6
CONTINUOUS
 62
3
 10
21.227113665151506
 20
-313.455430135443630
 40
3.999999999999263
 50
94.480855207350956
 51
180.000000000000000
  0
LINE
  8
0
  6
CONTINUOUS
 62
3
 10
20.914609738236237
 20
-309.467656157939810
 11
57.227113665151506
 21
-306.622008401242850
  0
LINE
  8
0
  6
CONTINUOUS
 62
3
 10
17.227113665151506
 20
-313.455430135443630
 11
17.227113665151506
 21
-331.756628654832530
  0
LINE
  8
0
  6
DASHDOT
 62
4
 10
35.227113665151506
 20
-302.018418777818510
 11
35.227113665151506
 21
-338.543661049241450
  0
LINE
  8
0
  6
CONTINUOUS
 62
3
 10
57.227113665151506
 20
-306.622008401242850
 11
80.727113665151961
 21
-304.780419002259690
  0
LINE
  8
0
  6
CONTINUOUS
 62
3
 10
17.227113665151506
 20
-331.756628654832530
 11
223.227113665151510
 21
-331.756628654832530
  0
ARC
  8
0
  6
CONTINUOUS
 62
4
 10
-468.790379016575340
 20
-411.856628654831750
 40
289.396999999999930
 50
90.000000000000000
 51
97.897988672427743
  0
ARC
  8
0
  6
CONTINUOUS
 62
4
 10
-507.731896971957440
 20
-131.147851114245100
 40
5.999999999999923
 50
97.897988672425626
 51
134.999999999996930
  0
LINE
  8
0
  6
CONTINUOUS
 62
4
 10
-511.974537659076530
 20
-126.905210427125550
 11
-516.550603051715140
 21
-131.481275819764160
  0
ARC
  8
0
  6
CONTINUOUS
 62
4
 10
-233.190379016575430
 20
-171.256628654831840
 40
289.396999999999930
 50
173.948014641331470
 51
180.000000000000000
  0
ARC
  8
0
  6
CONTINUOUS
 62
3
 10
-512.738966446857830
 20
-121.160014187303540
 40
6.599999999999971
 50
98.597082237248614
 51
134.999999999998610
  0
ARC
  8
0
  6
CONTINUOUS
 62
3
 10
-472.790379016575340
 20
-142.533815422141400
 40
1.499999999999998
 50
277.928141766204020
 51
0.000000000000000
  0
ARC
  8
0
  6
CONTINUOUS
 62
3
 10
-468.790379016574890
 20
-171.256628654831840
 40
33.499999999999950
 50
97.180755781459069
 51
142.819244218541740
  0
ARC
  8
0
  6
CONTINUOUS
 62
3
 10
-468.790379016574890
 20
-171.256628654831840
 40
43.000000000000043
 50
95.531071524839788
 51
144.468928475160770
  0
ARC
  8
0
  6
CONTINUOUS
 62
3
 10
-468.790379016574890
 20
-171.256628654831840
 40
37.000000000000099
 50
95.963570118321798
 51
144.036429881678830
  0
ARC
  8
0
  6
CONTINUOUS
 62
3
 10
-491.665064944241070
 20
-153.431120423348720
 40
1.499999999999926
 50
239.999999999998410
 51
322.071858233800300
  0
ARC
  8
0
  6
CONTINUOUS
 62
3
 10
-494.285833186309900
 20
-151.918019173306560
 40
1.500000000000103
 50
142.819244218542510
 51
239.999999999998410
  0
ARC
  8
0
  6
CONTINUOUS
 62
3
 10
-499.951915470726140
 20
-148.646705041148270
 40
1.500000000000123
 50
240.000000000002730
 51
324.036429881683720
  0
LINE
  8
0
  6
CONTINUOUS
 62
3
 10
-492.415064944241070
 20
-154.730158529025290
 11
-495.035833186309900
 21
-153.217057278983130
  0
LINE
  8
0
  6
CONTINUOUS
 62
3
 10
-500.701915470726140
 20
-149.945743146825070
 11
-503.313099069710230
 21
-148.438175593047960
  0
ARC
  8
0
  6
CONTINUOUS
 62
3
 10
-502.563099069710230
 20
-147.139137487371160
 40
1.499999999999976
 50
144.468928475160790
 51
240.000000000002730
  0
ARC
  8
0
  6
CONTINUOUS
 62
3
 10
-498.285833186310360
 20
-183.667034906081540
 40
1.500000000000157
 50
202.819244218546660
 51
300.000000000001590
  0
LINE
  8
0
  6
CONTINUOUS
 62
3
 10
-497.535833186310360
 20
-184.966073011758110
 11
-494.915064944241070
 21
-183.452971761716190
  0
ARC
  8
0
  6
CONTINUOUS
 62
3
 10
-503.951915470726590
 20
-186.938349038239830
 40
1.499999999999926
 50
300.000000000001590
 51
24.036429881677126
  0
LINE
  8
0
  6
CONTINUOUS
 62
3
 10
-505.813099069710690
 20
-189.744954697693740
 11
-503.201915470726590
 21
-188.237387143916410
  0
ARC
  8
0
  6
CONTINUOUS
 62
3
 10
-506.563099069710690
 20
-188.445916592016720
 40
1.500000000000128
 50
204.468928475167470
 51
299.999999999992950
  0
ARC
  8
0
  6
CONTINUOUS
 62
3
 10
-495.665064944241070
 20
-182.153933656039160
 40
1.500000000000320
 50
299.999999999992950
 51
22.071858233784546
  0
ARC
  8
0
  6
CONTINUOUS
 62
3
 10
-468.790379016575120
 20
-171.256628654832300
 40
33.499999999999794
 50
157.180755781458400
 51
202.819244218540940
  0
ARC
  8
0
  6
CONTINUOUS
 62
3
 10
-468.790379016575120
 20
-171.256628654832300
 40
43.000000000000121
 50
155.531071524839230
 51
204.468928475160200
  0
ARC
  8
0
  6
CONTINUOUS
 62
3
 10
-468.790379016575120
 20
-171.256628654832300
 40
37.000000000000156
 50
155.963570118321120
 51
204.036429881678230
  0
ARC
  8
0
  6
CONTINUOUS
 62
3
 10
-468.790379016575800
 20
-171.256628654831840
 40
27.499999999999886
 50
157.928141766202200
 51
202.071858233798680
  0
ARC
  8
0
  6
CONTINUOUS
 62
3
 10
-495.665064944241290
 20
-160.359323653624530
 40
1.500000000000110
 50
337.928141766202600
 51
59.999999999998380
  0
ARC
  8
0
  6
CONTINUOUS
 62
3
 10
-498.285833186310130
 20
-158.846222403582600
 40
1.500000000000123
 50
60.000000000002721
 51
157.180755781457980
  0
ARC
  8
0
  6
CONTINUOUS
 62
3
 10
-503.951915470726360
 20
-155.574908271424310
 40
1.499999999999855
 50
335.963570118319300
 51
59.999999999990862
  0
LINE
  8
0
  6
CONTINUOUS
 62
3
 10
-494.915064944241290
 20
-159.060285547947960
 11
-497.535833186310130
 21
-157.547184297905800
  0
LINE
  8
0
  6
CONTINUOUS
 62
3
 10
-503.201915470726140
 20
-154.275870165747730
 11
-505.813099069710690
 21
-152.768302611970630
  0
ARC
  8
0
  6
CONTINUOUS
 62
3
 10
-506.563099069710690
 20
-154.067340717647200
 40
1.499999999999926
 50
59.999999999998380
 51
155.531071524840400
  0
ARC
  8
0
  6
CONTINUOUS
 62
3
 10
-494.285833186310360
 20
-190.595238136356900
 40
1.499999999999926
 50
120.000000000001620
 51
217.180755781464400
  0
LINE
  8
0
  6
CONTINUOUS
 62
3
 10
-495.035833186310360
 20
-189.296200030680320
 11
-492.415064944241070
 21
-187.783098780637940
  0
ARC
  8
0
  6
CONTINUOUS
 62
3
 10
-499.951915470726590
 20
-193.866552268515190
 40
1.499999999999968
 50
35.963570118309242
 51
120.000000000001620
  0
LINE
  8
0
  6
CONTINUOUS
 62
3
 10
-503.313099069710690
 20
-194.075081716615950
 11
-500.701915470726590
 21
-192.567514162838620
  0
ARC
  8
0
  6
CONTINUOUS
 62
3
 10
-502.563099069710690
 20
-195.374119822292530
 40
1.499999999999926
 50
120.000000000001620
 51
215.531071524832130
  0
ARC
  8
0
  6
CONTINUOUS
 62
3
 10
-491.665064944241070
 20
-189.082136886314970
 40
1.500000000000122
 50
37.928141766218701
 51
119.999999999992930
  0
ARC
  8
0
  6
CONTINUOUS
 62
3
 10
-468.790379016575570
 20
-171.256628654831390
 40
33.500000000000163
 50
217.180755781459110
 51
262.819244218541770
  0
ARC
  8
0
  6
CONTINUOUS
 62
3
 10
-468.790379016575570
 20
-171.256628654831390
 40
42.999999999999858
 50
215.531071524839690
 51
264.468928475160850
  0
ARC
  8
0
  6
CONTINUOUS
 62
3
 10
-468.790379016575570
 20
-171.256628654831390
 40
37.000000000000021
 50
215.963570118321970
 51
264.036429881678940
  0
ARC
  8
0
  6
CONTINUOUS
 62
3
 10
-468.790379016575570
 20
-171.256628654832300
 40
27.499999999999780
 50
217.928141766201070
 51
262.071858233797400
  0
ARC
  8
0
  6
CONTINUOUS
 62
3
 10
-472.790379016575570
 20
-199.979441887522280
 40
1.500000000000000
 50
0.000000000000000
 51
82.071858233804562
  0
ARC
  8
0
  6
CONTINUOUS
 62
3
 10
-472.790379016575570
 20
-203.005644387606590
 40
1.499999999999998
 50
262.819244218541710
 51
0.000000000000000
  0
ARC
  8
0
  6
CONTINUOUS
 62
3
 10
-472.790379016575570
 20
-209.548272651923180
 40
1.500000000000000
 50
0.000000000017370
 51
84.036429881682594
  0
LINE
  8
0
  6
CONTINUOUS
 62
3
 10
-471.290379016575570
 20
-199.979441887522280
 11
-471.290379016575570
 21
-203.005644387606590
  0
LINE
  8
0
  6
CONTINUOUS
 62
3
 10
-471.290379016575570
 20
-209.548272651922730
 11
-471.290379016575570
 21
-212.563407759476950
  0
ARC
  8
0
  6
CONTINUOUS
 62
3
 10
-472.790379016575570
 20
-212.563407759476950
 40
1.500000000000430
 50
264.468928475160000
 51
0.000000000000000
  0
ARC
  8
0
  6
CONTINUOUS
 62
3
 10
-443.294924846840330
 20
-190.595238136356900
 40
1.500000000000240
 50
322.819244218535570
 51
59.999999999998380
  0
LINE
  8
0
  6
CONTINUOUS
 62
3
 10
-442.544924846840330
 20
-189.296200030680320
 11
-445.165693088909620
 21
-187.783098780637940
  0
ARC
  8
0
  6
CONTINUOUS
 62
3
 10
-437.628842562424100
 20
-193.866552268515190
 40
1.499999999999926
 50
59.999999999998380
 51
144.036429881690740
  0
ARC
  8
0
  6
CONTINUOUS
 62
3
 10
-445.915693088909620
 20
-189.082136886314970
 40
1.500000000000320
 50
60.000000000007070
 51
142.071858233781280
  0
ARC
  8
0
  6
CONTINUOUS
 62
3
 10
-468.790379016575120
 20
-171.256628654831390
 40
33.500000000000114
 50
277.180755781458230
 51
322.819244218540860
  0
ARC
  8
0
  6
CONTINUOUS
 62
3
 10
-468.790379016575120
 20
-171.256628654831390
 40
43.000000000000199
 50
275.531071524838860
 51
324.468928475160340
  0
ARC
  8
0
  6
CONTINUOUS
 62
3
 10
-468.790379016575120
 20
-171.256628654831390
 40
37.000000000000028
 50
275.963570118320770
 51
324.036429881678030
  0
ARC
  8
0
  6
CONTINUOUS
 62
3
 10
-468.790379016575120
 20
-171.256628654832300
 40
27.499999999999879
 50
277.928141766202600
 51
322.071858233798930
  0
ARC
  8
0
  6
CONTINUOUS
 62
3
 10
-464.790379016575120
 20
-199.979441887522280
 40
1.499999999999967
 50
97.928141766195438
 51
180.000000000000000
  0
ARC
  8
0
  6
CONTINUOUS
 62
3
 10
-464.790379016575120
 20
-203.005644387606590
 40
1.500000000000000
 50
180.000000000000000
 51
277.180755781458290
  0
ARC
  8
0
  6
CONTINUOUS
 62
3
 10
-464.790379016575120
 20
-209.548272651923180
 40
1.500000000000182
 50
95.963570118326047
 51
179.999999999982630
  0
LINE
  8
0
  6
CONTINUOUS
 62
3
 10
-466.290379016575120
 20
-199.979441887522280
 11
-466.290379016575120
 21
-203.005644387606590
  0
LINE
  8
0
  6
CONTINUOUS
 62
3
 10
-466.290379016575120
 20
-209.548272651922730
 11
-466.290379016575120
 21
-212.563407759476950
  0
ARC
  8
0
  6
CONTINUOUS
 62
3
 10
-464.790379016575120
 20
-212.563407759476950
 40
1.500000000000000
 50
180.000000000000000
 51
275.531071524831360
  0
ARC
  8
0
  6
CONTINUOUS
 62
3
 10
-439.294924846840330
 20
-183.667034906081540
 40
1.499999999999926
 50
239.999999999998410
 51
337.180755781453340
  0
LINE
  8
0
  6
CONTINUOUS
 62
3
 10
-440.044924846840330
 20
-184.966073011758110
 11
-442.665693088909620
 21
-183.452971761716190
  0
ARC
  8
0
  6
CONTINUOUS
 62
3
 10
-441.915693088909620
 20
-182.153933656039160
 40
1.499999999999899
 50
157.928141766199360
 51
240.000000000007050
  0
ARC
  8
0
  6
CONTINUOUS
 62
3
 10
-468.790379016575570
 20
-171.256628654832300
 40
33.500000000000128
 50
337.180755781459030
 51
22.819244218541968
  0
ARC
  8
0
  6
CONTINUOUS
 62
3
 10
-468.790379016574890
 20
-171.256628654831840
 40
27.499999999999886
 50
337.928141766202200
 51
22.071858233797812
  0
ARC
  8
0
  6
CONTINUOUS
 62
3
 10
-441.915693088909390
 20
-160.359323653624530
 40
1.499999999999926
 50
120.000000000001620
 51
202.071858233797370
  0
ARC
  8
0
  6
CONTINUOUS
 62
3
 10
-439.294924846840560
 20
-158.846222403582600
 40
1.499999999999948
 50
22.819244218550043
 51
119.999999999997270
  0
LINE
  8
0
  6
CONTINUOUS
 62
3
 10
-442.665693088909390
 20
-159.060285547947960
 11
-440.044924846840560
 21
-157.547184297905800
  0
ARC
  8
0
  6
CONTINUOUS
 62
3
 10
-468.790379016575800
 20
-171.256628654831840
 40
33.500000000000071
 50
37.180755781458259
 51
82.819244218540931
  0
ARC
  8
0
  6
CONTINUOUS
 62
3
 10
-468.790379016575800
 20
-171.256628654831840
 40
36.999999999999943
 50
35.963570118321194
 51
84.036429881678174
  0
ARC
  8
0
  6
CONTINUOUS
 62
3
 10
-437.628842562424550
 20
-148.646705041148270
 40
1.500000000000102
 50
215.963570118316280
 51
299.999999999997270
  0
ARC
  8
0
  6
CONTINUOUS
 62
3
 10
-443.294924846840790
 20
-151.918019173306560
 40
1.499999999999926
 50
300.000000000001590
 51
37.180755781457485
  0
ARC
  8
0
  6
CONTINUOUS
 62
3
 10
-468.790379016575120
 20
-171.256628654831390
 40
27.500000000000060
 50
37.928141766201819
 51
82.071858233798309
  0
ARC
  8
0
  6
CONTINUOUS
 62
3
 10
-464.790379016575340
 20
-142.533815422141400
 40
1.500000000000000
 50
180.000000000000000
 51
262.071858233795980
  0
LINE
  8
0
  6
CONTINUOUS
 62
3
 10
-445.165693088909620
 20
-154.730158529025290
 11
-442.544924846840790
 21
-153.217057278983130
  0
ARC
  8
0
  6
CONTINUOUS
 62
3
 10
-445.915693088909620
 20
-153.431120423348720
 40
1.499999999999843
 50
217.928141766204990
 51
300.000000000001590
  0
CIRCLE
  8
0
  6
CONTINUOUS
 62
3
 10
-468.790379016575340
 20
-171.256628654831390
 40
5.000000000000000
  0
ARC
  8
0
  6
CONTINUOUS
 62
3
 10
-462.853125083381430
 20
-163.209951344737990
 40
1.499999999999693
 50
233.578178478195410
 51
300.000000000001590
  0
ARC
  8
0
  6
CONTINUOUS
 62
3
 10
-464.790379016575340
 20
-162.091477264919490
 40
1.500000000000000
 50
180.000000000000000
 51
246.421821521804280
  0
ARC
  8
0
  6
CONTINUOUS
 62
3
 10
-451.615199747530600
 20
-156.721732126951450
 40
1.499999999999926
 50
300.000000000001590
 51
40.240348321182964
  0
ARC
  8
0
  6
CONTINUOUS
 62
3
 10
-464.790379016575340
 20
-158.887311777978430
 40
1.500000000000138
 50
72.079786860605225
 51
180.000000000000000
  0
ARC
  8
0
  6
CONTINUOUS
 62
3
 10
-464.790379016575340
 20
-152.171293970839200
 40
1.500000000000000
 50
180.000000000000000
 51
258.162995844103310
  0
ARC
  8
0
  6
CONTINUOUS
 62
3
 10
-454.261994340509550
 20
-158.249859697697620
 40
1.499999999999967
 50
221.837004155893280
 51
300.000000000001590
  0
ARC
  8
0
  6
CONTINUOUS
 62
3
 10
-464.790379016575340
 20
-149.115038829346870
 40
1.499999999999952
 50
79.759651678814024
 51
180.000000000000000
  0
ARC
  8
0
  6
CONTINUOUS
 62
3
 10
-460.078236373761000
 20
-161.607868601267110
 40
1.499999999999926
 50
300.000000000001590
 51
47.920213139381872
  0
LINE
  8
0
  6
CONTINUOUS
 62
3
 10
-453.511994340509550
 20
-159.548897803374190
 11
-450.865199747530600
 21
-158.020770232628020
  0
ARC
  8
0
  6
CONTINUOUS
 62
3
 10
-468.790379016575120
 20
-171.256628654831390
 40
14.499999999999860
 50
47.920213139391755
 51
72.079786860608309
  0
LINE
  8
0
  6
CONTINUOUS
 62
3
 10
-466.290379016575340
 20
-158.887311777978430
 11
-466.290379016575340
 21
-162.091477264919490
  0
LINE
  8
0
  6
CONTINUOUS
 62
3
 10
-466.290379016575340
 20
-149.115038829346870
 11
-466.290379016575340
 21
-152.171293970839200
  0
LINE
  8
0
  6
CONTINUOUS
 62
3
 10
-462.103125083381430
 20
-164.508989450414560
 11
-459.328236373761000
 21
-162.906906706943690
  0
ARC
  8
0
  6
CONTINUOUS
 62
3
 10
-468.790379016575120
 20
-171.256628654831390
 40
23.999999999999819
 50
40.240348321186090
 51
79.759651678814322
  0
ARC
  8
0
  6
CONTINUOUS
 62
3
 10
-468.790379016575120
 20
-171.256628654831390
 40
8.500000000000101
 50
53.578178478202659
 51
66.421821521799089
  0
ARC
  8
0
  6
CONTINUOUS
 62
3
 10
-456.078236373761000
 20
-173.977185478120300
 40
1.499999999999926
 50
239.999999999998410
 51
347.920213139390400
  0
LINE
  8
0
  6
CONTINUOUS
 62
3
 10
-456.828236373761000
 20
-175.276223583796880
 11
-459.603125083381430
 21
-173.674140840326460
  0
ARC
  8
0
  6
CONTINUOUS
 62
3
 10
-458.853125083381430
 20
-172.375102734649890
 40
1.500000000000099
 50
173.578178478198990
 51
239.999999999998410
  0
ARC
  8
0
  6
CONTINUOUS
 62
3
 10
-468.790379016575120
 20
-171.256628654831390
 40
8.499999999999865
 50
353.578178478199500
 51
6.421821521797448
  0
ARC
  8
0
  6
CONTINUOUS
 62
3
 10
-458.853125083381430
 20
-170.138154575013350
 40
1.499999999999926
 50
120.000000000001620
 51
186.421821521801010
  0
LINE
  8
0
  6
CONTINUOUS
 62
3
 10
-459.603125083381430
 20
-168.839116469336770
 11
-456.828236373761000
 21
-167.237033725865900
  0
ARC
  8
0
  6
CONTINUOUS
 62
3
 10
-456.078236373761000
 20
-168.536071831542470
 40
1.500000000000192
 50
12.079786860592611
 51
120.000000000001620
  0
ARC
  8
0
  6
CONTINUOUS
 62
3
 10
-468.790379016575120
 20
-171.256628654831390
 40
14.500000000000169
 50
347.920213139391310
 51
12.079786860606980
  0
ARC
  8
0
  6
CONTINUOUS
 62
3
 10
-447.615199747530600
 20
-178.863321952435970
 40
1.499999999999926
 50
239.999999999998410
 51
340.240348321188210
  0
LINE
  8
0
  6
CONTINUOUS
 62
3
 10
-448.365199747530600
 20
-180.162360058112540
 11
-451.011994340509550
 21
-178.634232487366830
  0
ARC
  8
0
  6
CONTINUOUS
 62
3
 10
-450.261994340509550
 20
-177.335194381689800
 40
1.500000000000038
 50
161.837004155895410
 51
240.000000000007050
  0
ARC
  8
0
  6
CONTINUOUS
 62
3
 10
-468.790379016575120
 20
-171.256628654831390
 40
17.999999999999943
 50
341.837004155893340
 51
18.162995844106646
  0
ARC
  8
0
  6
CONTINUOUS
 62
3
 10
-450.261994340509550
 20
-165.178062927972970
 40
1.499999999999926
 50
120.000000000001620
 51
198.162995844104590
  0
LINE
  8
0
  6
CONTINUOUS
 62
3
 10
-451.011994340509550
 20
-163.879024822296400
 11
-448.365199747530600
 21
-162.350897251550240
  0
ARC
  8
0
  6
CONTINUOUS
 62
3
 10
-447.615199747530600
 20
-163.649935357226810
 40
1.500000000000246
 50
19.759651678811824
 51
120.000000000001620
  0
ARC
  8
0
  6
CONTINUOUS
 62
3
 10
-468.790379016575120
 20
-171.256628654831390
 40
24.000000000000139
 50
340.240348321186050
 51
19.759651678813924
  0
ARC
  8
0
  6
CONTINUOUS
 62
3
 10
-481.502521659389690
 20
-173.977185478120300
 40
1.500000000000287
 50
192.079786860609600
 51
300.000000000001590
  0
LINE
  8
0
  6
CONTINUOUS
 62
3
 10
-480.752521659389690
 20
-175.276223583796880
 11
-477.977632949769260
 21
-173.674140840326460
  0
ARC
  8
0
  6
CONTINUOUS
 62
3
 10
-478.727632949769260
 20
-172.375102734649890
 40
1.499999999999926
 50
300.000000000001590
 51
6.421821521801967
  0
ARC
  8
0
  6
CONTINUOUS
 62
3
 10
-468.790379016575800
 20
-171.256628654831390
 40
8.499999999999813
 50
173.578178478202550
 51
186.421821521800500
  0
ARC
  8
0
  6
CONTINUOUS
 62
3
 10
-478.727632949769260
 20
-170.138154575013350
 40
1.499999999999873
 50
353.578178478198030
 51
59.999999999998380
  0
LINE
  8
0
  6
CONTINUOUS
 62
3
 10
-477.977632949769260
 20
-168.839116469336770
 11
-480.752521659389910
 21
-167.237033725865900
  0
ARC
  8
0
  6
CONTINUOUS
 62
3
 10
-481.502521659389910
 20
-168.536071831542470
 40
1.499999999999926
 50
59.999999999998380
 51
167.920213139405550
  0
ARC
  8
0
  6
CONTINUOUS
 62
3
 10
-468.790379016575800
 20
-171.256628654831390
 40
14.499999999999851
 50
167.920213139392840
 51
192.079786860608920
  0
ARC
  8
0
  6
CONTINUOUS
 62
3
 10
-489.965558285620090
 20
-178.863321952435970
 40
1.500000000000246
 50
199.759651678811820
 51
300.000000000001590
  0
LINE
  8
0
  6
CONTINUOUS
 62
3
 10
-489.215558285620090
 20
-180.162360058112540
 11
-486.568763692641140
 21
-178.634232487366830
  0
ARC
  8
0
  6
CONTINUOUS
 62
3
 10
-487.318763692641140
 20
-177.335194381689800
 40
1.500000000000320
 50
299.999999999992950
 51
18.162995844104589
  0
ARC
  8
0
  6
CONTINUOUS
 62
3
 10
-468.790379016575800
 20
-171.256628654831390
 40
17.999999999999726
 50
161.837004155893140
 51
198.162995844106860
  0
ARC
  8
0
  6
CONTINUOUS
 62
3
 10
-487.318763692641140
 20
-165.178062927972970
 40
1.500000000000038
 50
341.837004155895390
 51
59.999999999998380
  0
LINE
  8
0
  6
CONTINUOUS
 62
3
 10
-486.568763692641140
 20
-163.879024822296400
 11
-489.215558285620320
 21
-162.350897251550240
  0
ARC
  8
0
  6
CONTINUOUS
 62
3
 10
-489.965558285620320
 20
-163.649935357226810
 40
1.499999999999926
 50
59.999999999998380
 51
160.240348321185250
  0
ARC
  8
0
  6
CONTINUOUS
 62
3
 10
-468.790379016575800
 20
-171.256628654831390
 40
23.999999999999925
 50
160.240348321185910
 51
199.759651678814090
  0
ARC
  8
0
  6
CONTINUOUS
 62
3
 10
-477.502521659389690
 20
-180.905388708396120
 40
1.500000000000320
 50
119.999999999992930
 51
227.920213139381870
  0
LINE
  8
0
  6
CONTINUOUS
 62
3
 10
-478.252521659389690
 20
-179.606350602719090
 11
-475.477632949769260
 21
-178.004267859248670
  0
ARC
  8
0
  6
CONTINUOUS
 62
3
 10
-474.727632949769260
 20
-179.303305964925240
 40
1.500000000000059
 50
53.578178478205707
 51
120.000000000001620
  0
ARC
  8
0
  6
CONTINUOUS
 62
3
 10
-468.790379016575340
 20
-171.256628654831840
 40
8.499999999999870
 50
233.578178478199590
 51
246.421821521797680
  0
ARC
  8
0
  6
CONTINUOUS
 62
3
 10
-472.790379016575340
 20
-180.421780044743740
 40
1.500000000000000
 50
0.000000000017370
 51
66.421821521804304
  0
LINE
  8
0
  6
CONTINUOUS
 62
3
 10
-471.290379016575340
 20
-180.421780044743290
 11
-471.290379016575340
 21
-183.625945531684580
  0
ARC
  8
0
  6
CONTINUOUS
 62
3
 10
-472.790379016575340
 20
-183.625945531684580
 40
1.500000000000355
 50
252.079786860607900
 51
0.000000000000000
  0
ARC
  8
0
  6
CONTINUOUS
 62
3
 10
-468.790379016575340
 20
-171.256628654831840
 40
14.500000000000011
 50
227.920213139391080
 51
252.079786860607410
  0
ARC
  8
0
  6
CONTINUOUS
 62
3
 10
-485.965558285620090
 20
-185.791525182711780
 40
1.499999999999926
 50
120.000000000001620
 51
220.240348321176330
  0
LINE
  8
0
  6
CONTINUOUS
 62
3
 10
-486.715558285620090
 20
-184.492487077035210
 11
-484.068763692641140
 21
-182.964359506289040
  0
ARC
  8
0
  6
CONTINUOUS
 62
3
 10
-483.318763692641140
 20
-184.263397611965620
 40
1.500000000000118
 50
41.837004155899741
 51
120.000000000001620
  0
ARC
  8
0
  6
CONTINUOUS
 62
3
 10
-468.790379016575340
 20
-171.256628654831840
 40
17.999999999999940
 50
221.837004155892320
 51
258.162995844106770
  0
ARC
  8
0
  6
CONTINUOUS
 62
3
 10
-472.790379016575340
 20
-190.341963338824030
 40
1.500000000000000
 50
0.000000000000000
 51
78.162995844101530
  0
LINE
  8
0
  6
CONTINUOUS
 62
3
 10
-471.290379016575340
 20
-190.341963338824030
 11
-471.290379016575340
 21
-193.398218480316360
  0
ARC
  8
0
  6
CONTINUOUS
 62
3
 10
-472.790379016575340
 20
-193.398218480316360
 40
1.499999999999728
 50
259.759651678812470
 51
0.000000000000000
  0
ARC
  8
0
  6
CONTINUOUS
 62
3
 10
-468.790379016575340
 20
-171.256628654831840
 40
23.999999999999844
 50
220.240348321185340
 51
259.759651678813730
  0
ARC
  8
0
  6
CONTINUOUS
 62
3
 10
-460.078236373761000
 20
-180.905388708396120
 40
1.499999999999944
 50
312.079786860618130
 51
60.000000000007070
  0
LINE
  8
0
  6
CONTINUOUS
 62
3
 10
-459.328236373761000
 20
-179.606350602719090
 11
-462.103125083381430
 21
-178.004267859248670
  0
ARC
  8
0
  6
CONTINUOUS
 62
3
 10
-462.853125083381430
 20
-179.303305964925240
 40
1.499999999999926
 50
59.999999999998380
 51
126.421821521801260
  0
ARC
  8
0
  6
CONTINUOUS
 62
3
 10
-468.790379016575340
 20
-171.256628654831840
 40
8.500000000000060
 50
293.578178478202350
 51
306.421821521799190
  0
ARC
  8
0
  6
CONTINUOUS
 62
3
 10
-464.790379016575340
 20
-180.421780044743740
 40
1.500000000000139
 50
113.578178478195690
 51
179.999999999982630
  0
LINE
  8
0
  6
CONTINUOUS
 62
3
 10
-466.290379016575340
 20
-180.421780044743290
 11
-466.290379016575340
 21
-183.625945531684580
  0
ARC
  8
0
  6
CONTINUOUS
 62
3
 10
-464.790379016575340
 20
-183.625945531684580
 40
1.500000000000000
 50
180.000000000000000
 51
287.920213139392100
  0
ARC
  8
0
  6
CONTINUOUS
 62
3
 10
-468.790379016575340
 20
-171.256628654831840
 40
14.500000000000121
 50
287.920213139392560
 51
312.079786860608860
  0
ARC
  8
0
  6
CONTINUOUS
 62
3
 10
-451.615199747530600
 20
-185.791525182711780
 40
1.499999999999828
 50
319.759651678823670
 51
59.999999999998380
  0
LINE
  8
0
  6
CONTINUOUS
 62
3
 10
-450.865199747530600
 20
-184.492487077035210
 11
-453.511994340509550
 21
-182.964359506289040
  0
ARC
  8
0
  6
CONTINUOUS
 62
3
 10
-454.261994340509550
 20
-184.263397611965620
 40
1.499999999999926
 50
59.999999999998380
 51
138.162995844100240
  0
ARC
  8
0
  6
CONTINUOUS
 62
3
 10
-468.790379016575340
 20
-171.256628654831840
 40
18.000000000000146
 50
281.837004155893230
 51
318.162995844107680
  0
ARC
  8
0
  6
CONTINUOUS
 62
3
 10
-464.790379016575340
 20
-190.341963338824030
 40
1.499999999999731
 50
101.837004155898450
 51
180.000000000000000
  0
LINE
  8
0
  6
CONTINUOUS
 62
3
 10
-466.290379016575340
 20
-190.341963338824030
 11
-466.290379016575340
 21
-193.398218480316360
  0
ARC
  8
0
  6
CONTINUOUS
 62
3
 10
-464.790379016575340
 20
-193.398218480316360
 40
1.500000000000000
 50
180.000000000000000
 51
280.240348321187530
  0
ARC
  8
0
  6
CONTINUOUS
 62
3
 10
-468.790379016575340
 20
-171.256628654831840
 40
23.999999999999716
 50
280.240348321186270
 51
319.759651678814690
  0
ARC
  8
0
  6
CONTINUOUS
 62
3
 10
-472.790379016575340
 20
-158.887311777978430
 40
1.500000000000000
 50
0.000000000000000
 51
107.920213139394770
  0
LINE
  8
0
  6
CONTINUOUS
 62
3
 10
-471.290379016575340
 20
-158.887311777978430
 11
-471.290379016575340
 21
-162.091477264919490
  0
ARC
  8
0
  6
CONTINUOUS
 62
3
 10
-472.790379016575340
 20
-162.091477264919490
 40
1.500000000000139
 50
293.578178478195700
 51
0.000000000000000
  0
ARC
  8
0
  6
CONTINUOUS
 62
3
 10
-468.790379016575800
 20
-171.256628654831390
 40
8.499999999999879
 50
113.578178478199500
 51
126.421821521797340
  0
ARC
  8
0
  6
CONTINUOUS
 62
3
 10
-474.727632949769260
 20
-163.209951344737990
 40
1.499999999999926
 50
239.999999999998410
 51
306.421821521797600
  0
LINE
  8
0
  6
CONTINUOUS
 62
3
 10
-475.477632949769260
 20
-164.508989450414560
 11
-478.252521659389910
 21
-162.906906706943690
  0
ARC
  8
0
  6
CONTINUOUS
 62
3
 10
-477.502521659389910
 20
-161.607868601267110
 40
1.499999999999792
 50
132.079786860611680
 51
239.999999999998410
  0
ARC
  8
0
  6
CONTINUOUS
 62
3
 10
-468.790379016575800
 20
-171.256628654831390
 40
14.499999999999980
 50
107.920213139390830
 51
132.079786860607560
  0
ARC
  8
0
  6
CONTINUOUS
 62
3
 10
-472.790379016575340
 20
-149.115038829346870
 40
1.500000000000000
 50
0.000000000000000
 51
100.240348321194510
  0
LINE
  8
0
  6
CONTINUOUS
 62
3
 10
-471.290379016575340
 20
-149.115038829346870
 11
-471.290379016575340
 21
-152.171293970839200
  0
ARC
  8
0
  6
CONTINUOUS
 62
3
 10
-472.790379016575340
 20
-152.171293970839200
 40
1.499999999999954
 50
281.837004155896690
 51
0.000000000000000
  0
ARC
  8
0
  6
CONTINUOUS
 62
3
 10
-468.790379016575800
 20
-171.256628654831390
 40
17.999999999999829
 50
101.837004155891980
 51
138.162995844106210
  0
ARC
  8
0
  6
CONTINUOUS
 62
3
 10
-483.318763692641140
 20
-158.249859697697620
 40
1.499999999999926
 50
239.999999999998410
 51
318.162995844106720
  0
LINE
  8
0
  6
CONTINUOUS
 62
3
 10
-484.068763692641140
 20
-159.548897803374190
 11
-486.715558285620320
 21
-158.020770232628020
  0
ARC
  8
0
  6
CONTINUOUS
 62
3
 10
-485.965558285620320
 20
-156.721732126951450
 40
1.499999999999802
 50
139.759651678811420
 51
239.999999999998410
  0
ARC
  8
0
  6
CONTINUOUS
 62
3
 10
-468.790379016575800
 20
-171.256628654831390
 40
23.999999999999901
 50
100.240348321185670
 51
139.759651678813550
  0
ARC
  8
0
  6
CONTINUOUS
 62
3
 10
-472.790379016575340
 20
-139.507612922056860
 40
1.500000000000000
 50
0.000000000000000
 51
97.180755781458288
  0
LINE
  8
0
  6
CONTINUOUS
 62
3
 10
-471.290379016575340
 20
-139.507612922056860
 11
-471.290379016575340
 21
-142.533815422141400
  0
ARC
  8
0
  6
CONTINUOUS
 62
3
 10
-472.790379016575340
 20
-132.964984657740270
 40
1.499999999999933
 50
275.963570118318330
 51
0.000000000000000
  0
LINE
  8
0
  6
CONTINUOUS
 62
3
 10
-471.290379016575340
 20
-129.949849550186060
 11
-471.290379016575340
 21
-132.964984657740270
  0
LINE
  8
0
  6
CONTINUOUS
 62
3
 10
-434.267658963440000
 20
-194.075081716615950
 11
-436.878842562424100
 21
-192.567514162838620
  0
ARC
  8
0
  6
CONTINUOUS
 62
3
 10
-435.017658963440000
 20
-195.374119822292530
 40
1.499999999999844
 50
324.468928475167900
 51
59.999999999998380
  0
ARC
  8
0
  6
CONTINUOUS
 62
3
 10
-433.628842562424100
 20
-186.938349038239830
 40
1.500000000000063
 50
155.963570118322880
 51
239.999999999998410
  0
LINE
  8
0
  6
CONTINUOUS
 62
3
 10
-431.767658963440000
 20
-189.744954697693740
 11
-434.378842562424100
 21
-188.237387143916410
  0
ARC
  8
0
  6
CONTINUOUS
 62
3
 10
-431.017658963440000
 20
-188.445916592016720
 40
1.500000000000320
 50
240.000000000007050
 51
335.531071524832500
  0
ARC
  8
0
  6
CONTINUOUS
 62
3
 10
-468.790379016575570
 20
-171.256628654832300
 40
42.999999999999936
 50
335.531071524839770
 51
24.468928475160769
  0
ARC
  8
0
  6
CONTINUOUS
 62
3
 10
-468.790379016575570
 20
-171.256628654832300
 40
36.999999999999972
 50
335.963570118321740
 51
24.036429881678870
  0
ARC
  8
0
  6
CONTINUOUS
 62
3
 10
-433.628842562424320
 20
-155.574908271424310
 40
1.500000000000123
 50
119.999999999997270
 51
204.036429881680680
  0
LINE
  8
0
  6
CONTINUOUS
 62
3
 10
-434.378842562424320
 20
-154.275870165747510
 11
-431.767658963440000
 21
-152.768302611970400
  0
ARC
  8
0
  6
CONTINUOUS
 62
3
 10
-431.017658963440000
 20
-154.067340717647200
 40
1.500000000000034
 50
24.468928475159590
 51
119.999999999997270
  0
ARC
  8
0
  6
CONTINUOUS
 62
3
 10
-468.790379016575800
 20
-171.256628654831840
 40
42.999999999999908
 50
35.531071524839248
 51
84.468928475160212
  0
ARC
  8
0
  6
CONTINUOUS
 62
3
 10
-435.017658963440450
 20
-147.139137487371160
 40
1.500000000000123
 50
299.999999999997270
 51
35.531071524839192
  0
ARC
  8
0
  6
CONTINUOUS
 62
3
 10
-464.790379016575340
 20
-132.964984657740270
 40
1.500000000000000
 50
180.000000000000000
 51
264.036429881682580
  0
ARC
  8
0
  6
CONTINUOUS
 62
3
 10
-464.790379016575340
 20
-139.507612922056860
 40
1.499999999999998
 50
82.819244218541712
 51
180.000000000000000
  0
LINE
  8
0
  6
CONTINUOUS
 62
3
 10
-466.290379016575340
 20
-139.507612922056860
 11
-466.290379016575340
 21
-142.533815422141400
  0
LINE
  8
0
  6
CONTINUOUS
 62
3
 10
-436.878842562424550
 20
-149.945743146825070
 11
-434.267658963440450
 21
-148.438175593047960
  0
LINE
  8
0
  6
CONTINUOUS
 62
3
 10
-466.290379016575340
 20
-129.949849550186290
 11
-466.290379016575340
 21
-132.964984657740270
  0
ARC
  8
0
  6
CONTINUOUS
 62
3
 10
-468.790379016575570
 20
-171.256628654831390
 40
27.499999999999815
 50
97.928141766201691
 51
142.071858233797880
  0
ARC
  8
0
  6
CONTINUOUS
 62
3
 10
-468.790379016575120
 20
-171.256628654831390
 40
17.999999999999922
 50
41.837004155893325
 51
78.162995844107314
  0
ARC
  8
0
  6
CONTINUOUS
 62
3
 10
-472.790379016575340
 20
-129.949849550186060
 40
1.500000000000000
 50
0.000000000000000
 51
95.531071524841693
  0
ARC
  8
0
  6
CONTINUOUS
 62
3
 10
-464.790379016575340
 20
-129.949849550186290
 40
1.500000000000203
 50
84.468928475159132
 51
180.000000000000000
  0
LINE
  8
0
  6
CONTINUOUS
 62
3
 10
-517.405871202689010
 20
-226.020147878191550
 11
-524.472320321348210
 21
-218.953698759531900
  0
LINE
  8
0
  6
CONTINUOUS
 62
3
 10
-420.174886830461670
 20
-116.493109431472360
 11
-413.108437711802710
 21
-123.559558550131320
  0
ARC
  8
0
  6
CONTINUOUS
 62
3
 10
-233.190379016575320
 20
-171.256628654831840
 40
300.599999999999970
 50
173.948014641331500
 51
186.051985358668500
  0
ARC
  8
0
  6
CONTINUOUS
 62
3
 10
-468.790379016575340
 20
-411.856628654831750
 40
300.599999999999910
 50
90.000000000000000
 51
98.597082237249069
  0
ARC
  8
0
  6
CONTINUOUS
 62
3
 10
-468.790379016575340
 20
69.343371345168293
 40
300.600000000000140
 50
270.000000000000000
 51
278.597082237249080
  0
ARC
  8
0
  6
CONTINUOUS
 62
3
 10
-424.841791586292860
 20
-121.160014187303540
 40
6.600000000000118
 50
45.000000000001400
 51
81.402917762751386
  0
ARC
  8
0
  6
CONTINUOUS
 62
3
 10
-468.790379016575340
 20
-411.856628654831750
 40
300.599999999999800
 50
81.402917762750931
 51
90.000000000000000
  0
ARC
  8
0
  6
CONTINUOUS
 62
3
 10
-704.390379016575250
 20
-171.256628654831840
 40
300.600000000000080
 50
353.948014641331500
 51
6.051985358668499
  0
LINE
  8
0
  6
CONTINUOUS
 62
3
 10
-420.174886830461670
 20
-226.020147878191550
 11
-413.108437711802250
 21
-218.953698759531900
  0
ARC
  8
0
  6
CONTINUOUS
 62
3
 10
-424.841791586292860
 20
-221.353243122360370
 40
6.599999999999747
 50
278.597082237248910
 51
315.000000000000000
  0
ARC
  8
0
  6
CONTINUOUS
 62
3
 10
-468.790379016575340
 20
69.343371345168293
 40
300.600000000000020
 50
261.402917762750920
 51
270.000000000000000
  0
ARC
  8
0
  6
CONTINUOUS
 62
3
 10
-512.738966446857830
 20
-221.353243122360370
 40
6.599999999999957
 50
225.000000000000000
 51
261.402917762751090
  0
LINE
  8
0
  6
CONTINUOUS
 62
3
 10
-517.405871202689010
 20
-116.493109431472360
 11
-524.472320321347980
 21
-123.559558550131320
  0
ARC
  8
0
  6
CONTINUOUS
 62
3
 10
-431.917478091364960
 20
-142.368598929693580
 40
26.600000000000193
 50
6.051985358668552
 51
45.000000000000000
  0
ARC
  8
0
  6
CONTINUOUS
 62
3
 10
-505.663279941785730
 20
-142.368598929693580
 40
26.600000000000119
 50
135.000000000000000
 51
173.948014641331410
  0
ARC
  8
0
  6
CONTINUOUS
 62
3
 10
-505.663279941785730
 20
-200.144658379970110
 40
26.599999999999969
 50
186.051985358668590
 51
224.999999999998980
  0
ARC
  8
0
  6
CONTINUOUS
 62
3
 10
-431.917478091364730
 20
-200.144658379970110
 40
26.599999999999955
 50
315.000000000001020
 51
353.948014641331380
  0
ARC
  8
0
  6
CONTINUOUS
 62
4
 10
-505.663279941785730
 20
-142.368598929693580
 40
15.396999999999876
 50
135.000000000000000
 51
173.948014641331160
  0
ARC
  8
0
  6
CONTINUOUS
 62
4
 10
-704.390379016575250
 20
-171.256628654831840
 40
289.397000000000160
 50
0.000000000000000
 51
6.051985358668508
  0
ARC
  8
0
  6
CONTINUOUS
 62
4
 10
-431.917478091364730
 20
-142.368598929693580
 40
15.397000000000052
 50
6.051985358668849
 51
45.000000000000000
  0
LINE
  8
0
  6
CONTINUOUS
 62
4
 10
-425.606220374073930
 20
-126.905210427125550
 11
-421.030154981435320
 21
-131.481275819764160
  0
ARC
  8
0
  6
CONTINUOUS
 62
4
 10
-429.848861061193020
 20
-131.147851114245100
 40
6.000000000000049
 50
45.000000000003077
 51
82.102011327574374
  0
ARC
  8
0
  6
CONTINUOUS
 62
4
 10
-468.790379016575340
 20
-411.856628654831750
 40
289.396999999999820
 50
82.102011327572214
 51
90.000000000000000
  0
ARC
  8
0
  6
CONTINUOUS
 62
4
 10
-704.390379016575250
 20
-171.256628654831840
 40
289.397000000000160
 50
353.948014641331500
 51
0.000000000000000
  0
ARC
  8
0
  6
CONTINUOUS
 62
4
 10
-431.917478091364730
 20
-200.144658379970110
 40
15.396999999999876
 50
315.000000000000000
 51
353.948014641331160
  0
LINE
  8
0
  6
CONTINUOUS
 62
4
 10
-425.606220374073930
 20
-215.608046882538130
 11
-421.030154981435320
 21
-211.031981489899520
  0
ARC
  8
0
  6
CONTINUOUS
 62
4
 10
-429.848861061193020
 20
-211.365406195418590
 40
5.999999999999923
 50
277.897988672425640
 51
314.999999999996870
  0
ARC
  8
0
  6
CONTINUOUS
 62
4
 10
-468.790379016575340
 20
69.343371345168066
 40
289.396999999999930
 50
270.000000000000000
 51
277.897988672427800
  0
ARC
  8
0
  6
CONTINUOUS
 62
4
 10
-233.190379016575210
 20
-171.256628654831840
 40
289.397000000000160
 50
180.000000000000000
 51
186.051985358668500
  0
ARC
  8
0
  6
CONTINUOUS
 62
4
 10
-505.663279941785730
 20
-200.144658379970110
 40
15.397000000000052
 50
186.051985358668840
 51
225.000000000000000
  0
LINE
  8
0
  6
CONTINUOUS
 62
4
 10
-511.974537659076530
 20
-215.608046882538130
 11
-516.550603051715140
 21
-211.031981489899520
  0
ARC
  8
0
  6
CONTINUOUS
 62
4
 10
-507.731896971957440
 20
-211.365406195418590
 40
6.000000000000049
 50
225.000000000003070
 51
262.102011327574360
  0
ARC
  8
0
  6
CONTINUOUS
 62
4
 10
-468.790379016575120
 20
69.343371345168066
 40
289.396999999999820
 50
262.102011327572200
 51
270.000000000000000
  0
ARC
  8
0
  6
CONTINUOUS
 62
3
 10
-554.090379016575300
 20
-185.299128654831860
 40
20.800000000000082
 50
274.191726156007460
 51
354.952683218987430
  0
LINE
  8
0
  6
CONTINUOUS
 62
3
 10
-533.290379016575340
 20
-153.926019894606440
 11
-533.290379016575340
 21
-145.299128654831860
  0
ARC
  8
0
  6
CONTINUOUS
 62
3
 10
-552.090379016575300
 20
-145.299128654831860
 40
18.799999999999955
 50
0.000000000000000
 51
79.401214733933941
  0
ARC
  8
0
  6
CONTINUOUS
 62
3
 10
-554.090379016575300
 20
-185.299128654831860
 40
20.799999999999986
 50
174.275189547776620
 51
205.640070215894870
  0
ARC
  8
0
  6
CONTINUOUS
 62
3
 10
-554.090379016575300
 20
-185.299128654831860
 40
20.799999999999926
 50
205.640070215894870
 51
260.083463391769440
  0
ARC
  8
0
  6
CONTINUOUS
 62
3
 10
-554.090379016575300
 20
-185.299128654831860
 40
20.799999999999986
 50
174.275189547776620
 51
205.640070215894870
  0
ARC
  8
0
  6
CONTINUOUS
 62
3
 10
-548.264624382488360
 20
-124.853992277694140
 40
1.999999999999927
 50
177.137594773887290
 51
259.401214733934010
  0
ARC
  8
0
  6
CONTINUOUS
 62
3
 10
-553.857637480204180
 20
-124.574341622808330
 40
1.999999999999928
 50
274.873974813840960
 51
357.137594773887320
  0
ARC
  8
0
  6
CONTINUOUS
 62
3
 10
-552.423831750191770
 20
-208.038139631761170
 40
1.999999999999962
 50
94.191726156001650
 51
177.137594773887290
  0
LINE
  8
0
  6
CONTINUOUS
 62
3
 10
-550.592250508258530
 20
-115.336558488496620
 11
-555.685887436535490
 21
-217.209297054036710
  0
ARC
  8
0
  6
CONTINUOUS
 62
3
 10
-558.016844847907580
 20
-207.758488976875360
 40
2.000000000000154
 50
357.137594773887600
 51
80.083463391767268
  0
LINE
  8
0
  6
CONTINUOUS
 62
3
 10
-574.786638368196240
 20
-183.224315687250850
 11
-570.796613430540220
 21
-143.423816934133580
  0
ARC
  8
0
  6
CONTINUOUS
 62
3
 10
-552.090379016575300
 20
-145.299128654831860
 40
18.800000000000036
 50
94.873974813842736
 51
144.191373186504250
  0
ARC
  8
0
  6
CONTINUOUS
 62
3
 10
-552.090379016575300
 20
-145.299128654831860
 40
18.799999999999933
 50
144.191373186504250
 51
174.275189547776390
  0
LINE
  8
0
  6
CONTINUOUS
 62
3
 10
-551.391252379360820
 20
-115.296608394941470
 11
-549.793248637156240
 21
-115.376508582051650
  0
ARC
  8
0
  6
CONTINUOUS
 62
3
 10
-545.248925876255270
 20
-120.609970818721760
 40
9.000000000000060
 50
160.536063666407810
 51
193.739143184213500
  0
POINT
  8
0
  6
CONTINUOUS
 62
3
 10
-551.640940464079680
 20
-120.290370089330500
  0
LINE
  8
0
  6
CONTINUOUS
 62
3
 10
-551.466158804776110
 20
-116.794736903258120
 11
-551.815722123383240
 21
-123.786003275403000
  0
LINE
  8
0
  6
CONTINUOUS
 62
3
 10
-551.466158804776110
 20
-116.794736903258120
 11
-551.815722123383240
 21
-123.786003275403000
  0
LINE
  8
0
  6
CONTINUOUS
 62
3
 10
-551.815722123383240
 20
-123.786003275403000
 11
-552.793525935891010
 21
-123.737113084777660
  0
LINE
  8
0
  6
CONTINUOUS
 62
3
 10
-551.466158804776110
 20
-116.794736903258120
 11
-552.443962617283660
 21
-116.745846712632780
  0
ARC
  8
0
  6
CONTINUOUS
 62
3
 10
-552.728607071963320
 20
-122.438735806224030
 40
1.299999237060493
 50
193.739143184211430
 51
267.137612759980240
  0
ARC
  8
0
  6
CONTINUOUS
 62
3
 10
-552.508881481211350
 20
-118.044223991186300
 40
1.299999237060474
 50
87.137594090651831
 51
160.536063666412870
  0
LINE
  8
0
  6
CONTINUOUS
 62
3
 10
-551.391252379360820
 20
-115.296608394941470
 11
-556.484889307637790
 21
-217.169346960481450
  0
LINE
  8
0
  6
CONTINUOUS
 62
3
 10
-554.886885565433200
 20
-217.249247147592430
 11
-556.484889307637790
 21
-217.169346960481450
  0
LINE
  8
0
  6
CONTINUOUS
 62
3
 10
-549.793248637156240
 20
-115.376508582051650
 11
-554.886885565433200
 21
-217.249247147592430
  0
INSERT
  8
0
  2
SYM15
 10
-556.235201222918700
 20
-212.175585266092300
 41
1.000000000000000
 42
1.000000000000000
 43
1.000000000000000
 50
357.137594773886350
  0
INSERT
  8
0
  2
SYM16
 10
-413.989603474618210
 20
-256.557404196787390
  0
ARC
  8
0
  6
CONTINUOUS
 62
3
 10
-468.790379016575800
 20
-201.756628654830020
 40
35.000000000000043
 50
235.503770534084740
 51
304.496229465915120
  0
ARC
  8
0
  6
CONTINUOUS
 62
3
 10
-482.290379016575800
 20
-215.256628654830020
 40
70.000000000000000
 50
180.000000000000000
 51
270.000000000000000
  0
ARC
  8
0
  6
CONTINUOUS
 62
3
 10
-455.290379016575800
 20
-215.256628654830020
 40
70.000000000000000
 50
270.000000000000000
 51
0.000000000000000
  0
LINE
  8
0
  6
CONTINUOUS
 62
3
 10
-552.290379016575800
 20
-206.021097673243280
 11
-552.290379016575800
 21
-215.256628654830020
  0
LINE
  8
0
  6
CONTINUOUS
 62
3
 10
-455.290379016575800
 20
-285.256628654830020
 11
-482.290379016575800
 21
-285.256628654830020
  0
LINE
  8
0
  6
CONTINUOUS
 62
3
 10
-385.290379016575800
 20
-207.256628654831840
 11
-385.290379016575800
 21
-215.256628654830020
  0
ARC
  8
0
  6
CONTINUOUS
 62
3
 10
-482.290379016575800
 20
-188.256628654830020
 40
69.999999999999986
 50
135.306935940307080
 51
137.401051550009840
  0
LINE
  8
0
  6
CONTINUOUS
 62
3
 10
-446.290379016575800
 20
-231.260357715058720
 11
-446.290379016575800
 21
-277.256628654830020
  0
LINE
  8
0
  6
CONTINUOUS
 62
3
 10
-451.290379016575800
 20
-236.881406234197020
 11
-451.290379016575800
 21
-277.256628654830020
  0
LINE
  8
0
  6
CONTINUOUS
 62
3
 10
-486.290379016575800
 20
-236.881406234197020
 11
-486.290379016575800
 21
-277.256628654830020
  0
LINE
  8
0
  6
CONTINUOUS
 62
3
 10
-491.290379016575800
 20
-231.260357715058720
 11
-491.290379016575800
 21
-277.256628654830020
  0
ARC
  8
0
  6
CONTINUOUS
 62
3
 10
-443.290379016575800
 20
-277.256628654830020
 40
3.000000000000000
 50
180.000000000000000
 51
270.000000000000000
  0
ARC
  8
0
  6
CONTINUOUS
 62
3
 10
-454.290379016575800
 20
-277.256628654830020
 40
3.000000000000000
 50
270.000000000000000
 51
0.000000000000000
  0
ARC
  8
0
  6
CONTINUOUS
 62
3
 10
-483.290379016575800
 20
-277.256628654830020
 40
3.000000000000000
 50
180.000000000000000
 51
270.000000000000000
  0
ARC
  8
0
  6
CONTINUOUS
 62
3
 10
-494.290379016575800
 20
-277.256628654830020
 40
3.000000000000000
 50
270.000000000000000
 51
0.000000000000000
  0
ARC
  8
0
  6
CONTINUOUS
 62
3
 10
-443.290379016575800
 20
-231.260357715058720
 40
2.999999999999810
 50
163.413785109983560
 51
180.000000000000000
  0
ARC
  8
0
  6
CONTINUOUS
 62
3
 10
-454.290379016575800
 20
-236.881406234197020
 40
3.000000000000000
 50
0.000000000000000
 51
112.431520635375430
  0
ARC
  8
0
  6
CONTINUOUS
 62
3
 10
-483.290379016575800
 20
-236.881406234197020
 40
3.000000000000127
 50
67.568479364624565
 51
180.000000000000000
  0
ARC
  8
0
  6
CONTINUOUS
 62
3
 10
-494.290379016575800
 20
-231.260357715058720
 40
3.000000000000000
 50
0.000000000000000
 51
16.586214890013956
  0
ARC
  8
0
  6
CONTINUOUS
 62
3
 10
-413.989603474618210
 20
-256.557404196787390
 40
7.500000000000062
 50
57.076446369969339
 51
212.923553630030680
  0
ARC
  8
0
  6
CONTINUOUS
 62
3
 10
-523.591154558533390
 20
-256.557404196787390
 40
7.500000000000062
 50
327.076446369969290
 51
122.923553630030650
  0
ARC
  8
0
  6
CONTINUOUS
 62
3
 10
-408.282648073336760
 20
-247.743740937518620
 40
2.999999999999918
 50
237.076446369970110
 51
322.764423686620200
  0
ARC
  8
0
  6
CONTINUOUS
 62
3
 10
-422.803266733887310
 20
-262.264359598068840
 40
3.000000000000068
 50
307.235576313381440
 51
32.923553630026383
  0
ARC
  8
0
  6
CONTINUOUS
 62
3
 10
-514.777491299264280
 20
-262.264359598068840
 40
3.000000000000205
 50
147.076446369973640
 51
232.764423686618530
  0
ARC
  8
0
  6
CONTINUOUS
 62
3
 10
-529.298109959814840
 20
-247.743740937518620
 40
2.999999999999999
 50
217.235576313379800
 51
302.923553630029910
  0
LINE
  8
0
  6
DASHDOT
 62
4
 10
-618.582253832140850
 20
-171.256628654831840
 11
-321.162633248106430
 21
-171.256628654831840
  0
ARC
  8
0
  6
CONTINUOUS
 62
3
 10
-577.954115029124980
 20
-104.613707922452930
 40
5.000000000000201
 50
45.000000000000000
 51
143.279272265286270
  0
ARC
  8
0
  6
CONTINUOUS
 62
3
 10
-566.695193383864760
 20
-91.830999007370337
 40
4.999999999999923
 50
133.973975518351350
 51
225.000000000003690
  0
ARC
  8
0
  6
CONTINUOUS
 62
3
 10
-359.626643004025710
 20
-104.613707922452930
 40
5.000000000000055
 50
36.720727734715837
 51
135.000000000000000
  0
LINE
  8
0
  6
CONTINUOUS
 62
3
 10
-468.790379016575340
 20
-81.756628654829910
 11
-451.290379016575340
 21
-81.756628654829910
  0
LINE
  8
0
  6
CONTINUOUS
 62
3
 10
-486.290379016575340
 20
-81.756628654829910
 11
-468.790379016575340
 21
-81.756628654829910
  0
ARC
  8
0
  6
CONTINUOUS
 62
3
 10
-477.290379016575340
 20
-86.756628654829910
 40
5.000000000000000
 50
0.000000000000000
 51
90.000000000000000
  0
ARC
  8
0
  6
CONTINUOUS
 62
3
 10
-460.290379016575340
 20
-86.756628654829910
 40
5.000000000000000
 50
90.000000000000000
 51
180.000000000000000
  0
ARC
  8
0
  6
CONTINUOUS
 62
3
 10
-451.290379016575340
 20
-78.756628654829910
 40
3.000000000000000
 50
270.000000000000000
 51
0.000000000000000
  0
ARC
  8
0
  6
CONTINUOUS
 62
3
 10
-486.290379016575340
 20
-78.756628654829910
 40
3.000000000000000
 50
180.000000000000000
 51
270.000000000000000
  0
ARC
  8
0
  6
CONTINUOUS
 62
3
 10
-370.885564649285930
 20
-91.830999007370337
 40
5.000000000000041
 50
315.000000000001820
 51
46.026024481648633
  0
LINE
  8
0
  6
CONTINUOUS
 62
3
 10
-472.290379016575340
 20
-85.756628654829910
 11
-472.290379016575340
 21
-111.277005260297520
  0
LINE
  8
0
  6
CONTINUOUS
 62
3
 10
-465.290379016575340
 20
-86.756628654829910
 11
-465.290379016575340
 21
-111.277005260297520
  0
LINE
  8
0
  6
CONTINUOUS
 62
3
 10
-334.469190977875540
 20
-222.330274843990540
 11
-349.882395363733620
 21
-279.972230353820120
  0
LINE
  8
0
  6
CONTINUOUS
 62
3
 10
-603.111567055276050
 20
-222.330274843990540
 11
-587.698362669417970
 21
-279.972230353820120
  0
LINE
  8
0
  6
CONTINUOUS
 62
3
 10
-383.554890012987700
 20
-282.042370190110660
 11
-366.932421765005760
 21
-298.664838438092370
  0
LINE
  8
0
  6
CONTINUOUS
 62
3
 10
-387.563130450133710
 20
-287.933624689576160
 11
-371.247798265950910
 21
-304.248956873758970
  0
LINE
  8
0
  6
CONTINUOUS
 62
3
 10
-405.073934680290450
 20
-133.090436850239940
 11
-367.350030743353050
 21
-95.366532913302990
  0
LINE
  8
0
  6
CONTINUOUS
 62
3
 10
-397.340631548270840
 20
-135.256628654831840
 11
-363.162176909958590
 21
-101.078174016520050
  0
LINE
  8
0
  6
CONTINUOUS
 62
3
 10
-548.688112572954200
 20
-126.808642566757610
 11
-550.219274671551830
 21
-125.277480468160030
  0
LINE
  8
0
  6
CONTINUOUS
 62
3
 10
-532.506823352860240
 20
-133.090436850239940
 11
-549.813605922103420
 21
-115.783654280996750
  0
LINE
  8
0
  6
CONTINUOUS
 62
3
 10
-537.456570821166000
 20
-265.473072991113900
 11
-570.648336268144930
 21
-298.664838438092370
  0
LINE
  8
0
  6
CONTINUOUS
 62
3
 10
-536.067086043513200
 20
-273.983083150072840
 11
-566.332959767199780
 21
-304.248956873759200
  0
ARC
  8
0
  6
CONTINUOUS
 62
3
 10
-353.790379016575340
 20
-217.163874474952080
 40
19.999999999999925
 50
345.029598694534740
 51
0.000000000000000
  0
ARC
  8
0
  6
CONTINUOUS
 62
3
 10
-583.790379016575800
 20
-217.163874474952080
 40
20.000000000000000
 50
180.000000000000000
 51
194.970401305464950
  0
ARC
  8
0
  6
CONTINUOUS
 62
3
 10
-380.019356107055270
 20
-278.506836284177780
 40
4.999999999999973
 50
149.498945295270290
 51
225.000000000003690
  0
ARC
  8
0
  6
CONTINUOUS
 62
3
 10
-391.098664356066590
 20
-291.469158595508820
 40
5.000000000000041
 50
44.999999999998167
 51
129.457930749405760
  0
ARC
  8
0
  6
CONTINUOUS
 62
3
 10
-478.804276530535160
 20
-290.256628654829910
 40
5.000000000000000
 50
90.000000000000000
 51
124.921969447764190
  0
ARC
  8
0
  6
CONTINUOUS
 62
3
 10
-499.985307991490800
 20
-259.919128654829820
 40
31.999999999999829
 50
191.617396360406130
 51
304.921969447764520
  0
ARC
  8
0
  6
CONTINUOUS
 62
3
 10
-536.227331630741220
 20
-267.370016020239520
 40
5.000000000000277
 50
11.617396360404429
 51
44.014880135744747
  0
ARC
  8
0
  6
CONTINUOUS
 62
3
 10
-454.796050619183230
 20
-290.256628654829910
 40
5.000000000000199
 50
48.360992047546546
 51
90.000000000000000
  0
ARC
  8
0
  6
CONTINUOUS
 62
3
 10
-381.195076688785550
 20
-226.870679324318190
 40
5.000000000000142
 50
171.091670649431510
 51
213.109776708314170
  0
ARC
  8
0
  6
CONTINUOUS
 62
3
 10
-408.609468586223330
 20
-129.554902944307060
 40
4.999999999999975
 50
293.429622538527720
 51
315.000000000000000
  0
ARC
  8
0
  6
CONTINUOUS
 62
3
 10
-528.971289446927360
 20
-129.554902944307060
 40
5.000000000000201
 50
225.000000000000000
 51
246.570377461472250
  0
ARC
  8
0
  6
CONTINUOUS
 62
3
 10
-540.992104727098880
 20
-261.937539085181240
 40
5.000000000000041
 50
315.000000000001820
 51
38.492496408252435
  0
ARC
  8
0
  6
CONTINUOUS
 62
3
 10
-422.238727164248080
 20
-253.636679317743980
 40
44.000000000000071
 50
319.912288498426220
 51
33.109776708315003
  0
ARC
  8
0
  6
CONTINUOUS
 62
3
 10
-422.238727164248080
 20
-253.636679317743980
 40
43.999999999999915
 50
228.360992047548710
 51
319.912288498426220
  0
ARC
  8
0
  6
CONTINUOUS
 62
3
 10
-532.531552137580320
 20
-277.518617056005500
 40
4.999999999999702
 50
28.402451678796261
 51
135.000000000001820
  0
ARC
  8
0
  6
CONTINUOUS
 62
3
 10
-515.342030868902610
 20
-253.636679317743980
 40
76.999999999999844
 50
199.999999999999770
 51
234.885533069884020
  0
ARC
  8
0
  6
CONTINUOUS
 62
3
 10
-564.235034964153560
 20
-323.167062248817960
 40
8.000000000000373
 50
4.494156527999717
 51
54.885533069884232
  0
ARC
  8
0
  6
CONTINUOUS
 62
3
 10
-546.290379016575340
 20
-321.756628654829460
 40
9.999999999999778
 50
184.494156527999370
 51
233.130102354155980
  0
ARC
  8
0
  6
CONTINUOUS
 62
3
 10
-391.290379016575340
 20
-321.756628654829460
 40
10.000000000000000
 50
306.869897645843990
 51
355.505843472000610
  0
ARC
  8
0
  6
CONTINUOUS
 62
3
 10
-373.345723068997130
 20
-323.167062248817960
 40
7.999999999999969
 50
125.114466930115760
 51
175.505843472000290
  0
ARC
  8
0
  6
CONTINUOUS
 62
3
 10
-422.238727164248080
 20
-253.636679317743980
 40
77.000000000000085
 50
305.114466930115950
 51
340.000000000000340
  0
ARC
  8
0
  6
CONTINUOUS
 62
3
 10
-562.797425861267360
 20
-307.784490779691850
 40
4.999999999999718
 50
134.999999999998150
 51
228.768523924279320
  0
ARC
  8
0
  6
CONTINUOUS
 62
3
 10
-574.183870174077810
 20
-295.129304532159720
 40
4.999999999999545
 50
215.189773733130520
 51
315.000000000001820
  0
ARC
  8
0
  6
CONTINUOUS
 62
3
 10
-374.783332171883330
 20
-307.784490779691850
 40
4.999999999999826
 50
311.231476075720650
 51
45.000000000003688
  0
ARC
  8
0
  6
CONTINUOUS
 62
3
 10
-363.396887859072880
 20
-295.129304532159490
 40
5.000000000000201
 50
225.000000000000000
 51
324.810226266870360
  0
LINE
  8
0
  6
CONTINUOUS
 62
3
 10
-590.790379016575800
 20
-218.756628654829460
 11
-600.159558410550060
 21
-218.756628654829460
  0
LINE
  8
0
  6
CONTINUOUS
 62
3
 10
-590.790379016575800
 20
-192.756628654829460
 11
-600.790379016575800
 21
-192.756628654829460
  0
ARC
  8
0
  6
CONTINUOUS
 62
3
 10
-590.790379016575800
 20
-205.756628654829460
 40
13.000000000000000
 50
270.000000000000000
 51
90.000000000000000
  0
ARC
  8
0
  6
CONTINUOUS
 62
3
 10
-600.790379016575800
 20
-189.756628654829460
 40
3.000000000000000
 50
180.000000000000000
 51
270.000000000000000
  0
ARC
  8
0
  6
CONTINUOUS
 62
3
 10
-600.159558410550060
 20
-221.756628654829460
 40
3.000000000000000
 50
90.000000000000000
 51
194.970401305463840
  0
ARC
  8
0
  6
CONTINUOUS
 62
3
 10
-336.790379016574890
 20
-189.756628654829460
 40
3.000000000000000
 50
270.000000000000000
 51
0.000000000000000
  0
LINE
  8
0
  6
CONTINUOUS
 62
3
 10
-346.790379016574890
 20
-192.756628654829460
 11
-336.790379016574890
 21
-192.756628654829460
  0
ARC
  8
0
  6
CONTINUOUS
 62
3
 10
-346.790379016574890
 20
-205.756628654829460
 40
13.000000000000000
 50
90.000000000000000
 51
270.000000000000000
  0
ARC
  8
0
  6
CONTINUOUS
 62
3
 10
-337.421199622600620
 20
-221.756628654829460
 40
2.999999999999921
 50
345.029598694536160
 51
90.000000000000000
  0
LINE
  8
0
  6
CONTINUOUS
 62
3
 10
-346.790379016574890
 20
-218.756628654829460
 11
-337.421199622600620
 21
-218.756628654829460
  0
LINE
  8
0
  6
CONTINUOUS
 62
3
 10
-448.290379016575340
 20
-57.106940065652452
 11
-448.290379016575340
 21
-78.756628654829910
  0
LINE
  8
0
  6
CONTINUOUS
 62
3
 10
-489.290379016575340
 20
-57.106940065652452
 11
-489.290379016575340
 21
-78.756628654829910
  0
ARC
  8
0
  6
CONTINUOUS
 62
3
 10
-468.790379016575340
 20
-656.756629467723310
 40
599.999999999999770
 50
87.075476210271731
 51
88.042013127606680
  0
ARC
  8
0
  6
CONTINUOUS
 62
3
 10
-468.790379016575340
 20
-656.756629467723310
 40
600.000000000000000
 50
91.957986872393320
 51
92.924523789728269
  0
ARC
  8
0
  6
CONTINUOUS
 62
3
 10
-458.290379016574430
 20
-31.756628654829683
 40
10.000000000000000
 50
0.000000000000000
 51
90.000000000000000
  0
LINE
  8
0
  6
CONTINUOUS
 62
3
 10
-448.290379016574430
 20
-31.756628654829683
 11
-448.290379016574430
 21
-57.106939252758593
  0
ARC
  8
0
  6
CONTINUOUS
 62
3
 10
-479.290379016574430
 20
-31.756628654829683
 40
10.000000000000000
 50
90.000000000000000
 51
180.000000000000000
  0
LINE
  8
0
  6
CONTINUOUS
 62
3
 10
-489.290379016574430
 20
-31.756628654829683
 11
-489.290379016574430
 21
-57.106939252758593
  0
LINE
  8
0
  6
CONTINUOUS
 62
3
 10
-458.290379016574430
 20
-21.756628654829683
 11
-479.290379016574430
 21
-21.756628654829683
  0
LINE
  8
0
  6
DASHDOT
 62
4
 10
-445.622466017692890
 20
-41.756628654829683
 11
-492.644979919227580
 21
-41.756628654829683
  0
CIRCLE
  8
0
  6
CONTINUOUS
 62
3
 10
-468.790379016574430
 20
-41.756628654829683
 40
10.000000000000000
  0
LINE
  8
0
  6
DASHDOT
 62
4
 10
-468.790379016575340
 20
-15.139241485055891
 11
-468.790379016575340
 21
-354.657632612324960
  0
LINE
  8
0
  6
DASHDOT
 62
4
 10
-499.558397566805070
 20
-161.756628654829910
 11
-437.981809719229200
 21
-161.756628654829910
  0
INSERT
  8
0
  2
SYM17
 10
-458.290379016575340
 20
-69.756628654829910
  0
INSERT
  8
0
  2
SYM18
 10
-418.790379016575340
 20
-70.756629467723087
  0
INSERT
  8
0
  2
SYM19
 10
-347.790379016575340
 20
-139.756629467722860
  0
INSERT
  8
0
  2
SYM20
 10
-346.790379016574890
 20
-229.756628654829460
  0
INSERT
  8
0
  2
SYM21
 10
-391.290379016575340
 20
-321.756628654829460
  0
INSERT
  8
0
  2
SYM22
 10
-461.290379016575340
 20
-320.756628654829460
  0
INSERT
  8
0
  2
SYM23
 10
-589.790379016575340
 20
-139.756629467723090
 41
-1.000000000000000
  0
INSERT
  8
0
  2
SYM24
 10
-590.790379016575800
 20
-229.756628654829680
 41
-1.000000000000000
  0
INSERT
  8
0
  2
SYM25
 10
-546.290379016574890
 20
-321.756628654829460
 41
-1.000000000000000
  0
INSERT
  8
0
  2
SYM26
 10
-479.290379016575340
 20
-69.756628654829910
 41
-1.000000000000000
  0
INSERT
  8
0
  2
SYM27
 10
-518.790379016575340
 20
-70.756629467723087
 41
-1.000000000000000
  0
ARC
  8
0
  6
CONTINUOUS
 62
3
 10
-330.790379016575340
 20
-306.756628654829460
 40
3.000000000000000
 50
180.000000000000000
 51
270.000000000000000
  0
LINE
  8
0
  6
CONTINUOUS
 62
3
 10
-333.790379016575340
 20
-167.394800143040810
 11
-333.790379016575340
 21
-306.756628654829460
  0
LINE
  8
0
  6
CONTINUOUS
 62
3
 10
-603.790379016575800
 20
-167.394800143040810
 11
-603.790379016575800
 21
-306.756628654829460
  0
LINE
  8
0
  6
CONTINUOUS
 62
3
 10
-326.290379016575340
 20
-312.756628654829460
 11
-326.290379016575340
 21
-331.756628654829460
  0
LINE
  8
0
  6
DASHDOT
 62
4
 10
-343.790379016575340
 20
-305.543796280256630
 11
-343.790379016575340
 21
-336.388566864363380
  0
ARC
  8
0
  6
CONTINUOUS
 62
3
 10
-329.290379016575340
 20
-312.756628654829460
 40
3.000000000000000
 50
0.000000000000000
 51
90.000000000000000
  0
LINE
  8
0
  6
CONTINUOUS
 62
3
 10
-361.166379981742240
 20
-309.756628654829460
 11
-329.290379016575340
 21
-309.756628654829460
  0
ARC
  8
0
  6
CONTINUOUS
 62
3
 10
-608.290379016575800
 20
-312.756628654829460
 40
3.000000000000000
 50
90.000000000000000
 51
180.000000000000000
  0
LINE
  8
0
  6
CONTINUOUS
 62
3
 10
-611.290379016575800
 20
-312.756628654829460
 11
-611.290379016575800
 21
-331.756628654829460
  0
LINE
  8
0
  6
CONTINUOUS
 62
3
 10
-468.790379016575340
 20
-329.756628654829460
 11
-559.290379016575800
 21
-329.756628654829460
  0
LINE
  8
0
  6
CONTINUOUS
 62
3
 10
-561.290379016575800
 20
-331.756628654829460
 11
-611.290379016575800
 21
-331.756628654829460
  0
LINE
  8
0
  6
CONTINUOUS
 62
3
 10
-561.290379016575800
 20
-325.675389273832930
 11
-561.290379016575800
 21
-331.756628654829460
  0
LINE
  8
0
  6
DASHDOT
 62
4
 10
-593.790379016575800
 20
-305.543796280256630
 11
-593.790379016575800
 21
-336.388566864363380
  0
LINE
  8
0
  6
CONTINUOUS
 62
3
 10
-576.414378051408450
 20
-309.756628654829460
 11
-608.290379016575800
 21
-309.756628654829460
  0
LINE
  8
0
  6
CONTINUOUS
 62
3
 10
-376.290379016575340
 20
-325.675389273832930
 11
-376.290379016575340
 21
-331.756628654829460
  0
LINE
  8
0
  6
CONTINUOUS
 62
3
 10
-376.290379016575340
 20
-331.756628654829460
 11
-326.290379016575340
 21
-331.756628654829460
  0
LINE
  8
0
  6
CONTINUOUS
 62
3
 10
-468.790379016575340
 20
-329.756628654829460
 11
-378.290379016575340
 21
-329.756628654829460
  0
ARC
  8
0
  6
CONTINUOUS
 62
3
 10
-606.790379016575800
 20
-306.756628654829460
 40
3.000000000000000
 50
270.000000000000000
 51
0.000000000000000
  0
ARC
  8
0
  6
CONTINUOUS
 62
3
 10
-559.290379016575800
 20
-331.756628654829460
 40
2.000000000000000
 50
90.000000000000000
 51
180.000000000000000
  0
ARC
  8
0
  6
CONTINUOUS
 62
3
 10
-378.290379016575340
 20
-331.756628654829460
 40
2.000000000000000
 50
0.000000000000000
 51
90.000000000000000
  0
ARC
  8
0
  6
CONTINUOUS
 62
3
 10
-443.790379016574890
 20
-167.394800143040810
 40
110.000000000000000
 50
0.000000000000000
 51
87.075476210271844
  0
ARC
  8
0
  6
CONTINUOUS
 62
3
 10
-493.790379016575800
 20
-167.394800143040810
 40
110.000000000000040
 50
92.924523789728156
 51
180.000000000000000
  0
ARC
  8
0
  6
CONTINUOUS
 62
3
 10
-515.342030868903070
 20
-253.636679317743980
 40
81.999999999999886
 50
200.460558063344960
 51
233.171194544115650
  0
ARC
  8
0
  6
CONTINUOUS
 62
3
 10
-569.290379016575800
 20
-325.675389273832930
 40
8.000000000000000
 50
0.000000000000000
 51
53.171194544116702
  0
ARC
  8
0
  6
CONTINUOUS
 62
3
 10
-597.790379016575800
 20
-284.398179406656250
 40
6.000000000000107
 50
20.460558063343086
 51
180.000000000000000
  0
ARC
  8
0
  6
CONTINUOUS
 62
3
 10
-576.414378051408450
 20
-312.756628654829460
 40
3.000000000000119
 50
44.069371979551811
 51
90.000000000000000
  0
ARC
  8
0
  6
CONTINUOUS
 62
3
 10
-339.790379016574890
 20
-284.398179406656250
 40
6.000000000000000
 50
0.000000000000000
 51
159.539441936656910
  0
ARC
  8
0
  6
CONTINUOUS
 62
3
 10
-422.238727164247620
 20
-253.636679317743980
 40
82.000000000000171
 50
306.828805455884380
 51
339.539441936655010
  0
ARC
  8
0
  6
CONTINUOUS
 62
3
 10
-368.290379016574890
 20
-325.675389273832930
 40
7.999999999999903
 50
126.828805455883280
 51
180.000000000000000
  0
ARC
  8
0
  6
CONTINUOUS
 62
3
 10
-361.166379981742240
 20
-312.756628654829460
 40
3.000000000000000
 50
90.000000000000000
 51
135.930628020448210
  0
TEXT
  8
0
  6
CONTINUOUS
 62
3
 10
-512.842163085937500
 20
180.678451538085940
 40
20.000000000000000
  1
S103
 50
0.000002504478167
 41
0.470000016689301
  7
STANDARD1
  0
TEXT
  8
0
  6
CONTINUOUS
 62
3
 10
-512.842163085937500
 20
158.078460693359380
 40
20.000000000000000
  1
三菱ギヤードモートル
 50
0.000002504478167
 41
0.625000000000000
  7
STANDARD1
  0
TEXT
  8
0
  6
CONTINUOUS
 62
3
 10
-512.842163085937500
 20
135.478454589843750
 40
20.000000000000000
  1
GM-SSB
 50
0.000002504478167
 41
0.470000016689301
  7
STANDARD1
  0
TEXT
  8
0
  6
CONTINUOUS
 62
3
 10
-512.842163085937500
 20
112.878456115722650
 40
20.000000000000000
  1
0.4kW
 50
0.000002504478167
 41
0.470000016689301
  7
STANDARD1
  0
TEXT
  8
0
  6
CONTINUOUS
 62
3
 10
-512.842163085937500
 20
90.278457641601562
 40
20.000000000000000
  1
1/540-1/900
 50
0.000002504478167
 41
0.470000016689301
  7
STANDARD1
  0
TEXT
  8
0
  6
CONTINUOUS
 62
3
 10
-512.842163085937500
 20
67.678459167480469
 40
20.000000000000000
  1
SCALE1/1
 50
0.000002504478167
 41
0.470000016689301
  7
STANDARD1
  0
LINE
  8
0
  6
CONTINUOUS
 62
3
 10
-554.224526982451490
 20
-121.272228157260370
 11
-574.418581123192100
 21
-101.078174016520050
  0
ARC
  8
0
  6
CONTINUOUS
 62
3
 10
-479.290379016575340
 20
-69.756628654833435
 40
10.000000000000000
 50
180.000000000000000
 51
270.000000000000000
  0
LINE
  8
0
  6
CONTINUOUS
 62
3
 10
-458.290379016575340
 20
-79.756628654833435
 11
-479.290379016575340
 21
-79.756628654833435
  0
ARC
  8
0
  6
CONTINUOUS
 62
3
 10
-458.290379016575340
 20
-69.756628654833435
 40
10.000000000000000
 50
270.000000000000000
 51
0.000000000000000
  0
LINE
  8
0
  6
CONTINUOUS
 62
3
 10
-550.243251778095550
 20
-115.354008425004730
 11
-570.230727289797190
 21
-95.366532913303217
  0
ARC
  8
0
  6
CONTINUOUS
 62
3
 10
-170.272886334866710
 20
248.243371345167930
 40
5.000000000000000
 50
180.000000000000000
 51
270.000000000000000
  0
LINE
  8
0
  6
CONTINUOUS
 62
3
 10
-175.272886334866710
 20
238.243371345167930
 11
-175.272886334866710
 21
243.243371345167930
  0
LINE
  8
0
  6
DASHDOT
 62
3
 10
-51.272886334866712
 20
238.243371345167930
 11
-51.272886334866712
 21
243.243371345167930
  0
ARC
  8
0
  6
CONTINUOUS
 62
3
 10
-56.272886334866712
 20
248.243371345167930
 40
5.000000000000000
 50
270.000000000000000
 51
0.000000000000000
  0
LINE
  8
0
  6
DASHDOT
 62
3
 10
-51.272886334866712
 20
238.243371345167930
 11
-51.272886334866712
 21
243.243371345167930
  0
LINE
  8
0
  6
CONTINUOUS
 62
3
 10
-175.272886334866710
 20
243.243371345167930
 11
-51.272886334866712
 21
243.243371345167930
  0
LINE
  8
0
  6
CONTINUOUS
 62
3
 10
-61.772886334866712
 20
261.904396404854820
 11
-164.772886334866710
 21
261.904396404854820
  0
ARC
  8
0
  6
CONTINUOUS
 62
3
 10
-56.272886334866712
 20
266.904396404854820
 40
5.000000000000072
 50
287.457603123721870
 51
0.000000000000000
  0
ARC
  8
0
  6
CONTINUOUS
 62
3
 10
-56.072886334866894
 20
262.580942530597160
 40
1.300000000000182
 50
0.000000000000000
 51
73.398450400977637
  0
ARC
  8
0
  6
CONTINUOUS
 62
3
 10
-58.272886334866712
 20
255.201918204847630
 40
9.000000000000178
 50
73.398450400980963
 51
106.601549599019030
  0
ARC
  8
0
  6
CONTINUOUS
 62
3
 10
-60.472886334866530
 20
262.580942530597160
 40
1.300000000000019
 50
106.601549599022360
 51
180.000000000000000
  0
LINE
  8
0
  6
CONTINUOUS
 62
3
 10
-54.772886334866712
 20
262.580942530597160
 11
-54.772886334866712
 21
261.593932792672770
  0
POLYLINE
  8
0
  6
CONTINUOUS
 62
3
 66
1
  0
VERTEX
  8
0
  6
CONTINUOUS
 62
3
 10
-61.772886334866712
 20
261.593932792672770
  0
VERTEX
  8
0
  6
CONTINUOUS
 62
3
 10
-61.705634816278021
 20
261.559834582476810
  0
VERTEX
  8
0
  6
CONTINUOUS
 62
3
 10
-61.506464698656217
 20
261.527046747376180
  0
VERTEX
  8
0
  6
CONTINUOUS
 62
3
 10
-61.183029977925621
 20
261.496829305486130
  0
VERTEX
  8
0
  6
CONTINUOUS
 62
3
 10
-60.747760069019627
 20
261.470343496152450
  0
VERTEX
  8
0
  6
CONTINUOUS
 62
3
 10
-60.217382150435320
 20
261.448607154174340
  0
VERTEX
  8
0
  6
CONTINUOUS
 62
3
 10
-59.612278348144528
 20
261.432455594984160
  0
VERTEX
  8
0
  6
CONTINUOUS
 62
3
 10
-58.955702461923160
 20
261.422509513943740
  0
VERTEX
  8
0
  6
CONTINUOUS
 62
3
 10
-58.272886334866712
 20
261.419151133369550
  0
VERTEX
  8
0
  6
CONTINUOUS
 62
3
 10
-57.590070207810264
 20
261.422509513943740
  0
VERTEX
  8
0
  6
CONTINUOUS
 62
3
 10
-56.933494321588896
 20
261.432455594984160
  0
VERTEX
  8
0
  6
CONTINUOUS
 62
3
 10
-56.328390519298104
 20
261.448607154174340
  0
VERTEX
  8
0
  6
CONTINUOUS
 62
3
 10
-55.798012600713797
 20
261.470343496152450
  0
VERTEX
  8
0
  6
CONTINUOUS
 62
3
 10
-55.362742691807803
 20
261.496829305486130
  0
VERTEX
  8
0
  6
CONTINUOUS
 62
3
 10
-55.039307971077207
 20
261.527046747376180
  0
VERTEX
  8
0
  6
CONTINUOUS
 62
3
 10
-54.840137853455410
 20
261.559834582476810
  0
VERTEX
  8
0
  6
CONTINUOUS
 62
3
 10
-54.772886334866712
 20
261.593932792672770
  0
SEQEND
  8
0
  6
CONTINUOUS
 62
3
  0
LINE
  8
0
  6
CONTINUOUS
 62
3
 10
-61.772886334866712
 20
262.580942530597160
 11
-61.772886334866712
 21
261.593932792672770
  0
ARC
  8
0
  6
CONTINUOUS
 62
3
 10
-170.272886334866710
 20
266.904396404854820
 40
5.000000000000000
 50
180.000000000000000
 51
252.542396876278160
  0
LINE
  8
0
  6
CONTINUOUS
 62
3
 10
-171.772886334866710
 20
262.580942530597160
 11
-171.772886334866710
 21
261.593932792672770
  0
LINE
  8
0
  6
CONTINUOUS
 62
3
 10
-164.772886334866710
 20
262.580942530597160
 11
-164.772886334866710
 21
261.593932792672770
  0
ARC
  8
0
  6
CONTINUOUS
 62
3
 10
-170.472886334866530
 20
262.580942530597160
 40
1.300000000000019
 50
106.601549599022360
 51
180.000000000000000
  0
ARC
  8
0
  6
CONTINUOUS
 62
3
 10
-168.272886334866710
 20
255.201918204847630
 40
9.000000000000178
 50
73.398450400980963
 51
106.601549599019030
  0
ARC
  8
0
  6
CONTINUOUS
 62
3
 10
-166.072886334866890
 20
262.580942530597160
 40
1.300000000000182
 50
0.000000000000000
 51
73.398450400977637
  0
POLYLINE
  8
0
  6
CONTINUOUS
 62
3
 66
1
  0
VERTEX
  8
0
  6
CONTINUOUS
 62
3
 10
-171.772886334866710
 20
261.593932792672770
  0
VERTEX
  8
0
  6
CONTINUOUS
 62
3
 10
-171.705634816278010
 20
261.559834582476810
  0
VERTEX
  8
0
  6
CONTINUOUS
 62
3
 10
-171.506464698656200
 20
261.527046747376180
  0
VERTEX
  8
0
  6
CONTINUOUS
 62
3
 10
-171.183029977925630
 20
261.496829305486130
  0
VERTEX
  8
0
  6
CONTINUOUS
 62
3
 10
-170.747760069019620
 20
261.470343496152450
  0
VERTEX
  8
0
  6
CONTINUOUS
 62
3
 10
-170.217382150435330
 20
261.448607154174340
  0
VERTEX
  8
0
  6
CONTINUOUS
 62
3
 10
-169.612278348144510
 20
261.432455594984160
  0
VERTEX
  8
0
  6
CONTINUOUS
 62
3
 10
-168.955702461923150
 20
261.422509513943740
  0
VERTEX
  8
0
  6
CONTINUOUS
 62
3
 10
-168.272886334866710
 20
261.419151133369550
  0
VERTEX
  8
0
  6
CONTINUOUS
 62
3
 10
-167.590070207810270
 20
261.422509513943740
  0
VERTEX
  8
0
  6
CONTINUOUS
 62
3
 10
-166.933494321588910
 20
261.432455594984160
  0
VERTEX
  8
0
  6
CONTINUOUS
 62
3
 10
-166.328390519298100
 20
261.448607154174340
  0
VERTEX
  8
0
  6
CONTINUOUS
 62
3
 10
-165.798012600713800
 20
261.470343496152450
  0
VERTEX
  8
0
  6
CONTINUOUS
 62
3
 10
-165.362742691807800
 20
261.496829305486130
  0
VERTEX
  8
0
  6
CONTINUOUS
 62
3
 10
-165.039307971077220
 20
261.527046747376180
  0
VERTEX
  8
0
  6
CONTINUOUS
 62
3
 10
-164.840137853455420
 20
261.559834582476810
  0
VERTEX
  8
0
  6
CONTINUOUS
 62
3
 10
-164.772886334866710
 20
261.593932792672770
  0
SEQEND
  8
0
  6
CONTINUOUS
 62
3
  0
LINE
  8
0
  6
CONTINUOUS
 62
3
 10
-51.272886334866712
 20
266.904396404854820
 11
-51.272886334866712
 21
279.843371345167900
  0
LINE
  8
0
  6
CONTINUOUS
 62
3
 10
-175.272886334866710
 20
266.904396404854820
 11
-175.272886334866710
 21
279.843371345167900
  0
LINE
  8
0
  6
CONTINUOUS
 62
3
 10
-175.272886334866710
 20
266.437881636230200
 11
-176.272886334866710
 21
266.437881636230200
  0
LINE
  8
0
  6
CONTINUOUS
 62
3
 10
-50.272886334866712
 20
261.344244707953010
 11
-176.272886334866710
 21
261.344244707953010
  0
ARC
  8
0
  6
CONTINUOUS
 62
3
 10
-170.272886334866710
 20
279.843371345167900
 40
5.000000000000000
 50
90.000000000000000
 51
180.000000000000000
  0
ARC
  8
0
  6
CONTINUOUS
 62
3
 10
-176.272886334866710
 20
264.437881636230200
 40
2.000000000000000
 50
90.000000000000000
 51
180.000000000000000
  0
ARC
  8
0
  6
CONTINUOUS
 62
3
 10
-176.272886334866710
 20
263.344244707953010
 40
2.000000000000000
 50
180.000000000000000
 51
270.000000000000000
  0
ARC
  8
0
  6
CONTINUOUS
 62
3
 10
-176.272886334866710
 20
262.545242836867770
 40
2.000000000000000
 50
180.000000000000000
 51
270.000000000000000
  0
LINE
  8
0
  6
CONTINUOUS
 62
3
 10
-178.272886334866710
 20
264.437881636230200
 11
-178.272886334866710
 21
261.746240965748880
  0
ARC
  8
0
  6
CONTINUOUS
 62
3
 10
-176.272886334866710
 20
261.746240965748880
 40
2.000000000000000
 50
180.000000000000000
 51
270.000000000000000
  0
LINE
  8
0
  6
CONTINUOUS
 62
3
 10
-175.272886334866710
 20
248.243371345167930
 11
-175.272886334866710
 21
259.746240965748880
  0
ARC
  8
0
  6
CONTINUOUS
 62
3
 10
-56.272886334866712
 20
279.843371345167900
 40
5.000000000000000
 50
0.000000000000000
 51
90.000000000000000
  0
LINE
  8
0
  6
CONTINUOUS
 62
3
 10
-170.272886334866710
 20
284.843371345167900
 11
-56.272886334866712
 21
284.843371345167900
  0
LINE
  8
0
  6
CONTINUOUS
 62
3
 10
-51.272886334866712
 20
248.243371345167930
 11
-51.272886334866712
 21
259.545242836867770
  0
LINE
  8
0
  6
CONTINUOUS
 62
3
 10
-48.272886334866712
 20
264.437881636230200
 11
-48.272886334866712
 21
261.746240965748880
  0
LINE
  8
0
  6
CONTINUOUS
 62
3
 10
-50.272886334866712
 20
260.545242836850950
 11
-176.272886334866710
 21
260.545242836850950
  0
LINE
  8
0
  6
CONTINUOUS
 62
3
 10
-50.272886334866712
 20
259.746240965748880
 11
-176.272886334866710
 21
259.746240965748880
  0
LINE
  8
0
  6
CONTINUOUS
 62
3
 10
-51.272886334866712
 20
266.437881636230200
 11
-50.272886334866712
 21
266.437881636230200
  0
ARC
  8
0
  6
CONTINUOUS
 62
3
 10
-50.272886334866712
 20
264.437881636230200
 40
2.000000000000000
 50
0.000000000000000
 51
90.000000000000000
  0
ARC
  8
0
  6
CONTINUOUS
 62
3
 10
-50.272886334866712
 20
263.344244707953010
 40
2.000000000000000
 50
270.000000000000000
 51
0.000000000000000
  0
ARC
  8
0
  6
CONTINUOUS
 62
3
 10
-50.272886334866712
 20
262.545242836867770
 40
2.000000000000000
 50
270.000000000000000
 51
0.000000000000000
  0
ARC
  8
0
  6
CONTINUOUS
 62
3
 10
-50.272886334866712
 20
261.746240965748880
 40
2.000000000000000
 50
270.000000000000000
 51
0.000000000000000
  0
LINE
  8
0
  6
CONTINUOUS
 62
3
 10
-182.772886334866480
 20
117.124150428295360
 11
-178.772886334866600
 21
117.124150428295360
  0
LINE
  8
0
  6
CONTINUOUS
 62
3
 10
-278.772886334816460
 20
178.743371345168160
 11
-278.772886334816460
 21
126.300166287922700
  0
LINE
  8
0
  6
CONTINUOUS
 62
3
 10
-175.772886334866600
 20
178.743371345168160
 11
-175.772886334866600
 21
120.124150428295360
  0
ARC
  8
0
  6
CONTINUOUS
 62
3
 10
-182.772886334866480
 20
114.124150428295360
 40
3.000000000000000
 50
90.000000000000000
 51
180.000000000000000
  0
ARC
  8
0
  6
CONTINUOUS
 62
3
 10
-178.772886334866600
 20
120.124150428295360
 40
3.000000000000000
 50
270.000000000000000
 51
0.000000000000000
  0
ARC
  8
0
  6
CONTINUOUS
 62
3
 10
-276.172886334816330
 20
231.186576402413610
 40
2.599999999999721
 50
125.000000000001370
 51
180.000000000000000
  0
LINE
  8
0
  6
CONTINUOUS
 62
3
 10
-267.938439284307950
 20
240.126412230947950
 11
-277.664185069328940
 21
233.316371717564720
  0
ARC
  8
0
  6
CONTINUOUS
 62
3
 10
-256.466910557286950
 20
223.743371345168160
 40
20.000000000000000
 50
90.000000000000000
 51
125.000000000000240
  0
LINE
  8
0
  6
CONTINUOUS
 62
3
 10
-278.772886334816460
 20
178.743371345168160
 11
-278.772886334816460
 21
231.186576402413610
  0
LINE
  8
0
  6
CONTINUOUS
 62
3
 10
-175.772886334866600
 20
243.743371345168160
 11
-256.466910557286950
 21
243.743371345168160
  0
LINE
  8
0
  6
CONTINUOUS
 62
3
 10
-108.772886334866590
 20
238.243371345168160
 11
-26.772886334866712
 21
238.243371345168160
  0
LINE
  8
0
  6
CONTINUOUS
 62
4
 10
-175.772886334866600
 20
235.743371345168160
 11
-26.772886334866712
 21
235.743371345168160
  0
LINE
  8
0
  6
CONTINUOUS
 62
4
 10
-175.772886334866600
 20
234.743371345168160
 11
-26.772886334866712
 21
234.743371345168160
  0
LINE
  8
0
  6
CONTINUOUS
 62
4
 10
-175.772886334866600
 20
233.743371345168160
 11
-26.772886334866712
 21
233.743371345168160
  0
LINE
  8
0
  6
CONTINUOUS
 62
3
 10
-175.772886334866600
 20
178.743371345168160
 11
-175.772886334866600
 21
243.743371345168160
  0
LINE
  8
0
  6
CONTINUOUS
 62
4
 10
-175.772886334866600
 20
229.058905531943880
 11
-26.772886334866712
 21
229.058905531943880
  0
LINE
  8
0
  6
CONTINUOUS
 62
4
 10
-175.772886334866600
 20
224.109158063638120
 11
-26.772886334866712
 21
224.109158063638120
  0
LINE
  8
0
  6
CONTINUOUS
 62
4
 10
-175.772886334866600
 20
193.743371345168160
 11
-26.772886334866712
 21
193.743371345168160
  0
LINE
  8
0
  6
CONTINUOUS
 62
4
 10
-175.772886334866600
 20
198.116633154669330
 11
-26.772886334866712
 21
198.116633154669330
  0
LINE
  8
0
  6
CONTINUOUS
 62
4
 10
-175.772886334866600
 20
199.382871070756550
 11
-26.772886334866712
 21
199.382871070756550
  0
LINE
  8
0
  6
CONTINUOUS
 62
4
 10
-175.772886334866600
 20
203.573424802298750
 11
-26.772886334866712
 21
203.573424802298750
  0
LINE
  8
0
  6
CONTINUOUS
 62
4
 10
-175.772886334866600
 20
204.935305137648020
 11
-26.772886334866712
 21
204.935305137648020
  0
LINE
  8
0
  6
CONTINUOUS
 62
4
 10
-175.772886334866600
 20
209.025805671737880
 11
-26.772886334866712
 21
209.025805671737880
  0
LINE
  8
0
  6
CONTINUOUS
 62
4
 10
-175.772886334866600
 20
210.494163061542510
 11
-26.772886334866712
 21
210.494163061542510
  0
LINE
  8
0
  6
CONTINUOUS
 62
4
 10
-175.772886334866600
 20
214.457908485342050
 11
-26.772886334866712
 21
214.457908485342050
  0
LINE
  8
0
  6
CONTINUOUS
 62
4
 10
-175.772886334866600
 20
216.062556400904100
 11
-26.772886334866712
 21
216.062556400904100
  0
LINE
  8
0
  6
CONTINUOUS
 62
4
 10
-175.772886334866600
 20
163.743371345168160
 11
-26.772886334866712
 21
163.743371345168160
  0
LINE
  8
0
  6
CONTINUOUS
 62
4
 10
-175.772886334866600
 20
159.370109535666980
 11
-26.772886334866712
 21
159.370109535666980
  0
LINE
  8
0
  6
CONTINUOUS
 62
4
 10
-175.772886334866600
 20
158.103871619579760
 11
-26.772886334866712
 21
158.103871619579760
  0
LINE
  8
0
  6
CONTINUOUS
 62
4
 10
-175.772886334866600
 20
153.913317888037570
 11
-26.772886334866712
 21
153.913317888037570
  0
LINE
  8
0
  6
CONTINUOUS
 62
4
 10
-175.772886334866600
 20
152.551437552688300
 11
-26.772886334866712
 21
152.551437552688300
  0
LINE
  8
0
  6
CONTINUOUS
 62
4
 10
-175.772886334866600
 20
148.460937018598430
 11
-26.772886334866712
 21
148.460937018598430
  0
LINE
  8
0
  6
CONTINUOUS
 62
4
 10
-175.772886334866600
 20
146.992579628793810
 11
-26.772886334866712
 21
146.992579628793810
  0
LINE
  8
0
  6
CONTINUOUS
 62
4
 10
-175.772886334866600
 20
143.028834204994270
 11
-26.772886334866712
 21
143.028834204994270
  0
LINE
  8
0
  6
CONTINUOUS
 62
4
 10
-175.772886334866600
 20
141.424186289432210
 11
-26.772886334866712
 21
141.424186289432210
  0
LINE
  8
0
  6
CONTINUOUS
 62
4
 10
-175.772886334866600
 20
133.377584626698190
 11
-26.772886334866712
 21
133.377584626698190
  0
LINE
  8
0
  6
CONTINUOUS
 62
4
 10
-175.772886334866600
 20
123.743371345168150
 11
-26.772886334866712
 21
123.743371345168150
  0
LINE
  8
0
  6
CONTINUOUS
 62
4
 10
-175.772886334866600
 20
122.743371345168150
 11
-26.772886334866712
 21
122.743371345168150
  0
LINE
  8
0
  6
CONTINUOUS
 62
4
 10
-175.772886334866600
 20
121.743371345168150
 11
-26.772886334866712
 21
121.743371345168150
  0
LINE
  8
0
  6
CONTINUOUS
 62
3
 10
-186.772886334866030
 20
232.483486445605760
 11
-188.772886334866030
 21
230.830844806482330
  0
LINE
  8
0
  6
CONTINUOUS
 62
3
 10
-184.772886334866030
 20
233.659271931228550
 11
-186.772886334866030
 21
232.483486445605760
  0
LINE
  8
0
  6
CONTINUOUS
 62
3
 10
-186.772886334866030
 20
232.483486445605760
 11
-184.772886334866030
 21
230.830844806482330
  0
LINE
  8
0
  6
CONTINUOUS
 62
3
 10
-188.772886334866030
 20
233.659271931228550
 11
-186.772886334866030
 21
232.483486445605760
  0
POLYLINE
  8
0
  6
CONTINUOUS
 62
3
 66
1
 70
1
  0
VERTEX
  8
0
  6
CONTINUOUS
 62
3
 10
-182.072886334866040
 20
230.666896377228230
  0
VERTEX
  8
0
  6
CONTINUOUS
 62
3
 10
-182.163195516970860
 20
231.369853343428590
  0
VERTEX
  8
0
  6
CONTINUOUS
 62
3
 10
-182.430652532062990
 20
232.045796067640680
  0
VERTEX
  8
0
  6
CONTINUOUS
 62
3
 10
-182.864979157044080
 20
232.668748450046080
  0
VERTEX
  8
0
  6
CONTINUOUS
 62
3
 10
-183.449484463289250
 20
233.214770779944670
  0
VERTEX
  8
0
  6
CONTINUOUS
 62
3
 10
-184.161706239673920
 20
233.662879725411300
  0
VERTEX
  8
0
  6
CONTINUOUS
 62
3
 10
-184.974274202750110
 20
233.995854710974040
  0
VERTEX
  8
0
  6
CONTINUOUS
 62
3
 10
-185.855961821390220
 20
234.200899694672300
  0
VERTEX
  8
0
  6
CONTINUOUS
 62
3
 10
-186.772886334866030
 20
234.270134912773070
  0
VERTEX
  8
0
  6
CONTINUOUS
 62
3
 10
-187.689810848341840
 20
234.200899694672300
  0
VERTEX
  8
0
  6
CONTINUOUS
 62
3
 10
-188.571498466981950
 20
233.995854710974040
  0
VERTEX
  8
0
  6
CONTINUOUS
 62
3
 10
-189.384066430058140
 20
233.662879725411300
  0
VERTEX
  8
0
  6
CONTINUOUS
 62
3
 10
-190.096288206442810
 20
233.214770779944670
  0
VERTEX
  8
0
  6
CONTINUOUS
 62
3
 10
-190.680793512687980
 20
232.668748450046080
  0
VERTEX
  8
0
  6
CONTINUOUS
 62
3
 10
-191.115120137669070
 20
232.045796067640680
  0
VERTEX
  8
0
  6
CONTINUOUS
 62
3
 10
-191.382577152761200
 20
231.369853343428590
  0
VERTEX
  8
0
  6
CONTINUOUS
 62
3
 10
-191.472886334866020
 20
230.666896377228230
  0
VERTEX
  8
0
  6
CONTINUOUS
 62
3
 10
-191.382577152761200
 20
229.963939411027870
  0
VERTEX
  8
0
  6
CONTINUOUS
 62
3
 10
-191.115120137669070
 20
229.287996686815770
  0
VERTEX
  8
0
  6
CONTINUOUS
 62
3
 10
-190.680793512687980
 20
228.665044304410370
  0
VERTEX
  8
0
  6
CONTINUOUS
 62
3
 10
-190.096288206442780
 20
228.119021974511780
  0
VERTEX
  8
0
  6
CONTINUOUS
 62
3
 10
-189.384066430058140
 20
227.670913029045150
  0
VERTEX
  8
0
  6
CONTINUOUS
 62
3
 10
-188.571498466981950
 20
227.337938043482410
  0
VERTEX
  8
0
  6
CONTINUOUS
 62
3
 10
-187.689810848341840
 20
227.132893059784150
  0
VERTEX
  8
0
  6
CONTINUOUS
 62
3
 10
-186.772886334866030
 20
227.063657841683380
  0
VERTEX
  8
0
  6
CONTINUOUS
 62
3
 10
-185.855961821390220
 20
227.132893059784150
  0
VERTEX
  8
0
  6
CONTINUOUS
 62
3
 10
-184.974274202750110
 20
227.337938043482410
  0
VERTEX
  8
0
  6
CONTINUOUS
 62
3
 10
-184.161706239673920
 20
227.670913029045150
  0
VERTEX
  8
0
  6
CONTINUOUS
 62
3
 10
-183.449484463289280
 20
228.119021974511780
  0
VERTEX
  8
0
  6
CONTINUOUS
 62
3
 10
-182.864979157044080
 20
228.665044304410370
  0
VERTEX
  8
0
  6
CONTINUOUS
 62
3
 10
-182.430652532062990
 20
229.287996686815770
  0
VERTEX
  8
0
  6
CONTINUOUS
 62
3
 10
-182.163195516970860
 20
229.963939411027870
  0
SEQEND
  8
0
  6
CONTINUOUS
 62
3
  0
LINE
  8
0
  6
CONTINUOUS
 62
3
 10
-186.772886334866030
 20
125.003256244730320
 11
-188.772886334866030
 21
126.655897883853750
  0
LINE
  8
0
  6
CONTINUOUS
 62
3
 10
-184.772886334866030
 20
123.827470759107990
 11
-186.772886334866030
 21
125.003256244730320
  0
LINE
  8
0
  6
CONTINUOUS
 62
3
 10
-93.572886334866780
 20
119.243371345168150
 11
-26.772886334866712
 21
119.243371345168150
  0
ARC
  8
0
  6
CONTINUOUS
 62
3
 10
-256.466910557286950
 20
133.743371345168160
 40
20.000000000000007
 50
234.999999999999740
 51
270.000000000000000
  0
LINE
  8
0
  6
CONTINUOUS
 62
3
 10
-186.772886334866030
 20
125.003256244730320
 11
-184.772886334866030
 21
126.655897883853750
  0
LINE
  8
0
  6
CONTINUOUS
 62
3
 10
-188.772886334866030
 20
123.827470759107990
 11
-186.772886334866030
 21
125.003256244730320
  0
POLYLINE
  8
0
  6
CONTINUOUS
 62
3
 66
1
 70
1
  0
VERTEX
  8
0
  6
CONTINUOUS
 62
3
 10
-182.072886334866040
 20
126.819846313108310
  0
VERTEX
  8
0
  6
CONTINUOUS
 62
3
 10
-182.163195516970860
 20
127.522803279308670
  0
VERTEX
  8
0
  6
CONTINUOUS
 62
3
 10
-182.430652532062990
 20
128.198746003520770
  0
VERTEX
  8
0
  6
CONTINUOUS
 62
3
 10
-182.864979157044080
 20
128.821698385926170
  0
VERTEX
  8
0
  6
CONTINUOUS
 62
3
 10
-183.449484463289250
 20
129.367720715824760
  0
VERTEX
  8
0
  6
CONTINUOUS
 62
3
 10
-184.161706239673920
 20
129.815829661291390
  0
VERTEX
  8
0
  6
CONTINUOUS
 62
3
 10
-184.974274202750110
 20
130.148804646854130
  0
VERTEX
  8
0
  6
CONTINUOUS
 62
3
 10
-185.855961821390220
 20
130.353849630552390
  0
VERTEX
  8
0
  6
CONTINUOUS
 62
3
 10
-186.772886334866030
 20
130.423084848653160
  0
VERTEX
  8
0
  6
CONTINUOUS
 62
3
 10
-187.689810848341840
 20
130.353849630552390
  0
VERTEX
  8
0
  6
CONTINUOUS
 62
3
 10
-188.571498466981950
 20
130.148804646854130
  0
VERTEX
  8
0
  6
CONTINUOUS
 62
3
 10
-189.384066430058140
 20
129.815829661291390
  0
VERTEX
  8
0
  6
CONTINUOUS
 62
3
 10
-190.096288206442810
 20
129.367720715824760
  0
VERTEX
  8
0
  6
CONTINUOUS
 62
3
 10
-190.680793512687980
 20
128.821698385926170
  0
VERTEX
  8
0
  6
CONTINUOUS
 62
3
 10
-191.115120137669070
 20
128.198746003520770
  0
VERTEX
  8
0
  6
CONTINUOUS
 62
3
 10
-191.382577152761200
 20
127.522803279308670
  0
VERTEX
  8
0
  6
CONTINUOUS
 62
3
 10
-191.472886334866020
 20
126.819846313108310
  0
VERTEX
  8
0
  6
CONTINUOUS
 62
3
 10
-191.382577152761200
 20
126.116889346907950
  0
VERTEX
  8
0
  6
CONTINUOUS
 62
3
 10
-191.115120137669070
 20
125.440946622695840
  0
VERTEX
  8
0
  6
CONTINUOUS
 62
3
 10
-190.680793512687980
 20
124.817994240290460
  0
VERTEX
  8
0
  6
CONTINUOUS
 62
3
 10
-190.096288206442780
 20
124.271971910391860
  0
VERTEX
  8
0
  6
CONTINUOUS
 62
3
 10
-189.384066430058140
 20
123.823862964925250
  0
VERTEX
  8
0
  6
CONTINUOUS
 62
3
 10
-188.571498466981950
 20
123.490887979362490
  0
VERTEX
  8
0
  6
CONTINUOUS
 62
3
 10
-187.689810848341840
 20
123.285842995664240
  0
VERTEX
  8
0
  6
CONTINUOUS
 62
3
 10
-186.772886334866030
 20
123.216607777563460
  0
VERTEX
  8
0
  6
CONTINUOUS
 62
3
 10
-185.855961821390220
 20
123.285842995664240
  0
VERTEX
  8
0
  6
CONTINUOUS
 62
3
 10
-184.974274202750110
 20
123.490887979362490
  0
VERTEX
  8
0
  6
CONTINUOUS
 62
3
 10
-184.161706239673920
 20
123.823862964925250
  0
VERTEX
  8
0
  6
CONTINUOUS
 62
3
 10
-183.449484463289280
 20
124.271971910391860
  0
VERTEX
  8
0
  6
CONTINUOUS
 62
3
 10
-182.864979157044080
 20
124.817994240290460
  0
VERTEX
  8
0
  6
CONTINUOUS
 62
3
 10
-182.430652532062990
 20
125.440946622695840
  0
VERTEX
  8
0
  6
CONTINUOUS
 62
3
 10
-182.163195516970860
 20
126.116889346907950
  0
SEQEND
  8
0
  6
CONTINUOUS
 62
3
  0
LINE
  8
0
  6
CONTINUOUS
 62
3
 10
-185.772886334866480
 20
113.743371345168150
 11
-256.466910557286950
 21
113.743371345168150
  0
ARC
  8
0
  6
CONTINUOUS
 62
3
 10
-276.172886334816330
 20
126.300166287922700
 40
2.600000000000136
 50
180.000000000000000
 51
234.999999999998610
  0
LINE
  8
0
  6
CONTINUOUS
 62
3
 10
-267.938439284307950
 20
117.360330459388360
 11
-277.664185069328940
 21
124.170370972771590
  0
LINE
  8
0
  6
CONTINUOUS
 62
3
 10
-175.772886334866600
 20
238.243371345167930
 11
-26.772886334866712
 21
238.243371345167930
  0
LINE
  8
0
  6
CONTINUOUS
 62
3
 10
-185.772886334866480
 20
113.743371345168150
 11
-185.772886334866480
 21
114.124150428295360
  0
LINE
  8
0
  6
CONTINUOUS
 62
4
 10
-175.772886334866600
 20
128.427837158392440
 11
-26.772886334866712
 21
128.427837158392440
  0
LINE
  8
0
  6
CONTINUOUS
 62
3
 10
-183.572886334866780
 20
115.243371345168120
 11
-93.572886334866780
 21
115.243371345168120
  0
LINE
  8
0
  6
CONTINUOUS
 62
3
 10
-183.572886334866780
 20
117.015516887255470
 11
-183.572886334866780
 21
82.243371345168129
  0
LINE
  8
0
  6
CONTINUOUS
 62
3
 10
-176.572886334866780
 20
81.243371345168129
 11
-176.572886334866780
 21
80.743371345168129
  0
LINE
  8
0
  6
CONTINUOUS
 62
3
 10
-168.572886334866780
 20
81.243371345168129
 11
-168.572886334866780
 21
80.743371345168129
  0
LINE
  8
0
  6
CONTINUOUS
 62
3
 10
-100.572886334866780
 20
81.243371345168129
 11
-100.572886334866780
 21
80.743371345168129
  0
LINE
  8
0
  6
CONTINUOUS
 62
3
 10
-108.572886334866780
 20
81.243371345168129
 11
-108.572886334866780
 21
80.743371345168129
  0
LINE
  8
0
  6
CONTINUOUS
 62
3
 10
-108.572886334866780
 20
80.743371345168129
 11
-100.572886334866780
 21
80.743371345168129
  0
LINE
  8
0
  6
CONTINUOUS
 62
3
 10
-176.572886334866780
 20
80.743371345168129
 11
-168.572886334866780
 21
80.743371345168129
  0
ARC
  8
0
  6
CONTINUOUS
 62
3
 10
-182.572886334866780
 20
82.243371345168129
 40
1.000000000000000
 50
180.000000000000000
 51
270.000000000000000
  0
LINE
  8
0
  6
CONTINUOUS
 62
3
 10
-182.572886334866780
 20
81.243371345168129
 11
-94.572886334866780
 21
81.243371345168129
  0
ARC
  8
0
  6
CONTINUOUS
 62
3
 10
-94.572886334866780
 20
82.243371345168129
 40
1.000000000000000
 50
270.000000000000000
 51
0.000000000000000
  0
LINE
  8
0
  6
CONTINUOUS
 62
3
 10
-93.572886334866780
 20
120.243371345168150
 11
-93.572886334866780
 21
82.243371345168129
  0
LINE
  8
0
  6
CONTINUOUS
 62
3
 10
-93.572886334866780
 20
120.243371345168150
 11
-175.772886334887970
 21
120.243371345168150
  0
ARC
  8
0
  6
DASHED
 62
3
 10
570.591451059571450
 20
-191.299128654831520
 40
20.799999999999976
 50
334.359929784104850
 51
5.724810452223396
  0
POLYLINE
  8
0
  6
CONTINUOUS
 62
3
 66
1
  0
VERTEX
  8
0
  6
CONTINUOUS
 62
3
 10
611.300725823898350
 20
-169.588467364825190
  0
VERTEX
  8
0
  6
CONTINUOUS
 62
3
 10
611.103600628739630
 20
-164.213276703572860
  0
VERTEX
  8
0
  6
CONTINUOUS
 62
3
 10
610.518937905778220
 20
-159.021131724886120
  0
VERTEX
  8
0
  6
CONTINUOUS
 62
3
 10
609.566647644061730
 20
-154.188844709760820
  0
VERTEX
  8
0
  6
CONTINUOUS
 62
3
 10
608.279158948331310
 20
-149.880973407080660
  0
VERTEX
  8
0
  6
CONTINUOUS
 62
3
 10
606.700315704684500
 20
-146.244217216494520
  0
VERTEX
  8
0
  6
CONTINUOUS
 62
3
 10
604.883883529526540
 20
-143.402421515996020
  0
VERTEX
  8
0
  6
CONTINUOUS
 62
3
 10
602.891718845873700
 20
-141.452360255848840
  0
VERTEX
  8
0
  6
CONTINUOUS
 62
3
 10
600.791662436924980
 20
-140.460440437572290
  0
VERTEX
  8
0
  6
CONTINUOUS
 62
3
 10
598.655229209411460
 20
-140.460440703009820
  0
VERTEX
  8
0
  6
CONTINUOUS
 62
3
 10
596.555172839068970
 20
-141.452361043122290
  0
VERTEX
  8
0
  6
CONTINUOUS
 62
3
 10
594.563008231313920
 20
-143.402422798295730
  0
VERTEX
  8
0
  6
CONTINUOUS
 62
3
 10
592.746576166760750
 20
-146.244218950153310
  0
VERTEX
  8
0
  6
CONTINUOUS
 62
3
 10
591.167733064659050
 20
-149.880975533060850
  0
VERTEX
  8
0
  6
CONTINUOUS
 62
3
 10
589.880244536593980
 20
-154.188847155664720
  0
VERTEX
  8
0
  6
CONTINUOUS
 62
3
 10
588.927954462953490
 20
-159.021134407421390
  0
VERTEX
  8
0
  6
CONTINUOUS
 62
3
 10
588.343291942074070
 20
-164.213279531388930
  0
VERTEX
  8
0
  6
CONTINUOUS
 62
3
 10
588.146166956121530
 20
-169.588470241624240
  0
SEQEND
  8
0
  6
CONTINUOUS
 62
3
  0
CIRCLE
  8
0
  6
CONTINUOUS
 62
3
 10
485.291451059571500
 20
-161.756628654831730
 40
43.999999999999545
  0
ARC
  8
0
  6
CONTINUOUS
 62
3
 10
562.791451059571500
 20
-166.756628654831730
 40
5.000000000000000
 50
0.000000000000000
 51
90.000000000000000
  0
ARC
  8
0
  6
CONTINUOUS
 62
3
 10
542.212448942602800
 20
-164.756628654831730
 40
3.000000000000000
 50
90.000000000000000
 51
176.983038690193300
  0
ARC
  8
0
  6
CONTINUOUS
 62
3
 10
510.291451059572410
 20
-167.394799330148090
 40
109.999999999999090
 50
0.000000000000000
 51
87.075476210271603
  0
LINE
  8
0
  6
CONTINUOUS
 62
3
 10
567.791451059571500
 20
-166.756628654831730
 11
567.791451059571500
 21
-290.056628654831000
  0
LINE
  8
0
  6
CONTINUOUS
 62
3
 10
542.212448942602800
 20
-161.756628654831730
 11
562.791451059571500
 21
-161.756628654831730
  0
LINE
  8
0
  6
CONTINUOUS
 62
3
 10
577.618440899929280
 20
-166.756628654831730
 11
577.618440899929280
 21
-304.756628654830820
  0
LINE
  8
0
  6
CONTINUOUS
 62
3
 10
588.146166956121760
 20
-169.588470241624240
 11
588.146166956121760
 21
-304.756628654830820
  0
LINE
  8
0
  6
CONTINUOUS
 62
3
 10
611.300725823899030
 20
-169.588467364825190
 11
611.300725823899030
 21
-304.756628654830820
  0
LINE
  8
0
  6
CONTINUOUS
 62
3
 10
620.291451059571500
 20
-167.394799330148090
 11
620.291451059571500
 21
-306.756628654830820
  0
LINE
  8
0
  6
DASHED
 62
3
 10
566.294320680152400
 20
-121.376508582051420
 11
571.387957608429360
 21
-223.249247147592090
  0
LINE
  8
0
  6
DASHED
 62
3
 10
567.892324422356980
 20
-121.296608394941130
 11
572.985961350633940
 21
-223.169346960481110
  0
ARC
  8
0
  6
DASHED
 62
3
 10
569.009953524207500
 20
-124.044223991186070
 40
1.299999237060683
 50
19.463936333591853
 51
92.862405909347913
  0
ARC
  8
0
  6
DASHED
 62
3
 10
569.229679114959480
 20
-128.438735806223800
 40
1.299999237060436
 50
272.862387240019930
 51
346.260856815788600
  0
LINE
  8
0
  6
DASHED
 62
3
 10
567.967230847772270
 20
-122.794736903257890
 11
568.945034660279820
 21
-122.745846712632550
  0
LINE
  8
0
  6
DASHED
 62
3
 10
568.316794166379400
 20
-129.786003275402660
 11
569.294597978887170
 21
-129.737113084777320
  0
LINE
  8
0
  6
DASHED
 62
3
 10
567.967230847772270
 20
-122.794736903257890
 11
568.316794166379400
 21
-129.786003275402660
  0
LINE
  8
0
  6
DASHED
 62
3
 10
567.967230847772270
 20
-122.794736903257890
 11
568.316794166379400
 21
-129.786003275402660
  0
ARC
  8
0
  6
DASHED
 62
3
 10
561.749997919251430
 20
-126.609970818721420
 40
8.999999999999948
 50
346.260856815786500
 51
19.463936333591505
  0
LINE
  8
0
  6
DASHED
 62
3
 10
567.892324422356980
 20
-121.296608394941130
 11
566.294320680152400
 21
-121.376508582051420
  0
ARC
  8
0
  6
DASHED
 62
3
 10
568.591451059571450
 20
-151.299128654831520
 40
18.799999999999869
 50
35.808626813495465
 51
85.126025186157236
  0
LINE
  8
0
  6
DASHED
 62
3
 10
567.093322551254690
 20
-121.336558488496390
 11
572.186959479531650
 21
-223.209297054036370
  0
ARC
  8
0
  6
DASHED
 62
3
 10
570.358709523200330
 20
-130.574341622808110
 40
1.999999999999927
 50
182.862405226112710
 51
265.126025186159040
  0
ARC
  8
0
  6
DASHED
 62
3
 10
564.765696425484520
 20
-130.853992277693810
 40
1.999999999999958
 50
280.598785266065990
 51
2.862405226112724
  0
ARC
  8
0
  6
DASHED
 62
3
 10
568.591451059571450
 20
-151.299128654831520
 40
18.799999999999983
 50
100.598785266066050
 51
180.000000000000000
  0
LINE
  8
0
  6
DASHED
 62
3
 10
549.791451059571500
 20
-191.299128654831520
 11
549.791451059571500
 21
-151.299128654831520
  0
ARC
  8
0
  6
DASHED
 62
3
 10
570.591451059571450
 20
-191.299128654831520
 40
20.799999999999955
 50
180.000000000000000
 51
265.808273843992540
  0
LINE
  8
0
  6
DASHED
 62
3
 10
591.287710411192390
 20
-189.224315687250510
 11
587.297685473536380
 21
-149.423816934133360
  0
ARC
  8
0
  6
DASHED
 62
3
 10
568.591451059571450
 20
-151.299128654831520
 40
18.799999999999827
 50
5.724810452223272
 51
35.808626813495465
  0
ARC
  8
0
  6
DASHED
 62
3
 10
570.591451059571450
 20
-191.299128654831520
 40
20.799999999999976
 50
334.359929784104850
 51
5.724810452223396
  0
ARC
  8
0
  6
DASHED
 62
3
 10
570.591451059571450
 20
-191.299128654831520
 40
20.800000000000040
 50
279.916536608230560
 51
334.359929784104850
  0
INSERT
  8
0
  2
SYM28
 10
572.736273265914860
 20
-218.175585266091960
 41
-1.000000000000000
 42
1.000000000000000
 43
1.000000000000000
 50
2.862405226113666
  0
LINE
  8
0
  6
DASHED
 62
3
 10
571.387957608429360
 20
-223.249247147592090
 11
572.985961350633940
 21
-223.169346960481110
  0
ARC
  8
0
  6
DASHED
 62
3
 10
574.517916890903730
 20
-213.758488976875010
 40
1.999999999999995
 50
99.916536608232732
 51
182.862405226112400
  0
ARC
  8
0
  6
DASHED
 62
3
 10
568.924903793187920
 20
-214.038139631760940
 40
1.999999999999927
 50
2.862405226112724
 51
85.808273843998577
  0
ARC
  8
0
  6
CONTINUOUS
 62
3
 10
510.291451059572410
 20
-167.394799330148090
 40
67.326989840399619
 50
0.000000000000000
 51
87.075476210271830
  0
LINE
  8
0
  6
DASHED
 62
3
 10
403.128075395814450
 20
-179.862325332993120
 11
403.127698694459470
 21
-179.862325332993120
  0
LINE
  8
0
  6
CONTINUOUS
 62
3
 10
350.291451059571500
 20
-167.394799330148090
 11
350.291451059571500
 21
-306.756628654830820
  0
LINE
  8
0
  6
CONTINUOUS
 62
3
 10
382.436735163022150
 20
-169.588470241624240
 11
382.436735163022150
 21
-304.756628654830820
  0
LINE
  8
0
  6
CONTINUOUS
 62
3
 10
359.282176295244880
 20
-169.588467364825190
 11
359.282176295244880
 21
-304.756628654830820
  0
LINE
  8
0
  6
CONTINUOUS
 62
3
 10
402.791451059571500
 20
-166.756628654831730
 11
402.791451059571500
 21
-290.056628654831000
  0
LINE
  8
0
  6
CONTINUOUS
 62
3
 10
428.370453176541100
 20
-161.756628654831730
 11
407.791451059571500
 21
-161.756628654831730
  0
LINE
  8
0
  6
CONTINUOUS
 62
3
 10
392.964461219213720
 20
-166.756628654831730
 11
392.964461219213720
 21
-304.756628654830820
  0
ARC
  8
0
  6
CONTINUOUS
 62
3
 10
407.791451059571500
 20
-166.756628654831730
 40
5.000000000000000
 50
90.000000000000000
 51
180.000000000000000
  0
ARC
  8
0
  6
CONTINUOUS
 62
3
 10
428.370453176541100
 20
-164.756628654831730
 40
3.000000000000143
 50
3.016961309806693
 51
90.000000000000000
  0
ARC
  8
0
  6
CONTINUOUS
 62
3
 10
460.291451059571500
 20
-167.394799330148090
 40
67.326989840399662
 50
92.924523789728170
 51
180.000000000000000
  0
ARC
  8
0
  6
CONTINUOUS
 62
3
 10
460.291451059571500
 20
-167.394799330148090
 40
109.999999999999800
 50
92.924523789727928
 51
180.000000000000000
  0
POLYLINE
  8
0
  6
CONTINUOUS
 62
3
 66
1
  0
VERTEX
  8
0
  6
CONTINUOUS
 62
3
 10
382.436735163021470
 20
-169.588470241624240
  0
VERTEX
  8
0
  6
CONTINUOUS
 62
3
 10
382.239610177069040
 20
-164.213279531388930
  0
VERTEX
  8
0
  6
CONTINUOUS
 62
3
 10
381.654947656189510
 20
-159.021134407421390
  0
VERTEX
  8
0
  6
CONTINUOUS
 62
3
 10
380.702657582549080
 20
-154.188847155664720
  0
VERTEX
  8
0
  6
CONTINUOUS
 62
3
 10
379.415169054484010
 20
-149.880975533060850
  0
VERTEX
  8
0
  6
CONTINUOUS
 62
3
 10
377.836325952382310
 20
-146.244218950153310
  0
VERTEX
  8
0
  6
CONTINUOUS
 62
3
 10
376.019893887829080
 20
-143.402422798295730
  0
VERTEX
  8
0
  6
CONTINUOUS
 62
3
 10
374.027729280074080
 20
-141.452361043122290
  0
VERTEX
  8
0
  6
CONTINUOUS
 62
3
 10
371.927672909731540
 20
-140.460440703009820
  0
VERTEX
  8
0
  6
CONTINUOUS
 62
3
 10
369.791239682218020
 20
-140.460440437572290
  0
VERTEX
  8
0
  6
CONTINUOUS
 62
3
 10
367.691183273269250
 20
-141.452360255848840
  0
VERTEX
  8
0
  6
CONTINUOUS
 62
3
 10
365.699018589616460
 20
-143.402421515996020
  0
VERTEX
  8
0
  6
CONTINUOUS
 62
3
 10
363.882586414458500
 20
-146.244217216494520
  0
VERTEX
  8
0
  6
CONTINUOUS
 62
3
 10
362.303743170811690
 20
-149.880973407080660
  0
VERTEX
  8
0
  6
CONTINUOUS
 62
3
 10
361.016254475081210
 20
-154.188844709760820
  0
VERTEX
  8
0
  6
CONTINUOUS
 62
3
 10
360.063964213364730
 20
-159.021131724886120
  0
VERTEX
  8
0
  6
CONTINUOUS
 62
3
 10
359.479301490403260
 20
-164.213276703572860
  0
VERTEX
  8
0
  6
CONTINUOUS
 62
3
 10
359.282176295244600
 20
-169.588467364825190
  0
SEQEND
  8
0
  6
CONTINUOUS
 62
3
  0
ARC
  8
0
  6
CONTINUOUS
 62
3
 10
485.291451059571500
 20
-161.756628654831730
 40
53.999999999999424
 50
183.016961309816540
 51
356.983038690183490
  0
LINE
  8
0
  6
DASHDOT
 62
4
 10
636.400377954843860
 20
-161.756628654831730
 11
335.361251995542260
 21
-161.756628654831730
  0
ARC
  8
0
  6
DASHED
 62
3
 10
687.791451059571730
 20
-177.256628654831500
 40
300.000000000000060
 50
173.967950853630190
 51
186.032049146369810
  0
LINE
  8
0
  6
DASHED
 62
3
 10
387.291451059571730
 20
-179.756628654831500
 11
387.291451059571730
 21
-174.756628654831500
  0
LINE
  8
0
  6
DASHED
 62
3
 10
387.791452916769230
 20
-174.756628654831500
 11
387.291451059571730
 21
-174.756628654831500
  0
LINE
  8
0
  6
DASHED
 62
3
 10
387.801867907089440
 20
-179.756628654831500
 11
387.291451059571730
 21
-179.756628654831500
  0
ARC
  8
0
  6
DASHED
 62
3
 10
394.424786286629110
 20
-208.256628654831500
 40
4.999999999999917
 50
186.032049146370610
 51
270.000000000000000
  0
LINE
  8
0
  6
DASHED
 62
3
 10
426.791451059571730
 20
-213.256628654831500
 11
394.424786286629110
 21
-213.256628654831500
  0
ARC
  8
0
  6
DASHED
 62
3
 10
425.491451059571770
 20
-197.556628654831460
 40
0.200000000000045
 50
180.000000000000000
 51
270.000000000000000
  0
LINE
  8
0
  6
DASHED
 62
3
 10
421.791451059571730
 20
-211.756628654831500
 11
421.791451059571730
 21
-213.256628654831500
  0
LINE
  8
0
  6
DASHED
 62
3
 10
426.791451059571730
 20
-197.756628654831500
 11
426.791451059571730
 21
-213.256628654831500
  0
LINE
  8
0
  6
DASHED
 62
3
 10
426.791451059571730
 20
-197.756628654831500
 11
425.491451059571770
 21
-197.756628654831500
  0
LINE
  8
0
  6
DASHED
 62
3
 10
425.291451059571730
 20
-156.756628654831500
 11
425.291451059571730
 21
-197.556628654831460
  0
LINE
  8
0
  6
DASHED
 62
3
 10
421.791451059571730
 20
-213.256628654831500
 11
421.791451059571730
 21
-141.256628654831500
  0
ARC
  8
0
  6
DASHED
 62
3
 10
425.491451059571770
 20
-156.956628654831550
 40
0.200000000000045
 50
90.000000000000000
 51
180.000000000000000
  0
LINE
  8
0
  6
DASHED
 62
3
 10
426.791451059571730
 20
-156.756628654831500
 11
425.491451059571770
 21
-156.756628654831500
  0
LINE
  8
0
  6
DASHED
 62
3
 10
426.791451059571730
 20
-156.756628654831500
 11
426.791451059571730
 21
-141.256628654831500
  0
LINE
  8
0
  6
DASHED
 62
3
 10
426.791451059571730
 20
-156.756628654831500
 11
425.291451059571730
 21
-156.756628654831500
  0
LINE
  8
0
  6
DASHED
 62
3
 10
426.791451059571730
 20
-141.256628654831500
 11
394.424786286629110
 21
-141.256628654831500
  0
ARC
  8
0
  6
DASHED
 62
3
 10
394.424786286629110
 20
-146.256628654831500
 40
5.000000000000000
 50
90.000000000000000
 51
173.967950853629390
  0
POLYLINE
  8
0
  6
CONTINUOUS
 62
3
 66
1
 70
1
  0
VERTEX
  8
0
  6
CONTINUOUS
 62
3
 10
-182.072886334865130
 20
-223.180153686891690
  0
VERTEX
  8
0
  6
CONTINUOUS
 62
3
 10
-182.163195516969950
 20
-222.477196720691320
  0
VERTEX
  8
0
  6
CONTINUOUS
 62
3
 10
-182.430652532062080
 20
-221.801253996479230
  0
VERTEX
  8
0
  6
CONTINUOUS
 62
3
 10
-182.864979157043170
 20
-221.178301614073830
  0
VERTEX
  8
0
  6
CONTINUOUS
 62
3
 10
-183.449484463288340
 20
-220.632279284175240
  0
VERTEX
  8
0
  6
CONTINUOUS
 62
3
 10
-184.161706239673010
 20
-220.184170338708610
  0
VERTEX
  8
0
  6
CONTINUOUS
 62
3
 10
-184.974274202749200
 20
-219.851195353145870
  0
VERTEX
  8
0
  6
CONTINUOUS
 62
3
 10
-185.855961821389310
 20
-219.646150369447610
  0
VERTEX
  8
0
  6
CONTINUOUS
 62
3
 10
-186.772886334865120
 20
-219.576915151346840
  0
VERTEX
  8
0
  6
CONTINUOUS
 62
3
 10
-187.689810848340930
 20
-219.646150369447610
  0
VERTEX
  8
0
  6
CONTINUOUS
 62
3
 10
-188.571498466981040
 20
-219.851195353145870
  0
VERTEX
  8
0
  6
CONTINUOUS
 62
3
 10
-189.384066430057230
 20
-220.184170338708610
  0
VERTEX
  8
0
  6
CONTINUOUS
 62
3
 10
-190.096288206441900
 20
-220.632279284175240
  0
VERTEX
  8
0
  6
CONTINUOUS
 62
3
 10
-190.680793512687070
 20
-221.178301614073830
  0
VERTEX
  8
0
  6
CONTINUOUS
 62
3
 10
-191.115120137668160
 20
-221.801253996479230
  0
VERTEX
  8
0
  6
CONTINUOUS
 62
3
 10
-191.382577152760290
 20
-222.477196720691320
  0
VERTEX
  8
0
  6
CONTINUOUS
 62
3
 10
-191.472886334865110
 20
-223.180153686891690
  0
VERTEX
  8
0
  6
CONTINUOUS
 62
3
 10
-191.382577152760290
 20
-223.883110653092050
  0
VERTEX
  8
0
  6
CONTINUOUS
 62
3
 10
-191.115120137668160
 20
-224.559053377304140
  0
VERTEX
  8
0
  6
CONTINUOUS
 62
3
 10
-190.680793512687070
 20
-225.182005759709540
  0
VERTEX
  8
0
  6
CONTINUOUS
 62
3
 10
-190.096288206441870
 20
-225.728028089608130
  0
VERTEX
  8
0
  6
CONTINUOUS
 62
3
 10
-189.384066430057230
 20
-226.176137035074760
  0
VERTEX
  8
0
  6
CONTINUOUS
 62
3
 10
-188.571498466981040
 20
-226.509112020637500
  0
VERTEX
  8
0
  6
CONTINUOUS
 62
3
 10
-187.689810848340930
 20
-226.714157004335760
  0
VERTEX
  8
0
  6
CONTINUOUS
 62
3
 10
-186.772886334865120
 20
-226.783392222436530
  0
VERTEX
  8
0
  6
CONTINUOUS
 62
3
 10
-185.855961821389310
 20
-226.714157004335760
  0
VERTEX
  8
0
  6
CONTINUOUS
 62
3
 10
-184.974274202749200
 20
-226.509112020637500
  0
VERTEX
  8
0
  6
CONTINUOUS
 62
3
 10
-184.161706239673010
 20
-226.176137035074760
  0
VERTEX
  8
0
  6
CONTINUOUS
 62
3
 10
-183.449484463288370
 20
-225.728028089608130
  0
VERTEX
  8
0
  6
CONTINUOUS
 62
3
 10
-182.864979157043170
 20
-225.182005759709540
  0
VERTEX
  8
0
  6
CONTINUOUS
 62
3
 10
-182.430652532062080
 20
-224.559053377304140
  0
VERTEX
  8
0
  6
CONTINUOUS
 62
3
 10
-182.163195516969950
 20
-223.883110653092050
  0
SEQEND
  8
0
  6
CONTINUOUS
 62
3
  0
LINE
  8
0
  6
CONTINUOUS
 62
3
 10
-188.772886334865120
 20
-226.172529240892000
 11
-186.772886334865120
 21
-224.996743755269680
  0
LINE
  8
0
  6
CONTINUOUS
 62
3
 10
-186.772886334865120
 20
-224.996743755269680
 11
-184.772886334865120
 21
-223.344102116146250
  0
LINE
  8
0
  6
CONTINUOUS
 62
3
 10
-184.772886334865120
 20
-226.172529240892000
 11
-186.772886334865120
 21
-224.996743755269680
  0
LINE
  8
0
  6
CONTINUOUS
 62
3
 10
-186.772886334865120
 20
-224.996743755269680
 11
-188.772886334865120
 21
-223.344102116146250
  0
LINE
  8
0
  6
CONTINUOUS
 62
3
 10
-175.772886334865690
 20
-231.256628654831840
 11
-256.466910557286040
 21
-231.256628654831840
  0
LINE
  8
0
  6
CONTINUOUS
 62
3
 10
-175.772886334865690
 20
-212.256628654831840
 11
-175.772886334865690
 21
-231.256628654831840
  0
ARC
  8
0
  6
CONTINUOUS
 62
3
 10
-182.772886334865580
 20
-206.256628654831840
 40
3.000000000000000
 50
180.000000000000000
 51
270.000000000000000
  0
LINE
  8
0
  6
CONTINUOUS
 62
3
 10
-178.772886334865690
 20
-209.256628654831840
 11
-182.772886334865580
 21
-209.256628654831840
  0
ARC
  8
0
  6
CONTINUOUS
 62
3
 10
-178.772886334865690
 20
-212.256628654831840
 40
3.000000000000000
 50
0.000000000000000
 51
90.000000000000000
  0
LINE
  8
0
  6
CONTINUOUS
 62
3
 10
-185.772886334865580
 20
-206.256628654831840
 11
-185.772886334865580
 21
-171.256628654831840
  0
LINE
  8
0
  6
CONTINUOUS
 62
4
 10
-175.772886334865690
 20
-221.572162841607340
 11
-26.772886334865802
 21
-221.572162841607340
  0
LINE
  8
0
  6
CONTINUOUS
 62
4
 10
-175.772886334865690
 20
-216.622415373301580
 11
-26.772886334865802
 21
-216.622415373301580
  0
LINE
  8
0
  6
CONTINUOUS
 62
4
 10
-184.675878893245790
 20
-208.575813710567790
 11
-26.772886334865802
 21
-208.575813710567790
  0
LINE
  8
0
  6
CONTINUOUS
 62
4
 10
-185.686550123862500
 20
-206.971165795005730
 11
-183.272483844375530
 21
-206.971165795005730
  0
LINE
  8
0
  6
CONTINUOUS
 62
4
 10
-93.572886334865871
 20
-203.007420371206190
 11
-26.772886334865802
 21
-203.007420371206190
  0
LINE
  8
0
  6
CONTINUOUS
 62
4
 10
-185.772886334865580
 20
-201.539062981401120
 11
-183.572886334865870
 21
-201.539062981401120
  0
LINE
  8
0
  6
CONTINUOUS
 62
4
 10
-185.772886334865580
 20
-197.448562447311470
 11
-183.572886334865870
 21
-197.448562447311470
  0
LINE
  8
0
  6
CONTINUOUS
 62
4
 10
-185.772886334865580
 20
-196.086682111962200
 11
-183.572886334865870
 21
-196.086682111962200
  0
LINE
  8
0
  6
CONTINUOUS
 62
4
 10
-185.772886334865580
 20
-191.256628654831840
 11
-183.572886334865870
 21
-191.256628654831840
  0
LINE
  8
0
  6
CONTINUOUS
 62
4
 10
-93.572886334865871
 20
-140.974194328262570
 11
-26.772886334865802
 21
-140.974194328262570
  0
LINE
  8
0
  6
CONTINUOUS
 62
4
 10
-93.572886334865871
 20
-196.086682111962200
 11
-26.772886334865802
 21
-196.086682111962200
  0
LINE
  8
0
  6
CONTINUOUS
 62
4
 10
-185.772886334865580
 20
-140.974194328262570
 11
-183.572886334865870
 21
-140.974194328262570
  0
LINE
  8
0
  6
CONTINUOUS
 62
4
 10
-93.572886334865871
 20
-201.539062981401120
 11
-26.772886334865802
 21
-201.539062981401120
  0
LINE
  8
0
  6
CONTINUOUS
 62
4
 10
-93.572886334865871
 20
-146.426575197701480
 11
-26.772886334865802
 21
-146.426575197701480
  0
LINE
  8
0
  6
CONTINUOUS
 62
4
 10
-93.572886334865871
 20
-191.256628654831840
 11
-26.772886334865802
 21
-191.256628654831840
  0
LINE
  8
0
  6
CONTINUOUS
 62
4
 10
-185.772886334865580
 20
-146.426575197701480
 11
-183.572886334865870
 21
-146.426575197701480
  0
LINE
  8
0
  6
CONTINUOUS
 62
4
 10
-93.572886334865871
 20
-197.448562447311470
 11
-26.772886334865802
 21
-197.448562447311470
  0
LINE
  8
0
  6
CONTINUOUS
 62
4
 10
-93.572886334865871
 20
-145.064694862352210
 11
-26.772886334865802
 21
-145.064694862352210
  0
LINE
  8
0
  6
CONTINUOUS
 62
4
 10
-185.772886334865580
 20
-145.064694862352210
 11
-183.572886334865870
 21
-145.064694862352210
  0
LINE
  8
0
  6
CONTINUOUS
 62
4
 10
-93.572886334865871
 20
-151.256628654831840
 11
-26.772886334865802
 21
-151.256628654831840
  0
LINE
  8
0
  6
CONTINUOUS
 62
4
 10
-185.772886334865580
 20
-151.256628654831840
 11
-183.572886334865870
 21
-151.256628654831840
  0
LINE
  8
0
  6
CONTINUOUS
 62
4
 10
-175.772886334865690
 20
-114.256628654831840
 11
-26.772886334865802
 21
-114.256628654831840
  0
LINE
  8
0
  6
CONTINUOUS
 62
4
 10
-175.772886334865690
 20
-113.756628654831840
 11
-26.772886334865802
 21
-113.756628654831840
  0
LINE
  8
0
  6
CONTINUOUS
 62
4
 10
-175.772886334865690
 20
-115.256628654831840
 11
-26.772886334865802
 21
-115.256628654831840
  0
LINE
  8
0
  6
CONTINUOUS
 62
4
 10
-175.772886334865690
 20
-116.256628654831840
 11
-26.772886334865802
 21
-116.256628654831840
  0
LINE
  8
0
  6
CONTINUOUS
 62
4
 10
-175.772886334865690
 20
-120.941094468056340
 11
-26.772886334865802
 21
-120.941094468056340
  0
LINE
  8
0
  6
CONTINUOUS
 62
4
 10
-175.772886334865690
 20
-125.890841936362100
 11
-26.772886334865802
 21
-125.890841936362100
  0
LINE
  8
0
  6
CONTINUOUS
 62
4
 10
-184.675878893245790
 20
-133.937443599095900
 11
-26.772886334865802
 21
-133.937443599095900
  0
LINE
  8
0
  6
CONTINUOUS
 62
4
 10
-185.686550123862500
 20
-135.542091514657950
 11
-183.272483844375530
 21
-135.542091514657950
  0
LINE
  8
0
  6
CONTINUOUS
 62
4
 10
-185.772886334865580
 20
-139.505836938457490
 11
-183.572886334865870
 21
-139.505836938457490
  0
LINE
  8
0
  6
CONTINUOUS
 62
3
 10
-175.772886334865690
 20
-130.256628654831840
 11
-175.772886334865690
 21
-111.256628654831840
  0
ARC
  8
0
  6
CONTINUOUS
 62
3
 10
-182.772886334865580
 20
-136.256628654831840
 40
3.000000000000000
 50
90.000000000000000
 51
180.000000000000000
  0
LINE
  8
0
  6
CONTINUOUS
 62
3
 10
-178.772886334865690
 20
-133.256628654831840
 11
-182.772886334865580
 21
-133.256628654831840
  0
ARC
  8
0
  6
CONTINUOUS
 62
3
 10
-178.772886334865690
 20
-130.256628654831840
 40
3.000000000000000
 50
270.000000000000000
 51
0.000000000000000
  0
LINE
  8
0
  6
CONTINUOUS
 62
3
 10
-185.772886334865580
 20
-136.256628654831840
 11
-185.772886334865580
 21
-171.256628654831840
  0
LINE
  8
0
  6
CONTINUOUS
 62
3
 10
-26.772886334865802
 20
-112.756628654831840
 11
-175.772886334865690
 21
-112.756628654831840
  0
LINE
  8
0
  6
CONTINUOUS
 62
3
 10
-175.772886334865690
 20
-111.256628654831840
 11
-256.466910557286040
 21
-111.256628654831840
  0
LINE
  8
0
  6
CONTINUOUS
 62
4
 10
-175.772886334865690
 20
-228.756628654831840
 11
-26.772886334865802
 21
-228.756628654831840
  0
LINE
  8
0
  6
CONTINUOUS
 62
4
 10
-175.772886334865690
 20
-228.256628654831840
 11
-26.772886334865802
 21
-228.256628654831840
  0
LINE
  8
0
  6
CONTINUOUS
 62
4
 10
-175.772886334865690
 20
-227.256628654831840
 11
-26.772886334865802
 21
-227.256628654831840
  0
LINE
  8
0
  6
CONTINUOUS
 62
4
 10
-175.772886334865690
 20
-226.256628654831840
 11
-26.772886334865802
 21
-226.256628654831840
  0
POLYLINE
  8
0
  6
CONTINUOUS
 62
3
 66
1
 70
1
  0
VERTEX
  8
0
  6
CONTINUOUS
 62
3
 10
-182.072886334865130
 20
-119.333103622771770
  0
VERTEX
  8
0
  6
CONTINUOUS
 62
3
 10
-182.163195516969950
 20
-118.630146656571410
  0
VERTEX
  8
0
  6
CONTINUOUS
 62
3
 10
-182.430652532062080
 20
-117.954203932359320
  0
VERTEX
  8
0
  6
CONTINUOUS
 62
3
 10
-182.864979157043170
 20
-117.331251549953910
  0
VERTEX
  8
0
  6
CONTINUOUS
 62
3
 10
-183.449484463288340
 20
-116.785229220055340
  0
VERTEX
  8
0
  6
CONTINUOUS
 62
3
 10
-184.161706239673010
 20
-116.337120274588720
  0
VERTEX
  8
0
  6
CONTINUOUS
 62
3
 10
-184.974274202749200
 20
-116.004145289025950
  0
VERTEX
  8
0
  6
CONTINUOUS
 62
3
 10
-185.855961821389310
 20
-115.799100305327710
  0
VERTEX
  8
0
  6
CONTINUOUS
 62
3
 10
-186.772886334865120
 20
-115.729865087226940
  0
VERTEX
  8
0
  6
CONTINUOUS
 62
3
 10
-187.689810848340930
 20
-115.799100305327710
  0
VERTEX
  8
0
  6
CONTINUOUS
 62
3
 10
-188.571498466981040
 20
-116.004145289025950
  0
VERTEX
  8
0
  6
CONTINUOUS
 62
3
 10
-189.384066430057230
 20
-116.337120274588720
  0
VERTEX
  8
0
  6
CONTINUOUS
 62
3
 10
-190.096288206441900
 20
-116.785229220055340
  0
VERTEX
  8
0
  6
CONTINUOUS
 62
3
 10
-190.680793512687070
 20
-117.331251549953910
  0
VERTEX
  8
0
  6
CONTINUOUS
 62
3
 10
-191.115120137668160
 20
-117.954203932359320
  0
VERTEX
  8
0
  6
CONTINUOUS
 62
3
 10
-191.382577152760290
 20
-118.630146656571410
  0
VERTEX
  8
0
  6
CONTINUOUS
 62
3
 10
-191.472886334865110
 20
-119.333103622771770
  0
VERTEX
  8
0
  6
CONTINUOUS
 62
3
 10
-191.382577152760290
 20
-120.036060588972130
  0
VERTEX
  8
0
  6
CONTINUOUS
 62
3
 10
-191.115120137668160
 20
-120.712003313184220
  0
VERTEX
  8
0
  6
CONTINUOUS
 62
3
 10
-190.680793512687070
 20
-121.334955695589620
  0
VERTEX
  8
0
  6
CONTINUOUS
 62
3
 10
-190.096288206441870
 20
-121.880978025488200
  0
VERTEX
  8
0
  6
CONTINUOUS
 62
3
 10
-189.384066430057230
 20
-122.329086970954810
  0
VERTEX
  8
0
  6
CONTINUOUS
 62
3
 10
-188.571498466981040
 20
-122.662061956517590
  0
VERTEX
  8
0
  6
CONTINUOUS
 62
3
 10
-187.689810848340930
 20
-122.867106940215830
  0
VERTEX
  8
0
  6
CONTINUOUS
 62
3
 10
-186.772886334865120
 20
-122.936342158316600
  0
VERTEX
  8
0
  6
CONTINUOUS
 62
3
 10
-185.855961821389310
 20
-122.867106940215830
  0
VERTEX
  8
0
  6
CONTINUOUS
 62
3
 10
-184.974274202749200
 20
-122.662061956517590
  0
VERTEX
  8
0
  6
CONTINUOUS
 62
3
 10
-184.161706239673010
 20
-122.329086970954810
  0
VERTEX
  8
0
  6
CONTINUOUS
 62
3
 10
-183.449484463288370
 20
-121.880978025488200
  0
VERTEX
  8
0
  6
CONTINUOUS
 62
3
 10
-182.864979157043170
 20
-121.334955695589620
  0
VERTEX
  8
0
  6
CONTINUOUS
 62
3
 10
-182.430652532062080
 20
-120.712003313184220
  0
VERTEX
  8
0
  6
CONTINUOUS
 62
3
 10
-182.163195516969950
 20
-120.036060588972130
  0
SEQEND
  8
0
  6
CONTINUOUS
 62
3
  0
LINE
  8
0
  6
CONTINUOUS
 62
3
 10
-188.772886334865120
 20
-116.340728068771450
 11
-186.772886334865120
 21
-117.516513554394230
  0
LINE
  8
0
  6
CONTINUOUS
 62
3
 10
-186.772886334865120
 20
-117.516513554394230
 11
-184.772886334865120
 21
-119.169155193517660
  0
LINE
  8
0
  6
CONTINUOUS
 62
3
 10
-184.772886334865120
 20
-116.340728068771450
 11
-186.772886334865120
 21
-117.516513554394230
  0
LINE
  8
0
  6
CONTINUOUS
 62
3
 10
-186.772886334865120
 20
-117.516513554394230
 11
-188.772886334865120
 21
-119.169155193517660
  0
LINE
  8
0
  6
CONTINUOUS
 62
3
 10
-26.772886334865802
 20
-229.756628654831840
 11
-175.772886334865690
 21
-229.756628654831840
  0
LINE
  8
0
  6
CONTINUOUS
 62
4
 10
-93.572886334865871
 20
-139.505836938457490
 11
-26.772886334865802
 21
-139.505836938457490
  0
LINE
  8
0
  6
CONTINUOUS
 62
4
 10
-93.873288825355985
 20
-135.542091514657950
 11
-26.772886334865802
 21
-135.542091514657950
  0
LINE
  8
0
  6
CONTINUOUS
 62
4
 10
-93.873288825356212
 20
-206.971165795005730
 11
-26.772886334865802
 21
-206.971165795005730
  0
LINE
  8
0
  6
CONTINUOUS
 62
3
 10
-94.572886334865871
 20
-135.256628654831840
 11
-182.572886334865870
 21
-135.256628654831840
  0
LINE
  8
0
  6
CONTINUOUS
 62
3
 10
-94.572886334865871
 20
-207.256628654831840
 11
-182.572886334865870
 21
-207.256628654831840
  0
LINE
  8
0
  6
CONTINUOUS
 62
3
 10
-183.572886334865870
 20
-136.256628654831840
 11
-183.572886334865870
 21
-206.256628654831840
  0
LINE
  8
0
  6
CONTINUOUS
 62
3
 10
-93.572886334865871
 20
-136.256628654831840
 11
-93.572886334865871
 21
-206.256628654831840
  0
ARC
  8
0
  6
CONTINUOUS
 62
3
 10
-94.572886334865871
 20
-136.256628654831840
 40
1.000000000000000
 50
0.000000000000000
 51
90.000000000000000
  0
ARC
  8
0
  6
CONTINUOUS
 62
3
 10
-94.572886334865871
 20
-206.256628654831840
 40
1.000000000000000
 50
270.000000000000000
 51
0.000000000000000
  0
ARC
  8
0
  6
CONTINUOUS
 62
3
 10
-182.572886334865870
 20
-136.256628654831840
 40
1.000000000000000
 50
90.000000000000000
 51
180.000000000000000
  0
ARC
  8
0
  6
CONTINUOUS
 62
3
 10
-182.572886334865870
 20
-206.256628654831840
 40
1.000000000000000
 50
180.000000000000000
 51
270.000000000000000
  0
ARC
  8
0
  6
CONTINUOUS
 62
3
 10
-276.172886334815420
 20
-123.813423597586390
 40
2.599999999999721
 50
125.000000000001370
 51
180.000000000000000
  0
LINE
  8
0
  6
CONTINUOUS
 62
3
 10
-267.938439284307040
 20
-114.873587769052050
 11
-277.664185069328030
 21
-121.683628282435270
  0
ARC
  8
0
  6
CONTINUOUS
 62
3
 10
-256.466910557286040
 20
-131.256628654831840
 40
20.000000000000000
 50
90.000000000000000
 51
125.000000000000240
  0
LINE
  8
0
  6
CONTINUOUS
 62
3
 10
-278.772886334815550
 20
-171.256628654831840
 11
-278.772886334815550
 21
-123.813423597586390
  0
ARC
  8
0
  6
CONTINUOUS
 62
3
 10
-276.172886334815420
 20
-218.699833712077290
 40
2.600000000000136
 50
180.000000000000000
 51
234.999999999998610
  0
LINE
  8
0
  6
CONTINUOUS
 62
3
 10
-267.938439284307040
 20
-227.639669540611640
 11
-277.664185069328030
 21
-220.829629027228410
  0
ARC
  8
0
  6
CONTINUOUS
 62
3
 10
-256.466910557286040
 20
-211.256628654831840
 40
20.000000000000007
 50
234.999999999999740
 51
270.000000000000000
  0
LINE
  8
0
  6
CONTINUOUS
 62
3
 10
-278.772886334815550
 20
-171.256628654831840
 11
-278.772886334815550
 21
-218.699833712077290
  0
CIRCLE
  8
0
  6
CONTINUOUS
 62
4
 10
485.291451059571500
 20
-161.756628654831730
 40
4.000000000000000
  0
CIRCLE
  8
0
  6
CONTINUOUS
 62
3
 10
485.291451059571500
 20
-161.756628654831730
 40
3.324999999999989
  0
ARC
  8
0
  6
CONTINUOUS
 62
3
 10
485.291451059571500
 20
-161.787861206095840
 40
23.999999999999723
 50
196.957763300004330
 51
163.042236699995670
  0
CIRCLE
  8
0
  6
CONTINUOUS
 62
3
 10
485.291451059571500
 20
-161.756628654831730
 40
33.999999999999659
  0
ARC
  8
0
  6
CONTINUOUS
 62
3
 10
485.291451059571500
 20
-656.756628654831730
 40
557.326989840400530
 50
90.000000000000000
 51
92.924523789728227
  0
ARC
  8
0
  6
CONTINUOUS
 62
3
 10
582.618440899929280
 20
-304.756628654830820
 40
5.000000000000000
 50
180.000000000000000
 51
270.000000000000000
  0
ARC
  8
0
  6
CONTINUOUS
 62
3
 10
593.146166956121760
 20
-304.756628654830820
 40
5.000000000000000
 50
180.000000000000000
 51
270.000000000000000
  0
ARC
  8
0
  6
CONTINUOUS
 62
3
 10
616.300725823899030
 20
-304.756628654830820
 40
5.000000000000000
 50
180.000000000000000
 51
270.000000000000000
  0
ARC
  8
0
  6
CONTINUOUS
 62
3
 10
387.964461219213720
 20
-304.756628654830820
 40
5.000000000000000
 50
270.000000000000000
 51
0.000000000000000
  0
ARC
  8
0
  6
CONTINUOUS
 62
3
 10
377.436735163022150
 20
-304.756628654830820
 40
5.000000000000000
 50
270.000000000000000
 51
0.000000000000000
  0
ARC
  8
0
  6
CONTINUOUS
 62
3
 10
354.282176295244880
 20
-304.756628654830820
 40
5.000000000000000
 50
270.000000000000000
 51
0.000000000000000
  0
ARC
  8
0
  6
CONTINUOUS
 62
3
 10
557.791451059571500
 20
-290.056628654831000
 40
10.000000000000000
 50
270.000000000000000
 51
0.000000000000000
  0
ARC
  8
0
  6
CONTINUOUS
 62
3
 10
412.791451059571500
 20
-290.056628654831000
 40
10.000000000000000
 50
180.000000000000000
 51
270.000000000000000
  0
ARC
  8
0
  6
CONTINUOUS
 62
3
 10
345.791451059571500
 20
-312.756628654830820
 40
3.000000000000000
 50
90.000000000000000
 51
180.000000000000000
  0
ARC
  8
0
  6
CONTINUOUS
 62
3
 10
624.791451059571500
 20
-312.756628654830820
 40
3.000000000000000
 50
0.000000000000000
 51
90.000000000000000
  0
ARC
  8
0
  6
CONTINUOUS
 62
3
 10
394.791451059571500
 20
-331.756628654830820
 40
2.000000000000000
 50
90.000000000000000
 51
180.000000000000000
  0
ARC
  8
0
  6
CONTINUOUS
 62
3
 10
347.291451059571500
 20
-306.756628654830820
 40
3.000000000000000
 50
270.000000000000000
 51
0.000000000000000
  0
ARC
  8
0
  6
CONTINUOUS
 62
3
 10
575.791451059571500
 20
-331.756628654830820
 40
2.000000000000000
 50
0.000000000000000
 51
90.000000000000000
  0
ARC
  8
0
  6
CONTINUOUS
 62
3
 10
623.291451059571500
 20
-306.756628654830820
 40
3.000000000000000
 50
180.000000000000000
 51
270.000000000000000
  0
ARC
  8
0
  6
CONTINUOUS
 62
3
 10
485.291451059571500
 20
-656.756628654831730
 40
600.000000000000680
 50
87.075476210271646
 51
90.000000000000000
  0
ARC
  8
0
  6
CONTINUOUS
 62
3
 10
485.291451059571500
 20
-656.756628654831730
 40
557.326989840400530
 50
87.075476210271688
 51
90.000000000000000
  0
ARC
  8
0
  6
CONTINUOUS
 62
3
 10
485.291451059571500
 20
-656.756628654831730
 40
600.000000000000000
 50
90.000000000000000
 51
92.924523789728170
  0
ARC
  8
0
  6
CONTINUOUS
 62
3
 10
495.791451059572410
 20
-31.756628654831729
 40
10.000000000000000
 50
0.000000000000000
 51
90.000000000000000
  0
CIRCLE
  8
0
  6
CONTINUOUS
 62
3
 10
485.291451059572410
 20
-41.756628654831729
 40
10.000000000000000
  0
ARC
  8
0
  6
CONTINUOUS
 62
3
 10
474.791451059572410
 20
-31.756628654831729
 40
10.000000000000000
 50
90.000000000000000
 51
180.000000000000000
  0
LINE
  8
0
  6
CONTINUOUS
 62
3
 10
457.791451059571500
 20
-168.787861206095840
 11
466.791451059571500
 21
-168.787861206095840
  0
LINE
  8
0
  6
CONTINUOUS
 62
3
 10
457.791451059571500
 20
-154.787861206095840
 11
466.791451059571500
 21
-154.787861206095840
  0
LINE
  8
0
  6
CONTINUOUS
 62
3
 10
466.791451059571500
 20
-154.787861206095840
 11
466.791451059571500
 21
-168.787861206095840
  0
LINE
  8
0
  6
CONTINUOUS
 62
3
 10
457.791451059571500
 20
-154.787861206095840
 11
457.791451059571500
 21
-168.787861206095840
  0
LINE
  8
0
  6
CONTINUOUS
 62
3
 10
342.791451059571500
 20
-312.756628654830820
 11
342.791451059571500
 21
-331.756628654830820
  0
LINE
  8
0
  6
CONTINUOUS
 62
3
 10
485.291451059571500
 20
-300.056628654831000
 11
557.791451059571500
 21
-300.056628654831000
  0
LINE
  8
0
  6
CONTINUOUS
 62
3
 10
485.291451059571500
 20
-300.056628654831000
 11
412.791451059571500
 21
-300.056628654831000
  0
LINE
  8
0
  6
CONTINUOUS
 62
3
 10
627.791451059571500
 20
-312.756628654830820
 11
627.791451059571500
 21
-331.756628654830820
  0
LINE
  8
0
  6
CONTINUOUS
 62
3
 10
392.791451059571500
 20
-331.756628654830820
 11
342.791451059571500
 21
-331.756628654830820
  0
LINE
  8
0
  6
DASHED
 62
3
 10
379.291451059571500
 20
-309.756628654830820
 11
379.067095310232160
 21
-309.756628654830820
  0
LINE
  8
0
  6
DASHDOT
 62
4
 10
360.291451059571500
 20
-305.543796280257990
 11
360.291451059571500
 21
-336.388566864365200
  0
LINE
  8
0
  6
CONTINUOUS
 62
3
 10
485.291451059571500
 20
-309.756628654830820
 11
345.791451059571500
 21
-309.756628654830820
  0
LINE
  8
0
  6
DASHED
 62
3
 10
591.291451059571500
 20
-309.756628654830820
 11
591.515806808911750
 21
-309.756628654830820
  0
LINE
  8
0
  6
CONTINUOUS
 62
3
 10
485.291451059571500
 20
-309.756628654830820
 11
624.791451059571500
 21
-309.756628654830820
  0
LINE
  8
0
  6
DASHDOT
 62
4
 10
610.291451059571500
 20
-305.543796280257990
 11
610.291451059571500
 21
-336.388566864364290
  0
LINE
  8
0
  6
CONTINUOUS
 62
3
 10
577.791451059571500
 20
-331.756628654830820
 11
627.791451059571500
 21
-331.756628654830820
  0
LINE
  8
0
  6
CONTINUOUS
 62
3
 10
485.291451059571500
 20
-329.756628654830820
 11
394.791451059571500
 21
-329.756628654830820
  0
LINE
  8
0
  6
CONTINUOUS
 62
3
 10
485.291451059571500
 20
-329.756628654830820
 11
575.791451059571500
 21
-329.756628654830820
  0
LINE
  8
0
  6
CONTINUOUS
 62
3
 10
505.791451059572410
 20
-31.756628654831729
 11
505.791451059572410
 21
-57.106939252760640
  0
LINE
  8
0
  6
DASHDOT
 62
4
 10
508.459364058453960
 20
-41.756628654831729
 11
461.436850156919260
 21
-41.756628654831729
  0
LINE
  8
0
  6
CONTINUOUS
 62
3
 10
495.791451059572410
 20
-21.756628654831729
 11
474.791451059572410
 21
-21.756628654831729
  0
LINE
  8
0
  6
CONTINUOUS
 62
3
 10
464.791451059572410
 20
-31.756628654831729
 11
464.791451059572410
 21
-57.106939252760640
  0
LINE
  8
0
  6
DASHDOT
 62
4
 10
485.291451059571500
 20
-6.664038878934662
 11
485.291451059571500
 21
-349.306446349048200
  0
ENDSEC
  0
EOF
