  0
SECTION
  2
HEADER
  9
$FILLMODE
 70
1
  9
$TEXTSTYLE
  7
STANDARD1
  9
$ACADVER
  1
AC1009
  9
$DIMASZ
 40
1.931851648807023
  9
$DIMEXE
 40
2.000000000000000
  9
$DIMEXO
 40
1.000000000000000
  9
$DIMLFAC
 40
1.000000000000000
  9
$DIMSCALE
 40
1.000000000000000
  9
$DIMTAD
 70
1
  9
$DIMTFAC
 40
0.714285731315613
  9
$DIMTXT
 40
3.200000047683716
  9
$LUPREC
 70
3
  9
$TEXTSIZE
 40
2.799999952316284
  9
$REGENMODE
 70
1
  0
ENDSEC
  0
SECTION
  2
TABLES
  0
TABLE
  2
LTYPE
 70
4
  0
LTYPE
  2
CONTINUOUS
 70
64
  3
Solid line
 72
65
 73
0
 40
0.0
  0
LTYPE
  2
DASHED
 70
64
  3
-- -- -- -- -- -- -- -- -- -- -- -- -- -- --
 72
65
 73
2
 40
0.75
 49
0.5
 49
-0.25
  0
LTYPE
  2
DASHDOT
 70
64
  3
__ . __ . __ . __ . __ . __ . __ . __ . __ . __
 72
65
 73
4
 40
1.0
 49
0.5
 49
-0.25
 49
0.0
 49
-0.25
  0
LTYPE
  2
DIVIDE
 70
64
  3
__ . . __ . . __ . . __ . . __ . . __ . . __
 72
65
 73
6
 40
1.25
 49
0.5
 49
-0.25
 49
0.0
 49
-0.25
 49
0.0
 49
-0.25
  0
ENDTAB
  0
TABLE
  2
LAYER
 70
1
  0
LAYER
  2
0
 70
64
 62
2
  6
CONTINUOUS
  0
ENDTAB
  0
TABLE
  2
STYLE
 70
4
  0
STYLE
  2
STANDARD1
 70
64
 40
0.0
 41
1.0
 50
0.0
 71
0
 42
2.799999952316284
  3
MONOTXT
  4
BIGFONT
  0
STYLE
  2
STANDARD2
 70
68
 40
0.0
 41
1.0
 50
0.0
 71
0
 42
2.799999952316284
  3
MONOTXT
  4
BIGFONT
  0
STYLE
  2
STANDARD3
 70
64
 40
0.0
 41
1.0
 50
0.0
 71
0
 42
2.799999952316284
  3
MONOTXT
  4

  0
STYLE
  2
STANDARD4
 70
68
 40
0.0
 41
1.0
 50
0.0
 71
0
 42
2.799999952316284
  3
MONOTXT
  4

  0
ENDTAB
  0
TABLE
  2
VIEW
 70
0
  0
ENDTAB
  0
ENDSEC
  0
SECTION
  2
BLOCKS
  0
BLOCK
  8
0
  2
SYM1
 70
64
 10
0.000000000000000
 20
0.000000000000000
  0
POINT
  8
0
  6
CONTINUOUS
 62
3
 10
0.000000000000000
 20
0.000000000000000
  0
LINE
  8
0
  6
CONTINUOUS
 62
3
 10
0.000000000000000
 20
-6.500000000000000
 11
-0.000000000000000
 21
6.500000000000000
  0
LINE
  8
0
  6
CONTINUOUS
 62
3
 10
-7.999999046325684
 20
5.633875846862793
 11
-7.999999046325684
 21
-5.634070396423340
  0
LINE
  8
0
  6
CONTINUOUS
 62
3
 10
0.000000000000000
 20
6.500000000000000
 11
-7.499999046325684
 21
6.500000000000000
  0
LINE
  8
0
  6
CONTINUOUS
 62
3
 10
-0.000000000000000
 20
-6.500000000000000
 11
-7.499998092651367
 21
-6.500000000000000
  0
LINE
  8
0
  6
CONTINUOUS
 62
3
 10
-7.499999203818277
 20
6.499999909101064
 11
-7.999999021366804
 21
5.633876130311293
  0
LINE
  8
0
  6
CONTINUOUS
 62
3
 10
-7.499997911632022
 20
-6.499999445138201
 11
-7.999998623386432
 21
-5.634070287011241
  0
LINE
  8
0
  6
CONTINUOUS
 62
3
 10
-7.499999046325684
 20
6.500000000000000
 11
-7.499999046325684
 21
-6.500000000000000
  0
ENDBLK
  8
0
  0
BLOCK
  8
0
  2
SYM2
 70
64
 10
0.000000000000000
 20
0.000000000000000
  0
POINT
  8
0
  6
CONTINUOUS
 62
3
 10
0.000000000000000
 20
0.000000000000000
  0
LINE
  8
0
  6
CONTINUOUS
 62
3
 10
0.000000000000000
 20
-6.500000000000000
 11
-0.000000000000000
 21
6.500000000000000
  0
LINE
  8
0
  6
CONTINUOUS
 62
3
 10
-7.999999046325684
 20
5.633875846862793
 11
-7.999999046325684
 21
-5.634070396423340
  0
LINE
  8
0
  6
CONTINUOUS
 62
3
 10
0.000000000000000
 20
6.500000000000000
 11
-7.499999046325684
 21
6.500000000000000
  0
LINE
  8
0
  6
CONTINUOUS
 62
3
 10
-0.000000000000000
 20
-6.500000000000000
 11
-7.499998092651367
 21
-6.500000000000000
  0
LINE
  8
0
  6
CONTINUOUS
 62
3
 10
-7.499999203818277
 20
6.499999909101064
 11
-7.999999021366804
 21
5.633876130311293
  0
LINE
  8
0
  6
CONTINUOUS
 62
3
 10
-7.499997911632022
 20
-6.499999445138201
 11
-7.999998623386432
 21
-5.634070287011241
  0
LINE
  8
0
  6
CONTINUOUS
 62
3
 10
-7.499999046325684
 20
6.500000000000000
 11
-7.499999046325684
 21
-6.500000000000000
  0
ENDBLK
  8
0
  0
BLOCK
  8
0
  2
SYM3
 70
64
 10
0.000000000000000
 20
0.000000000000000
  0
POINT
  8
0
  6
CONTINUOUS
 62
3
 10
0.000000000000000
 20
0.000000000000000
  0
LINE
  8
0
  6
CONTINUOUS
 62
3
 10
0.000000000000000
 20
-6.500000000000000
 11
-0.000000000000000
 21
6.500000000000000
  0
LINE
  8
0
  6
CONTINUOUS
 62
3
 10
-7.999999046325684
 20
5.633875846862793
 11
-7.999999046325684
 21
-5.634070396423340
  0
LINE
  8
0
  6
CONTINUOUS
 62
3
 10
0.000000000000000
 20
6.500000000000000
 11
-7.499999046325684
 21
6.500000000000000
  0
LINE
  8
0
  6
CONTINUOUS
 62
3
 10
-0.000000000000000
 20
-6.500000000000000
 11
-7.499998092651367
 21
-6.500000000000000
  0
LINE
  8
0
  6
CONTINUOUS
 62
3
 10
-7.499999203818277
 20
6.499999909101064
 11
-7.999999021366804
 21
5.633876130311293
  0
LINE
  8
0
  6
CONTINUOUS
 62
3
 10
-7.499997911632022
 20
-6.499999445138201
 11
-7.999998623386432
 21
-5.634070287011241
  0
LINE
  8
0
  6
CONTINUOUS
 62
3
 10
-7.499999046325684
 20
6.500000000000000
 11
-7.499999046325684
 21
-6.500000000000000
  0
ENDBLK
  8
0
  0
BLOCK
  8
0
  2
SYM4
 70
64
 10
0.000000000000000
 20
0.000000000000000
  0
POINT
  8
0
  6
CONTINUOUS
 62
3
 10
0.000000000000000
 20
0.000000000000000
  0
LINE
  8
0
  6
CONTINUOUS
 62
3
 10
0.000000000000000
 20
-6.500000000000000
 11
-0.000000000000000
 21
6.500000000000000
  0
LINE
  8
0
  6
CONTINUOUS
 62
3
 10
-7.999999046325684
 20
5.633875846862793
 11
-7.999999046325684
 21
-5.634070396423340
  0
LINE
  8
0
  6
CONTINUOUS
 62
3
 10
0.000000000000000
 20
6.500000000000000
 11
-7.499999046325684
 21
6.500000000000000
  0
LINE
  8
0
  6
CONTINUOUS
 62
3
 10
-0.000000000000000
 20
-6.500000000000000
 11
-7.499998092651367
 21
-6.500000000000000
  0
LINE
  8
0
  6
CONTINUOUS
 62
3
 10
-7.499999203818277
 20
6.499999909101064
 11
-7.999999021366804
 21
5.633876130311293
  0
LINE
  8
0
  6
CONTINUOUS
 62
3
 10
-7.499997911632022
 20
-6.499999445138201
 11
-7.999998623386432
 21
-5.634070287011241
  0
LINE
  8
0
  6
CONTINUOUS
 62
3
 10
-7.499999046325684
 20
6.500000000000000
 11
-7.499999046325684
 21
-6.500000000000000
  0
ENDBLK
  8
0
  0
BLOCK
  8
0
  2
SYM5
 70
64
 10
0.000000000000000
 20
0.000000000000000
  0
POINT
  8
0
  6
CONTINUOUS
 62
3
 10
0.000000000000000
 20
0.000000000000000
  0
LINE
  8
0
  6
CONTINUOUS
 62
3
 10
0.000000000000000
 20
-6.500000000000000
 11
-0.000000000000000
 21
6.500000000000000
  0
LINE
  8
0
  6
CONTINUOUS
 62
3
 10
-7.999999046325684
 20
5.633875846862793
 11
-7.999999046325684
 21
-5.634070396423340
  0
LINE
  8
0
  6
CONTINUOUS
 62
3
 10
0.000000000000000
 20
6.500000000000000
 11
-7.499999046325684
 21
6.500000000000000
  0
LINE
  8
0
  6
CONTINUOUS
 62
3
 10
-0.000000000000000
 20
-6.500000000000000
 11
-7.499998092651367
 21
-6.500000000000000
  0
LINE
  8
0
  6
CONTINUOUS
 62
3
 10
-7.499999203818277
 20
6.499999909101064
 11
-7.999999021366804
 21
5.633876130311293
  0
LINE
  8
0
  6
CONTINUOUS
 62
3
 10
-7.499997911632022
 20
-6.499999445138201
 11
-7.999998623386432
 21
-5.634070287011241
  0
LINE
  8
0
  6
CONTINUOUS
 62
3
 10
-7.499999046325684
 20
6.500000000000000
 11
-7.499999046325684
 21
-6.500000000000000
  0
ENDBLK
  8
0
  0
BLOCK
  8
0
  2
SYM6
 70
64
 10
0.000000000000000
 20
0.000000000000000
  0
POINT
  8
0
  6
CONTINUOUS
 62
3
 10
0.000000000000000
 20
0.000000000000000
  0
LINE
  8
0
  6
CONTINUOUS
 62
3
 10
0.000000000000000
 20
-6.500000000000000
 11
-0.000000000000000
 21
6.500000000000000
  0
LINE
  8
0
  6
CONTINUOUS
 62
3
 10
-7.999999046325684
 20
5.633875846862793
 11
-7.999999046325684
 21
-5.634070396423340
  0
LINE
  8
0
  6
CONTINUOUS
 62
3
 10
0.000000000000000
 20
6.500000000000000
 11
-7.499999046325684
 21
6.500000000000000
  0
LINE
  8
0
  6
CONTINUOUS
 62
3
 10
-0.000000000000000
 20
-6.500000000000000
 11
-7.499998092651367
 21
-6.500000000000000
  0
LINE
  8
0
  6
CONTINUOUS
 62
3
 10
-7.499999203818277
 20
6.499999909101064
 11
-7.999999021366804
 21
5.633876130311293
  0
LINE
  8
0
  6
CONTINUOUS
 62
3
 10
-7.499997911632022
 20
-6.499999445138201
 11
-7.999998623386432
 21
-5.634070287011241
  0
LINE
  8
0
  6
CONTINUOUS
 62
3
 10
-7.499999046325684
 20
6.500000000000000
 11
-7.499999046325684
 21
-6.500000000000000
  0
ENDBLK
  8
0
  0
BLOCK
  8
0
  2
SYM7
 70
64
 10
0.000000000000000
 20
0.000000000000000
  0
POINT
  8
0
  6
CONTINUOUS
 62
3
 10
0.000000000000000
 20
0.000000000000000
  0
LINE
  8
0
  6
CONTINUOUS
 62
3
 10
-0.000027060931608
 20
-5.749995231614290
 11
-3.250020760774497
 21
-5.749981880178368
  0
LINE
  8
0
  6
CONTINUOUS
 62
3
 10
-3.250024308998832
 20
-5.749987011620533
 11
-4.000020133420207
 21
-4.899982163000686
  0
LINE
  8
0
  6
CONTINUOUS
 62
3
 10
-4.000014781949545
 20
-4.899978112209579
 11
-3.999973773958658
 21
4.900011588107803
  0
LINE
  8
0
  6
CONTINUOUS
 62
3
 10
-3.999972830514309
 20
4.900008662670757
 11
-3.249970339875063
 21
5.750006850331147
  0
LINE
  8
0
  6
CONTINUOUS
 62
3
 10
-3.249972343459831
 20
5.750005722029982
 11
0.000027906669402
 21
5.749993324257003
  0
LINE
  8
0
  6
CONTINUOUS
 62
3
 10
0.000023687533422
 20
5.749999046325684
 11
-0.000023687533422
 21
-5.749999046325684
  0
LINE
  8
0
  6
CONTINUOUS
 62
3
 10
-3.250009052584916
 20
-2.899986267083180
 11
-0.000013285950788
 21
-2.899999618524636
  0
LINE
  8
0
  6
CONTINUOUS
 62
3
 10
-3.249984168999890
 20
2.900012016287064
 11
0.000013133145058
 21
2.899999618522375
  0
ARC
  8
0
  6
CONTINUOUS
 62
3
 10
-2.270017623901367
 20
-4.324990272521973
 40
1.729999542236328
 50
124.499759285265280
 51
179.999745461767870
  0
ARC
  8
0
  6
CONTINUOUS
 62
3
 10
-2.269982337951660
 20
4.325008392333984
 40
1.729999542236328
 50
179.999745461767870
 51
235.499786279783790
  0
ARC
  8
0
  6
CONTINUOUS
 62
3
 10
1.981662750244141
 20
-0.000008163610801
 40
5.981661796569824
 50
150.999363302540700
 51
209.000072979481700
  0
ENDBLK
  8
0
  0
BLOCK
  8
0
  2
SYM8
 70
64
 10
0.000000000000000
 20
0.000000000000000
  0
POINT
  8
0
  6
CONTINUOUS
 62
3
 10
0.000000000000000
 20
0.000000000000000
  0
LINE
  8
0
  6
CONTINUOUS
 62
3
 10
-0.000027060931608
 20
-5.749995231614290
 11
-3.250020760774497
 21
-5.749981880178368
  0
LINE
  8
0
  6
CONTINUOUS
 62
3
 10
-3.250024308998832
 20
-5.749987011620533
 11
-4.000020133420207
 21
-4.899982163000686
  0
LINE
  8
0
  6
CONTINUOUS
 62
3
 10
-4.000014781949545
 20
-4.899978112209579
 11
-3.999973773958658
 21
4.900011588107803
  0
LINE
  8
0
  6
CONTINUOUS
 62
3
 10
-3.999972830514309
 20
4.900008662670757
 11
-3.249970339875063
 21
5.750006850331147
  0
LINE
  8
0
  6
CONTINUOUS
 62
3
 10
-3.249972343459831
 20
5.750005722029982
 11
0.000027906669402
 21
5.749993324257003
  0
LINE
  8
0
  6
CONTINUOUS
 62
3
 10
0.000023687533422
 20
5.749999046325684
 11
-0.000023687533422
 21
-5.749999046325684
  0
LINE
  8
0
  6
CONTINUOUS
 62
3
 10
-3.250009052584916
 20
-2.899986267083180
 11
-0.000013285950788
 21
-2.899999618524636
  0
LINE
  8
0
  6
CONTINUOUS
 62
3
 10
-3.249984168999890
 20
2.900012016287064
 11
0.000013133145058
 21
2.899999618522375
  0
ARC
  8
0
  6
CONTINUOUS
 62
3
 10
-2.270017623901367
 20
-4.324990272521973
 40
1.729999542236328
 50
124.499759285265280
 51
179.999745461767870
  0
ARC
  8
0
  6
CONTINUOUS
 62
3
 10
-2.269982337951660
 20
4.325008392333984
 40
1.729999542236328
 50
179.999745461767870
 51
235.499786279783790
  0
ARC
  8
0
  6
CONTINUOUS
 62
3
 10
1.981662750244141
 20
-0.000008163610801
 40
5.981661796569824
 50
150.999363302540700
 51
209.000072979481700
  0
ENDBLK
  8
0
  0
BLOCK
  8
0
  2
SYM9
 70
64
 10
0.000000000000000
 20
0.000000000000000
  0
POINT
  8
0
  6
CONTINUOUS
 62
3
 10
0.000000000000000
 20
0.000000000000000
  0
LINE
  8
0
  6
CONTINUOUS
 62
3
 10
-0.000027060931608
 20
-5.749995231614290
 11
-3.250020760774497
 21
-5.749981880178368
  0
LINE
  8
0
  6
CONTINUOUS
 62
3
 10
-3.250024308998832
 20
-5.749987011620533
 11
-4.000020133420207
 21
-4.899982163000686
  0
LINE
  8
0
  6
CONTINUOUS
 62
3
 10
-4.000014781949545
 20
-4.899978112209579
 11
-3.999973773958658
 21
4.900011588107803
  0
LINE
  8
0
  6
CONTINUOUS
 62
3
 10
-3.999972830514309
 20
4.900008662670757
 11
-3.249970339875063
 21
5.750006850331147
  0
LINE
  8
0
  6
CONTINUOUS
 62
3
 10
-3.249972343459831
 20
5.750005722029982
 11
0.000027906669402
 21
5.749993324257003
  0
LINE
  8
0
  6
CONTINUOUS
 62
3
 10
0.000023687533422
 20
5.749999046325684
 11
-0.000023687533422
 21
-5.749999046325684
  0
LINE
  8
0
  6
CONTINUOUS
 62
3
 10
-3.250009052584916
 20
-2.899986267083180
 11
-0.000013285950788
 21
-2.899999618524636
  0
LINE
  8
0
  6
CONTINUOUS
 62
3
 10
-3.249984168999890
 20
2.900012016287064
 11
0.000013133145058
 21
2.899999618522375
  0
ARC
  8
0
  6
CONTINUOUS
 62
3
 10
-2.270017623901367
 20
-4.324990272521973
 40
1.729999542236328
 50
124.499759285265280
 51
179.999745461767870
  0
ARC
  8
0
  6
CONTINUOUS
 62
3
 10
-2.269982337951660
 20
4.325008392333984
 40
1.729999542236328
 50
179.999745461767870
 51
235.499786279783790
  0
ARC
  8
0
  6
CONTINUOUS
 62
3
 10
1.981662750244141
 20
-0.000008163610801
 40
5.981661796569824
 50
150.999363302540700
 51
209.000072979481700
  0
ENDBLK
  8
0
  0
BLOCK
  8
0
  2
SYM10
 70
64
 10
0.000000000000000
 20
0.000000000000000
  0
LINE
  8
0
  6
CONTINUOUS
 62
3
 10
-7.499999046325684
 20
6.500000000000000
 11
-7.499999046325684
 21
-6.500000000000000
  0
LINE
  8
0
  6
CONTINUOUS
 62
3
 10
-7.499997911632022
 20
-6.499999445138201
 11
-7.999998623386432
 21
-5.634070287011241
  0
LINE
  8
0
  6
CONTINUOUS
 62
3
 10
-7.499999203818277
 20
6.499999909101064
 11
-7.999999021366804
 21
5.633876130311293
  0
LINE
  8
0
  6
CONTINUOUS
 62
3
 10
0.000000000000000
 20
6.500000000000000
 11
-7.499999046325684
 21
6.500000000000000
  0
LINE
  8
0
  6
CONTINUOUS
 62
3
 10
-7.999999046325684
 20
5.633875846862793
 11
-7.999999046325684
 21
-5.634070396423340
  0
LINE
  8
0
  6
CONTINUOUS
 62
3
 10
0.000000000000000
 20
-6.500000000000000
 11
-0.000000000000000
 21
6.500000000000000
  0
POINT
  8
0
  6
CONTINUOUS
 62
3
 10
0.000000000000000
 20
0.000000000000000
  0
ENDBLK
  8
0
  0
BLOCK
  8
0
  2
SYM11
 70
64
 10
0.000000000000000
 20
0.000000000000000
  0
POINT
  8
0
  6
CONTINUOUS
 62
3
 10
0.000000000000000
 20
0.000000000000000
  0
LINE
  8
0
  6
CONTINUOUS
 62
3
 10
-0.000027060931608
 20
-5.749995231614290
 11
-3.250020760774497
 21
-5.749981880178368
  0
LINE
  8
0
  6
CONTINUOUS
 62
3
 10
-3.250024308998832
 20
-5.749987011620533
 11
-4.000020133420207
 21
-4.899982163000686
  0
LINE
  8
0
  6
CONTINUOUS
 62
3
 10
-4.000014781949545
 20
-4.899978112209579
 11
-3.999973773958658
 21
4.900011588107803
  0
LINE
  8
0
  6
CONTINUOUS
 62
3
 10
-3.999972830514309
 20
4.900008662670757
 11
-3.249970339875063
 21
5.750006850331147
  0
LINE
  8
0
  6
CONTINUOUS
 62
3
 10
-3.249972343459831
 20
5.750005722029982
 11
0.000027906669402
 21
5.749993324257003
  0
LINE
  8
0
  6
CONTINUOUS
 62
3
 10
0.000023687533422
 20
5.749999046325684
 11
-0.000023687533422
 21
-5.749999046325684
  0
LINE
  8
0
  6
CONTINUOUS
 62
3
 10
-3.250009052584916
 20
-2.899986267083180
 11
-0.000013285950788
 21
-2.899999618524636
  0
LINE
  8
0
  6
CONTINUOUS
 62
3
 10
-3.249984168999890
 20
2.900012016287064
 11
0.000013133145058
 21
2.899999618522375
  0
ARC
  8
0
  6
CONTINUOUS
 62
3
 10
-2.270017623901367
 20
-4.324990272521973
 40
1.729999542236328
 50
124.499759285265280
 51
179.999745461767870
  0
ARC
  8
0
  6
CONTINUOUS
 62
3
 10
-2.269982337951660
 20
4.325008392333984
 40
1.729999542236328
 50
179.999745461767870
 51
235.499786279783790
  0
ARC
  8
0
  6
CONTINUOUS
 62
3
 10
1.981662750244141
 20
-0.000008163610801
 40
5.981661796569824
 50
150.999363302540700
 51
209.000072979481700
  0
ENDBLK
  8
0
  0
BLOCK
  8
0
  2
SYM12
 70
64
 10
0.000000000000000
 20
0.000000000000000
  0
LINE
  8
0
  6
CONTINUOUS
 62
3
 10
-7.499999046325684
 20
6.500000000000000
 11
-7.499999046325684
 21
-6.500000000000000
  0
LINE
  8
0
  6
CONTINUOUS
 62
3
 10
-7.499997911632022
 20
-6.499999445138201
 11
-7.999998623386432
 21
-5.634070287011241
  0
LINE
  8
0
  6
CONTINUOUS
 62
3
 10
-7.499999203818277
 20
6.499999909101064
 11
-7.999999021366804
 21
5.633876130311293
  0
LINE
  8
0
  6
CONTINUOUS
 62
3
 10
-0.000000000000000
 20
-6.500000000000000
 11
-7.499998092651367
 21
-6.500000000000000
  0
LINE
  8
0
  6
CONTINUOUS
 62
3
 10
0.000000000000000
 20
6.500000000000000
 11
-7.499999046325684
 21
6.500000000000000
  0
LINE
  8
0
  6
CONTINUOUS
 62
3
 10
-7.999999046325684
 20
5.633875846862793
 11
-7.999999046325684
 21
-5.634070396423340
  0
LINE
  8
0
  6
CONTINUOUS
 62
3
 10
0.000000000000000
 20
-6.500000000000000
 11
-0.000000000000000
 21
6.500000000000000
  0
POINT
  8
0
  6
CONTINUOUS
 62
3
 10
0.000000000000000
 20
0.000000000000000
  0
ENDBLK
  8
0
  0
BLOCK
  8
0
  2
SYM13
 70
64
 10
0.000000000000000
 20
0.000000000000000
  0
LINE
  8
0
  6
CONTINUOUS
 62
3
 10
-7.499999046325684
 20
6.500000000000000
 11
-7.499999046325684
 21
-6.500000000000000
  0
LINE
  8
0
  6
CONTINUOUS
 62
3
 10
-7.499997911632022
 20
-6.499999445138201
 11
-7.999998623386432
 21
-5.634070287011241
  0
LINE
  8
0
  6
CONTINUOUS
 62
3
 10
-7.499999203818277
 20
6.499999909101064
 11
-7.999999021366804
 21
5.633876130311293
  0
LINE
  8
0
  6
CONTINUOUS
 62
3
 10
-0.000000000000000
 20
-6.500000000000000
 11
-7.499998092651367
 21
-6.500000000000000
  0
LINE
  8
0
  6
CONTINUOUS
 62
3
 10
0.000000000000000
 20
6.500000000000000
 11
-7.499999046325684
 21
6.500000000000000
  0
LINE
  8
0
  6
CONTINUOUS
 62
3
 10
-7.999999046325684
 20
5.633875846862793
 11
-7.999999046325684
 21
-5.634070396423340
  0
LINE
  8
0
  6
CONTINUOUS
 62
3
 10
0.000000000000000
 20
-6.500000000000000
 11
-0.000000000000000
 21
6.500000000000000
  0
POINT
  8
0
  6
CONTINUOUS
 62
3
 10
0.000000000000000
 20
0.000000000000000
  0
ENDBLK
  8
0
  0
BLOCK
  8
0
  2
SYM14
 70
64
 10
0.000000000000000
 20
0.000000000000000
  0
LINE
  8
0
  6
CONTINUOUS
 62
3
 10
-7.499999046325684
 20
6.500000000000000
 11
-7.499999046325684
 21
-6.500000000000000
  0
LINE
  8
0
  6
CONTINUOUS
 62
3
 10
-7.499997911632022
 20
-6.499999445138201
 11
-7.999998623386432
 21
-5.634070287011241
  0
LINE
  8
0
  6
CONTINUOUS
 62
3
 10
-7.499999203818277
 20
6.499999909101064
 11
-7.999999021366804
 21
5.633876130311293
  0
LINE
  8
0
  6
CONTINUOUS
 62
3
 10
-0.000000000000000
 20
-6.500000000000000
 11
-7.499998092651367
 21
-6.500000000000000
  0
LINE
  8
0
  6
CONTINUOUS
 62
3
 10
0.000000000000000
 20
6.500000000000000
 11
-7.499999046325684
 21
6.500000000000000
  0
LINE
  8
0
  6
CONTINUOUS
 62
3
 10
-7.999999046325684
 20
5.633875846862793
 11
-7.999999046325684
 21
-5.634070396423340
  0
LINE
  8
0
  6
CONTINUOUS
 62
3
 10
0.000000000000000
 20
-6.500000000000000
 11
-0.000000000000000
 21
6.500000000000000
  0
POINT
  8
0
  6
CONTINUOUS
 62
3
 10
0.000000000000000
 20
0.000000000000000
  0
ENDBLK
  8
0
  0
BLOCK
  8
0
  2
SYM15
 70
64
 10
0.000000000000000
 20
0.000000000000000
  0
ARC
  8
0
  6
CONTINUOUS
 62
3
 10
6.399999618530273
 20
0.000000000000000
 40
9.000000000000000
 50
163.398451589674950
 51
196.601531107481040
  0
POINT
  8
0
  6
CONTINUOUS
 62
3
 10
0.000000000000000
 20
0.000000000000000
  0
LINE
  8
0
  6
CONTINUOUS
 62
3
 10
0.000000000000000
 20
-3.500000000000000
 11
-0.000000000000000
 21
3.500000000000000
  0
LINE
  8
0
  6
CONTINUOUS
 62
3
 10
0.000000000000000
 20
-3.500000000000000
 11
-0.000000000000000
 21
3.500000000000000
  0
LINE
  8
0
  6
CONTINUOUS
 62
3
 10
0.000000000000000
 20
3.500000000000000
 11
-0.979025304317474
 21
3.500000000000000
  0
LINE
  8
0
  6
CONTINUOUS
 62
3
 10
-0.000000000000000
 20
-3.500000000000000
 11
-0.979025304317474
 21
-3.500000000000000
  0
ARC
  8
0
  6
CONTINUOUS
 62
3
 10
-0.979025304317474
 20
2.200000762939453
 40
1.299999237060547
 50
90.000000000000000
 51
163.398451589674950
  0
ARC
  8
0
  6
CONTINUOUS
 62
3
 10
-0.979025304317474
 20
-2.200000762939453
 40
1.299999237060547
 50
196.601531107481040
 51
270.000000000000000
  0
ENDBLK
  8
0
  0
BLOCK
  8
0
  2
SYM16
 70
64
 10
0.000000000000000
 20
0.000000000000000
  0
CIRCLE
  8
0
  6
CONTINUOUS
 62
3
 10
0.000000000000000
 20
0.000000000000000
 40
5.000000000000000
  0
LINE
  8
0
  6
CONTINUOUS
 62
3
 10
4.989816965891634
 20
-2.892629271321994
 11
0.010171343047148
 21
-5.767622431692701
  0
LINE
  8
0
  6
CONTINUOUS
 62
3
 10
4.979648434603448
 20
2.874994693650046
 11
4.989821279270270
 21
-2.892629961559101
  0
LINE
  8
0
  6
CONTINUOUS
 62
3
 10
-0.010171198458579
 20
5.767622839547471
 11
4.979645433681753
 21
2.874994469174567
  0
LINE
  8
0
  6
CONTINUOUS
 62
3
 10
-4.989816965891634
 20
2.892629271321994
 11
-0.010171343047148
 21
5.767622431692701
  0
LINE
  8
0
  6
CONTINUOUS
 62
3
 10
-4.979648434603448
 20
-2.874994693650046
 11
-4.989821279270270
 21
2.892629961559101
  0
LINE
  8
0
  6
CONTINUOUS
 62
3
 10
0.010171198458579
 20
-5.767622839547471
 11
-4.979645433681753
 21
-2.874994469174567
  0
POINT
  8
0
  6
CONTINUOUS
 62
3
 10
0.000000000000000
 20
0.000000000000000
  0
ENDBLK
  8
0
  0
BLOCK
  8
0
  2
SYM17
 70
64
 10
0.000000000000000
 20
0.000000000000000
  0
CIRCLE
  8
0
  6
CONTINUOUS
 62
3
 10
0.000000000000000
 20
0.000000000000000
 40
5.000000000000000
  0
LINE
  8
0
  6
CONTINUOUS
 62
3
 10
4.989816965891634
 20
-2.892629271321994
 11
0.010171343047148
 21
-5.767622431692701
  0
LINE
  8
0
  6
CONTINUOUS
 62
3
 10
4.979648434603448
 20
2.874994693650046
 11
4.989821279270270
 21
-2.892629961559101
  0
LINE
  8
0
  6
CONTINUOUS
 62
3
 10
-0.010171198458579
 20
5.767622839547471
 11
4.979645433681753
 21
2.874994469174567
  0
LINE
  8
0
  6
CONTINUOUS
 62
3
 10
-4.989816965891634
 20
2.892629271321994
 11
-0.010171343047148
 21
5.767622431692701
  0
LINE
  8
0
  6
CONTINUOUS
 62
3
 10
-4.979648434603448
 20
-2.874994693650046
 11
-4.989821279270270
 21
2.892629961559101
  0
LINE
  8
0
  6
CONTINUOUS
 62
3
 10
0.010171198458579
 20
-5.767622839547471
 11
-4.979645433681753
 21
-2.874994469174567
  0
POINT
  8
0
  6
CONTINUOUS
 62
3
 10
0.000000000000000
 20
0.000000000000000
  0
ENDBLK
  8
0
  0
BLOCK
  8
0
  2
SYM18
 70
64
 10
0.000000000000000
 20
0.000000000000000
  0
CIRCLE
  8
0
  6
CONTINUOUS
 62
3
 10
0.000000000000000
 20
0.000000000000000
 40
5.633955001831055
  0
CIRCLE
  8
0
  6
CONTINUOUS
 62
3
 10
0.000000000000000
 20
0.000000000000000
 40
6.500000000000000
  0
POINT
  8
0
  6
CONTINUOUS
 62
3
 10
0.000000000000000
 20
0.000000000000000
  0
LINE
  8
0
  6
CONTINUOUS
 62
3
 10
-2.999996662140960
 20
-1.732045999551255
 11
-2.999997615815242
 21
1.732051977133316
  0
LINE
  8
0
  6
CONTINUOUS
 62
3
 10
2.999996662140697
 20
1.732046953225571
 11
2.999997615814979
 21
-1.732051023458999
  0
LINE
  8
0
  6
CONTINUOUS
 62
3
 10
0.000006701720849
 20
3.464096999935236
 11
-2.999997939551520
 21
1.732051821705568
  0
LINE
  8
0
  6
CONTINUOUS
 62
3
 10
2.999998112093635
 20
-1.732051392778772
 11
-0.000004464412200
 21
-3.464098365415111
  0
LINE
  8
0
  6
CONTINUOUS
 62
3
 10
0.000006618601731
 20
3.464096896385627
 11
2.999997425948948
 21
1.732046782136365
  0
LINE
  8
0
  6
CONTINUOUS
 62
3
 10
-0.000004704988612
 20
-3.464098175748802
 11
-2.999997577100373
 21
-1.732046218032735
  0
POINT
  8
0
  6
CONTINUOUS
 62
3
 10
0.500000119209290
 20
6.500000000000000
  0
POINT
  8
0
  6
CONTINUOUS
 62
3
 10
0.000000000000000
 20
5.633955001831055
  0
ENDBLK
  8
0
  0
BLOCK
  8
0
  2
SYM19
 70
64
 10
0.000000000000000
 20
0.000000000000000
  0
CIRCLE
  8
0
  6
CONTINUOUS
 62
3
 10
0.000000000000000
 20
0.000000000000000
 40
5.633955001831055
  0
CIRCLE
  8
0
  6
CONTINUOUS
 62
3
 10
0.000000000000000
 20
0.000000000000000
 40
6.500000000000000
  0
POINT
  8
0
  6
CONTINUOUS
 62
3
 10
0.000000000000000
 20
0.000000000000000
  0
LINE
  8
0
  6
CONTINUOUS
 62
3
 10
-2.999996662140960
 20
-1.732045999551255
 11
-2.999997615815242
 21
1.732051977133316
  0
LINE
  8
0
  6
CONTINUOUS
 62
3
 10
2.999996662140697
 20
1.732046953225571
 11
2.999997615814979
 21
-1.732051023458999
  0
LINE
  8
0
  6
CONTINUOUS
 62
3
 10
0.000006701720849
 20
3.464096999935236
 11
-2.999997939551520
 21
1.732051821705568
  0
LINE
  8
0
  6
CONTINUOUS
 62
3
 10
2.999998112093635
 20
-1.732051392778772
 11
-0.000004464412200
 21
-3.464098365415111
  0
LINE
  8
0
  6
CONTINUOUS
 62
3
 10
0.000006618601731
 20
3.464096896385627
 11
2.999997425948948
 21
1.732046782136365
  0
LINE
  8
0
  6
CONTINUOUS
 62
3
 10
-0.000004704988612
 20
-3.464098175748802
 11
-2.999997577100373
 21
-1.732046218032735
  0
POINT
  8
0
  6
CONTINUOUS
 62
3
 10
0.500000119209290
 20
6.500000000000000
  0
POINT
  8
0
  6
CONTINUOUS
 62
3
 10
0.000000000000000
 20
5.633955001831055
  0
ENDBLK
  8
0
  0
BLOCK
  8
0
  2
SYM20
 70
64
 10
0.000000000000000
 20
0.000000000000000
  0
CIRCLE
  8
0
  6
CONTINUOUS
 62
3
 10
0.000000000000000
 20
0.000000000000000
 40
5.633955001831055
  0
CIRCLE
  8
0
  6
CONTINUOUS
 62
3
 10
0.000000000000000
 20
0.000000000000000
 40
6.500000000000000
  0
POINT
  8
0
  6
CONTINUOUS
 62
3
 10
0.000000000000000
 20
0.000000000000000
  0
LINE
  8
0
  6
CONTINUOUS
 62
3
 10
-2.999996662140960
 20
-1.732045999551255
 11
-2.999997615815242
 21
1.732051977133316
  0
LINE
  8
0
  6
CONTINUOUS
 62
3
 10
2.999996662140697
 20
1.732046953225571
 11
2.999997615814979
 21
-1.732051023458999
  0
LINE
  8
0
  6
CONTINUOUS
 62
3
 10
0.000006701720849
 20
3.464096999935236
 11
-2.999997939551520
 21
1.732051821705568
  0
LINE
  8
0
  6
CONTINUOUS
 62
3
 10
2.999998112093635
 20
-1.732051392778772
 11
-0.000004464412200
 21
-3.464098365415111
  0
LINE
  8
0
  6
CONTINUOUS
 62
3
 10
0.000006618601731
 20
3.464096896385627
 11
2.999997425948948
 21
1.732046782136365
  0
LINE
  8
0
  6
CONTINUOUS
 62
3
 10
-0.000004704988612
 20
-3.464098175748802
 11
-2.999997577100373
 21
-1.732046218032735
  0
POINT
  8
0
  6
CONTINUOUS
 62
3
 10
0.500000119209290
 20
6.500000000000000
  0
POINT
  8
0
  6
CONTINUOUS
 62
3
 10
0.000000000000000
 20
5.633955001831055
  0
ENDBLK
  8
0
  0
BLOCK
  8
0
  2
SYM21
 70
64
 10
0.000000000000000
 20
0.000000000000000
  0
CIRCLE
  8
0
  6
CONTINUOUS
 62
3
 10
0.000000000000000
 20
0.000000000000000
 40
5.633955001831055
  0
CIRCLE
  8
0
  6
CONTINUOUS
 62
3
 10
0.000000000000000
 20
0.000000000000000
 40
6.500000000000000
  0
POINT
  8
0
  6
CONTINUOUS
 62
3
 10
0.000000000000000
 20
0.000000000000000
  0
LINE
  8
0
  6
CONTINUOUS
 62
3
 10
-2.999996662140960
 20
-1.732045999551255
 11
-2.999997615815242
 21
1.732051977133316
  0
LINE
  8
0
  6
CONTINUOUS
 62
3
 10
2.999996662140697
 20
1.732046953225571
 11
2.999997615814979
 21
-1.732051023458999
  0
LINE
  8
0
  6
CONTINUOUS
 62
3
 10
0.000006701720849
 20
3.464096999935236
 11
-2.999997939551520
 21
1.732051821705568
  0
LINE
  8
0
  6
CONTINUOUS
 62
3
 10
2.999998112093635
 20
-1.732051392778772
 11
-0.000004464412200
 21
-3.464098365415111
  0
LINE
  8
0
  6
CONTINUOUS
 62
3
 10
0.000006618601731
 20
3.464096896385627
 11
2.999997425948948
 21
1.732046782136365
  0
LINE
  8
0
  6
CONTINUOUS
 62
3
 10
-0.000004704988612
 20
-3.464098175748802
 11
-2.999997577100373
 21
-1.732046218032735
  0
POINT
  8
0
  6
CONTINUOUS
 62
3
 10
0.500000119209290
 20
6.500000000000000
  0
POINT
  8
0
  6
CONTINUOUS
 62
3
 10
0.000000000000000
 20
5.633955001831055
  0
ENDBLK
  8
0
  0
BLOCK
  8
0
  2
SYM22
 70
64
 10
0.000000000000000
 20
0.000000000000000
  0
CIRCLE
  8
0
  6
CONTINUOUS
 62
3
 10
0.000000000000000
 20
0.000000000000000
 40
5.633955001831055
  0
CIRCLE
  8
0
  6
CONTINUOUS
 62
3
 10
0.000000000000000
 20
0.000000000000000
 40
6.500000000000000
  0
POINT
  8
0
  6
CONTINUOUS
 62
3
 10
0.000000000000000
 20
0.000000000000000
  0
LINE
  8
0
  6
CONTINUOUS
 62
3
 10
-2.999996662140960
 20
-1.732045999551255
 11
-2.999997615815242
 21
1.732051977133316
  0
LINE
  8
0
  6
CONTINUOUS
 62
3
 10
2.999996662140697
 20
1.732046953225571
 11
2.999997615814979
 21
-1.732051023458999
  0
LINE
  8
0
  6
CONTINUOUS
 62
3
 10
0.000006701720849
 20
3.464096999935236
 11
-2.999997939551520
 21
1.732051821705568
  0
LINE
  8
0
  6
CONTINUOUS
 62
3
 10
2.999998112093635
 20
-1.732051392778772
 11
-0.000004464412200
 21
-3.464098365415111
  0
LINE
  8
0
  6
CONTINUOUS
 62
3
 10
0.000006618601731
 20
3.464096896385627
 11
2.999997425948948
 21
1.732046782136365
  0
LINE
  8
0
  6
CONTINUOUS
 62
3
 10
-0.000004704988612
 20
-3.464098175748802
 11
-2.999997577100373
 21
-1.732046218032735
  0
POINT
  8
0
  6
CONTINUOUS
 62
3
 10
0.500000119209290
 20
6.500000000000000
  0
POINT
  8
0
  6
CONTINUOUS
 62
3
 10
0.000000000000000
 20
5.633955001831055
  0
ENDBLK
  8
0
  0
BLOCK
  8
0
  2
SYM23
 70
64
 10
0.000000000000000
 20
0.000000000000000
  0
CIRCLE
  8
0
  6
CONTINUOUS
 62
3
 10
0.000000000000000
 20
0.000000000000000
 40
5.633955001831055
  0
CIRCLE
  8
0
  6
CONTINUOUS
 62
3
 10
0.000000000000000
 20
0.000000000000000
 40
6.500000000000000
  0
POINT
  8
0
  6
CONTINUOUS
 62
3
 10
0.000000000000000
 20
0.000000000000000
  0
LINE
  8
0
  6
CONTINUOUS
 62
3
 10
-2.999996662140960
 20
-1.732045999551255
 11
-2.999997615815242
 21
1.732051977133316
  0
LINE
  8
0
  6
CONTINUOUS
 62
3
 10
2.999996662140697
 20
1.732046953225571
 11
2.999997615814979
 21
-1.732051023458999
  0
LINE
  8
0
  6
CONTINUOUS
 62
3
 10
0.000006701720849
 20
3.464096999935236
 11
-2.999997939551520
 21
1.732051821705568
  0
LINE
  8
0
  6
CONTINUOUS
 62
3
 10
2.999998112093635
 20
-1.732051392778772
 11
-0.000004464412200
 21
-3.464098365415111
  0
LINE
  8
0
  6
CONTINUOUS
 62
3
 10
0.000006618601731
 20
3.464096896385627
 11
2.999997425948948
 21
1.732046782136365
  0
LINE
  8
0
  6
CONTINUOUS
 62
3
 10
-0.000004704988612
 20
-3.464098175748802
 11
-2.999997577100373
 21
-1.732046218032735
  0
POINT
  8
0
  6
CONTINUOUS
 62
3
 10
0.500000119209290
 20
6.500000000000000
  0
POINT
  8
0
  6
CONTINUOUS
 62
3
 10
0.000000000000000
 20
5.633955001831055
  0
ENDBLK
  8
0
  0
BLOCK
  8
0
  2
SYM24
 70
64
 10
0.000000000000000
 20
0.000000000000000
  0
CIRCLE
  8
0
  6
CONTINUOUS
 62
3
 10
0.000000000000000
 20
0.000000000000000
 40
5.633955001831055
  0
CIRCLE
  8
0
  6
CONTINUOUS
 62
3
 10
0.000000000000000
 20
0.000000000000000
 40
6.500000000000000
  0
POINT
  8
0
  6
CONTINUOUS
 62
3
 10
0.000000000000000
 20
0.000000000000000
  0
LINE
  8
0
  6
CONTINUOUS
 62
3
 10
-2.999996662140960
 20
-1.732045999551255
 11
-2.999997615815242
 21
1.732051977133316
  0
LINE
  8
0
  6
CONTINUOUS
 62
3
 10
2.999996662140697
 20
1.732046953225571
 11
2.999997615814979
 21
-1.732051023458999
  0
LINE
  8
0
  6
CONTINUOUS
 62
3
 10
0.000006701720849
 20
3.464096999935236
 11
-2.999997939551520
 21
1.732051821705568
  0
LINE
  8
0
  6
CONTINUOUS
 62
3
 10
2.999998112093635
 20
-1.732051392778772
 11
-0.000004464412200
 21
-3.464098365415111
  0
LINE
  8
0
  6
CONTINUOUS
 62
3
 10
0.000006618601731
 20
3.464096896385627
 11
2.999997425948948
 21
1.732046782136365
  0
LINE
  8
0
  6
CONTINUOUS
 62
3
 10
-0.000004704988612
 20
-3.464098175748802
 11
-2.999997577100373
 21
-1.732046218032735
  0
POINT
  8
0
  6
CONTINUOUS
 62
3
 10
0.500000119209290
 20
6.500000000000000
  0
POINT
  8
0
  6
CONTINUOUS
 62
3
 10
0.000000000000000
 20
5.633955001831055
  0
ENDBLK
  8
0
  0
BLOCK
  8
0
  2
SYM25
 70
64
 10
0.000000000000000
 20
0.000000000000000
  0
CIRCLE
  8
0
  6
CONTINUOUS
 62
3
 10
0.000000000000000
 20
0.000000000000000
 40
5.633955001831055
  0
CIRCLE
  8
0
  6
CONTINUOUS
 62
3
 10
0.000000000000000
 20
0.000000000000000
 40
6.500000000000000
  0
POINT
  8
0
  6
CONTINUOUS
 62
3
 10
0.000000000000000
 20
0.000000000000000
  0
LINE
  8
0
  6
CONTINUOUS
 62
3
 10
-2.999996662140960
 20
-1.732045999551255
 11
-2.999997615815242
 21
1.732051977133316
  0
LINE
  8
0
  6
CONTINUOUS
 62
3
 10
2.999996662140697
 20
1.732046953225571
 11
2.999997615814979
 21
-1.732051023458999
  0
LINE
  8
0
  6
CONTINUOUS
 62
3
 10
0.000006701720849
 20
3.464096999935236
 11
-2.999997939551520
 21
1.732051821705568
  0
LINE
  8
0
  6
CONTINUOUS
 62
3
 10
2.999998112093635
 20
-1.732051392778772
 11
-0.000004464412200
 21
-3.464098365415111
  0
LINE
  8
0
  6
CONTINUOUS
 62
3
 10
0.000006618601731
 20
3.464096896385627
 11
2.999997425948948
 21
1.732046782136365
  0
LINE
  8
0
  6
CONTINUOUS
 62
3
 10
-0.000004704988612
 20
-3.464098175748802
 11
-2.999997577100373
 21
-1.732046218032735
  0
POINT
  8
0
  6
CONTINUOUS
 62
3
 10
0.500000119209290
 20
6.500000000000000
  0
POINT
  8
0
  6
CONTINUOUS
 62
3
 10
0.000000000000000
 20
5.633955001831055
  0
ENDBLK
  8
0
  0
BLOCK
  8
0
  2
SYM26
 70
64
 10
0.000000000000000
 20
0.000000000000000
  0
CIRCLE
  8
0
  6
CONTINUOUS
 62
3
 10
0.000000000000000
 20
0.000000000000000
 40
5.633955001831055
  0
CIRCLE
  8
0
  6
CONTINUOUS
 62
3
 10
0.000000000000000
 20
0.000000000000000
 40
6.500000000000000
  0
POINT
  8
0
  6
CONTINUOUS
 62
3
 10
0.000000000000000
 20
0.000000000000000
  0
LINE
  8
0
  6
CONTINUOUS
 62
3
 10
-2.999996662140960
 20
-1.732045999551255
 11
-2.999997615815242
 21
1.732051977133316
  0
LINE
  8
0
  6
CONTINUOUS
 62
3
 10
2.999996662140697
 20
1.732046953225571
 11
2.999997615814979
 21
-1.732051023458999
  0
LINE
  8
0
  6
CONTINUOUS
 62
3
 10
0.000006701720849
 20
3.464096999935236
 11
-2.999997939551520
 21
1.732051821705568
  0
LINE
  8
0
  6
CONTINUOUS
 62
3
 10
2.999998112093635
 20
-1.732051392778772
 11
-0.000004464412200
 21
-3.464098365415111
  0
LINE
  8
0
  6
CONTINUOUS
 62
3
 10
0.000006618601731
 20
3.464096896385627
 11
2.999997425948948
 21
1.732046782136365
  0
LINE
  8
0
  6
CONTINUOUS
 62
3
 10
-0.000004704988612
 20
-3.464098175748802
 11
-2.999997577100373
 21
-1.732046218032735
  0
POINT
  8
0
  6
CONTINUOUS
 62
3
 10
0.500000119209290
 20
6.500000000000000
  0
POINT
  8
0
  6
CONTINUOUS
 62
3
 10
0.000000000000000
 20
5.633955001831055
  0
ENDBLK
  8
0
  0
BLOCK
  8
0
  2
SYM27
 70
64
 10
0.000000000000000
 20
0.000000000000000
  0
CIRCLE
  8
0
  6
CONTINUOUS
 62
3
 10
0.000000000000000
 20
0.000000000000000
 40
5.633955001831055
  0
CIRCLE
  8
0
  6
CONTINUOUS
 62
3
 10
0.000000000000000
 20
0.000000000000000
 40
6.500000000000000
  0
POINT
  8
0
  6
CONTINUOUS
 62
3
 10
0.000000000000000
 20
0.000000000000000
  0
LINE
  8
0
  6
CONTINUOUS
 62
3
 10
-2.999996662140960
 20
-1.732045999551255
 11
-2.999997615815242
 21
1.732051977133316
  0
LINE
  8
0
  6
CONTINUOUS
 62
3
 10
2.999996662140697
 20
1.732046953225571
 11
2.999997615814979
 21
-1.732051023458999
  0
LINE
  8
0
  6
CONTINUOUS
 62
3
 10
0.000006701720849
 20
3.464096999935236
 11
-2.999997939551520
 21
1.732051821705568
  0
LINE
  8
0
  6
CONTINUOUS
 62
3
 10
2.999998112093635
 20
-1.732051392778772
 11
-0.000004464412200
 21
-3.464098365415111
  0
LINE
  8
0
  6
CONTINUOUS
 62
3
 10
0.000006618601731
 20
3.464096896385627
 11
2.999997425948948
 21
1.732046782136365
  0
LINE
  8
0
  6
CONTINUOUS
 62
3
 10
-0.000004704988612
 20
-3.464098175748802
 11
-2.999997577100373
 21
-1.732046218032735
  0
POINT
  8
0
  6
CONTINUOUS
 62
3
 10
0.500000119209290
 20
6.500000000000000
  0
POINT
  8
0
  6
CONTINUOUS
 62
3
 10
0.000000000000000
 20
5.633955001831055
  0
ENDBLK
  8
0
  0
BLOCK
  8
0
  2
SYM28
 70
64
 10
0.000000000000000
 20
0.000000000000000
  0
CIRCLE
  8
0
  6
CONTINUOUS
 62
3
 10
0.000000000000000
 20
0.000000000000000
 40
5.633955001831055
  0
CIRCLE
  8
0
  6
CONTINUOUS
 62
3
 10
0.000000000000000
 20
0.000000000000000
 40
6.500000000000000
  0
POINT
  8
0
  6
CONTINUOUS
 62
3
 10
0.000000000000000
 20
0.000000000000000
  0
LINE
  8
0
  6
CONTINUOUS
 62
3
 10
-2.999996662140960
 20
-1.732045999551255
 11
-2.999997615815242
 21
1.732051977133316
  0
LINE
  8
0
  6
CONTINUOUS
 62
3
 10
2.999996662140697
 20
1.732046953225571
 11
2.999997615814979
 21
-1.732051023458999
  0
LINE
  8
0
  6
CONTINUOUS
 62
3
 10
0.000006701720849
 20
3.464096999935236
 11
-2.999997939551520
 21
1.732051821705568
  0
LINE
  8
0
  6
CONTINUOUS
 62
3
 10
2.999998112093635
 20
-1.732051392778772
 11
-0.000004464412200
 21
-3.464098365415111
  0
LINE
  8
0
  6
CONTINUOUS
 62
3
 10
0.000006618601731
 20
3.464096896385627
 11
2.999997425948948
 21
1.732046782136365
  0
LINE
  8
0
  6
CONTINUOUS
 62
3
 10
-0.000004704988612
 20
-3.464098175748802
 11
-2.999997577100373
 21
-1.732046218032735
  0
POINT
  8
0
  6
CONTINUOUS
 62
3
 10
0.500000119209290
 20
6.500000000000000
  0
POINT
  8
0
  6
CONTINUOUS
 62
3
 10
0.000000000000000
 20
5.633955001831055
  0
ENDBLK
  8
0
  0
BLOCK
  8
0
  2
SYM29
 70
64
 10
0.000000000000000
 20
0.000000000000000
  0
ARC
  8
0
  6
CONTINUOUS
 62
3
 10
6.399999618530273
 20
0.000000000000000
 40
9.000000000000000
 50
163.398451589674950
 51
196.601531107481040
  0
POINT
  8
0
  6
CONTINUOUS
 62
3
 10
0.000000000000000
 20
0.000000000000000
  0
LINE
  8
0
  6
CONTINUOUS
 62
3
 10
0.000000000000000
 20
-3.500000000000000
 11
-0.000000000000000
 21
3.500000000000000
  0
LINE
  8
0
  6
CONTINUOUS
 62
3
 10
0.000000000000000
 20
-3.500000000000000
 11
-0.000000000000000
 21
3.500000000000000
  0
LINE
  8
0
  6
CONTINUOUS
 62
3
 10
0.000000000000000
 20
3.500000000000000
 11
-0.979025304317474
 21
3.500000000000000
  0
LINE
  8
0
  6
CONTINUOUS
 62
3
 10
-0.000000000000000
 20
-3.500000000000000
 11
-0.979025304317474
 21
-3.500000000000000
  0
ARC
  8
0
  6
CONTINUOUS
 62
3
 10
-0.979025304317474
 20
2.200000762939453
 40
1.299999237060547
 50
90.000000000000000
 51
163.398451589674950
  0
ARC
  8
0
  6
CONTINUOUS
 62
3
 10
-0.979025304317474
 20
-2.200000762939453
 40
1.299999237060547
 50
196.601531107481040
 51
270.000000000000000
  0
ENDBLK
  8
0
  0
ENDSEC
  0
SECTION
  2
ENTITIES
  0
ARC
  8
0
  6
CONTINUOUS
 62
3
 10
-535.675795999832870
 20
-127.194176407204250
 40
6.099999427795408
 50
84.601927898109551
 51
185.398089404735120
  0
POINT
  8
0
  6
CONTINUOUS
 62
3
 10
-537.938537564759940
 20
-124.931434842277210
  0
LINE
  8
0
  6
CONTINUOUS
 62
3
 10
-541.261939301466780
 20
-128.254836578984080
 11
-534.615135828053100
 21
-121.608033105570350
  0
LINE
  8
0
  6
CONTINUOUS
 62
3
 10
-541.575077910435540
 20
-128.002289628133700
 11
-534.897978607962610
 21
-121.325190325660780
  0
LINE
  8
0
  6
CONTINUOUS
 62
3
 10
-534.615135828053100
 20
-121.608033105570350
 11
-535.101939219758720
 21
-121.121229713864730
  0
LINE
  8
0
  6
CONTINUOUS
 62
3
 10
-541.261939301466780
 20
-128.254836578984080
 11
-541.748742693172400
 21
-127.768033187278440
  0
ARC
  8
0
  6
CONTINUOUS
 62
3
 10
-535.675795999832870
 20
-226.047704686823550
 40
6.099999427795398
 50
174.601910595264880
 51
275.398072101890420
  0
POINT
  8
0
  6
CONTINUOUS
 62
3
 10
-537.938537564759940
 20
-228.310446251750590
  0
LINE
  8
0
  6
CONTINUOUS
 62
3
 10
-541.261939301466780
 20
-224.987044515043720
 11
-534.615135828053100
 21
-231.633847988457460
  0
LINE
  8
0
  6
CONTINUOUS
 62
3
 10
-541.575077910435540
 20
-225.239591465894110
 11
-534.897978607962610
 21
-231.916690768367030
  0
LINE
  8
0
  6
CONTINUOUS
 62
3
 10
-534.615135828053100
 20
-231.633847988457460
 11
-535.101939219758720
 21
-232.120651380163050
  0
LINE
  8
0
  6
CONTINUOUS
 62
3
 10
-541.261939301466780
 20
-224.987044515043720
 11
-541.748742693172400
 21
-225.473847906749340
  0
ARC
  8
0
  6
CONTINUOUS
 62
3
 10
-436.822267720213800
 20
-226.047704686823550
 40
6.099999427795406
 50
264.601927898108500
 51
5.398089404735109
  0
POINT
  8
0
  6
CONTINUOUS
 62
3
 10
-434.559526155286790
 20
-228.310446251750590
  0
LINE
  8
0
  6
CONTINUOUS
 62
3
 10
-431.236124418579950
 20
-224.987044515043720
 11
-437.882927891993630
 21
-231.633847988457460
  0
LINE
  8
0
  6
CONTINUOUS
 62
3
 10
-430.922985809611130
 20
-225.239591465894110
 11
-437.600085112084060
 21
-231.916690768367030
  0
LINE
  8
0
  6
CONTINUOUS
 62
3
 10
-437.882927891993630
 20
-231.633847988457460
 11
-437.396124500288010
 21
-232.120651380163050
  0
LINE
  8
0
  6
CONTINUOUS
 62
3
 10
-431.236124418579950
 20
-224.987044515043720
 11
-430.749321026874330
 21
-225.473847906749340
  0
ARC
  8
0
  6
CONTINUOUS
 62
3
 10
-436.822267720213800
 20
-127.194176407204250
 40
6.099999427795398
 50
354.601910595264880
 51
95.398072101891515
  0
POINT
  8
0
  6
CONTINUOUS
 62
3
 10
-434.559526155286790
 20
-124.931434842277210
  0
LINE
  8
0
  6
CONTINUOUS
 62
3
 10
-431.236124418579950
 20
-128.254836578984080
 11
-437.882927891993630
 21
-121.608033105570350
  0
LINE
  8
0
  6
CONTINUOUS
 62
3
 10
-430.922985809611130
 20
-128.002289628133700
 11
-437.600085112084060
 21
-121.325190325660780
  0
LINE
  8
0
  6
CONTINUOUS
 62
3
 10
-437.882927891993630
 20
-121.608033105570350
 11
-437.396124500288010
 21
-121.121229713864730
  0
LINE
  8
0
  6
CONTINUOUS
 62
3
 10
-431.236124418579950
 20
-128.254836578984080
 11
-430.749321026874330
 21
-127.768033187278440
  0
ARC
  8
0
  6
CONTINUOUS
 62
3
 10
-688.749031860023360
 20
-176.620940547013900
 40
300.000000000000060
 50
353.967950853630210
 51
6.032049146369816
  0
ARC
  8
0
  6
CONTINUOUS
 62
3
 10
-395.382367087080980
 20
-207.620940547013790
 40
5.000000000000000
 50
270.000000000000000
 51
353.967950853629650
  0
LINE
  8
0
  6
CONTINUOUS
 62
3
 10
-423.942728351102800
 20
-212.620940547013790
 11
-395.382367087080980
 21
-212.620940547013790
  0
LINE
  8
0
  6
CONTINUOUS
 62
3
 10
-423.942728351102800
 20
-140.620940547013790
 11
-395.382367087080980
 21
-140.620940547013790
  0
ARC
  8
0
  6
CONTINUOUS
 62
3
 10
-395.382367087080980
 20
-145.620940547013790
 40
5.000000000000131
 50
6.032049146369048
 51
90.000000000000000
  0
LINE
  8
0
  6
CONTINUOUS
 62
3
 10
-388.759448707541080
 20
-179.120940547013790
 11
-388.249031860023360
 21
-179.120940547013790
  0
LINE
  8
0
  6
CONTINUOUS
 62
3
 10
-388.749033717221100
 20
-174.120940547013790
 11
-388.249031860023360
 21
-174.120940547013790
  0
LINE
  8
0
  6
CONTINUOUS
 62
3
 10
-388.249031860023360
 20
-179.120940547013790
 11
-388.249031860023360
 21
-174.120940547013790
  0
LINE
  8
0
  6
CONTINUOUS
 62
3
 10
-422.749031860023360
 20
-206.613439609280590
 11
-422.749031860023360
 21
-212.620940547013790
  0
LINE
  8
0
  6
CONTINUOUS
 62
3
 10
-422.749031860023360
 20
-146.628441484746990
 11
-422.749031860023360
 21
-140.620940547013790
  0
ARC
  8
0
  6
CONTINUOUS
 62
3
 10
-496.749031860023420
 20
-83.120940547015380
 40
9.999999999999943
 50
180.000000000000000
 51
270.000000000000000
  0
ARC
  8
0
  6
CONTINUOUS
 62
3
 10
-475.749031860023420
 20
-83.120940547015380
 40
10.000000000000000
 50
270.000000000000000
 51
0.000000000000000
  0
LINE
  8
0
  6
CONTINUOUS
 62
3
 10
-496.749031860023420
 20
-93.120940547015380
 11
-475.749031860023480
 21
-93.120940547015380
  0
LINE
  8
0
  6
DASHDOT
 62
4
 10
-184.994820907898090
 20
89.879059452986212
 11
-202.994820907898090
 21
89.879059452986212
  0
LINE
  8
0
  6
DASHDOT
 62
4
 10
-193.994820907898090
 20
80.879059452986212
 11
-193.994820907898090
 21
107.880658775535940
  0
LINE
  8
0
  6
DASHED
 62
4
 10
-200.994820907898090
 20
109.879059452986210
 11
-200.994820907898090
 21
89.879059452986212
  0
LINE
  8
0
  6
DASHED
 62
4
 10
-186.994820907898090
 20
109.879059452986210
 11
-186.994820907898090
 21
89.879059452986212
  0
ARC
  8
0
  6
DASHED
 62
4
 10
-193.994820907898090
 20
89.879059452986212
 40
7.000000000000000
 50
180.000000000000000
 51
0.000000000000000
  0
CIRCLE
  8
0
  6
DASHED
 62
4
 10
-193.994820907898090
 20
89.879059452986212
 40
6.000000000000000
  0
LINE
  8
0
  6
CONTINUOUS
 62
3
 10
200.805179092120650
 20
-326.983695646243180
 11
200.805179092120650
 21
-345.120940547014470
  0
LINE
  8
0
  6
CONTINUOUS
 62
3
 10
-5.194820907879375
 20
-345.120940547014470
 11
200.805179092120650
 21
-345.120940547014470
  0
LINE
  8
0
  6
CONTINUOUS
 62
3
 10
196.944777078930910
 20
-322.986132338166500
 11
160.805179092120650
 21
-321.724109767344090
  0
LINE
  8
0
  6
DASHDOT
 62
4
 10
182.805179092120650
 20
-316.193978991534100
 11
182.805179092120650
 21
-353.532203021074570
  0
LINE
  8
0
  6
CONTINUOUS
 62
3
 10
198.805179092120650
 20
-175.120940547014470
 11
198.805179092120650
 21
-322.084716160676180
  0
LINE
  8
0
  6
CONTINUOUS
 62
3
 10
200.805179092120650
 20
-175.120940547014470
 11
200.805179092120650
 21
-219.120940547014470
  0
LINE
  8
0
  6
CONTINUOUS
 62
3
 10
200.805179092120650
 20
-175.120940547014470
 11
200.805179092120650
 21
-131.120940547014470
  0
LINE
  8
0
  6
CONTINUOUS
 62
3
 10
198.805179092120650
 20
-175.120940547014470
 11
198.805179092120650
 21
-113.629339695441550
  0
LINE
  8
0
  6
CONTINUOUS
 62
3
 10
191.383516372783360
 20
-182.952779257008840
 11
191.383516372783360
 21
-319.894862510542230
  0
LINE
  8
0
  6
CONTINUOUS
 62
3
 10
161.275349753649410
 20
-182.952779257008840
 11
161.275349753649410
 21
-318.843462164216360
  0
LINE
  8
0
  6
CONTINUOUS
 62
3
 10
199.805179092120650
 20
-131.120940547014470
 11
200.805179092120650
 21
-131.120940547014470
  0
LINE
  8
0
  6
CONTINUOUS
 62
3
 10
199.805179092120650
 20
-219.120940547014470
 11
200.805179092120650
 21
-219.120940547014470
  0
LINE
  8
0
  6
CONTINUOUS
 62
3
 10
202.805179092120650
 20
-175.120940547014470
 11
202.805179092120650
 21
-150.470940547013920
  0
LINE
  8
0
  6
CONTINUOUS
 62
3
 10
204.805179092120650
 20
-151.270940547015020
 11
205.364986713256060
 21
-151.120940547014470
  0
LINE
  8
0
  6
CONTINUOUS
 62
3
 10
204.805179092120650
 20
-151.270940547015020
 11
203.605179092120840
 21
-151.270940547015020
  0
LINE
  8
0
  6
CONTINUOUS
 62
3
 10
202.805179092120650
 20
-150.470940547013920
 11
202.805179092120650
 21
-150.320940547014290
  0
LINE
  8
0
  6
CONTINUOUS
 62
3
 10
202.805179092120650
 20
-150.320940547014290
 11
202.605179092120840
 21
-150.120940547014470
  0
LINE
  8
0
  6
CONTINUOUS
 62
3
 10
202.805179092120650
 20
-175.120940547014470
 11
202.805179092120650
 21
-199.770940547015020
  0
LINE
  8
0
  6
CONTINUOUS
 62
3
 10
204.805179092120650
 20
-198.970940547013920
 11
205.364986713256060
 21
-199.120940547014470
  0
LINE
  8
0
  6
CONTINUOUS
 62
3
 10
204.805179092120650
 20
-198.970940547013920
 11
203.605179092120840
 21
-198.970940547013920
  0
LINE
  8
0
  6
CONTINUOUS
 62
3
 10
202.805179092120650
 20
-199.770940547015020
 11
202.805179092120650
 21
-199.920940547014650
  0
LINE
  8
0
  6
CONTINUOUS
 62
3
 10
202.805179092120650
 20
-199.920940547014650
 11
202.605179092120840
 21
-200.120940547014470
  0
LINE
  8
0
  6
CONTINUOUS
 62
3
 10
277.405179092120990
 20
-199.120940547014470
 11
205.364986713256060
 21
-199.120940547014470
  0
LINE
  8
0
  6
CONTINUOUS
 62
3
 10
277.405179092120990
 20
-151.120940547014470
 11
205.364986713256060
 21
-151.120940547014470
  0
LINE
  8
0
  6
CONTINUOUS
 62
3
 10
202.605179092120840
 20
-200.120940547014470
 11
200.805179092120650
 21
-200.120940547014470
  0
LINE
  8
0
  6
CONTINUOUS
 62
3
 10
202.605179092120840
 20
-150.120940547014470
 11
200.805179092120650
 21
-150.120940547014470
  0
LINE
  8
0
  6
DASHDOT
 62
4
 10
293.859361429145570
 20
-175.120940547014470
 11
143.724439679171870
 21
-175.120940547014470
  0
LINE
  8
0
  6
CONTINUOUS
 62
3
 10
277.805179092120170
 20
-182.152173098279490
 11
214.804771712979150
 21
-182.152173098279490
  0
LINE
  8
0
  6
CONTINUOUS
 62
3
 10
277.805179092120170
 20
-168.152173098279490
 11
214.804771712979150
 21
-168.152173098279490
  0
LINE
  8
0
  6
CONTINUOUS
 62
3
 10
277.805179092120620
 20
-175.120940547014470
 11
277.805179092120620
 21
-151.520940547015020
  0
LINE
  8
0
  6
CONTINUOUS
 62
3
 10
277.805179092120620
 20
-175.120940547014470
 11
277.805179092120620
 21
-198.720940547013920
  0
ARC
  8
0
  6
CONTINUOUS
 62
3
 10
199.805179092120650
 20
-130.120940547014470
 40
1.000000000000000
 50
180.000000000000000
 51
270.000000000000000
  0
ARC
  8
0
  6
CONTINUOUS
 62
3
 10
199.805179092120650
 20
-220.120940547014470
 40
1.000000000000000
 50
90.000000000000000
 51
180.000000000000000
  0
ARC
  8
0
  6
CONTINUOUS
 62
3
 10
125.821724544951190
 20
-156.364759310139560
 40
84.999999999999844
 50
31.410339509413163
 51
88.999999999999758
  0
ARC
  8
0
  6
CONTINUOUS
 62
3
 10
195.805179092120650
 20
-113.629339695441550
 40
3.000000000000000
 50
0.000000000000000
 51
31.410339509406533
  0
ARC
  8
0
  6
CONTINUOUS
 62
3
 10
196.805179092120650
 20
-326.983695646243180
 40
4.000000000000000
 50
0.000000000000000
 51
87.999999999996504
  0
ARC
  8
0
  6
CONTINUOUS
 62
3
 10
201.805179092120650
 20
-322.084716160676180
 40
3.000000000000000
 50
180.000000000000000
 51
224.415308597194890
  0
ARC
  8
0
  6
CONTINUOUS
 62
3
 10
194.383516372783360
 20
-319.894862510542230
 40
3.000000000000000
 50
180.000000000000000
 51
268.000000000005290
  0
ARC
  8
0
  6
CONTINUOUS
 62
3
 10
164.275349753649410
 20
-318.843462164216360
 40
3.000000000000000
 50
180.000000000000000
 51
267.999999999996080
  0
ARC
  8
0
  6
CONTINUOUS
 62
3
 10
203.605179092120840
 20
-150.470940547013920
 40
0.800000000000182
 50
180.000000000000000
 51
270.000000000000000
  0
ARC
  8
0
  6
CONTINUOUS
 62
3
 10
203.605179092120840
 20
-199.770940547015020
 40
0.800000000001091
 50
90.000000000000000
 51
180.000000000000000
  0
ARC
  8
0
  6
CONTINUOUS
 62
3
 10
214.804771712979150
 20
-175.152173098279490
 40
7.000000000000000
 50
90.000000000000000
 51
270.000000000000000
  0
ARC
  8
0
  6
CONTINUOUS
 62
3
 10
277.405179092120990
 20
-151.520940547015020
 40
0.399999999999636
 50
0.000000000000000
 51
90.000000000000000
  0
ARC
  8
0
  6
CONTINUOUS
 62
3
 10
277.405179092120990
 20
-198.720940547013920
 40
0.400000000000546
 50
270.000000000000000
 51
0.000000000000000
  0
POLYLINE
  8
0
  6
CONTINUOUS
 62
3
 66
1
  0
VERTEX
  8
0
  6
CONTINUOUS
 62
3
 10
191.383516372783560
 20
-182.952779257008840
  0
VERTEX
  8
0
  6
CONTINUOUS
 62
3
 10
191.094256383203830
 20
-177.245838324533110
  0
VERTEX
  8
0
  6
CONTINUOUS
 62
3
 10
190.237592513645270
 20
-171.758211931603060
  0
VERTEX
  8
0
  6
CONTINUOUS
 62
3
 10
188.846445876192430
 20
-166.700786483002670
  0
VERTEX
  8
0
  6
CONTINUOUS
 62
3
 10
186.974277455958540
 20
-162.267916002484780
  0
VERTEX
  8
0
  6
CONTINUOUS
 62
3
 10
184.693033635409110
 20
-158.629953216633310
  0
VERTEX
  8
0
  6
CONTINUOUS
 62
3
 10
182.090381335231570
 20
-155.926702995115480
  0
VERTEX
  8
0
  6
CONTINUOUS
 62
3
 10
179.266339023737460
 20
-154.262049727944030
  0
VERTEX
  8
0
  6
CONTINUOUS
 62
3
 10
176.329433063216380
 20
-153.699965106628040
  0
VERTEX
  8
0
  6
CONTINUOUS
 62
3
 10
173.392527102695310
 20
-154.262049727944030
  0
VERTEX
  8
0
  6
CONTINUOUS
 62
3
 10
170.568484791201200
 20
-155.926702995115480
  0
VERTEX
  8
0
  6
CONTINUOUS
 62
3
 10
167.965832491023660
 20
-158.629953216633310
  0
VERTEX
  8
0
  6
CONTINUOUS
 62
3
 10
165.684588670474230
 20
-162.267916002484810
  0
VERTEX
  8
0
  6
CONTINUOUS
 62
3
 10
163.812420250240360
 20
-166.700786483002670
  0
VERTEX
  8
0
  6
CONTINUOUS
 62
3
 10
162.421273612787500
 20
-171.758211931603060
  0
VERTEX
  8
0
  6
CONTINUOUS
 62
3
 10
161.564609743228970
 20
-177.245838324533110
  0
VERTEX
  8
0
  6
CONTINUOUS
 62
3
 10
161.275349753649210
 20
-182.952779257008840
  0
SEQEND
  8
0
  6
CONTINUOUS
 62
3
  0
LINE
  8
0
  6
CONTINUOUS
 62
3
 10
199.805179092120650
 20
217.379059452986210
 11
200.805179092120650
 21
217.379059452986210
  0
LINE
  8
0
  6
CONTINUOUS
 62
3
 10
199.805179092120650
 20
129.379059452986210
 11
200.805179092120650
 21
129.379059452986210
  0
ARC
  8
0
  6
CONTINUOUS
 62
3
 10
125.821724544951190
 20
222.135240689862030
 40
84.999999999999162
 50
66.689885608551080
 51
88.999999999999758
  0
ARC
  8
0
  6
CONTINUOUS
 62
3
 10
125.821724544951190
 20
124.622878216110390
 40
84.999999999999758
 50
271.000000000000230
 51
293.310114391448960
  0
ARC
  8
0
  6
CONTINUOUS
 62
3
 10
158.269750140793600
 20
297.442117101857320
 40
3.000000000000230
 50
2.147816690766376
 51
66.689885608550057
  0
ARC
  8
0
  6
CONTINUOUS
 62
3
 10
158.269750140793600
 20
49.316001804115103
 40
2.999999999999306
 50
293.310114391449990
 51
357.852183309233620
  0
LINE
  8
0
  6
CONTINUOUS
 62
3
 10
182.868233810333350
 20
276.382410159546230
 11
189.986485720058940
 21
276.258160610286500
  0
LINE
  8
0
  6
CONTINUOUS
 62
3
 10
182.868233810333350
 20
70.375708746426199
 11
189.986485720058940
 21
70.499958295685929
  0
ARC
  8
0
  6
CONTINUOUS
 62
3
 10
189.934128500747450
 20
273.258617524817740
 40
2.999999999999281
 50
38.568937924282025
 51
89.000000000006764
  0
ARC
  8
0
  6
CONTINUOUS
 62
3
 10
189.934128500747450
 20
73.499501381154687
 40
2.999999999999579
 50
270.999999999993240
 51
321.431062075717930
  0
ARC
  8
0
  6
CONTINUOUS
 62
3
 10
183.252186751954270
 20
298.379059452987120
 40
21.999999999999797
 50
182.147816690761830
 51
268.999999999998240
  0
ARC
  8
0
  6
CONTINUOUS
 62
3
 10
183.252186751954270
 20
48.379059452985302
 40
22.000000000000302
 50
91.000000000001762
 51
177.852183309238170
  0
ARC
  8
0
  6
CONTINUOUS
 62
3
 10
125.821724544951190
 20
222.135240689862030
 40
84.999999999999844
 50
31.410339509413163
 51
38.568937924282686
  0
ARC
  8
0
  6
CONTINUOUS
 62
3
 10
125.821724544951190
 20
124.622878216110390
 40
84.999999999999801
 50
321.431062075717310
 51
328.589660490586820
  0
ARC
  8
0
  6
CONTINUOUS
 62
3
 10
195.805179092120650
 20
264.870660304559120
 40
3.000000000000000
 50
0.000000000000000
 51
31.410339509421355
  0
ARC
  8
0
  6
CONTINUOUS
 62
3
 10
195.805179092120650
 20
81.887458601413300
 40
3.000000000000031
 50
328.589660490578640
 51
0.000000000000000
  0
LINE
  8
0
  6
CONTINUOUS
 62
3
 10
200.805179092120650
 20
173.379059452986210
 11
200.805179092120650
 21
306.052086821829790
  0
LINE
  8
0
  6
CONTINUOUS
 62
3
 10
200.805179092120650
 20
173.379059452986210
 11
200.805179092120650
 21
40.706032084142635
  0
LINE
  8
0
  6
DASHDOT
 62
4
 10
182.805179092120650
 20
312.389543973595890
 11
182.805179092120650
 21
283.282474798043720
  0
LINE
  8
0
  6
DASHDOT
 62
4
 10
182.805179092120650
 20
34.368574932376532
 11
182.805179092120650
 21
63.475644107928701
  0
LINE
  8
0
  6
DASHDOT
 62
4
 10
196.378904223286360
 20
298.379059452987120
 11
170.125469280622180
 21
298.379059452987120
  0
LINE
  8
0
  6
DASHDOT
 62
4
 10
196.378904223286360
 20
48.379059452985302
 11
170.125469280622180
 21
48.379059452985302
  0
CIRCLE
  8
0
  6
CONTINUOUS
 62
3
 10
182.805179092120650
 20
298.379059452987120
 40
7.500000000000000
  0
CIRCLE
  8
0
  6
CONTINUOUS
 62
3
 10
182.805179092120650
 20
48.379059452985302
 40
7.500000000000000
  0
ARC
  8
0
  6
CONTINUOUS
 62
3
 10
199.805179092120650
 20
218.379059452986210
 40
1.000000000000000
 50
180.000000000000000
 51
270.000000000000000
  0
ARC
  8
0
  6
CONTINUOUS
 62
3
 10
199.805179092120650
 20
128.379059452986210
 40
1.000000000000000
 50
90.000000000000000
 51
180.000000000000000
  0
LINE
  8
0
  6
CONTINUOUS
 62
3
 10
198.805179092120650
 20
173.379059452986210
 11
198.805179092120650
 21
264.870660304559120
  0
LINE
  8
0
  6
CONTINUOUS
 62
3
 10
198.805179092120650
 20
173.379059452986210
 11
198.805179092120650
 21
81.887458601413300
  0
ARC
  8
0
  6
CONTINUOUS
 62
3
 10
190.805179092120650
 20
306.052086821829790
 40
10.000000000000000
 50
0.000000000000000
 51
88.999999999998238
  0
ARC
  8
0
  6
CONTINUOUS
 62
3
 10
190.805179092120650
 20
40.706032084142635
 40
10.000000000000137
 50
271.000000000001760
 51
0.000000000000000
  0
ARC
  8
0
  6
CONTINUOUS
 62
3
 10
277.405179092120990
 20
149.779059452986760
 40
0.400000000000546
 50
270.000000000000000
 51
0.000000000000000
  0
LINE
  8
0
  6
CONTINUOUS
 62
3
 10
277.405179092120990
 20
149.379059452986210
 11
205.364986713256060
 21
149.379059452986210
  0
LINE
  8
0
  6
CONTINUOUS
 62
3
 10
277.805179092120620
 20
173.379059452986210
 11
277.805179092120620
 21
145.879059452986210
  0
LINE
  8
0
  6
CONTINUOUS
 62
3
 10
277.805179092120620
 20
145.879059452986210
 11
207.805179092120650
 21
145.879059452986210
  0
ARC
  8
0
  6
CONTINUOUS
 62
3
 10
277.405179092120990
 20
196.979059452985670
 40
0.399999999999636
 50
0.000000000000000
 51
90.000000000000000
  0
LINE
  8
0
  6
CONTINUOUS
 62
3
 10
277.805179092120620
 20
173.379059452986210
 11
277.805179092120620
 21
196.979059452985670
  0
LINE
  8
0
  6
CONTINUOUS
 62
3
 10
277.405179092120990
 20
197.379059452986210
 11
205.364986713256060
 21
197.379059452986210
  0
LINE
  8
0
  6
CONTINUOUS
 62
3
 10
202.805179092120650
 20
148.579059452986030
 11
202.605179092120840
 21
148.379059452986210
  0
ARC
  8
0
  6
CONTINUOUS
 62
3
 10
203.605179092120840
 20
148.729059452985670
 40
0.800000000001091
 50
90.000000000000000
 51
180.000000000000000
  0
LINE
  8
0
  6
CONTINUOUS
 62
3
 10
202.805179092120650
 20
148.729059452985670
 11
202.805179092120650
 21
148.579059452986030
  0
LINE
  8
0
  6
CONTINUOUS
 62
3
 10
204.805179092120650
 20
149.529059452986760
 11
203.605179092120840
 21
149.529059452986760
  0
LINE
  8
0
  6
CONTINUOUS
 62
3
 10
204.805179092120650
 20
149.529059452986760
 11
205.364986713256060
 21
149.379059452986210
  0
LINE
  8
0
  6
CONTINUOUS
 62
3
 10
202.605179092120840
 20
148.379059452986210
 11
200.805179092120650
 21
148.379059452986210
  0
LINE
  8
0
  6
CONTINUOUS
 62
3
 10
202.805179092120650
 20
173.379059452986210
 11
202.805179092120650
 21
148.729059452985670
  0
LINE
  8
0
  6
CONTINUOUS
 62
3
 10
202.805179092120650
 20
198.179059452986390
 11
202.605179092120840
 21
198.379059452986210
  0
ARC
  8
0
  6
CONTINUOUS
 62
3
 10
203.605179092120840
 20
198.029059452986760
 40
0.800000000000182
 50
180.000000000000000
 51
270.000000000000000
  0
LINE
  8
0
  6
CONTINUOUS
 62
3
 10
202.805179092120650
 20
198.029059452986760
 11
202.805179092120650
 21
198.179059452986390
  0
LINE
  8
0
  6
CONTINUOUS
 62
3
 10
204.805179092120650
 20
197.229059452985670
 11
203.605179092120840
 21
197.229059452985670
  0
LINE
  8
0
  6
CONTINUOUS
 62
3
 10
204.805179092120650
 20
197.229059452985670
 11
205.364986713256060
 21
197.379059452986210
  0
LINE
  8
0
  6
CONTINUOUS
 62
3
 10
202.605179092120840
 20
198.379059452986210
 11
200.805179092120650
 21
198.379059452986210
  0
LINE
  8
0
  6
CONTINUOUS
 62
3
 10
202.805179092120650
 20
173.379059452986210
 11
202.805179092120650
 21
198.029059452986760
  0
LINE
  8
0
  6
CONTINUOUS
 62
3
 10
207.805179092120650
 20
145.879059452986210
 11
207.805179092120650
 21
149.379059452986210
  0
ARC
  8
0
  6
CONTINUOUS
 62
3
 10
-35.194820907903363
 20
118.879059452986210
 40
5.000000000000000
 50
270.000000000000000
 51
359.999999999997390
  0
LINE
  8
0
  6
CONTINUOUS
 62
3
 10
-30.194820907903818
 20
118.879059452985980
 11
-30.194820907898816
 21
227.879059452985980
  0
ARC
  8
0
  6
CONTINUOUS
 62
3
 10
-35.194820907898361
 20
227.879059452986210
 40
4.999999999999545
 50
359.999999999997390
 51
90.000000000000000
  0
ARC
  8
0
  6
CONTINUOUS
 62
3
 10
9.305179092102577
 20
191.379059452986210
 40
3.000000000000000
 50
270.000000000000000
 51
0.000000000000000
  0
LINE
  8
0
  6
CONTINUOUS
 62
3
 10
-27.194820907901089
 20
188.379059452986210
 11
9.305179092102577
 21
188.379059452986210
  0
ARC
  8
0
  6
CONTINUOUS
 62
3
 10
-27.194820907901089
 20
191.379059452986210
 40
2.999999999999545
 50
180.000000000000000
 51
270.000000000000000
  0
ARC
  8
0
  6
CONTINUOUS
 62
3
 10
9.305179092102577
 20
155.379059452986210
 40
3.000000000000000
 50
0.000000000000000
 51
90.000000000000000
  0
LINE
  8
0
  6
CONTINUOUS
 62
3
 10
-27.194820907902908
 20
158.379059452986210
 11
9.305179092102577
 21
158.379059452986210
  0
ARC
  8
0
  6
CONTINUOUS
 62
3
 10
-27.194820907902908
 20
155.379059452986210
 40
3.000000000000000
 50
90.000000000000000
 51
180.000000000000000
  0
LINE
  8
0
  6
DASHDOT
 62
4
 10
-7.694820907897451
 20
155.091636288541170
 11
-7.694820907897451
 21
192.447053765203460
  0
CIRCLE
  8
0
  6
CONTINUOUS
 62
3
 10
-7.694820907897451
 20
173.379059452986210
 40
9.625113364740628
  0
LINE
  8
0
  6
DASHDOT
 62
4
 10
34.864400727474191
 20
-83.120940547015380
 11
9.416882872625052
 21
-83.120940547015380
  0
LINE
  8
0
  6
CONTINUOUS
 62
3
 10
43.805179092120653
 20
-232.037020330111770
 11
43.805179092120653
 21
-310.547836982113950
  0
LINE
  8
0
  6
CONTINUOUS
 62
3
 10
43.805179092120653
 20
-206.204860763912620
 11
43.805179092120653
 21
-72.120940547014470
  0
ARC
  8
0
  6
CONTINUOUS
 62
3
 10
-20.518374570248284
 20
-254.764493868164550
 40
3.000000000000004
 50
36.807809254663752
 51
90.000000000000000
  0
LINE
  8
0
  6
CONTINUOUS
 62
3
 10
-14.035943888523548
 20
-251.764493868164550
 11
7.996203749168586
 21
-251.764493868164550
  0
LINE
  8
0
  6
CONTINUOUS
 62
3
 10
12.305179092102577
 20
-293.620940547014020
 11
-18.116425415442450
 21
-252.967095676964960
  0
LINE
  8
0
  6
CONTINUOUS
 62
3
 10
-25.322390971995560
 20
-230.487459403558320
 11
-49.194820907897451
 21
-230.487459403558320
  0
ARC
  8
0
  6
CONTINUOUS
 62
3
 10
-24.694820907897451
 20
-239.409048177443650
 40
3.000000000000000
 50
0.000000000000000
 51
86.999999999996518
  0
ARC
  8
0
  6
CONTINUOUS
 62
3
 10
-24.694820907897451
 20
-220.817962971281870
 40
3.000000000000000
 50
0.000000000000000
 51
90.000000000000000
  0
LINE
  8
0
  6
CONTINUOUS
 62
3
 10
-21.694820907897451
 20
-247.490656348171460
 11
-21.694820907897451
 21
-220.817962971281870
  0
ARC
  8
0
  6
CONTINUOUS
 62
3
 10
9.305179092102577
 20
-199.620940547017770
 40
3.000000000000000
 50
0.000000000000000
 51
90.000000000000000
  0
LINE
  8
0
  6
CONTINUOUS
 62
3
 10
9.305179092102577
 20
-196.620940547017770
 11
-49.194820907897451
 21
-196.620940547017770
  0
LINE
  8
0
  6
CONTINUOUS
 62
3
 10
-30.194820907898475
 20
-156.620940547017770
 11
-49.194820907897451
 21
-156.620940547017770
  0
LINE
  8
0
  6
CONTINUOUS
 62
3
 10
-49.194820907897451
 20
-217.817962971281870
 11
-24.694820907897451
 21
-217.817962971281870
  0
ARC
  8
0
  6
CONTINUOUS
 62
3
 10
9.305179092102577
 20
-177.120940547014020
 40
3.000000000000057
 50
270.000000000000000
 51
0.000000000000000
  0
ARC
  8
0
  6
CONTINUOUS
 62
3
 10
-25.194820907899270
 20
-175.120940547014070
 40
5.000000000000000
 50
179.999999999997410
 51
270.000000000000000
  0
LINE
  8
0
  6
CONTINUOUS
 62
3
 10
9.305179092102577
 20
-180.120940547014070
 11
-25.194820907899270
 21
-180.120940547014070
  0
ARC
  8
0
  6
CONTINUOUS
 62
3
 10
7.305179092102577
 20
-295.515113774295510
 40
5.000000000000000
 50
0.000000000000000
 51
41.496847105758341
  0
ARC
  8
0
  6
CONTINUOUS
 62
3
 10
-16.694820907898475
 20
-253.292496672978700
 40
5.000000000000000
 50
179.999999999998690
 51
268.000000000000230
  0
LINE
  8
0
  6
CONTINUOUS
 62
3
 10
-14.060258616544161
 20
-258.387545336961010
 11
-16.869318391410957
 21
-258.289450808074090
  0
ARC
  8
0
  6
CONTINUOUS
 62
3
 10
7.305179092102577
 20
-144.120940547014240
 40
5.000000000000000
 50
270.000000000000000
 51
0.000000000000000
  0
POINT
  8
0
  6
CONTINUOUS
 62
3
 10
12.305179092102577
 20
-293.620940547014020
  0
ARC
  8
0
  6
CONTINUOUS
 62
3
 10
-26.694820907898361
 20
-247.490656348171460
 40
5.000000000000000
 50
359.999999999998690
 51
88.000000000000270
  0
ARC
  8
0
  6
CONTINUOUS
 62
3
 10
15.305179092102577
 20
-295.374666527675230
 40
3.000000000000000
 50
180.000000000000000
 51
268.000000000000740
  0
LINE
  8
0
  6
CONTINUOUS
 62
3
 10
22.305179092102577
 20
-144.120940547014240
 11
22.305179092102577
 21
-298.620940547014020
  0
LINE
  8
0
  6
CONTINUOUS
 62
3
 10
-21.694820907898475
 20
-253.292496672978590
 11
-21.694820907898361
 21
-247.490656348171570
  0
LINE
  8
0
  6
DASHDOT
 62
4
 10
-7.694820907897451
 20
-156.946828575335080
 11
-7.694820907897451
 21
-134.225150277917690
  0
LINE
  8
0
  6
CONTINUOUS
 62
3
 10
7.447062269351733
 20
-138.120940547014020
 11
-25.194820907897565
 21
-138.120940547014020
  0
LINE
  8
0
  6
CONTINUOUS
 62
3
 10
7.305179092102577
 20
-149.120940547014240
 11
-25.194820907898020
 21
-149.120940547014240
  0
ARC
  8
0
  6
CONTINUOUS
 62
3
 10
7.447062269351733
 20
-133.120940547014020
 40
5.000000000000000
 50
270.000000000000000
 51
349.193077125139720
  0
ARC
  8
0
  6
CONTINUOUS
 62
3
 10
15.305179092102577
 20
-134.620940547014020
 40
3.000000000000000
 50
90.000000000000000
 51
180.000000000000000
  0
LINE
  8
0
  6
CONTINUOUS
 62
3
 10
15.305179092102577
 20
-131.620940547014020
 11
22.305179092102577
 21
-131.620940547014020
  0
LINE
  8
0
  6
CONTINUOUS
 62
3
 10
12.305179092102577
 20
-134.620940547014020
 11
12.305179092102577
 21
-282.913177631166380
  0
LINE
  8
0
  6
CONTINUOUS
 62
3
 10
22.305179092102577
 20
-131.620940547014020
 11
22.305179092102577
 21
-144.120940547014240
  0
LINE
  8
0
  6
CONTINUOUS
 62
3
 10
12.305179092102577
 20
-282.913177631166380
 11
12.305179092102577
 21
-295.374666527675230
  0
LINE
  8
0
  6
CONTINUOUS
 62
3
 10
15.200480601995110
 20
-298.372839008732630
 11
22.305179092102577
 21
-298.620940547014020
  0
ARC
  8
0
  6
CONTINUOUS
 62
3
 10
-35.194820907897110
 20
-122.394093367040790
 40
5.000000000000000
 50
359.999999999997390
 51
93.000000000000355
  0
ARC
  8
0
  6
CONTINUOUS
 62
3
 10
-34.194820907898929
 20
-239.223874222592710
 40
3.000000000000000
 50
180.000000000000000
 51
268.000000000000680
  0
LINE
  8
0
  6
CONTINUOUS
 62
3
 10
-30.194820907897565
 20
-133.120940547013790
 11
-30.194820907897110
 21
-122.394093367041020
  0
LINE
  8
0
  6
CONTINUOUS
 62
3
 10
-49.194820907897451
 20
-235.120940547014020
 11
-49.194820907897451
 21
-118.120940547013440
  0
LINE
  8
0
  6
CONTINUOUS
 62
3
 10
-24.537813039168441
 20
-236.413159573180000
 11
-49.194820907901203
 21
-235.120940547013790
  0
LINE
  8
0
  6
CONTINUOUS
 62
3
 10
-35.456500689111863
 20
-117.400945693267880
 11
-49.194820907897451
 21
-118.120940547013780
  0
ARC
  8
0
  6
CONTINUOUS
 62
3
 10
-25.194820907897565
 20
-133.120940547014020
 40
5.000000000000000
 50
179.999999999998690
 51
270.000000000000000
  0
LINE
  8
0
  6
CONTINUOUS
 62
3
 10
-30.194820907899270
 20
-175.120940547013840
 11
-30.194820907897565
 21
-133.120940547013790
  0
ARC
  8
0
  6
CONTINUOUS
 62
3
 10
-25.194820907898020
 20
-144.120940547014240
 40
5.000000000000000
 50
179.999999999997410
 51
270.000000000000000
  0
LINE
  8
0
  6
CONTINUOUS
 62
3
 10
-37.194820907898929
 20
-239.223874222592710
 11
-37.194820907898929
 21
-238.596727598555500
  0
LINE
  8
0
  6
CONTINUOUS
 62
3
 10
-26.520323424385879
 20
-242.493702213075950
 11
-34.299519398006396
 21
-242.222046703649990
  0
ARC
  8
0
  6
CONTINUOUS
 62
3
 10
-40.194820907898929
 20
-238.596727598555500
 40
3.000000000000000
 50
0.000000000000000
 51
86.999999999996518
  0
LINE
  8
0
  6
CONTINUOUS
 62
3
 10
24.305179092125201
 20
-215.120940547014470
 11
24.305179092125201
 21
-296.723011413584570
  0
LINE
  8
0
  6
DASHDOT
 62
4
 10
-36.547888637353026
 20
-176.620940547013790
 11
-313.805069387890400
 21
-176.620940547013790
  0
LINE
  8
0
  6
CONTINUOUS
 62
3
 10
43.805179092120653
 20
-249.620940547013560
 11
36.305180045794970
 21
-249.620940547013560
  0
ARC
  8
0
  6
CONTINUOUS
 62
3
 10
4.805179092120653
 20
71.052086821828880
 40
10.000000000000137
 50
91.000000000001762
 51
180.000000000000000
  0
LINE
  8
0
  6
CONTINUOUS
 62
3
 10
4.630655027747508
 20
81.050563773392923
 11
37.186961116912045
 21
81.618836210003224
  0
ARC
  8
0
  6
CONTINUOUS
 62
3
 10
4.805179092120653
 20
275.706032084143540
 40
10.000000000000028
 50
180.000000000000000
 51
268.999999999998240
  0
LINE
  8
0
  6
CONTINUOUS
 62
3
 10
4.630655027747508
 20
265.707555132579500
 11
37.186961116912045
 21
265.139282695969310
  0
LINE
  8
0
  6
CONTINUOUS
 62
3
 10
4.413771106020960
 20
30.502683072833634
 11
58.305179092120653
 21
28.391712700715061
  0
ARC
  8
0
  6
CONTINUOUS
 62
3
 10
4.805179092120653
 20
40.495020126217014
 40
10.000000000000028
 50
180.000000000000000
 51
267.756824425778010
  0
LINE
  8
0
  6
CONTINUOUS
 62
3
 10
4.413771106020960
 20
316.255435833138790
 11
58.305179092120653
 21
318.366406205257360
  0
ARC
  8
0
  6
CONTINUOUS
 62
3
 10
4.805179092120653
 20
306.263098779755410
 40
10.000000000000053
 50
92.243175574221979
 51
180.000000000000000
  0
LINE
  8
0
  6
CONTINUOUS
 62
3
 10
190.979703156493800
 20
30.707555132578591
 11
58.305179092120653
 21
28.391712700715061
  0
LINE
  8
0
  6
CONTINUOUS
 62
3
 10
190.979703156493800
 20
316.050563773393830
 11
58.305179092120653
 21
318.366406205257360
  0
LINE
  8
0
  6
CONTINUOUS
 62
3
 10
-5.194820907879375
 20
275.706032084143540
 11
-5.194820907879375
 21
306.263098779755410
  0
LINE
  8
0
  6
CONTINUOUS
 62
3
 10
55.305179092120653
 20
173.379059452986210
 11
55.305179092120653
 21
38.379059452985302
  0
LINE
  8
0
  6
CONTINUOUS
 62
3
 10
55.305179092120653
 20
173.379059452986210
 11
55.305179092120653
 21
308.379059452987120
  0
LINE
  8
0
  6
DASHDOT
 62
4
 10
27.443757635749336
 20
48.379059452985302
 11
-1.092584693225263
 21
48.379059452985302
  0
LINE
  8
0
  6
DASHDOT
 62
4
 10
27.443757635749336
 20
298.379059452987120
 11
-1.092584693225263
 21
298.379059452987120
  0
CIRCLE
  8
0
  6
CONTINUOUS
 62
3
 10
12.805179092120653
 20
48.379059452985302
 40
7.500000000000000
  0
CIRCLE
  8
0
  6
CONTINUOUS
 62
3
 10
12.805179092120653
 20
298.379059452987120
 40
7.500000000000000
  0
LINE
  8
0
  6
DASHDOT
 62
4
 10
12.805179092120653
 20
34.368574932361980
 11
12.805179092120653
 21
62.904917261336550
  0
LINE
  8
0
  6
DASHDOT
 62
4
 10
12.805179092120653
 20
312.389543973610440
 11
12.805179092120653
 21
283.853201644635870
  0
LINE
  8
0
  6
CONTINUOUS
 62
3
 10
0.805179092120625
 20
68.295984883938900
 11
30.188422311661526
 21
68.295984883938900
  0
LINE
  8
0
  6
CONTINUOUS
 62
3
 10
0.805179092120625
 20
278.462134022033520
 11
30.188422311661526
 21
278.462134022033520
  0
LINE
  8
0
  6
DASHDOT
 62
4
 10
291.635547745331450
 20
173.379059452986210
 11
-320.757869229983040
 21
173.379059452986210
  0
LINE
  8
0
  6
CONTINUOUS
 62
3
 10
-5.194820907879375
 20
71.052086821828880
 11
-5.194820907879375
 21
40.495020126217014
  0
LINE
  8
0
  6
CONTINUOUS
 62
3
 10
127.305179092120650
 20
39.635824127817386
 11
55.305179092120653
 21
38.379059452985302
  0
LINE
  8
0
  6
CONTINUOUS
 62
3
 10
127.305179092120650
 20
307.122294778155040
 11
55.305179092120653
 21
308.379059452987120
  0
LINE
  8
0
  6
CONTINUOUS
 62
3
 10
34.318491024234419
 20
257.403834894615330
 11
26.200507179639118
 21
256.978389389065110
  0
ARC
  8
0
  6
CONTINUOUS
 62
3
 10
40.805179092120426
 20
279.421019561436200
 40
3.000000000000123
 50
38.028903311269509
 51
80.405931773141646
  0
LINE
  8
0
  6
CONTINUOUS
 62
3
 10
28.030854902778884
 20
240.447869017341650
 11
43.618011894679313
 21
282.481997101903290
  0
ARC
  8
0
  6
CONTINUOUS
 62
3
 10
40.805179092120426
 20
283.525055884929540
 40
2.999999999999916
 50
339.654138359445990
 51
0.000000000000000
  0
ARC
  8
0
  6
CONTINUOUS
 62
3
 10
25.218022100219997
 20
241.490927800367900
 40
3.000000000000227
 50
270.000000000000000
 51
339.654138359445990
  0
LINE
  8
0
  6
CONTINUOUS
 62
3
 10
28.030854902778884
 20
233.839749840223020
 11
42.059732035533017
 21
233.839749840223020
  0
ARC
  8
0
  6
CONTINUOUS
 62
3
 10
25.218022100219997
 20
236.839749840223250
 40
3.000000000000227
 50
270.000000000000000
 51
339.654138359445990
  0
LINE
  8
0
  6
CONTINUOUS
 62
3
 10
28.030854902778884
 20
235.796691057196990
 11
43.618011894679313
 21
277.830819141758640
  0
ARC
  8
0
  6
CONTINUOUS
 62
3
 10
40.805179092120426
 20
278.873877924784890
 40
2.999999999999916
 50
339.654138359445990
 51
0.000000000000000
  0
LINE
  8
0
  6
CONTINUOUS
 62
3
 10
22.305179092107466
 20
190.379059452987350
 11
22.305179092127929
 21
256.879059452986210
  0
LINE
  8
0
  6
CONTINUOUS
 62
3
 10
22.305179092102463
 20
173.379059452986210
 11
22.305179092103600
 21
177.379059452987350
  0
LINE
  8
0
  6
CONTINUOUS
 62
3
 10
24.305179092125201
 20
190.379059452987350
 11
24.305179092125201
 21
254.981130319556310
  0
LINE
  8
0
  6
CONTINUOUS
 62
3
 10
24.305179092125201
 20
173.379059452986210
 11
24.305179092125201
 21
177.379059452987350
  0
ARC
  8
0
  6
CONTINUOUS
 62
3
 10
22.305179092124064
 20
246.379059452986440
 40
2.000000000000000
 50
270.000000000000000
 51
0.000000000000000
  0
ARC
  8
0
  6
CONTINUOUS
 62
3
 10
26.305179092125201
 20
254.981130319556310
 40
1.999999999999663
 50
93.000000000006111
 51
180.000000000000000
  0
LINE
  8
0
  6
CONTINUOUS
 62
3
 10
38.805179092120426
 20
287.879059452986210
 11
38.805179092120426
 21
285.337099344536230
  0
LINE
  8
0
  6
CONTINUOUS
 62
3
 10
38.805179092120426
 20
306.379059452986210
 11
38.805179092120426
 21
300.879059452986210
  0
LINE
  8
0
  6
CONTINUOUS
 62
3
 10
27.305179092117015
 20
173.379059452986210
 11
27.305179092117015
 21
193.879059452986210
  0
LINE
  8
0
  6
CONTINUOUS
 62
3
 10
31.805179092120653
 20
193.879059452986210
 11
27.305179092117015
 21
193.879059452986210
  0
LINE
  8
0
  6
CONTINUOUS
 62
3
 10
31.805179092120653
 20
173.379059452986210
 11
31.805179092120653
 21
193.879059452986210
  0
ARC
  8
0
  6
CONTINUOUS
 62
3
 10
34.805179092120653
 20
191.086755437040440
 40
3.000000000000001
 50
92.000000000003652
 51
180.000000000000000
  0
LINE
  8
0
  6
CONTINUOUS
 62
3
 10
38.979676575633249
 20
194.234360734302750
 11
34.700480602012959
 21
194.084927918097720
  0
ARC
  8
0
  6
CONTINUOUS
 62
3
 10
38.805179092120653
 20
199.231314869398150
 40
4.999999999999918
 50
272.000000000001080
 51
0.000000000000000
  0
ARC
  8
0
  6
CONTINUOUS
 62
3
 10
40.805179092120426
 20
306.379059452986210
 40
2.000000000000000
 50
90.000000000000000
 51
180.000000000000000
  0
LINE
  8
0
  6
CONTINUOUS
 62
3
 10
40.805179092120426
 20
308.379059452986210
 11
55.305179092120653
 21
308.379059452986210
  0
ARC
  8
0
  6
CONTINUOUS
 62
3
 10
41.805179092120426
 20
285.337099344536230
 40
3.000000000000000
 50
180.000000000000000
 51
260.405931773138780
  0
LINE
  8
0
  6
CONTINUOUS
 62
3
 10
43.805179092120653
 20
173.379059452986210
 11
43.805179092120426
 21
306.379059452986210
  0
LINE
  8
0
  6
CONTINUOUS
 62
3
 10
54.805179092120653
 20
173.379059452986210
 11
54.805179092120426
 21
308.379059452986210
  0
ARC
  8
0
  6
CONTINUOUS
 62
3
 10
45.805179092120426
 20
306.379059452986210
 40
2.000000000000000
 50
90.000000000000000
 51
180.000000000000000
  0
INSERT
  8
0
  2
SYM1
 10
27.305179092116333
 20
183.879059452987350
 41
-1.000000000000000
 50
180.000000000000030
  0
INSERT
  8
0
  2
SYM2
 10
43.805179092120426
 20
294.379059452986210
 41
-1.000000000000000
 50
180.000000000000030
  0
INSERT
  8
0
  2
SYM3
 10
43.805179092120653
 20
223.379059452986210
 41
-1.000000000000000
 50
180.000000000000030
  0
LINE
  8
0
  6
CONTINUOUS
 62
3
 10
34.318491024234419
 20
89.354284011357095
 11
26.200507179639118
 21
89.779729516907310
  0
ARC
  8
0
  6
CONTINUOUS
 62
3
 10
40.805179092120653
 20
67.337099344536227
 40
3.000000000000653
 50
279.594068226858330
 51
321.971096688727810
  0
LINE
  8
0
  6
CONTINUOUS
 62
3
 10
28.030854902778884
 20
106.310249888630770
 11
43.618011894679313
 21
64.276121804069135
  0
ARC
  8
0
  6
CONTINUOUS
 62
3
 10
40.805179092120653
 20
63.233063021042881
 40
3.000000000000000
 50
0.000000000000000
 51
20.345861640555512
  0
ARC
  8
0
  6
CONTINUOUS
 62
3
 10
25.218022100219997
 20
105.267191105604520
 40
2.999999999999916
 50
20.345861640554002
 51
90.000000000000000
  0
LINE
  8
0
  6
CONTINUOUS
 62
3
 10
28.030854902778884
 20
112.918369065749400
 11
42.059732035533017
 21
112.918369065749400
  0
ARC
  8
0
  6
CONTINUOUS
 62
3
 10
25.218022100219997
 20
109.918369065749170
 40
2.999999999999916
 50
20.345861640554002
 51
90.000000000000000
  0
LINE
  8
0
  6
CONTINUOUS
 62
3
 10
28.030854902778884
 20
110.961427848775420
 11
43.618011894679313
 21
68.927299764213785
  0
ARC
  8
0
  6
CONTINUOUS
 62
3
 10
40.805179092120653
 20
67.884240981187531
 40
3.000000000000000
 50
0.000000000000000
 51
20.345861640555512
  0
LINE
  8
0
  6
CONTINUOUS
 62
3
 10
22.305179092107466
 20
156.379059452985080
 11
22.305179092128157
 21
89.879059452985302
  0
LINE
  8
0
  6
CONTINUOUS
 62
3
 10
22.305179092102463
 20
173.379059452986210
 11
22.305179092103600
 21
169.379059452985080
  0
LINE
  8
0
  6
CONTINUOUS
 62
3
 10
24.305179092125201
 20
156.379059452985080
 11
24.305179092125201
 21
91.776988586416110
  0
LINE
  8
0
  6
CONTINUOUS
 62
3
 10
24.305179092125201
 20
173.379059452986210
 11
24.305179092125201
 21
169.379059452985080
  0
ARC
  8
0
  6
CONTINUOUS
 62
3
 10
22.305179092124064
 20
100.379059452985980
 40
2.000000000000000
 50
0.000000000000000
 51
90.000000000000000
  0
ARC
  8
0
  6
CONTINUOUS
 62
3
 10
26.305179092125201
 20
91.776988586416110
 40
2.000000000000000
 50
180.000000000000000
 51
266.999999999993860
  0
LINE
  8
0
  6
CONTINUOUS
 62
3
 10
38.805179092120653
 20
58.879059452986212
 11
38.805179092120653
 21
61.421019561436196
  0
LINE
  8
0
  6
CONTINUOUS
 62
3
 10
38.805179092120653
 20
40.379059452986212
 11
38.805179092120653
 21
45.879059452986212
  0
LINE
  8
0
  6
CONTINUOUS
 62
3
 10
27.305179092117015
 20
173.379059452986210
 11
27.305179092117015
 21
152.879059452986210
  0
LINE
  8
0
  6
CONTINUOUS
 62
3
 10
31.805179092120653
 20
152.879059452986210
 11
27.305179092117015
 21
152.879059452986210
  0
LINE
  8
0
  6
CONTINUOUS
 62
3
 10
31.805179092120653
 20
173.379059452986210
 11
31.805179092120653
 21
152.879059452986210
  0
ARC
  8
0
  6
CONTINUOUS
 62
3
 10
34.805179092120653
 20
155.671363468931990
 40
3.000000000000000
 50
180.000000000000000
 51
267.999999999996360
  0
LINE
  8
0
  6
CONTINUOUS
 62
3
 10
38.979676575633249
 20
152.523758171669670
 11
34.700480602012959
 21
152.673190987874700
  0
ARC
  8
0
  6
CONTINUOUS
 62
3
 10
38.805179092120653
 20
147.526804036574280
 40
5.000000000000000
 50
0.000000000000000
 51
87.999999999998934
  0
ARC
  8
0
  6
CONTINUOUS
 62
3
 10
40.805179092120653
 20
40.379059452986212
 40
2.000000000000000
 50
180.000000000000000
 51
270.000000000000000
  0
LINE
  8
0
  6
CONTINUOUS
 62
3
 10
40.805179092120653
 20
38.379059452986212
 11
55.305179092120653
 21
38.379059452986212
  0
ARC
  8
0
  6
CONTINUOUS
 62
3
 10
41.805179092120653
 20
61.421019561436196
 40
2.999999999999756
 50
99.594068226861253
 51
180.000000000000000
  0
LINE
  8
0
  6
CONTINUOUS
 62
3
 10
43.805179092120653
 20
173.379059452986210
 11
43.805179092120653
 21
40.379059452986212
  0
LINE
  8
0
  6
CONTINUOUS
 62
3
 10
54.805179092120653
 20
173.379059452986210
 11
54.805179092120653
 21
38.379059452986212
  0
ARC
  8
0
  6
CONTINUOUS
 62
3
 10
45.805179092120653
 20
40.379059452986212
 40
2.000000000000000
 50
180.000000000000000
 51
270.000000000000000
  0
INSERT
  8
0
  2
SYM4
 10
27.305179092116333
 20
162.879059452985080
  0
INSERT
  8
0
  2
SYM5
 10
43.805179092120653
 20
52.379059452986212
  0
INSERT
  8
0
  2
SYM6
 10
43.805179092120653
 20
123.379059452986210
  0
ARC
  8
0
  6
CONTINUOUS
 62
3
 10
15.305179092102009
 20
253.879059452986210
 40
3.000000000000000
 50
90.000000000000000
 51
180.000000000000000
  0
LINE
  8
0
  6
CONTINUOUS
 62
3
 10
12.305179092102009
 20
253.879059452986210
 11
12.305179092102009
 21
93.125333472324883
  0
ARC
  8
0
  6
CONTINUOUS
 62
3
 10
15.305179092102009
 20
93.125333472324883
 40
3.000000000000000
 50
180.000000000000000
 51
268.000000000000680
  0
ARC
  8
0
  6
CONTINUOUS
 62
3
 10
7.305179092102009
 20
237.879059452986210
 40
5.000000000000009
 50
307.828636848032320
 51
0.000000000000000
  0
LINE
  8
0
  6
CONTINUOUS
 62
3
 10
-49.194820907898020
 20
232.879059452986210
 11
8.305204477951094
 21
232.879059452986210
  0
LINE
  8
0
  6
CONTINUOUS
 62
3
 10
-49.194820907898020
 20
113.879059452986210
 11
8.304706523250644
 21
113.879059452986210
  0
ARC
  8
0
  6
CONTINUOUS
 62
3
 10
7.305179092102009
 20
108.879059452986210
 40
5.000000000000000
 50
0.000000000000000
 51
52.171363151966126
  0
LINE
  8
0
  6
CONTINUOUS
 62
3
 10
15.305179092102009
 20
256.879059452986210
 11
22.305179092127929
 21
256.879059452986210
  0
LINE
  8
0
  6
CONTINUOUS
 62
3
 10
15.200480601994769
 20
90.127160991267601
 11
22.305179092128157
 21
89.879059452985302
  0
INSERT
  8
0
  2
SYM7
 10
12.305179092102009
 20
228.179834994943580
  0
INSERT
  8
0
  2
SYM8
 10
12.305179092102009
 20
118.578283911028840
  0
LINE
  8
0
  6
CONTINUOUS
 62
3
 10
-49.194820907898020
 20
113.879059452986210
 11
-49.194820907898020
 21
173.379059452986210
  0
LINE
  8
0
  6
CONTINUOUS
 62
3
 10
-49.194820907898020
 20
232.879059452985980
 11
-49.194820907898020
 21
173.379059452986210
  0
INSERT
  8
0
  2
SYM9
 10
12.305179092102463
 20
-269.921716088971830
  0
INSERT
  8
0
  2
SYM10
 10
43.805179092120653
 20
-243.120940547013560
  0
INSERT
  8
0
  2
SYM11
 10
12.305179092102463
 20
-160.320165005057110
  0
INSERT
  8
0
  2
SYM12
 10
43.805179092120767
 20
-153.120941359907080
  0
INSERT
  8
0
  2
SYM13
 10
43.805179092120653
 20
-84.120941359907192
  0
INSERT
  8
0
  2
SYM14
 10
27.305179092117015
 20
-83.120940547015380
  0
ARC
  8
0
  6
CONTINUOUS
 62
3
 10
45.805179092120653
 20
-72.120940547014470
 40
2.000000000000000
 50
90.000000000000000
 51
180.000000000000000
  0
ARC
  8
0
  6
CONTINUOUS
 62
3
 10
41.805179092120653
 20
-212.120940547012650
 40
2.999999999999756
 50
99.594068226861253
 51
180.000000000000000
  0
ARC
  8
0
  6
CONTINUOUS
 62
3
 10
41.805179092120653
 20
-226.120940547012650
 40
3.000000000000000
 50
180.000000000000000
 51
260.405931773138780
  0
ARC
  8
0
  6
CONTINUOUS
 62
3
 10
40.805179092120653
 20
-206.204860763912620
 40
3.000000000000653
 50
279.594068226858330
 51
0.000000000000000
  0
ARC
  8
0
  6
CONTINUOUS
 62
3
 10
40.805179092120653
 20
-232.037020330111770
 40
3.000000000000000
 50
0.000000000000000
 51
80.405931773138747
  0
ARC
  8
0
  6
CONTINUOUS
 62
3
 10
38.805179092120653
 20
-304.387715076607490
 40
5.000000000000000
 50
0.000000000000000
 51
87.000000000004846
  0
ARC
  8
0
  6
CONTINUOUS
 62
3
 10
22.305179092125201
 20
-291.120940547013560
 40
2.000000000000000
 50
0.000000000000000
 51
90.000000000000000
  0
ARC
  8
0
  6
CONTINUOUS
 62
3
 10
26.305179092125201
 20
-296.723011413584570
 40
2.000000000000000
 50
180.000000000000000
 51
266.999999999993860
  0
ARC
  8
0
  6
CONTINUOUS
 62
3
 10
22.305179092125201
 20
-139.120940547014470
 40
2.000000000000000
 50
270.000000000000000
 51
0.000000000000000
  0
ARC
  8
0
  6
CONTINUOUS
 62
3
 10
38.805179092120653
 20
-125.854166017420530
 40
5.000000000000018
 50
272.999999999995110
 51
0.000000000000000
  0
ARC
  8
0
  6
CONTINUOUS
 62
3
 10
30.805179092120653
 20
-126.273428251684890
 40
5.000000000000018
 50
272.999999999995110
 51
0.000000000000000
  0
ARC
  8
0
  6
CONTINUOUS
 62
3
 10
26.305179092121563
 20
-133.518869680443460
 40
1.999999999999663
 50
93.000000000006111
 51
180.000000000000000
  0
ARC
  8
0
  6
CONTINUOUS
 62
3
 10
34.805179092120653
 20
-92.120940547014470
 40
3.000000000000000
 50
180.000000000000000
 51
270.000000000000000
  0
ARC
  8
0
  6
CONTINUOUS
 62
3
 10
32.805179092120653
 20
-97.777794796505987
 40
3.000000000000000
 50
0.000000000000000
 51
70.528779365506566
  0
ARC
  8
0
  6
CONTINUOUS
 62
3
 10
38.805179092120653
 20
-100.120940547014470
 40
5.000000000000000
 50
0.000000000000000
 51
90.000000000000000
  0
ARC
  8
0
  6
CONTINUOUS
 62
3
 10
33.805179092120653
 20
-72.120940547014470
 40
2.000000000000000
 50
90.000000000000000
 51
180.000000000000000
  0
ARC
  8
0
  6
CONTINUOUS
 62
3
 10
36.805179092120653
 20
-306.256168376355160
 40
5.000000000000000
 50
180.000000000000000
 51
267.000000000004890
  0
ARC
  8
0
  6
CONTINUOUS
 62
3
 10
38.805179092120653
 20
-316.374707394900720
 40
5.000000000000159
 50
45.287618500673872
 51
87.000000000004846
  0
ARC
  8
0
  6
CONTINUOUS
 62
3
 10
28.805179092120653
 20
-301.860892591781520
 40
3.000000000000000
 50
0.000000000000000
 51
86.999999999994799
  0
ARC
  8
0
  6
CONTINUOUS
 62
3
 10
56.305179092120653
 20
-287.711960783812170
 40
1.999999999999625
 50
326.898306520914790
 51
0.000000000000000
  0
ARC
  8
0
  6
CONTINUOUS
 62
3
 10
34.391949505836038
 20
-314.000307980232720
 40
6.000000000000744
 50
274.480855207353900
 51
326.898306520919500
  0
ARC
  8
0
  6
CONTINUOUS
 62
3
 10
56.305179092120653
 20
-235.155981012584560
 40
2.000000000000000
 50
0.000000000000000
 51
90.000000000000000
  0
ARC
  8
0
  6
CONTINUOUS
 62
3
 10
-1.194820907879375
 20
-326.819742027625580
 40
3.999999999999263
 50
94.480855207350956
 51
180.000000000000000
  0
LINE
  8
0
  6
CONTINUOUS
 62
3
 10
33.805179092120653
 20
-70.120940547014470
 11
55.305179092120653
 21
-70.120940547014470
  0
LINE
  8
0
  6
CONTINUOUS
 62
3
 10
54.805179092120653
 20
-215.120940547014470
 11
54.805179092120653
 21
-70.120940547014470
  0
LINE
  8
0
  6
CONTINUOUS
 62
3
 10
38.805179092120653
 20
-212.120940547012650
 11
38.805179092120653
 21
-219.120940547012650
  0
LINE
  8
0
  6
CONTINUOUS
 62
3
 10
38.805179092120653
 20
-226.120940547012650
 11
38.805179092120653
 21
-219.120940547012650
  0
LINE
  8
0
  6
CONTINUOUS
 62
3
 10
54.805179092120653
 20
-215.120940547014470
 11
54.805179092120653
 21
-293.674961196245930
  0
LINE
  8
0
  6
CONTINUOUS
 62
3
 10
39.066858873334951
 20
-299.394567402834580
 11
26.200507179639118
 21
-298.720270483093370
  0
LINE
  8
0
  6
CONTINUOUS
 62
3
 10
39.066858873334951
 20
-130.847313691193450
 11
26.200507179635480
 21
-131.521610610934660
  0
LINE
  8
0
  6
CONTINUOUS
 62
3
 10
35.805179092120653
 20
-126.273428251684890
 11
35.805179092120653
 21
-97.777794796505987
  0
LINE
  8
0
  6
CONTINUOUS
 62
3
 10
34.805179092120653
 20
-95.120940547014470
 11
38.805179092120653
 21
-95.120940547014470
  0
LINE
  8
0
  6
CONTINUOUS
 62
3
 10
31.805179092120653
 20
-92.120940547014470
 11
31.805179092120653
 21
-72.120940547014470
  0
LINE
  8
0
  6
CONTINUOUS
 62
3
 10
24.305179092121563
 20
-215.120940547014470
 11
24.305179092121563
 21
-133.518869680443460
  0
LINE
  8
0
  6
CONTINUOUS
 62
3
 10
27.305179092117015
 20
-93.120940547015380
 11
31.805179092117015
 21
-93.120940547015380
  0
LINE
  8
0
  6
DASHDOT
 62
4
 10
21.574931691306830
 20
-55.120940547015380
 11
39.674197706598335
 21
-55.120940547015380
  0
LINE
  8
0
  6
CONTINUOUS
 62
3
 10
31.805179092120653
 20
-35.120940547015380
 11
31.805179092120653
 21
-93.120940547015380
  0
LINE
  8
0
  6
CONTINUOUS
 62
3
 10
27.305179092120653
 20
-35.120940547015380
 11
31.805179092120653
 21
-35.120940547015380
  0
LINE
  8
0
  6
CONTINUOUS
 62
3
 10
27.305179092117015
 20
-93.120940547015380
 11
27.305179092120653
 21
-35.120940547015380
  0
LINE
  8
0
  6
CONTINUOUS
 62
3
 10
36.543499310906356
 20
-311.249316050128070
 11
39.066858873334951
 21
-311.381559721127810
  0
LINE
  8
0
  6
CONTINUOUS
 62
3
 10
31.805179092120653
 20
-301.860892591781520
 11
31.805179092120653
 21
-306.256168376355160
  0
LINE
  8
0
  6
CONTINUOUS
 62
3
 10
57.980584242591959
 20
-288.804214225909160
 11
39.418164957250866
 21
-317.277068306523690
  0
LINE
  8
0
  6
CONTINUOUS
 62
3
 10
55.305179092120653
 20
-233.155981012584560
 11
56.305179092120653
 21
-233.155981012584560
  0
LINE
  8
0
  6
CONTINUOUS
 62
3
 10
-1.507324834794645
 20
-322.831968050121760
 11
34.805179092120653
 21
-319.986320293424800
  0
LINE
  8
0
  6
CONTINUOUS
 62
3
 10
58.305179092120653
 20
-235.155981012584560
 11
58.305179092120653
 21
-287.711960783812170
  0
LINE
  8
0
  6
CONTINUOUS
 62
3
 10
127.305179092120650
 20
-71.377705221846554
 11
55.305179092120653
 21
-70.120940547014470
  0
LINE
  8
0
  6
CONTINUOUS
 62
3
 10
55.305179092120653
 20
-175.120940547014470
 11
55.305179092120653
 21
-292.908012296888960
  0
LINE
  8
0
  6
CONTINUOUS
 62
3
 10
-5.194820907879375
 20
-326.819742027625580
 11
-5.194820907879375
 21
-345.120940547014470
  0
LINE
  8
0
  6
CONTINUOUS
 62
3
 10
55.305179092120653
 20
-175.120940547014470
 11
55.305179092120653
 21
-70.120940547014470
  0
LINE
  8
0
  6
DASHDOT
 62
4
 10
12.805179092120653
 20
-315.382730670000460
 11
12.805179092120653
 21
-351.907972941423400
  0
LINE
  8
0
  6
CONTINUOUS
 62
3
 10
34.805179092120653
 20
-319.986320293424800
 11
58.305179092121108
 21
-318.144730894441640
  0
LINE
  8
0
  6
CONTINUOUS
 62
3
 10
160.805179092120650
 20
-321.724109767344090
 11
58.305179092120653
 21
-318.144730894440730
  0
ARC
  8
0
  6
CONTINUOUS
 62
4
 10
-486.249031860023360
 20
-417.220940547013700
 40
289.396999999999930
 50
90.000000000000000
 51
97.897988672427743
  0
ARC
  8
0
  6
CONTINUOUS
 62
4
 10
-525.190549815405460
 20
-136.512163006427040
 40
5.999999999999923
 50
97.897988672425626
 51
134.999999999996930
  0
LINE
  8
0
  6
CONTINUOUS
 62
4
 10
-529.433190502524550
 20
-132.269522319307500
 11
-534.009255895163160
 21
-136.845587711946110
  0
ARC
  8
0
  6
CONTINUOUS
 62
4
 10
-250.649031860023460
 20
-176.620940547013790
 40
289.396999999999930
 50
173.948014641331470
 51
180.000000000000000
  0
ARC
  8
0
  6
CONTINUOUS
 62
3
 10
-530.197619290305850
 20
-126.524326079485490
 40
6.599999999999971
 50
98.597082237248614
 51
134.999999999998610
  0
ARC
  8
0
  6
CONTINUOUS
 62
3
 10
-490.249031860023360
 20
-147.898127314323350
 40
1.499999999999998
 50
277.928141766204020
 51
0.000000000000000
  0
ARC
  8
0
  6
CONTINUOUS
 62
3
 10
-486.249031860022910
 20
-176.620940547013790
 40
33.499999999999950
 50
97.180755781459069
 51
142.819244218541740
  0
ARC
  8
0
  6
CONTINUOUS
 62
3
 10
-486.249031860022910
 20
-176.620940547013790
 40
43.000000000000043
 50
95.531071524839788
 51
144.468928475160770
  0
ARC
  8
0
  6
CONTINUOUS
 62
3
 10
-486.249031860022910
 20
-176.620940547013790
 40
37.000000000000099
 50
95.963570118321798
 51
144.036429881678830
  0
ARC
  8
0
  6
CONTINUOUS
 62
3
 10
-509.123717787689090
 20
-158.795432315530660
 40
1.499999999999926
 50
239.999999999998410
 51
322.071858233800300
  0
ARC
  8
0
  6
CONTINUOUS
 62
3
 10
-511.744486029757920
 20
-157.282331065488510
 40
1.500000000000103
 50
142.819244218542510
 51
239.999999999998410
  0
ARC
  8
0
  6
CONTINUOUS
 62
3
 10
-517.410568314174160
 20
-154.011016933330210
 40
1.500000000000123
 50
240.000000000002730
 51
324.036429881683720
  0
LINE
  8
0
  6
CONTINUOUS
 62
3
 10
-509.873717787689090
 20
-160.094470421207230
 11
-512.494486029757920
 21
-158.581369171165080
  0
LINE
  8
0
  6
CONTINUOUS
 62
3
 10
-518.160568314174160
 20
-155.310055039007010
 11
-520.771751913158250
 21
-153.802487485229900
  0
ARC
  8
0
  6
CONTINUOUS
 62
3
 10
-520.021751913158250
 20
-152.503449379553100
 40
1.499999999999976
 50
144.468928475160790
 51
240.000000000002730
  0
ARC
  8
0
  6
CONTINUOUS
 62
3
 10
-515.744486029758380
 20
-189.031346798263480
 40
1.500000000000157
 50
202.819244218546660
 51
300.000000000001590
  0
LINE
  8
0
  6
CONTINUOUS
 62
3
 10
-514.994486029758380
 20
-190.330384903940060
 11
-512.373717787689090
 21
-188.817283653898130
  0
ARC
  8
0
  6
CONTINUOUS
 62
3
 10
-521.410568314174610
 20
-192.302660930421780
 40
1.499999999999926
 50
300.000000000001590
 51
24.036429881677126
  0
LINE
  8
0
  6
CONTINUOUS
 62
3
 10
-523.271751913158710
 20
-195.109266589875690
 11
-520.660568314174610
 21
-193.601699036098350
  0
ARC
  8
0
  6
CONTINUOUS
 62
3
 10
-524.021751913158710
 20
-193.810228484198660
 40
1.500000000000128
 50
204.468928475167470
 51
299.999999999992950
  0
ARC
  8
0
  6
CONTINUOUS
 62
3
 10
-513.123717787689090
 20
-187.518245548221100
 40
1.500000000000320
 50
299.999999999992950
 51
22.071858233784546
  0
ARC
  8
0
  6
CONTINUOUS
 62
3
 10
-486.249031860023140
 20
-176.620940547014240
 40
33.499999999999794
 50
157.180755781458400
 51
202.819244218540940
  0
ARC
  8
0
  6
CONTINUOUS
 62
3
 10
-486.249031860023140
 20
-176.620940547014240
 40
43.000000000000121
 50
155.531071524839230
 51
204.468928475160200
  0
ARC
  8
0
  6
CONTINUOUS
 62
3
 10
-486.249031860023140
 20
-176.620940547014240
 40
37.000000000000156
 50
155.963570118321120
 51
204.036429881678230
  0
ARC
  8
0
  6
CONTINUOUS
 62
3
 10
-486.249031860023820
 20
-176.620940547013790
 40
27.499999999999886
 50
157.928141766202200
 51
202.071858233798680
  0
ARC
  8
0
  6
CONTINUOUS
 62
3
 10
-513.123717787689320
 20
-165.723635545806470
 40
1.500000000000110
 50
337.928141766202600
 51
59.999999999998380
  0
ARC
  8
0
  6
CONTINUOUS
 62
3
 10
-515.744486029758150
 20
-164.210534295764550
 40
1.500000000000123
 50
60.000000000002721
 51
157.180755781457980
  0
ARC
  8
0
  6
CONTINUOUS
 62
3
 10
-521.410568314174380
 20
-160.939220163606250
 40
1.499999999999855
 50
335.963570118319300
 51
59.999999999990862
  0
LINE
  8
0
  6
CONTINUOUS
 62
3
 10
-512.373717787689320
 20
-164.424597440129900
 11
-514.994486029758150
 21
-162.911496190087750
  0
LINE
  8
0
  6
CONTINUOUS
 62
3
 10
-520.660568314174160
 20
-159.640182057929680
 11
-523.271751913158710
 21
-158.132614504152570
  0
ARC
  8
0
  6
CONTINUOUS
 62
3
 10
-524.021751913158710
 20
-159.431652609829140
 40
1.499999999999926
 50
59.999999999998380
 51
155.531071524840400
  0
ARC
  8
0
  6
CONTINUOUS
 62
3
 10
-511.744486029758380
 20
-195.959550028538840
 40
1.499999999999926
 50
120.000000000001620
 51
217.180755781464400
  0
LINE
  8
0
  6
CONTINUOUS
 62
3
 10
-512.494486029758380
 20
-194.660511922862270
 11
-509.873717787689090
 21
-193.147410672819890
  0
ARC
  8
0
  6
CONTINUOUS
 62
3
 10
-517.410568314174610
 20
-199.230864160697140
 40
1.499999999999968
 50
35.963570118309242
 51
120.000000000001620
  0
LINE
  8
0
  6
CONTINUOUS
 62
3
 10
-520.771751913158710
 20
-199.439393608797900
 11
-518.160568314174610
 21
-197.931826055020570
  0
ARC
  8
0
  6
CONTINUOUS
 62
3
 10
-520.021751913158710
 20
-200.738431714474470
 40
1.499999999999926
 50
120.000000000001620
 51
215.531071524832130
  0
ARC
  8
0
  6
CONTINUOUS
 62
3
 10
-509.123717787689090
 20
-194.446448778496920
 40
1.500000000000122
 50
37.928141766218701
 51
119.999999999992930
  0
ARC
  8
0
  6
CONTINUOUS
 62
3
 10
-486.249031860023590
 20
-176.620940547013330
 40
33.500000000000163
 50
217.180755781459110
 51
262.819244218541770
  0
ARC
  8
0
  6
CONTINUOUS
 62
3
 10
-486.249031860023590
 20
-176.620940547013330
 40
42.999999999999858
 50
215.531071524839690
 51
264.468928475160850
  0
ARC
  8
0
  6
CONTINUOUS
 62
3
 10
-486.249031860023590
 20
-176.620940547013330
 40
37.000000000000021
 50
215.963570118321970
 51
264.036429881678940
  0
ARC
  8
0
  6
CONTINUOUS
 62
3
 10
-486.249031860023590
 20
-176.620940547014240
 40
27.499999999999780
 50
217.928141766201070
 51
262.071858233797400
  0
ARC
  8
0
  6
CONTINUOUS
 62
3
 10
-490.249031860023590
 20
-205.343753779704230
 40
1.500000000000000
 50
0.000000000000000
 51
82.071858233804562
  0
ARC
  8
0
  6
CONTINUOUS
 62
3
 10
-490.249031860023590
 20
-208.369956279788540
 40
1.499999999999998
 50
262.819244218541710
 51
0.000000000000000
  0
ARC
  8
0
  6
CONTINUOUS
 62
3
 10
-490.249031860023590
 20
-214.912584544105130
 40
1.500000000000000
 50
0.000000000017370
 51
84.036429881682594
  0
LINE
  8
0
  6
CONTINUOUS
 62
3
 10
-488.749031860023590
 20
-205.343753779704230
 11
-488.749031860023590
 21
-208.369956279788540
  0
LINE
  8
0
  6
CONTINUOUS
 62
3
 10
-488.749031860023590
 20
-214.912584544104670
 11
-488.749031860023590
 21
-217.927719651658890
  0
ARC
  8
0
  6
CONTINUOUS
 62
3
 10
-490.249031860023590
 20
-217.927719651658890
 40
1.500000000000430
 50
264.468928475160000
 51
0.000000000000000
  0
ARC
  8
0
  6
CONTINUOUS
 62
3
 10
-460.753577690288350
 20
-195.959550028538840
 40
1.500000000000240
 50
322.819244218535570
 51
59.999999999998380
  0
LINE
  8
0
  6
CONTINUOUS
 62
3
 10
-460.003577690288350
 20
-194.660511922862270
 11
-462.624345932357640
 21
-193.147410672819890
  0
ARC
  8
0
  6
CONTINUOUS
 62
3
 10
-455.087495405872120
 20
-199.230864160697140
 40
1.499999999999926
 50
59.999999999998380
 51
144.036429881690740
  0
ARC
  8
0
  6
CONTINUOUS
 62
3
 10
-463.374345932357640
 20
-194.446448778496920
 40
1.500000000000320
 50
60.000000000007070
 51
142.071858233781280
  0
ARC
  8
0
  6
CONTINUOUS
 62
3
 10
-486.249031860023140
 20
-176.620940547013330
 40
33.500000000000114
 50
277.180755781458230
 51
322.819244218540860
  0
ARC
  8
0
  6
CONTINUOUS
 62
3
 10
-486.249031860023140
 20
-176.620940547013330
 40
43.000000000000199
 50
275.531071524838860
 51
324.468928475160340
  0
ARC
  8
0
  6
CONTINUOUS
 62
3
 10
-486.249031860023140
 20
-176.620940547013330
 40
37.000000000000028
 50
275.963570118320770
 51
324.036429881678030
  0
ARC
  8
0
  6
CONTINUOUS
 62
3
 10
-486.249031860023140
 20
-176.620940547014240
 40
27.499999999999879
 50
277.928141766202600
 51
322.071858233798930
  0
ARC
  8
0
  6
CONTINUOUS
 62
3
 10
-482.249031860023140
 20
-205.343753779704230
 40
1.499999999999967
 50
97.928141766195438
 51
180.000000000000000
  0
ARC
  8
0
  6
CONTINUOUS
 62
3
 10
-482.249031860023140
 20
-208.369956279788540
 40
1.500000000000000
 50
180.000000000000000
 51
277.180755781458290
  0
ARC
  8
0
  6
CONTINUOUS
 62
3
 10
-482.249031860023140
 20
-214.912584544105130
 40
1.500000000000182
 50
95.963570118326047
 51
179.999999999982630
  0
LINE
  8
0
  6
CONTINUOUS
 62
3
 10
-483.749031860023140
 20
-205.343753779704230
 11
-483.749031860023140
 21
-208.369956279788540
  0
LINE
  8
0
  6
CONTINUOUS
 62
3
 10
-483.749031860023140
 20
-214.912584544104670
 11
-483.749031860023140
 21
-217.927719651658890
  0
ARC
  8
0
  6
CONTINUOUS
 62
3
 10
-482.249031860023140
 20
-217.927719651658890
 40
1.500000000000000
 50
180.000000000000000
 51
275.531071524831360
  0
ARC
  8
0
  6
CONTINUOUS
 62
3
 10
-456.753577690288350
 20
-189.031346798263480
 40
1.499999999999926
 50
239.999999999998410
 51
337.180755781453340
  0
LINE
  8
0
  6
CONTINUOUS
 62
3
 10
-457.503577690288350
 20
-190.330384903940060
 11
-460.124345932357640
 21
-188.817283653898130
  0
ARC
  8
0
  6
CONTINUOUS
 62
3
 10
-459.374345932357640
 20
-187.518245548221100
 40
1.499999999999899
 50
157.928141766199360
 51
240.000000000007050
  0
ARC
  8
0
  6
CONTINUOUS
 62
3
 10
-486.249031860023590
 20
-176.620940547014240
 40
33.500000000000128
 50
337.180755781459030
 51
22.819244218541968
  0
ARC
  8
0
  6
CONTINUOUS
 62
3
 10
-486.249031860022910
 20
-176.620940547013790
 40
27.499999999999886
 50
337.928141766202200
 51
22.071858233797812
  0
ARC
  8
0
  6
CONTINUOUS
 62
3
 10
-459.374345932357410
 20
-165.723635545806470
 40
1.499999999999926
 50
120.000000000001620
 51
202.071858233797370
  0
ARC
  8
0
  6
CONTINUOUS
 62
3
 10
-456.753577690288580
 20
-164.210534295764550
 40
1.499999999999948
 50
22.819244218550043
 51
119.999999999997270
  0
LINE
  8
0
  6
CONTINUOUS
 62
3
 10
-460.124345932357410
 20
-164.424597440129900
 11
-457.503577690288580
 21
-162.911496190087750
  0
ARC
  8
0
  6
CONTINUOUS
 62
3
 10
-486.249031860023820
 20
-176.620940547013790
 40
33.500000000000071
 50
37.180755781458259
 51
82.819244218540931
  0
ARC
  8
0
  6
CONTINUOUS
 62
3
 10
-486.249031860023820
 20
-176.620940547013790
 40
36.999999999999943
 50
35.963570118321194
 51
84.036429881678174
  0
ARC
  8
0
  6
CONTINUOUS
 62
3
 10
-455.087495405872570
 20
-154.011016933330210
 40
1.500000000000102
 50
215.963570118316280
 51
299.999999999997270
  0
ARC
  8
0
  6
CONTINUOUS
 62
3
 10
-460.753577690288810
 20
-157.282331065488510
 40
1.499999999999926
 50
300.000000000001590
 51
37.180755781457485
  0
ARC
  8
0
  6
CONTINUOUS
 62
3
 10
-486.249031860023140
 20
-176.620940547013330
 40
27.500000000000060
 50
37.928141766201819
 51
82.071858233798309
  0
ARC
  8
0
  6
CONTINUOUS
 62
3
 10
-482.249031860023360
 20
-147.898127314323350
 40
1.500000000000000
 50
180.000000000000000
 51
262.071858233795980
  0
LINE
  8
0
  6
CONTINUOUS
 62
3
 10
-462.624345932357640
 20
-160.094470421207230
 11
-460.003577690288810
 21
-158.581369171165080
  0
ARC
  8
0
  6
CONTINUOUS
 62
3
 10
-463.374345932357640
 20
-158.795432315530660
 40
1.499999999999843
 50
217.928141766204990
 51
300.000000000001590
  0
CIRCLE
  8
0
  6
CONTINUOUS
 62
3
 10
-486.249031860023360
 20
-176.620940547013330
 40
5.000000000000000
  0
ARC
  8
0
  6
CONTINUOUS
 62
3
 10
-480.311777926829450
 20
-168.574263236919930
 40
1.499999999999693
 50
233.578178478195410
 51
300.000000000001590
  0
ARC
  8
0
  6
CONTINUOUS
 62
3
 10
-482.249031860023360
 20
-167.455789157101440
 40
1.500000000000000
 50
180.000000000000000
 51
246.421821521804280
  0
ARC
  8
0
  6
CONTINUOUS
 62
3
 10
-469.073852590978620
 20
-162.086044019133400
 40
1.499999999999926
 50
300.000000000001590
 51
40.240348321182964
  0
ARC
  8
0
  6
CONTINUOUS
 62
3
 10
-482.249031860023360
 20
-164.251623670160370
 40
1.500000000000138
 50
72.079786860605225
 51
180.000000000000000
  0
ARC
  8
0
  6
CONTINUOUS
 62
3
 10
-482.249031860023360
 20
-157.535605863021150
 40
1.500000000000000
 50
180.000000000000000
 51
258.162995844103310
  0
ARC
  8
0
  6
CONTINUOUS
 62
3
 10
-471.720647183957570
 20
-163.614171589879560
 40
1.499999999999967
 50
221.837004155893280
 51
300.000000000001590
  0
ARC
  8
0
  6
CONTINUOUS
 62
3
 10
-482.249031860023360
 20
-154.479350721528820
 40
1.499999999999952
 50
79.759651678814024
 51
180.000000000000000
  0
ARC
  8
0
  6
CONTINUOUS
 62
3
 10
-477.536889217209020
 20
-166.972180493449060
 40
1.499999999999926
 50
300.000000000001590
 51
47.920213139381872
  0
LINE
  8
0
  6
CONTINUOUS
 62
3
 10
-470.970647183957570
 20
-164.913209695556130
 11
-468.323852590978620
 21
-163.385082124809970
  0
ARC
  8
0
  6
CONTINUOUS
 62
3
 10
-486.249031860023140
 20
-176.620940547013330
 40
14.499999999999860
 50
47.920213139391755
 51
72.079786860608309
  0
LINE
  8
0
  6
CONTINUOUS
 62
3
 10
-483.749031860023360
 20
-164.251623670160370
 11
-483.749031860023360
 21
-167.455789157101440
  0
LINE
  8
0
  6
CONTINUOUS
 62
3
 10
-483.749031860023360
 20
-154.479350721528820
 11
-483.749031860023360
 21
-157.535605863021150
  0
LINE
  8
0
  6
CONTINUOUS
 62
3
 10
-479.561777926829450
 20
-169.873301342596510
 11
-476.786889217209020
 21
-168.271218599125630
  0
ARC
  8
0
  6
CONTINUOUS
 62
3
 10
-486.249031860023140
 20
-176.620940547013330
 40
23.999999999999819
 50
40.240348321186090
 51
79.759651678814322
  0
ARC
  8
0
  6
CONTINUOUS
 62
3
 10
-486.249031860023140
 20
-176.620940547013330
 40
8.500000000000101
 50
53.578178478202659
 51
66.421821521799089
  0
ARC
  8
0
  6
CONTINUOUS
 62
3
 10
-473.536889217209020
 20
-179.341497370302250
 40
1.499999999999926
 50
239.999999999998410
 51
347.920213139390400
  0
LINE
  8
0
  6
CONTINUOUS
 62
3
 10
-474.286889217209020
 20
-180.640535475978820
 11
-477.061777926829450
 21
-179.038452732508400
  0
ARC
  8
0
  6
CONTINUOUS
 62
3
 10
-476.311777926829450
 20
-177.739414626831830
 40
1.500000000000099
 50
173.578178478198990
 51
239.999999999998410
  0
ARC
  8
0
  6
CONTINUOUS
 62
3
 10
-486.249031860023140
 20
-176.620940547013330
 40
8.499999999999865
 50
353.578178478199500
 51
6.421821521797448
  0
ARC
  8
0
  6
CONTINUOUS
 62
3
 10
-476.311777926829450
 20
-175.502466467195290
 40
1.499999999999926
 50
120.000000000001620
 51
186.421821521801010
  0
LINE
  8
0
  6
CONTINUOUS
 62
3
 10
-477.061777926829450
 20
-174.203428361518720
 11
-474.286889217209020
 21
-172.601345618047840
  0
ARC
  8
0
  6
CONTINUOUS
 62
3
 10
-473.536889217209020
 20
-173.900383723724420
 40
1.500000000000192
 50
12.079786860592611
 51
120.000000000001620
  0
ARC
  8
0
  6
CONTINUOUS
 62
3
 10
-486.249031860023140
 20
-176.620940547013330
 40
14.500000000000169
 50
347.920213139391310
 51
12.079786860606980
  0
ARC
  8
0
  6
CONTINUOUS
 62
3
 10
-465.073852590978620
 20
-184.227633844617910
 40
1.499999999999926
 50
239.999999999998410
 51
340.240348321188210
  0
LINE
  8
0
  6
CONTINUOUS
 62
3
 10
-465.823852590978620
 20
-185.526671950294490
 11
-468.470647183957570
 21
-183.998544379548780
  0
ARC
  8
0
  6
CONTINUOUS
 62
3
 10
-467.720647183957570
 20
-182.699506273871750
 40
1.500000000000038
 50
161.837004155895410
 51
240.000000000007050
  0
ARC
  8
0
  6
CONTINUOUS
 62
3
 10
-486.249031860023140
 20
-176.620940547013330
 40
17.999999999999943
 50
341.837004155893340
 51
18.162995844106646
  0
ARC
  8
0
  6
CONTINUOUS
 62
3
 10
-467.720647183957570
 20
-170.542374820154920
 40
1.499999999999926
 50
120.000000000001620
 51
198.162995844104590
  0
LINE
  8
0
  6
CONTINUOUS
 62
3
 10
-468.470647183957570
 20
-169.243336714478350
 11
-465.823852590978620
 21
-167.715209143732180
  0
ARC
  8
0
  6
CONTINUOUS
 62
3
 10
-465.073852590978620
 20
-169.014247249408750
 40
1.500000000000246
 50
19.759651678811824
 51
120.000000000001620
  0
ARC
  8
0
  6
CONTINUOUS
 62
3
 10
-486.249031860023140
 20
-176.620940547013330
 40
24.000000000000139
 50
340.240348321186050
 51
19.759651678813924
  0
ARC
  8
0
  6
CONTINUOUS
 62
3
 10
-498.961174502837710
 20
-179.341497370302250
 40
1.500000000000287
 50
192.079786860609600
 51
300.000000000001590
  0
LINE
  8
0
  6
CONTINUOUS
 62
3
 10
-498.211174502837710
 20
-180.640535475978820
 11
-495.436285793217280
 21
-179.038452732508400
  0
ARC
  8
0
  6
CONTINUOUS
 62
3
 10
-496.186285793217280
 20
-177.739414626831830
 40
1.499999999999926
 50
300.000000000001590
 51
6.421821521801967
  0
ARC
  8
0
  6
CONTINUOUS
 62
3
 10
-486.249031860023820
 20
-176.620940547013330
 40
8.499999999999813
 50
173.578178478202550
 51
186.421821521800500
  0
ARC
  8
0
  6
CONTINUOUS
 62
3
 10
-496.186285793217280
 20
-175.502466467195290
 40
1.499999999999873
 50
353.578178478198030
 51
59.999999999998380
  0
LINE
  8
0
  6
CONTINUOUS
 62
3
 10
-495.436285793217280
 20
-174.203428361518720
 11
-498.211174502837930
 21
-172.601345618047840
  0
ARC
  8
0
  6
CONTINUOUS
 62
3
 10
-498.961174502837930
 20
-173.900383723724420
 40
1.499999999999926
 50
59.999999999998380
 51
167.920213139405550
  0
ARC
  8
0
  6
CONTINUOUS
 62
3
 10
-486.249031860023820
 20
-176.620940547013330
 40
14.499999999999851
 50
167.920213139392840
 51
192.079786860608920
  0
ARC
  8
0
  6
CONTINUOUS
 62
3
 10
-507.424211129068110
 20
-184.227633844617910
 40
1.500000000000246
 50
199.759651678811820
 51
300.000000000001590
  0
LINE
  8
0
  6
CONTINUOUS
 62
3
 10
-506.674211129068110
 20
-185.526671950294490
 11
-504.027416536089160
 21
-183.998544379548780
  0
ARC
  8
0
  6
CONTINUOUS
 62
3
 10
-504.777416536089160
 20
-182.699506273871750
 40
1.500000000000320
 50
299.999999999992950
 51
18.162995844104589
  0
ARC
  8
0
  6
CONTINUOUS
 62
3
 10
-486.249031860023820
 20
-176.620940547013330
 40
17.999999999999726
 50
161.837004155893140
 51
198.162995844106860
  0
ARC
  8
0
  6
CONTINUOUS
 62
3
 10
-504.777416536089160
 20
-170.542374820154920
 40
1.500000000000038
 50
341.837004155895390
 51
59.999999999998380
  0
LINE
  8
0
  6
CONTINUOUS
 62
3
 10
-504.027416536089160
 20
-169.243336714478350
 11
-506.674211129068340
 21
-167.715209143732180
  0
ARC
  8
0
  6
CONTINUOUS
 62
3
 10
-507.424211129068340
 20
-169.014247249408750
 40
1.499999999999926
 50
59.999999999998380
 51
160.240348321185250
  0
ARC
  8
0
  6
CONTINUOUS
 62
3
 10
-486.249031860023820
 20
-176.620940547013330
 40
23.999999999999925
 50
160.240348321185910
 51
199.759651678814090
  0
ARC
  8
0
  6
CONTINUOUS
 62
3
 10
-494.961174502837710
 20
-186.269700600578060
 40
1.500000000000320
 50
119.999999999992930
 51
227.920213139381870
  0
LINE
  8
0
  6
CONTINUOUS
 62
3
 10
-495.711174502837710
 20
-184.970662494901030
 11
-492.936285793217280
 21
-183.368579751430620
  0
ARC
  8
0
  6
CONTINUOUS
 62
3
 10
-492.186285793217280
 20
-184.667617857107190
 40
1.500000000000059
 50
53.578178478205707
 51
120.000000000001620
  0
ARC
  8
0
  6
CONTINUOUS
 62
3
 10
-486.249031860023360
 20
-176.620940547013790
 40
8.499999999999870
 50
233.578178478199590
 51
246.421821521797680
  0
ARC
  8
0
  6
CONTINUOUS
 62
3
 10
-490.249031860023360
 20
-185.786091936925690
 40
1.500000000000000
 50
0.000000000017370
 51
66.421821521804304
  0
LINE
  8
0
  6
CONTINUOUS
 62
3
 10
-488.749031860023360
 20
-185.786091936925230
 11
-488.749031860023360
 21
-188.990257423866520
  0
ARC
  8
0
  6
CONTINUOUS
 62
3
 10
-490.249031860023360
 20
-188.990257423866520
 40
1.500000000000355
 50
252.079786860607900
 51
0.000000000000000
  0
ARC
  8
0
  6
CONTINUOUS
 62
3
 10
-486.249031860023360
 20
-176.620940547013790
 40
14.500000000000011
 50
227.920213139391080
 51
252.079786860607410
  0
ARC
  8
0
  6
CONTINUOUS
 62
3
 10
-503.424211129068110
 20
-191.155837074893730
 40
1.499999999999926
 50
120.000000000001620
 51
220.240348321176330
  0
LINE
  8
0
  6
CONTINUOUS
 62
3
 10
-504.174211129068110
 20
-189.856798969217150
 11
-501.527416536089160
 21
-188.328671398470990
  0
ARC
  8
0
  6
CONTINUOUS
 62
3
 10
-500.777416536089160
 20
-189.627709504147560
 40
1.500000000000118
 50
41.837004155899741
 51
120.000000000001620
  0
ARC
  8
0
  6
CONTINUOUS
 62
3
 10
-486.249031860023360
 20
-176.620940547013790
 40
17.999999999999940
 50
221.837004155892320
 51
258.162995844106770
  0
ARC
  8
0
  6
CONTINUOUS
 62
3
 10
-490.249031860023360
 20
-195.706275231005980
 40
1.500000000000000
 50
0.000000000000000
 51
78.162995844101530
  0
LINE
  8
0
  6
CONTINUOUS
 62
3
 10
-488.749031860023360
 20
-195.706275231005980
 11
-488.749031860023360
 21
-198.762530372498300
  0
ARC
  8
0
  6
CONTINUOUS
 62
3
 10
-490.249031860023360
 20
-198.762530372498300
 40
1.499999999999728
 50
259.759651678812470
 51
0.000000000000000
  0
ARC
  8
0
  6
CONTINUOUS
 62
3
 10
-486.249031860023360
 20
-176.620940547013790
 40
23.999999999999844
 50
220.240348321185340
 51
259.759651678813730
  0
ARC
  8
0
  6
CONTINUOUS
 62
3
 10
-477.536889217209020
 20
-186.269700600578060
 40
1.499999999999944
 50
312.079786860618130
 51
60.000000000007070
  0
LINE
  8
0
  6
CONTINUOUS
 62
3
 10
-476.786889217209020
 20
-184.970662494901030
 11
-479.561777926829450
 21
-183.368579751430620
  0
ARC
  8
0
  6
CONTINUOUS
 62
3
 10
-480.311777926829450
 20
-184.667617857107190
 40
1.499999999999926
 50
59.999999999998380
 51
126.421821521801260
  0
ARC
  8
0
  6
CONTINUOUS
 62
3
 10
-486.249031860023360
 20
-176.620940547013790
 40
8.500000000000060
 50
293.578178478202350
 51
306.421821521799190
  0
ARC
  8
0
  6
CONTINUOUS
 62
3
 10
-482.249031860023360
 20
-185.786091936925690
 40
1.500000000000139
 50
113.578178478195690
 51
179.999999999982630
  0
LINE
  8
0
  6
CONTINUOUS
 62
3
 10
-483.749031860023360
 20
-185.786091936925230
 11
-483.749031860023360
 21
-188.990257423866520
  0
ARC
  8
0
  6
CONTINUOUS
 62
3
 10
-482.249031860023360
 20
-188.990257423866520
 40
1.500000000000000
 50
180.000000000000000
 51
287.920213139392100
  0
ARC
  8
0
  6
CONTINUOUS
 62
3
 10
-486.249031860023360
 20
-176.620940547013790
 40
14.500000000000121
 50
287.920213139392560
 51
312.079786860608860
  0
ARC
  8
0
  6
CONTINUOUS
 62
3
 10
-469.073852590978620
 20
-191.155837074893730
 40
1.499999999999828
 50
319.759651678823670
 51
59.999999999998380
  0
LINE
  8
0
  6
CONTINUOUS
 62
3
 10
-468.323852590978620
 20
-189.856798969217150
 11
-470.970647183957570
 21
-188.328671398470990
  0
ARC
  8
0
  6
CONTINUOUS
 62
3
 10
-471.720647183957570
 20
-189.627709504147560
 40
1.499999999999926
 50
59.999999999998380
 51
138.162995844100240
  0
ARC
  8
0
  6
CONTINUOUS
 62
3
 10
-486.249031860023360
 20
-176.620940547013790
 40
18.000000000000146
 50
281.837004155893230
 51
318.162995844107680
  0
ARC
  8
0
  6
CONTINUOUS
 62
3
 10
-482.249031860023360
 20
-195.706275231005980
 40
1.499999999999731
 50
101.837004155898450
 51
180.000000000000000
  0
LINE
  8
0
  6
CONTINUOUS
 62
3
 10
-483.749031860023360
 20
-195.706275231005980
 11
-483.749031860023360
 21
-198.762530372498300
  0
ARC
  8
0
  6
CONTINUOUS
 62
3
 10
-482.249031860023360
 20
-198.762530372498300
 40
1.500000000000000
 50
180.000000000000000
 51
280.240348321187530
  0
ARC
  8
0
  6
CONTINUOUS
 62
3
 10
-486.249031860023360
 20
-176.620940547013790
 40
23.999999999999716
 50
280.240348321186270
 51
319.759651678814690
  0
ARC
  8
0
  6
CONTINUOUS
 62
3
 10
-490.249031860023360
 20
-164.251623670160370
 40
1.500000000000000
 50
0.000000000000000
 51
107.920213139394770
  0
LINE
  8
0
  6
CONTINUOUS
 62
3
 10
-488.749031860023360
 20
-164.251623670160370
 11
-488.749031860023360
 21
-167.455789157101440
  0
ARC
  8
0
  6
CONTINUOUS
 62
3
 10
-490.249031860023360
 20
-167.455789157101440
 40
1.500000000000139
 50
293.578178478195700
 51
0.000000000000000
  0
ARC
  8
0
  6
CONTINUOUS
 62
3
 10
-486.249031860023820
 20
-176.620940547013330
 40
8.499999999999879
 50
113.578178478199500
 51
126.421821521797340
  0
ARC
  8
0
  6
CONTINUOUS
 62
3
 10
-492.186285793217280
 20
-168.574263236919930
 40
1.499999999999926
 50
239.999999999998410
 51
306.421821521797600
  0
LINE
  8
0
  6
CONTINUOUS
 62
3
 10
-492.936285793217280
 20
-169.873301342596510
 11
-495.711174502837930
 21
-168.271218599125630
  0
ARC
  8
0
  6
CONTINUOUS
 62
3
 10
-494.961174502837930
 20
-166.972180493449060
 40
1.499999999999792
 50
132.079786860611680
 51
239.999999999998410
  0
ARC
  8
0
  6
CONTINUOUS
 62
3
 10
-486.249031860023820
 20
-176.620940547013330
 40
14.499999999999980
 50
107.920213139390830
 51
132.079786860607560
  0
ARC
  8
0
  6
CONTINUOUS
 62
3
 10
-490.249031860023360
 20
-154.479350721528820
 40
1.500000000000000
 50
0.000000000000000
 51
100.240348321194510
  0
LINE
  8
0
  6
CONTINUOUS
 62
3
 10
-488.749031860023360
 20
-154.479350721528820
 11
-488.749031860023360
 21
-157.535605863021150
  0
ARC
  8
0
  6
CONTINUOUS
 62
3
 10
-490.249031860023360
 20
-157.535605863021150
 40
1.499999999999954
 50
281.837004155896690
 51
0.000000000000000
  0
ARC
  8
0
  6
CONTINUOUS
 62
3
 10
-486.249031860023820
 20
-176.620940547013330
 40
17.999999999999829
 50
101.837004155891980
 51
138.162995844106210
  0
ARC
  8
0
  6
CONTINUOUS
 62
3
 10
-500.777416536089160
 20
-163.614171589879560
 40
1.499999999999926
 50
239.999999999998410
 51
318.162995844106720
  0
LINE
  8
0
  6
CONTINUOUS
 62
3
 10
-501.527416536089160
 20
-164.913209695556130
 11
-504.174211129068340
 21
-163.385082124809970
  0
ARC
  8
0
  6
CONTINUOUS
 62
3
 10
-503.424211129068340
 20
-162.086044019133400
 40
1.499999999999802
 50
139.759651678811420
 51
239.999999999998410
  0
ARC
  8
0
  6
CONTINUOUS
 62
3
 10
-486.249031860023820
 20
-176.620940547013330
 40
23.999999999999901
 50
100.240348321185670
 51
139.759651678813550
  0
ARC
  8
0
  6
CONTINUOUS
 62
3
 10
-490.249031860023360
 20
-144.871924814238810
 40
1.500000000000000
 50
0.000000000000000
 51
97.180755781458288
  0
LINE
  8
0
  6
CONTINUOUS
 62
3
 10
-488.749031860023360
 20
-144.871924814238810
 11
-488.749031860023360
 21
-147.898127314323350
  0
ARC
  8
0
  6
CONTINUOUS
 62
3
 10
-490.249031860023360
 20
-138.329296549922220
 40
1.499999999999933
 50
275.963570118318330
 51
0.000000000000000
  0
LINE
  8
0
  6
CONTINUOUS
 62
3
 10
-488.749031860023360
 20
-135.314161442368000
 11
-488.749031860023360
 21
-138.329296549922220
  0
LINE
  8
0
  6
CONTINUOUS
 62
3
 10
-451.726311806888020
 20
-199.439393608797900
 11
-454.337495405872120
 21
-197.931826055020570
  0
ARC
  8
0
  6
CONTINUOUS
 62
3
 10
-452.476311806888020
 20
-200.738431714474470
 40
1.499999999999844
 50
324.468928475167900
 51
59.999999999998380
  0
ARC
  8
0
  6
CONTINUOUS
 62
3
 10
-451.087495405872120
 20
-192.302660930421780
 40
1.500000000000063
 50
155.963570118322880
 51
239.999999999998410
  0
LINE
  8
0
  6
CONTINUOUS
 62
3
 10
-449.226311806888020
 20
-195.109266589875690
 11
-451.837495405872120
 21
-193.601699036098350
  0
ARC
  8
0
  6
CONTINUOUS
 62
3
 10
-448.476311806888020
 20
-193.810228484198660
 40
1.500000000000320
 50
240.000000000007050
 51
335.531071524832500
  0
ARC
  8
0
  6
CONTINUOUS
 62
3
 10
-486.249031860023590
 20
-176.620940547014240
 40
42.999999999999936
 50
335.531071524839770
 51
24.468928475160769
  0
ARC
  8
0
  6
CONTINUOUS
 62
3
 10
-486.249031860023590
 20
-176.620940547014240
 40
36.999999999999972
 50
335.963570118321740
 51
24.036429881678870
  0
ARC
  8
0
  6
CONTINUOUS
 62
3
 10
-451.087495405872350
 20
-160.939220163606250
 40
1.500000000000123
 50
119.999999999997270
 51
204.036429881680680
  0
LINE
  8
0
  6
CONTINUOUS
 62
3
 10
-451.837495405872350
 20
-159.640182057929450
 11
-449.226311806888020
 21
-158.132614504152340
  0
ARC
  8
0
  6
CONTINUOUS
 62
3
 10
-448.476311806888020
 20
-159.431652609829140
 40
1.500000000000034
 50
24.468928475159590
 51
119.999999999997270
  0
ARC
  8
0
  6
CONTINUOUS
 62
3
 10
-486.249031860023820
 20
-176.620940547013790
 40
42.999999999999908
 50
35.531071524839248
 51
84.468928475160212
  0
ARC
  8
0
  6
CONTINUOUS
 62
3
 10
-452.476311806888480
 20
-152.503449379553100
 40
1.500000000000123
 50
299.999999999997270
 51
35.531071524839192
  0
ARC
  8
0
  6
CONTINUOUS
 62
3
 10
-482.249031860023360
 20
-138.329296549922220
 40
1.500000000000000
 50
180.000000000000000
 51
264.036429881682580
  0
ARC
  8
0
  6
CONTINUOUS
 62
3
 10
-482.249031860023360
 20
-144.871924814238810
 40
1.499999999999998
 50
82.819244218541712
 51
180.000000000000000
  0
LINE
  8
0
  6
CONTINUOUS
 62
3
 10
-483.749031860023360
 20
-144.871924814238810
 11
-483.749031860023360
 21
-147.898127314323350
  0
LINE
  8
0
  6
CONTINUOUS
 62
3
 10
-454.337495405872570
 20
-155.310055039007010
 11
-451.726311806888480
 21
-153.802487485229900
  0
LINE
  8
0
  6
CONTINUOUS
 62
3
 10
-483.749031860023360
 20
-135.314161442368230
 11
-483.749031860023360
 21
-138.329296549922220
  0
ARC
  8
0
  6
CONTINUOUS
 62
3
 10
-486.249031860023590
 20
-176.620940547013330
 40
27.499999999999815
 50
97.928141766201691
 51
142.071858233797880
  0
ARC
  8
0
  6
CONTINUOUS
 62
3
 10
-486.249031860023140
 20
-176.620940547013330
 40
17.999999999999922
 50
41.837004155893325
 51
78.162995844107314
  0
ARC
  8
0
  6
CONTINUOUS
 62
3
 10
-490.249031860023360
 20
-135.314161442368000
 40
1.500000000000000
 50
0.000000000000000
 51
95.531071524841693
  0
ARC
  8
0
  6
CONTINUOUS
 62
3
 10
-482.249031860023360
 20
-135.314161442368230
 40
1.500000000000203
 50
84.468928475159132
 51
180.000000000000000
  0
LINE
  8
0
  6
CONTINUOUS
 62
3
 10
-534.864524046137030
 20
-231.384459770373500
 11
-541.930973164796230
 21
-224.318010651713850
  0
LINE
  8
0
  6
CONTINUOUS
 62
3
 10
-437.633539673909700
 20
-121.857421323654300
 11
-430.567090555250730
 21
-128.923870442313270
  0
ARC
  8
0
  6
CONTINUOUS
 62
3
 10
-250.649031860023230
 20
-176.620940547013790
 40
300.600000000000080
 50
173.948014641331500
 51
186.051985358668500
  0
ARC
  8
0
  6
CONTINUOUS
 62
3
 10
-486.249031860023360
 20
-417.220940547013700
 40
300.599999999999910
 50
90.000000000000000
 51
98.597082237249069
  0
ARC
  8
0
  6
CONTINUOUS
 62
3
 10
-486.249031860023360
 20
63.979059452986348
 40
300.600000000000140
 50
270.000000000000000
 51
278.597082237249080
  0
ARC
  8
0
  6
CONTINUOUS
 62
3
 10
-442.300444429740880
 20
-126.524326079485490
 40
6.600000000000118
 50
45.000000000001400
 51
81.402917762751386
  0
ARC
  8
0
  6
CONTINUOUS
 62
3
 10
-486.249031860023360
 20
-417.220940547013700
 40
300.599999999999800
 50
81.402917762750931
 51
90.000000000000000
  0
ARC
  8
0
  6
CONTINUOUS
 62
3
 10
-721.849031860023270
 20
-176.620940547013790
 40
300.600000000000080
 50
353.948014641331500
 51
6.051985358668499
  0
LINE
  8
0
  6
CONTINUOUS
 62
3
 10
-437.633539673909700
 20
-231.384459770373500
 11
-430.567090555250270
 21
-224.318010651713850
  0
ARC
  8
0
  6
CONTINUOUS
 62
3
 10
-442.300444429740880
 20
-226.717555014542310
 40
6.599999999999747
 50
278.597082237248910
 51
315.000000000000000
  0
ARC
  8
0
  6
CONTINUOUS
 62
3
 10
-486.249031860023360
 20
63.979059452986348
 40
300.600000000000020
 50
261.402917762750920
 51
270.000000000000000
  0
ARC
  8
0
  6
CONTINUOUS
 62
3
 10
-530.197619290305850
 20
-226.717555014542310
 40
6.599999999999957
 50
225.000000000000000
 51
261.402917762751090
  0
LINE
  8
0
  6
CONTINUOUS
 62
3
 10
-534.864524046137030
 20
-121.857421323654300
 11
-541.930973164796000
 21
-128.923870442313270
  0
ARC
  8
0
  6
CONTINUOUS
 62
3
 10
-449.376130934812980
 20
-147.732910821875520
 40
26.600000000000193
 50
6.051985358668552
 51
45.000000000000000
  0
ARC
  8
0
  6
CONTINUOUS
 62
3
 10
-523.121932785233750
 20
-147.732910821875520
 40
26.600000000000119
 50
135.000000000000000
 51
173.948014641331410
  0
ARC
  8
0
  6
CONTINUOUS
 62
3
 10
-523.121932785233750
 20
-205.508970272152060
 40
26.599999999999969
 50
186.051985358668590
 51
224.999999999998980
  0
ARC
  8
0
  6
CONTINUOUS
 62
3
 10
-449.376130934812750
 20
-205.508970272152060
 40
26.599999999999955
 50
315.000000000001020
 51
353.948014641331380
  0
ARC
  8
0
  6
CONTINUOUS
 62
4
 10
-523.121932785233750
 20
-147.732910821875520
 40
15.396999999999876
 50
135.000000000000000
 51
173.948014641331160
  0
ARC
  8
0
  6
CONTINUOUS
 62
4
 10
-721.849031860023270
 20
-176.620940547013790
 40
289.397000000000160
 50
0.000000000000000
 51
6.051985358668508
  0
ARC
  8
0
  6
CONTINUOUS
 62
4
 10
-449.376130934812750
 20
-147.732910821875520
 40
15.397000000000052
 50
6.051985358668849
 51
45.000000000000000
  0
LINE
  8
0
  6
CONTINUOUS
 62
4
 10
-443.064873217521950
 20
-132.269522319307500
 11
-438.488807824883340
 21
-136.845587711946110
  0
ARC
  8
0
  6
CONTINUOUS
 62
4
 10
-447.307513904641040
 20
-136.512163006427040
 40
6.000000000000049
 50
45.000000000003077
 51
82.102011327574374
  0
ARC
  8
0
  6
CONTINUOUS
 62
4
 10
-486.249031860023360
 20
-417.220940547013700
 40
289.396999999999820
 50
82.102011327572214
 51
90.000000000000000
  0
ARC
  8
0
  6
CONTINUOUS
 62
4
 10
-721.849031860023270
 20
-176.620940547013790
 40
289.397000000000160
 50
353.948014641331500
 51
0.000000000000000
  0
ARC
  8
0
  6
CONTINUOUS
 62
4
 10
-449.376130934812750
 20
-205.508970272152060
 40
15.396999999999876
 50
315.000000000000000
 51
353.948014641331160
  0
LINE
  8
0
  6
CONTINUOUS
 62
4
 10
-443.064873217521950
 20
-220.972358774720080
 11
-438.488807824883340
 21
-216.396293382081470
  0
ARC
  8
0
  6
CONTINUOUS
 62
4
 10
-447.307513904641040
 20
-216.729718087600530
 40
5.999999999999923
 50
277.897988672425640
 51
314.999999999996870
  0
ARC
  8
0
  6
CONTINUOUS
 62
4
 10
-486.249031860023360
 20
63.979059452986121
 40
289.396999999999930
 50
270.000000000000000
 51
277.897988672427800
  0
ARC
  8
0
  6
CONTINUOUS
 62
4
 10
-250.649031860023230
 20
-176.620940547013790
 40
289.397000000000160
 50
180.000000000000000
 51
186.051985358668500
  0
ARC
  8
0
  6
CONTINUOUS
 62
4
 10
-523.121932785233750
 20
-205.508970272152060
 40
15.397000000000052
 50
186.051985358668840
 51
225.000000000000000
  0
LINE
  8
0
  6
CONTINUOUS
 62
4
 10
-529.433190502524550
 20
-220.972358774720080
 11
-534.009255895163160
 21
-216.396293382081470
  0
ARC
  8
0
  6
CONTINUOUS
 62
4
 10
-525.190549815405460
 20
-216.729718087600530
 40
6.000000000000049
 50
225.000000000003070
 51
262.102011327574360
  0
ARC
  8
0
  6
CONTINUOUS
 62
4
 10
-486.249031860023140
 20
63.979059452986121
 40
289.396999999999820
 50
262.102011327572200
 51
270.000000000000000
  0
ARC
  8
0
  6
CONTINUOUS
 62
3
 10
-571.549031860023320
 20
-190.663440547013810
 40
20.800000000000082
 50
274.191726156007460
 51
354.952683218987430
  0
LINE
  8
0
  6
CONTINUOUS
 62
3
 10
-550.749031860023360
 20
-159.290331786788390
 11
-550.749031860023360
 21
-150.663440547013810
  0
POINT
  8
0
  6
DASHDOT
 62
4
 10
-550.749031860023360
 20
-176.634671040139780
  0
POINT
  8
0
  6
DASHDOT
 62
4
 10
-550.749031860023360
 20
-176.634671040139780
  0
ARC
  8
0
  6
CONTINUOUS
 62
3
 10
-569.549031860023320
 20
-150.663440547013810
 40
18.799999999999955
 50
0.000000000000000
 51
79.401214733933941
  0
ARC
  8
0
  6
CONTINUOUS
 62
3
 10
-571.549031860023320
 20
-190.663440547013810
 40
20.799999999999986
 50
174.275189547776620
 51
205.640070215894870
  0
ARC
  8
0
  6
CONTINUOUS
 62
3
 10
-571.549031860023320
 20
-190.663440547013810
 40
20.799999999999926
 50
205.640070215894870
 51
260.083463391769440
  0
ARC
  8
0
  6
CONTINUOUS
 62
3
 10
-571.549031860023320
 20
-190.663440547013810
 40
20.799999999999986
 50
174.275189547776620
 51
205.640070215894870
  0
ARC
  8
0
  6
CONTINUOUS
 62
3
 10
-565.723277225936390
 20
-130.218304169876090
 40
1.999999999999927
 50
177.137594773887290
 51
259.401214733934010
  0
ARC
  8
0
  6
CONTINUOUS
 62
3
 10
-571.316290323652200
 20
-129.938653514990280
 40
1.999999999999928
 50
274.873974813840960
 51
357.137594773887320
  0
ARC
  8
0
  6
CONTINUOUS
 62
3
 10
-569.882484593639790
 20
-213.402451523943110
 40
1.999999999999962
 50
94.191726156001650
 51
177.137594773887290
  0
LINE
  8
0
  6
CONTINUOUS
 62
3
 10
-568.050903351706550
 20
-120.700870380678560
 11
-573.144540279983520
 21
-222.573608946218660
  0
ARC
  8
0
  6
CONTINUOUS
 62
3
 10
-575.475497691355600
 20
-213.122800869057300
 40
2.000000000000154
 50
357.137594773887600
 51
80.083463391767268
  0
LINE
  8
0
  6
CONTINUOUS
 62
3
 10
-592.245291211644260
 20
-188.588627579432800
 11
-588.255266273988240
 21
-148.788128826315530
  0
ARC
  8
0
  6
CONTINUOUS
 62
3
 10
-569.549031860023320
 20
-150.663440547013810
 40
18.800000000000036
 50
94.873974813842736
 51
144.191373186504250
  0
ARC
  8
0
  6
CONTINUOUS
 62
3
 10
-569.549031860023320
 20
-150.663440547013810
 40
18.799999999999933
 50
144.191373186504250
 51
174.275189547776390
  0
LINE
  8
0
  6
CONTINUOUS
 62
3
 10
-568.849905222808840
 20
-120.660920287123410
 11
-567.251901480604260
 21
-120.740820474233600
  0
ARC
  8
0
  6
CONTINUOUS
 62
3
 10
-562.707578719703290
 20
-125.974282710903700
 40
9.000000000000060
 50
160.536063666407810
 51
193.739143184213500
  0
POINT
  8
0
  6
CONTINUOUS
 62
3
 10
-569.099593307527700
 20
-125.654681981512450
  0
LINE
  8
0
  6
CONTINUOUS
 62
3
 10
-568.924811648224140
 20
-122.159048795440070
 11
-569.274374966831260
 21
-129.150315167584950
  0
LINE
  8
0
  6
CONTINUOUS
 62
3
 10
-568.924811648224140
 20
-122.159048795440070
 11
-569.274374966831260
 21
-129.150315167584950
  0
LINE
  8
0
  6
CONTINUOUS
 62
3
 10
-569.274374966831260
 20
-129.150315167584950
 11
-570.252178779339030
 21
-129.101424976959610
  0
LINE
  8
0
  6
CONTINUOUS
 62
3
 10
-568.924811648224140
 20
-122.159048795440070
 11
-569.902615460731680
 21
-122.110158604814720
  0
ARC
  8
0
  6
CONTINUOUS
 62
3
 10
-570.187259915411350
 20
-127.803047698405970
 40
1.299999237060493
 50
193.739143184211430
 51
267.137612759980240
  0
ARC
  8
0
  6
CONTINUOUS
 62
3
 10
-569.967534324659370
 20
-123.408535883368240
 40
1.299999237060474
 50
87.137594090651831
 51
160.536063666412870
  0
LINE
  8
0
  6
CONTINUOUS
 62
3
 10
-568.849905222808840
 20
-120.660920287123410
 11
-573.943542151085810
 21
-222.533658852663390
  0
LINE
  8
0
  6
CONTINUOUS
 62
3
 10
-572.345538408881230
 20
-222.613559039774370
 11
-573.943542151085810
 21
-222.533658852663390
  0
LINE
  8
0
  6
CONTINUOUS
 62
3
 10
-567.251901480604260
 20
-120.740820474233600
 11
-572.345538408881230
 21
-222.613559039774370
  0
INSERT
  8
0
  2
SYM15
 10
-573.693854066366730
 20
-217.539897158274240
 41
1.000000000000000
 42
1.000000000000000
 43
1.000000000000000
 50
357.137594773886350
  0
INSERT
  8
0
  2
SYM16
 10
-541.049807401980960
 20
-269.921716088967340
  0
INSERT
  8
0
  2
SYM17
 10
-431.448256318065770
 20
-269.921716088967340
  0
LINE
  8
0
  6
DASHDOT
 62
4
 10
-634.430871543769170
 20
-176.620940547013790
 11
-337.115977386743910
 21
-176.620940547013790
  0
LINE
  8
0
  6
CONTINUOUS
 62
3
 10
-402.749031860023360
 20
-212.620940547013760
 11
-402.749031860023360
 21
-228.620940547010040
  0
LINE
  8
0
  6
CONTINUOUS
 62
3
 10
-472.749031860023360
 20
-298.620940547010040
 11
-499.749031860023360
 21
-298.620940547010040
  0
LINE
  8
0
  6
CONTINUOUS
 62
3
 10
-569.749031860023360
 20
-211.385409565425160
 11
-569.749031860023360
 21
-228.620940547010040
  0
ARC
  8
0
  6
CONTINUOUS
 62
3
 10
-472.749031860023360
 20
-228.620940547010040
 40
70.000000000000000
 50
270.000000000000000
 51
0.000000000000000
  0
ARC
  8
0
  6
CONTINUOUS
 62
3
 10
-499.749031860023360
 20
-228.620940547010040
 40
70.000000000000000
 50
180.000000000000000
 51
270.000000000000000
  0
ARC
  8
0
  6
CONTINUOUS
 62
3
 10
-499.749031860023360
 20
-201.620940547010040
 40
70.000000000000000
 50
136.278229842815310
 51
136.766765190805440
  0
LINE
  8
0
  6
CONTINUOUS
 62
3
 10
-508.749031860023360
 20
-253.406055147857160
 11
-508.749031860023360
 21
-290.620940547010040
  0
LINE
  8
0
  6
CONTINUOUS
 62
3
 10
-503.749031860023360
 20
-258.775837179575770
 11
-503.749031860023360
 21
-290.620940547010040
  0
LINE
  8
0
  6
CONTINUOUS
 62
3
 10
-468.749031860023360
 20
-258.775837179575770
 11
-468.749031860023360
 21
-290.620940547010040
  0
LINE
  8
0
  6
CONTINUOUS
 62
3
 10
-463.749031860023360
 20
-253.406055147857160
 11
-463.749031860023360
 21
-290.620940547010040
  0
ARC
  8
0
  6
CONTINUOUS
 62
3
 10
-486.249031860023360
 20
-215.120940547010040
 40
26.999999999999943
 50
270.000000000000000
 51
308.867683836605350
  0
ARC
  8
0
  6
CONTINUOUS
 62
3
 10
-486.249031860023360
 20
-215.120940547010040
 40
26.999999999999996
 50
231.132316163394620
 51
270.000000000000000
  0
ARC
  8
0
  6
CONTINUOUS
 62
3
 10
-460.749031860023360
 20
-290.620940547010040
 40
3.000000000000000
 50
180.000000000000000
 51
270.000000000000000
  0
ARC
  8
0
  6
CONTINUOUS
 62
3
 10
-471.749031860023360
 20
-290.620940547010040
 40
3.000000000000000
 50
270.000000000000000
 51
0.000000000000000
  0
ARC
  8
0
  6
CONTINUOUS
 62
3
 10
-500.749031860023360
 20
-290.620940547010040
 40
3.000000000000000
 50
180.000000000000000
 51
270.000000000000000
  0
ARC
  8
0
  6
CONTINUOUS
 62
3
 10
-511.749031860023360
 20
-290.620940547010040
 40
3.000000000000000
 50
270.000000000000000
 51
0.000000000000000
  0
ARC
  8
0
  6
CONTINUOUS
 62
3
 10
-486.249031860023360
 20
-215.120940547010040
 40
43.000000000000021
 50
206.245931860254220
 51
333.754068139745750
  0
ARC
  8
0
  6
CONTINUOUS
 62
3
 10
-460.749031860023360
 20
-253.406055147857160
 40
3.000000000000062
 50
123.665806404676170
 51
180.000000000000000
  0
ARC
  8
0
  6
CONTINUOUS
 62
3
 10
-471.749031860023360
 20
-258.775837179575770
 40
3.000000000000000
 50
0.000000000000000
 51
108.373938003328970
  0
ARC
  8
0
  6
CONTINUOUS
 62
3
 10
-500.749031860023360
 20
-258.775837179575770
 40
2.999999999999956
 50
71.626061996671027
 51
180.000000000000000
  0
ARC
  8
0
  6
CONTINUOUS
 62
3
 10
-511.749031860023360
 20
-253.406055147857160
 40
3.000000000000000
 50
0.000000000000000
 51
56.334193595323846
  0
ARC
  8
0
  6
CONTINUOUS
 62
3
 10
-431.448256318065770
 20
-269.921716088967400
 40
7.499999999999967
 50
54.344230362522332
 51
215.655769637476880
  0
ARC
  8
0
  6
CONTINUOUS
 62
3
 10
-541.049807401980960
 20
-269.921716088967400
 40
7.500000000000311
 50
324.344230362523150
 51
125.655769637477660
  0
ARC
  8
0
  6
CONTINUOUS
 62
3
 10
-425.327657878371950
 20
-261.390111624388960
 40
2.999999999999897
 50
234.344230362523230
 51
322.783694849380250
  0
ARC
  8
0
  6
CONTINUOUS
 62
3
 10
-439.979860782644550
 20
-276.042314528661450
 40
3.000000000000090
 50
307.216305150625090
 51
35.655769637478542
  0
ARC
  8
0
  6
CONTINUOUS
 62
3
 10
-532.518202937402180
 20
-276.042314528661450
 40
2.999999999999963
 50
144.344230362521470
 51
232.783694849374170
  0
ARC
  8
0
  6
CONTINUOUS
 62
3
 10
-547.170405841674780
 20
-261.390111624388960
 40
3.000000000000123
 50
217.216305150620570
 51
305.655769637476740
  0
INSERT
  8
0
  2
SYM18
 10
-475.749031860023360
 20
-83.120940547010036
  0
INSERT
  8
0
  2
SYM19
 10
-436.249031860023360
 20
-84.120941359903213
  0
INSERT
  8
0
  2
SYM20
 10
-365.249031860023360
 20
-153.120941359902990
  0
INSERT
  8
0
  2
SYM21
 10
-364.249031860022910
 20
-243.120940547009580
  0
INSERT
  8
0
  2
SYM22
 10
-408.749031860023360
 20
-335.120940547009580
  0
INSERT
  8
0
  2
SYM23
 10
-478.749031860023360
 20
-334.120940547009580
  0
INSERT
  8
0
  2
SYM24
 10
-607.249031860023360
 20
-153.120941359903210
 41
-1.000000000000000
  0
INSERT
  8
0
  2
SYM25
 10
-608.249031860023820
 20
-243.120940547009810
 41
-1.000000000000000
  0
INSERT
  8
0
  2
SYM26
 10
-563.749031860022910
 20
-335.120940547009580
 41
-1.000000000000000
  0
INSERT
  8
0
  2
SYM27
 10
-496.749031860023360
 20
-83.120940547010036
 41
-1.000000000000000
  0
INSERT
  8
0
  2
SYM28
 10
-536.249031860023360
 20
-84.120941359903213
 41
-1.000000000000000
  0
ARC
  8
0
  6
CONTINUOUS
 62
3
 10
-595.412767872573000
 20
-117.978019814633050
 40
5.000000000000201
 50
45.000000000000000
 51
143.279272265286270
  0
ARC
  8
0
  6
CONTINUOUS
 62
3
 10
-584.153846227312780
 20
-105.195310899550460
 40
4.999999999999923
 50
133.973975518351350
 51
225.000000000003690
  0
ARC
  8
0
  6
CONTINUOUS
 62
3
 10
-377.085295847473730
 20
-117.978019814633050
 40
5.000000000000055
 50
36.720727734715837
 51
135.000000000000000
  0
LINE
  8
0
  6
CONTINUOUS
 62
3
 10
-486.249031860023360
 20
-95.120940547010036
 11
-468.749031860023360
 21
-95.120940547010036
  0
LINE
  8
0
  6
CONTINUOUS
 62
3
 10
-503.749031860023360
 20
-95.120940547010036
 11
-486.249031860023360
 21
-95.120940547010036
  0
ARC
  8
0
  6
CONTINUOUS
 62
3
 10
-494.749031860023360
 20
-100.120940547010030
 40
5.000000000000000
 50
0.000000000000000
 51
90.000000000000000
  0
ARC
  8
0
  6
CONTINUOUS
 62
3
 10
-477.749031860023360
 20
-100.120940547010030
 40
5.000000000000000
 50
90.000000000000000
 51
180.000000000000000
  0
ARC
  8
0
  6
CONTINUOUS
 62
3
 10
-468.749031860023360
 20
-92.120940547010036
 40
3.000000000000000
 50
270.000000000000000
 51
0.000000000000000
  0
ARC
  8
0
  6
CONTINUOUS
 62
3
 10
-503.749031860023360
 20
-92.120940547010036
 40
3.000000000000000
 50
180.000000000000000
 51
270.000000000000000
  0
ARC
  8
0
  6
CONTINUOUS
 62
3
 10
-388.344217492733950
 20
-105.195310899550460
 40
5.000000000000041
 50
315.000000000001820
 51
46.026024481648633
  0
LINE
  8
0
  6
CONTINUOUS
 62
3
 10
-489.749031860023360
 20
-99.120940547010036
 11
-489.749031860023360
 21
-116.641317152479470
  0
LINE
  8
0
  6
CONTINUOUS
 62
3
 10
-482.749031860023360
 20
-100.120940547010030
 11
-482.749031860023360
 21
-116.641317152479470
  0
LINE
  8
0
  6
CONTINUOUS
 62
3
 10
-351.927843821323560
 20
-235.694586736170660
 11
-367.341048207181640
 21
-293.336542246000250
  0
LINE
  8
0
  6
CONTINUOUS
 62
3
 10
-620.570219898724080
 20
-235.694586736170660
 11
-605.157015512866000
 21
-293.336542246000250
  0
LINE
  8
0
  6
CONTINUOUS
 62
3
 10
-401.013542856435720
 20
-295.406682082290790
 11
-384.391074608453780
 21
-312.029150330272500
  0
LINE
  8
0
  6
CONTINUOUS
 62
3
 10
-405.021783293581730
 20
-301.297936581756290
 11
-388.706451109398930
 21
-317.613268765939100
  0
LINE
  8
0
  6
CONTINUOUS
 62
3
 10
-416.698779328332140
 20
-140.620940547013790
 11
-384.808683586801070
 21
-108.730844805483110
  0
LINE
  8
0
  6
CONTINUOUS
 62
3
 10
-406.799284391720560
 20
-140.620940547013790
 11
-380.620829753406610
 21
-114.442485908700170
  0
LINE
  8
0
  6
CONTINUOUS
 62
3
 10
-573.937021777303700
 20
-132.382698098036370
 11
-591.877233966640120
 21
-114.442485908700170
  0
LINE
  8
0
  6
CONTINUOUS
 62
3
 10
-549.965476196308260
 20
-146.454748742420070
 11
-551.719760554664500
 21
-144.700464384063760
  0
LINE
  8
0
  6
CONTINUOUS
 62
3
 10
-554.915223664614020
 20
-278.837384883294020
 11
-588.106989111592950
 21
-312.029150330272500
  0
LINE
  8
0
  6
CONTINUOUS
 62
3
 10
-553.525738886961220
 20
-287.347395042252970
 11
-583.791612610647800
 21
-317.613268765939320
  0
ARC
  8
0
  6
CONTINUOUS
 62
3
 10
-371.249031860023360
 20
-230.528186367132210
 40
19.999999999999925
 50
345.029598694534740
 51
0.000000000000000
  0
ARC
  8
0
  6
CONTINUOUS
 62
3
 10
-601.249031860023820
 20
-230.528186367132210
 40
20.000000000000000
 50
180.000000000000000
 51
194.970401305464950
  0
ARC
  8
0
  6
CONTINUOUS
 62
3
 10
-397.478008950503290
 20
-291.871148176357910
 40
4.999999999999973
 50
149.498945295270290
 51
225.000000000003690
  0
ARC
  8
0
  6
CONTINUOUS
 62
3
 10
-408.557317199514610
 20
-304.833470487688940
 40
5.000000000000041
 50
44.999999999998167
 51
129.457930749405760
  0
ARC
  8
0
  6
CONTINUOUS
 62
3
 10
-496.262929373983180
 20
-303.620940547010040
 40
5.000000000000000
 50
90.000000000000000
 51
124.921969447764190
  0
ARC
  8
0
  6
CONTINUOUS
 62
3
 10
-517.443960834938820
 20
-273.283440547009950
 40
31.999999999999829
 50
191.617396360406130
 51
304.921969447764520
  0
ARC
  8
0
  6
CONTINUOUS
 62
3
 10
-553.685984474189240
 20
-280.734327912419640
 40
5.000000000000277
 50
11.617396360404429
 51
44.014880135744747
  0
ARC
  8
0
  6
CONTINUOUS
 62
3
 10
-472.254703462631260
 20
-303.620940547010040
 40
5.000000000000199
 50
48.360992047546546
 51
90.000000000000000
  0
ARC
  8
0
  6
CONTINUOUS
 62
3
 10
-398.653729532233570
 20
-240.234991216498320
 40
5.000000000000142
 50
171.091670649431510
 51
213.109776708314170
  0
ARC
  8
0
  6
CONTINUOUS
 62
3
 10
-426.068121429671350
 20
-142.919214836487190
 40
4.999999999999959
 50
312.239175315564640
 51
315.000000000000000
  0
ARC
  8
0
  6
CONTINUOUS
 62
3
 10
-546.429942290375380
 20
-142.919214836487190
 40
5.000000000000201
 50
225.000000000000000
 51
228.365633755026040
  0
ARC
  8
0
  6
CONTINUOUS
 62
3
 10
-558.450757570546900
 20
-275.301850977361370
 40
5.000000000000041
 50
315.000000000001820
 51
38.492496408252435
  0
ARC
  8
0
  6
CONTINUOUS
 62
3
 10
-439.697380007696100
 20
-267.000991209924110
 40
44.000000000000071
 50
319.912288498426220
 51
33.109776708315003
  0
ARC
  8
0
  6
CONTINUOUS
 62
3
 10
-439.697380007696100
 20
-267.000991209924110
 40
43.999999999999915
 50
228.360992047548710
 51
319.912288498426220
  0
ARC
  8
0
  6
CONTINUOUS
 62
3
 10
-549.990204981028340
 20
-290.882928948185620
 40
4.999999999999702
 50
28.402451678796261
 51
135.000000000001820
  0
ARC
  8
0
  6
CONTINUOUS
 62
3
 10
-532.800683712350630
 20
-267.000991209924110
 40
76.999999999999844
 50
199.999999999999770
 51
234.885533069884020
  0
ARC
  8
0
  6
CONTINUOUS
 62
3
 10
-581.693687807601580
 20
-336.531374140998080
 40
8.000000000000373
 50
4.494156527999717
 51
54.885533069884232
  0
ARC
  8
0
  6
CONTINUOUS
 62
3
 10
-563.749031860023360
 20
-335.120940547009580
 40
9.999999999999778
 50
184.494156527999370
 51
233.130102354155980
  0
ARC
  8
0
  6
CONTINUOUS
 62
3
 10
-408.749031860023360
 20
-335.120940547009580
 40
10.000000000000000
 50
306.869897645843990
 51
355.505843472000610
  0
ARC
  8
0
  6
CONTINUOUS
 62
3
 10
-390.804375912445150
 20
-336.531374140998080
 40
7.999999999999969
 50
125.114466930115760
 51
175.505843472000290
  0
ARC
  8
0
  6
CONTINUOUS
 62
3
 10
-439.697380007696100
 20
-267.000991209924110
 40
77.000000000000085
 50
305.114466930115950
 51
340.000000000000340
  0
ARC
  8
0
  6
CONTINUOUS
 62
3
 10
-580.256078704715380
 20
-321.148802671871980
 40
4.999999999999718
 50
134.999999999998150
 51
228.768523924279320
  0
ARC
  8
0
  6
CONTINUOUS
 62
3
 10
-591.642523017525830
 20
-308.493616424339850
 40
4.999999999999545
 50
215.189773733130520
 51
315.000000000001820
  0
ARC
  8
0
  6
CONTINUOUS
 62
3
 10
-392.241985015331350
 20
-321.148802671871980
 40
4.999999999999826
 50
311.231476075720650
 51
45.000000000003688
  0
ARC
  8
0
  6
CONTINUOUS
 62
3
 10
-380.855540702520900
 20
-308.493616424339620
 40
5.000000000000201
 50
225.000000000000000
 51
324.810226266870360
  0
LINE
  8
0
  6
CONTINUOUS
 62
3
 10
-608.249031860023820
 20
-232.120940547009580
 11
-617.618211253998080
 21
-232.120940547009580
  0
LINE
  8
0
  6
CONTINUOUS
 62
3
 10
-608.249031860023820
 20
-206.120940547009580
 11
-618.249031860023820
 21
-206.120940547009580
  0
ARC
  8
0
  6
CONTINUOUS
 62
3
 10
-608.249031860023820
 20
-219.120940547009580
 40
13.000000000000000
 50
270.000000000000000
 51
90.000000000000000
  0
ARC
  8
0
  6
CONTINUOUS
 62
3
 10
-618.249031860023820
 20
-203.120940547009580
 40
3.000000000000000
 50
180.000000000000000
 51
270.000000000000000
  0
ARC
  8
0
  6
CONTINUOUS
 62
3
 10
-617.618211253998080
 20
-235.120940547009580
 40
3.000000000000000
 50
90.000000000000000
 51
194.970401305463840
  0
ARC
  8
0
  6
CONTINUOUS
 62
3
 10
-354.249031860022910
 20
-203.120940547009580
 40
3.000000000000000
 50
270.000000000000000
 51
0.000000000000000
  0
LINE
  8
0
  6
CONTINUOUS
 62
3
 10
-364.249031860022910
 20
-206.120940547009580
 11
-354.249031860022910
 21
-206.120940547009580
  0
ARC
  8
0
  6
CONTINUOUS
 62
3
 10
-364.249031860022910
 20
-219.120940547009580
 40
13.000000000000000
 50
90.000000000000000
 51
270.000000000000000
  0
ARC
  8
0
  6
CONTINUOUS
 62
3
 10
-354.879852466048650
 20
-235.120940547009580
 40
2.999999999999921
 50
345.029598694536160
 51
90.000000000000000
  0
LINE
  8
0
  6
CONTINUOUS
 62
3
 10
-364.249031860022910
 20
-232.120940547009580
 11
-354.879852466048650
 21
-232.120940547009580
  0
LINE
  8
0
  6
CONTINUOUS
 62
3
 10
-465.749031860023360
 20
-70.471251957832578
 11
-465.749031860023360
 21
-92.120940547010036
  0
LINE
  8
0
  6
CONTINUOUS
 62
3
 10
-506.749031860023360
 20
-70.471251957832578
 11
-506.749031860023360
 21
-92.120940547010036
  0
ARC
  8
0
  6
CONTINUOUS
 62
3
 10
-486.249031860023360
 20
-670.120941359903440
 40
599.999999999999770
 50
87.075476210271731
 51
88.042013127606680
  0
ARC
  8
0
  6
CONTINUOUS
 62
3
 10
-486.249031860023360
 20
-670.120941359903440
 40
600.000000000000000
 50
91.957986872393320
 51
92.924523789728269
  0
ARC
  8
0
  6
CONTINUOUS
 62
3
 10
-475.749031860022460
 20
-45.120940547009809
 40
10.000000000000000
 50
0.000000000000000
 51
90.000000000000000
  0
LINE
  8
0
  6
CONTINUOUS
 62
3
 10
-465.749031860022460
 20
-45.120940547009809
 11
-465.749031860022460
 21
-70.471251144938719
  0
ARC
  8
0
  6
CONTINUOUS
 62
3
 10
-496.749031860022460
 20
-45.120940547009809
 40
10.000000000000000
 50
90.000000000000000
 51
180.000000000000000
  0
LINE
  8
0
  6
CONTINUOUS
 62
3
 10
-506.749031860022460
 20
-45.120940547009809
 11
-506.749031860022460
 21
-70.471251144938719
  0
LINE
  8
0
  6
CONTINUOUS
 62
3
 10
-475.749031860022460
 20
-35.120940547009809
 11
-496.749031860022460
 21
-35.120940547009809
  0
LINE
  8
0
  6
DASHDOT
 62
4
 10
-463.081118861140910
 20
-55.120940547009809
 11
-510.103632762675600
 21
-55.120940547009809
  0
CIRCLE
  8
0
  6
CONTINUOUS
 62
3
 10
-486.249031860022460
 20
-55.120940547009809
 40
10.000000000000000
  0
LINE
  8
0
  6
DASHDOT
 62
4
 10
-486.249031860023360
 20
-26.427466409521003
 11
-486.249031860023360
 21
-361.001421326087440
  0
LINE
  8
0
  6
DASHDOT
 62
4
 10
-516.881588728265340
 20
-175.120940547010040
 11
-455.409910521069830
 21
-175.120940547010040
  0
ARC
  8
0
  6
CONTINUOUS
 62
3
 10
-348.249031860023360
 20
-320.120940547009580
 40
3.000000000000000
 50
180.000000000000000
 51
270.000000000000000
  0
LINE
  8
0
  6
CONTINUOUS
 62
3
 10
-351.249031860023360
 20
-180.759112035220940
 11
-351.249031860023360
 21
-320.120940547009580
  0
LINE
  8
0
  6
CONTINUOUS
 62
3
 10
-621.249031860023820
 20
-180.759112035220940
 11
-621.249031860023820
 21
-320.120940547009580
  0
LINE
  8
0
  6
CONTINUOUS
 62
3
 10
-343.749031860023360
 20
-326.120940547009580
 11
-343.749031860023360
 21
-345.120940547009580
  0
LINE
  8
0
  6
DASHDOT
 62
4
 10
-361.249031860023360
 20
-318.908108172436760
 11
-361.249031860023360
 21
-349.752878756543510
  0
ARC
  8
0
  6
CONTINUOUS
 62
3
 10
-346.749031860023360
 20
-326.120940547009580
 40
3.000000000000000
 50
0.000000000000000
 51
90.000000000000000
  0
LINE
  8
0
  6
CONTINUOUS
 62
3
 10
-378.625032825190260
 20
-323.120940547009580
 11
-346.749031860023360
 21
-323.120940547009580
  0
ARC
  8
0
  6
CONTINUOUS
 62
3
 10
-625.749031860023820
 20
-326.120940547009580
 40
3.000000000000000
 50
90.000000000000000
 51
180.000000000000000
  0
LINE
  8
0
  6
CONTINUOUS
 62
3
 10
-628.749031860023820
 20
-326.120940547009580
 11
-628.749031860023820
 21
-345.120940547009580
  0
LINE
  8
0
  6
CONTINUOUS
 62
3
 10
-486.249031860023360
 20
-343.120940547009580
 11
-576.749031860023820
 21
-343.120940547009580
  0
LINE
  8
0
  6
CONTINUOUS
 62
3
 10
-578.749031860023820
 20
-345.120940547009580
 11
-628.749031860023820
 21
-345.120940547009580
  0
LINE
  8
0
  6
CONTINUOUS
 62
3
 10
-578.749031860023820
 20
-339.039701166013060
 11
-578.749031860023820
 21
-345.120940547009580
  0
LINE
  8
0
  6
DASHDOT
 62
4
 10
-611.249031860023820
 20
-318.908108172436760
 11
-611.249031860023820
 21
-349.752878756543510
  0
LINE
  8
0
  6
CONTINUOUS
 62
3
 10
-593.873030894856470
 20
-323.120940547009580
 11
-625.749031860023820
 21
-323.120940547009580
  0
LINE
  8
0
  6
CONTINUOUS
 62
3
 10
-393.749031860023360
 20
-339.039701166013060
 11
-393.749031860023360
 21
-345.120940547009580
  0
LINE
  8
0
  6
CONTINUOUS
 62
3
 10
-393.749031860023360
 20
-345.120940547009580
 11
-343.749031860023360
 21
-345.120940547009580
  0
LINE
  8
0
  6
CONTINUOUS
 62
3
 10
-486.249031860023360
 20
-343.120940547009580
 11
-395.749031860023360
 21
-343.120940547009580
  0
ARC
  8
0
  6
CONTINUOUS
 62
3
 10
-624.249031860023820
 20
-320.120940547009580
 40
3.000000000000000
 50
270.000000000000000
 51
0.000000000000000
  0
ARC
  8
0
  6
CONTINUOUS
 62
3
 10
-576.749031860023820
 20
-345.120940547009580
 40
2.000000000000000
 50
90.000000000000000
 51
180.000000000000000
  0
ARC
  8
0
  6
CONTINUOUS
 62
3
 10
-395.749031860023360
 20
-345.120940547009580
 40
2.000000000000000
 50
0.000000000000000
 51
90.000000000000000
  0
ARC
  8
0
  6
CONTINUOUS
 62
3
 10
-461.249031860022910
 20
-180.759112035220940
 40
110.000000000000000
 50
0.000000000000000
 51
87.075476210271844
  0
ARC
  8
0
  6
CONTINUOUS
 62
3
 10
-511.249031860023820
 20
-180.759112035220940
 40
110.000000000000040
 50
92.924523789728156
 51
180.000000000000000
  0
ARC
  8
0
  6
CONTINUOUS
 62
3
 10
-532.800683712351090
 20
-267.000991209924110
 40
81.999999999999886
 50
200.460558063344960
 51
233.171194544115650
  0
ARC
  8
0
  6
CONTINUOUS
 62
3
 10
-586.749031860023820
 20
-339.039701166013060
 40
8.000000000000000
 50
0.000000000000000
 51
53.171194544116702
  0
ARC
  8
0
  6
CONTINUOUS
 62
3
 10
-615.249031860023820
 20
-297.762491298836380
 40
6.000000000000107
 50
20.460558063343086
 51
180.000000000000000
  0
ARC
  8
0
  6
CONTINUOUS
 62
3
 10
-593.873030894856470
 20
-326.120940547009580
 40
3.000000000000119
 50
44.069371979551811
 51
90.000000000000000
  0
ARC
  8
0
  6
CONTINUOUS
 62
3
 10
-357.249031860022910
 20
-297.762491298836380
 40
6.000000000000000
 50
0.000000000000000
 51
159.539441936656910
  0
ARC
  8
0
  6
CONTINUOUS
 62
3
 10
-439.697380007695640
 20
-267.000991209924110
 40
82.000000000000171
 50
306.828805455884380
 51
339.539441936655010
  0
ARC
  8
0
  6
CONTINUOUS
 62
3
 10
-385.749031860022910
 20
-339.039701166013060
 40
7.999999999999903
 50
126.828805455883280
 51
180.000000000000000
  0
ARC
  8
0
  6
CONTINUOUS
 62
3
 10
-378.625032825190260
 20
-326.120940547009580
 40
3.000000000000000
 50
90.000000000000000
 51
135.930628020448210
  0
TEXT
  8
0
  6
CONTINUOUS
 62
3
 10
-514.030517578125000
 20
204.378570556640620
 40
20.000000000000000
  1
S104
 50
0.000002504478167
 41
0.470000016689301
  7
STANDARD1
  0
TEXT
  8
0
  6
CONTINUOUS
 62
3
 10
-514.030517578125000
 20
181.778564453125000
 40
20.000000000000000
  1
三菱ギヤードモートル
 50
0.000002504478167
 41
0.625000000000000
  7
STANDARD1
  0
TEXT
  8
0
  6
CONTINUOUS
 62
3
 10
-514.030517578125000
 20
159.178573608398440
 40
20.000000000000000
  1
GM-SSB
 50
0.000002504478167
 41
0.470000016689301
  7
STANDARD1
  0
TEXT
  8
0
  6
CONTINUOUS
 62
3
 10
-514.030517578125000
 20
136.578567504882810
 40
20.000000000000000
  1
0.4kW
 50
0.000002504478167
 41
0.470000016689301
  7
STANDARD1
  0
TEXT
  8
0
  6
CONTINUOUS
 62
3
 10
-514.030517578125000
 20
113.978569030761710
 40
20.000000000000000
  1
1/1200
 50
0.000002504478167
 41
0.470000016689301
  7
STANDARD1
  0
TEXT
  8
0
  6
CONTINUOUS
 62
3
 10
-514.030517578125000
 20
91.378570556640625
 40
20.000000000000000
  1
SCALE1/1
 50
0.000002504478167
 41
0.470000016689301
  7
STANDARD1
  0
LINE
  8
0
  6
CONTINUOUS
 62
3
 10
-571.629426359615080
 20
-124.790798579113350
 11
-587.689380133245210
 21
-108.730844805483340
  0
LINE
  8
0
  6
CONTINUOUS
 62
3
 10
-563.586055697073110
 20
-132.834169241655100
 11
-567.653211146503620
 21
-128.767013792224470
  0
ARC
  8
0
  6
CONTINUOUS
 62
3
 10
-192.694820907898020
 20
242.879059452985980
 40
5.000000000000000
 50
180.000000000000000
 51
270.000000000000000
  0
LINE
  8
0
  6
CONTINUOUS
 62
3
 10
-197.694820907898020
 20
232.879059452985980
 11
-197.694820907898020
 21
237.879059452985980
  0
LINE
  8
0
  6
DASHDOT
 62
3
 10
-73.694820907898020
 20
232.879059452985980
 11
-73.694820907898020
 21
237.879059452985980
  0
ARC
  8
0
  6
CONTINUOUS
 62
3
 10
-78.694820907898020
 20
242.879059452985980
 40
5.000000000000000
 50
270.000000000000000
 51
0.000000000000000
  0
LINE
  8
0
  6
DASHDOT
 62
3
 10
-73.694820907898020
 20
232.879059452985980
 11
-73.694820907898020
 21
237.879059452985980
  0
LINE
  8
0
  6
CONTINUOUS
 62
3
 10
-197.694820907898020
 20
237.879059452985980
 11
-73.694820907898020
 21
237.879059452985980
  0
LINE
  8
0
  6
CONTINUOUS
 62
3
 10
-84.194820907898020
 20
256.540084512672880
 11
-187.194820907898020
 21
256.540084512672880
  0
ARC
  8
0
  6
CONTINUOUS
 62
3
 10
-78.694820907898020
 20
261.540084512672880
 40
5.000000000000072
 50
287.457603123721870
 51
0.000000000000000
  0
ARC
  8
0
  6
CONTINUOUS
 62
3
 10
-78.494820907898202
 20
257.216630638415210
 40
1.300000000000182
 50
0.000000000000000
 51
73.398450400977637
  0
ARC
  8
0
  6
CONTINUOUS
 62
3
 10
-80.694820907898020
 20
249.837606312665680
 40
9.000000000000178
 50
73.398450400980963
 51
106.601549599019030
  0
ARC
  8
0
  6
CONTINUOUS
 62
3
 10
-82.894820907897838
 20
257.216630638415210
 40
1.300000000000019
 50
106.601549599022360
 51
180.000000000000000
  0
LINE
  8
0
  6
CONTINUOUS
 62
3
 10
-77.194820907898020
 20
257.216630638415210
 11
-77.194820907898020
 21
256.229620900490830
  0
POLYLINE
  8
0
  6
CONTINUOUS
 62
3
 66
1
  0
VERTEX
  8
0
  6
CONTINUOUS
 62
3
 10
-84.194820907898020
 20
256.229620900490830
  0
VERTEX
  8
0
  6
CONTINUOUS
 62
3
 10
-84.127569389309329
 20
256.195522690294870
  0
VERTEX
  8
0
  6
CONTINUOUS
 62
3
 10
-83.928399271687525
 20
256.162734855194230
  0
VERTEX
  8
0
  6
CONTINUOUS
 62
3
 10
-83.604964550956922
 20
256.132517413304190
  0
VERTEX
  8
0
  6
CONTINUOUS
 62
3
 10
-83.169694642050942
 20
256.106031603970510
  0
VERTEX
  8
0
  6
CONTINUOUS
 62
3
 10
-82.639316723466635
 20
256.084295261992390
  0
VERTEX
  8
0
  6
CONTINUOUS
 62
3
 10
-82.034212921175836
 20
256.068143702802220
  0
VERTEX
  8
0
  6
CONTINUOUS
 62
3
 10
-81.377637034954475
 20
256.058197621761790
  0
VERTEX
  8
0
  6
CONTINUOUS
 62
3
 10
-80.694820907898020
 20
256.054839241187610
  0
VERTEX
  8
0
  6
CONTINUOUS
 62
3
 10
-80.012004780841579
 20
256.058197621761790
  0
VERTEX
  8
0
  6
CONTINUOUS
 62
3
 10
-79.355428894620204
 20
256.068143702802220
  0
VERTEX
  8
0
  6
CONTINUOUS
 62
3
 10
-78.750325092329419
 20
256.084295261992390
  0
VERTEX
  8
0
  6
CONTINUOUS
 62
3
 10
-78.219947173745112
 20
256.106031603970510
  0
VERTEX
  8
0
  6
CONTINUOUS
 62
3
 10
-77.784677264839118
 20
256.132517413304190
  0
VERTEX
  8
0
  6
CONTINUOUS
 62
3
 10
-77.461242544108515
 20
256.162734855194230
  0
VERTEX
  8
0
  6
CONTINUOUS
 62
3
 10
-77.262072426486711
 20
256.195522690294870
  0
VERTEX
  8
0
  6
CONTINUOUS
 62
3
 10
-77.194820907898020
 20
256.229620900490830
  0
SEQEND
  8
0
  6
CONTINUOUS
 62
3
  0
LINE
  8
0
  6
CONTINUOUS
 62
3
 10
-84.194820907898020
 20
257.216630638415210
 11
-84.194820907898020
 21
256.229620900490830
  0
ARC
  8
0
  6
CONTINUOUS
 62
3
 10
-192.694820907898020
 20
261.540084512672880
 40
5.000000000000000
 50
180.000000000000000
 51
252.542396876278160
  0
LINE
  8
0
  6
CONTINUOUS
 62
3
 10
-194.194820907898020
 20
257.216630638415210
 11
-194.194820907898020
 21
256.229620900490830
  0
LINE
  8
0
  6
CONTINUOUS
 62
3
 10
-187.194820907898020
 20
257.216630638415210
 11
-187.194820907898020
 21
256.229620900490830
  0
ARC
  8
0
  6
CONTINUOUS
 62
3
 10
-192.894820907897840
 20
257.216630638415210
 40
1.300000000000019
 50
106.601549599022360
 51
180.000000000000000
  0
ARC
  8
0
  6
CONTINUOUS
 62
3
 10
-190.694820907898020
 20
249.837606312665680
 40
9.000000000000178
 50
73.398450400980963
 51
106.601549599019030
  0
ARC
  8
0
  6
CONTINUOUS
 62
3
 10
-188.494820907898200
 20
257.216630638415210
 40
1.300000000000182
 50
0.000000000000000
 51
73.398450400977637
  0
POLYLINE
  8
0
  6
CONTINUOUS
 62
3
 66
1
  0
VERTEX
  8
0
  6
CONTINUOUS
 62
3
 10
-194.194820907898020
 20
256.229620900490830
  0
VERTEX
  8
0
  6
CONTINUOUS
 62
3
 10
-194.127569389309310
 20
256.195522690294870
  0
VERTEX
  8
0
  6
CONTINUOUS
 62
3
 10
-193.928399271687510
 20
256.162734855194230
  0
VERTEX
  8
0
  6
CONTINUOUS
 62
3
 10
-193.604964550956940
 20
256.132517413304190
  0
VERTEX
  8
0
  6
CONTINUOUS
 62
3
 10
-193.169694642050930
 20
256.106031603970510
  0
VERTEX
  8
0
  6
CONTINUOUS
 62
3
 10
-192.639316723466640
 20
256.084295261992390
  0
VERTEX
  8
0
  6
CONTINUOUS
 62
3
 10
-192.034212921175820
 20
256.068143702802220
  0
VERTEX
  8
0
  6
CONTINUOUS
 62
3
 10
-191.377637034954460
 20
256.058197621761790
  0
VERTEX
  8
0
  6
CONTINUOUS
 62
3
 10
-190.694820907898020
 20
256.054839241187610
  0
VERTEX
  8
0
  6
CONTINUOUS
 62
3
 10
-190.012004780841580
 20
256.058197621761790
  0
VERTEX
  8
0
  6
CONTINUOUS
 62
3
 10
-189.355428894620220
 20
256.068143702802220
  0
VERTEX
  8
0
  6
CONTINUOUS
 62
3
 10
-188.750325092329400
 20
256.084295261992390
  0
VERTEX
  8
0
  6
CONTINUOUS
 62
3
 10
-188.219947173745110
 20
256.106031603970510
  0
VERTEX
  8
0
  6
CONTINUOUS
 62
3
 10
-187.784677264839100
 20
256.132517413304190
  0
VERTEX
  8
0
  6
CONTINUOUS
 62
3
 10
-187.461242544108530
 20
256.162734855194230
  0
VERTEX
  8
0
  6
CONTINUOUS
 62
3
 10
-187.262072426486720
 20
256.195522690294870
  0
VERTEX
  8
0
  6
CONTINUOUS
 62
3
 10
-187.194820907898020
 20
256.229620900490830
  0
SEQEND
  8
0
  6
CONTINUOUS
 62
3
  0
LINE
  8
0
  6
CONTINUOUS
 62
3
 10
-73.694820907898020
 20
261.540084512672880
 11
-73.694820907898020
 21
274.479059452985950
  0
LINE
  8
0
  6
CONTINUOUS
 62
3
 10
-197.694820907898020
 20
261.540084512672880
 11
-197.694820907898020
 21
274.479059452985950
  0
LINE
  8
0
  6
CONTINUOUS
 62
3
 10
-197.694820907898020
 20
261.073569744048260
 11
-198.694820907898020
 21
261.073569744048260
  0
LINE
  8
0
  6
CONTINUOUS
 62
3
 10
-72.694820907898020
 20
255.979932815771060
 11
-198.694820907898020
 21
255.979932815771060
  0
ARC
  8
0
  6
CONTINUOUS
 62
3
 10
-192.694820907898020
 20
274.479059452985950
 40
5.000000000000000
 50
90.000000000000000
 51
180.000000000000000
  0
ARC
  8
0
  6
CONTINUOUS
 62
3
 10
-198.694820907898020
 20
259.073569744048260
 40
2.000000000000000
 50
90.000000000000000
 51
180.000000000000000
  0
ARC
  8
0
  6
CONTINUOUS
 62
3
 10
-198.694820907898020
 20
257.979932815771060
 40
2.000000000000000
 50
180.000000000000000
 51
270.000000000000000
  0
ARC
  8
0
  6
CONTINUOUS
 62
3
 10
-198.694820907898020
 20
257.180930944685830
 40
2.000000000000000
 50
180.000000000000000
 51
270.000000000000000
  0
LINE
  8
0
  6
CONTINUOUS
 62
3
 10
-200.694820907898020
 20
259.073569744048260
 11
-200.694820907898020
 21
256.381929073566940
  0
ARC
  8
0
  6
CONTINUOUS
 62
3
 10
-198.694820907898020
 20
256.381929073566940
 40
2.000000000000000
 50
180.000000000000000
 51
270.000000000000000
  0
LINE
  8
0
  6
CONTINUOUS
 62
3
 10
-197.694820907898020
 20
242.879059452985980
 11
-197.694820907898020
 21
254.381929073566940
  0
ARC
  8
0
  6
CONTINUOUS
 62
3
 10
-78.694820907898020
 20
274.479059452985950
 40
5.000000000000000
 50
0.000000000000000
 51
90.000000000000000
  0
LINE
  8
0
  6
CONTINUOUS
 62
3
 10
-192.694820907898020
 20
279.479059452985950
 11
-78.694820907898020
 21
279.479059452985950
  0
LINE
  8
0
  6
CONTINUOUS
 62
3
 10
-73.694820907898020
 20
242.879059452985980
 11
-73.694820907898020
 21
254.180930944685830
  0
LINE
  8
0
  6
CONTINUOUS
 62
3
 10
-70.694820907898020
 20
259.073569744048260
 11
-70.694820907898020
 21
256.381929073566940
  0
LINE
  8
0
  6
CONTINUOUS
 62
3
 10
-72.694820907898020
 20
255.180930944669000
 11
-198.694820907898020
 21
255.180930944669000
  0
LINE
  8
0
  6
CONTINUOUS
 62
3
 10
-72.694820907898020
 20
254.381929073566940
 11
-198.694820907898020
 21
254.381929073566940
  0
LINE
  8
0
  6
CONTINUOUS
 62
3
 10
-73.694820907898020
 20
261.073569744048260
 11
-72.694820907898020
 21
261.073569744048260
  0
ARC
  8
0
  6
CONTINUOUS
 62
3
 10
-72.694820907898020
 20
259.073569744048260
 40
2.000000000000000
 50
0.000000000000000
 51
90.000000000000000
  0
ARC
  8
0
  6
CONTINUOUS
 62
3
 10
-72.694820907898020
 20
257.979932815771060
 40
2.000000000000000
 50
270.000000000000000
 51
0.000000000000000
  0
ARC
  8
0
  6
CONTINUOUS
 62
3
 10
-72.694820907898020
 20
257.180930944685830
 40
2.000000000000000
 50
270.000000000000000
 51
0.000000000000000
  0
ARC
  8
0
  6
CONTINUOUS
 62
3
 10
-72.694820907898020
 20
256.381929073566940
 40
2.000000000000000
 50
270.000000000000000
 51
0.000000000000000
  0
LINE
  8
0
  6
CONTINUOUS
 62
3
 10
-205.194820907897790
 20
111.759838536113420
 11
-201.194820907897910
 21
111.759838536113420
  0
LINE
  8
0
  6
CONTINUOUS
 62
3
 10
-301.194820907847770
 20
173.379059452986210
 11
-301.194820907847770
 21
120.935854395740760
  0
LINE
  8
0
  6
CONTINUOUS
 62
3
 10
-198.194820907897910
 20
173.379059452986210
 11
-198.194820907897910
 21
114.759838536113420
  0
ARC
  8
0
  6
CONTINUOUS
 62
3
 10
-205.194820907897790
 20
108.759838536113420
 40
3.000000000000000
 50
90.000000000000000
 51
180.000000000000000
  0
ARC
  8
0
  6
CONTINUOUS
 62
3
 10
-201.194820907897910
 20
114.759838536113420
 40
3.000000000000000
 50
270.000000000000000
 51
0.000000000000000
  0
ARC
  8
0
  6
CONTINUOUS
 62
3
 10
-298.594820907847630
 20
225.822264510231660
 40
2.599999999999721
 50
125.000000000001370
 51
180.000000000000000
  0
LINE
  8
0
  6
CONTINUOUS
 62
3
 10
-290.360373857339250
 20
234.762100338766000
 11
-300.086119642360250
 21
227.952059825382780
  0
ARC
  8
0
  6
CONTINUOUS
 62
3
 10
-278.888845130318260
 20
218.379059452986210
 40
20.000000000000000
 50
90.000000000000000
 51
125.000000000000240
  0
LINE
  8
0
  6
CONTINUOUS
 62
3
 10
-301.194820907847770
 20
173.379059452986210
 11
-301.194820907847770
 21
225.822264510231660
  0
LINE
  8
0
  6
CONTINUOUS
 62
3
 10
-198.194820907897910
 20
238.379059452986210
 11
-278.888845130318260
 21
238.379059452986210
  0
LINE
  8
0
  6
CONTINUOUS
 62
3
 10
-131.194820907897910
 20
232.879059452986210
 11
-49.194820907898020
 21
232.879059452986210
  0
LINE
  8
0
  6
CONTINUOUS
 62
4
 10
-198.194820907897910
 20
230.379059452986210
 11
-49.194820907898020
 21
230.379059452986210
  0
LINE
  8
0
  6
CONTINUOUS
 62
4
 10
-198.194820907897910
 20
229.379059452986210
 11
-49.194820907898020
 21
229.379059452986210
  0
LINE
  8
0
  6
CONTINUOUS
 62
4
 10
-198.194820907897910
 20
228.379059452986210
 11
-49.194820907898020
 21
228.379059452986210
  0
LINE
  8
0
  6
CONTINUOUS
 62
3
 10
-198.194820907897910
 20
173.379059452986210
 11
-198.194820907897910
 21
238.379059452986210
  0
LINE
  8
0
  6
CONTINUOUS
 62
4
 10
-198.194820907897910
 20
223.694593639761930
 11
-49.194820907898020
 21
223.694593639761930
  0
LINE
  8
0
  6
CONTINUOUS
 62
4
 10
-198.194820907897910
 20
218.744846171456170
 11
-49.194820907898020
 21
218.744846171456170
  0
LINE
  8
0
  6
CONTINUOUS
 62
4
 10
-198.194820907897910
 20
188.379059452986210
 11
-49.194820907898020
 21
188.379059452986210
  0
LINE
  8
0
  6
CONTINUOUS
 62
4
 10
-198.194820907897910
 20
192.752321262487380
 11
-49.194820907898020
 21
192.752321262487380
  0
LINE
  8
0
  6
CONTINUOUS
 62
4
 10
-198.194820907897910
 20
194.018559178574610
 11
-49.194820907898020
 21
194.018559178574610
  0
LINE
  8
0
  6
CONTINUOUS
 62
4
 10
-198.194820907897910
 20
198.209112910116800
 11
-49.194820907898020
 21
198.209112910116800
  0
LINE
  8
0
  6
CONTINUOUS
 62
4
 10
-198.194820907897910
 20
199.570993245466070
 11
-49.194820907898020
 21
199.570993245466070
  0
LINE
  8
0
  6
CONTINUOUS
 62
4
 10
-198.194820907897910
 20
203.661493779555940
 11
-49.194820907898020
 21
203.661493779555940
  0
LINE
  8
0
  6
CONTINUOUS
 62
4
 10
-198.194820907897910
 20
205.129851169360560
 11
-49.194820907898020
 21
205.129851169360560
  0
LINE
  8
0
  6
CONTINUOUS
 62
4
 10
-198.194820907897910
 20
209.093596593160100
 11
-49.194820907898020
 21
209.093596593160100
  0
LINE
  8
0
  6
CONTINUOUS
 62
4
 10
-198.194820907897910
 20
210.698244508722150
 11
-49.194820907898020
 21
210.698244508722150
  0
LINE
  8
0
  6
CONTINUOUS
 62
4
 10
-198.194820907897910
 20
158.379059452986210
 11
-49.194820907898020
 21
158.379059452986210
  0
LINE
  8
0
  6
CONTINUOUS
 62
4
 10
-198.194820907897910
 20
154.005797643485040
 11
-49.194820907898020
 21
154.005797643485040
  0
LINE
  8
0
  6
CONTINUOUS
 62
4
 10
-198.194820907897910
 20
152.739559727397820
 11
-49.194820907898020
 21
152.739559727397820
  0
LINE
  8
0
  6
CONTINUOUS
 62
4
 10
-198.194820907897910
 20
148.549005995855620
 11
-49.194820907898020
 21
148.549005995855620
  0
LINE
  8
0
  6
CONTINUOUS
 62
4
 10
-198.194820907897910
 20
147.187125660506350
 11
-49.194820907898020
 21
147.187125660506350
  0
LINE
  8
0
  6
CONTINUOUS
 62
4
 10
-198.194820907897910
 20
143.096625126416480
 11
-49.194820907898020
 21
143.096625126416480
  0
LINE
  8
0
  6
CONTINUOUS
 62
4
 10
-198.194820907897910
 20
141.628267736611860
 11
-49.194820907898020
 21
141.628267736611860
  0
LINE
  8
0
  6
CONTINUOUS
 62
4
 10
-198.194820907897910
 20
137.664522312812320
 11
-49.194820907898020
 21
137.664522312812320
  0
LINE
  8
0
  6
CONTINUOUS
 62
4
 10
-198.194820907897910
 20
136.059874397250270
 11
-49.194820907898020
 21
136.059874397250270
  0
LINE
  8
0
  6
CONTINUOUS
 62
4
 10
-198.194820907897910
 20
128.013272734516250
 11
-49.194820907898020
 21
128.013272734516250
  0
LINE
  8
0
  6
CONTINUOUS
 62
4
 10
-198.194820907897910
 20
118.379059452986210
 11
-49.194820907898020
 21
118.379059452986210
  0
LINE
  8
0
  6
CONTINUOUS
 62
4
 10
-198.194820907897910
 20
117.379059452986210
 11
-49.194820907898020
 21
117.379059452986210
  0
LINE
  8
0
  6
CONTINUOUS
 62
4
 10
-198.194820907897910
 20
116.379059452986210
 11
-49.194820907898020
 21
116.379059452986210
  0
LINE
  8
0
  6
CONTINUOUS
 62
3
 10
-209.194820907897340
 20
227.119174553423820
 11
-211.194820907897340
 21
225.466532914300390
  0
LINE
  8
0
  6
CONTINUOUS
 62
3
 10
-207.194820907897340
 20
228.294960039046600
 11
-209.194820907897340
 21
227.119174553423820
  0
LINE
  8
0
  6
CONTINUOUS
 62
3
 10
-209.194820907897340
 20
227.119174553423820
 11
-207.194820907897340
 21
225.466532914300390
  0
LINE
  8
0
  6
CONTINUOUS
 62
3
 10
-211.194820907897340
 20
228.294960039046600
 11
-209.194820907897340
 21
227.119174553423820
  0
POLYLINE
  8
0
  6
CONTINUOUS
 62
3
 66
1
 70
1
  0
VERTEX
  8
0
  6
CONTINUOUS
 62
3
 10
-204.494820907897350
 20
225.302584485046280
  0
VERTEX
  8
0
  6
CONTINUOUS
 62
3
 10
-204.585130090002170
 20
226.005541451246640
  0
VERTEX
  8
0
  6
CONTINUOUS
 62
3
 10
-204.852587105094300
 20
226.681484175458730
  0
VERTEX
  8
0
  6
CONTINUOUS
 62
3
 10
-205.286913730075380
 20
227.304436557864140
  0
VERTEX
  8
0
  6
CONTINUOUS
 62
3
 10
-205.871419036320560
 20
227.850458887762730
  0
VERTEX
  8
0
  6
CONTINUOUS
 62
3
 10
-206.583640812705230
 20
228.298567833229360
  0
VERTEX
  8
0
  6
CONTINUOUS
 62
3
 10
-207.396208775781420
 20
228.631542818792100
  0
VERTEX
  8
0
  6
CONTINUOUS
 62
3
 10
-208.277896394421530
 20
228.836587802490360
  0
VERTEX
  8
0
  6
CONTINUOUS
 62
3
 10
-209.194820907897340
 20
228.905823020591130
  0
VERTEX
  8
0
  6
CONTINUOUS
 62
3
 10
-210.111745421373140
 20
228.836587802490360
  0
VERTEX
  8
0
  6
CONTINUOUS
 62
3
 10
-210.993433040013260
 20
228.631542818792100
  0
VERTEX
  8
0
  6
CONTINUOUS
 62
3
 10
-211.806001003089450
 20
228.298567833229360
  0
VERTEX
  8
0
  6
CONTINUOUS
 62
3
 10
-212.518222779474120
 20
227.850458887762730
  0
VERTEX
  8
0
  6
CONTINUOUS
 62
3
 10
-213.102728085719290
 20
227.304436557864140
  0
VERTEX
  8
0
  6
CONTINUOUS
 62
3
 10
-213.537054710700370
 20
226.681484175458730
  0
VERTEX
  8
0
  6
CONTINUOUS
 62
3
 10
-213.804511725792510
 20
226.005541451246640
  0
VERTEX
  8
0
  6
CONTINUOUS
 62
3
 10
-213.894820907897330
 20
225.302584485046280
  0
VERTEX
  8
0
  6
CONTINUOUS
 62
3
 10
-213.804511725792510
 20
224.599627518845920
  0
VERTEX
  8
0
  6
CONTINUOUS
 62
3
 10
-213.537054710700370
 20
223.923684794633830
  0
VERTEX
  8
0
  6
CONTINUOUS
 62
3
 10
-213.102728085719290
 20
223.300732412228430
  0
VERTEX
  8
0
  6
CONTINUOUS
 62
3
 10
-212.518222779474090
 20
222.754710082329840
  0
VERTEX
  8
0
  6
CONTINUOUS
 62
3
 10
-211.806001003089450
 20
222.306601136863210
  0
VERTEX
  8
0
  6
CONTINUOUS
 62
3
 10
-210.993433040013260
 20
221.973626151300460
  0
VERTEX
  8
0
  6
CONTINUOUS
 62
3
 10
-210.111745421373140
 20
221.768581167602210
  0
VERTEX
  8
0
  6
CONTINUOUS
 62
3
 10
-209.194820907897340
 20
221.699345949501430
  0
VERTEX
  8
0
  6
CONTINUOUS
 62
3
 10
-208.277896394421530
 20
221.768581167602210
  0
VERTEX
  8
0
  6
CONTINUOUS
 62
3
 10
-207.396208775781420
 20
221.973626151300460
  0
VERTEX
  8
0
  6
CONTINUOUS
 62
3
 10
-206.583640812705230
 20
222.306601136863210
  0
VERTEX
  8
0
  6
CONTINUOUS
 62
3
 10
-205.871419036320590
 20
222.754710082329840
  0
VERTEX
  8
0
  6
CONTINUOUS
 62
3
 10
-205.286913730075380
 20
223.300732412228430
  0
VERTEX
  8
0
  6
CONTINUOUS
 62
3
 10
-204.852587105094300
 20
223.923684794633830
  0
VERTEX
  8
0
  6
CONTINUOUS
 62
3
 10
-204.585130090002170
 20
224.599627518845920
  0
SEQEND
  8
0
  6
CONTINUOUS
 62
3
  0
LINE
  8
0
  6
CONTINUOUS
 62
3
 10
-209.194820907897340
 20
119.638944352548370
 11
-211.194820907897340
 21
121.291585991671800
  0
LINE
  8
0
  6
CONTINUOUS
 62
3
 10
-207.194820907897340
 20
118.463158866926050
 11
-209.194820907897340
 21
119.638944352548370
  0
LINE
  8
0
  6
CONTINUOUS
 62
3
 10
-115.994820907898080
 20
113.879059452986210
 11
-49.194820907898020
 21
113.879059452986210
  0
ARC
  8
0
  6
CONTINUOUS
 62
3
 10
-278.888845130318260
 20
128.379059452986210
 40
20.000000000000007
 50
234.999999999999740
 51
270.000000000000000
  0
LINE
  8
0
  6
CONTINUOUS
 62
3
 10
-209.194820907897340
 20
119.638944352548370
 11
-207.194820907897340
 21
121.291585991671800
  0
LINE
  8
0
  6
CONTINUOUS
 62
3
 10
-211.194820907897340
 20
118.463158866926050
 11
-209.194820907897340
 21
119.638944352548370
  0
POLYLINE
  8
0
  6
CONTINUOUS
 62
3
 66
1
 70
1
  0
VERTEX
  8
0
  6
CONTINUOUS
 62
3
 10
-204.494820907897350
 20
121.455534420926360
  0
VERTEX
  8
0
  6
CONTINUOUS
 62
3
 10
-204.585130090002170
 20
122.158491387126730
  0
VERTEX
  8
0
  6
CONTINUOUS
 62
3
 10
-204.852587105094300
 20
122.834434111338820
  0
VERTEX
  8
0
  6
CONTINUOUS
 62
3
 10
-205.286913730075380
 20
123.457386493744220
  0
VERTEX
  8
0
  6
CONTINUOUS
 62
3
 10
-205.871419036320560
 20
124.003408823642800
  0
VERTEX
  8
0
  6
CONTINUOUS
 62
3
 10
-206.583640812705230
 20
124.451517769109410
  0
VERTEX
  8
0
  6
CONTINUOUS
 62
3
 10
-207.396208775781420
 20
124.784492754672180
  0
VERTEX
  8
0
  6
CONTINUOUS
 62
3
 10
-208.277896394421530
 20
124.989537738370430
  0
VERTEX
  8
0
  6
CONTINUOUS
 62
3
 10
-209.194820907897340
 20
125.058772956471200
  0
VERTEX
  8
0
  6
CONTINUOUS
 62
3
 10
-210.111745421373140
 20
124.989537738370430
  0
VERTEX
  8
0
  6
CONTINUOUS
 62
3
 10
-210.993433040013260
 20
124.784492754672180
  0
VERTEX
  8
0
  6
CONTINUOUS
 62
3
 10
-211.806001003089450
 20
124.451517769109410
  0
VERTEX
  8
0
  6
CONTINUOUS
 62
3
 10
-212.518222779474120
 20
124.003408823642800
  0
VERTEX
  8
0
  6
CONTINUOUS
 62
3
 10
-213.102728085719290
 20
123.457386493744220
  0
VERTEX
  8
0
  6
CONTINUOUS
 62
3
 10
-213.537054710700370
 20
122.834434111338820
  0
VERTEX
  8
0
  6
CONTINUOUS
 62
3
 10
-213.804511725792510
 20
122.158491387126730
  0
VERTEX
  8
0
  6
CONTINUOUS
 62
3
 10
-213.894820907897330
 20
121.455534420926360
  0
VERTEX
  8
0
  6
CONTINUOUS
 62
3
 10
-213.804511725792510
 20
120.752577454726000
  0
VERTEX
  8
0
  6
CONTINUOUS
 62
3
 10
-213.537054710700370
 20
120.076634730513910
  0
VERTEX
  8
0
  6
CONTINUOUS
 62
3
 10
-213.102728085719290
 20
119.453682348108510
  0
VERTEX
  8
0
  6
CONTINUOUS
 62
3
 10
-212.518222779474090
 20
118.907660018209930
  0
VERTEX
  8
0
  6
CONTINUOUS
 62
3
 10
-211.806001003089450
 20
118.459551072743320
  0
VERTEX
  8
0
  6
CONTINUOUS
 62
3
 10
-210.993433040013260
 20
118.126576087180550
  0
VERTEX
  8
0
  6
CONTINUOUS
 62
3
 10
-210.111745421373140
 20
117.921531103482300
  0
VERTEX
  8
0
  6
CONTINUOUS
 62
3
 10
-209.194820907897340
 20
117.852295885381530
  0
VERTEX
  8
0
  6
CONTINUOUS
 62
3
 10
-208.277896394421530
 20
117.921531103482300
  0
VERTEX
  8
0
  6
CONTINUOUS
 62
3
 10
-207.396208775781420
 20
118.126576087180550
  0
VERTEX
  8
0
  6
CONTINUOUS
 62
3
 10
-206.583640812705230
 20
118.459551072743320
  0
VERTEX
  8
0
  6
CONTINUOUS
 62
3
 10
-205.871419036320590
 20
118.907660018209930
  0
VERTEX
  8
0
  6
CONTINUOUS
 62
3
 10
-205.286913730075380
 20
119.453682348108510
  0
VERTEX
  8
0
  6
CONTINUOUS
 62
3
 10
-204.852587105094300
 20
120.076634730513910
  0
VERTEX
  8
0
  6
CONTINUOUS
 62
3
 10
-204.585130090002170
 20
120.752577454726000
  0
SEQEND
  8
0
  6
CONTINUOUS
 62
3
  0
LINE
  8
0
  6
CONTINUOUS
 62
3
 10
-208.194820907897790
 20
108.379059452986210
 11
-278.888845130318260
 21
108.379059452986210
  0
ARC
  8
0
  6
CONTINUOUS
 62
3
 10
-298.594820907847630
 20
120.935854395740760
 40
2.600000000000136
 50
180.000000000000000
 51
234.999999999998610
  0
LINE
  8
0
  6
CONTINUOUS
 62
3
 10
-290.360373857339250
 20
111.996018567206420
 11
-300.086119642360250
 21
118.806059080589640
  0
LINE
  8
0
  6
CONTINUOUS
 62
3
 10
-198.194820907897910
 20
232.879059452985980
 11
-49.194820907898020
 21
232.879059452985980
  0
LINE
  8
0
  6
CONTINUOUS
 62
3
 10
-208.194820907897790
 20
108.379059452986210
 11
-208.194820907897790
 21
108.759838536113420
  0
LINE
  8
0
  6
CONTINUOUS
 62
4
 10
-198.194820907897910
 20
123.063525266210490
 11
-49.194820907898020
 21
123.063525266210490
  0
LINE
  8
0
  6
CONTINUOUS
 62
3
 10
-205.994820907898090
 20
109.879059452986210
 11
-115.994820907898080
 21
109.879059452986210
  0
LINE
  8
0
  6
CONTINUOUS
 62
3
 10
-205.994820907898090
 20
111.651204995073520
 11
-205.994820907898090
 21
76.879059452986183
  0
LINE
  8
0
  6
CONTINUOUS
 62
3
 10
-198.994820907898090
 20
75.879059452986183
 11
-198.994820907898090
 21
75.379059452986183
  0
LINE
  8
0
  6
CONTINUOUS
 62
3
 10
-190.994820907898090
 20
75.879059452986183
 11
-190.994820907898090
 21
75.379059452986183
  0
LINE
  8
0
  6
CONTINUOUS
 62
3
 10
-122.994820907898080
 20
75.879059452986183
 11
-122.994820907898080
 21
75.379059452986183
  0
LINE
  8
0
  6
CONTINUOUS
 62
3
 10
-130.994820907898090
 20
75.879059452986183
 11
-130.994820907898090
 21
75.379059452986183
  0
LINE
  8
0
  6
CONTINUOUS
 62
3
 10
-130.994820907898090
 20
75.379059452986183
 11
-122.994820907898080
 21
75.379059452986183
  0
LINE
  8
0
  6
CONTINUOUS
 62
3
 10
-198.994820907898090
 20
75.379059452986183
 11
-190.994820907898090
 21
75.379059452986183
  0
ARC
  8
0
  6
CONTINUOUS
 62
3
 10
-204.994820907898090
 20
76.879059452986183
 40
1.000000000000000
 50
180.000000000000000
 51
270.000000000000000
  0
LINE
  8
0
  6
CONTINUOUS
 62
3
 10
-204.994820907898090
 20
75.879059452986183
 11
-116.994820907898080
 21
75.879059452986183
  0
ARC
  8
0
  6
CONTINUOUS
 62
3
 10
-116.994820907898080
 20
76.879059452986183
 40
1.000000000000000
 50
270.000000000000000
 51
0.000000000000000
  0
LINE
  8
0
  6
CONTINUOUS
 62
3
 10
-115.994820907898080
 20
114.879059452986210
 11
-115.994820907898080
 21
76.879059452986183
  0
LINE
  8
0
  6
CONTINUOUS
 62
3
 10
-115.994820907898080
 20
114.879059452986210
 11
-198.194820907919280
 21
114.879059452986210
  0
LINE
  8
0
  6
DASHDOT
 62
4
 10
416.818338932331240
 20
-176.620940547013650
 11
509.251094460527380
 21
-176.620940547013650
  0
LINE
  8
0
  6
DASHDOT
 62
4
 10
614.980057027172730
 20
-175.120940547014470
 11
312.723362834756700
 21
-175.120940547014470
  0
LINE
  8
0
  6
DASHDOT
 62
4
 10
462.869501132400270
 20
-20.028350771117402
 11
462.869501132400270
 21
-358.928240763551000
  0
LINE
  8
0
  6
DASHED
 62
3
 10
380.706125468643220
 20
-179.226637225175300
 11
380.705748767288240
 21
-179.226637225175300
  0
LINE
  8
0
  6
CONTINUOUS
 62
3
 10
435.369501132400270
 20
-182.152173098278580
 11
444.369501132400270
 21
-182.152173098278580
  0
LINE
  8
0
  6
CONTINUOUS
 62
3
 10
435.369501132400270
 20
-168.152173098278580
 11
444.369501132400270
 21
-168.152173098278580
  0
LINE
  8
0
  6
CONTINUOUS
 62
3
 10
444.369501132400270
 20
-168.152173098278580
 11
444.369501132400270
 21
-182.152173098278580
  0
LINE
  8
0
  6
CONTINUOUS
 62
3
 10
435.369501132400270
 20
-168.152173098278580
 11
435.369501132400270
 21
-182.152173098278580
  0
LINE
  8
0
  6
CONTINUOUS
 62
3
 10
327.869501132400270
 20
-180.759111222330830
 11
327.869501132400270
 21
-320.120940547013560
  0
LINE
  8
0
  6
CONTINUOUS
 62
3
 10
360.014785235850920
 20
-182.952782133806980
 11
360.014785235850920
 21
-318.120940547013560
  0
LINE
  8
0
  6
CONTINUOUS
 62
3
 10
336.860226368073650
 20
-182.952779257007930
 11
336.860226368073650
 21
-318.120940547013560
  0
LINE
  8
0
  6
CONTINUOUS
 62
3
 10
380.369501132400270
 20
-180.120940547014470
 11
380.369501132400270
 21
-303.420940547013740
  0
LINE
  8
0
  6
CONTINUOUS
 62
3
 10
405.948503249369880
 20
-175.120940547014470
 11
385.369501132400270
 21
-175.120940547014470
  0
LINE
  8
0
  6
CONTINUOUS
 62
3
 10
370.542511292042490
 20
-180.120940547014470
 11
370.542511292042490
 21
-318.120940547013560
  0
LINE
  8
0
  6
CONTINUOUS
 62
3
 10
442.369501132401180
 20
-45.120940547014470
 11
442.369501132401180
 21
-70.471251144943380
  0
LINE
  8
0
  6
DASHDOT
 62
4
 10
486.037414131282730
 20
-55.120940547014470
 11
439.014900229748040
 21
-55.120940547014470
  0
LINE
  8
0
  6
CONTINUOUS
 62
3
 10
483.369501132401180
 20
-45.120940547014470
 11
483.369501132401180
 21
-70.471251144943380
  0
LINE
  8
0
  6
CONTINUOUS
 62
3
 10
597.869501132400270
 20
-180.759111222330830
 11
597.869501132400270
 21
-320.120940547013560
  0
LINE
  8
0
  6
CONTINUOUS
 62
3
 10
588.878775896727800
 20
-182.952779257007930
 11
588.878775896727800
 21
-318.120940547013560
  0
LINE
  8
0
  6
CONTINUOUS
 62
3
 10
565.724217028950530
 20
-182.952782133806980
 11
565.724217028950530
 21
-318.120940547013560
  0
LINE
  8
0
  6
CONTINUOUS
 62
3
 10
555.196490972758060
 20
-180.120940547014470
 11
555.196490972758060
 21
-318.120940547013560
  0
LINE
  8
0
  6
CONTINUOUS
 62
3
 10
519.790499015431580
 20
-175.120940547014470
 11
540.369501132400270
 21
-175.120940547014470
  0
LINE
  8
0
  6
CONTINUOUS
 62
3
 10
545.369501132400270
 20
-180.120940547014470
 11
545.369501132400270
 21
-303.420940547013740
  0
CIRCLE
  8
0
  6
CONTINUOUS
 62
3
 10
462.869501132400270
 20
-175.120940547014470
 40
3.324999999999989
  0
CIRCLE
  8
0
  6
CONTINUOUS
 62
4
 10
462.869501132400270
 20
-175.120940547014470
 40
4.000000000000000
  0
ARC
  8
0
  6
CONTINUOUS
 62
3
 10
462.869501132400270
 20
-175.152173098278580
 40
23.999999999999723
 50
196.957763300004330
 51
163.042236699995670
  0
CIRCLE
  8
0
  6
CONTINUOUS
 62
3
 10
462.869501132400270
 20
-175.120940547014470
 40
33.999999999999659
  0
CIRCLE
  8
0
  6
CONTINUOUS
 62
3
 10
462.869501132400270
 20
-175.120940547014470
 40
43.999999999999545
  0
ARC
  8
0
  6
CONTINUOUS
 62
3
 10
437.869501132400270
 20
-180.759111222330830
 40
109.999999999999800
 50
92.924523789727928
 51
180.000000000000000
  0
ARC
  8
0
  6
CONTINUOUS
 62
3
 10
462.869501132400270
 20
-670.120940547014470
 40
557.326989840400530
 50
90.000000000000000
 51
92.924523789728227
  0
ARC
  8
0
  6
CONTINUOUS
 62
3
 10
462.869501132400270
 20
-670.120940547014470
 40
557.326989840400530
 50
87.075476210271688
 51
90.000000000000000
  0
ARC
  8
0
  6
CONTINUOUS
 62
3
 10
385.369501132400270
 20
-180.120940547014470
 40
5.000000000000000
 50
90.000000000000000
 51
180.000000000000000
  0
ARC
  8
0
  6
CONTINUOUS
 62
3
 10
405.948503249369880
 20
-178.120940547014470
 40
3.000000000000143
 50
3.016961309806693
 51
90.000000000000000
  0
ARC
  8
0
  6
CONTINUOUS
 62
3
 10
519.790499015431580
 20
-178.120940547014470
 40
3.000000000000000
 50
90.000000000000000
 51
176.983038690193300
  0
ARC
  8
0
  6
CONTINUOUS
 62
3
 10
462.869501132400270
 20
-175.120940547014470
 40
53.999999999999424
 50
183.016961309816540
 51
356.983038690183490
  0
ARC
  8
0
  6
CONTINUOUS
 62
3
 10
487.869501132401180
 20
-180.759111222330830
 40
67.326989840399619
 50
0.000000000000000
 51
87.075476210271830
  0
ARC
  8
0
  6
CONTINUOUS
 62
3
 10
437.869501132400270
 20
-180.759111222330830
 40
67.326989840399662
 50
92.924523789728170
 51
180.000000000000000
  0
ARC
  8
0
  6
CONTINUOUS
 62
3
 10
452.369501132401180
 20
-45.120940547014470
 40
10.000000000000000
 50
90.000000000000000
 51
180.000000000000000
  0
CIRCLE
  8
0
  6
CONTINUOUS
 62
3
 10
462.869501132401180
 20
-55.120940547014470
 40
10.000000000000000
  0
ARC
  8
0
  6
CONTINUOUS
 62
3
 10
473.369501132401180
 20
-45.120940547014470
 40
10.000000000000000
 50
0.000000000000000
 51
90.000000000000000
  0
ARC
  8
0
  6
CONTINUOUS
 62
3
 10
462.869501132400270
 20
-670.120940547014470
 40
600.000000000000000
 50
90.000000000000000
 51
92.924523789728170
  0
ARC
  8
0
  6
CONTINUOUS
 62
3
 10
487.869501132401180
 20
-180.759111222330830
 40
109.999999999999090
 50
0.000000000000000
 51
87.075476210271603
  0
ARC
  8
0
  6
CONTINUOUS
 62
3
 10
462.869501132400270
 20
-670.120940547014470
 40
600.000000000000680
 50
87.075476210271646
 51
90.000000000000000
  0
ARC
  8
0
  6
CONTINUOUS
 62
3
 10
540.369501132400270
 20
-180.120940547014470
 40
5.000000000000000
 50
0.000000000000000
 51
90.000000000000000
  0
POLYLINE
  8
0
  6
CONTINUOUS
 62
3
 66
1
  0
VERTEX
  8
0
  6
CONTINUOUS
 62
3
 10
360.014785235850240
 20
-182.952782133806980
  0
VERTEX
  8
0
  6
CONTINUOUS
 62
3
 10
359.817660249897810
 20
-177.577591423571680
  0
VERTEX
  8
0
  6
CONTINUOUS
 62
3
 10
359.232997729018280
 20
-172.385446299604130
  0
VERTEX
  8
0
  6
CONTINUOUS
 62
3
 10
358.280707655377850
 20
-167.553159047847460
  0
VERTEX
  8
0
  6
CONTINUOUS
 62
3
 10
356.993219127312780
 20
-163.245287425243590
  0
VERTEX
  8
0
  6
CONTINUOUS
 62
3
 10
355.414376025211080
 20
-159.608530842336050
  0
VERTEX
  8
0
  6
CONTINUOUS
 62
3
 10
353.597943960657860
 20
-156.766734690478470
  0
VERTEX
  8
0
  6
CONTINUOUS
 62
3
 10
351.605779352902860
 20
-154.816672935305040
  0
VERTEX
  8
0
  6
CONTINUOUS
 62
3
 10
349.505722982560310
 20
-153.824752595192560
  0
VERTEX
  8
0
  6
CONTINUOUS
 62
3
 10
347.369289755046790
 20
-153.824752329755030
  0
VERTEX
  8
0
  6
CONTINUOUS
 62
3
 10
345.269233346098020
 20
-154.816672148031590
  0
VERTEX
  8
0
  6
CONTINUOUS
 62
3
 10
343.277068662445230
 20
-156.766733408178770
  0
VERTEX
  8
0
  6
CONTINUOUS
 62
3
 10
341.460636487287270
 20
-159.608529108677260
  0
VERTEX
  8
0
  6
CONTINUOUS
 62
3
 10
339.881793243640460
 20
-163.245285299263400
  0
VERTEX
  8
0
  6
CONTINUOUS
 62
3
 10
338.594304547909990
 20
-167.553156601943560
  0
VERTEX
  8
0
  6
CONTINUOUS
 62
3
 10
337.642014286193500
 20
-172.385443617068860
  0
VERTEX
  8
0
  6
CONTINUOUS
 62
3
 10
337.057351563232030
 20
-177.577588595755600
  0
VERTEX
  8
0
  6
CONTINUOUS
 62
3
 10
336.860226368073370
 20
-182.952779257007930
  0
SEQEND
  8
0
  6
CONTINUOUS
 62
3
  0
POLYLINE
  8
0
  6
CONTINUOUS
 62
3
 66
1
  0
VERTEX
  8
0
  6
CONTINUOUS
 62
3
 10
588.878775896727120
 20
-182.952779257007930
  0
VERTEX
  8
0
  6
CONTINUOUS
 62
3
 10
588.681650701568400
 20
-177.577588595755600
  0
VERTEX
  8
0
  6
CONTINUOUS
 62
3
 10
588.096987978606990
 20
-172.385443617068860
  0
VERTEX
  8
0
  6
CONTINUOUS
 62
3
 10
587.144697716890510
 20
-167.553156601943560
  0
VERTEX
  8
0
  6
CONTINUOUS
 62
3
 10
585.857209021160090
 20
-163.245285299263400
  0
VERTEX
  8
0
  6
CONTINUOUS
 62
3
 10
584.278365777513270
 20
-159.608529108677260
  0
VERTEX
  8
0
  6
CONTINUOUS
 62
3
 10
582.461933602355320
 20
-156.766733408178770
  0
VERTEX
  8
0
  6
CONTINUOUS
 62
3
 10
580.469768918702470
 20
-154.816672148031590
  0
VERTEX
  8
0
  6
CONTINUOUS
 62
3
 10
578.369712509753750
 20
-153.824752329755030
  0
VERTEX
  8
0
  6
CONTINUOUS
 62
3
 10
576.233279282240230
 20
-153.824752595192560
  0
VERTEX
  8
0
  6
CONTINUOUS
 62
3
 10
574.133222911897750
 20
-154.816672935305040
  0
VERTEX
  8
0
  6
CONTINUOUS
 62
3
 10
572.141058304142690
 20
-156.766734690478470
  0
VERTEX
  8
0
  6
CONTINUOUS
 62
3
 10
570.324626239589520
 20
-159.608530842336050
  0
VERTEX
  8
0
  6
CONTINUOUS
 62
3
 10
568.745783137487820
 20
-163.245287425243590
  0
VERTEX
  8
0
  6
CONTINUOUS
 62
3
 10
567.458294609422750
 20
-167.553159047847460
  0
VERTEX
  8
0
  6
CONTINUOUS
 62
3
 10
566.506004535782270
 20
-172.385446299604130
  0
VERTEX
  8
0
  6
CONTINUOUS
 62
3
 10
565.921342014902850
 20
-177.577591423571680
  0
VERTEX
  8
0
  6
CONTINUOUS
 62
3
 10
565.724217028950310
 20
-182.952782133806980
  0
SEQEND
  8
0
  6
CONTINUOUS
 62
3
  0
ARC
  8
0
  6
DASHED
 62
3
 10
403.069501132400550
 20
-196.920940547013630
 40
0.200000000000045
 50
180.000000000000000
 51
270.000000000000000
  0
LINE
  8
0
  6
DASHED
 62
3
 10
399.369501132400500
 20
-211.120940547013670
 11
399.369501132400500
 21
-212.620940547013670
  0
LINE
  8
0
  6
DASHED
 62
3
 10
404.369501132400500
 20
-197.120940547013670
 11
404.369501132400500
 21
-212.620940547013670
  0
LINE
  8
0
  6
DASHED
 62
3
 10
404.369501132400500
 20
-197.120940547013670
 11
403.069501132400550
 21
-197.120940547013670
  0
LINE
  8
0
  6
DASHED
 62
3
 10
402.869501132400500
 20
-156.120940547013670
 11
402.869501132400500
 21
-196.920940547013630
  0
LINE
  8
0
  6
DASHED
 62
3
 10
404.369501132400500
 20
-212.620940547013670
 11
372.002836359457890
 21
-212.620940547013670
  0
LINE
  8
0
  6
DASHED
 62
3
 10
399.369501132400500
 20
-212.620940547013670
 11
399.369501132400500
 21
-140.620940547013670
  0
LINE
  8
0
  6
DASHED
 62
3
 10
404.369501132400500
 20
-156.120940547013670
 11
404.369501132400500
 21
-140.620940547013670
  0
LINE
  8
0
  6
DASHED
 62
3
 10
404.369501132400500
 20
-156.120940547013670
 11
402.869501132400500
 21
-156.120940547013670
  0
LINE
  8
0
  6
DASHED
 62
3
 10
404.369501132400500
 20
-140.620940547013670
 11
372.002836359457890
 21
-140.620940547013670
  0
ARC
  8
0
  6
DASHED
 62
3
 10
372.002836359457890
 20
-145.620940547013670
 40
5.000000000000000
 50
90.000000000000000
 51
173.967950853629390
  0
ARC
  8
0
  6
DASHED
 62
3
 10
665.369501132400500
 20
-176.620940547013670
 40
300.000000000000060
 50
173.967950853630190
 51
186.032049146369810
  0
LINE
  8
0
  6
DASHED
 62
3
 10
364.869501132400500
 20
-179.120940547013670
 11
364.869501132400500
 21
-174.120940547013670
  0
LINE
  8
0
  6
DASHED
 62
3
 10
365.369502989598000
 20
-174.120940547013670
 11
364.869501132400500
 21
-174.120940547013670
  0
LINE
  8
0
  6
DASHED
 62
3
 10
365.379917979918220
 20
-179.120940547013670
 11
364.869501132400500
 21
-179.120940547013670
  0
ARC
  8
0
  6
DASHED
 62
3
 10
372.002836359457890
 20
-207.620940547013670
 40
4.999999999999917
 50
186.032049146370610
 51
270.000000000000000
  0
ARC
  8
0
  6
DASHED
 62
3
 10
542.343746498313290
 20
-130.218304169875950
 40
1.999999999999958
 50
280.598785266065990
 51
2.862405226112724
  0
ARC
  8
0
  6
DASHED
 62
3
 10
547.936759596029110
 20
-129.938653514990250
 40
1.999999999999927
 50
182.862405226112710
 51
265.126025186159040
  0
LINE
  8
0
  6
DASHED
 62
3
 10
545.894844239208170
 20
-129.150315167584810
 11
546.872648051715940
 21
-129.101424976959460
  0
ARC
  8
0
  6
DASHED
 62
3
 10
546.807729187788250
 20
-127.803047698405940
 40
1.299999237060436
 50
272.862387240019930
 51
346.260856815788600
  0
ARC
  8
0
  6
DASHED
 62
3
 10
539.328047992080200
 20
-125.974282710903560
 40
8.999999999999948
 50
346.260856815786500
 51
19.463936333591505
  0
LINE
  8
0
  6
DASHED
 62
3
 10
545.545280920601040
 20
-122.159048795440040
 11
545.894844239208170
 21
-129.150315167584810
  0
LINE
  8
0
  6
DASHED
 62
3
 10
545.545280920601040
 20
-122.159048795440040
 11
545.894844239208170
 21
-129.150315167584810
  0
LINE
  8
0
  6
DASHED
 62
3
 10
545.545280920601040
 20
-122.159048795440040
 11
546.523084733108590
 21
-122.110158604814700
  0
ARC
  8
0
  6
DASHED
 62
3
 10
546.588003597036280
 20
-123.408535883368210
 40
1.299999237060683
 50
19.463936333591853
 51
92.862405909347913
  0
LINE
  8
0
  6
DASHED
 62
3
 10
545.470374495185750
 20
-120.660920287123270
 11
543.872370752981170
 21
-120.740820474233570
  0
ARC
  8
0
  6
DASHED
 62
3
 10
546.169501132400230
 20
-150.663440547013660
 40
18.799999999999869
 50
35.808626813495465
 51
85.126025186157236
  0
LINE
  8
0
  6
DASHED
 62
3
 10
544.671372624083460
 20
-120.700870380678530
 11
549.765009552360430
 21
-222.573608946218510
  0
LINE
  8
0
  6
DASHED
 62
3
 10
545.470374495185750
 20
-120.660920287123270
 11
550.564011423462720
 21
-222.533658852663250
  0
LINE
  8
0
  6
DASHED
 62
3
 10
543.872370752981170
 20
-120.740820474233570
 11
548.966007681258130
 21
-222.613559039774230
  0
ARC
  8
0
  6
DASHED
 62
3
 10
546.169501132400230
 20
-150.663440547013660
 40
18.799999999999983
 50
100.598785266066050
 51
180.000000000000000
  0
LINE
  8
0
  6
DASHED
 62
3
 10
527.369501132400270
 20
-190.663440547013660
 11
527.369501132400270
 21
-150.663440547013660
  0
ARC
  8
0
  6
DASHED
 62
3
 10
548.169501132400230
 20
-190.663440547013660
 40
20.799999999999955
 50
180.000000000000000
 51
265.808273843992540
  0
ARC
  8
0
  6
DASHED
 62
3
 10
548.169501132400230
 20
-190.663440547013660
 40
20.800000000000040
 50
279.916536608230560
 51
334.359929784104850
  0
ARC
  8
0
  6
DASHED
 62
3
 10
546.502953866016700
 20
-213.402451523943090
 40
1.999999999999927
 50
2.862405226112724
 51
85.808273843998577
  0
ARC
  8
0
  6
DASHED
 62
3
 10
552.095966963732510
 20
-213.122800869057160
 40
1.999999999999995
 50
99.916536608232732
 51
182.862405226112400
  0
INSERT
  8
0
  2
SYM29
 10
550.314323338743630
 20
-217.539897158274100
 41
-1.000000000000000
 42
1.000000000000000
 43
1.000000000000000
 50
2.862405226113666
  0
ARC
  8
0
  6
DASHED
 62
3
 10
548.169501132400230
 20
-190.663440547013660
 40
20.799999999999976
 50
334.359929784104850
 51
5.724810452223396
  0
LINE
  8
0
  6
DASHED
 62
3
 10
568.865760484021170
 20
-188.588627579432650
 11
564.875735546365150
 21
-148.788128826315500
  0
ARC
  8
0
  6
DASHED
 62
3
 10
546.169501132400230
 20
-150.663440547013660
 40
18.799999999999827
 50
5.724810452223272
 51
35.808626813495465
  0
POLYLINE
  8
0
  6
CONTINUOUS
 62
3
 66
1
 70
1
  0
VERTEX
  8
0
  6
CONTINUOUS
 62
3
 10
-204.494820907896780
 20
-228.544465579073630
  0
VERTEX
  8
0
  6
CONTINUOUS
 62
3
 10
-204.585130090001600
 20
-227.841508612873270
  0
VERTEX
  8
0
  6
CONTINUOUS
 62
3
 10
-204.852587105093730
 20
-227.165565888661180
  0
VERTEX
  8
0
  6
CONTINUOUS
 62
3
 10
-205.286913730074820
 20
-226.542613506255780
  0
VERTEX
  8
0
  6
CONTINUOUS
 62
3
 10
-205.871419036319990
 20
-225.996591176357190
  0
VERTEX
  8
0
  6
CONTINUOUS
 62
3
 10
-206.583640812704660
 20
-225.548482230890560
  0
VERTEX
  8
0
  6
CONTINUOUS
 62
3
 10
-207.396208775780850
 20
-225.215507245327810
  0
VERTEX
  8
0
  6
CONTINUOUS
 62
3
 10
-208.277896394420960
 20
-225.010462261629560
  0
VERTEX
  8
0
  6
CONTINUOUS
 62
3
 10
-209.194820907896770
 20
-224.941227043528780
  0
VERTEX
  8
0
  6
CONTINUOUS
 62
3
 10
-210.111745421372580
 20
-225.010462261629560
  0
VERTEX
  8
0
  6
CONTINUOUS
 62
3
 10
-210.993433040012690
 20
-225.215507245327810
  0
VERTEX
  8
0
  6
CONTINUOUS
 62
3
 10
-211.806001003088880
 20
-225.548482230890560
  0
VERTEX
  8
0
  6
CONTINUOUS
 62
3
 10
-212.518222779473550
 20
-225.996591176357190
  0
VERTEX
  8
0
  6
CONTINUOUS
 62
3
 10
-213.102728085718720
 20
-226.542613506255780
  0
VERTEX
  8
0
  6
CONTINUOUS
 62
3
 10
-213.537054710699810
 20
-227.165565888661180
  0
VERTEX
  8
0
  6
CONTINUOUS
 62
3
 10
-213.804511725791940
 20
-227.841508612873270
  0
VERTEX
  8
0
  6
CONTINUOUS
 62
3
 10
-213.894820907896760
 20
-228.544465579073630
  0
VERTEX
  8
0
  6
CONTINUOUS
 62
3
 10
-213.804511725791940
 20
-229.247422545273990
  0
VERTEX
  8
0
  6
CONTINUOUS
 62
3
 10
-213.537054710699810
 20
-229.923365269486080
  0
VERTEX
  8
0
  6
CONTINUOUS
 62
3
 10
-213.102728085718720
 20
-230.546317651891480
  0
VERTEX
  8
0
  6
CONTINUOUS
 62
3
 10
-212.518222779473520
 20
-231.092339981790080
  0
VERTEX
  8
0
  6
CONTINUOUS
 62
3
 10
-211.806001003088880
 20
-231.540448927256700
  0
VERTEX
  8
0
  6
CONTINUOUS
 62
3
 10
-210.993433040012690
 20
-231.873423912819450
  0
VERTEX
  8
0
  6
CONTINUOUS
 62
3
 10
-210.111745421372580
 20
-232.078468896517710
  0
VERTEX
  8
0
  6
CONTINUOUS
 62
3
 10
-209.194820907896770
 20
-232.147704114618480
  0
VERTEX
  8
0
  6
CONTINUOUS
 62
3
 10
-208.277896394420960
 20
-232.078468896517710
  0
VERTEX
  8
0
  6
CONTINUOUS
 62
3
 10
-207.396208775780850
 20
-231.873423912819450
  0
VERTEX
  8
0
  6
CONTINUOUS
 62
3
 10
-206.583640812704660
 20
-231.540448927256700
  0
VERTEX
  8
0
  6
CONTINUOUS
 62
3
 10
-205.871419036320020
 20
-231.092339981790080
  0
VERTEX
  8
0
  6
CONTINUOUS
 62
3
 10
-205.286913730074820
 20
-230.546317651891480
  0
VERTEX
  8
0
  6
CONTINUOUS
 62
3
 10
-204.852587105093730
 20
-229.923365269486080
  0
VERTEX
  8
0
  6
CONTINUOUS
 62
3
 10
-204.585130090001600
 20
-229.247422545273990
  0
SEQEND
  8
0
  6
CONTINUOUS
 62
3
  0
LINE
  8
0
  6
CONTINUOUS
 62
3
 10
-211.194820907896770
 20
-231.536841133073950
 11
-209.194820907896770
 21
-230.361055647451620
  0
LINE
  8
0
  6
CONTINUOUS
 62
3
 10
-209.194820907896770
 20
-230.361055647451620
 11
-207.194820907896770
 21
-228.708414008328190
  0
LINE
  8
0
  6
CONTINUOUS
 62
3
 10
-207.194820907896770
 20
-231.536841133073950
 11
-209.194820907896770
 21
-230.361055647451620
  0
LINE
  8
0
  6
CONTINUOUS
 62
3
 10
-209.194820907896770
 20
-230.361055647451620
 11
-211.194820907896770
 21
-228.708414008328190
  0
LINE
  8
0
  6
CONTINUOUS
 62
3
 10
-198.194820907897340
 20
-236.620940547013790
 11
-278.888845130317690
 21
-236.620940547013790
  0
LINE
  8
0
  6
CONTINUOUS
 62
3
 10
-198.194820907897340
 20
-217.620940547013790
 11
-198.194820907897340
 21
-236.620940547013790
  0
ARC
  8
0
  6
CONTINUOUS
 62
3
 10
-205.194820907897220
 20
-211.620940547013790
 40
3.000000000000000
 50
180.000000000000000
 51
270.000000000000000
  0
LINE
  8
0
  6
CONTINUOUS
 62
3
 10
-201.194820907897340
 20
-214.620940547013790
 11
-205.194820907897220
 21
-214.620940547013790
  0
ARC
  8
0
  6
CONTINUOUS
 62
3
 10
-201.194820907897340
 20
-217.620940547013790
 40
3.000000000000000
 50
0.000000000000000
 51
90.000000000000000
  0
LINE
  8
0
  6
CONTINUOUS
 62
3
 10
-208.194820907897220
 20
-211.620940547013790
 11
-208.194820907897220
 21
-176.620940547013790
  0
LINE
  8
0
  6
CONTINUOUS
 62
4
 10
-198.194820907897340
 20
-226.936474733789280
 11
-49.194820907897451
 21
-226.936474733789280
  0
LINE
  8
0
  6
CONTINUOUS
 62
4
 10
-198.194820907897340
 20
-221.986727265483520
 11
-49.194820907897451
 21
-221.986727265483520
  0
LINE
  8
0
  6
CONTINUOUS
 62
4
 10
-207.097813466277440
 20
-213.940125602749730
 11
-49.194820907897451
 21
-213.940125602749730
  0
LINE
  8
0
  6
CONTINUOUS
 62
4
 10
-208.108484696894150
 20
-212.335477687187680
 11
-205.694418417407180
 21
-212.335477687187680
  0
LINE
  8
0
  6
CONTINUOUS
 62
4
 10
-115.994820907897520
 20
-208.371732263388140
 11
-49.194820907897451
 21
-208.371732263388140
  0
LINE
  8
0
  6
CONTINUOUS
 62
4
 10
-208.194820907897220
 20
-206.903374873583060
 11
-205.994820907897520
 21
-206.903374873583060
  0
LINE
  8
0
  6
CONTINUOUS
 62
4
 10
-208.194820907897220
 20
-202.812874339493420
 11
-205.994820907897520
 21
-202.812874339493420
  0
LINE
  8
0
  6
CONTINUOUS
 62
4
 10
-208.194820907897220
 20
-201.450994004144150
 11
-205.994820907897520
 21
-201.450994004144150
  0
LINE
  8
0
  6
CONTINUOUS
 62
4
 10
-208.194820907897220
 20
-196.620940547013790
 11
-205.994820907897520
 21
-196.620940547013790
  0
LINE
  8
0
  6
CONTINUOUS
 62
4
 10
-115.994820907897520
 20
-146.338506220444510
 11
-49.194820907897451
 21
-146.338506220444510
  0
LINE
  8
0
  6
CONTINUOUS
 62
4
 10
-115.994820907897520
 20
-201.450994004144150
 11
-49.194820907897451
 21
-201.450994004144150
  0
LINE
  8
0
  6
CONTINUOUS
 62
4
 10
-208.194820907897220
 20
-146.338506220444510
 11
-205.994820907897520
 21
-146.338506220444510
  0
LINE
  8
0
  6
CONTINUOUS
 62
4
 10
-115.994820907897520
 20
-206.903374873583060
 11
-49.194820907897451
 21
-206.903374873583060
  0
LINE
  8
0
  6
CONTINUOUS
 62
4
 10
-115.994820907897520
 20
-151.790887089883430
 11
-49.194820907897451
 21
-151.790887089883430
  0
LINE
  8
0
  6
CONTINUOUS
 62
4
 10
-115.994820907897520
 20
-196.620940547013790
 11
-49.194820907897451
 21
-196.620940547013790
  0
LINE
  8
0
  6
CONTINUOUS
 62
4
 10
-208.194820907897220
 20
-151.790887089883430
 11
-205.994820907897520
 21
-151.790887089883430
  0
LINE
  8
0
  6
CONTINUOUS
 62
4
 10
-115.994820907897520
 20
-202.812874339493420
 11
-49.194820907897451
 21
-202.812874339493420
  0
LINE
  8
0
  6
CONTINUOUS
 62
4
 10
-115.994820907897520
 20
-150.429006754534160
 11
-49.194820907897451
 21
-150.429006754534160
  0
LINE
  8
0
  6
CONTINUOUS
 62
4
 10
-208.194820907897220
 20
-150.429006754534160
 11
-205.994820907897520
 21
-150.429006754534160
  0
LINE
  8
0
  6
CONTINUOUS
 62
4
 10
-115.994820907897520
 20
-156.620940547013790
 11
-49.194820907897451
 21
-156.620940547013790
  0
LINE
  8
0
  6
CONTINUOUS
 62
4
 10
-208.194820907897220
 20
-156.620940547013790
 11
-205.994820907897520
 21
-156.620940547013790
  0
LINE
  8
0
  6
CONTINUOUS
 62
4
 10
-198.194820907897340
 20
-119.620940547013780
 11
-49.194820907897451
 21
-119.620940547013780
  0
LINE
  8
0
  6
CONTINUOUS
 62
4
 10
-198.194820907897340
 20
-119.120940547013780
 11
-49.194820907897451
 21
-119.120940547013780
  0
LINE
  8
0
  6
CONTINUOUS
 62
4
 10
-198.194820907897340
 20
-120.620940547013780
 11
-49.194820907897451
 21
-120.620940547013780
  0
LINE
  8
0
  6
CONTINUOUS
 62
4
 10
-198.194820907897340
 20
-121.620940547013780
 11
-49.194820907897451
 21
-121.620940547013780
  0
LINE
  8
0
  6
CONTINUOUS
 62
4
 10
-198.194820907897340
 20
-126.305406360238290
 11
-49.194820907897451
 21
-126.305406360238290
  0
LINE
  8
0
  6
CONTINUOUS
 62
4
 10
-198.194820907897340
 20
-131.255153828544050
 11
-49.194820907897451
 21
-131.255153828544050
  0
LINE
  8
0
  6
CONTINUOUS
 62
4
 10
-207.097813466277440
 20
-139.301755491277850
 11
-49.194820907897451
 21
-139.301755491277850
  0
LINE
  8
0
  6
CONTINUOUS
 62
4
 10
-208.108484696894150
 20
-140.906403406839900
 11
-205.694418417407180
 21
-140.906403406839900
  0
LINE
  8
0
  6
CONTINUOUS
 62
4
 10
-208.194820907897220
 20
-144.870148830639440
 11
-205.994820907897520
 21
-144.870148830639440
  0
LINE
  8
0
  6
CONTINUOUS
 62
3
 10
-198.194820907897340
 20
-135.620940547013790
 11
-198.194820907897340
 21
-116.620940547013780
  0
ARC
  8
0
  6
CONTINUOUS
 62
3
 10
-205.194820907897220
 20
-141.620940547013790
 40
3.000000000000000
 50
90.000000000000000
 51
180.000000000000000
  0
LINE
  8
0
  6
CONTINUOUS
 62
3
 10
-201.194820907897340
 20
-138.620940547013790
 11
-205.194820907897220
 21
-138.620940547013790
  0
ARC
  8
0
  6
CONTINUOUS
 62
3
 10
-201.194820907897340
 20
-135.620940547013790
 40
3.000000000000000
 50
270.000000000000000
 51
0.000000000000000
  0
LINE
  8
0
  6
CONTINUOUS
 62
3
 10
-208.194820907897220
 20
-141.620940547013790
 11
-208.194820907897220
 21
-176.620940547013790
  0
LINE
  8
0
  6
CONTINUOUS
 62
3
 10
-49.194820907897451
 20
-118.120940547013780
 11
-198.194820907897340
 21
-118.120940547013780
  0
LINE
  8
0
  6
CONTINUOUS
 62
3
 10
-198.194820907897340
 20
-116.620940547013780
 11
-278.888845130317690
 21
-116.620940547013780
  0
LINE
  8
0
  6
CONTINUOUS
 62
4
 10
-198.194820907897340
 20
-234.120940547013790
 11
-49.194820907897451
 21
-234.120940547013790
  0
LINE
  8
0
  6
CONTINUOUS
 62
4
 10
-198.194820907897340
 20
-233.620940547013790
 11
-49.194820907897451
 21
-233.620940547013790
  0
LINE
  8
0
  6
CONTINUOUS
 62
4
 10
-198.194820907897340
 20
-232.620940547013790
 11
-49.194820907897451
 21
-232.620940547013790
  0
LINE
  8
0
  6
CONTINUOUS
 62
4
 10
-198.194820907897340
 20
-231.620940547013790
 11
-49.194820907897451
 21
-231.620940547013790
  0
POLYLINE
  8
0
  6
CONTINUOUS
 62
3
 66
1
 70
1
  0
VERTEX
  8
0
  6
CONTINUOUS
 62
3
 10
-204.494820907896780
 20
-124.697415514953710
  0
VERTEX
  8
0
  6
CONTINUOUS
 62
3
 10
-204.585130090001600
 20
-123.994458548753350
  0
VERTEX
  8
0
  6
CONTINUOUS
 62
3
 10
-204.852587105093730
 20
-123.318515824541260
  0
VERTEX
  8
0
  6
CONTINUOUS
 62
3
 10
-205.286913730074820
 20
-122.695563442135860
  0
VERTEX
  8
0
  6
CONTINUOUS
 62
3
 10
-205.871419036319990
 20
-122.149541112237280
  0
VERTEX
  8
0
  6
CONTINUOUS
 62
3
 10
-206.583640812704660
 20
-121.701432166770670
  0
VERTEX
  8
0
  6
CONTINUOUS
 62
3
 10
-207.396208775780850
 20
-121.368457181207900
  0
VERTEX
  8
0
  6
CONTINUOUS
 62
3
 10
-208.277896394420960
 20
-121.163412197509650
  0
VERTEX
  8
0
  6
CONTINUOUS
 62
3
 10
-209.194820907896770
 20
-121.094176979408880
  0
VERTEX
  8
0
  6
CONTINUOUS
 62
3
 10
-210.111745421372580
 20
-121.163412197509650
  0
VERTEX
  8
0
  6
CONTINUOUS
 62
3
 10
-210.993433040012690
 20
-121.368457181207900
  0
VERTEX
  8
0
  6
CONTINUOUS
 62
3
 10
-211.806001003088880
 20
-121.701432166770670
  0
VERTEX
  8
0
  6
CONTINUOUS
 62
3
 10
-212.518222779473550
 20
-122.149541112237280
  0
VERTEX
  8
0
  6
CONTINUOUS
 62
3
 10
-213.102728085718720
 20
-122.695563442135860
  0
VERTEX
  8
0
  6
CONTINUOUS
 62
3
 10
-213.537054710699810
 20
-123.318515824541260
  0
VERTEX
  8
0
  6
CONTINUOUS
 62
3
 10
-213.804511725791940
 20
-123.994458548753350
  0
VERTEX
  8
0
  6
CONTINUOUS
 62
3
 10
-213.894820907896760
 20
-124.697415514953710
  0
VERTEX
  8
0
  6
CONTINUOUS
 62
3
 10
-213.804511725791940
 20
-125.400372481154070
  0
VERTEX
  8
0
  6
CONTINUOUS
 62
3
 10
-213.537054710699810
 20
-126.076315205366170
  0
VERTEX
  8
0
  6
CONTINUOUS
 62
3
 10
-213.102728085718720
 20
-126.699267587771570
  0
VERTEX
  8
0
  6
CONTINUOUS
 62
3
 10
-212.518222779473520
 20
-127.245289917670140
  0
VERTEX
  8
0
  6
CONTINUOUS
 62
3
 10
-211.806001003088880
 20
-127.693398863136760
  0
VERTEX
  8
0
  6
CONTINUOUS
 62
3
 10
-210.993433040012690
 20
-128.026373848699540
  0
VERTEX
  8
0
  6
CONTINUOUS
 62
3
 10
-210.111745421372580
 20
-128.231418832397790
  0
VERTEX
  8
0
  6
CONTINUOUS
 62
3
 10
-209.194820907896770
 20
-128.300654050498540
  0
VERTEX
  8
0
  6
CONTINUOUS
 62
3
 10
-208.277896394420960
 20
-128.231418832397790
  0
VERTEX
  8
0
  6
CONTINUOUS
 62
3
 10
-207.396208775780850
 20
-128.026373848699540
  0
VERTEX
  8
0
  6
CONTINUOUS
 62
3
 10
-206.583640812704660
 20
-127.693398863136760
  0
VERTEX
  8
0
  6
CONTINUOUS
 62
3
 10
-205.871419036320020
 20
-127.245289917670140
  0
VERTEX
  8
0
  6
CONTINUOUS
 62
3
 10
-205.286913730074820
 20
-126.699267587771570
  0
VERTEX
  8
0
  6
CONTINUOUS
 62
3
 10
-204.852587105093730
 20
-126.076315205366170
  0
VERTEX
  8
0
  6
CONTINUOUS
 62
3
 10
-204.585130090001600
 20
-125.400372481154070
  0
SEQEND
  8
0
  6
CONTINUOUS
 62
3
  0
LINE
  8
0
  6
CONTINUOUS
 62
3
 10
-211.194820907896770
 20
-121.705039960953400
 11
-209.194820907896770
 21
-122.880825446576180
  0
LINE
  8
0
  6
CONTINUOUS
 62
3
 10
-209.194820907896770
 20
-122.880825446576180
 11
-207.194820907896770
 21
-124.533467085699610
  0
LINE
  8
0
  6
CONTINUOUS
 62
3
 10
-207.194820907896770
 20
-121.705039960953400
 11
-209.194820907896770
 21
-122.880825446576180
  0
LINE
  8
0
  6
CONTINUOUS
 62
3
 10
-209.194820907896770
 20
-122.880825446576180
 11
-211.194820907896770
 21
-124.533467085699610
  0
LINE
  8
0
  6
CONTINUOUS
 62
3
 10
-49.194820907897451
 20
-235.120940547013790
 11
-198.194820907897340
 21
-235.120940547013790
  0
LINE
  8
0
  6
CONTINUOUS
 62
4
 10
-115.994820907897520
 20
-144.870148830639440
 11
-49.194820907897451
 21
-144.870148830639440
  0
LINE
  8
0
  6
CONTINUOUS
 62
4
 10
-116.295223398387630
 20
-140.906403406839900
 11
-49.194820907897451
 21
-140.906403406839900
  0
LINE
  8
0
  6
CONTINUOUS
 62
4
 10
-116.295223398387860
 20
-212.335477687187680
 11
-49.194820907897451
 21
-212.335477687187680
  0
LINE
  8
0
  6
CONTINUOUS
 62
3
 10
-205.994820907897520
 20
-141.620940547013790
 11
-205.994820907897520
 21
-211.620940547013790
  0
ARC
  8
0
  6
CONTINUOUS
 62
3
 10
-204.994820907897520
 20
-141.620940547013790
 40
1.000000000000000
 50
90.000000000000000
 51
180.000000000000000
  0
LINE
  8
0
  6
CONTINUOUS
 62
3
 10
-116.994820907897520
 20
-140.620940547013790
 11
-204.994820907897520
 21
-140.620940547013790
  0
ARC
  8
0
  6
CONTINUOUS
 62
3
 10
-116.994820907897520
 20
-141.620940547013790
 40
1.000000000000000
 50
0.000000000000000
 51
90.000000000000000
  0
LINE
  8
0
  6
CONTINUOUS
 62
3
 10
-115.994820907897520
 20
-141.620940547013790
 11
-115.994820907897520
 21
-211.620940547013790
  0
ARC
  8
0
  6
CONTINUOUS
 62
3
 10
-204.994820907897520
 20
-211.620940547013790
 40
1.000000000000000
 50
180.000000000000000
 51
270.000000000000000
  0
LINE
  8
0
  6
CONTINUOUS
 62
3
 10
-116.994820907897520
 20
-212.620940547013790
 11
-204.994820907897520
 21
-212.620940547013790
  0
ARC
  8
0
  6
CONTINUOUS
 62
3
 10
-116.994820907897520
 20
-211.620940547013790
 40
1.000000000000000
 50
270.000000000000000
 51
0.000000000000000
  0
ARC
  8
0
  6
CONTINUOUS
 62
3
 10
-298.594820907847070
 20
-129.177735489768340
 40
2.599999999999721
 50
125.000000000001370
 51
180.000000000000000
  0
LINE
  8
0
  6
CONTINUOUS
 62
3
 10
-290.360373857338690
 20
-120.237899661233990
 11
-300.086119642359680
 21
-127.047940174617220
  0
ARC
  8
0
  6
CONTINUOUS
 62
3
 10
-278.888845130317690
 20
-136.620940547013790
 40
20.000000000000000
 50
90.000000000000000
 51
125.000000000000240
  0
LINE
  8
0
  6
CONTINUOUS
 62
3
 10
-301.194820907847200
 20
-176.620940547013790
 11
-301.194820907847200
 21
-129.177735489768340
  0
ARC
  8
0
  6
CONTINUOUS
 62
3
 10
-298.594820907847070
 20
-224.064145604259240
 40
2.600000000000136
 50
180.000000000000000
 51
234.999999999998610
  0
LINE
  8
0
  6
CONTINUOUS
 62
3
 10
-290.360373857338690
 20
-233.003981432793580
 11
-300.086119642359680
 21
-226.193940919410350
  0
ARC
  8
0
  6
CONTINUOUS
 62
3
 10
-278.888845130317690
 20
-216.620940547013790
 40
20.000000000000007
 50
234.999999999999740
 51
270.000000000000000
  0
LINE
  8
0
  6
CONTINUOUS
 62
3
 10
-301.194820907847200
 20
-176.620940547013790
 11
-301.194820907847200
 21
-224.064145604259240
  0
ARC
  8
0
  6
CONTINUOUS
 62
3
 10
560.196490972758060
 20
-318.120940547013560
 40
5.000000000000000
 50
180.000000000000000
 51
270.000000000000000
  0
ARC
  8
0
  6
CONTINUOUS
 62
3
 10
570.724217028950530
 20
-318.120940547013560
 40
5.000000000000000
 50
180.000000000000000
 51
270.000000000000000
  0
ARC
  8
0
  6
CONTINUOUS
 62
3
 10
593.878775896727800
 20
-318.120940547013560
 40
5.000000000000000
 50
180.000000000000000
 51
270.000000000000000
  0
ARC
  8
0
  6
CONTINUOUS
 62
3
 10
365.542511292042490
 20
-318.120940547013560
 40
5.000000000000000
 50
270.000000000000000
 51
0.000000000000000
  0
ARC
  8
0
  6
CONTINUOUS
 62
3
 10
355.014785235850920
 20
-318.120940547013560
 40
5.000000000000000
 50
270.000000000000000
 51
0.000000000000000
  0
ARC
  8
0
  6
CONTINUOUS
 62
3
 10
331.860226368073650
 20
-318.120940547013560
 40
5.000000000000000
 50
270.000000000000000
 51
0.000000000000000
  0
ARC
  8
0
  6
CONTINUOUS
 62
3
 10
535.369501132400270
 20
-303.420940547013740
 40
10.000000000000000
 50
270.000000000000000
 51
0.000000000000000
  0
ARC
  8
0
  6
CONTINUOUS
 62
3
 10
390.369501132400270
 20
-303.420940547013740
 40
10.000000000000000
 50
180.000000000000000
 51
270.000000000000000
  0
ARC
  8
0
  6
CONTINUOUS
 62
3
 10
323.369501132400270
 20
-326.120940547013560
 40
3.000000000000000
 50
90.000000000000000
 51
180.000000000000000
  0
ARC
  8
0
  6
CONTINUOUS
 62
3
 10
602.369501132400270
 20
-326.120940547013560
 40
3.000000000000000
 50
0.000000000000000
 51
90.000000000000000
  0
ARC
  8
0
  6
CONTINUOUS
 62
3
 10
372.369501132400270
 20
-345.120940547013560
 40
2.000000000000000
 50
90.000000000000000
 51
180.000000000000000
  0
ARC
  8
0
  6
CONTINUOUS
 62
3
 10
324.869501132400270
 20
-320.120940547013560
 40
3.000000000000000
 50
270.000000000000000
 51
0.000000000000000
  0
ARC
  8
0
  6
CONTINUOUS
 62
3
 10
553.369501132400270
 20
-345.120940547013560
 40
2.000000000000000
 50
0.000000000000000
 51
90.000000000000000
  0
ARC
  8
0
  6
CONTINUOUS
 62
3
 10
600.869501132400270
 20
-320.120940547013560
 40
3.000000000000000
 50
180.000000000000000
 51
270.000000000000000
  0
LINE
  8
0
  6
CONTINUOUS
 62
3
 10
320.369501132400270
 20
-326.120940547013560
 11
320.369501132400270
 21
-345.120940547013560
  0
LINE
  8
0
  6
CONTINUOUS
 62
3
 10
462.869501132400270
 20
-313.420940547013740
 11
535.369501132400270
 21
-313.420940547013740
  0
LINE
  8
0
  6
CONTINUOUS
 62
3
 10
462.869501132400270
 20
-313.420940547013740
 11
390.369501132400270
 21
-313.420940547013740
  0
LINE
  8
0
  6
CONTINUOUS
 62
3
 10
605.369501132400270
 20
-326.120940547013560
 11
605.369501132400270
 21
-345.120940547013560
  0
LINE
  8
0
  6
CONTINUOUS
 62
3
 10
370.369501132400270
 20
-345.120940547013560
 11
320.369501132400270
 21
-345.120940547013560
  0
LINE
  8
0
  6
DASHED
 62
3
 10
356.869501132400270
 20
-323.120940547013560
 11
356.645145383060940
 21
-323.120940547013560
  0
LINE
  8
0
  6
DASHDOT
 62
4
 10
337.869501132400270
 20
-318.908108172440730
 11
337.869501132400270
 21
-349.752878756547940
  0
LINE
  8
0
  6
CONTINUOUS
 62
3
 10
462.869501132400270
 20
-323.120940547013560
 11
323.369501132400270
 21
-323.120940547013560
  0
LINE
  8
0
  6
DASHED
 62
3
 10
568.869501132400270
 20
-323.120940547013560
 11
569.093856881740520
 21
-323.120940547013560
  0
LINE
  8
0
  6
CONTINUOUS
 62
3
 10
462.869501132400270
 20
-323.120940547013560
 11
602.369501132400270
 21
-323.120940547013560
  0
LINE
  8
0
  6
DASHDOT
 62
4
 10
587.869501132400270
 20
-318.908108172440730
 11
587.869501132400270
 21
-349.752878756547030
  0
LINE
  8
0
  6
CONTINUOUS
 62
3
 10
555.369501132400270
 20
-345.120940547013560
 11
605.369501132400270
 21
-345.120940547013560
  0
LINE
  8
0
  6
CONTINUOUS
 62
3
 10
462.869501132400270
 20
-343.120940547013560
 11
372.369501132400270
 21
-343.120940547013560
  0
LINE
  8
0
  6
CONTINUOUS
 62
3
 10
462.869501132400270
 20
-343.120940547013560
 11
553.369501132400270
 21
-343.120940547013560
  0
LINE
  8
0
  6
CONTINUOUS
 62
3
 10
473.369501132401180
 20
-35.120940547014470
 11
452.369501132401180
 21
-35.120940547014470
  0
ENDSEC
  0
EOF
