  0
SECTION
  2
HEADER
  9
$TEXTSIZE
 40
2.5
  9
$ACADVER
  1
AC1009
  9
$DIMASZ
 40
3.863703297614046
  9
$DIMEXE
 40
2.000000000000000
  9
$DIMEXO
 40
1.000000000000000
  9
$DIMLFAC
 40
1.000000000000000
  9
$DIMSCALE
 40
1.000000000000000
  9
$DIMTAD
 70
1
  9
$DIMTFAC
 40
0.625000000000000
  9
$DIMTXT
 40
3.200000047683716
  9
$LUPREC
 70
3
  9
$REGENMODE
 70
1
  9
$TEXTSTYLE
  7
STANDARD1
  0
ENDSEC
  0
SECTION
  2
TABLES
  0
TABLE
  2
LTYPE
 70
4
  0
LTYPE
  2
CONTINUOUS
 70
64
  3
Solid line
 72
65
 73
0
 40
0.0
  0
LTYPE
  2
DASHED
 70
64
  3
-- -- -- -- -- -- -- -- -- -- -- -- -- -- --
 72
65
 73
2
 40
0.75
 49
0.5
 49
-0.25
  0
LTYPE
  2
DASHDOT
 70
64
  3
__ . __ . __ . __ . __ . __ . __ . __ . __ . __
 72
65
 73
4
 40
1.0
 49
0.5
 49
-0.25
 49
0.0
 49
-0.25
  0
LTYPE
  2
DIVIDE
 70
64
  3
__ . . __ . . __ . . __ . . __ . . __ . . __
 72
65
 73
6
 40
1.25
 49
0.5
 49
-0.25
 49
0.0
 49
-0.25
 49
0.0
 49
-0.25
  0
ENDTAB
  0
TABLE
  2
LAYER
 70
1
  0
LAYER
  2
0
 70
64
 62
2
  6
CONTINUOUS
  0
ENDTAB
  0
TABLE
  2
STYLE
 70
4
  0
STYLE
  2
STANDARD1
 70
64
 40
0.0
 41
1.0
 50
0.0
 71
0
 42
3.200000047683716
  3
MONOTXT
  4
BIGFONT
  0
STYLE
  2
STANDARD2
 70
68
 40
0.0
 41
1.0
 50
0.0
 71
0
 42
3.200000047683716
  3
MONOTXT
  4
BIGFONT
  0
STYLE
  2
STANDARD3
 70
64
 40
0.0
 41
1.0
 50
0.0
 71
0
 42
3.200000047683716
  3
MONOTXT
  4

  0
STYLE
  2
STANDARD4
 70
68
 40
0.0
 41
1.0
 50
0.0
 71
0
 42
3.200000047683716
  3
MONOTXT
  4

  0
ENDTAB
  0
TABLE
  2
VIEW
 70
0
  0
ENDTAB
  0
ENDSEC
  0
SECTION
  2
BLOCKS
  0
ENDSEC
  0
SECTION
  2
ENTITIES
  0
ARC
  8
0
  6
CONTINUOUS
 62
256
 10
483.400223879939400
 20
-111.528128187998050
 40
300.000000000000170
 50
175.138594604201960
 51
184.861405395798040
  0
LINE
  8
0
  6
CONTINUOUS
 62
256
 10
197.900213982355350
 20
-81.528128187998050
 11
189.461454745957780
 21
-81.528128187998050
  0
LINE
  8
0
  6
CONTINUOUS
 62
256
 10
197.900213982355350
 20
-141.528128187998050
 11
189.461454745957780
 21
-141.528128187998050
  0
ARC
  8
0
  6
CONTINUOUS
 62
256
 10
189.461454745957780
 20
-86.528128187998050
 40
5.000000000000000
 50
90.000000000000000
 51
175.138594604201330
  0
ARC
  8
0
  6
CONTINUOUS
 62
256
 10
189.461454745957780
 20
-136.528128187998050
 40
4.999999999999893
 50
184.861405395798610
 51
270.000000000000000
  0
LINE
  8
0
  6
CONTINUOUS
 62
256
 10
41.217792544636495
 20
-144.373823613763990
 11
41.217792544636495
 21
-144.173823613763940
  0
LINE
  8
0
  6
CONTINUOUS
 62
256
 10
41.217792544636495
 20
-79.173823613763716
 11
41.217792544636495
 21
-79.373823613763761
  0
LINE
  8
0
  6
CONTINUOUS
 62
256
 10
40.217792544636268
 20
-111.773823613763850
 11
40.217792544636268
 21
-65.640741018881272
  0
LINE
  8
0
  6
CONTINUOUS
 62
256
 10
56.717793307587769
 20
-164.273823613763850
 11
41.217792544636495
 21
-164.273823613763850
  0
LINE
  8
0
  6
CONTINUOUS
 62
256
 10
40.217792544636495
 20
-59.273823613763852
 11
40.217792544636438
 21
-65.640741018881272
  0
LINE
  8
0
  6
CONTINUOUS
 62
256
 10
67.217792544648319
 20
-54.782551146228798
 11
67.217792544648319
 21
-96.773823613763852
  0
LINE
  8
0
  6
CONTINUOUS
 62
256
 10
67.217792544648319
 20
-166.782551146231530
 11
67.217792544648319
 21
-96.773823613763852
  0
LINE
  8
0
  6
CONTINUOUS
 62
256
 10
113.717792544648090
 20
-96.756523613763861
 11
113.717792544648300
 21
-24.256523613764763
  0
LINE
  8
0
  6
CONTINUOUS
 62
256
 10
116.717792544648300
 20
-96.773823613763852
 11
116.717792544648300
 21
-32.556523613764938
  0
LINE
  8
0
  6
CONTINUOUS
 62
256
 10
116.717792544648300
 20
-96.773823613763852
 11
116.717792544648300
 21
-160.981423613762760
  0
LINE
  8
0
  6
CONTINUOUS
 62
256
 10
113.717792544648300
 20
-96.781423613763849
 11
113.717792544648300
 21
-169.294516574547830
  0
LINE
  8
0
  6
CONTINUOUS
 62
256
 10
118.217792544648300
 20
-124.593579720398320
 11
118.217792544648300
 21
-96.773823613763852
  0
LINE
  8
0
  6
CONTINUOUS
 62
256
 10
118.217792544648300
 20
-68.954067507137552
 11
118.217792544648300
 21
-96.773823613763852
  0
LINE
  8
0
  6
CONTINUOUS
 62
256
 10
117.803040522857600
 20
-125.813001242097020
 11
116.717792544648300
 21
-127.223823613769110
  0
ARC
  8
0
  6
CONTINUOUS
 62
256
 10
116.217792544648300
 20
-124.593579720398320
 40
1.999999999999633
 50
322.431407971189970
 51
0.000000000000000
  0
LINE
  8
0
  6
CONTINUOUS
 62
256
 10
117.803040522857600
 20
-67.734645985437965
 11
116.717792544648300
 21
-66.323823613765853
  0
ARC
  8
0
  6
CONTINUOUS
 62
256
 10
116.217792544648300
 20
-68.954067507137552
 40
2.000000000000000
 50
0.000000000000000
 51
37.568592028830572
  0
ARC
  8
0
  6
CONTINUOUS
 62
256
 10
108.717792544648300
 20
-60.075174876810706
 40
1.999999999999863
 50
91.500000000002828
 51
180.000000000000000
  0
LINE
  8
0
  6
CONTINUOUS
 62
256
 10
108.665438648032700
 20
-58.075860226859731
 11
113.717792544648300
 21
-57.930466723198151
  0
ARC
  8
0
  6
CONTINUOUS
 62
256
 10
108.717792544648300
 20
-43.376001555056064
 40
1.999999999999863
 50
91.500000000002828
 51
180.000000000000000
  0
LINE
  8
0
  6
CONTINUOUS
 62
256
 10
108.665438648032460
 20
-41.376686905105089
 11
113.717792544648300
 21
-41.244386362228397
  0
LINE
  8
0
  6
CONTINUOUS
 62
256
 10
102.691615596340380
 20
-169.390831221127880
 11
106.204704070494470
 21
-169.482824680378140
  0
LINE
  8
0
  6
CONTINUOUS
 62
256
 10
106.717792544648300
 20
-43.076865321184528
 11
106.717792544648300
 21
-89.773823613767490
  0
ARC
  8
0
  6
CONTINUOUS
 62
256
 10
108.717792544648300
 20
-133.472472350717000
 40
2.000000000000000
 50
180.000000000000000
 51
268.499999999997270
  0
LINE
  8
0
  6
CONTINUOUS
 62
256
 10
108.665438648032700
 20
-135.471787000667970
 11
113.717792544648300
 21
-135.617180504329550
  0
ARC
  8
0
  6
CONTINUOUS
 62
256
 10
108.717792544648300
 20
-150.171645672471640
 40
2.000000000000000
 50
180.000000000000000
 51
268.499999999997270
  0
LINE
  8
0
  6
CONTINUOUS
 62
256
 10
108.665438648032460
 20
-152.170960322422620
 11
113.717792544648300
 21
-152.303260865299310
  0
LINE
  8
0
  6
CONTINUOUS
 62
256
 10
101.717792544648300
 20
-96.773823613763852
 11
101.717792544648300
 21
-168.273823613762940
  0
LINE
  8
0
  6
CONTINUOUS
 62
256
 10
101.717792544648300
 20
-96.773823613763852
 11
101.717792544648300
 21
-29.782551146228798
  0
LINE
  8
0
  6
CONTINUOUS
 62
256
 10
116.717792544648300
 20
-160.981423613762760
 11
115.945870640128870
 21
-161.773823613763850
  0
LINE
  8
0
  6
CONTINUOUS
 62
256
 10
116.717792544648300
 20
-32.556523613764938
 11
115.955319961776820
 21
-31.773823613763852
  0
ARC
  8
0
  6
CONTINUOUS
 62
256
 10
102.717792544648300
 20
-168.391173896152400
 40
1.000000000000000
 50
180.000000000000000
 51
268.499999999997210
  0
ARC
  8
0
  6
CONTINUOUS
 62
256
 10
102.717792544648300
 20
-25.156473331375309
 40
0.999999999999931
 50
91.500000000002828
 51
180.000000000000000
  0
ARC
  8
0
  6
CONTINUOUS
 62
256
 10
99.717792544648319
 20
-167.341417880018530
 40
2.000000000000000
 50
0.000000000000000
 51
88.999999999998224
  0
ARC
  8
0
  6
CONTINUOUS
 62
256
 10
99.717792544648319
 20
-52.206229347509179
 40
2.000000000000027
 50
271.000000000001760
 51
0.000000000000000
  0
ARC
  8
0
  6
CONTINUOUS
 62
256
 10
99.876126604841829
 20
-169.352909143787660
 40
2.000000000000208
 50
18.697908624297707
 51
89.000000000004846
  0
ARC
  8
0
  6
CONTINUOUS
 62
256
 10
98.717792544648319
 20
-28.978703568935089
 40
3.000000000000048
 50
330.000000000000570
 51
0.000000000000000
  0
ARC
  8
0
  6
CONTINUOUS
 62
256
 10
85.743988888050353
 20
-51.449990669585532
 40
2.999999999999587
 50
271.000000000001930
 51
330.000000000000630
  0
LINE
  8
0
  6
CONTINUOUS
 62
256
 10
101.717792544648300
 20
-167.341417880018530
 11
101.717792544648300
 21
-168.391173896152400
  0
LINE
  8
0
  6
CONTINUOUS
 62
256
 10
113.717792544648300
 20
-169.286916574547830
 11
106.220533944843960
 21
-169.483239200226310
  0
LINE
  8
0
  6
CONTINUOUS
 62
256
 10
101.315868756001690
 20
-30.478703568935089
 11
88.342065099403726
 21
-52.949990669585532
  0
LINE
  8
0
  6
CONTINUOUS
 62
256
 10
102.691615596340380
 20
-24.156816006399822
 11
106.204704070494470
 21
-24.064822547149561
  0
LINE
  8
0
  6
CONTINUOUS
 62
256
 10
113.717792544648300
 20
-24.273823613764762
 11
106.220533944843960
 21
-24.064408027301397
  0
LINE
  8
0
  6
CONTINUOUS
 62
256
 10
67.217792544648319
 20
-166.782551146231530
 11
99.911031417716231
 21
-167.353213753474850
  0
LINE
  8
0
  6
CONTINUOUS
 62
256
 10
67.217792544648319
 20
-54.773823613763852
 11
99.752697357522948
 21
-54.205924737821988
  0
LINE
  8
0
  6
CONTINUOUS
 62
256
 10
67.217792544648319
 20
-164.773823613763850
 11
99.752697357522948
 21
-165.341722489705720
  0
LINE
  8
0
  6
DASHDOT
 62
256
 10
156.607356432524970
 20
-96.773823613763852
 11
61.865447593805357
 21
-96.773823613763852
  0
LINE
  8
0
  6
CONTINUOUS
 62
256
 10
101.717792544648300
 20
-29.782551146228798
 11
101.717792544648300
 21
-25.156473331375309
  0
LINE
  8
0
  6
CONTINUOUS
 62
256
 10
59.717792544648319
 20
-67.023822660089536
 11
56.717793307587769
 21
-67.023822660089536
  0
LINE
  8
0
  6
CONTINUOUS
 62
256
 10
61.717792544648312
 20
-58.523824567438169
 11
56.717793307587769
 21
-58.523824567438169
  0
LINE
  8
0
  6
CONTINUOUS
 62
256
 10
56.717793307587769
 20
-67.023822660089536
 11
56.717793307587769
 21
-58.523824567438169
  0
ARC
  8
0
  6
CONTINUOUS
 62
256
 10
62.217792544648319
 20
-55.360801336326404
 40
0.499999999999321
 50
90.999999999977078
 51
180.000000000000000
  0
LINE
  8
0
  6
CONTINUOUS
 62
256
 10
61.717792544648319
 20
-55.360801336326404
 11
61.717792544648319
 21
-59.767205328733326
  0
LINE
  8
0
  6
CONTINUOUS
 62
256
 10
66.717792544648319
 20
-54.782177380127905
 11
66.717792544648319
 21
-166.782551146231530
  0
LINE
  8
0
  6
CONTINUOUS
 62
256
 10
60.717792544648319
 20
-60.167205328732962
 11
61.317792544648228
 21
-60.167205328732962
  0
ARC
  8
0
  6
CONTINUOUS
 62
256
 10
61.317792544648228
 20
-59.767205328733326
 40
0.399999999999636
 50
270.000000000000000
 51
0.000000000000000
  0
ARC
  8
0
  6
CONTINUOUS
 62
256
 10
60.717792544648319
 20
-61.167205328732962
 40
1.000000000000000
 50
90.000000000000000
 51
180.000000000000000
  0
LINE
  8
0
  6
CONTINUOUS
 62
256
 10
41.217792544636495
 20
-61.273823613763852
 11
41.217792544636495
 21
-164.826193462480660
  0
LINE
  8
0
  6
CONTINUOUS
 62
256
 10
59.717792544648319
 20
-61.167205328732962
 11
59.717792544648319
 21
-98.523450801338186
  0
LINE
  8
0
  6
CONTINUOUS
 62
256
 10
40.217792544636495
 20
-59.273823613763852
 11
40.217792544636040
 21
-164.800007540910880
  0
ARC
  8
0
  6
CONTINUOUS
 62
256
 10
41.717792544636495
 20
-61.273823613763852
 40
0.500000000000000
 50
90.000000000000000
 51
180.000000000000000
  0
LINE
  8
0
  6
CONTINUOUS
 62
256
 10
41.665528313002824
 20
-60.776562666079371
 11
56.717793307587769
 21
-59.987706884533623
  0
LINE
  8
0
  6
CONTINUOUS
 62
256
 10
59.717792544648319
 20
-55.395711466182547
 11
59.717792544648319
 21
-58.523824567438169
  0
LINE
  8
0
  6
CONTINUOUS
 62
256
 10
56.717793307587769
 20
-58.828662927109605
 11
40.217792544636495
 21
-59.260730652978964
  0
LINE
  8
0
  6
CONTINUOUS
 62
256
 10
60.209066341429889
 20
-54.895787618605027
 11
66.717792544648319
 21
-54.782177380127905
  0
ARC
  8
0
  6
CONTINUOUS
 62
256
 10
58.717792544648319
 20
-57.775948311458706
 40
0.999999999999819
 50
311.593253995591400
 51
0.000000000000000
  0
ARC
  8
0
  6
CONTINUOUS
 62
256
 10
60.217792544648319
 20
-55.395711466182547
 40
0.499999999999321
 50
90.999999999977078
 51
180.000000000000000
  0
LINE
  8
0
  6
CONTINUOUS
 62
256
 10
59.717792544648319
 20
-107.023448893989550
 11
59.717792544648319
 21
-160.915702009633610
  0
LINE
  8
0
  6
CONTINUOUS
 62
256
 10
61.717792544648319
 20
-97.923823613764398
 11
61.717792544648319
 21
-107.623823613764220
  0
LINE
  8
0
  6
CONTINUOUS
 62
256
 10
60.717792544648319
 20
-108.023823613763850
 11
61.317792544648228
 21
-108.023823613763850
  0
ARC
  8
0
  6
CONTINUOUS
 62
256
 10
61.317792544648228
 20
-107.623823613764220
 40
0.399999999999636
 50
270.000000000000000
 51
0.000000000000000
  0
ARC
  8
0
  6
CONTINUOUS
 62
256
 10
60.717792544648319
 20
-109.023823613763850
 40
1.000000000000000
 50
90.000000000000000
 51
180.000000000000000
  0
LINE
  8
0
  6
CONTINUOUS
 62
256
 10
60.717792544648319
 20
-97.523823613763852
 11
61.317792544648228
 21
-97.523823613763852
  0
ARC
  8
0
  6
CONTINUOUS
 62
256
 10
61.317792544648228
 20
-97.923823613764398
 40
0.400000000000091
 50
0.000000000000000
 51
90.000000000000000
  0
ARC
  8
0
  6
CONTINUOUS
 62
256
 10
60.717792544648319
 20
-96.523823613763852
 40
1.000000000000000
 50
180.000000000000000
 51
270.000000000000000
  0
LINE
  8
0
  6
CONTINUOUS
 62
256
 10
57.217792544648319
 20
-95.773823613763852
 11
59.217792544648319
 21
-95.773823613763852
  0
LINE
  8
0
  6
CONTINUOUS
 62
256
 10
56.717792544648319
 20
-95.273823613763852
 11
56.717792544648319
 21
-90.773823613763852
  0
LINE
  8
0
  6
CONTINUOUS
 62
256
 10
57.217792544648319
 20
-85.773823613763852
 11
59.217792544648319
 21
-85.773823613763852
  0
LINE
  8
0
  6
CONTINUOUS
 62
256
 10
56.717792544648319
 20
-86.273823613763852
 11
56.717792544648319
 21
-90.773823613763852
  0
ARC
  8
0
  6
CONTINUOUS
 62
256
 10
57.217792544648319
 20
-95.273823613763852
 40
0.500000000000000
 50
180.000000000000000
 51
270.000000000000000
  0
ARC
  8
0
  6
CONTINUOUS
 62
256
 10
59.217792544648319
 20
-96.273823613763852
 40
0.500000000000000
 50
0.000000000000000
 51
90.000000000000000
  0
ARC
  8
0
  6
CONTINUOUS
 62
256
 10
59.217792544648319
 20
-85.273823613763852
 40
0.500000000000000
 50
270.000000000000000
 51
0.000000000000000
  0
ARC
  8
0
  6
CONTINUOUS
 62
256
 10
57.217792544648319
 20
-86.273823613763852
 40
0.500000000000000
 50
90.000000000000000
 51
180.000000000000000
  0
LINE
  8
0
  6
CONTINUOUS
 62
256
 10
41.217792544636495
 20
-144.373823613764220
 11
41.217792544636495
 21
-144.173823613764400
  0
ARC
  8
0
  6
CONTINUOUS
 62
256
 10
60.591597624614451
 20
-166.229069613910720
 40
0.500000000000166
 50
215.467192086431370
 51
269.499999999999660
  0
LINE
  8
0
  6
CONTINUOUS
 62
256
 10
56.717793307587769
 20
-165.232075266781210
 11
40.217792544636268
 21
-164.800007540910880
  0
LINE
  8
0
  6
CONTINUOUS
 62
256
 10
61.717792544648312
 20
-166.523822660089540
 11
61.717792544648319
 21
-162.315702009634150
  0
LINE
  8
0
  6
CONTINUOUS
 62
256
 10
146.217792544624670
 20
-96.773823613763852
 11
146.217792544624670
 21
-89.173823613763489
  0
LINE
  8
0
  6
CONTINUOUS
 62
256
 10
146.217792544624670
 20
-96.773823613763852
 11
146.217792544624670
 21
-104.373823613764220
  0
LINE
  8
0
  6
CONTINUOUS
 62
256
 10
121.217792544624670
 20
-96.773823613763852
 11
121.217792544624670
 21
-104.973831052425330
  0
LINE
  8
0
  6
CONTINUOUS
 62
256
 10
145.817792544624580
 20
-104.773823613763850
 11
124.337407786895010
 21
-104.773823613763850
  0
ARC
  8
0
  6
CONTINUOUS
 62
256
 10
145.817792544624580
 20
-104.373823613764220
 40
0.399999999999636
 50
270.000000000000000
 51
0.000000000000000
  0
LINE
  8
0
  6
CONTINUOUS
 62
256
 10
123.777600165759620
 20
-104.623823613764220
 11
121.617792544624290
 21
-104.623823613764220
  0
LINE
  8
0
  6
CONTINUOUS
 62
256
 10
123.777600165759620
 20
-104.623823613764220
 11
124.337407786895010
 21
-104.773823613763850
  0
ARC
  8
0
  6
CONTINUOUS
 62
256
 10
121.617792544624290
 20
-105.023823613763850
 40
0.399999999999636
 50
90.000000000000000
 51
172.299196497543190
  0
LINE
  8
0
  6
CONTINUOUS
 62
256
 10
120.917792544624490
 20
-105.273831052425520
 11
121.221400016373760
 21
-104.970223580676230
  0
LINE
  8
0
  6
CONTINUOUS
 62
256
 10
118.217792544648300
 20
-105.273831052425520
 11
120.917792544624490
 21
-105.273831052425520
  0
LINE
  8
0
  6
CONTINUOUS
 62
256
 10
121.217792544624670
 20
-96.773823613763852
 11
121.217792544624670
 21
-88.573816175102365
  0
LINE
  8
0
  6
CONTINUOUS
 62
256
 10
145.817792544624580
 20
-88.773823613763852
 11
124.337407786895010
 21
-88.773823613763852
  0
LINE
  8
0
  6
CONTINUOUS
 62
256
 10
118.217792544648300
 20
-88.273816175102183
 11
120.917792544624490
 21
-88.273816175102183
  0
ARC
  8
0
  6
CONTINUOUS
 62
256
 10
145.817792544624580
 20
-89.173823613763489
 40
0.400000000000091
 50
0.000000000000000
 51
90.000000000000000
  0
LINE
  8
0
  6
CONTINUOUS
 62
256
 10
123.777600165759620
 20
-88.923823613763489
 11
121.617792544624290
 21
-88.923823613763489
  0
LINE
  8
0
  6
CONTINUOUS
 62
256
 10
123.777600165759620
 20
-88.923823613763489
 11
124.337407786895010
 21
-88.773823613763852
  0
ARC
  8
0
  6
CONTINUOUS
 62
256
 10
121.617792544624290
 20
-88.523823613763852
 40
0.399999999999814
 50
187.700803502457570
 51
270.000000000000000
  0
LINE
  8
0
  6
CONTINUOUS
 62
256
 10
120.917792544624490
 20
-88.273816175102183
 11
121.221400016373760
 21
-88.577423646851457
  0
ARC
  8
0
  6
CONTINUOUS
 62
256
 10
124.717792544624670
 20
-96.773823613763852
 40
2.500000000000000
 50
90.000000000000000
 51
270.000000000000000
  0
LINE
  8
0
  6
CONTINUOUS
 62
256
 10
146.217792544624670
 20
-94.273823613763852
 11
124.717792544624670
 21
-94.273823613763852
  0
LINE
  8
0
  6
CONTINUOUS
 62
256
 10
146.217792544624670
 20
-99.273823613763852
 11
124.717792544624670
 21
-99.273823613763852
  0
LINE
  8
0
  6
CONTINUOUS
 62
256
 10
113.717792544648090
 20
-91.773823613767490
 11
108.717792544648300
 21
-91.773823613767490
  0
LINE
  8
0
  6
CONTINUOUS
 62
256
 10
113.717792544648090
 20
-101.773823613767490
 11
108.717792544648300
 21
-101.773823613767490
  0
ARC
  8
0
  6
CONTINUOUS
 62
256
 10
108.717792544648300
 20
-89.773823613767490
 40
2.000000000000000
 50
180.000000000000000
 51
270.000000000000000
  0
ARC
  8
0
  6
CONTINUOUS
 62
256
 10
108.717792544648300
 20
-103.773823613767490
 40
2.000000000000000
 50
90.000000000000000
 51
180.000000000000000
  0
ARC
  8
0
  6
CONTINUOUS
 62
256
 10
60.717792544648319
 20
-160.915702009633610
 40
1.000000000000000
 50
180.000000000000000
 51
270.000000000000000
  0
ARC
  8
0
  6
CONTINUOUS
 62
256
 10
61.317792544648228
 20
-162.315702009634150
 40
0.400000000000091
 50
0.000000000000000
 51
90.000000000000000
  0
LINE
  8
0
  6
CONTINUOUS
 62
256
 10
60.717792544648319
 20
-161.915702009633610
 11
61.317792544648228
 21
-161.915702009633610
  0
ARC
  8
0
  6
CONTINUOUS
 62
256
 10
62.217792544648319
 20
-166.243261201980200
 40
0.500000000000000
 50
180.000000000000000
 51
269.500000000008470
  0
LINE
  8
0
  6
CONTINUOUS
 62
256
 10
66.717792544648319
 20
-166.782551146231530
 11
60.587234356865260
 21
-166.729050575443210
  0
POINT
  8
0
  6
CONTINUOUS
 62
256
 10
61.717792544648319
 20
-162.273823613763850
  0
LINE
  8
0
  6
CONTINUOUS
 62
256
 10
56.717793307587769
 20
-166.523822660089540
 11
56.717793307587769
 21
-162.273823613763850
  0
LINE
  8
0
  6
CONTINUOUS
 62
256
 10
59.717792544648312
 20
-158.023824567438170
 11
56.717793307587769
 21
-158.023824567438170
  0
LINE
  8
0
  6
CONTINUOUS
 62
256
 10
61.717793307587769
 20
-166.523822660089540
 11
56.717793307587769
 21
-166.523822660089540
  0
LINE
  8
0
  6
DASHDOT
 62
256
 10
121.927736234865510
 20
-160.413433920561150
 11
93.920479244039370
 21
-160.413433920561150
  0
LINE
  8
0
  6
DASHDOT
 62
256
 10
121.927736234865510
 20
-33.134213306983838
 11
93.920479244039370
 21
-33.134213306983838
  0
CIRCLE
  8
0
  6
CONTINUOUS
 62
256
 10
270.400213982355810
 20
-96.773823613765785
 40
15.000000000004434
  0
LINE
  8
0
  6
DASHDOT
 62
256
 10
325.713515295564320
 20
-152.087124926964980
 11
339.932200198487640
 21
-166.305809829886410
  0
LINE
  8
0
  6
DASHDOT
 62
256
 10
200.814019230904590
 20
-166.360018365226550
 11
214.785751790736190
 21
-152.388285805393140
  0
LINE
  8
0
  6
DASHDOT
 62
256
 10
200.808315891856070
 20
-27.181925523277471
 11
214.315647082035640
 21
-40.689256713454711
  0
LINE
  8
0
  6
DASHDOT
 62
256
 10
326.092034514981150
 20
-41.082003081130210
 11
340.118697357785090
 21
-27.055340238324391
  0
LINE
  8
0
  6
DASHDOT
 62
256
 10
172.675619933058440
 20
-96.773823613763852
 11
351.188148798524480
 21
-96.773823613764876
  0
ARC
  8
0
  6
DASHDOT
 62
256
 10
270.400213982355130
 20
-96.773823613763966
 40
89.999999999999929
 50
218.761723156524080
 51
231.366607215016130
  0
ARC
  8
0
  6
DASHDOT
 62
256
 10
270.400213982355350
 20
-96.773823613763966
 40
89.999999999999915
 50
39.111474979178396
 51
51.366607215015804
  0
CIRCLE
  8
0
  6
CONTINUOUS
 62
256
 10
270.400213982356040
 20
-96.773823613764876
 40
65.000000000000000
  0
ARC
  8
0
  6
DASHDOT
 62
256
 10
270.400213982356720
 20
-96.773823613763966
 40
89.999999999999602
 50
128.633392784984180
 51
141.366607215004020
  0
ARC
  8
0
  6
DASHDOT
 62
256
 10
270.400213982355130
 20
-96.773823613764876
 40
89.999999999999602
 50
308.633392784996260
 51
321.222539268991450
  0
ARC
  8
0
  6
CONTINUOUS
 62
256
 10
319.732115584993150
 20
-66.271963272669495
 40
2.999999999999885
 50
227.303730022827890
 51
31.728456098873554
  0
ARC
  8
0
  6
CONTINUOUS
 62
256
 10
288.400213982356260
 20
-100.230455321534560
 40
43.204623581089415
 50
47.303730022832184
 51
87.093615629290113
  0
ARC
  8
0
  6
CONTINUOUS
 62
256
 10
221.068312379715280
 20
-66.271963272673133
 40
2.999999999999679
 50
148.271543901143390
 51
312.696269977175230
  0
ARC
  8
0
  6
CONTINUOUS
 62
256
 10
252.400213982356260
 20
-100.230455321534560
 40
43.204623581088974
 50
92.906384370709901
 51
132.696269977174840
  0
ARC
  8
0
  6
CONTINUOUS
 62
256
 10
270.400213982356040
 20
-454.773823613763970
 40
398.204623581088530
 50
90.572674378388442
 51
92.906384370709887
  0
ARC
  8
0
  6
CONTINUOUS
 62
256
 10
270.400213982356260
 20
-454.773823613763970
 40
398.204623581088130
 50
87.093615629290085
 51
89.427325621611587
  0
ARC
  8
0
  6
CONTINUOUS
 62
256
 10
326.758078358614740
 20
-26.273823613763966
 40
2.000000000000000
 50
90.000000000000000
 51
135.000000000014040
  0
ARC
  8
0
  6
CONTINUOUS
 62
256
 10
340.900213982355350
 20
-40.415959237485481
 40
2.000000000000177
 50
314.999999999995400
 51
0.000000000000000
  0
ARC
  8
0
  6
CONTINUOUS
 62
256
 10
334.900213982355350
 20
-32.273823613763966
 40
8.000000000000000
 50
0.000000000000000
 51
90.000000000000000
  0
ARC
  8
0
  6
CONTINUOUS
 62
256
 10
270.400213982355350
 20
-96.773823613763966
 40
67.999999999999289
 50
61.382669854105067
 51
118.617330145903680
  0
ARC
  8
0
  6
CONTINUOUS
 62
256
 10
307.758891017537740
 20
-28.302448206365739
 40
10.000000000000218
 50
241.382669854105530
 51
315.000000000005570
  0
CIRCLE
  8
0
  6
CONTINUOUS
 62
256
 10
270.400213982355350
 20
-96.773823613763966
 40
61.000000000000000
  0
ARC
  8
0
  6
CONTINUOUS
 62
256
 10
233.041536947162290
 20
-28.302448206371196
 40
9.999999999999920
 50
225.000000000002760
 51
298.617330145902660
  0
ARC
  8
0
  6
CONTINUOUS
 62
256
 10
214.042349606076410
 20
-26.273823613763966
 40
1.999999999999534
 50
44.999999999986180
 51
90.000000000000000
  0
ARC
  8
0
  6
CONTINUOUS
 62
256
 10
205.900213982355350
 20
-32.273823613763966
 40
8.000000000000000
 50
90.000000000000000
 51
180.000000000000000
  0
ARC
  8
0
  6
CONTINUOUS
 62
256
 10
199.900213982355130
 20
-40.415959237504580
 40
2.000000000000000
 50
180.000000000000000
 51
225.000000000008920
  0
ARC
  8
0
  6
CONTINUOUS
 62
256
 10
201.928838574956440
 20
-59.415146578581812
 40
10.000000000000236
 50
331.382669854102570
 51
45.000000000002764
  0
ARC
  8
0
  6
CONTINUOUS
 62
256
 10
270.400213982355350
 20
-96.773823613763966
 40
67.999999999999559
 50
151.382669854105840
 51
173.530398389657510
  0
ARC
  8
0
  6
CONTINUOUS
 62
256
 10
214.042349606095740
 20
-167.273823613764880
 40
2.000000000000000
 50
270.000000000000000
 51
315.000000000013810
  0
ARC
  8
0
  6
CONTINUOUS
 62
256
 10
199.900213982355130
 20
-153.131687990043360
 40
2.000000000000177
 50
134.999999999995400
 51
180.000000000000000
  0
ARC
  8
0
  6
CONTINUOUS
 62
256
 10
201.928838574962130
 20
-134.132500648957030
 40
10.000000000000563
 50
315.000000000000910
 51
28.617330145899306
  0
ARC
  8
0
  6
CONTINUOUS
 62
256
 10
205.900213982355350
 20
-161.273823613763970
 40
8.000000000000000
 50
180.000000000000000
 51
270.000000000000000
  0
ARC
  8
0
  6
CONTINUOUS
 62
256
 10
270.400213982355350
 20
-96.773823613763966
 40
68.000000000000185
 50
241.382669854105220
 51
298.617330145903110
  0
ARC
  8
0
  6
CONTINUOUS
 62
256
 10
233.041536947172740
 20
-165.245199021163100
 40
10.000000000000218
 50
61.382669854105508
 51
135.000000000005510
  0
ARC
  8
0
  6
CONTINUOUS
 62
256
 10
326.758078358634070
 20
-167.273823613764880
 40
1.999999999999534
 50
224.999999999986190
 51
270.000000000000000
  0
ARC
  8
0
  6
CONTINUOUS
 62
256
 10
307.758891017548190
 20
-165.245199021157650
 40
9.999999999999920
 50
45.000000000002764
 51
118.617330145902780
  0
ARC
  8
0
  6
CONTINUOUS
 62
256
 10
334.900213982355350
 20
-161.273823613763970
 40
8.000000000000000
 50
270.000000000000000
 51
0.000000000000000
  0
ARC
  8
0
  6
CONTINUOUS
 62
256
 10
340.900213982355350
 20
-153.131687990024260
 40
2.000000000000000
 50
0.000000000000000
 51
45.000000000009209
  0
ARC
  8
0
  6
CONTINUOUS
 62
256
 10
338.871589389754040
 20
-134.132500648947030
 40
10.000000000000236
 50
151.382669854102600
 51
225.000000000002760
  0
ARC
  8
0
  6
CONTINUOUS
 62
256
 10
270.400213982355350
 20
-96.773823613763966
 40
68.000000000000426
 50
331.382669854104510
 51
353.530398389656740
  0
ARC
  8
0
  6
CONTINUOUS
 62
256
 10
338.871589389748350
 20
-59.415146578571807
 40
10.000000000000563
 50
135.000000000000910
 51
208.617330145903740
  0
CIRCLE
  8
0
  6
CONTINUOUS
 62
256
 10
270.400213982355350
 20
-96.773823613764876
 40
28.500000000001705
  0
ARC
  8
0
  6
CONTINUOUS
 62
256
 10
270.400213982355350
 20
-96.773823613763966
 40
68.000000000000043
 50
6.469601610342491
 51
28.617330145902912
  0
ARC
  8
0
  6
CONTINUOUS
 62
256
 10
270.400213982355350
 20
-96.773823613763966
 40
68.000000000000142
 50
186.469601610343260
 51
208.617330145903570
  0
ARC
  8
0
  6
CONTINUOUS
 62
256
 10
298.636868199275110
 20
-127.865490280431100
 40
16.999999999999861
 50
178.020519821724410
 51
250.964242295592900
  0
ARC
  8
0
  6
CONTINUOUS
 62
256
 10
254.624001227424510
 20
-132.440490280431850
 40
16.999999999999968
 50
119.601286977159330
 51
197.369633808356040
  0
ARC
  8
0
  6
CONTINUOUS
 62
256
 10
298.636868199275110
 20
-127.865490280431100
 40
16.999999999999893
 50
13.525604501697238
 51
86.469326975567711
  0
ARC
  8
0
  6
CONTINUOUS
 62
256
 10
254.624001227424510
 20
-132.440490280431850
 40
17.000000000000071
 50
294.908479498618020
 51
12.676826329814618
  0
ARC
  8
0
  6
CONTINUOUS
 62
256
 10
299.868525749320950
 20
-107.903450813497440
 40
3.000000000000015
 50
159.309392085947540
 51
266.469326975568260
  0
ARC
  8
0
  6
CONTINUOUS
 62
256
 10
278.648802963714840
 20
-127.174658796646440
 40
3.000000000000167
 50
358.020519821729640
 51
105.180454711340090
  0
ARC
  8
0
  6
CONTINUOUS
 62
256
 10
274.136468876503610
 20
-128.051457785262870
 40
2.999999999999606
 50
96.811961602215632
 51
192.676826329818790
  0
ARC
  8
0
  6
CONTINUOUS
 62
256
 10
244.744773286524380
 20
-115.050813593047790
 40
3.000000000000294
 50
299.601286977152820
 51
35.466151704764435
  0
ARC
  8
0
  6
CONTINUOUS
 62
256
 10
291.461388252544570
 20
-148.662424851037140
 40
4.999999999999915
 50
292.091845782585780
 51
70.964242295592584
  0
ARC
  8
0
  6
CONTINUOUS
 62
256
 10
320.026709211959310
 20
-122.720133008861130
 40
5.000000000000225
 50
193.525604501702190
 51
332.398001014701490
  0
ARC
  8
0
  6
CONTINUOUS
 62
256
 10
263.889742258983230
 20
-152.394087528448950
 40
4.999999999999622
 50
114.908479498619850
 51
263.323785686981860
  0
ARC
  8
0
  6
CONTINUOUS
 62
256
 10
233.627230198609370
 20
-139.008260553782860
 40
4.999999999999889
 50
228.954327619990690
 51
17.369633808356543
  0
CIRCLE
  8
0
  6
CONTINUOUS
 62
256
 10
334.039824289139690
 20
-33.134213306970310
 40
5.300000000000011
  0
CIRCLE
  8
0
  6
CONTINUOUS
 62
256
 10
334.039824289149240
 20
-160.413433920548530
 40
5.300000000000011
  0
CIRCLE
  8
0
  6
CONTINUOUS
 62
256
 10
206.760603675570790
 20
-160.413433920558530
 40
5.300000000000011
  0
CIRCLE
  8
0
  6
CONTINUOUS
 62
256
 10
206.760603675561920
 20
-33.134213306980314
 40
5.300000000000011
  0
ARC
  8
0
  6
CONTINUOUS
 62
256
 10
340.948070080185740
 20
-88.773823613764876
 40
2.999999999999799
 50
186.469601610328770
 51
270.000000000000000
  0
ARC
  8
0
  6
CONTINUOUS
 62
256
 10
340.948070080185740
 20
-104.773823613764880
 40
3.000000000000000
 50
90.000000000000000
 51
173.530398389653950
  0
ARC
  8
0
  6
CONTINUOUS
 62
256
 10
340.900213982356720
 20
-99.773823613764876
 40
2.000000000000000
 50
270.000000000000000
 51
0.000000000000000
  0
ARC
  8
0
  6
CONTINUOUS
 62
256
 10
340.900213982356720
 20
-93.773823613764876
 40
2.000000000000000
 50
0.000000000000000
 51
90.000000000000000
  0
ARC
  8
0
  6
CONTINUOUS
 62
256
 10
199.900213982355350
 20
-93.773823613764876
 40
2.000000000000000
 50
90.000000000000000
 51
180.000000000000000
  0
ARC
  8
0
  6
CONTINUOUS
 62
256
 10
199.852357884526330
 20
-88.773823613764876
 40
3.000000000000000
 50
270.000000000000000
 51
353.530398389671120
  0
ARC
  8
0
  6
CONTINUOUS
 62
256
 10
199.900213982355350
 20
-99.773823613764876
 40
2.000000000000000
 50
180.000000000000000
 51
270.000000000000000
  0
ARC
  8
0
  6
CONTINUOUS
 62
256
 10
199.852357884526330
 20
-104.773823613764880
 40
2.999999999999902
 50
6.469601610346050
 51
90.000000000000000
  0
ARC
  8
0
  6
CONTINUOUS
 62
256
 10
274.400213982356040
 20
-37.909573002718503
 40
2.000000000000140
 50
86.112558457846418
 51
180.000000000000000
  0
ARC
  8
0
  6
CONTINUOUS
 62
256
 10
266.400213982356040
 20
-37.909573002718503
 40
2.000000000000000
 50
0.000000000000000
 51
93.887441542153866
  0
ARC
  8
0
  6
CONTINUOUS
 62
256
 10
266.400213982356040
 20
-54.589190305985653
 40
2.000000000000305
 50
270.572674378390390
 51
0.000000000000000
  0
ARC
  8
0
  6
CONTINUOUS
 62
256
 10
274.400213982356040
 20
-54.589190305985653
 40
2.000000000000000
 50
180.000000000000000
 51
269.427325621609500
  0
LINE
  8
0
  6
CONTINUOUS
 62
256
 10
314.829958829403950
 20
-35.373516018230589
 11
325.343864796241630
 21
-24.859610051391542
  0
LINE
  8
0
  6
CONTINUOUS
 62
256
 10
331.800521577882360
 20
-52.344078766706048
 11
342.314427544728460
 21
-41.830172799858815
  0
LINE
  8
0
  6
CONTINUOUS
 62
256
 10
342.900213982355350
 20
-32.273823613763966
 11
342.900213982355350
 21
-161.273823613763970
  0
LINE
  8
0
  6
CONTINUOUS
 62
256
 10
205.900213982355350
 20
-24.273823613763966
 11
334.900213982355350
 21
-24.273823613763966
  0
LINE
  8
0
  6
CONTINUOUS
 62
256
 10
225.970469135297210
 20
-35.373516018236955
 11
215.456563168449520
 21
-24.859610051391542
  0
LINE
  8
0
  6
CONTINUOUS
 62
256
 10
197.900213982355350
 20
-32.273823613763966
 11
197.900213982355350
 21
-161.273823613763970
  0
LINE
  8
0
  6
CONTINUOUS
 62
256
 10
208.999906386821520
 20
-52.344078766716052
 11
198.486000419982250
 21
-41.830172799877914
  0
LINE
  8
0
  6
CONTINUOUS
 62
256
 10
225.970469135306530
 20
-158.174131209298250
 11
215.456563168468850
 21
-168.688037176137300
  0
LINE
  8
0
  6
CONTINUOUS
 62
256
 10
208.999906386828120
 20
-141.203568460822790
 11
198.486000419982020
 21
-151.717474427670030
  0
LINE
  8
0
  6
CONTINUOUS
 62
256
 10
205.900213982355350
 20
-169.273823613763970
 11
334.900213982355350
 21
-169.273823613763970
  0
LINE
  8
0
  6
CONTINUOUS
 62
256
 10
314.829958829413270
 20
-158.174131209291890
 11
325.343864796260960
 21
-168.688037176137300
  0
LINE
  8
0
  6
CONTINUOUS
 62
256
 10
331.800521577888960
 20
-141.203568460812790
 11
342.314427544728230
 21
-151.717474427650930
  0
LINE
  8
0
  6
DASHDOT
 62
256
 10
270.400213982356040
 20
-17.421918959017717
 11
270.400213982356040
 21
-183.494950482497300
  0
LINE
  8
0
  6
DASHDOT
 62
256
 10
286.861400479612480
 20
-111.773823613764880
 11
254.850515336356470
 21
-111.773823613764880
  0
LINE
  8
0
  6
CONTINUOUS
 62
256
 10
272.400213982356040
 20
-37.909573002718503
 11
272.400213982356040
 21
-54.589190305985653
  0
LINE
  8
0
  6
CONTINUOUS
 62
256
 10
268.400213982356040
 20
-37.909573002718503
 11
268.400213982356040
 21
-54.589190305985653
  0
LINE
  8
0
  6
CONTINUOUS
 62
256
 10
260.400206622348610
 20
-99.273823613764876
 11
265.400206622348610
 21
-99.273823613764876
  0
CIRCLE
  8
0
  6
CONTINUOUS
 62
256
 10
270.400213982355810
 20
-96.773823613764876
 40
2.458500000000015
  0
LINE
  8
0
  6
CONTINUOUS
 62
256
 10
265.400206622348610
 20
-94.273823613764876
 11
265.400206622348610
 21
-99.273823613764876
  0
LINE
  8
0
  6
CONTINUOUS
 62
256
 10
260.400206622348610
 20
-94.273823613764876
 11
260.400206622348610
 21
-99.273823613764876
  0
LINE
  8
0
  6
CONTINUOUS
 62
256
 10
260.400206622348610
 20
-94.273823613764876
 11
265.400206622348610
 21
-94.273823613764876
  0
ARC
  8
0
  6
CONTINUOUS
 62
256
 10
270.400206622348610
 20
-96.773823613764876
 40
8.000000000000096
 50
198.209956864282790
 51
161.789968677645760
  0
CIRCLE
  8
0
  6
CONTINUOUS
 62
256
 10
270.400213982355810
 20
-96.773823613764876
 40
3.000000000000000
  0
LINE
  8
0
  6
DASHDOT
 62
256
 10
270.400213982356040
 20
-17.421918959017717
 11
270.400213982356040
 21
-183.494950482497300
  0
LINE
  8
0
  6
CONTINUOUS
 62
256
 10
56.717793307587769
 20
-162.273823613763850
 11
56.717793307587769
 21
-158.023824567438170
  0
LINE
  8
0
  6
CONTINUOUS
 62
256
 10
40.217792544636268
 20
-65.640741018881272
 11
40.217792544636268
 21
-59.273823613763852
  0
LINE
  8
0
  6
CONTINUOUS
 62
256
 10
40.217792544636438
 20
-65.640741018881272
 11
40.217792544636040
 21
-155.202151867038310
  0
LINE
  8
0
  6
CONTINUOUS
 62
256
 10
41.217792544636495
 20
-65.640741018881272
 11
56.717793307587769
 21
-65.640741018881272
  0
LINE
  8
0
  6
CONTINUOUS
 62
256
 10
41.217792544636495
 20
-67.269168086658965
 11
59.717792544648319
 21
-67.269168086658965
  0
LINE
  8
0
  6
CONTINUOUS
 62
256
 10
41.217792544636495
 20
-70.731909843424091
 11
59.717792544648319
 21
-70.731909843424091
  0
LINE
  8
0
  6
CONTINUOUS
 62
256
 10
41.217792544636495
 20
-71.733388207239386
 11
59.717792544648319
 21
-71.733388207239386
  0
LINE
  8
0
  6
CONTINUOUS
 62
256
 10
41.217792544636495
 20
-78.470222662255082
 11
59.717792544648319
 21
-78.470222662255082
  0
LINE
  8
0
  6
CONTINUOUS
 62
256
 10
41.217792544636495
 20
-80.059432454993896
 11
59.717792544648319
 21
-80.059432454993896
  0
LINE
  8
0
  6
CONTINUOUS
 62
256
 10
41.217792544636495
 20
-83.017428063126772
 11
59.717792544648319
 21
-83.017428063126772
  0
LINE
  8
0
  6
CONTINUOUS
 62
256
 10
41.217792544636495
 20
-84.496451216603873
 11
59.717792544648319
 21
-84.496451216603873
  0
LINE
  8
0
  6
CONTINUOUS
 62
256
 10
41.217792544636495
 20
-87.589182208268994
 11
56.717792544648319
 21
-87.589182208268994
  0
LINE
  8
0
  6
CONTINUOUS
 62
256
 10
41.217792544636495
 20
-88.935583933767703
 11
56.717792544648319
 21
-88.935583933767703
  0
LINE
  8
0
  6
CONTINUOUS
 62
256
 10
41.217792544636495
 20
-91.773823613763852
 11
56.717792544648319
 21
-91.773823613763852
  0
LINE
  8
0
  6
CONTINUOUS
 62
256
 10
41.217792544636495
 20
-131.773823613763850
 11
59.717792544648319
 21
-131.773823613763850
  0
LINE
  8
0
  6
CONTINUOUS
 62
256
 10
41.217792544636495
 20
-134.612063293760000
 11
59.717792544648319
 21
-134.612063293760000
  0
LINE
  8
0
  6
CONTINUOUS
 62
256
 10
41.217792544636495
 20
-135.958465019258480
 11
59.717792544648319
 21
-135.958465019258480
  0
LINE
  8
0
  6
CONTINUOUS
 62
256
 10
41.217792544636495
 20
-139.051196010923830
 11
59.717792544648319
 21
-139.051196010923830
  0
LINE
  8
0
  6
CONTINUOUS
 62
256
 10
41.217792544636495
 20
-140.530219164400930
 11
59.717792544648319
 21
-140.530219164400930
  0
LINE
  8
0
  6
CONTINUOUS
 62
256
 10
41.217792544636495
 20
-143.488214772533870
 11
59.717792544648319
 21
-143.488214772533870
  0
LINE
  8
0
  6
CONTINUOUS
 62
256
 10
41.217792544636495
 20
-145.077424565272620
 11
59.717792544648319
 21
-145.077424565272620
  0
LINE
  8
0
  6
CONTINUOUS
 62
256
 10
41.217792544636495
 20
-151.814259020288320
 11
59.717792544648319
 21
-151.814259020288320
  0
LINE
  8
0
  6
CONTINUOUS
 62
256
 10
41.217792544636495
 20
-156.278479140868740
 11
59.717792544648319
 21
-156.278479140868740
  0
LINE
  8
0
  6
CONTINUOUS
 62
256
 10
41.217792544636495
 20
-157.906906208646660
 11
59.717792544648319
 21
-157.906906208646660
  0
LINE
  8
0
  6
CONTINUOUS
 62
256
 10
41.217792544636495
 20
-162.273823613763850
 11
56.717793307587769
 21
-162.273823613763850
  0
LINE
  8
0
  6
CONTINUOUS
 62
256
 10
41.217792544636495
 20
-162.773823613764080
 11
56.717793307587769
 21
-162.773823613764080
  0
LINE
  8
0
  6
CONTINUOUS
 62
256
 10
41.217792544636495
 20
-152.815737384103610
 11
59.717792544648319
 21
-152.815737384103610
  0
LINE
  8
0
  6
CONTINUOUS
 62
256
 10
-88.282207455363505
 20
-111.773823613763850
 11
-88.282207455363505
 21
-141.273823613763850
  0
LINE
  8
0
  6
CONTINUOUS
 62
256
 10
-13.282207455363505
 20
-111.773823613763850
 11
-13.282207455363505
 21
-141.273823613763850
  0
LINE
  8
0
  6
CONTINUOUS
 62
256
 10
-15.282207455363505
 20
-143.273823613763850
 11
-86.282207455363505
 21
-143.273823613763850
  0
ARC
  8
0
  6
CONTINUOUS
 62
256
 10
-15.282207455363505
 20
-141.273823613763850
 40
2.000000000000000
 50
270.000000000000000
 51
0.000000000000000
  0
ARC
  8
0
  6
CONTINUOUS
 62
256
 10
-86.282207455363505
 20
-141.273823613763850
 40
2.000000000000000
 50
180.000000000000000
 51
270.000000000000000
  0
LINE
  8
0
  6
CONTINUOUS
 62
256
 10
-13.282207455363505
 20
-131.773823613763850
 11
40.217792544636268
 21
-131.773823613763850
  0
LINE
  8
0
  6
CONTINUOUS
 62
256
 10
-13.282207455363505
 20
-134.612063293760000
 11
40.217792544636268
 21
-134.612063293760000
  0
LINE
  8
0
  6
CONTINUOUS
 62
256
 10
-13.282207455363505
 20
-135.958465019258600
 11
40.217792544636268
 21
-135.958465019258600
  0
LINE
  8
0
  6
CONTINUOUS
 62
256
 10
-13.282207455363505
 20
-139.051196010923830
 11
40.217792544636268
 21
-139.051196010923830
  0
LINE
  8
0
  6
CONTINUOUS
 62
256
 10
-13.282207455363505
 20
-140.530219164400930
 11
40.217792544636268
 21
-140.530219164400930
  0
LINE
  8
0
  6
CONTINUOUS
 62
256
 10
-15.282207455363505
 20
-141.773823613763850
 11
-86.282207455363505
 21
-141.773823613763850
  0
ARC
  8
0
  6
CONTINUOUS
 62
256
 10
-86.282207455363505
 20
-140.773823613763850
 40
1.000000000000000
 50
180.000000000000000
 51
270.000000000000000
  0
ARC
  8
0
  6
CONTINUOUS
 62
256
 10
-15.282207455363505
 20
-140.773823613763850
 40
1.000000000000000
 50
270.000000000000000
 51
0.000000000000000
  0
LINE
  8
0
  6
CONTINUOUS
 62
256
 10
-90.282207455384651
 20
-111.773823613763850
 11
-90.282207455384651
 21
-146.773823613763850
  0
LINE
  8
0
  6
CONTINUOUS
 62
256
 10
-83.282207455384651
 20
-149.773823613763850
 11
-87.282207455384651
 21
-149.773823613763850
  0
ARC
  8
0
  6
CONTINUOUS
 62
256
 10
-87.282207455384651
 20
-146.773823613763850
 40
3.000000000000000
 50
180.000000000000000
 51
270.000000000000000
  0
LINE
  8
0
  6
CONTINUOUS
 62
256
 10
-80.282207455384651
 20
-165.773823613764080
 11
-80.282207455384651
 21
-152.773823613763850
  0
ARC
  8
0
  6
CONTINUOUS
 62
256
 10
-83.282207455384651
 20
-152.773823613763850
 40
3.000000000000000
 50
0.000000000000000
 51
90.000000000000000
  0
LINE
  8
0
  6
CONTINUOUS
 62
256
 10
-86.672516637489252
 20
-159.804111534311740
 11
-86.582207455384435
 21
-159.101154568111380
  0
LINE
  8
0
  6
CONTINUOUS
 62
256
 10
-86.939973652581386
 20
-160.480054258523840
 11
-86.672516637489252
 21
-159.804111534311740
  0
LINE
  8
0
  6
CONTINUOUS
 62
256
 10
-87.374300277562469
 20
-161.103006640929240
 11
-86.939973652581386
 21
-160.480054258523840
  0
LINE
  8
0
  6
CONTINUOUS
 62
256
 10
-87.958805583807660
 20
-161.649028970827830
 11
-87.374300277562469
 21
-161.103006640929240
  0
LINE
  8
0
  6
CONTINUOUS
 62
256
 10
-88.671027360192298
 20
-162.097137916294460
 11
-87.958805583807660
 21
-161.649028970827830
  0
LINE
  8
0
  6
CONTINUOUS
 62
256
 10
-89.483595323268503
 20
-162.430112901857200
 11
-88.671027360192298
 21
-162.097137916294460
  0
LINE
  8
0
  6
CONTINUOUS
 62
256
 10
-90.365282941908617
 20
-162.635157885555460
 11
-89.483595323268503
 21
-162.430112901857200
  0
LINE
  8
0
  6
CONTINUOUS
 62
256
 10
-91.282207455384423
 20
-162.704393103656230
 11
-90.365282941908617
 21
-162.635157885555460
  0
LINE
  8
0
  6
CONTINUOUS
 62
256
 10
-92.199131968860229
 20
-162.635157885555460
 11
-91.282207455384423
 21
-162.704393103656230
  0
LINE
  8
0
  6
CONTINUOUS
 62
256
 10
-93.080819587500343
 20
-162.430112901857200
 11
-92.199131968860229
 21
-162.635157885555460
  0
LINE
  8
0
  6
CONTINUOUS
 62
256
 10
-93.893387550576549
 20
-162.097137916294460
 11
-93.080819587500343
 21
-162.430112901857200
  0
LINE
  8
0
  6
CONTINUOUS
 62
256
 10
-94.605609326961186
 20
-161.649028970827830
 11
-93.893387550576549
 21
-162.097137916294460
  0
LINE
  8
0
  6
CONTINUOUS
 62
256
 10
-95.190114633206377
 20
-161.103006640929240
 11
-94.605609326961186
 21
-161.649028970827830
  0
LINE
  8
0
  6
CONTINUOUS
 62
256
 10
-95.624441258187460
 20
-160.480054258523840
 11
-95.190114633206377
 21
-161.103006640929240
  0
LINE
  8
0
  6
CONTINUOUS
 62
256
 10
-95.891898273279594
 20
-159.804111534311740
 11
-95.624441258187460
 21
-160.480054258523840
  0
LINE
  8
0
  6
CONTINUOUS
 62
256
 10
-95.982207455384412
 20
-159.101154568111380
 11
-95.891898273279594
 21
-159.804111534311740
  0
LINE
  8
0
  6
CONTINUOUS
 62
256
 10
-95.891898273279594
 20
-158.398197601911020
 11
-95.982207455384412
 21
-159.101154568111380
  0
LINE
  8
0
  6
CONTINUOUS
 62
256
 10
-95.624441258187460
 20
-157.722254877698930
 11
-95.891898273279594
 21
-158.398197601911020
  0
LINE
  8
0
  6
CONTINUOUS
 62
256
 10
-95.190114633206377
 20
-157.099302495293530
 11
-95.624441258187460
 21
-157.722254877698930
  0
LINE
  8
0
  6
CONTINUOUS
 62
256
 10
-94.605609326961186
 20
-156.553280165394940
 11
-95.190114633206377
 21
-157.099302495293530
  0
LINE
  8
0
  6
CONTINUOUS
 62
256
 10
-93.893387550576549
 20
-156.105171219928310
 11
-94.605609326961186
 21
-156.553280165394940
  0
LINE
  8
0
  6
CONTINUOUS
 62
256
 10
-93.080819587500343
 20
-155.772196234365570
 11
-93.893387550576549
 21
-156.105171219928310
  0
LINE
  8
0
  6
CONTINUOUS
 62
256
 10
-92.199131968860229
 20
-155.567151250667310
 11
-93.080819587500343
 21
-155.772196234365570
  0
LINE
  8
0
  6
CONTINUOUS
 62
256
 10
-91.282207455384423
 20
-155.497916032566540
 11
-92.199131968860229
 21
-155.567151250667310
  0
LINE
  8
0
  6
CONTINUOUS
 62
256
 10
-90.365282941908617
 20
-155.567151250667310
 11
-91.282207455384423
 21
-155.497916032566540
  0
LINE
  8
0
  6
CONTINUOUS
 62
256
 10
-89.483595323268503
 20
-155.772196234365570
 11
-90.365282941908617
 21
-155.567151250667310
  0
LINE
  8
0
  6
CONTINUOUS
 62
256
 10
-88.671027360192298
 20
-156.105171219928310
 11
-89.483595323268503
 21
-155.772196234365570
  0
LINE
  8
0
  6
CONTINUOUS
 62
256
 10
-87.958805583807660
 20
-156.553280165394940
 11
-88.671027360192298
 21
-156.105171219928310
  0
LINE
  8
0
  6
CONTINUOUS
 62
256
 10
-87.374300277562469
 20
-157.099302495293530
 11
-87.958805583807660
 21
-156.553280165394940
  0
LINE
  8
0
  6
CONTINUOUS
 62
256
 10
-86.939973652581386
 20
-157.722254877698930
 11
-87.374300277562469
 21
-157.099302495293530
  0
LINE
  8
0
  6
CONTINUOUS
 62
256
 10
-86.672516637489252
 20
-158.398197601911020
 11
-86.939973652581386
 21
-157.722254877698930
  0
LINE
  8
0
  6
CONTINUOUS
 62
256
 10
-86.582207455384435
 20
-159.101154568111380
 11
-86.672516637489252
 21
-158.398197601911020
  0
LINE
  8
0
  6
CONTINUOUS
 62
256
 10
-93.282207455384651
 20
-162.093530122111820
 11
-91.282207455384878
 21
-160.917744636488920
  0
LINE
  8
0
  6
CONTINUOUS
 62
256
 10
-91.282207455384878
 20
-160.917744636488920
 11
-89.282207455384651
 21
-159.265102997365600
  0
LINE
  8
0
  6
CONTINUOUS
 62
256
 10
-89.282207455384651
 20
-162.093530122111820
 11
-91.282207455384878
 21
-160.917744636488920
  0
LINE
  8
0
  6
CONTINUOUS
 62
256
 10
-91.282207455384878
 20
-160.917744636488920
 11
-93.282207455384651
 21
-159.265102997365600
  0
LINE
  8
0
  6
CONTINUOUS
 62
256
 10
40.217792544636040
 20
-164.273823613763850
 11
-80.282207455384651
 21
-164.273823613763850
  0
LINE
  8
0
  6
CONTINUOUS
 62
256
 10
-80.282207455384651
 20
-162.273823613763850
 11
40.217792544636055
 21
-162.273823613763850
  0
LINE
  8
0
  6
CONTINUOUS
 62
256
 10
-80.282207455384651
 20
-162.773823613763850
 11
40.217792544636048
 21
-162.773823613763880
  0
LINE
  8
0
  6
CONTINUOUS
 62
256
 10
-80.282207455384651
 20
-157.906906208646550
 11
40.217792544636069
 21
-157.906906208646550
  0
LINE
  8
0
  6
CONTINUOUS
 62
256
 10
-80.282207455384651
 20
-156.278479140868740
 11
40.217792544636076
 21
-156.278479140868740
  0
LINE
  8
0
  6
CONTINUOUS
 62
256
 10
-80.282207455384651
 20
-152.815737384103500
 11
40.217792544636268
 21
-152.815737384103500
  0
LINE
  8
0
  6
CONTINUOUS
 62
256
 10
-80.439807801755933
 20
-151.814259020288200
 11
40.217792544636268
 21
-151.814259020288200
  0
LINE
  8
0
  6
CONTINUOUS
 62
256
 10
-90.282207455384651
 20
-145.077424565272510
 11
40.217792544636268
 21
-145.077424565272510
  0
LINE
  8
0
  6
CONTINUOUS
 62
256
 10
-90.282207455384651
 20
-143.488214772533870
 11
40.217792544636268
 21
-143.488214772533870
  0
LINE
  8
0
  6
CONTINUOUS
 62
256
 10
-90.282207455384651
 20
-140.530219164400930
 11
-88.282207455363505
 21
-140.530219164400930
  0
LINE
  8
0
  6
CONTINUOUS
 62
256
 10
-90.282207455384651
 20
-139.051196010923830
 11
-88.282207455363505
 21
-139.051196010923830
  0
LINE
  8
0
  6
CONTINUOUS
 62
256
 10
-90.282207455384651
 20
-135.958465019258600
 11
-88.282207455363505
 21
-135.958465019258600
  0
LINE
  8
0
  6
CONTINUOUS
 62
256
 10
-90.282207455384651
 20
-134.612063293760000
 11
-88.282207455363505
 21
-134.612063293760000
  0
LINE
  8
0
  6
CONTINUOUS
 62
256
 10
-90.282207455384651
 20
-131.773823613763850
 11
-88.282207455363505
 21
-131.773823613763850
  0
LINE
  8
0
  6
CONTINUOUS
 62
256
 10
-80.282207455384651
 20
-165.773823613764080
 11
-109.787052404477660
 21
-165.773823613764080
  0
ARC
  8
0
  6
CONTINUOUS
 62
256
 10
-109.787052404477660
 20
-145.173823613764060
 40
20.599999999999891
 50
235.000000000000400
 51
270.000000000000000
  0
ARC
  8
0
  6
CONTINUOUS
 62
256
 10
-127.682207455384950
 20
-154.617443747393390
 40
2.599999999999923
 50
180.000000000000000
 51
234.999999999997190
  0
LINE
  8
0
  6
CONTINUOUS
 62
256
 10
-130.282207455384880
 20
-154.617443747393390
 11
-130.282207455384880
 21
-111.773823613763850
  0
LINE
  8
0
  6
CONTINUOUS
 62
256
 10
-121.602726993309030
 20
-162.048355726117280
 11
-129.173506189897810
 21
-156.747239062544740
  0
LINE
  8
0
  6
CONTINUOUS
 62
256
 10
-87.282207455363505
 20
-111.773823613763850
 11
-87.282207455363505
 21
-140.773823613763850
  0
LINE
  8
0
  6
CONTINUOUS
 62
256
 10
-14.282207455363505
 20
-140.773823613763850
 11
-14.282207455363505
 21
-111.773823613763850
  0
LINE
  8
0
  6
CONTINUOUS
 62
256
 10
-90.282207455384651
 20
-111.773823613763850
 11
-90.282207455384651
 21
-76.773823613763852
  0
LINE
  8
0
  6
CONTINUOUS
 62
256
 10
-83.282207455384651
 20
-73.773823613763852
 11
-87.282207455384651
 21
-73.773823613763852
  0
ARC
  8
0
  6
CONTINUOUS
 62
256
 10
-87.282207455384651
 20
-76.773823613763852
 40
3.000000000000000
 50
90.000000000000000
 51
180.000000000000000
  0
LINE
  8
0
  6
CONTINUOUS
 62
256
 10
-80.282207455384651
 20
-57.773823613763625
 11
-80.282207455384651
 21
-70.773823613763852
  0
ARC
  8
0
  6
CONTINUOUS
 62
256
 10
-83.282207455384651
 20
-70.773823613763852
 40
3.000000000000000
 50
270.000000000000000
 51
0.000000000000000
  0
LINE
  8
0
  6
CONTINUOUS
 62
256
 10
-86.672516637489252
 20
-65.149449625616569
 11
-86.582207455384435
 21
-64.446492659416208
  0
LINE
  8
0
  6
CONTINUOUS
 62
256
 10
-86.939973652581386
 20
-65.825392349828661
 11
-86.672516637489252
 21
-65.149449625616569
  0
LINE
  8
0
  6
CONTINUOUS
 62
256
 10
-87.374300277562469
 20
-66.448344732234062
 11
-86.939973652581386
 21
-65.825392349828661
  0
LINE
  8
0
  6
CONTINUOUS
 62
256
 10
-87.958805583807660
 20
-66.994367062132639
 11
-87.374300277562469
 21
-66.448344732234062
  0
LINE
  8
0
  6
CONTINUOUS
 62
256
 10
-88.671027360192298
 20
-67.442476007599254
 11
-87.958805583807660
 21
-66.994367062132639
  0
LINE
  8
0
  6
CONTINUOUS
 62
256
 10
-89.483595323268503
 20
-67.775450993162025
 11
-88.671027360192298
 21
-67.442476007599254
  0
LINE
  8
0
  6
CONTINUOUS
 62
256
 10
-90.365282941908617
 20
-67.980495976860269
 11
-89.483595323268503
 21
-67.775450993162025
  0
LINE
  8
0
  6
CONTINUOUS
 62
256
 10
-91.282207455384423
 20
-68.049731194961041
 11
-90.365282941908617
 21
-67.980495976860269
  0
LINE
  8
0
  6
CONTINUOUS
 62
256
 10
-92.199131968860229
 20
-67.980495976860269
 11
-91.282207455384423
 21
-68.049731194961041
  0
LINE
  8
0
  6
CONTINUOUS
 62
256
 10
-93.080819587500343
 20
-67.775450993162025
 11
-92.199131968860229
 21
-67.980495976860269
  0
LINE
  8
0
  6
CONTINUOUS
 62
256
 10
-93.893387550576549
 20
-67.442476007599254
 11
-93.080819587500343
 21
-67.775450993162025
  0
LINE
  8
0
  6
CONTINUOUS
 62
256
 10
-94.605609326961186
 20
-66.994367062132639
 11
-93.893387550576549
 21
-67.442476007599254
  0
LINE
  8
0
  6
CONTINUOUS
 62
256
 10
-95.190114633206377
 20
-66.448344732234062
 11
-94.605609326961186
 21
-66.994367062132639
  0
LINE
  8
0
  6
CONTINUOUS
 62
256
 10
-95.624441258187460
 20
-65.825392349828661
 11
-95.190114633206377
 21
-66.448344732234062
  0
LINE
  8
0
  6
CONTINUOUS
 62
256
 10
-95.891898273279594
 20
-65.149449625616569
 11
-95.624441258187460
 21
-65.825392349828661
  0
LINE
  8
0
  6
CONTINUOUS
 62
256
 10
-95.982207455384412
 20
-64.446492659416208
 11
-95.891898273279594
 21
-65.149449625616569
  0
LINE
  8
0
  6
CONTINUOUS
 62
256
 10
-95.891898273279594
 20
-63.743535693215847
 11
-95.982207455384412
 21
-64.446492659416208
  0
LINE
  8
0
  6
CONTINUOUS
 62
256
 10
-95.624441258187460
 20
-63.067592969003755
 11
-95.891898273279594
 21
-63.743535693215847
  0
LINE
  8
0
  6
CONTINUOUS
 62
256
 10
-95.190114633206377
 20
-62.444640586598354
 11
-95.624441258187460
 21
-63.067592969003755
  0
LINE
  8
0
  6
CONTINUOUS
 62
256
 10
-94.605609326961186
 20
-61.898618256699770
 11
-95.190114633206377
 21
-62.444640586598354
  0
LINE
  8
0
  6
CONTINUOUS
 62
256
 10
-93.893387550576549
 20
-61.450509311233155
 11
-94.605609326961186
 21
-61.898618256699770
  0
LINE
  8
0
  6
CONTINUOUS
 62
256
 10
-93.080819587500343
 20
-61.117534325670398
 11
-93.893387550576549
 21
-61.450509311233155
  0
LINE
  8
0
  6
CONTINUOUS
 62
256
 10
-92.199131968860229
 20
-60.912489341972147
 11
-93.080819587500343
 21
-61.117534325670398
  0
LINE
  8
0
  6
CONTINUOUS
 62
256
 10
-91.282207455384423
 20
-60.843254123871375
 11
-92.199131968860229
 21
-60.912489341972147
  0
LINE
  8
0
  6
CONTINUOUS
 62
256
 10
-90.365282941908617
 20
-60.912489341972147
 11
-91.282207455384423
 21
-60.843254123871375
  0
LINE
  8
0
  6
CONTINUOUS
 62
256
 10
-89.483595323268503
 20
-61.117534325670398
 11
-90.365282941908617
 21
-60.912489341972147
  0
LINE
  8
0
  6
CONTINUOUS
 62
256
 10
-88.671027360192298
 20
-61.450509311233155
 11
-89.483595323268503
 21
-61.117534325670398
  0
LINE
  8
0
  6
CONTINUOUS
 62
256
 10
-87.958805583807660
 20
-61.898618256699770
 11
-88.671027360192298
 21
-61.450509311233155
  0
LINE
  8
0
  6
CONTINUOUS
 62
256
 10
-87.374300277562469
 20
-62.444640586598354
 11
-87.958805583807660
 21
-61.898618256699770
  0
LINE
  8
0
  6
CONTINUOUS
 62
256
 10
-86.939973652581386
 20
-63.067592969003755
 11
-87.374300277562469
 21
-62.444640586598354
  0
LINE
  8
0
  6
CONTINUOUS
 62
256
 10
-86.672516637489252
 20
-63.743535693215847
 11
-86.939973652581386
 21
-63.067592969003755
  0
LINE
  8
0
  6
CONTINUOUS
 62
256
 10
-86.582207455384435
 20
-64.446492659416208
 11
-86.672516637489252
 21
-63.743535693215847
  0
LINE
  8
0
  6
CONTINUOUS
 62
256
 10
-93.282207455384651
 20
-61.454117105415889
 11
-91.282207455384878
 21
-62.629902591038672
  0
LINE
  8
0
  6
CONTINUOUS
 62
256
 10
-91.282207455384878
 20
-62.629902591038672
 11
-89.282207455384651
 21
-64.282544230162102
  0
LINE
  8
0
  6
CONTINUOUS
 62
256
 10
-89.282207455384651
 20
-61.454117105415889
 11
-91.282207455384878
 21
-62.629902591038672
  0
LINE
  8
0
  6
CONTINUOUS
 62
256
 10
-91.282207455384878
 20
-62.629902591038672
 11
-93.282207455384651
 21
-64.282544230162102
  0
ARC
  8
0
  6
CONTINUOUS
 62
256
 10
-109.787052404477660
 20
-78.373823613763648
 40
20.600000000000023
 50
90.000000000000000
 51
124.999999999999600
  0
ARC
  8
0
  6
CONTINUOUS
 62
256
 10
-127.682207455384950
 20
-68.930203480134310
 40
2.600000000000139
 50
125.000000000001440
 51
180.000000000000000
  0
LINE
  8
0
  6
CONTINUOUS
 62
256
 10
-130.282207455384880
 20
-68.930203480134310
 11
-130.282207455384880
 21
-111.773823613763850
  0
LINE
  8
0
  6
CONTINUOUS
 62
256
 10
-121.602726993309030
 20
-61.499291501410312
 11
-129.173506189897810
 21
-66.800408164982855
  0
LINE
  8
0
  6
CONTINUOUS
 62
256
 10
-80.282207455384651
 20
-57.773823613763625
 11
-109.787052404477660
 21
-57.773823613763625
  0
LINE
  8
0
  6
CONTINUOUS
 62
256
 10
40.217792544636268
 20
-59.273823613763852
 11
-80.282207455384651
 21
-59.273823613763852
  0
LINE
  8
0
  6
CONTINUOUS
 62
256
 10
-88.282207455363505
 20
-111.773823613763850
 11
-88.282207455363505
 21
-82.273823613763852
  0
LINE
  8
0
  6
CONTINUOUS
 62
256
 10
-13.282207455363505
 20
-111.773823613763850
 11
-13.282207455363505
 21
-82.273823613763852
  0
LINE
  8
0
  6
CONTINUOUS
 62
256
 10
-15.282207455363505
 20
-80.273823613763852
 11
-86.282207455363505
 21
-80.273823613763852
  0
ARC
  8
0
  6
CONTINUOUS
 62
256
 10
-15.282207455363505
 20
-82.273823613763852
 40
2.000000000000000
 50
0.000000000000000
 51
90.000000000000000
  0
ARC
  8
0
  6
CONTINUOUS
 62
256
 10
-86.282207455363505
 20
-82.273823613763852
 40
2.000000000000000
 50
90.000000000000000
 51
180.000000000000000
  0
LINE
  8
0
  6
DASHDOT
 62
256
 10
74.143365973975733
 20
-111.773823613763850
 11
-141.235080406624770
 21
-111.773823613763850
  0
LINE
  8
0
  6
CONTINUOUS
 62
256
 10
-80.282207455384651
 20
-61.273823613763852
 11
40.217792544636268
 21
-61.273823613763852
  0
LINE
  8
0
  6
CONTINUOUS
 62
256
 10
-80.282207455384651
 20
-60.773823613763739
 11
40.217792544636268
 21
-60.773823613763739
  0
LINE
  8
0
  6
CONTINUOUS
 62
256
 10
-80.282207455384651
 20
-65.640741018881158
 11
40.217792544636268
 21
-65.640741018881158
  0
LINE
  8
0
  6
CONTINUOUS
 62
256
 10
-80.282207455384651
 20
-70.731909843424091
 11
40.217792544636268
 21
-70.731909843424091
  0
LINE
  8
0
  6
CONTINUOUS
 62
256
 10
-90.282207455384651
 20
-91.773823613763852
 11
-88.282207455363505
 21
-91.773823613763852
  0
LINE
  8
0
  6
CONTINUOUS
 62
256
 10
-90.282207455384651
 20
-78.470222662255082
 11
40.217792544636268
 21
-78.470222662255082
  0
LINE
  8
0
  6
CONTINUOUS
 62
256
 10
-90.282207455384651
 20
-80.059432454993839
 11
40.217792544636268
 21
-80.059432454993839
  0
LINE
  8
0
  6
CONTINUOUS
 62
256
 10
-90.282207455384651
 20
-83.017428063126772
 11
-88.282207455363505
 21
-83.017428063126772
  0
LINE
  8
0
  6
CONTINUOUS
 62
256
 10
-90.282207455384651
 20
-84.496451216603873
 11
-88.282207455363505
 21
-84.496451216603873
  0
LINE
  8
0
  6
CONTINUOUS
 62
256
 10
-90.282207455384651
 20
-87.589182208269108
 11
-88.282207455363505
 21
-87.589182208269108
  0
LINE
  8
0
  6
CONTINUOUS
 62
256
 10
-90.282207455384651
 20
-88.935583933767703
 11
-88.282207455363505
 21
-88.935583933767703
  0
LINE
  8
0
  6
CONTINUOUS
 62
256
 10
-80.282207455384651
 20
-67.269168086658965
 11
40.217792544636268
 21
-67.269168086658965
  0
LINE
  8
0
  6
CONTINUOUS
 62
256
 10
-80.439807801755933
 20
-71.733388207239386
 11
40.217792544636268
 21
-71.733388207239386
  0
LINE
  8
0
  6
CONTINUOUS
 62
256
 10
-13.282207455363505
 20
-91.773823613763852
 11
40.217792544636268
 21
-91.773823613763852
  0
LINE
  8
0
  6
CONTINUOUS
 62
256
 10
-13.282207455363505
 20
-88.935583933767703
 11
40.217792544636268
 21
-88.935583933767703
  0
LINE
  8
0
  6
CONTINUOUS
 62
256
 10
-13.282207455363505
 20
-87.589182208269108
 11
40.217792544636268
 21
-87.589182208269108
  0
LINE
  8
0
  6
CONTINUOUS
 62
256
 10
-13.282207455363505
 20
-84.496451216603873
 11
40.217792544636268
 21
-84.496451216603873
  0
LINE
  8
0
  6
CONTINUOUS
 62
256
 10
-13.282207455363505
 20
-83.017428063126772
 11
40.217792544636268
 21
-83.017428063126772
  0
LINE
  8
0
  6
CONTINUOUS
 62
256
 10
-15.282207455363505
 20
-81.773823613763852
 11
-86.282207455363505
 21
-81.773823613763852
  0
LINE
  8
0
  6
CONTINUOUS
 62
256
 10
-87.282207455363505
 20
-111.773823613763850
 11
-87.282207455363505
 21
-82.773823613763852
  0
LINE
  8
0
  6
CONTINUOUS
 62
256
 10
-14.282207455363505
 20
-82.773823613763852
 11
-14.282207455363505
 21
-111.773823613763850
  0
ARC
  8
0
  6
CONTINUOUS
 62
256
 10
-86.282207455363505
 20
-82.773823613763852
 40
1.000000000000000
 50
90.000000000000000
 51
180.000000000000000
  0
ARC
  8
0
  6
CONTINUOUS
 62
256
 10
-15.282207455363505
 20
-82.773823613763852
 40
1.000000000000000
 50
0.000000000000000
 51
90.000000000000000
  0
CIRCLE
  8
0
  6
DASHED
 62
256
 10
-25.782207455351397
 20
31.147114688508850
 40
6.000000000000000
  0
ARC
  8
0
  6
DASHED
 62
256
 10
-25.782207455351397
 20
31.147114688508850
 40
7.000000000000000
 50
180.000000000000000
 51
0.000000000000000
  0
LINE
  8
0
  6
DASHED
 62
256
 10
-32.782207455351397
 20
31.147114688508850
 11
-32.782207455351397
 21
45.647114688508850
  0
LINE
  8
0
  6
DASHED
 62
256
 10
-18.782207455351397
 20
31.147114688508850
 11
-18.782207455351397
 21
45.647114688508850
  0
ARC
  8
0
  6
DASHED
 62
256
 10
-75.782207455351397
 20
31.147114688508850
 40
7.000000000000000
 50
180.000000000000000
 51
0.000000000000000
  0
LINE
  8
0
  6
DASHED
 62
256
 10
-82.782207455351397
 20
31.147114688508850
 11
-82.782207455351397
 21
45.647114688508850
  0
LINE
  8
0
  6
DASHED
 62
256
 10
-68.782207455351397
 20
31.147114688508850
 11
-68.782207455351397
 21
45.647114688508850
  0
LINE
  8
0
  6
DASHDOT
 62
256
 10
-37.065736871078059
 20
31.147114688508850
 11
-15.298759462549754
 21
31.147114688508850
  0
LINE
  8
0
  6
DASHDOT
 62
256
 10
-25.782207455351397
 20
22.202957430832726
 11
-25.782207455351397
 21
44.182459563368070
  0
LINE
  8
0
  6
DASHDOT
 62
256
 10
-84.867896561934970
 20
31.147114688508850
 11
-64.381308328225657
 21
31.147114688508850
  0
LINE
  8
0
  6
DASHDOT
 62
256
 10
-75.782207455351397
 20
22.202957430832726
 11
-75.782207455351397
 21
43.751446411364782
  0
LINE
  8
0
  6
DASHDOT
 62
256
 10
157.761377840033450
 20
103.147114688508740
 11
-148.248513135800980
 21
103.147114688508740
  0
LINE
  8
0
  6
CONTINUOUS
 62
256
 10
-130.282207455373050
 20
150.990734822138050
 11
-130.282207455372830
 21
103.147114688508740
  0
LINE
  8
0
  6
CONTINUOUS
 62
256
 10
-121.602726993296980
 20
158.421646800862050
 11
-129.173506189885760
 21
153.120530137289390
  0
ARC
  8
0
  6
CONTINUOUS
 62
256
 10
-127.682207455372900
 20
150.990734822138050
 40
2.600000000000139
 50
125.000000000001440
 51
180.000000000000000
  0
ARC
  8
0
  6
CONTINUOUS
 62
256
 10
-109.787052404465610
 20
141.547114688508710
 40
20.600000000000023
 50
90.000000000000000
 51
124.999999999999600
  0
LINE
  8
0
  6
CONTINUOUS
 62
256
 10
-130.282207455373050
 20
55.303494554879421
 11
-130.282207455373050
 21
103.147114688508740
  0
LINE
  8
0
  6
CONTINUOUS
 62
256
 10
-121.602726993296980
 20
47.872582576155537
 11
-129.173506189885760
 21
53.173699239728080
  0
ARC
  8
0
  6
CONTINUOUS
 62
256
 10
-127.682207455372900
 20
55.303494554879421
 40
2.600000000000122
 50
180.000000000000000
 51
234.999999999997580
  0
ARC
  8
0
  6
CONTINUOUS
 62
256
 10
-109.787052404465610
 20
64.747114688508759
 40
20.599999999999891
 50
235.000000000000400
 51
270.000000000000000
  0
LINE
  8
0
  6
CONTINUOUS
 62
256
 10
-80.282207455372827
 20
162.147114688508740
 11
-109.787052404465610
 21
162.147114688508740
  0
LINE
  8
0
  6
CONTINUOUS
 62
256
 10
-90.282207455372827
 20
44.147114688508736
 11
-109.787052404465610
 21
44.147114688508736
  0
LINE
  8
0
  6
CONTINUOUS
 62
256
 10
-88.282207455351454
 20
45.647114688508736
 11
-88.282207455351454
 21
48.635845452453395
  0
LINE
  8
0
  6
CONTINUOUS
 62
256
 10
-13.282207455351454
 20
50.647114688508850
 11
-80.515676149770115
 21
50.647114688508850
  0
LINE
  8
0
  6
CONTINUOUS
 62
256
 10
-80.282207455372372
 20
52.147114688508736
 11
40.217792544648319
 21
52.147114688508736
  0
LINE
  8
0
  6
CONTINUOUS
 62
256
 10
-80.282207455372372
 20
52.647114688508736
 11
40.217792544648319
 21
52.647114688508744
  0
LINE
  8
0
  6
CONTINUOUS
 62
256
 10
-80.282207455372372
 20
57.014032093626042
 11
40.217792544648319
 21
57.014032093626149
  0
LINE
  8
0
  6
CONTINUOUS
 62
256
 10
-80.282207455372372
 20
62.105200918168975
 11
40.217792544648319
 21
62.105200918168975
  0
LINE
  8
0
  6
CONTINUOUS
 62
256
 10
-80.282207455372372
 20
71.432723529738723
 11
40.217792544648319
 21
71.432723529738723
  0
LINE
  8
0
  6
CONTINUOUS
 62
256
 10
-80.282207455372372
 20
69.843513737000080
 11
40.217792544648319
 21
69.843513737000080
  0
LINE
  8
0
  6
CONTINUOUS
 62
256
 10
-80.282207455372372
 20
74.390719137871656
 11
40.217792544648319
 21
74.390719137871656
  0
LINE
  8
0
  6
CONTINUOUS
 62
256
 10
-80.282207455372372
 20
75.869742291348757
 11
40.217792544648319
 21
75.869742291348757
  0
LINE
  8
0
  6
CONTINUOUS
 62
256
 10
-80.282207455372372
 20
78.962473283013992
 11
40.217792544648319
 21
78.962473283013978
  0
LINE
  8
0
  6
CONTINUOUS
 62
256
 10
-80.282207455372372
 20
80.308875008512587
 11
40.217792544648319
 21
80.308875008512587
  0
LINE
  8
0
  6
CONTINUOUS
 62
256
 10
41.217792544648319
 20
83.519080031870885
 11
59.717792544648319
 21
83.519080031870885
  0
LINE
  8
0
  6
CONTINUOUS
 62
256
 10
-80.282207455372372
 20
84.760999896758790
 11
40.217792544648319
 21
84.760999896758790
  0
LINE
  8
0
  6
CONTINUOUS
 62
256
 10
-80.282207455372372
 20
89.147114688508736
 11
40.217792544648319
 21
89.147114688508736
  0
LINE
  8
0
  6
CONTINUOUS
 62
256
 10
-80.282207455372600
 20
117.147114688508740
 11
40.217792544648319
 21
117.147114688508740
  0
LINE
  8
0
  6
CONTINUOUS
 62
256
 10
-80.282207455372600
 20
121.533229480258680
 11
40.217792544648319
 21
121.533229480258650
  0
LINE
  8
0
  6
CONTINUOUS
 62
256
 10
-80.282207455372600
 20
122.775149345146570
 11
40.217792544648319
 21
122.775149345146570
  0
LINE
  8
0
  6
CONTINUOUS
 62
256
 10
-80.282207455372600
 20
125.985354368504890
 11
40.217792544648319
 21
125.985354368504890
  0
LINE
  8
0
  6
CONTINUOUS
 62
256
 10
-80.282207455372600
 20
127.331756094003480
 11
40.217792544648319
 21
127.331756094003480
  0
LINE
  8
0
  6
CONTINUOUS
 62
256
 10
-80.282207455372600
 20
130.424487085668830
 11
40.217792544648319
 21
130.424487085668830
  0
LINE
  8
0
  6
CONTINUOUS
 62
256
 10
-80.282207455372600
 20
131.903510239145820
 11
40.217792544648319
 21
131.903510239145820
  0
LINE
  8
0
  6
CONTINUOUS
 62
256
 10
-80.282207455372600
 20
134.861505847278750
 11
40.217792544648319
 21
134.861505847278750
  0
LINE
  8
0
  6
CONTINUOUS
 62
256
 10
-80.282207455372600
 20
136.450715640017510
 11
40.217792544648319
 21
136.450715640017510
  0
LINE
  8
0
  6
CONTINUOUS
 62
256
 10
-80.282207455372600
 20
144.189028458848500
 11
40.217792544648319
 21
144.189028458848500
  0
LINE
  8
0
  6
CONTINUOUS
 62
256
 10
-80.282207455372600
 20
149.280197283391430
 11
40.217792544648319
 21
149.280197283391430
  0
LINE
  8
0
  6
CONTINUOUS
 62
256
 10
-80.282207455372600
 20
153.647114688508740
 11
40.217792544648319
 21
153.647114688508680
  0
LINE
  8
0
  6
CONTINUOUS
 62
256
 10
-80.282207455372600
 20
154.147114688508740
 11
40.217792544648319
 21
154.147114688508740
  0
LINE
  8
0
  6
CONTINUOUS
 62
256
 10
40.217792544648319
 20
156.647114688508740
 11
-80.282207455372600
 21
156.647114688508740
  0
LINE
  8
0
  6
CONTINUOUS
 62
256
 10
-91.282207455372827
 20
152.291035711233920
 11
-93.282207455372827
 21
150.638394072110490
  0
LINE
  8
0
  6
CONTINUOUS
 62
256
 10
-89.282207455372827
 20
153.466821196856700
 11
-91.282207455372827
 21
152.291035711233920
  0
LINE
  8
0
  6
CONTINUOUS
 62
256
 10
-91.282207455372827
 20
152.291035711233920
 11
-89.282207455372827
 21
150.638394072110490
  0
LINE
  8
0
  6
CONTINUOUS
 62
256
 10
-93.282207455372827
 20
153.466821196856700
 11
-91.282207455372827
 21
152.291035711233920
  0
LINE
  8
0
  6
CONTINUOUS
 62
256
 10
-86.672516637477429
 20
149.771488676655910
 11
-86.582207455372611
 21
150.474445642856270
  0
LINE
  8
0
  6
CONTINUOUS
 62
256
 10
-86.939973652569563
 20
149.095545952443810
 11
-86.672516637477429
 21
149.771488676655910
  0
LINE
  8
0
  6
CONTINUOUS
 62
256
 10
-87.374300277550645
 20
148.472593570038410
 11
-86.939973652569563
 21
149.095545952443810
  0
LINE
  8
0
  6
CONTINUOUS
 62
256
 10
-87.958805583795836
 20
147.926571240139820
 11
-87.374300277550645
 21
148.472593570038410
  0
LINE
  8
0
  6
CONTINUOUS
 62
256
 10
-88.671027360180474
 20
147.478462294673190
 11
-87.958805583795836
 21
147.926571240139820
  0
LINE
  8
0
  6
CONTINUOUS
 62
256
 10
-89.483595323256679
 20
147.145487309110450
 11
-88.671027360180474
 21
147.478462294673190
  0
LINE
  8
0
  6
CONTINUOUS
 62
256
 10
-90.365282941896794
 20
146.940442325412190
 11
-89.483595323256679
 21
147.145487309110450
  0
LINE
  8
0
  6
CONTINUOUS
 62
256
 10
-91.282207455372600
 20
146.871207107311420
 11
-90.365282941896794
 21
146.940442325412190
  0
LINE
  8
0
  6
CONTINUOUS
 62
256
 10
-92.199131968848405
 20
146.940442325412190
 11
-91.282207455372600
 21
146.871207107311420
  0
LINE
  8
0
  6
CONTINUOUS
 62
256
 10
-93.080819587488520
 20
147.145487309110450
 11
-92.199131968848405
 21
146.940442325412190
  0
LINE
  8
0
  6
CONTINUOUS
 62
256
 10
-93.893387550564725
 20
147.478462294673190
 11
-93.080819587488520
 21
147.145487309110450
  0
LINE
  8
0
  6
CONTINUOUS
 62
256
 10
-94.605609326949363
 20
147.926571240139820
 11
-93.893387550564725
 21
147.478462294673190
  0
LINE
  8
0
  6
CONTINUOUS
 62
256
 10
-95.190114633194554
 20
148.472593570038410
 11
-94.605609326949363
 21
147.926571240139820
  0
LINE
  8
0
  6
CONTINUOUS
 62
256
 10
-95.624441258175636
 20
149.095545952443810
 11
-95.190114633194554
 21
148.472593570038410
  0
LINE
  8
0
  6
CONTINUOUS
 62
256
 10
-95.891898273267770
 20
149.771488676655910
 11
-95.624441258175636
 21
149.095545952443810
  0
LINE
  8
0
  6
CONTINUOUS
 62
256
 10
-95.982207455372588
 20
150.474445642856270
 11
-95.891898273267770
 21
149.771488676655910
  0
LINE
  8
0
  6
CONTINUOUS
 62
256
 10
-95.891898273267770
 20
151.177402609056630
 11
-95.982207455372588
 21
150.474445642856270
  0
LINE
  8
0
  6
CONTINUOUS
 62
256
 10
-95.624441258175636
 20
151.853345333268720
 11
-95.891898273267770
 21
151.177402609056630
  0
LINE
  8
0
  6
CONTINUOUS
 62
256
 10
-95.190114633194554
 20
152.476297715674120
 11
-95.624441258175636
 21
151.853345333268720
  0
LINE
  8
0
  6
CONTINUOUS
 62
256
 10
-94.605609326949363
 20
153.022320045572710
 11
-95.190114633194554
 21
152.476297715674120
  0
LINE
  8
0
  6
CONTINUOUS
 62
256
 10
-93.893387550564725
 20
153.470428991039340
 11
-94.605609326949363
 21
153.022320045572710
  0
LINE
  8
0
  6
CONTINUOUS
 62
256
 10
-93.080819587488520
 20
153.803403976602080
 11
-93.893387550564725
 21
153.470428991039340
  0
LINE
  8
0
  6
CONTINUOUS
 62
256
 10
-92.199131968848405
 20
154.008448960300340
 11
-93.080819587488520
 21
153.803403976602080
  0
LINE
  8
0
  6
CONTINUOUS
 62
256
 10
-91.282207455372600
 20
154.077684178401110
 11
-92.199131968848405
 21
154.008448960300340
  0
LINE
  8
0
  6
CONTINUOUS
 62
256
 10
-90.365282941896794
 20
154.008448960300340
 11
-91.282207455372600
 21
154.077684178401110
  0
LINE
  8
0
  6
CONTINUOUS
 62
256
 10
-89.483595323256679
 20
153.803403976602080
 11
-90.365282941896794
 21
154.008448960300340
  0
LINE
  8
0
  6
CONTINUOUS
 62
256
 10
-88.671027360180474
 20
153.470428991039340
 11
-89.483595323256679
 21
153.803403976602080
  0
LINE
  8
0
  6
CONTINUOUS
 62
256
 10
-87.958805583795836
 20
153.022320045572710
 11
-88.671027360180474
 21
153.470428991039340
  0
LINE
  8
0
  6
CONTINUOUS
 62
256
 10
-87.374300277550645
 20
152.476297715674120
 11
-87.958805583795836
 21
153.022320045572710
  0
LINE
  8
0
  6
CONTINUOUS
 62
256
 10
-86.939973652569563
 20
151.853345333268720
 11
-87.374300277550645
 21
152.476297715674120
  0
LINE
  8
0
  6
CONTINUOUS
 62
256
 10
-86.672516637477429
 20
151.177402609056630
 11
-86.939973652569563
 21
151.853345333268720
  0
LINE
  8
0
  6
CONTINUOUS
 62
256
 10
-86.582207455372611
 20
150.474445642856270
 11
-86.672516637477429
 21
151.177402609056630
  0
LINE
  8
0
  6
CONTINUOUS
 62
256
 10
-80.282207455372827
 20
162.147114688508740
 11
-80.282207455372600
 21
103.147114688508740
  0
LINE
  8
0
  6
CONTINUOUS
 62
256
 10
-90.282207455372827
 20
44.147114688508736
 11
-90.282207455372827
 21
45.807418327699793
  0
ARC
  8
0
  6
CONTINUOUS
 62
256
 10
-87.282207455372827
 20
45.807418327699793
 40
3.000000000000000
 50
90.000000000000000
 51
180.000000000000000
  0
LINE
  8
0
  6
CONTINUOUS
 62
256
 10
-91.282207455372827
 20
54.003193665783670
 11
-93.282207455372827
 21
55.655835304906986
  0
LINE
  8
0
  6
CONTINUOUS
 62
256
 10
-89.282207455372827
 20
52.827408180160774
 11
-91.282207455372827
 21
54.003193665783670
  0
LINE
  8
0
  6
CONTINUOUS
 62
256
 10
-91.282207455372827
 20
54.003193665783670
 11
-89.282207455372827
 21
55.655835304906986
  0
LINE
  8
0
  6
CONTINUOUS
 62
256
 10
-93.282207455372827
 20
52.827408180160774
 11
-91.282207455372827
 21
54.003193665783670
  0
LINE
  8
0
  6
CONTINUOUS
 62
256
 10
-86.672516637477429
 20
55.116826767960845
 11
-86.582207455372611
 21
55.819783734161206
  0
LINE
  8
0
  6
CONTINUOUS
 62
256
 10
-86.939973652569563
 20
54.440884043748753
 11
-86.672516637477429
 21
55.116826767960845
  0
LINE
  8
0
  6
CONTINUOUS
 62
256
 10
-87.374300277550645
 20
53.817931661343351
 11
-86.939973652569563
 21
54.440884043748753
  0
LINE
  8
0
  6
CONTINUOUS
 62
256
 10
-87.958805583795836
 20
53.271909331444775
 11
-87.374300277550645
 21
53.817931661343351
  0
LINE
  8
0
  6
CONTINUOUS
 62
256
 10
-88.671027360180474
 20
52.823800385978153
 11
-87.958805583795836
 21
53.271909331444775
  0
LINE
  8
0
  6
CONTINUOUS
 62
256
 10
-89.483595323256679
 20
52.490825400415396
 11
-88.671027360180474
 21
52.823800385978153
  0
LINE
  8
0
  6
CONTINUOUS
 62
256
 10
-90.365282941896794
 20
52.285780416717145
 11
-89.483595323256679
 21
52.490825400415396
  0
LINE
  8
0
  6
CONTINUOUS
 62
256
 10
-91.282207455372600
 20
52.216545198616373
 11
-90.365282941896794
 21
52.285780416717145
  0
LINE
  8
0
  6
CONTINUOUS
 62
256
 10
-92.199131968848405
 20
52.285780416717145
 11
-91.282207455372600
 21
52.216545198616373
  0
LINE
  8
0
  6
CONTINUOUS
 62
256
 10
-93.080819587488520
 20
52.490825400415396
 11
-92.199131968848405
 21
52.285780416717145
  0
LINE
  8
0
  6
CONTINUOUS
 62
256
 10
-93.893387550564725
 20
52.823800385978153
 11
-93.080819587488520
 21
52.490825400415396
  0
LINE
  8
0
  6
CONTINUOUS
 62
256
 10
-94.605609326949363
 20
53.271909331444775
 11
-93.893387550564725
 21
52.823800385978153
  0
LINE
  8
0
  6
CONTINUOUS
 62
256
 10
-95.190114633194554
 20
53.817931661343351
 11
-94.605609326949363
 21
53.271909331444775
  0
LINE
  8
0
  6
CONTINUOUS
 62
256
 10
-95.624441258175636
 20
54.440884043748753
 11
-95.190114633194554
 21
53.817931661343351
  0
LINE
  8
0
  6
CONTINUOUS
 62
256
 10
-95.891898273267770
 20
55.116826767960845
 11
-95.624441258175636
 21
54.440884043748753
  0
LINE
  8
0
  6
CONTINUOUS
 62
256
 10
-95.982207455372588
 20
55.819783734161206
 11
-95.891898273267770
 21
55.116826767960845
  0
LINE
  8
0
  6
CONTINUOUS
 62
256
 10
-95.891898273267770
 20
56.522740700361567
 11
-95.982207455372588
 21
55.819783734161206
  0
LINE
  8
0
  6
CONTINUOUS
 62
256
 10
-95.624441258175636
 20
57.198683424573659
 11
-95.891898273267770
 21
56.522740700361567
  0
LINE
  8
0
  6
CONTINUOUS
 62
256
 10
-95.190114633194554
 20
57.821635806979060
 11
-95.624441258175636
 21
57.198683424573659
  0
LINE
  8
0
  6
CONTINUOUS
 62
256
 10
-94.605609326949363
 20
58.367658136877644
 11
-95.190114633194554
 21
57.821635806979060
  0
LINE
  8
0
  6
CONTINUOUS
 62
256
 10
-93.893387550564725
 20
58.815767082344259
 11
-94.605609326949363
 21
58.367658136877644
  0
LINE
  8
0
  6
CONTINUOUS
 62
256
 10
-93.080819587488520
 20
59.148742067907015
 11
-93.893387550564725
 21
58.815767082344259
  0
LINE
  8
0
  6
CONTINUOUS
 62
256
 10
-92.199131968848405
 20
59.353787051605266
 11
-93.080819587488520
 21
59.148742067907015
  0
LINE
  8
0
  6
CONTINUOUS
 62
256
 10
-91.282207455372600
 20
59.423022269706038
 11
-92.199131968848405
 21
59.353787051605266
  0
LINE
  8
0
  6
CONTINUOUS
 62
256
 10
-90.365282941896794
 20
59.353787051605266
 11
-91.282207455372600
 21
59.423022269706038
  0
LINE
  8
0
  6
CONTINUOUS
 62
256
 10
-89.483595323256679
 20
59.148742067907015
 11
-90.365282941896794
 21
59.353787051605266
  0
LINE
  8
0
  6
CONTINUOUS
 62
256
 10
-88.671027360180474
 20
58.815767082344259
 11
-89.483595323256679
 21
59.148742067907015
  0
LINE
  8
0
  6
CONTINUOUS
 62
256
 10
-87.958805583795836
 20
58.367658136877644
 11
-88.671027360180474
 21
58.815767082344259
  0
LINE
  8
0
  6
CONTINUOUS
 62
256
 10
-87.374300277550645
 20
57.821635806979060
 11
-87.958805583795836
 21
58.367658136877644
  0
LINE
  8
0
  6
CONTINUOUS
 62
256
 10
-86.939973652569563
 20
57.198683424573659
 11
-87.374300277550645
 21
57.821635806979060
  0
LINE
  8
0
  6
CONTINUOUS
 62
256
 10
-86.672516637477429
 20
56.522740700361567
 11
-86.939973652569563
 21
57.198683424573659
  0
LINE
  8
0
  6
CONTINUOUS
 62
256
 10
-86.582207455372611
 20
55.819783734161206
 11
-86.672516637477429
 21
56.522740700361567
  0
LINE
  8
0
  6
CONTINUOUS
 62
256
 10
-87.282207455372827
 20
48.807418327699793
 11
-83.282207455372827
 21
48.807418327699793
  0
ARC
  8
0
  6
CONTINUOUS
 62
256
 10
-83.282207455372827
 20
51.807418327699793
 40
3.000000000000000
 50
270.000000000000000
 51
0.000000000000000
  0
LINE
  8
0
  6
CONTINUOUS
 62
256
 10
-80.282207455372827
 20
51.807418327699793
 11
-80.282207455372600
 21
103.147114688508740
  0
LINE
  8
0
  6
CONTINUOUS
 62
256
 10
-15.282207455351454
 20
16.147114688508736
 11
-86.282207455351454
 21
16.147114688508736
  0
LINE
  8
0
  6
CONTINUOUS
 62
256
 10
-29.282207455351454
 20
15.647114688508736
 11
-29.282207455351454
 21
16.147114688508736
  0
LINE
  8
0
  6
CONTINUOUS
 62
256
 10
-29.282207455351454
 20
15.647114688508736
 11
-21.282207455351454
 21
15.647114688508736
  0
LINE
  8
0
  6
CONTINUOUS
 62
256
 10
-21.282207455351454
 20
15.647114688508736
 11
-21.282207455351454
 21
16.147114688508736
  0
LINE
  8
0
  6
CONTINUOUS
 62
256
 10
40.217792544648319
 20
156.647114688508740
 11
40.217792544648319
 21
103.147114688508740
  0
LINE
  8
0
  6
CONTINUOUS
 62
256
 10
40.217792544648319
 20
49.647114688508736
 11
-13.282207455351454
 21
49.647114688508736
  0
ARC
  8
0
  6
CONTINUOUS
 62
256
 10
-15.282207455351454
 20
17.147114688508736
 40
1.000000000000000
 50
270.000000000000000
 51
0.000000000000000
  0
ARC
  8
0
  6
CONTINUOUS
 62
256
 10
-86.282207455351454
 20
17.147114688508736
 40
1.000000000000000
 50
180.000000000000000
 51
270.000000000000000
  0
LINE
  8
0
  6
CONTINUOUS
 62
256
 10
-87.282207455351454
 20
17.147114688508736
 11
-87.282207455351454
 21
45.647114688508736
  0
LINE
  8
0
  6
CONTINUOUS
 62
256
 10
-14.282207455351454
 20
17.147114688508736
 11
-14.282207455351454
 21
45.647114688508736
  0
LINE
  8
0
  6
CONTINUOUS
 62
256
 10
-13.282207455351454
 20
45.647114688508736
 11
-13.282207455351454
 21
50.647114688508850
  0
LINE
  8
0
  6
CONTINUOUS
 62
256
 10
-88.282207455351454
 20
45.647114688508736
 11
-13.282207455351454
 21
45.647114688508736
  0
LINE
  8
0
  6
CONTINUOUS
 62
256
 10
40.217792544648319
 20
49.647114688508736
 11
40.217792544648319
 21
103.147114688508740
  0
LINE
  8
0
  6
CONTINUOUS
 62
256
 10
59.717792544648319
 20
139.397113734834420
 11
59.717792544648319
 21
165.647114688508740
  0
LINE
  8
0
  6
CONTINUOUS
 62
256
 10
60.717792544648319
 20
140.397114688508740
 11
61.317792544648682
 21
140.397114688508740
  0
LINE
  8
0
  6
CONTINUOUS
 62
256
 10
61.717792544648319
 20
139.997114688509100
 11
61.717792544648319
 21
130.297114688509280
  0
ARC
  8
0
  6
CONTINUOUS
 62
256
 10
61.317792544648682
 20
139.997114688509100
 40
0.399999999999636
 50
0.000000000000000
 51
90.000000000000000
  0
ARC
  8
0
  6
CONTINUOUS
 62
256
 10
60.717792544648319
 20
141.397114688508740
 40
1.000000000000000
 50
180.000000000000000
 51
270.000000000000000
  0
LINE
  8
0
  6
CONTINUOUS
 62
256
 10
60.717792544648319
 20
129.897114688508740
 11
61.317792544648682
 21
129.897114688508740
  0
ARC
  8
0
  6
CONTINUOUS
 62
256
 10
61.317792544648682
 20
130.297114688509280
 40
0.400000000000546
 50
270.000000000000000
 51
0.000000000000000
  0
ARC
  8
0
  6
CONTINUOUS
 62
256
 10
60.717792544648319
 20
128.897114688508740
 40
1.000000000000000
 50
90.000000000000000
 51
180.000000000000000
  0
ARC
  8
0
  6
CONTINUOUS
 62
256
 10
58.717792544648319
 20
153.147114688508740
 40
1.000000000000000
 50
270.000000000000000
 51
0.000000000000000
  0
ARC
  8
0
  6
CONTINUOUS
 62
256
 10
60.217792544648319
 20
165.647114688508740
 40
0.500000000000000
 50
90.000000000000000
 51
180.000000000000000
  0
ARC
  8
0
  6
CONTINUOUS
 62
256
 10
49.217792544648319
 20
160.147114688508740
 40
7.999999999999964
 50
207.975174367152760
 51
270.000000000000000
  0
ARC
  8
0
  6
CONTINUOUS
 62
256
 10
41.711009666427117
 20
156.159858637131040
 40
0.500000000000217
 50
27.975174367227915
 51
91.499999999989853
  0
ARC
  8
0
  6
CONTINUOUS
 62
256
 10
41.717792544648319
 20
156.160036253048020
 40
0.500000000000872
 50
91.499999999987068
 51
180.000000000000000
  0
ARC
  8
0
  6
CONTINUOUS
 62
256
 10
40.717792544648319
 20
156.173472006323210
 40
0.499999999999054
 50
271.499999999992550
 51
0.000000000000000
  0
LINE
  8
0
  6
CONTINUOUS
 62
256
 10
66.717792544648319
 20
166.147114688508740
 11
66.717792544648319
 21
103.147114688508740
  0
LINE
  8
0
  6
CONTINUOUS
 62
256
 10
59.717792544648319
 20
103.147114688508740
 11
59.717792544648319
 21
130.897115642183050
  0
LINE
  8
0
  6
CONTINUOUS
 62
256
 10
58.717792544648319
 20
152.147114688508740
 11
49.217792544648319
 21
152.147114688508740
  0
LINE
  8
0
  6
CONTINUOUS
 62
256
 10
66.717792544648319
 20
166.147114688508740
 11
60.217792544648319
 21
166.147114688508740
  0
LINE
  8
0
  6
CONTINUOUS
 62
256
 10
40.217792544648319
 20
103.147114688508740
 11
40.217792544648319
 21
155.647114688508740
  0
LINE
  8
0
  6
CONTINUOUS
 62
256
 10
40.730881018802165
 20
155.673643343836370
 11
40.217792544648319
 21
155.647114688508740
  0
LINE
  8
0
  6
CONTINUOUS
 62
256
 10
41.217792544648319
 20
156.160036253048020
 11
41.217792544648319
 21
103.147114688508740
  0
LINE
  8
0
  6
CONTINUOUS
 62
256
 10
56.717792544648319
 20
162.647114688508740
 11
56.717792544648319
 21
154.147114688508740
  0
ARC
  8
0
  6
CONTINUOUS
 62
256
 10
54.717792544648319
 20
154.147114688508740
 40
2.000000000000000
 50
270.000000000000000
 51
0.000000000000000
  0
LINE
  8
0
  6
CONTINUOUS
 62
256
 10
59.217792544648319
 20
163.147114688508740
 11
57.217792544648319
 21
163.147114688508740
  0
ARC
  8
0
  6
CONTINUOUS
 62
256
 10
57.217792544648319
 20
162.647114688508740
 40
0.500000000000000
 50
90.000000000000000
 51
180.000000000000000
  0
ARC
  8
0
  6
CONTINUOUS
 62
256
 10
59.217792544648319
 20
163.647114688508740
 40
0.500000000000000
 50
270.000000000000000
 51
0.000000000000000
  0
LINE
  8
0
  6
CONTINUOUS
 62
256
 10
56.717793307587769
 20
156.897099663422520
 11
56.717793307587769
 21
165.397097756073890
  0
LINE
  8
0
  6
CONTINUOUS
 62
256
 10
59.717792544648319
 20
165.397097756073890
 11
56.717793307587769
 21
165.397097756073890
  0
LINE
  8
0
  6
CONTINUOUS
 62
256
 10
59.717792544648319
 20
66.897115642183053
 11
59.717792544648319
 21
40.647114688508736
  0
LINE
  8
0
  6
CONTINUOUS
 62
256
 10
60.717792544648319
 20
65.897114688508736
 11
61.317792544648682
 21
65.897114688508736
  0
LINE
  8
0
  6
CONTINUOUS
 62
256
 10
61.717792544648319
 20
66.297114688509282
 11
61.717792544648319
 21
75.997114688509100
  0
ARC
  8
0
  6
CONTINUOUS
 62
256
 10
61.317792544648682
 20
66.297114688509282
 40
0.400000000000546
 50
270.000000000000000
 51
0.000000000000000
  0
ARC
  8
0
  6
CONTINUOUS
 62
256
 10
60.717792544648319
 20
64.897114688508736
 40
1.000000000000000
 50
90.000000000000000
 51
180.000000000000000
  0
LINE
  8
0
  6
CONTINUOUS
 62
256
 10
60.717792544648319
 20
76.397114688508736
 11
61.317792544648682
 21
76.397114688508736
  0
ARC
  8
0
  6
CONTINUOUS
 62
256
 10
61.317792544648682
 20
75.997114688509100
 40
0.399999999999636
 50
0.000000000000000
 51
90.000000000000000
  0
ARC
  8
0
  6
CONTINUOUS
 62
256
 10
60.717792544648319
 20
77.397114688508736
 40
1.000000000000000
 50
180.000000000000000
 51
270.000000000000000
  0
ARC
  8
0
  6
CONTINUOUS
 62
256
 10
58.717792544648319
 20
53.147114688508736
 40
1.000000000000000
 50
0.000000000000000
 51
90.000000000000000
  0
ARC
  8
0
  6
CONTINUOUS
 62
256
 10
60.217792544648319
 20
40.647114688508736
 40
0.500000000000000
 50
180.000000000000000
 51
270.000000000000000
  0
ARC
  8
0
  6
CONTINUOUS
 62
256
 10
49.217792544648319
 20
46.147114688508736
 40
8.000000000000000
 50
90.000000000000000
 51
152.024825632841500
  0
ARC
  8
0
  6
CONTINUOUS
 62
256
 10
41.711009666427117
 20
50.134370739887345
 40
0.499999999999963
 50
268.500000000010170
 51
332.024825632772090
  0
ARC
  8
0
  6
CONTINUOUS
 62
256
 10
41.717792544648319
 20
50.134193123969453
 40
0.500000000000000
 50
180.000000000000000
 51
268.500000000010350
  0
ARC
  8
0
  6
CONTINUOUS
 62
256
 10
40.717792544648319
 20
50.120757370694264
 40
0.500000000000000
 50
0.000000000000000
 51
88.500000000010303
  0
LINE
  8
0
  6
CONTINUOUS
 62
256
 10
66.717792544648319
 20
40.147114688508736
 11
66.717792544648319
 21
103.147114688508740
  0
LINE
  8
0
  6
CONTINUOUS
 62
256
 10
59.717792544648319
 20
103.147114688508740
 11
59.717792544648319
 21
75.397113734834420
  0
LINE
  8
0
  6
CONTINUOUS
 62
256
 10
58.717792544648319
 20
54.147114688508736
 11
49.217792544648319
 21
54.147114688508736
  0
LINE
  8
0
  6
CONTINUOUS
 62
256
 10
66.717792544648319
 20
40.147114688508736
 11
60.217792544648319
 21
40.147114688508736
  0
LINE
  8
0
  6
CONTINUOUS
 62
256
 10
40.217792544648319
 20
103.147114688509650
 11
40.217792544648319
 21
50.647114688508736
  0
LINE
  8
0
  6
CONTINUOUS
 62
256
 10
40.730881018802165
 20
50.620586033182008
 11
40.217792544648319
 21
50.647114688508736
  0
LINE
  8
0
  6
CONTINUOUS
 62
256
 10
41.217792544648319
 20
50.134193123969453
 11
41.217792544648319
 21
103.147114688508740
  0
LINE
  8
0
  6
CONTINUOUS
 62
256
 10
56.717792544648319
 20
43.647114688508736
 11
56.717792544648319
 21
52.147114688508736
  0
ARC
  8
0
  6
CONTINUOUS
 62
256
 10
54.717792544648319
 20
52.147114688508736
 40
2.000000000000000
 50
0.000000000000000
 51
90.000000000000000
  0
LINE
  8
0
  6
CONTINUOUS
 62
256
 10
59.217792544648319
 20
43.147114688508736
 11
57.217792544648319
 21
43.147114688508736
  0
ARC
  8
0
  6
CONTINUOUS
 62
256
 10
57.217792544648319
 20
43.647114688508736
 40
0.500000000000000
 50
180.000000000000000
 51
270.000000000000000
  0
ARC
  8
0
  6
CONTINUOUS
 62
256
 10
59.217792544648319
 20
42.647114688508736
 40
0.500000000000000
 50
0.000000000000000
 51
90.000000000000000
  0
LINE
  8
0
  6
CONTINUOUS
 62
256
 10
56.717793307587769
 20
49.397129713595859
 11
56.717793307587769
 21
40.897131620944492
  0
LINE
  8
0
  6
CONTINUOUS
 62
256
 10
59.717792544648319
 20
40.897131620944492
 11
56.717793307587769
 21
40.897131620944492
  0
LINE
  8
0
  6
DASHDOT
 62
256
 10
121.927736234865510
 20
166.786724995288750
 11
93.920479244039370
 21
166.786724995288750
  0
LINE
  8
0
  6
DASHDOT
 62
256
 10
121.927736234865510
 20
39.507504381711442
 11
93.920479244039370
 21
39.507504381711442
  0
ARC
  8
0
  6
CONTINUOUS
 62
256
 10
145.817792544624580
 20
110.747114688509100
 40
0.400000000000091
 50
0.000000000000000
 51
90.000000000000000
  0
LINE
  8
0
  6
CONTINUOUS
 62
256
 10
122.217792544624670
 20
95.297114688508373
 11
122.217792544624670
 21
93.147114688508552
  0
LINE
  8
0
  6
CONTINUOUS
 62
256
 10
123.777600165759620
 20
95.297114688508373
 11
124.337407786895010
 21
95.147114688508736
  0
LINE
  8
0
  6
CONTINUOUS
 62
256
 10
123.777600165759620
 20
95.297114688508373
 11
121.617792544624290
 21
95.297114688508373
  0
LINE
  8
0
  6
CONTINUOUS
 62
256
 10
120.917792544624490
 20
111.647122127170410
 11
121.221400016373760
 21
111.343514655420220
  0
ARC
  8
0
  6
CONTINUOUS
 62
256
 10
121.617792544624290
 20
111.397114688508740
 40
0.399999999999936
 50
187.700803502586670
 51
270.000000000000000
  0
LINE
  8
0
  6
CONTINUOUS
 62
256
 10
121.217792544624670
 20
103.147114688508740
 11
121.217792544624670
 21
111.347122127170220
  0
LINE
  8
0
  6
CONTINUOUS
 62
256
 10
118.217792544648300
 20
111.647122127170410
 11
120.917792544624490
 21
111.647122127170410
  0
LINE
  8
0
  6
CONTINUOUS
 62
256
 10
118.217792544648300
 20
94.647107249847068
 11
120.917792544624490
 21
94.647107249847068
  0
LINE
  8
0
  6
CONTINUOUS
 62
256
 10
120.917792544624490
 20
94.647107249847068
 11
121.221400016373760
 21
94.950714721597251
  0
ARC
  8
0
  6
CONTINUOUS
 62
256
 10
121.617792544624290
 20
94.897114688508736
 40
0.399999999999636
 50
90.000000000000000
 51
172.299196497413650
  0
LINE
  8
0
  6
CONTINUOUS
 62
256
 10
123.777600165759620
 20
110.997114688509100
 11
124.337407786895010
 21
111.147114688508740
  0
LINE
  8
0
  6
CONTINUOUS
 62
256
 10
123.777600165759620
 20
110.997114688509100
 11
121.617792544624290
 21
110.997114688509100
  0
LINE
  8
0
  6
CONTINUOUS
 62
256
 10
121.217792544624670
 20
103.147114688508740
 11
121.217792544624670
 21
94.947107249847249
  0
LINE
  8
0
  6
CONTINUOUS
 62
256
 10
146.217792544624670
 20
103.147114688508740
 11
146.217792544624670
 21
110.747114688509100
  0
LINE
  8
0
  6
CONTINUOUS
 62
256
 10
145.817792544624580
 20
111.147114688508740
 11
124.337407786895010
 21
111.147114688508740
  0
LINE
  8
0
  6
CONTINUOUS
 62
256
 10
146.217792544624670
 20
93.147114688508552
 11
122.217792544624670
 21
93.147114688508552
  0
LINE
  8
0
  6
CONTINUOUS
 62
256
 10
146.217792544624670
 20
93.147114688508552
 11
146.217792544624670
 21
95.547114688508373
  0
ARC
  8
0
  6
CONTINUOUS
 62
256
 10
145.817792544624580
 20
95.547114688508373
 40
0.399999999999636
 50
270.000000000000000
 51
0.000000000000000
  0
LINE
  8
0
  6
CONTINUOUS
 62
256
 10
145.817792544624580
 20
95.147114688508736
 11
124.337407786895010
 21
95.147114688508736
  0
LINE
  8
0
  6
CONTINUOUS
 62
256
 10
146.217792544624670
 20
103.147114688508740
 11
146.217792544624670
 21
95.547114688508373
  0
ARC
  8
0
  6
CONTINUOUS
 62
256
 10
99.717792544648319
 20
46.119182501377509
 40
2.000000000000000
 50
0.000000000000000
 51
39.285346512634725
  0
ARC
  8
0
  6
CONTINUOUS
 62
256
 10
99.717792544648319
 20
49.776036750869935
 40
2.000000000000000
 50
0.000000000000000
 51
39.285346512634725
  0
LINE
  8
0
  6
CONTINUOUS
 62
256
 10
88.093565240301587
 20
63.487270735288803
 11
101.265796889826560
 21
47.385548383462265
  0
ARC
  8
0
  6
CONTINUOUS
 62
256
 10
86.545560895123344
 20
62.220904853203137
 40
2.000000000000331
 50
39.285346512654776
 51
90.000000000000000
  0
LINE
  8
0
  6
CONTINUOUS
 62
256
 10
88.093565240301587
 20
67.144124984781229
 11
101.265796889826560
 21
51.042402632954690
  0
ARC
  8
0
  6
CONTINUOUS
 62
256
 10
86.545560895123344
 20
65.877759102695563
 40
2.000000000000331
 50
39.285346512654776
 51
90.000000000000000
  0
LINE
  8
0
  6
CONTINUOUS
 62
256
 10
89.493405932121959
 20
67.877759102695563
 11
99.717792544648319
 21
67.877759102695563
  0
ARC
  8
0
  6
CONTINUOUS
 62
256
 10
86.545560895123344
 20
140.416470274321910
 40
2.000000000000000
 50
270.000000000000000
 51
320.714653487345000
  0
ARC
  8
0
  6
CONTINUOUS
 62
256
 10
86.545560895123344
 20
144.073324523814340
 40
2.000000000000000
 50
270.000000000000000
 51
320.714653487345000
  0
ARC
  8
0
  6
CONTINUOUS
 62
256
 10
99.717792544648319
 20
156.518192626147540
 40
1.999999999999755
 50
320.714653487365410
 51
0.000000000000000
  0
ARC
  8
0
  6
CONTINUOUS
 62
256
 10
99.717792544648319
 20
160.175046875639960
 40
1.999999999999755
 50
320.714653487365410
 51
0.000000000000000
  0
LINE
  8
0
  6
CONTINUOUS
 62
256
 10
89.493405932121959
 20
138.416470274321910
 11
99.717792544648319
 21
138.416470274321910
  0
LINE
  8
0
  6
CONTINUOUS
 62
256
 10
88.093565240301587
 20
142.806958641728670
 11
101.265796889826560
 21
158.908680993555210
  0
LINE
  8
0
  6
CONTINUOUS
 62
256
 10
88.093565240301587
 20
139.150104392236240
 11
101.265796889826560
 21
155.251826744062780
  0
ARC
  8
0
  6
CONTINUOUS
 62
256
 10
89.493405932121959
 20
99.147114688508736
 40
2.000000000000000
 50
90.000000000000000
 51
180.000000000000000
  0
ARC
  8
0
  6
CONTINUOUS
 62
256
 10
89.493405932121959
 20
107.147114688508740
 40
2.000000000000000
 50
180.000000000000000
 51
270.000000000000000
  0
ARC
  8
0
  6
CONTINUOUS
 62
256
 10
99.717792544648319
 20
99.147114688508736
 40
2.000000000000000
 50
0.000000000000000
 51
90.000000000000000
  0
ARC
  8
0
  6
CONTINUOUS
 62
256
 10
99.717792544648319
 20
107.147114688508740
 40
2.000000000000000
 50
270.000000000000000
 51
0.000000000000000
  0
LINE
  8
0
  6
CONTINUOUS
 62
256
 10
99.717792544648319
 20
105.147114688508740
 11
89.493405932121959
 21
105.147114688508740
  0
LINE
  8
0
  6
CONTINUOUS
 62
256
 10
99.717792544648319
 20
101.147114688508740
 11
89.493405932121959
 21
101.147114688508740
  0
LINE
  8
0
  6
CONTINUOUS
 62
256
 10
67.217792544648319
 20
40.147114688508736
 11
99.752697357522948
 21
39.579215812566872
  0
ARC
  8
0
  6
CONTINUOUS
 62
256
 10
99.717792544648319
 20
37.579520422254063
 40
2.000000000000000
 50
0.000000000000000
 51
88.999999999998224
  0
LINE
  8
0
  6
CONTINUOUS
 62
256
 10
67.217792544648319
 20
40.147114688508736
 11
67.217792544648319
 21
103.147114688508740
  0
LINE
  8
0
  6
CONTINUOUS
 62
256
 10
67.217792544648319
 20
166.147114688508740
 11
67.217792544648319
 21
103.147114688508740
  0
LINE
  8
0
  6
CONTINUOUS
 62
256
 10
67.217792544648319
 20
166.147114688508740
 11
99.752697357522948
 21
166.715013564450600
  0
ARC
  8
0
  6
CONTINUOUS
 62
256
 10
99.717792544648319
 20
168.714708954763410
 40
2.000000000000027
 50
271.000000000001760
 51
0.000000000000000
  0
LINE
  8
0
  6
CONTINUOUS
 62
256
 10
101.717792544648300
 20
170.138387156043790
 11
101.717792544648300
 21
174.764464970897280
  0
LINE
  8
0
  6
CONTINUOUS
 62
256
 10
113.717792544648300
 20
175.647114688507830
 11
106.220533944843960
 21
175.856530274971190
  0
LINE
  8
0
  6
CONTINUOUS
 62
256
 10
102.691615596340380
 20
175.764122295872770
 11
106.204704070494470
 21
175.856115755123030
  0
LINE
  8
0
  6
CONTINUOUS
 62
256
 10
113.717792544648300
 20
30.634021727724758
 11
106.220533944843960
 21
30.437699102046281
  0
LINE
  8
0
  6
CONTINUOUS
 62
256
 10
101.717792544648300
 20
32.579520422254063
 11
101.717792544648300
 21
31.529764406120194
  0
ARC
  8
0
  6
CONTINUOUS
 62
256
 10
102.717792544648300
 20
174.764464970897280
 40
0.999999999999931
 50
91.500000000002828
 51
180.000000000000000
  0
ARC
  8
0
  6
CONTINUOUS
 62
256
 10
102.717792544648300
 20
31.529764406120194
 40
1.000000000000000
 50
180.000000000000000
 51
268.499999999997210
  0
LINE
  8
0
  6
CONTINUOUS
 62
256
 10
116.717792544648300
 20
167.347114688507650
 11
115.938467047909850
 21
168.147114688508740
  0
LINE
  8
0
  6
CONTINUOUS
 62
256
 10
116.717792544648300
 20
38.939114688509825
 11
115.946260302877230
 21
38.147114688508736
  0
LINE
  8
0
  6
CONTINUOUS
 62
256
 10
101.717792544648300
 20
103.147114688508740
 11
101.717792544648300
 21
170.138387156043790
  0
LINE
  8
0
  6
CONTINUOUS
 62
256
 10
101.717792544648300
 20
103.147114688508740
 11
101.717792544648300
 21
31.647114688509646
  0
LINE
  8
0
  6
CONTINUOUS
 62
256
 10
108.665438648032460
 20
47.749977979849973
 11
113.717792544648300
 21
47.617677436973281
  0
ARC
  8
0
  6
CONTINUOUS
 62
256
 10
108.717792544648300
 20
49.749292629800948
 40
2.000000000000000
 50
180.000000000000000
 51
268.499999999997210
  0
LINE
  8
0
  6
CONTINUOUS
 62
256
 10
108.665438648032700
 20
64.449151301604616
 11
113.717792544648300
 21
64.303757797943035
  0
ARC
  8
0
  6
CONTINUOUS
 62
256
 10
108.717792544648300
 20
66.448465951555590
 40
2.000000000000000
 50
180.000000000000000
 51
268.499999999997270
  0
LINE
  8
0
  6
CONTINUOUS
 62
256
 10
106.717792544648300
 20
103.147114688508740
 11
106.717792544648300
 21
49.749292629800948
  0
LINE
  8
0
  6
CONTINUOUS
 62
256
 10
102.691615596340380
 20
30.530107081144706
 11
106.204704070494470
 21
30.438113621894445
  0
LINE
  8
0
  6
CONTINUOUS
 62
256
 10
108.665438648032460
 20
158.544251397167500
 11
113.717792544648300
 21
158.676551940044190
  0
ARC
  8
0
  6
CONTINUOUS
 62
256
 10
108.717792544648300
 20
156.544936747216520
 40
1.999999999999863
 50
91.500000000002828
 51
180.000000000000000
  0
LINE
  8
0
  6
CONTINUOUS
 62
256
 10
108.665438648032700
 20
141.845078075412860
 11
113.717792544648300
 21
141.990471579074440
  0
ARC
  8
0
  6
CONTINUOUS
 62
256
 10
108.717792544648300
 20
139.845763425461880
 40
1.999999999999863
 50
91.500000000002828
 51
180.000000000000000
  0
LINE
  8
0
  6
CONTINUOUS
 62
256
 10
106.717792544648300
 20
103.147114688508740
 11
106.717792544648300
 21
156.544936747216520
  0
ARC
  8
0
  6
CONTINUOUS
 62
256
 10
116.217792544648300
 20
130.966870795135040
 40
2.000000000000000
 50
0.000000000000000
 51
37.568592028830572
  0
LINE
  8
0
  6
CONTINUOUS
 62
256
 10
117.803040522857600
 20
132.186292316834620
 11
116.717792544648300
 21
133.597114688506740
  0
ARC
  8
0
  6
CONTINUOUS
 62
256
 10
116.217792544648300
 20
75.327358581874250
 40
2.000000000000188
 50
322.431407971169340
 51
0.000000000000000
  0
LINE
  8
0
  6
CONTINUOUS
 62
256
 10
117.803040522857600
 20
74.107937060174663
 11
116.717792544648300
 21
72.697114688503461
  0
LINE
  8
0
  6
CONTINUOUS
 62
256
 10
118.217792544648300
 20
130.966870795135040
 11
118.217792544648300
 21
103.147114688508740
  0
LINE
  8
0
  6
CONTINUOUS
 62
256
 10
118.217792544648300
 20
75.327358581874250
 11
118.217792544648300
 21
103.147114688508740
  0
LINE
  8
0
  6
CONTINUOUS
 62
256
 10
113.717792544648300
 20
103.139114688508740
 11
113.717792544648300
 21
30.626021727724758
  0
LINE
  8
0
  6
CONTINUOUS
 62
256
 10
116.717792544648300
 20
103.147114688508740
 11
116.717792544648300
 21
38.939114688509825
  0
LINE
  8
0
  6
CONTINUOUS
 62
256
 10
116.717792544648300
 20
103.164114688508730
 11
116.717792544648300
 21
167.364114688507640
  0
LINE
  8
0
  6
CONTINUOUS
 62
256
 10
113.717792544648090
 20
103.164114688508730
 11
113.717792544648300
 21
175.664114688507820
  0
LINE
  8
0
  6
CONTINUOUS
 62
256
 10
-197.834979001012530
 20
-147.279395438796660
 11
-196.891746775333620
 21
-146.336163213117740
  0
LINE
  8
0
  6
CONTINUOUS
 62
256
 10
-219.515422447679550
 20
-164.283878514144130
 11
-220.033900321717060
 21
-164.583221138971910
  0
LINE
  8
0
  6
CONTINUOUS
 62
256
 10
-220.033900680017330
 20
-164.583220814610800
 11
-220.418827013455140
 21
-164.360982790286360
  0
ARC
  8
0
  6
CONTINUOUS
 62
256
 10
-220.033898377825660
 20
-162.273823613763910
 40
7.000000000000076
 50
325.150095420952820
 51
348.763010699953840
  0
ARC
  8
0
  6
CONTINUOUS
 62
256
 10
-220.033898377825660
 20
-162.273823613763910
 40
7.000000000000442
 50
201.417537750192740
 51
214.849904579047060
  0
ARC
  8
0
  6
CONTINUOUS
 62
256
 10
-220.033898377825660
 20
-162.273823613763910
 40
4.249999046324634
 50
213.421071121225200
 51
336.366468944172710
  0
LINE
  8
0
  6
CONTINUOUS
 62
256
 10
-293.778429066841280
 20
-166.273823613764020
 11
-289.470004259707370
 21
-166.273823613764020
  0
LINE
  8
0
  6
CONTINUOUS
 62
256
 10
-286.597728580899120
 20
-166.273823613764020
 11
-282.289303773765200
 21
-166.273823613764020
  0
ARC
  8
0
  6
CONTINUOUS
 62
256
 10
-288.033866420303240
 20
-162.273823613763910
 40
4.249999046324644
 50
203.633531055827290
 51
326.578928878774780
  0
LINE
  8
0
  6
CONTINUOUS
 62
256
 10
-288.033864118111580
 20
-164.583220814610800
 11
-287.648937784673760
 21
-164.360982790286360
  0
LINE
  8
0
  6
CONTINUOUS
 62
256
 10
-288.552342350449350
 20
-164.283878514144130
 11
-288.033864476411850
 21
-164.583221138971910
  0
ARC
  8
0
  6
CONTINUOUS
 62
256
 10
-288.033866420303240
 20
-162.273823613763910
 40
7.000000000000076
 50
325.150095420952820
 51
338.582462249807290
  0
ARC
  8
0
  6
CONTINUOUS
 62
256
 10
-288.033866420303240
 20
-162.273823613763910
 40
7.000000000000003
 50
191.236989300046050
 51
214.849904579047060
  0
LINE
  8
0
  6
CONTINUOUS
 62
256
 10
-310.232785797116320
 20
-147.279395438796830
 11
-311.176018022795230
 21
-146.336163213117860
  0
ARC
  8
0
  6
CONTINUOUS
 62
256
 10
-312.033866420303180
 20
-102.773823613763970
 40
4.249999046325767
 50
99.623514640088402
 51
256.935183523700350
  0
LINE
  8
0
  6
CONTINUOUS
 62
256
 10
-314.033865230524840
 20
-103.928522924501120
 11
-312.947212532902770
 21
-104.555900652791370
  0
LINE
  8
0
  6
CONTINUOUS
 62
256
 10
-314.033864506350260
 20
-101.619127858562420
 11
-312.838185710090560
 21
-100.928799306881960
  0
LINE
  8
0
  6
CONTINUOUS
 62
256
 10
-313.010490770374420
 20
-108.023823613763970
 11
-316.033882399064400
 21
-108.023823613763970
  0
LINE
  8
0
  6
CONTINUOUS
 62
256
 10
-312.695930450428700
 20
-97.523823613763966
 11
-315.877478070301780
 21
-97.523823613763966
  0
ARC
  8
0
  6
CONTINUOUS
 62
256
 10
-309.033882399064400
 20
-90.773823613763966
 40
5.000000000000000
 50
180.000000000000000
 51
225.659700457678070
  0
ARC
  8
0
  6
CONTINUOUS
 62
256
 10
-309.033882399064400
 20
-90.773823613763966
 40
5.000000000000028
 50
126.240455740105200
 51
180.000000000000000
  0
ARC
  8
0
  6
CONTINUOUS
 62
256
 10
-272.033882399064450
 20
-100.230455321533610
 40
45.000000000000000
 50
148.490164730419170
 51
180.000000000000000
  0
ARC
  8
0
  6
CONTINUOUS
 62
256
 10
-286.033882399064450
 20
-62.773823613763852
 40
4.249999046325946
 50
65.218555277062109
 51
124.030593798567840
  0
ARC
  8
0
  6
CONTINUOUS
 62
256
 10
-296.415439704249650
 20
-60.049120558064601
 40
2.000000000000008
 50
6.503500162732168
 51
44.999999999999858
  0
LINE
  8
0
  6
CONTINUOUS
 62
256
 10
-280.783882399064450
 20
-58.667934865549512
 11
-280.783882399064450
 21
-56.918361167590888
  0
ARC
  8
0
  6
CONTINUOUS
 62
256
 10
-272.033882399064450
 20
-100.230455321533610
 40
44.999999999999915
 50
92.906384370709901
 51
115.154512373013460
  0
LINE
  8
0
  6
CONTINUOUS
 62
256
 10
-227.283882399064450
 20
-58.667934865549512
 11
-227.283882399064450
 21
-56.918361167590888
  0
ARC
  8
0
  6
CONTINUOUS
 62
256
 10
-222.033882399064450
 20
-62.773823613763852
 40
4.249999046325890
 50
55.969406201432427
 51
114.781444722937830
  0
ARC
  8
0
  6
CONTINUOUS
 62
256
 10
-211.652325093879260
 20
-60.049120558064601
 40
2.000000000000016
 50
135.000000000000000
 51
173.496499837267830
  0
ARC
  8
0
  6
CONTINUOUS
 62
256
 10
-236.033882399064450
 20
-100.230455321533610
 40
44.999999999999929
 50
64.845487626986554
 51
87.093615629290099
  0
ARC
  8
0
  6
CONTINUOUS
 62
256
 10
-236.033882399064450
 20
-100.230455321533610
 40
45.000000000000021
 50
24.214092770229573
 51
31.509835269580822
  0
ARC
  8
0
  6
CONTINUOUS
 62
256
 10
-211.033882399064450
 20
-132.194027589386680
 40
20.000000000000000
 50
314.999999999999550
 51
331.380554893773880
  0
LINE
  8
0
  6
CONTINUOUS
 62
256
 10
-181.533882399065590
 20
-141.773823613763850
 11
-181.533882399065590
 21
-161.273823613763620
  0
LINE
  8
0
  6
CONTINUOUS
 62
256
 10
-181.533882399065590
 20
-32.273823613763625
 11
-181.533882399065530
 21
-81.773823613763852
  0
LINE
  8
0
  6
DASHDOT
 62
256
 10
-337.270547628568690
 20
-111.773823613763850
 11
-156.048180353837380
 21
-111.773823613763850
  0
LINE
  8
0
  6
CONTINUOUS
 62
256
 10
-314.033864036118640
 20
-101.619128230666430
 11
-314.033864989792850
 21
-103.928523067092210
  0
LINE
  8
0
  6
CONTINUOUS
 62
256
 10
-196.732433339163260
 20
-143.273823613763850
 11
-196.533882399064450
 21
-143.273823613763850
  0
LINE
  8
0
  6
CONTINUOUS
 62
256
 10
-196.533882399064450
 20
-143.273823613763850
 11
-196.533882399064450
 21
-141.761809468194090
  0
ARC
  8
0
  6
CONTINUOUS
 62
256
 10
-293.464749399151800
 20
-66.351876871465493
 40
6.600000000000009
 50
95.743681810995113
 51
135.000000000002930
  0
ARC
  8
0
  6
CONTINUOUS
 62
256
 10
-254.033882399064450
 20
-458.373823613763990
 40
400.599999999999910
 50
90.000000000000000
 51
95.743681810993436
  0
ARC
  8
0
  6
CONTINUOUS
 62
256
 10
-291.023949637210820
 20
-83.710066982748231
 40
20.600000000000030
 50
135.000000000002560
 51
174.247717268463500
  0
LINE
  8
0
  6
CONTINUOUS
 62
256
 10
-305.590349329654370
 20
-69.143667290305984
 11
-298.131654154983440
 21
-61.684972115634309
  0
ARC
  8
0
  6
CONTINUOUS
 62
256
 10
-12.433882399064089
 20
-111.773823613763850
 40
300.599999999999850
 50
174.247717268463390
 51
180.000000000000000
  0
ARC
  8
0
  6
CONTINUOUS
 62
256
 10
-293.464749399151800
 20
-157.195770356062210
 40
6.600000000000278
 50
224.999999999997190
 51
264.256318189004620
  0
ARC
  8
0
  6
CONTINUOUS
 62
256
 10
-254.033882399064450
 20
234.826176386236280
 40
400.599999999999910
 50
264.256318189006550
 51
270.000000000000000
  0
ARC
  8
0
  6
CONTINUOUS
 62
256
 10
-291.023949637210820
 20
-139.837580244779470
 40
20.599999999999859
 50
185.752282731536500
 51
224.999999999997440
  0
LINE
  8
0
  6
CONTINUOUS
 62
256
 10
-305.590349329654370
 20
-154.403979937221720
 11
-298.131654154983440
 21
-161.862675111893400
  0
ARC
  8
0
  6
CONTINUOUS
 62
256
 10
-12.433882399064089
 20
-111.773823613763850
 40
300.600000000000310
 50
180.000000000000000
 51
185.752282731536610
  0
ARC
  8
0
  6
CONTINUOUS
 62
256
 10
-214.603015398977110
 20
-157.195770356062210
 40
6.600000000000009
 50
275.743681810995100
 51
315.000000000002790
  0
ARC
  8
0
  6
CONTINUOUS
 62
256
 10
-254.033882399064450
 20
234.826176386236280
 40
400.599999999999910
 50
270.000000000000000
 51
275.743681810993510
  0
ARC
  8
0
  6
CONTINUOUS
 62
256
 10
-217.043815160918090
 20
-139.837580244779470
 40
20.600000000000069
 50
315.000000000002670
 51
354.247717268463480
  0
LINE
  8
0
  6
CONTINUOUS
 62
256
 10
-202.477415468474480
 20
-154.403979937221720
 11
-209.936110643145470
 21
-161.862675111893400
  0
ARC
  8
0
  6
CONTINUOUS
 62
256
 10
-495.633882399064760
 20
-111.773823613763850
 40
300.599999999999850
 50
354.247717268463420
 51
0.000000000000000
  0
ARC
  8
0
  6
CONTINUOUS
 62
256
 10
-495.633882399064760
 20
-111.773823613763850
 40
290.797000000000420
 50
0.000000000000000
 51
5.752282731536626
  0
LINE
  8
0
  6
CONTINUOUS
 62
256
 10
-209.409183244446750
 20
-76.075435066277350
 11
-215.296597116486110
 21
-70.188021194237308
  0
ARC
  8
0
  6
CONTINUOUS
 62
256
 10
-217.043815160918090
 20
-83.710066982748231
 40
10.797000000000011
 50
5.752282731536912
 51
44.999999999998295
  0
LINE
  8
0
  6
CONTINUOUS
 62
256
 10
-196.533882399064450
 20
-81.781324551501712
 11
-196.533882399064450
 21
-80.273823613763852
  0
LINE
  8
0
  6
CONTINUOUS
 62
256
 10
-196.732433339163260
 20
-80.273823613763852
 11
-196.533882399064450
 21
-80.273823613763852
  0
ARC
  8
0
  6
CONTINUOUS
 62
256
 10
-495.633882399064760
 20
-111.773823613763850
 40
300.600000000000310
 50
0.000000000000000
 51
5.752282731536605
  0
LINE
  8
0
  6
CONTINUOUS
 62
256
 10
-202.477415468474480
 20
-69.143667290305984
 11
-209.936110643145470
 21
-61.684972115634309
  0
ARC
  8
0
  6
CONTINUOUS
 62
256
 10
-217.043815160918090
 20
-83.710066982748231
 40
20.599999999999916
 50
5.752282731536487
 51
44.999999999997314
  0
LINE
  8
0
  6
CONTINUOUS
 62
256
 10
-196.533882399064450
 20
-81.773823613763852
 11
-173.095113265082830
 21
-81.773823613763852
  0
LINE
  8
0
  6
CONTINUOUS
 62
256
 10
-196.533882399064450
 20
-141.773823613763850
 11
-173.095113265082830
 21
-141.773823613763850
  0
ARC
  8
0
  6
CONTINUOUS
 62
256
 10
-173.095113265082830
 20
-86.773823613763852
 40
4.999999999999893
 50
4.861405395798621
 51
90.000000000000000
  0
ARC
  8
0
  6
CONTINUOUS
 62
256
 10
-173.095113265082830
 20
-136.773823613763850
 40
5.000000000000000
 50
270.000000000000000
 51
355.138594604201500
  0
ARC
  8
0
  6
CONTINUOUS
 62
256
 10
-12.433882399064316
 20
-111.773823613763850
 40
290.796999999999850
 50
174.998349729065040
 51
180.000000000000000
  0
LINE
  8
0
  6
CONTINUOUS
 62
256
 10
-296.111472714920470
 20
-73.528326227515208
 11
-292.771167681642790
 21
-70.188021194237308
  0
ARC
  8
0
  6
CONTINUOUS
 62
256
 10
-281.405772986583830
 20
-88.234025955851848
 40
20.797000000000015
 50
135.000000000000000
 51
174.998349729064670
  0
ARC
  8
0
  6
CONTINUOUS
 62
256
 10
-254.033882399064450
 20
-458.373823613763990
 40
390.797000000000030
 50
90.000000000000000
 51
95.417963762360529
  0
ARC
  8
0
  6
CONTINUOUS
 62
256
 10
-290.649847338082790
 20
-72.309341537797081
 40
3.000000000000067
 50
95.417963762365673
 51
135.000000000003470
  0
ARC
  8
0
  6
CONTINUOUS
 62
256
 10
-12.433882399064316
 20
-111.773823613763850
 40
290.797000000000200
 50
180.000000000000000
 51
185.001650270934930
  0
LINE
  8
0
  6
CONTINUOUS
 62
256
 10
-296.111472714920470
 20
-150.019321000012500
 11
-292.771167681642790
 21
-153.359626033290400
  0
ARC
  8
0
  6
CONTINUOUS
 62
256
 10
-281.405772986583830
 20
-135.313621271675860
 40
20.796999999999823
 50
185.001650270935330
 51
224.999999999999940
  0
ARC
  8
0
  6
CONTINUOUS
 62
256
 10
-254.033882399064450
 20
234.826176386236280
 40
390.797000000000030
 50
264.582036237639500
 51
270.000000000000000
  0
ARC
  8
0
  6
CONTINUOUS
 62
256
 10
-290.649847338082790
 20
-151.238305689730620
 40
3.000000000000346
 50
224.999999999996930
 51
264.582036237634780
  0
ARC
  8
0
  6
CONTINUOUS
 62
256
 10
-495.633882399064760
 20
-111.773823613763850
 40
290.797000000000080
 50
354.998349729065010
 51
0.000000000000000
  0
LINE
  8
0
  6
CONTINUOUS
 62
256
 10
-211.956292083208440
 20
-150.019321000012500
 11
-215.296597116486110
 21
-153.359626033290400
  0
ARC
  8
0
  6
CONTINUOUS
 62
256
 10
-226.661991811545080
 20
-135.313621271675860
 40
20.797000000000015
 50
315.000000000000000
 51
354.998349729064610
  0
ARC
  8
0
  6
CONTINUOUS
 62
256
 10
-254.033882399064450
 20
234.826176386236280
 40
390.797000000000030
 50
270.000000000000000
 51
275.417963762360500
  0
ARC
  8
0
  6
CONTINUOUS
 62
256
 10
-217.417917460046110
 20
-151.238305689730620
 40
3.000000000000067
 50
275.417963762365730
 51
315.000000000003070
  0
ARC
  8
0
  6
CONTINUOUS
 62
256
 10
-217.417917460046110
 20
-72.309341537797081
 40
3.000000000000346
 50
44.999999999996930
 51
84.582036237634298
  0
ARC
  8
0
  6
CONTINUOUS
 62
256
 10
-254.033882399064450
 20
-458.373823613763990
 40
390.797000000000030
 50
84.582036237639471
 51
90.000000000000000
  0
ARC
  8
0
  6
CONTINUOUS
 62
256
 10
-214.603015398977110
 20
-66.351876871465493
 40
6.600000000000278
 50
44.999999999997208
 51
84.256318189004887
  0
ARC
  8
0
  6
CONTINUOUS
 62
256
 10
-254.033882399064450
 20
-458.373823613763990
 40
400.599999999999910
 50
84.256318189006564
 51
90.000000000000000
  0
ARC
  8
0
  6
CONTINUOUS
 62
256
 10
-257.533882399064450
 20
-146.598383912495590
 40
1.000000000000000
 50
0.000000000000000
 51
84.260829522738462
  0
ARC
  8
0
  6
CONTINUOUS
 62
256
 10
-257.533882399064450
 20
-149.612296098788870
 40
1.000000000000042
 50
264.715267045464260
 51
0.000000000000000
  0
ARC
  8
0
  6
CONTINUOUS
 62
256
 10
-257.533882399064450
 20
-141.065460645517530
 40
1.000000000000077
 50
263.186145655820330
 51
0.000000000000000
  0
LINE
  8
0
  6
CONTINUOUS
 62
256
 10
-256.533882399064450
 20
-149.612296098788870
 11
-256.533882399064450
 21
-146.598383912495590
  0
ARC
  8
0
  6
CONTINUOUS
 62
256
 10
-271.074811082437290
 20
-117.570956492023020
 40
0.999999999999885
 50
300.000000000003810
 51
18.787728582347054
  0
LINE
  8
0
  6
CONTINUOUS
 62
256
 10
-273.216046239493890
 20
-119.961899724726890
 11
-270.574811082437290
 21
-118.436981895807320
  0
ARC
  8
0
  6
CONTINUOUS
 62
256
 10
-273.716046239493890
 20
-119.095874320942580
 40
1.000000000000094
 50
200.405931773138660
 51
300.000000000004150
  0
ARC
  8
0
  6
CONTINUOUS
 62
256
 10
-278.532508731218800
 20
-121.876660237082210
 40
1.000000000000082
 50
299.999999999997270
 51
22.410457608146118
  0
ARC
  8
0
  6
CONTINUOUS
 62
256
 10
-285.942836293388890
 20
-126.155014849884080
 40
1.000000000000082
 50
299.999999999997270
 51
24.260829522733705
  0
LINE
  8
0
  6
CONTINUOUS
 62
256
 10
-280.651184186996320
 20
-124.254578620179700
 11
-278.032508731218800
 21
-122.742685640866720
  0
ARC
  8
0
  6
CONTINUOUS
 62
256
 10
-281.151184186996320
 20
-123.388553216395170
 40
0.999999999999730
 50
203.186145655819840
 51
299.999999999997390
  0
LINE
  8
0
  6
CONTINUOUS
 62
256
 10
-288.052960811494640
 20
-128.527996346815140
 11
-285.442836293388890
 21
-127.021040253668620
  0
ARC
  8
0
  6
CONTINUOUS
 62
256
 10
-288.552960811494640
 20
-127.661970943030820
 40
1.000000000000243
 50
204.715267045454740
 51
300.000000000002900
  0
ARC
  8
0
  6
CONTINUOUS
 62
256
 10
-285.052960811494640
 20
-133.724148769522120
 40
1.000000000000082
 50
119.999999999997300
 51
215.284732954534750
  0
ARC
  8
0
  6
CONTINUOUS
 62
256
 10
-282.442836293388890
 20
-132.217192676375130
 40
0.999999999999807
 50
35.739170477263514
 51
120.000000000002610
  0
ARC
  8
0
  6
CONTINUOUS
 62
256
 10
-257.533882399064450
 20
-138.041674686891160
 40
1.000000000000000
 50
0.000000000000000
 51
82.410457608145990
  0
ARC
  8
0
  6
CONTINUOUS
 62
256
 10
-277.651184186996320
 20
-129.450731042885990
 40
0.999999999999885
 50
120.000000000003810
 51
216.813854344195820
  0
ARC
  8
0
  6
CONTINUOUS
 62
256
 10
-275.032508731219250
 20
-127.938838063573030
 40
1.000000000000194
 50
37.589542391851786
 51
119.999999999997270
  0
ARC
  8
0
  6
CONTINUOUS
 62
256
 10
-257.533882399064450
 20
-132.480102854612370
 40
1.000000000000268
 50
260.405931773124510
 51
0.000000000000000
  0
ARC
  8
0
  6
CONTINUOUS
 62
256
 10
-257.533882399064450
 20
-129.430267196773460
 40
1.000000000000000
 50
0.000000000000000
 51
78.787728582356308
  0
ARC
  8
0
  6
CONTINUOUS
 62
256
 10
-270.216046239493440
 20
-125.158052147433640
 40
0.999999999999885
 50
120.000000000003810
 51
219.594068226860970
  0
ARC
  8
0
  6
CONTINUOUS
 62
256
 10
-267.574811082437290
 20
-123.633134318514290
 40
1.000000000000165
 50
41.212271417643834
 51
119.999999999998080
  0
ARC
  8
0
  6
CONTINUOUS
 62
256
 10
-262.676187244477940
 20
-120.804912527009260
 40
0.999999999999885
 50
120.000000000003810
 51
226.260204708329240
  0
ARC
  8
0
  6
CONTINUOUS
 62
256
 10
-257.533882399064450
 20
-123.773823613763850
 40
0.999999999999964
 50
253.739795291702650
 51
0.000000000000000
  0
ARC
  8
0
  6
CONTINUOUS
 62
256
 10
-257.533882399064450
 20
-120.605584480091690
 40
1.000000000000000
 50
0.000000000000000
 51
68.381727577839243
  0
ARC
  8
0
  6
CONTINUOUS
 62
256
 10
-259.932411669453640
 20
-119.220792960173180
 40
0.999999999999961
 50
51.618272422159770
 51
120.000000000004590
  0
ARC
  8
0
  6
CONTINUOUS
 62
256
 10
-254.033882399064450
 20
-111.773823613763850
 40
38.999999999999865
 50
215.284732954534800
 51
264.715267045465400
  0
ARC
  8
0
  6
CONTINUOUS
 62
256
 10
-254.033882399064450
 20
-111.773823613763850
 40
30.499999999999964
 50
216.813854344181040
 51
263.186145655819020
  0
ARC
  8
0
  6
CONTINUOUS
 62
256
 10
-254.033882399064450
 20
-111.773823613763850
 40
33.999999999999964
 50
215.739170477266950
 51
264.260829522733050
  0
ARC
  8
0
  6
CONTINUOUS
 62
256
 10
-254.033882399064450
 20
-111.773823613763850
 40
25.499999999999890
 50
217.589542391857950
 51
262.410457608141770
  0
ARC
  8
0
  6
CONTINUOUS
 62
256
 10
-254.033882399064450
 20
-111.773823613763850
 40
22.000000000000025
 50
219.594068226860800
 51
260.405931773138780
  0
ARC
  8
0
  6
CONTINUOUS
 62
256
 10
-254.033882399064450
 20
-111.773823613763850
 40
16.999999999999773
 50
221.212271417650750
 51
258.787728582349980
  0
ARC
  8
0
  6
CONTINUOUS
 62
256
 10
-254.033882399064450
 20
-111.773823613763850
 40
13.499999999999927
 50
226.260204708312130
 51
253.739795291689090
  0
ARC
  8
0
  6
CONTINUOUS
 62
256
 10
-254.033882399064450
 20
-111.773823613763850
 40
8.499999999999949
 50
231.618272422157330
 51
248.381727577842410
  0
LINE
  8
0
  6
CONTINUOUS
 62
256
 10
-278.151184186996320
 20
-128.584705639101680
 11
-275.532508731219250
 21
-127.072812659788500
  0
LINE
  8
0
  6
CONTINUOUS
 62
256
 10
-285.552960811494640
 20
-132.858123365737580
 11
-282.942836293388890
 21
-131.351167272590830
  0
LINE
  8
0
  6
CONTINUOUS
 62
256
 10
-270.716046239493440
 20
-124.292026743649330
 11
-268.074811082437290
 21
-122.767108914729760
  0
LINE
  8
0
  6
CONTINUOUS
 62
256
 10
-263.176187244477940
 20
-119.938887123224940
 11
-260.432411669453640
 21
-118.354767556388860
  0
LINE
  8
0
  6
CONTINUOUS
 62
256
 10
-256.533882399064450
 20
-123.773823613763850
 11
-256.533882399064450
 21
-120.605584480091690
  0
LINE
  8
0
  6
CONTINUOUS
 62
256
 10
-256.533882399064450
 20
-132.480102854612370
 11
-256.533882399064450
 21
-129.430267196773460
  0
LINE
  8
0
  6
CONTINUOUS
 62
256
 10
-256.533882399064450
 20
-141.065460645517530
 11
-256.533882399064450
 21
-138.041674686891160
  0
ARC
  8
0
  6
CONTINUOUS
 62
256
 10
-263.432411669453640
 20
-113.158615133682360
 40
0.999999999999885
 50
300.000000000003810
 51
8.381727577845361
  0
ARC
  8
0
  6
CONTINUOUS
 62
256
 10
-254.033882399064450
 20
-111.773823613763850
 40
8.499999999999972
 50
171.618272422157790
 51
188.381727577842210
  0
LINE
  8
0
  6
CONTINUOUS
 62
256
 10
-265.676187244477940
 20
-115.608760104302750
 11
-262.932411669453640
 21
-114.024640537466670
  0
ARC
  8
0
  6
CONTINUOUS
 62
256
 10
-266.176187244477940
 20
-114.742734700518440
 40
0.999999999999879
 50
193.739795291686020
 51
300.000000000003810
  0
ARC
  8
0
  6
CONTINUOUS
 62
256
 10
-257.533882399064450
 20
-94.117380030754248
 40
0.999999999999982
 50
281.212271417643990
 51
0.000000000000000
  0
LINE
  8
0
  6
CONTINUOUS
 62
256
 10
-256.533882399064450
 20
-91.067544372915336
 11
-256.533882399064450
 21
-94.117380030754248
  0
ARC
  8
0
  6
CONTINUOUS
 62
256
 10
-257.533882399064450
 20
-91.067544372915336
 40
1.000000000000000
 50
0.000000000000000
 51
99.594068226874853
  0
ARC
  8
0
  6
CONTINUOUS
 62
256
 10
-257.533882399064450
 20
-85.505972540636549
 40
0.999999999999749
 50
277.589542391855960
 51
0.000000000013028
  0
LINE
  8
0
  6
CONTINUOUS
 62
256
 10
-256.533882399064450
 20
-82.482186582010172
 11
-256.533882399064450
 21
-85.505972540636321
  0
ARC
  8
0
  6
CONTINUOUS
 62
256
 10
-257.533882399064450
 20
-82.482186582010172
 40
1.000000000000000
 50
0.000000000000000
 51
96.813854344180172
  0
ARC
  8
0
  6
CONTINUOUS
 62
256
 10
-257.533882399064450
 20
-76.949263315032113
 40
0.999999999999973
 50
275.739170477261670
 51
0.000000000000000
  0
LINE
  8
0
  6
CONTINUOUS
 62
256
 10
-256.533882399064450
 20
-73.935351128738830
 11
-256.533882399064450
 21
-76.949263315032113
  0
ARC
  8
0
  6
CONTINUOUS
 62
256
 10
-257.533882399064450
 20
-73.935351128738830
 40
1.000000000000000
 50
0.000000000000000
 51
95.284732954535926
  0
ARC
  8
0
  6
CONTINUOUS
 62
256
 10
-277.651184186996320
 20
-94.096916184641486
 40
0.999999999999774
 50
143.186145655813330
 51
240.000000000003440
  0
LINE
  8
0
  6
CONTINUOUS
 62
256
 10
-278.151184186996320
 20
-94.962941588426020
 11
-275.532508731218800
 21
-96.474834567739208
  0
ARC
  8
0
  6
CONTINUOUS
 62
256
 10
-275.032508731218800
 20
-95.608809163954675
 40
1.000000000000082
 50
240.000000000002670
 51
322.410457608131140
  0
ARC
  8
0
  6
CONTINUOUS
 62
256
 10
-285.052960811494640
 20
-89.823498458005815
 40
0.999999999999908
 50
144.715267045455050
 51
239.999999999996560
  0
LINE
  8
0
  6
CONTINUOUS
 62
256
 10
-285.552960811494640
 20
-90.689523861790121
 11
-282.942836293388890
 21
-92.196479954936876
  0
ARC
  8
0
  6
CONTINUOUS
 62
256
 10
-282.442836293388890
 20
-91.330454551152570
 40
0.999999999999885
 50
239.999999999996160
 51
324.260829522725320
  0
ARC
  8
0
  6
CONTINUOUS
 62
256
 10
-259.932411669453640
 20
-104.326854267354290
 40
1.000000000000082
 50
240.000000000002670
 51
308.381727577839230
  0
LINE
  8
0
  6
CONTINUOUS
 62
256
 10
-263.176187244477940
 20
-103.608760104302750
 11
-260.432411669453640
 21
-105.192879671138830
  0
ARC
  8
0
  6
CONTINUOUS
 62
256
 10
-267.574811082437290
 20
-99.914512909013638
 40
0.999999999999885
 50
239.999999999996160
 51
318.787728582349130
  0
LINE
  8
0
  6
CONTINUOUS
 62
256
 10
-270.716046239493440
 20
-99.255620483878374
 11
-268.074811082437290
 21
-100.780538312797940
  0
ARC
  8
0
  6
CONTINUOUS
 62
256
 10
-270.216046239493440
 20
-98.389595080093841
 40
1.000000000000173
 50
140.405931773149600
 51
240.000000000002330
  0
ARC
  8
0
  6
CONTINUOUS
 62
256
 10
-257.533882399064450
 20
-102.942062747436010
 40
1.000000000000090
 50
291.618272422162020
 51
0.000000000000000
  0
ARC
  8
0
  6
CONTINUOUS
 62
256
 10
-254.033882399064450
 20
-111.773823613763850
 40
8.499999999999904
 50
111.618272422157720
 51
128.381727577841810
  0
ARC
  8
0
  6
CONTINUOUS
 62
256
 10
-262.676187244477940
 20
-102.742734700518440
 40
0.999999999999858
 50
133.739795291671330
 51
239.999999999995340
  0
LINE
  8
0
  6
CONTINUOUS
 62
256
 10
-256.533882399064450
 20
-99.773823613763852
 11
-256.533882399064450
 21
-102.942062747436010
  0
ARC
  8
0
  6
CONTINUOUS
 62
256
 10
-257.533882399064450
 20
-99.773823613763852
 40
1.000000000000000
 50
0.000000000000000
 51
106.260204708296920
  0
ARC
  8
0
  6
CONTINUOUS
 62
256
 10
-254.033882399064450
 20
-111.773823613763850
 40
13.499999999999963
 50
106.260204708310880
 51
133.739795291687780
  0
ARC
  8
0
  6
CONTINUOUS
 62
256
 10
-254.033882399064450
 20
-111.773823613763850
 40
17.000000000000046
 50
101.212271417650020
 51
138.787728582350240
  0
ARC
  8
0
  6
CONTINUOUS
 62
256
 10
-254.033882399064450
 20
-111.773823613763850
 40
22.000000000000131
 50
99.594068226861211
 51
140.405931773139140
  0
ARC
  8
0
  6
CONTINUOUS
 62
256
 10
-254.033882399064450
 20
-111.773823613763850
 40
30.500000000000135
 50
96.813854344181038
 51
143.186145655818930
  0
ARC
  8
0
  6
CONTINUOUS
 62
256
 10
-254.033882399064450
 20
-111.773823613763850
 40
25.500000000000160
 50
97.589542391858117
 51
142.410457608142050
  0
ARC
  8
0
  6
CONTINUOUS
 62
256
 10
-254.033882399064450
 20
-111.773823613763850
 40
34.000000000000071
 50
95.739170477266939
 51
144.260829522733360
  0
ARC
  8
0
  6
CONTINUOUS
 62
256
 10
-254.033882399064450
 20
-111.773823613763850
 40
38.999999999999986
 50
95.284732954534590
 51
144.715267045465230
  0
ARC
  8
0
  6
CONTINUOUS
 62
256
 10
-281.151184186996320
 20
-100.159094011132520
 40
1.000000000000082
 50
60.000000000002721
 51
156.813854344180360
  0
LINE
  8
0
  6
CONTINUOUS
 62
256
 10
-280.651184186996320
 20
-99.293068607348005
 11
-278.032508731218800
 21
-100.804961586661190
  0
ARC
  8
0
  6
CONTINUOUS
 62
256
 10
-278.532508731218800
 20
-101.670986990445730
 40
0.999999999999701
 50
337.589542391853970
 51
60.000000000001812
  0
ARC
  8
0
  6
CONTINUOUS
 62
256
 10
-288.552960811494640
 20
-95.885676284496867
 40
1.000000000000082
 50
60.000000000002721
 51
155.284732954544150
  0
LINE
  8
0
  6
CONTINUOUS
 62
256
 10
-288.052960811494640
 20
-95.019650880712334
 11
-285.442836293388890
 21
-96.526606973859089
  0
ARC
  8
0
  6
CONTINUOUS
 62
256
 10
-285.942836293388890
 20
-97.392632377643395
 40
0.999999999999863
 50
335.739170477254390
 51
59.999999999995801
  0
ARC
  8
0
  6
CONTINUOUS
 62
256
 10
-263.432411669453640
 20
-110.389032093845570
 40
1.000000000000026
 50
351.618272422167310
 51
60.000000000001499
  0
LINE
  8
0
  6
CONTINUOUS
 62
256
 10
-265.676187244477940
 20
-107.938887123224940
 11
-262.932411669453640
 21
-109.523006690061020
  0
ARC
  8
0
  6
CONTINUOUS
 62
256
 10
-271.074811082437290
 20
-105.976690735504690
 40
1.000000000000076
 50
341.212271417653030
 51
60.000000000002721
  0
LINE
  8
0
  6
CONTINUOUS
 62
256
 10
-273.216046239493890
 20
-103.585747502800810
 11
-270.574811082437290
 21
-105.110665331720160
  0
ARC
  8
0
  6
CONTINUOUS
 62
256
 10
-273.716046239493890
 20
-104.451772906585120
 40
0.999999999999885
 50
59.999999999996206
 51
159.594068226861740
  0
ARC
  8
0
  6
CONTINUOUS
 62
256
 10
-266.176187244477940
 20
-108.804912527009260
 40
0.999999999999885
 50
59.999999999996206
 51
166.260204708308440
  0
ARC
  8
0
  6
CONTINUOUS
 62
256
 10
-254.033882399064450
 20
-111.773823613763850
 40
13.499999999999687
 50
166.260204708311360
 51
193.739795291688210
  0
ARC
  8
0
  6
CONTINUOUS
 62
256
 10
-254.033882399064450
 20
-111.773823613763850
 40
16.999999999999716
 50
161.212271417649590
 51
198.787728582350440
  0
ARC
  8
0
  6
CONTINUOUS
 62
256
 10
-254.033882399064450
 20
-111.773823613763850
 40
22.000000000000206
 50
159.594068226860770
 51
200.405931773139230
  0
ARC
  8
0
  6
CONTINUOUS
 62
256
 10
-254.033882399064450
 20
-111.773823613763850
 40
30.499999999999954
 50
156.813854344181150
 51
203.186145655818820
  0
ARC
  8
0
  6
CONTINUOUS
 62
256
 10
-254.033882399064450
 20
-111.773823613763850
 40
25.500000000000000
 50
157.589542391858000
 51
202.410457608142480
  0
ARC
  8
0
  6
CONTINUOUS
 62
256
 10
-254.033882399064450
 20
-111.773823613763850
 40
34.000000000000007
 50
155.739170477266780
 51
204.260829522733220
  0
ARC
  8
0
  6
CONTINUOUS
 62
256
 10
-254.033882399064450
 20
-111.773823613763850
 40
39.000000000000220
 50
155.284732954534800
 51
204.715267045465200
  0
LINE
  8
0
  6
CONTINUOUS
 62
256
 10
-251.533882399064450
 20
-141.065460645517530
 11
-251.533882399064450
 21
-138.041674686891160
  0
LINE
  8
0
  6
CONTINUOUS
 62
256
 10
-251.533882399064450
 20
-132.480102854612370
 11
-251.533882399064450
 21
-129.430267196773460
  0
LINE
  8
0
  6
CONTINUOUS
 62
256
 10
-251.533882399064450
 20
-123.773823613763850
 11
-251.533882399064450
 21
-120.605584480091690
  0
LINE
  8
0
  6
CONTINUOUS
 62
256
 10
-244.891577553650960
 20
-119.938887123224940
 11
-247.635353128675260
 21
-118.354767556388860
  0
LINE
  8
0
  6
CONTINUOUS
 62
256
 10
-237.351718558635470
 20
-124.292026743649330
 11
-239.992953715691610
 21
-122.767108914729760
  0
LINE
  8
0
  6
CONTINUOUS
 62
256
 10
-222.514803986634260
 20
-132.858123365737580
 11
-225.124928504740010
 21
-131.351167272590830
  0
LINE
  8
0
  6
CONTINUOUS
 62
256
 10
-251.533882399064450
 20
-149.612296098788870
 11
-251.533882399064450
 21
-146.598383912495590
  0
LINE
  8
0
  6
CONTINUOUS
 62
256
 10
-229.916580611132590
 20
-128.584705639101680
 11
-232.535256066909650
 21
-127.072812659788500
  0
ARC
  8
0
  6
CONTINUOUS
 62
256
 10
-254.033882399064450
 20
-111.773823613763850
 40
8.499999999999904
 50
291.618272422157700
 51
308.381727577842580
  0
ARC
  8
0
  6
CONTINUOUS
 62
256
 10
-254.033882399064450
 20
-111.773823613763850
 40
13.499999999999963
 50
286.260204708310820
 51
313.739795291687870
  0
ARC
  8
0
  6
CONTINUOUS
 62
256
 10
-254.033882399064450
 20
-111.773823613763850
 40
17.000000000000046
 50
281.212271417650020
 51
318.787728582350210
  0
ARC
  8
0
  6
CONTINUOUS
 62
256
 10
-254.033882399064450
 20
-111.773823613763850
 40
22.000000000000131
 50
279.594068226861170
 51
320.405931773139170
  0
ARC
  8
0
  6
CONTINUOUS
 62
256
 10
-254.033882399064450
 20
-111.773823613763850
 40
25.499999999999932
 50
277.589542391858170
 51
322.410457608142050
  0
ARC
  8
0
  6
CONTINUOUS
 62
256
 10
-254.033882399064450
 20
-111.773823613763850
 40
34.000000000000071
 50
275.739170477266950
 51
324.260829522733050
  0
ARC
  8
0
  6
CONTINUOUS
 62
256
 10
-254.033882399064450
 20
-111.773823613763850
 40
30.500000000000135
 50
276.813854344181040
 51
323.186145655818850
  0
ARC
  8
0
  6
CONTINUOUS
 62
256
 10
-254.033882399064450
 20
-111.773823613763850
 40
38.999999999999986
 50
275.284732954534600
 51
324.715267045465230
  0
ARC
  8
0
  6
CONTINUOUS
 62
256
 10
-248.135353128675260
 20
-119.220792960173180
 40
0.999999999999885
 50
59.999999999996206
 51
128.381727577839710
  0
ARC
  8
0
  6
CONTINUOUS
 62
256
 10
-250.533882399064450
 20
-120.605584480091690
 40
1.000000000000090
 50
111.618272422161990
 51
180.000000000000000
  0
ARC
  8
0
  6
CONTINUOUS
 62
256
 10
-250.533882399064450
 20
-123.773823613763850
 40
1.000000000000000
 50
180.000000000000000
 51
286.260204708296900
  0
ARC
  8
0
  6
CONTINUOUS
 62
256
 10
-245.391577553650960
 20
-120.804912527009260
 40
0.999999999999858
 50
313.739795291671330
 51
59.999999999995389
  0
ARC
  8
0
  6
CONTINUOUS
 62
256
 10
-240.492953715691610
 20
-123.633134318514290
 40
1.000000000000082
 50
60.000000000002721
 51
138.787728582339180
  0
ARC
  8
0
  6
CONTINUOUS
 62
256
 10
-237.851718558635470
 20
-125.158052147433640
 40
1.000000000000318
 50
320.405931773139570
 51
59.999999999995502
  0
ARC
  8
0
  6
CONTINUOUS
 62
256
 10
-250.533882399064450
 20
-129.430267196773460
 40
0.999999999999982
 50
101.212271417644000
 51
180.000000000000000
  0
ARC
  8
0
  6
CONTINUOUS
 62
256
 10
-250.533882399064450
 20
-132.480102854612370
 40
1.000000000000000
 50
180.000000000000000
 51
279.594068226874700
  0
ARC
  8
0
  6
CONTINUOUS
 62
256
 10
-250.533882399064450
 20
-141.065460645517530
 40
1.000000000000000
 50
180.000000000000000
 51
276.813854344180240
  0
ARC
  8
0
  6
CONTINUOUS
 62
256
 10
-233.035256066909650
 20
-127.938838063573030
 40
1.000000000000082
 50
60.000000000002721
 51
142.410457608148480
  0
ARC
  8
0
  6
CONTINUOUS
 62
256
 10
-230.416580611132590
 20
-129.450731042885990
 40
0.999999999999911
 50
323.186145655802870
 51
59.999999999997016
  0
ARC
  8
0
  6
CONTINUOUS
 62
256
 10
-250.533882399064450
 20
-138.041674686891160
 40
0.999999999999975
 50
97.589542391854238
 51
180.000000000000000
  0
ARC
  8
0
  6
CONTINUOUS
 62
256
 10
-250.533882399064450
 20
-149.612296098788870
 40
1.000000000000000
 50
180.000000000000000
 51
275.284732954535800
  0
ARC
  8
0
  6
CONTINUOUS
 62
256
 10
-250.533882399064450
 20
-146.598383912495590
 40
0.999999999999973
 50
95.739170477261709
 51
180.000000000000000
  0
ARC
  8
0
  6
CONTINUOUS
 62
256
 10
-225.624928504740010
 20
-132.217192676375130
 40
0.999999999999885
 50
59.999999999996206
 51
144.260829522735750
  0
ARC
  8
0
  6
CONTINUOUS
 62
256
 10
-223.014803986634260
 20
-133.724148769522120
 40
0.999999999999776
 50
324.715267045465680
 51
60.000000000002437
  0
CIRCLE
  8
0
  6
CONTINUOUS
 62
256
 10
-254.033882399064450
 20
-111.773823613763850
 40
5.000000000000000
  0
ARC
  8
0
  6
CONTINUOUS
 62
256
 10
-219.514803986634260
 20
-127.661970943030820
 40
0.999999999999873
 50
239.999999999995770
 51
335.284732954544490
  0
LINE
  8
0
  6
CONTINUOUS
 62
256
 10
-220.014803986634260
 20
-128.527996346815140
 11
-222.624928504740010
 21
-127.021040253668620
  0
ARC
  8
0
  6
CONTINUOUS
 62
256
 10
-254.033882399064450
 20
-111.773823613763850
 40
39.000000000000220
 50
335.284732954534830
 51
24.715267045465190
  0
ARC
  8
0
  6
CONTINUOUS
 62
256
 10
-254.033882399064450
 20
-111.773823613763850
 40
34.000000000000007
 50
335.739170477266780
 51
24.260829522733218
  0
ARC
  8
0
  6
CONTINUOUS
 62
256
 10
-254.033882399064450
 20
-111.773823613763850
 40
25.500000000000085
 50
337.589542391857490
 51
22.410457608142003
  0
ARC
  8
0
  6
CONTINUOUS
 62
256
 10
-254.033882399064450
 20
-111.773823613763850
 40
30.499999999999954
 50
336.813854344181150
 51
23.186145655818844
  0
ARC
  8
0
  6
CONTINUOUS
 62
256
 10
-226.916580611132590
 20
-123.388553216395170
 40
1.000000000000082
 50
240.000000000002670
 51
336.813854344179730
  0
LINE
  8
0
  6
CONTINUOUS
 62
256
 10
-227.416580611132590
 20
-124.254578620179700
 11
-230.035256066910110
 21
-122.742685640866720
  0
ARC
  8
0
  6
CONTINUOUS
 62
256
 10
-254.033882399064450
 20
-111.773823613763850
 40
22.000000000000206
 50
339.594068226860770
 51
20.405931773139223
  0
ARC
  8
0
  6
CONTINUOUS
 62
256
 10
-222.124928504740010
 20
-126.155014849884080
 40
0.999999999999769
 50
155.739170477266270
 51
240.000000000003440
  0
ARC
  8
0
  6
CONTINUOUS
 62
256
 10
-229.535256066910110
 20
-121.876660237082210
 40
0.999999999999701
 50
157.589542391853970
 51
240.000000000003180
  0
ARC
  8
0
  6
CONTINUOUS
 62
256
 10
-234.351718558635010
 20
-119.095874320942580
 40
0.999999999999885
 50
239.999999999996160
 51
339.594068226861170
  0
ARC
  8
0
  6
CONTINUOUS
 62
256
 10
-254.033882399064450
 20
-111.773823613763850
 40
17.000000000000146
 50
341.212271417650070
 51
18.787728582350436
  0
LINE
  8
0
  6
CONTINUOUS
 62
256
 10
-234.851718558635010
 20
-119.961899724726890
 11
-237.492953715691610
 21
-118.436981895807320
  0
ARC
  8
0
  6
CONTINUOUS
 62
256
 10
-236.992953715691610
 20
-117.570956492023020
 40
0.999999999999646
 50
161.212271417644640
 51
239.999999999995770
  0
ARC
  8
0
  6
CONTINUOUS
 62
256
 10
-254.033882399064450
 20
-111.773823613763850
 40
13.500000000000130
 50
346.260204708311850
 51
13.739795291688171
  0
ARC
  8
0
  6
CONTINUOUS
 62
256
 10
-241.891577553650960
 20
-114.742734700518440
 40
0.999999999999885
 50
239.999999999996160
 51
346.260204708314010
  0
LINE
  8
0
  6
CONTINUOUS
 62
256
 10
-242.391577553650960
 20
-115.608760104302750
 11
-245.135353128675260
 21
-114.024640537466670
  0
ARC
  8
0
  6
CONTINUOUS
 62
256
 10
-241.891577553650960
 20
-108.804912527009260
 40
0.999999999999879
 50
13.739795291686027
 51
120.000000000003810
  0
ARC
  8
0
  6
CONTINUOUS
 62
256
 10
-254.033882399064450
 20
-111.773823613763850
 40
8.499999999999972
 50
351.618272422157820
 51
8.381727577842204
  0
ARC
  8
0
  6
CONTINUOUS
 62
256
 10
-244.635353128675260
 20
-113.158615133682360
 40
1.000000000000059
 50
171.618272422154460
 51
239.999999999996480
  0
ARC
  8
0
  6
CONTINUOUS
 62
256
 10
-234.351718558635010
 20
-104.451772906585120
 40
1.000000000000094
 50
20.405931773138683
 51
120.000000000004160
  0
LINE
  8
0
  6
CONTINUOUS
 62
256
 10
-234.851718558635010
 20
-103.585747502800810
 11
-237.492953715691610
 21
-105.110665331720160
  0
ARC
  8
0
  6
CONTINUOUS
 62
256
 10
-236.992953715691610
 20
-105.976690735504690
 40
1.000000000000082
 50
119.999999999997300
 51
198.787728582347000
  0
LINE
  8
0
  6
CONTINUOUS
 62
256
 10
-242.391577553650960
 20
-107.938887123224940
 11
-245.135353128675260
 21
-109.523006690061020
  0
ARC
  8
0
  6
CONTINUOUS
 62
256
 10
-244.635353128675260
 20
-110.389032093845570
 40
1.000000000000082
 50
119.999999999997300
 51
188.381727577833000
  0
ARC
  8
0
  6
CONTINUOUS
 62
256
 10
-222.124928504740010
 20
-97.392632377643395
 40
0.999999999999885
 50
120.000000000003810
 51
204.260829522745640
  0
LINE
  8
0
  6
CONTINUOUS
 62
256
 10
-220.014803986634260
 20
-95.019650880712334
 11
-222.624928504740010
 21
-96.526606973859089
  0
ARC
  8
0
  6
CONTINUOUS
 62
256
 10
-219.514803986634260
 20
-95.885676284496867
 40
1.000000000000249
 50
24.715267045455473
 51
119.999999999997440
  0
ARC
  8
0
  6
CONTINUOUS
 62
256
 10
-229.535256066910110
 20
-101.670986990445730
 40
1.000000000000082
 50
119.999999999997300
 51
202.410457608146120
  0
LINE
  8
0
  6
CONTINUOUS
 62
256
 10
-227.416580611132590
 20
-99.293068607348005
 11
-230.035256066910110
 21
-100.804961586661190
  0
ARC
  8
0
  6
CONTINUOUS
 62
256
 10
-226.916580611132590
 20
-100.159094011132520
 40
0.999999999999730
 50
23.186145655819846
 51
119.999999999997370
  0
ARC
  8
0
  6
CONTINUOUS
 62
256
 10
-254.033882399064450
 20
-111.773823613763850
 40
38.999999999999865
 50
35.284732954534789
 51
84.715267045465410
  0
ARC
  8
0
  6
CONTINUOUS
 62
256
 10
-254.033882399064450
 20
-111.773823613763850
 40
33.999999999999829
 50
35.739170477266640
 51
84.260829522733090
  0
ARC
  8
0
  6
CONTINUOUS
 62
256
 10
-254.033882399064450
 20
-111.773823613763850
 40
25.499999999999890
 50
37.589542391857954
 51
82.410457608141868
  0
ARC
  8
0
  6
CONTINUOUS
 62
256
 10
-254.033882399064450
 20
-111.773823613763850
 40
30.499999999999964
 50
36.813854344181067
 51
83.186145655818976
  0
ARC
  8
0
  6
CONTINUOUS
 62
256
 10
-254.033882399064450
 20
-111.773823613763850
 40
22.000000000000025
 50
39.594068226860820
 51
80.405931773138747
  0
ARC
  8
0
  6
CONTINUOUS
 62
256
 10
-254.033882399064450
 20
-111.773823613763850
 40
17.000000000000114
 50
41.212271417649752
 51
78.787728582350027
  0
ARC
  8
0
  6
CONTINUOUS
 62
256
 10
-254.033882399064450
 20
-111.773823613763850
 40
13.499999999999927
 50
46.260204708312138
 51
73.739795291689092
  0
ARC
  8
0
  6
CONTINUOUS
 62
256
 10
-250.533882399064450
 20
-99.773823613763852
 40
0.999999999999964
 50
73.739795291702634
 51
180.000000000000000
  0
LINE
  8
0
  6
CONTINUOUS
 62
256
 10
-251.533882399064450
 20
-99.773823613763852
 11
-251.533882399064450
 21
-102.942062747436010
  0
ARC
  8
0
  6
CONTINUOUS
 62
256
 10
-245.391577553650960
 20
-102.742734700518440
 40
0.999999999999885
 50
300.000000000003810
 51
46.260204708328082
  0
ARC
  8
0
  6
CONTINUOUS
 62
256
 10
-254.033882399064450
 20
-111.773823613763850
 40
8.500000000000128
 50
51.618272422158320
 51
68.381727577842284
  0
ARC
  8
0
  6
CONTINUOUS
 62
256
 10
-250.533882399064450
 20
-102.942062747436010
 40
1.000000000000000
 50
180.000000000000000
 51
248.381727577837720
  0
ARC
  8
0
  6
CONTINUOUS
 62
256
 10
-237.851718558635470
 20
-98.389595080093841
 40
1.000000000000082
 50
299.999999999997270
 51
39.594068226849963
  0
LINE
  8
0
  6
CONTINUOUS
 62
256
 10
-237.351718558635470
 20
-99.255620483878374
 11
-239.992953715691610
 21
-100.780538312797940
  0
ARC
  8
0
  6
CONTINUOUS
 62
256
 10
-240.492953715691610
 20
-99.914512909013638
 40
0.999999999999673
 50
221.212271417651180
 51
300.000000000003410
  0
LINE
  8
0
  6
CONTINUOUS
 62
256
 10
-244.891577553650960
 20
-103.608760104302750
 11
-247.635353128675260
 21
-105.192879671138830
  0
ARC
  8
0
  6
CONTINUOUS
 62
256
 10
-248.135353128675260
 20
-104.326854267354290
 40
0.999999999999961
 50
231.618272422159780
 51
299.999999999997330
  0
ARC
  8
0
  6
CONTINUOUS
 62
256
 10
-225.624928504740010
 20
-91.330454551152570
 40
0.999999999999940
 50
215.739170477274090
 51
300.000000000003980
  0
LINE
  8
0
  6
CONTINUOUS
 62
256
 10
-222.514803986634260
 20
-90.689523861790121
 11
-225.124928504740010
 21
-92.196479954936876
  0
ARC
  8
0
  6
CONTINUOUS
 62
256
 10
-223.014803986634260
 20
-89.823498458005815
 40
0.999999999999885
 50
300.000000000003810
 51
35.284732954545220
  0
ARC
  8
0
  6
CONTINUOUS
 62
256
 10
-233.035256066910110
 20
-95.608809163954675
 40
0.999999999999834
 50
217.589542391867670
 51
299.999999999997730
  0
LINE
  8
0
  6
CONTINUOUS
 62
256
 10
-229.916580611132590
 20
-94.962941588426020
 11
-232.535256066910110
 21
-96.474834567739208
  0
ARC
  8
0
  6
CONTINUOUS
 62
256
 10
-230.416580611132590
 20
-94.096916184641486
 40
1.000000000000082
 50
299.999999999997270
 51
36.813854344186382
  0
ARC
  8
0
  6
CONTINUOUS
 62
256
 10
-250.533882399064450
 20
-73.935351128738830
 40
1.000000000000042
 50
84.715267045464316
 51
180.000000000000000
  0
LINE
  8
0
  6
CONTINUOUS
 62
256
 10
-251.533882399064450
 20
-73.935351128738830
 11
-251.533882399064450
 21
-76.949263315032113
  0
ARC
  8
0
  6
CONTINUOUS
 62
256
 10
-250.533882399064450
 20
-76.949263315032113
 40
1.000000000000000
 50
180.000000000000000
 51
264.260829522738450
  0
ARC
  8
0
  6
CONTINUOUS
 62
256
 10
-250.533882399064450
 20
-82.482186582010172
 40
1.000000000000077
 50
83.186145655820326
 51
180.000000000000000
  0
LINE
  8
0
  6
CONTINUOUS
 62
256
 10
-251.533882399064450
 20
-82.482186582010172
 11
-251.533882399064450
 21
-85.505972540636321
  0
ARC
  8
0
  6
CONTINUOUS
 62
256
 10
-250.533882399064450
 20
-85.505972540636549
 40
1.000000000000000
 50
179.999999999986980
 51
262.410457608144270
  0
ARC
  8
0
  6
CONTINUOUS
 62
256
 10
-250.533882399064450
 20
-91.067544372915336
 40
1.000000000000268
 50
80.405931773124522
 51
180.000000000000000
  0
LINE
  8
0
  6
CONTINUOUS
 62
256
 10
-251.533882399064450
 20
-91.067544372915336
 11
-251.533882399064450
 21
-94.117380030754248
  0
ARC
  8
0
  6
CONTINUOUS
 62
256
 10
-250.533882399064450
 20
-94.117380030754248
 40
1.000000000000000
 50
180.000000000000000
 51
258.787728582356180
  0
ARC
  8
0
  6
CONTINUOUS
 62
256
 10
-467.033882399064400
 20
-111.773823613763850
 40
300.000000000000110
 50
355.138594604201960
 51
4.861405395798039
  0
LINE
  8
0
  6
CONTINUOUS
 62
256
 10
-167.044299246582170
 20
-109.273823613763850
 11
-166.533882399064450
 21
-109.273823613763850
  0
LINE
  8
0
  6
CONTINUOUS
 62
256
 10
-167.044299246582170
 20
-114.273823613763850
 11
-166.533882399064450
 21
-114.273823613763850
  0
LINE
  8
0
  6
CONTINUOUS
 62
256
 10
-166.533882399064450
 20
-114.273823613763850
 11
-166.533882399064450
 21
-109.273823613763850
  0
LINE
  8
0
  6
DASHDOT
 62
256
 10
-234.541839135212800
 20
-96.773823613763739
 11
-273.767110519950220
 21
-96.773823613763852
  0
LINE
  8
0
  6
DASHDOT
 62
256
 10
-198.342061866439340
 20
-41.082003081129642
 11
-184.315399023635390
 21
-27.055340238323822
  0
LINE
  8
0
  6
DASHDOT
 62
256
 10
-323.625780489564360
 20
-27.181925523276902
 11
-310.118449299384790
 21
-40.689256713454142
  0
LINE
  8
0
  6
DASHDOT
 62
256
 10
-323.620077150515950
 20
-166.360018365225980
 11
-309.648344590684250
 21
-152.388285805392570
  0
LINE
  8
0
  6
DASHDOT
 62
256
 10
-198.720581085856170
 20
-152.087124926964410
 11
-184.501896182932850
 21
-166.305809829885850
  0
LINE
  8
0
  6
DASHDOT
 62
256
 10
-254.033882399064450
 20
-14.989594971998940
 11
-254.033882399064450
 21
-183.494950482496730
  0
ARC
  8
0
  6
CONTINUOUS
 62
256
 10
-228.283882399064450
 20
-56.918361167590888
 40
1.000000000000000
 50
0.000000000000000
 51
79.855205773680638
  0
ARC
  8
0
  6
CONTINUOUS
 62
256
 10
-316.033882399064400
 20
-109.023823613763970
 40
1.000000000000000
 50
90.000000000000000
 51
180.000000000000000
  0
ARC
  8
0
  6
CONTINUOUS
 62
256
 10
-315.877478070301780
 20
-96.523823613763966
 40
1.000000000000224
 50
175.167582959104580
 51
270.000000000000000
  0
ARC
  8
0
  6
CONTINUOUS
 62
256
 10
-279.783882399064450
 20
-56.918361167590888
 40
1.000000000000064
 50
100.144794226318720
 51
180.000000000000000
  0
ARC
  8
0
  6
CONTINUOUS
 62
256
 10
-297.033882399064450
 20
-132.194027589386790
 40
19.999999999999943
 50
180.000000000000000
 51
225.000000000000570
  0
ARC
  8
0
  6
CONTINUOUS
 62
256
 10
-254.033882399064450
 20
-454.773823613763850
 40
400.000000000000000
 50
90.000000000000000
 51
92.906384370709901
  0
ARC
  8
0
  6
CONTINUOUS
 62
256
 10
-254.033882399064450
 20
-454.773823613763850
 40
399.999999999999940
 50
87.093615629290099
 51
90.000000000000000
  0
LINE
  8
0
  6
CONTINUOUS
 62
256
 10
-214.289335731287620
 20
-166.273823613764020
 11
-218.597760538421540
 21
-166.273823613764020
  0
LINE
  8
0
  6
CONTINUOUS
 62
256
 10
-317.033882399064400
 20
-100.230455321533610
 11
-317.033882399064400
 21
-132.194027589386790
  0
CIRCLE
  8
0
  6
CONTINUOUS
 62
256
 10
-190.394272092271480
 20
-160.413433920547960
 40
5.000000000000000
  0
CIRCLE
  8
0
  6
CONTINUOUS
 62
256
 10
-317.673492705849870
 20
-160.413433920557740
 40
5.000000000000000
  0
CIRCLE
  8
0
  6
CONTINUOUS
 62
256
 10
-317.673492705859640
 20
-33.134213306979291
 40
5.000000000000000
  0
ARC
  8
0
  6
DASHDOT
 62
256
 10
-254.033882399065590
 20
-96.773823613763625
 40
89.999999999999815
 50
38.633392784995969
 51
51.366607215015975
  0
CIRCLE
  8
0
  6
CONTINUOUS
 62
256
 10
-190.394272092281260
 20
-33.134213306969514
 40
5.000000000000000
  0
ARC
  8
0
  6
CONTINUOUS
 62
256
 10
-189.533882399065590
 20
-32.273823613763625
 40
8.000000000000000
 50
0.000000000000000
 51
90.000000000000000
  0
ARC
  8
0
  6
DASHDOT
 62
256
 10
-254.033882399065820
 20
-96.773823613763852
 40
89.999999999999957
 50
308.633392784996090
 51
321.366607215015960
  0
ARC
  8
0
  6
CONTINUOUS
 62
256
 10
-189.533882399065590
 20
-161.273823613763620
 40
8.000000000000000
 50
270.000000000000000
 51
0.000000000000000
  0
ARC
  8
0
  6
DASHDOT
 62
256
 10
-254.033882399065820
 20
-96.773823613763625
 40
89.999999999999915
 50
218.633392784996090
 51
231.366607215016050
  0
ARC
  8
0
  6
CONTINUOUS
 62
256
 10
-318.533882399065530
 20
-161.273823613763620
 40
8.000000000000000
 50
180.000000000000000
 51
270.000000000000000
  0
ARC
  8
0
  6
DASHDOT
 62
256
 10
-254.033882399065590
 20
-96.773823613763625
 40
89.999999999999901
 50
128.633392784996090
 51
141.366607215015930
  0
ARC
  8
0
  6
CONTINUOUS
 62
256
 10
-318.533882399065530
 20
-32.273823613763625
 40
8.000000000000000
 50
90.000000000000000
 51
180.000000000000000
  0
ARC
  8
0
  6
CONTINUOUS
 62
256
 10
-250.033882399064230
 20
-31.782551146227945
 40
2.000000000000000
 50
90.000000000000000
 51
180.000000000000000
  0
ARC
  8
0
  6
CONTINUOUS
 62
256
 10
-258.033882399064230
 20
-31.782551146227945
 40
2.000000000000000
 50
0.000000000000000
 51
90.000000000000000
  0
ARC
  8
0
  6
CONTINUOUS
 62
256
 10
-258.033882399064230
 20
-52.793724603875035
 40
2.000000000000030
 50
270.570116666734690
 51
0.000000000000000
  0
ARC
  8
0
  6
CONTINUOUS
 62
256
 10
-250.033882399064230
 20
-52.793724603875035
 40
2.000000000000000
 50
180.000000000000000
 51
269.429883333265310
  0
ARC
  8
0
  6
CONTINUOUS
 62
256
 10
-197.719797072806220
 20
-46.116592536991448
 40
1.999999999999976
 50
44.999999999998849
 51
135.000000000001140
  0
ARC
  8
0
  6
CONTINUOUS
 62
256
 10
-203.376651322298410
 20
-40.459738287499135
 40
1.999999999999815
 50
314.999999999996530
 51
45.000000000004604
  0
ARC
  8
0
  6
CONTINUOUS
 62
256
 10
-219.247344081648240
 20
-56.330431046848787
 40
2.000000000000053
 50
249.074092097575060
 51
315.000000000000000
  0
ARC
  8
0
  6
CONTINUOUS
 62
256
 10
-310.347967725322860
 20
-46.116592536991504
 40
2.000000000000177
 50
44.999999999995396
 51
134.999999999995400
  0
ARC
  8
0
  6
CONTINUOUS
 62
256
 10
-304.691113475830430
 20
-40.459738287499135
 40
1.999999999999855
 50
134.999999999995400
 51
225.000000000004010
  0
ARC
  8
0
  6
CONTINUOUS
 62
256
 10
-288.820420716480670
 20
-56.330431046848844
 40
2.000000000000016
 50
225.000000000000000
 51
290.925907902425370
  0
LINE
  8
0
  6
CONTINUOUS
 62
256
 10
-318.533882399065530
 20
-169.273823613763620
 11
-189.533882399065590
 21
-169.273823613763620
  0
LINE
  8
0
  6
CONTINUOUS
 62
256
 10
-326.533882399065530
 20
-32.273823613763625
 11
-326.533882399065530
 21
-161.273823613763620
  0
LINE
  8
0
  6
CONTINUOUS
 62
256
 10
-318.533882399065530
 20
-24.273823613763625
 11
-189.033882399065590
 21
-24.273823613763625
  0
LINE
  8
0
  6
CONTINUOUS
 62
256
 10
-252.033882399064230
 20
-31.782551146227945
 11
-252.033882399064230
 21
-52.793724603875035
  0
LINE
  8
0
  6
CONTINUOUS
 62
256
 10
-256.033882399064230
 20
-31.782551146227945
 11
-256.033882399064230
 21
-52.793724603875035
  0
LINE
  8
0
  6
CONTINUOUS
 62
256
 10
-199.134010635179320
 20
-44.702378974618398
 11
-213.066538656252360
 21
-58.634906995691495
  0
LINE
  8
0
  6
CONTINUOUS
 62
256
 10
-201.962437759925540
 20
-41.873951849872185
 11
-217.833130519275130
 21
-57.744644609221893
  0
LINE
  8
0
  6
CONTINUOUS
 62
256
 10
-308.933754162949530
 20
-44.702378974618398
 11
-295.001226141876540
 21
-58.634906995691495
  0
LINE
  8
0
  6
CONTINUOUS
 62
256
 10
-306.105327038203310
 20
-41.873951849872185
 11
-290.234634278853780
 21
-57.744644609221950
  0
LINE
  8
0
  6
CONTINUOUS
 62
256
 10
-221.470036217229790
 20
-166.273823613764020
 11
-225.778461024363710
 21
-166.273823613764020
  0
LINE
  8
0
  6
CONTINUOUS
 62
256
 10
56.717793307587769
 20
130.897115642183050
 11
56.717793307587769
 21
139.397113734834420
  0
LINE
  8
0
  6
CONTINUOUS
 62
256
 10
61.717793307587769
 20
139.397113734834420
 11
56.717793307587769
 21
139.397113734834420
  0
LINE
  8
0
  6
CONTINUOUS
 62
256
 10
61.717793307587769
 20
130.897115642183050
 11
56.717793307587769
 21
130.897115642183050
  0
LINE
  8
0
  6
CONTINUOUS
 62
256
 10
56.717793307587769
 20
75.397113734834420
 11
56.717793307587769
 21
66.897115642183053
  0
LINE
  8
0
  6
CONTINUOUS
 62
256
 10
61.717793307587769
 20
66.897115642183053
 11
56.717793307587769
 21
66.897115642183053
  0
LINE
  8
0
  6
CONTINUOUS
 62
256
 10
61.717793307587769
 20
75.397113734834420
 11
56.717793307587769
 21
75.397113734834420
  0
LINE
  8
0
  6
CONTINUOUS
 62
256
 10
56.717793307587769
 20
-107.023448893989550
 11
56.717793307587769
 21
-98.523450801338186
  0
LINE
  8
0
  6
CONTINUOUS
 62
256
 10
61.717793307587769
 20
-98.523450801338186
 11
56.717793307587769
 21
-98.523450801338186
  0
LINE
  8
0
  6
CONTINUOUS
 62
256
 10
61.717793307587769
 20
-107.023448893989550
 11
56.717793307587769
 21
-107.023448893989550
  0
LINE
  8
0
  6
CONTINUOUS
 62
256
 10
41.217792544648319
 20
149.280197283391430
 11
59.717792544648319
 21
149.280197283391430
  0
LINE
  8
0
  6
CONTINUOUS
 62
256
 10
41.217792544648319
 20
144.189028458848500
 11
59.717792544648319
 21
144.189028458848500
  0
LINE
  8
0
  6
CONTINUOUS
 62
256
 10
41.217792544648319
 20
136.450715640017510
 11
56.717793307587769
 21
136.450715640017510
  0
LINE
  8
0
  6
CONTINUOUS
 62
256
 10
41.217792544648319
 20
134.861505847278750
 11
56.717793307587769
 21
134.861505847278750
  0
LINE
  8
0
  6
CONTINUOUS
 62
256
 10
41.217792544648319
 20
131.903510239145820
 11
56.717793307587769
 21
131.903510239145820
  0
LINE
  8
0
  6
CONTINUOUS
 62
256
 10
41.217792544648319
 20
130.424487085668830
 11
59.717792544648319
 21
130.424487085668830
  0
LINE
  8
0
  6
CONTINUOUS
 62
256
 10
41.217792544648319
 20
127.331756094003500
 11
59.717792544648319
 21
127.331756094003480
  0
LINE
  8
0
  6
CONTINUOUS
 62
256
 10
41.217792544648319
 20
125.985354368504890
 11
59.717792544648319
 21
125.985354368504890
  0
LINE
  8
0
  6
CONTINUOUS
 62
256
 10
41.217792544648319
 20
122.775149345146570
 11
59.717792544648319
 21
122.775149345146570
  0
LINE
  8
0
  6
CONTINUOUS
 62
256
 10
41.217792544648319
 20
121.533229480258650
 11
59.717792544648319
 21
121.533229480258650
  0
LINE
  8
0
  6
CONTINUOUS
 62
256
 10
41.217792544648319
 20
117.147114688508740
 11
59.717792544648319
 21
117.147114688508740
  0
LINE
  8
0
  6
CONTINUOUS
 62
256
 10
41.217792544648319
 20
84.760999896758790
 11
59.717792544648319
 21
84.760999896758790
  0
LINE
  8
0
  6
CONTINUOUS
 62
256
 10
41.217792544648319
 20
89.147114688508736
 11
59.717792544648319
 21
89.147114688508736
  0
LINE
  8
0
  6
CONTINUOUS
 62
256
 10
41.217792544648319
 20
80.308875008512587
 11
59.717792544648319
 21
80.308875008512587
  0
LINE
  8
0
  6
CONTINUOUS
 62
256
 10
41.217792544648319
 20
78.962473283013992
 11
59.717792544648319
 21
78.962473283013992
  0
LINE
  8
0
  6
CONTINUOUS
 62
256
 10
41.217792544648319
 20
75.869742291348757
 11
59.717792544648319
 21
75.869742291348757
  0
LINE
  8
0
  6
CONTINUOUS
 62
256
 10
41.217792544648319
 20
74.390719137871656
 11
56.717793307587769
 21
74.390719137871656
  0
LINE
  8
0
  6
CONTINUOUS
 62
256
 10
41.217792544648319
 20
71.432723529738723
 11
56.717793307587769
 21
71.432723529738723
  0
LINE
  8
0
  6
CONTINUOUS
 62
256
 10
41.217792544648319
 20
69.843513737000080
 11
56.717793307587769
 21
69.843513737000080
  0
LINE
  8
0
  6
CONTINUOUS
 62
256
 10
41.217792544648319
 20
62.105200918168975
 11
59.717792544648319
 21
62.105200918168975
  0
LINE
  8
0
  6
CONTINUOUS
 62
256
 10
41.217792544648319
 20
57.014032093626156
 11
59.717792544648319
 21
57.014032093626177
  0
LINE
  8
0
  6
CONTINUOUS
 62
256
 10
106.717792544648300
 20
-103.773823613767490
 11
106.717792544648300
 21
-150.171645672471640
  0
TEXT
  8
0
  6
CONTINUOUS
 62
256
 10
-286.801544189453120
 20
47.796249389648438
 40
7.919999599456787
  1
ＳＣＡＬＥ１／１
 50
0.000002504478167
 41
0.984848598876354
  7
STANDARD1
  0
TEXT
  8
0
  6
CONTINUOUS
 62
256
 10
-286.801544189453120
 20
60.516250610351563
 40
7.919999599456787
  1
１／３～１／５０
 50
0.000002504478167
 41
0.984848598876354
  7
STANDARD1
  0
TEXT
  8
0
  6
CONTINUOUS
 62
256
 10
-286.801544189453120
 20
73.236251831054688
 40
7.919999599456787
  1
０．１ｋＷ
 50
0.000002504478167
 41
0.984848598876354
  7
STANDARD1
  0
TEXT
  8
0
  6
CONTINUOUS
 62
256
 10
-286.801544189453120
 20
85.956253051757813
 40
7.919999599456787
  1
ＧＭ－ＳＦＳ
 50
0.000002504478167
 41
0.984848598876354
  7
STANDARD1
  0
TEXT
  8
0
  6
CONTINUOUS
 62
256
 10
-286.801544189453120
 20
98.676254272460938
 40
7.919999599456787
  1
三菱ギヤードモートル
 50
0.000002504478167
 41
0.984848598876354
  7
STANDARD1
  0
TEXT
  8
0
  6
CONTINUOUS
 62
256
 10
-286.801544189453120
 20
111.396255493164060
 40
7.919999599456787
  1
Ｓ１３７
 50
0.000002504478167
 41
0.984848598876354
  7
STANDARD1
  0
LINE
  8
0
  6
CONTINUOUS
 62
256
 10
-203.617169035333660
 20
-68.003913723446558
 11
-203.130365643628070
 21
-67.517110331740938
  0
LINE
  8
0
  6
CONTINUOUS
 62
256
 10
-210.263972508747400
 20
-61.357110250032846
 11
-209.777169117041780
 21
-60.870306858327226
  0
LINE
  8
0
  6
CONTINUOUS
 62
256
 10
-203.304030426364900
 20
-67.751366772596185
 11
-209.981129728837800
 21
-61.074267470123267
  0
LINE
  8
0
  6
CONTINUOUS
 62
256
 10
-203.617169035333660
 20
-68.003913723446558
 11
-210.263972508747400
 21
-61.357110250032846
  0
POINT
  8
0
  6
CONTINUOUS
 62
256
 10
-206.940570772040530
 20
-64.680511986739702
  0
ARC
  8
0
  6
CONTINUOUS
 62
256
 10
-209.203312336967570
 20
-66.943253551666743
 40
6.099999427795398
 50
354.601910595264880
 51
95.398072101890989
  0
LINE
  8
0
  6
CONTINUOUS
 62
256
 10
-304.450595762795160
 20
-68.003913723446558
 11
-304.937399154500780
 21
-67.517110331740938
  0
LINE
  8
0
  6
CONTINUOUS
 62
256
 10
-297.803792289381480
 20
-61.357110250032846
 11
-298.290595681087100
 21
-60.870306858327226
  0
LINE
  8
0
  6
CONTINUOUS
 62
256
 10
-304.763734371763970
 20
-67.751366772596185
 11
-298.086635069291050
 21
-61.074267470123267
  0
LINE
  8
0
  6
CONTINUOUS
 62
256
 10
-304.450595762795160
 20
-68.003913723446558
 11
-297.803792289381480
 21
-61.357110250032846
  0
POINT
  8
0
  6
CONTINUOUS
 62
256
 10
-301.127194026088320
 20
-64.680511986739702
  0
ARC
  8
0
  6
CONTINUOUS
 62
256
 10
-298.864452461161310
 20
-66.943253551666743
 40
6.099999427795413
 50
84.601927898108485
 51
185.398089404735090
  0
LINE
  8
0
  6
CONTINUOUS
 62
256
 10
-304.450595762795160
 20
-155.543733504080900
 11
-304.937399154500780
 21
-156.030536895786530
  0
LINE
  8
0
  6
CONTINUOUS
 62
256
 10
-297.803792289381480
 20
-162.190536977494650
 11
-298.290595681087100
 21
-162.677340369200240
  0
LINE
  8
0
  6
CONTINUOUS
 62
256
 10
-304.763734371763970
 20
-155.796280454931290
 11
-298.086635069291050
 21
-162.473379757404220
  0
LINE
  8
0
  6
CONTINUOUS
 62
256
 10
-304.450595762795160
 20
-155.543733504080900
 11
-297.803792289381480
 21
-162.190536977494650
  0
POINT
  8
0
  6
CONTINUOUS
 62
256
 10
-301.127194026088320
 20
-158.867135240787770
  0
ARC
  8
0
  6
CONTINUOUS
 62
256
 10
-298.864452461161310
 20
-156.604393675860730
 40
6.099999427795398
 50
174.601910595264910
 51
275.398072101891500
  0
LINE
  8
0
  6
CONTINUOUS
 62
256
 10
-203.617169035333660
 20
-155.543733504080900
 11
-203.130365643628070
 21
-156.030536895786530
  0
LINE
  8
0
  6
CONTINUOUS
 62
256
 10
-210.263972508747400
 20
-162.190536977494650
 11
-209.777169117041780
 21
-162.677340369200240
  0
LINE
  8
0
  6
CONTINUOUS
 62
256
 10
-203.304030426364900
 20
-155.796280454931290
 11
-209.981129728837800
 21
-162.473379757404220
  0
LINE
  8
0
  6
CONTINUOUS
 62
256
 10
-203.617169035333660
 20
-155.543733504080900
 11
-210.263972508747400
 21
-162.190536977494650
  0
POINT
  8
0
  6
CONTINUOUS
 62
256
 10
-206.940570772040530
 20
-158.867135240787770
  0
ARC
  8
0
  6
CONTINUOUS
 62
256
 10
-209.203312336967570
 20
-156.604393675860730
 40
6.099999427795400
 50
264.601927898109010
 51
5.398089404735109
  0
LINE
  8
0
  6
CONTINUOUS
 62
256
 10
115.955319961776820
 20
-31.773823613763852
 11
113.717792544648290
 21
-31.773823613763852
  0
LINE
  8
0
  6
CONTINUOUS
 62
256
 10
115.945870640128920
 20
-161.773823613763850
 11
113.717792544648290
 21
-161.773823613763850
  0
LINE
  8
0
  6
CONTINUOUS
 62
256
 10
115.946260302877230
 20
38.147114688508736
 11
113.717792544648330
 21
38.147114688508736
  0
LINE
  8
0
  6
CONTINUOUS
 62
256
 10
115.938467047909850
 20
168.147114688508740
 11
113.717792544648330
 21
168.147114688508740
  0
ENDSEC
  0
EOF
