  0
SECTION
  2
HEADER
  9
$FILLMODE
 70
1
  9
$TEXTSTYLE
  7
STANDARD1
  9
$ACADVER
  1
AC1009
  9
$DIMASZ
 40
1.931851648807023
  9
$DIMEXE
 40
2.000000000000000
  9
$DIMEXO
 40
1.000000000000000
  9
$DIMLFAC
 40
1.000000000000000
  9
$DIMSCALE
 40
1.000000000000000
  9
$DIMTAD
 70
1
  9
$DIMTFAC
 40
0.714285731315613
  9
$DIMTXT
 40
2.799999952316284
  9
$LUPREC
 70
3
  9
$TEXTSIZE
 40
2.799999952316284
  9
$REGENMODE
 70
1
  0
ENDSEC
  0
SECTION
  2
TABLES
  0
TABLE
  2
LTYPE
 70
4
  0
LTYPE
  2
CONTINUOUS
 70
64
  3
Solid line
 72
65
 73
0
 40
0.0
  0
LTYPE
  2
DASHED
 70
64
  3
-- -- -- -- -- -- -- -- -- -- -- -- -- -- --
 72
65
 73
2
 40
0.75
 49
0.5
 49
-0.25
  0
LTYPE
  2
DASHDOT
 70
64
  3
__ . __ . __ . __ . __ . __ . __ . __ . __ . __
 72
65
 73
4
 40
1.0
 49
0.5
 49
-0.25
 49
0.0
 49
-0.25
  0
LTYPE
  2
DIVIDE
 70
64
  3
__ . . __ . . __ . . __ . . __ . . __ . . __
 72
65
 73
6
 40
1.25
 49
0.5
 49
-0.25
 49
0.0
 49
-0.25
 49
0.0
 49
-0.25
  0
ENDTAB
  0
TABLE
  2
LAYER
 70
1
  0
LAYER
  2
0
 70
64
 62
2
  6
CONTINUOUS
  0
ENDTAB
  0
TABLE
  2
STYLE
 70
4
  0
STYLE
  2
STANDARD1
 70
64
 40
0.0
 41
1.0
 50
0.0
 71
0
 42
2.799999952316284
  3
MONOTXT
  4
BIGFONT
  0
STYLE
  2
STANDARD2
 70
68
 40
0.0
 41
1.0
 50
0.0
 71
0
 42
2.799999952316284
  3
MONOTXT
  4
BIGFONT
  0
STYLE
  2
STANDARD3
 70
64
 40
0.0
 41
1.0
 50
0.0
 71
0
 42
2.799999952316284
  3
MONOTXT
  4

  0
STYLE
  2
STANDARD4
 70
68
 40
0.0
 41
1.0
 50
0.0
 71
0
 42
2.799999952316284
  3
MONOTXT
  4

  0
ENDTAB
  0
TABLE
  2
VIEW
 70
0
  0
ENDTAB
  0
ENDSEC
  0
SECTION
  2
BLOCKS
  0
ENDSEC
  0
SECTION
  2
ENTITIES
  0
ARC
  8
0
  6
CONTINUOUS
 62
3
 10
-237.388817237293300
 20
-176.710089714804920
 40
6.099999427795399
 50
264.601927898109010
 51
5.398089404735109
  0
POINT
  8
0
  6
CONTINUOUS
 62
3
 10
-235.126075672366260
 20
-178.972831279731960
  0
LINE
  8
0
  6
CONTINUOUS
 62
3
 10
-231.802673935659390
 20
-175.649429543025090
 11
-238.449477409073130
 21
-182.296233016438830
  0
LINE
  8
0
  6
CONTINUOUS
 62
3
 10
-231.489535326690630
 20
-175.901976493875480
 11
-238.166634629163530
 21
-182.579075796348410
  0
LINE
  8
0
  6
CONTINUOUS
 62
3
 10
-238.449477409073130
 20
-182.296233016438830
 11
-237.962674017367500
 21
-182.783036408144430
  0
LINE
  8
0
  6
CONTINUOUS
 62
3
 10
-231.802673935659390
 20
-175.649429543025090
 11
-231.315870543953790
 21
-176.136232934730710
  0
ARC
  8
0
  6
CONTINUOUS
 62
3
 10
-327.049957361487090
 20
-176.710089714804920
 40
6.099999427795398
 50
174.601910595264880
 51
275.398072101891500
  0
POINT
  8
0
  6
CONTINUOUS
 62
3
 10
-329.312698926414100
 20
-178.972831279731960
  0
LINE
  8
0
  6
CONTINUOUS
 62
3
 10
-332.636100663120940
 20
-175.649429543025090
 11
-325.989297189707260
 21
-182.296233016438830
  0
LINE
  8
0
  6
CONTINUOUS
 62
3
 10
-332.949239272089760
 20
-175.901976493875480
 11
-326.272139969616830
 21
-182.579075796348410
  0
LINE
  8
0
  6
CONTINUOUS
 62
3
 10
-325.989297189707260
 20
-182.296233016438830
 11
-326.476100581412880
 21
-182.783036408144430
  0
LINE
  8
0
  6
CONTINUOUS
 62
3
 10
-332.636100663120940
 20
-175.649429543025090
 11
-333.122904054826560
 21
-176.136232934730710
  0
ARC
  8
0
  6
CONTINUOUS
 62
3
 10
-327.049957361487090
 20
-87.048949590610931
 40
6.099999427795419
 50
84.601927898108485
 51
185.398089404735120
  0
POINT
  8
0
  6
CONTINUOUS
 62
3
 10
-329.312698926414100
 20
-84.786208025683891
  0
LINE
  8
0
  6
CONTINUOUS
 62
3
 10
-332.636100663120940
 20
-88.109609762390747
 11
-325.989297189707260
 21
-81.462806288977035
  0
LINE
  8
0
  6
CONTINUOUS
 62
3
 10
-332.949239272089760
 20
-87.857062811540374
 11
-326.272139969616830
 21
-81.179963509067463
  0
LINE
  8
0
  6
CONTINUOUS
 62
3
 10
-325.989297189707260
 20
-81.462806288977035
 11
-326.476100581412880
 21
-80.976002897271414
  0
LINE
  8
0
  6
CONTINUOUS
 62
3
 10
-332.636100663120940
 20
-88.109609762390747
 11
-333.122904054826560
 21
-87.622806370685126
  0
ARC
  8
0
  6
CONTINUOUS
 62
3
 10
-237.388817237293300
 20
-87.048949590610931
 40
6.099999427795398
 50
354.601910595264880
 51
95.398072101890989
  0
POINT
  8
0
  6
CONTINUOUS
 62
3
 10
-235.126075672366260
 20
-84.786208025683891
  0
LINE
  8
0
  6
CONTINUOUS
 62
3
 10
-231.802673935659390
 20
-88.109609762390747
 11
-238.449477409073130
 21
-81.462806288977035
  0
LINE
  8
0
  6
CONTINUOUS
 62
3
 10
-231.489535326690630
 20
-87.857062811540374
 11
-238.166634629163530
 21
-81.179963509067463
  0
LINE
  8
0
  6
CONTINUOUS
 62
3
 10
-238.449477409073130
 20
-81.462806288977035
 11
-237.962674017367500
 21
-80.976002897271414
  0
LINE
  8
0
  6
CONTINUOUS
 62
3
 10
-231.802673935659390
 20
-88.109609762390747
 11
-231.315870543953790
 21
-87.622806370685126
  0
TEXT
  8
0
  6
CONTINUOUS
 62
3
 10
-316.568298339843750
 20
111.058921813964840
 40
7.919999599456787
  1
Ｓ１３９
 50
0.000002504478167
 41
0.984848598876354
  7
STANDARD1
  0
TEXT
  8
0
  6
CONTINUOUS
 62
3
 10
-316.568298339843750
 20
98.338920593261719
 40
7.919999599456787
  1
三菱ギヤードモートル
 50
0.000002504478167
 41
0.984848598876354
  7
STANDARD1
  0
TEXT
  8
0
  6
CONTINUOUS
 62
3
 10
-316.568298339843750
 20
85.618919372558594
 40
7.919999599456787
  1
ＧＭ－ＳＦＳ
 50
0.000002504478167
 41
0.984848598876354
  7
STANDARD1
  0
TEXT
  8
0
  6
CONTINUOUS
 62
3
 10
-316.568298339843750
 20
72.898918151855469
 40
7.919999599456787
  1
０．１ｋＷ
 50
0.000002504478167
 41
0.984848598876354
  7
STANDARD1
  0
TEXT
  8
0
  6
CONTINUOUS
 62
3
 10
-316.568298339843750
 20
60.178920745849609
 40
7.919999599456787
  1
１／１２０～１／２００
 50
0.000002504478167
 41
0.984848598876354
  7
STANDARD1
  0
TEXT
  8
0
  6
CONTINUOUS
 62
3
 10
-316.568298339843750
 20
47.458919525146484
 40
7.919999599456787
  1
ＳＣＡＬＥ１／１
 50
0.000002504478167
 41
0.984848598876354
  7
STANDARD1
  0
LINE
  8
0
  6
CONTINUOUS
 62
3
 10
45.259748444436582
 20
-138.879519652708040
 11
39.259748444436582
 21
-138.879519652708040
  0
LINE
  8
0
  6
CONTINUOUS
 62
3
 10
45.259748444436582
 20
-128.879519652708040
 11
39.259748444436582
 21
-128.879519652708040
  0
LINE
  8
0
  6
CONTINUOUS
 62
3
 10
39.259748444436582
 20
-138.879519652708040
 11
39.259748444436582
 21
-128.879519652708040
  0
LINE
  8
0
  6
CONTINUOUS
 62
3
 10
45.259748444436582
 20
64.010262607275763
 11
39.259748444436582
 21
64.010262607275763
  0
LINE
  8
0
  6
CONTINUOUS
 62
3
 10
45.259748444436582
 20
74.010262607275763
 11
39.259748444436582
 21
74.010262607275763
  0
LINE
  8
0
  6
CONTINUOUS
 62
3
 10
39.259748444436582
 20
64.010262607275763
 11
39.259748444436582
 21
74.010262607275763
  0
LINE
  8
0
  6
CONTINUOUS
 62
3
 10
45.259748444436582
 20
142.010262607276670
 11
39.259748444436582
 21
142.010262607276670
  0
LINE
  8
0
  6
CONTINUOUS
 62
3
 10
45.259748444436582
 20
132.010262607276670
 11
39.259748444436582
 21
132.010262607276670
  0
LINE
  8
0
  6
CONTINUOUS
 62
3
 10
39.259748444436582
 20
142.010262607276670
 11
39.259748444436582
 21
132.010262607276670
  0
LINE
  8
0
  6
CONTINUOUS
 62
3
 10
-235.381990133801420
 20
-191.879519652708040
 11
-212.219387299390180
 21
-191.879519652708040
  0
LINE
  8
0
  6
CONTINUOUS
 62
3
 10
-352.219387299390180
 20
-191.879519652708040
 11
-328.927591231889320
 21
-191.879519652708040
  0
LINE
  8
0
  6
CONTINUOUS
 62
3
 10
-352.219387299390180
 20
-31.879519652708041
 11
-212.219387299390180
 21
-31.879519652708041
  0
LINE
  8
0
  6
CONTINUOUS
 62
3
 10
-362.219387299390180
 20
-41.879519652708041
 11
-362.219387299390180
 21
-181.879519652708040
  0
LINE
  8
0
  6
CONTINUOUS
 62
3
 10
-282.219387299390180
 20
-194.879519652708040
 11
-315.605009021728510
 21
-194.879519652708040
  0
LINE
  8
0
  6
CONTINUOUS
 62
3
 10
-282.219387299390180
 20
-194.879519652708040
 11
-248.833765577051850
 21
-194.879519652708040
  0
LINE
  8
0
  6
CONTINUOUS
 62
3
 10
-280.219387299390180
 20
-42.888247185172190
 11
-280.219387299390180
 21
-63.899420642819223
  0
LINE
  8
0
  6
CONTINUOUS
 62
3
 10
-284.219387299390180
 20
-42.888247185172190
 11
-284.219387299390180
 21
-63.899420642819223
  0
LINE
  8
0
  6
CONTINUOUS
 62
3
 10
-340.899404584382750
 20
-56.027929492461567
 11
-327.044164588015860
 21
-69.883169488828628
  0
LINE
  8
0
  6
CONTINUOUS
 62
3
 10
-338.070977459636540
 20
-53.199502367715354
 11
-322.153697658202300
 21
-69.116782169149587
  0
LINE
  8
0
  6
CONTINUOUS
 62
3
 10
-226.367797139143820
 20
-53.199502367715354
 11
-242.285076940578050
 21
-69.116782169149587
  0
LINE
  8
0
  6
CONTINUOUS
 62
3
 10
-223.539370014397600
 20
-56.027929492461567
 11
-237.394610010764500
 21
-69.883169488828628
  0
CIRCLE
  8
0
  6
CONTINUOUS
 62
3
 10
-351.162298465078610
 20
-180.822430818396470
 40
5.000000000000000
  0
CIRCLE
  8
0
  6
CONTINUOUS
 62
3
 10
-351.162298465078610
 20
-42.936608487019612
 40
5.000000000000000
  0
CIRCLE
  8
0
  6
CONTINUOUS
 62
3
 10
-213.276476133701750
 20
-42.936608487019612
 40
5.000000000000000
  0
ARC
  8
0
  6
CONTINUOUS
 62
3
 10
-352.219387299390180
 20
-181.879519652708040
 40
10.000000000000000
 50
180.000000000000000
 51
270.000000000000000
  0
ARC
  8
0
  6
CONTINUOUS
 62
3
 10
-352.219387299390180
 20
-41.879519652708041
 40
10.000000000000000
 50
90.000000000000000
 51
180.000000000000000
  0
ARC
  8
0
  6
CONTINUOUS
 62
3
 10
-212.219387299390180
 20
-41.879519652708041
 40
10.000000000000000
 50
0.000000000000000
 51
90.000000000000000
  0
ARC
  8
0
  6
CONTINUOUS
 62
3
 10
-212.219387299390180
 20
-181.879519652708040
 40
10.000000000000000
 50
270.000000000000000
 51
0.000000000000000
  0
CIRCLE
  8
0
  6
CONTINUOUS
 62
3
 10
-213.276476133701750
 20
-180.822430818396470
 40
5.000000000000000
  0
ARC
  8
0
  6
CONTINUOUS
 62
3
 10
-278.219387299390180
 20
-63.899420642819223
 40
2.000000000000000
 50
180.000000000000000
 51
269.429883333265310
  0
ARC
  8
0
  6
CONTINUOUS
 62
3
 10
-286.219387299390180
 20
-63.899420642819223
 40
2.000000000000030
 50
270.570116666734690
 51
0.000000000000000
  0
ARC
  8
0
  6
CONTINUOUS
 62
3
 10
-336.656763897263430
 20
-51.785288805342248
 40
2.000000000000056
 50
134.999999999998830
 51
225.000000000000000
  0
ARC
  8
0
  6
CONTINUOUS
 62
3
 10
-342.313618146755860
 20
-57.442143054834617
 40
1.999999999999976
 50
44.999999999998856
 51
135.000000000000000
  0
ARC
  8
0
  6
CONTINUOUS
 62
3
 10
-328.458378150388970
 20
-71.297383051201734
 40
1.999999999999991
 50
299.668470645168160
 51
45.000000000000000
  0
ARC
  8
0
  6
CONTINUOUS
 62
3
 10
-320.739484095829430
 20
-67.702568606776538
 40
1.999999999999815
 50
225.000000000003470
 51
290.275851198862480
  0
ARC
  8
0
  6
CONTINUOUS
 62
3
 10
-227.782010701516920
 20
-51.785288805342248
 40
2.000000000000016
 50
315.000000000000000
 51
45.000000000001158
  0
ARC
  8
0
  6
CONTINUOUS
 62
3
 10
-243.699290502950930
 20
-67.702568606776538
 40
2.000000000000064
 50
249.724148801137520
 51
314.999999999996530
  0
ARC
  8
0
  6
CONTINUOUS
 62
3
 10
-235.980396448391390
 20
-71.297383051201734
 40
2.000000000000016
 50
135.000000000000000
 51
240.331529354831820
  0
ARC
  8
0
  6
CONTINUOUS
 62
3
 10
-222.125156452024500
 20
-57.442143054834617
 40
2.000000000000016
 50
45.000000000000000
 51
135.000000000001140
  0
ARC
  8
0
  6
CONTINUOUS
 62
3
 10
-278.219387299390180
 20
-42.888247185172190
 40
2.000000000000000
 50
90.000000000000000
 51
180.000000000000000
  0
ARC
  8
0
  6
CONTINUOUS
 62
3
 10
-286.219387299390180
 20
-42.888247185172190
 40
2.000000000000000
 50
0.000000000000000
 51
90.000000000000000
  0
ARC
  8
0
  6
CONTINUOUS
 62
3
 10
-322.219387299390180
 20
-190.379519652708150
 40
8.000000000000103
 50
316.567463442211480
 51
325.771133672188510
  0
ARC
  8
0
  6
CONTINUOUS
 62
3
 10
-242.219387299390180
 20
-190.379519652708150
 40
8.000000000000130
 50
214.228866327811460
 51
223.432536557788520
  0
ARC
  8
0
  6
CONTINUOUS
 62
3
 10
-242.219387299390180
 20
-190.379519652708150
 40
6.999999999999967
 50
308.213210701738600
 51
8.736046408089175
  0
ARC
  8
0
  6
CONTINUOUS
 62
3
 10
-322.219387299390180
 20
-190.379519652708150
 40
6.999999999999856
 50
171.263953591910850
 51
231.786789298261400
  0
LINE
  8
0
  6
CONTINUOUS
 62
3
 10
-282.219387299389950
 20
-194.879519652708040
 11
-315.870174749789950
 21
-194.879519652708040
  0
ARC
  8
0
  6
CONTINUOUS
 62
3
 10
-315.870174749789950
 20
-193.879519652708040
 40
1.000000000000049
 50
151.134272584994620
 51
270.000000000000000
  0
ARC
  8
0
  6
CONTINUOUS
 62
3
 10
-322.219387299389950
 20
-190.379519652708100
 40
6.249999999999792
 50
331.134272584992350
 51
147.533799814502430
  0
ARC
  8
0
  6
CONTINUOUS
 62
3
 10
-328.336272197295220
 20
-186.487705275610890
 40
0.999999999999817
 50
195.896808563643160
 51
327.533799814499730
  0
LINE
  8
0
  6
CONTINUOUS
 62
3
 10
-282.219387299390410
 20
-194.879519652708040
 11
-248.568599848990400
 21
-194.879519652708040
  0
ARC
  8
0
  6
CONTINUOUS
 62
3
 10
-248.568599848990400
 20
-193.879519652708040
 40
1.000000000000000
 50
270.000000000000000
 51
28.865727415011673
  0
ARC
  8
0
  6
CONTINUOUS
 62
3
 10
-242.219387299390410
 20
-190.379519652708100
 40
6.250000000000016
 50
32.466200185499126
 51
208.865727415006660
  0
ARC
  8
0
  6
CONTINUOUS
 62
3
 10
-236.102502401485140
 20
-186.487705275610840
 40
1.000000000000154
 50
212.466200185493310
 51
344.103191436353650
  0
ARC
  8
0
  6
CONTINUOUS
 62
3
 10
-242.219387299390410
 20
-190.379519652708150
 40
7.000000000000063
 50
308.213210701740310
 51
8.736046408088891
  0
ARC
  8
0
  6
CONTINUOUS
 62
3
 10
-342.719387299389950
 20
-149.237618633527920
 40
10.000000000000000
 50
180.000000000000000
 51
212.293666879645000
  0
ARC
  8
0
  6
CONTINUOUS
 62
3
 10
-261.418033816877940
 20
-154.025737671595380
 40
40.999999999999915
 50
313.090533982667180
 51
327.706333120354880
  0
ARC
  8
0
  6
CONTINUOUS
 62
3
 10
-229.370206426328760
 20
-188.405044813327490
 40
6.000000000000012
 50
132.989840483216540
 51
188.736046408088780
  0
ARC
  8
0
  6
CONTINUOUS
 62
3
 10
-242.219387299390410
 20
-190.379519652708100
 40
7.999999999999941
 50
214.228866327812370
 51
223.432536557789660
  0
ARC
  8
0
  6
CONTINUOUS
 62
3
 10
-322.219387299389950
 20
-190.379519652708100
 40
7.999999999999938
 50
316.567463442210340
 51
325.771133672187600
  0
ARC
  8
0
  6
CONTINUOUS
 62
3
 10
-322.219387299389950
 20
-190.379519652708150
 40
7.000000000000072
 50
171.263953591911560
 51
231.786789298259690
  0
ARC
  8
0
  6
CONTINUOUS
 62
3
 10
-335.068568172451590
 20
-188.405044813327490
 40
5.999999999999944
 50
351.263953591910710
 51
47.010159516783453
  0
ARC
  8
0
  6
CONTINUOUS
 62
3
 10
-303.020740781902190
 20
-154.025737671595380
 40
41.000000000000014
 50
212.293666879645140
 51
227.010159516783570
  0
LINE
  8
0
  6
CONTINUOUS
 62
3
 10
-351.172596219939920
 20
-154.580207794743100
 11
-337.678897356157110
 21
-175.930353232577770
  0
ARC
  8
0
  6
CONTINUOUS
 62
3
 10
-351.719387299389950
 20
-126.629519652707980
 40
1.000000000000000
 50
180.000000000000000
 51
270.000000000000000
  0
ARC
  8
0
  6
CONTINUOUS
 62
3
 10
-351.719387299389950
 20
-141.129519652707980
 40
1.000000000000000
 50
90.000000000000000
 51
180.000000000000000
  0
LINE
  8
0
  6
CONTINUOUS
 62
3
 10
-346.219387299390180
 20
-127.629519652707980
 11
-351.719387299389950
 21
-127.629519652707980
  0
LINE
  8
0
  6
CONTINUOUS
 62
3
 10
-346.219387299390180
 20
-140.129519652707980
 11
-351.719387299389950
 21
-140.129519652707980
  0
LINE
  8
0
  6
CONTINUOUS
 62
3
 10
-309.969387299389950
 20
-75.879519652708041
 11
-309.969387299389950
 21
-67.880624060845605
  0
ARC
  8
0
  6
CONTINUOUS
 62
3
 10
-308.969387299390180
 20
-67.880624060845605
 40
0.999999999999975
 50
97.328097969880389
 51
180.000000000000000
  0
LINE
  8
0
  6
CONTINUOUS
 62
3
 10
-322.469387299389950
 20
-75.879519652708041
 11
-322.469387299389950
 21
-72.090782307939719
  0
ARC
  8
0
  6
CONTINUOUS
 62
3
 10
-323.469387299389950
 20
-72.090782307939719
 40
1.000000000000000
 50
0.000000000000000
 51
115.053819043268190
  0
ARC
  8
0
  6
CONTINUOUS
 62
3
 10
-240.969387299390410
 20
-72.090782307939719
 40
0.999999999999981
 50
64.946180956731823
 51
180.000000000000000
  0
ARC
  8
0
  6
CONTINUOUS
 62
3
 10
-255.469387299390180
 20
-67.880624060845605
 40
0.999999999999773
 50
0.000000000000000
 51
82.671902030119611
  0
LINE
  8
0
  6
CONTINUOUS
 62
3
 10
-254.469387299390410
 20
-75.879519652708041
 11
-254.469387299390410
 21
-67.880624060845605
  0
LINE
  8
0
  6
CONTINUOUS
 62
3
 10
-241.969387299390410
 20
-75.879519652708041
 11
-241.969387299390410
 21
-72.090782307939719
  0
ARC
  8
0
  6
CONTINUOUS
 62
3
 10
-344.219387299389950
 20
-112.879519652707980
 40
8.000000000000000
 50
90.000000000000000
 51
270.000000000000000
  0
ARC
  8
0
  6
CONTINUOUS
 62
3
 10
-302.719387299389950
 20
-116.480392578812820
 40
50.000000000000199
 50
93.357817421570815
 51
180.000000000000000
  0
ARC
  8
0
  6
CONTINUOUS
 62
3
 10
-282.219387299389950
 20
-465.879519652708040
 40
400.000000000000000
 50
90.000000000000000
 51
93.357817421570701
  0
LINE
  8
0
  6
CONTINUOUS
 62
3
 10
-352.719387299389950
 20
-149.237618633527920
 11
-352.719387299389950
 21
-116.480392578812820
  0
ARC
  8
0
  6
CONTINUOUS
 62
3
 10
-282.219387299390410
 20
-465.879519652708040
 40
400.000000000000170
 50
86.642182578429299
 51
90.000000000000000
  0
ARC
  8
0
  6
DASHDOT
 62
4
 10
-282.219387299390180
 20
-111.879519652708040
 40
97.500000000000298
 50
309.123187734056780
 51
320.876812265942530
  0
LINE
  8
0
  6
DASHDOT
 62
4
 10
-221.793631151220100
 20
-172.305275800878120
 11
-206.188449195414930
 21
-187.910457756683290
  0
ARC
  8
0
  6
DASHDOT
 62
4
 10
-282.219387299390180
 20
-111.879519652708040
 40
97.500000000000043
 50
218.760324820342050
 51
230.876812265942480
  0
LINE
  8
0
  6
DASHDOT
 62
4
 10
-343.906597589661030
 20
-173.566729942978900
 11
-358.281051634017790
 21
-187.941183987335650
  0
ARC
  8
0
  6
DASHDOT
 62
4
 10
-282.219387299390180
 20
-111.879519652708040
 40
97.500000000000298
 50
129.123187734056760
 51
140.876812265942500
  0
LINE
  8
0
  6
DASHDOT
 62
4
 10
-342.479098151912470
 20
-51.619808800185695
 11
-358.374926175414430
 21
-35.723980776683788
  0
LINE
  8
0
  6
DASHDOT
 62
4
 10
-220.712332732153300
 20
-50.372465085471163
 11
-206.134813590713750
 21
-35.794945944031610
  0
ARC
  8
0
  6
DASHDOT
 62
4
 10
-282.219387299390180
 20
-111.879519652708040
 40
97.500000000000057
 50
38.947995294502796
 51
50.876812265942476
  0
LINE
  8
0
  6
DASHDOT
 62
4
 10
-296.541572512611310
 20
-111.879519652708040
 11
-267.731728797389220
 21
-111.879519652708040
  0
LINE
  8
0
  6
DASHDOT
 62
4
 10
-282.219387299390180
 20
-22.637039111277829
 11
-282.219387299390180
 21
-205.674587905434290
  0
LINE
  8
0
  6
CONTINUOUS
 62
3
 10
-224.917938239488990
 20
-163.379519652708040
 11
-224.719387299390180
 21
-163.379519652708040
  0
LINE
  8
0
  6
CONTINUOUS
 62
3
 10
-224.719387299390180
 20
-163.379519652708040
 11
-224.719387299390180
 21
-161.867505507138280
  0
ARC
  8
0
  6
CONTINUOUS
 62
3
 10
-321.650254299477520
 20
-86.457572910409681
 40
6.600000000000009
 50
95.743681810995099
 51
135.000000000002790
  0
ARC
  8
0
  6
CONTINUOUS
 62
3
 10
-282.219387299390180
 20
-478.479519652708180
 40
400.599999999999910
 50
90.000000000000000
 51
95.743681810993436
  0
ARC
  8
0
  6
CONTINUOUS
 62
3
 10
-319.209454537536540
 20
-103.815763021692410
 40
20.600000000000069
 50
135.000000000002670
 51
174.247717268463500
  0
LINE
  8
0
  6
CONTINUOUS
 62
3
 10
-333.775854229980150
 20
-89.249363329250173
 11
-326.317159055309160
 21
-81.790668154578498
  0
ARC
  8
0
  6
CONTINUOUS
 62
3
 10
-40.619387299389814
 20
-131.879519652708040
 40
300.599999999999910
 50
174.247717268463390
 51
180.000000000000000
  0
ARC
  8
0
  6
CONTINUOUS
 62
3
 10
-321.650254299477520
 20
-177.301466395006400
 40
6.600000000000278
 50
224.999999999997190
 51
264.256318189004900
  0
ARC
  8
0
  6
CONTINUOUS
 62
3
 10
-282.219387299390180
 20
214.720480347292100
 40
400.599999999999910
 50
264.256318189006550
 51
270.000000000000000
  0
ARC
  8
0
  6
CONTINUOUS
 62
3
 10
-319.209454537536540
 20
-159.943276283723660
 40
20.599999999999916
 50
185.752282731536500
 51
224.999999999997330
  0
LINE
  8
0
  6
CONTINUOUS
 62
3
 10
-333.775854229980150
 20
-174.509675976165910
 11
-326.317159055309160
 21
-181.968371150837580
  0
ARC
  8
0
  6
CONTINUOUS
 62
3
 10
-40.619387299389814
 20
-131.879519652708040
 40
300.600000000000360
 50
180.000000000000000
 51
185.752282731536610
  0
ARC
  8
0
  6
CONTINUOUS
 62
3
 10
-242.788520299302830
 20
-177.301466395006400
 40
6.600000000000009
 50
275.743681810995100
 51
315.000000000002790
  0
ARC
  8
0
  6
CONTINUOUS
 62
3
 10
-282.219387299390180
 20
214.720480347292100
 40
400.599999999999910
 50
270.000000000000000
 51
275.743681810993450
  0
ARC
  8
0
  6
CONTINUOUS
 62
3
 10
-245.229320061243810
 20
-159.943276283723660
 40
20.600000000000069
 50
315.000000000002670
 51
354.247717268463480
  0
LINE
  8
0
  6
CONTINUOUS
 62
3
 10
-230.662920368800200
 20
-174.509675976165910
 11
-238.121615543471190
 21
-181.968371150837580
  0
ARC
  8
0
  6
CONTINUOUS
 62
3
 10
-523.819387299390540
 20
-131.879519652708040
 40
300.599999999999910
 50
354.247717268463420
 51
0.000000000000000
  0
ARC
  8
0
  6
CONTINUOUS
 62
4
 10
-523.819387299390540
 20
-131.879519652708040
 40
290.797000000000480
 50
0.000000000000000
 51
5.752282731536624
  0
LINE
  8
0
  6
CONTINUOUS
 62
4
 10
-237.594688144772480
 20
-96.181131105221539
 11
-243.482102016811840
 21
-90.293717233181496
  0
ARC
  8
0
  6
CONTINUOUS
 62
4
 10
-245.229320061243810
 20
-103.815763021692410
 40
10.797000000000011
 50
5.752282731536912
 51
44.999999999998295
  0
LINE
  8
0
  6
CONTINUOUS
 62
3
 10
-224.719387299390180
 20
-101.887020590445900
 11
-224.719387299390180
 21
-100.379519652708040
  0
LINE
  8
0
  6
CONTINUOUS
 62
3
 10
-224.917938239488990
 20
-100.379519652708040
 11
-224.719387299390180
 21
-100.379519652708040
  0
ARC
  8
0
  6
CONTINUOUS
 62
3
 10
-523.819387299390540
 20
-131.879519652708040
 40
300.600000000000360
 50
0.000000000000000
 51
5.752282731536604
  0
LINE
  8
0
  6
CONTINUOUS
 62
3
 10
-230.662920368800200
 20
-89.249363329250173
 11
-238.121615543471190
 21
-81.790668154578498
  0
ARC
  8
0
  6
CONTINUOUS
 62
3
 10
-245.229320061243810
 20
-103.815763021692410
 40
20.599999999999916
 50
5.752282731536487
 51
44.999999999997321
  0
LINE
  8
0
  6
CONTINUOUS
 62
3
 10
-194.719387299390180
 20
-134.379519652708040
 11
-194.719387299390180
 21
-129.379519652708040
  0
LINE
  8
0
  6
CONTINUOUS
 62
3
 10
-195.229804146907900
 20
-134.379519652708040
 11
-194.719387299390180
 21
-134.379519652708040
  0
LINE
  8
0
  6
CONTINUOUS
 62
3
 10
-195.229804146907900
 20
-129.379519652708040
 11
-194.719387299390180
 21
-129.379519652708040
  0
ARC
  8
0
  6
CONTINUOUS
 62
3
 10
-495.219387299390180
 20
-131.879519652708040
 40
300.000000000000170
 50
355.138594604201960
 51
4.861405395798036
  0
LINE
  8
0
  6
CONTINUOUS
 62
3
 10
-224.719387299390180
 20
-101.879519652708040
 11
-201.280618165408550
 21
-101.879519652708040
  0
LINE
  8
0
  6
CONTINUOUS
 62
3
 10
-224.719387299390180
 20
-161.879519652708040
 11
-201.280618165408550
 21
-161.879519652708040
  0
ARC
  8
0
  6
CONTINUOUS
 62
3
 10
-201.280618165408550
 20
-106.879519652708040
 40
4.999999999999893
 50
4.861405395798621
 51
90.000000000000000
  0
ARC
  8
0
  6
CONTINUOUS
 62
3
 10
-201.280618165408550
 20
-156.879519652708040
 40
5.000000000000000
 50
270.000000000000000
 51
355.138594604201330
  0
ARC
  8
0
  6
CONTINUOUS
 62
4
 10
-40.619387299390041
 20
-131.879519652708040
 40
290.796999999999910
 50
174.998349729065040
 51
180.000000000000000
  0
LINE
  8
0
  6
CONTINUOUS
 62
4
 10
-324.296977615246190
 20
-93.634022266459397
 11
-320.956672581968520
 21
-90.293717233181496
  0
ARC
  8
0
  6
CONTINUOUS
 62
4
 10
-309.591277886909550
 20
-108.339721994796030
 40
20.797000000000015
 50
135.000000000000000
 51
174.998349729064670
  0
ARC
  8
0
  6
CONTINUOUS
 62
4
 10
-282.219387299390180
 20
-478.479519652708180
 40
390.797000000000030
 50
90.000000000000000
 51
95.417963762360529
  0
ARC
  8
0
  6
CONTINUOUS
 62
4
 10
-318.835352238408520
 20
-92.415037576741270
 40
3.000000000000067
 50
95.417963762365673
 51
135.000000000003040
  0
ARC
  8
0
  6
CONTINUOUS
 62
4
 10
-40.619387299390041
 20
-131.879519652708040
 40
290.797000000000250
 50
180.000000000000000
 51
185.001650270934930
  0
LINE
  8
0
  6
CONTINUOUS
 62
4
 10
-324.296977615246190
 20
-170.125017038956680
 11
-320.956672581968520
 21
-173.465322072234580
  0
ARC
  8
0
  6
CONTINUOUS
 62
4
 10
-309.591277886909550
 20
-155.419317310620040
 40
20.796999999999880
 50
185.001650270935330
 51
225.000000000000000
  0
ARC
  8
0
  6
CONTINUOUS
 62
4
 10
-282.219387299390180
 20
214.720480347292100
 40
390.797000000000030
 50
264.582036237639500
 51
270.000000000000000
  0
ARC
  8
0
  6
CONTINUOUS
 62
4
 10
-318.835352238408520
 20
-171.344001728674810
 40
3.000000000000346
 50
224.999999999996960
 51
264.582036237634270
  0
ARC
  8
0
  6
CONTINUOUS
 62
4
 10
-523.819387299390540
 20
-131.879519652708040
 40
290.797000000000140
 50
354.998349729065010
 51
0.000000000000000
  0
LINE
  8
0
  6
CONTINUOUS
 62
4
 10
-240.141796983534160
 20
-170.125017038956680
 11
-243.482102016811840
 21
-173.465322072234580
  0
ARC
  8
0
  6
CONTINUOUS
 62
4
 10
-254.847496711870800
 20
-155.419317310620040
 40
20.797000000000015
 50
315.000000000000000
 51
354.998349729064670
  0
ARC
  8
0
  6
CONTINUOUS
 62
4
 10
-282.219387299390180
 20
214.720480347292100
 40
390.797000000000030
 50
270.000000000000000
 51
275.417963762360500
  0
ARC
  8
0
  6
CONTINUOUS
 62
4
 10
-245.603422360371840
 20
-171.344001728674810
 40
3.000000000000067
 50
275.417963762365730
 51
315.000000000003070
  0
ARC
  8
0
  6
CONTINUOUS
 62
4
 10
-245.603422360371840
 20
-92.415037576741270
 40
3.000000000000346
 50
44.999999999996930
 51
84.582036237634313
  0
ARC
  8
0
  6
CONTINUOUS
 62
4
 10
-282.219387299390180
 20
-478.479519652708180
 40
390.797000000000030
 50
84.582036237639471
 51
90.000000000000000
  0
ARC
  8
0
  6
CONTINUOUS
 62
3
 10
-242.788520299302830
 20
-86.457572910409681
 40
6.600000000000278
 50
44.999999999997215
 51
84.256318189004901
  0
ARC
  8
0
  6
CONTINUOUS
 62
3
 10
-282.219387299390180
 20
-478.479519652708180
 40
400.599999999999910
 50
84.256318189006564
 51
90.000000000000000
  0
ARC
  8
0
  6
CONTINUOUS
 62
3
 10
-285.719387299390180
 20
-166.704079951439780
 40
1.000000000000000
 50
0.000000000000000
 51
84.260829522738291
  0
ARC
  8
0
  6
CONTINUOUS
 62
3
 10
-285.719387299390180
 20
-169.717992137733060
 40
1.000000000000042
 50
264.715267045464260
 51
0.000000000000000
  0
ARC
  8
0
  6
CONTINUOUS
 62
3
 10
-285.719387299390180
 20
-161.171156684461720
 40
1.000000000000077
 50
263.186145655820330
 51
0.000000000000000
  0
LINE
  8
0
  6
CONTINUOUS
 62
3
 10
-284.719387299390180
 20
-169.717992137733060
 11
-284.719387299390180
 21
-166.704079951439780
  0
ARC
  8
0
  6
CONTINUOUS
 62
3
 10
-299.260315982763020
 20
-137.676652530967200
 40
0.999999999999885
 50
300.000000000003810
 51
18.787728582346993
  0
LINE
  8
0
  6
CONTINUOUS
 62
3
 10
-301.401551139819620
 20
-140.067595763671080
 11
-298.760315982763020
 21
-138.542677934751510
  0
ARC
  8
0
  6
CONTINUOUS
 62
3
 10
-301.901551139819620
 20
-139.201570359886770
 40
1.000000000000094
 50
200.405931773138690
 51
300.000000000003810
  0
ARC
  8
0
  6
CONTINUOUS
 62
3
 10
-306.718013631544520
 20
-141.982356276026390
 40
1.000000000000082
 50
299.999999999997270
 51
22.410457608146043
  0
ARC
  8
0
  6
CONTINUOUS
 62
3
 10
-314.128341193714620
 20
-146.260710888828270
 40
1.000000000000082
 50
299.999999999997270
 51
24.260829522733715
  0
LINE
  8
0
  6
CONTINUOUS
 62
3
 10
-308.836689087322040
 20
-144.360274659123890
 11
-306.218013631544520
 21
-142.848381679810930
  0
ARC
  8
0
  6
CONTINUOUS
 62
3
 10
-309.336689087322040
 20
-143.494249255339350
 40
0.999999999999730
 50
203.186145655819840
 51
299.999999999997270
  0
LINE
  8
0
  6
CONTINUOUS
 62
3
 10
-316.238465711820370
 20
-148.633692385759330
 11
-313.628341193714620
 21
-147.126736292612800
  0
ARC
  8
0
  6
CONTINUOUS
 62
3
 10
-316.738465711820370
 20
-147.767666981975030
 40
1.000000000000248
 50
204.715267045455480
 51
300.000000000003810
  0
ARC
  8
0
  6
CONTINUOUS
 62
3
 10
-313.238465711820370
 20
-153.829844808466310
 40
1.000000000000082
 50
119.999999999997270
 51
215.284732954534320
  0
ARC
  8
0
  6
CONTINUOUS
 62
3
 10
-310.628341193714620
 20
-152.322888715319320
 40
0.999999999999807
 50
35.739170477263521
 51
120.000000000003780
  0
ARC
  8
0
  6
CONTINUOUS
 62
3
 10
-285.719387299390180
 20
-158.147370725835340
 40
1.000000000000000
 50
0.000000000000000
 51
82.410457608145762
  0
ARC
  8
0
  6
CONTINUOUS
 62
3
 10
-305.836689087322040
 20
-149.556427081830180
 40
0.999999999999885
 50
120.000000000003780
 51
216.813854344197100
  0
ARC
  8
0
  6
CONTINUOUS
 62
3
 10
-303.218013631544980
 20
-148.044534102517220
 40
1.000000000000194
 50
37.589542391851793
 51
119.999999999997270
  0
ARC
  8
0
  6
CONTINUOUS
 62
3
 10
-285.719387299390180
 20
-152.585798893556560
 40
1.000000000000268
 50
260.405931773124510
 51
0.000000000000000
  0
ARC
  8
0
  6
CONTINUOUS
 62
3
 10
-285.719387299390180
 20
-149.535963235717650
 40
1.000000000000000
 50
0.000000000000000
 51
78.787728582355996
  0
ARC
  8
0
  6
CONTINUOUS
 62
3
 10
-298.401551139819160
 20
-145.263748186377820
 40
0.999999999999885
 50
120.000000000003780
 51
219.594068226860460
  0
ARC
  8
0
  6
CONTINUOUS
 62
3
 10
-295.760315982763020
 20
-143.738830357458480
 40
1.000000000000165
 50
41.212271417643841
 51
119.999999999997270
  0
ARC
  8
0
  6
CONTINUOUS
 62
3
 10
-290.861692144803670
 20
-140.910608565953450
 40
0.999999999999885
 50
120.000000000003780
 51
226.260204708328700
  0
ARC
  8
0
  6
CONTINUOUS
 62
3
 10
-285.719387299390180
 20
-143.879519652708040
 40
0.999999999999964
 50
253.739795291702650
 51
0.000000000000000
  0
ARC
  8
0
  6
CONTINUOUS
 62
3
 10
-285.719387299390180
 20
-140.711280519035880
 40
1.000000000000000
 50
0.000000000000000
 51
68.381727577838021
  0
ARC
  8
0
  6
CONTINUOUS
 62
3
 10
-288.117916569779370
 20
-139.326488999117370
 40
0.999999999999961
 50
51.618272422159777
 51
120.000000000003780
  0
ARC
  8
0
  6
CONTINUOUS
 62
3
 10
-282.219387299390180
 20
-131.879519652708040
 40
38.999999999999865
 50
215.284732954534800
 51
264.715267045465400
  0
ARC
  8
0
  6
CONTINUOUS
 62
3
 10
-282.219387299390180
 20
-131.879519652708040
 40
30.499999999999964
 50
216.813854344181070
 51
263.186145655818960
  0
ARC
  8
0
  6
CONTINUOUS
 62
3
 10
-282.219387299390180
 20
-131.879519652708040
 40
33.999999999999964
 50
215.739170477266950
 51
264.260829522733050
  0
ARC
  8
0
  6
CONTINUOUS
 62
3
 10
-282.219387299390180
 20
-131.879519652708040
 40
25.499999999999890
 50
217.589542391857950
 51
262.410457608141830
  0
ARC
  8
0
  6
CONTINUOUS
 62
3
 10
-282.219387299390180
 20
-131.879519652708040
 40
22.000000000000025
 50
219.594068226860800
 51
260.405931773138780
  0
ARC
  8
0
  6
CONTINUOUS
 62
3
 10
-282.219387299390180
 20
-131.879519652708040
 40
16.999999999999773
 50
221.212271417650780
 51
258.787728582349980
  0
ARC
  8
0
  6
CONTINUOUS
 62
3
 10
-282.219387299390180
 20
-131.879519652708040
 40
13.499999999999927
 50
226.260204708312130
 51
253.739795291689150
  0
ARC
  8
0
  6
CONTINUOUS
 62
3
 10
-282.219387299390180
 20
-131.879519652708040
 40
8.499999999999948
 50
231.618272422157330
 51
248.381727577842330
  0
LINE
  8
0
  6
CONTINUOUS
 62
3
 10
-306.336689087322040
 20
-148.690401678045870
 11
-303.718013631544980
 21
-147.178508698732680
  0
LINE
  8
0
  6
CONTINUOUS
 62
3
 10
-313.738465711820370
 20
-152.963819404681770
 11
-311.128341193714620
 21
-151.456863311535020
  0
LINE
  8
0
  6
CONTINUOUS
 62
3
 10
-298.901551139819160
 20
-144.397722782593520
 11
-296.260315982763020
 21
-142.872804953673950
  0
LINE
  8
0
  6
CONTINUOUS
 62
3
 10
-291.361692144803670
 20
-140.044583162169150
 11
-288.617916569779370
 21
-138.460463595333070
  0
LINE
  8
0
  6
CONTINUOUS
 62
3
 10
-284.719387299390180
 20
-143.879519652708040
 11
-284.719387299390180
 21
-140.711280519035880
  0
LINE
  8
0
  6
CONTINUOUS
 62
3
 10
-284.719387299390180
 20
-152.585798893556560
 11
-284.719387299390180
 21
-149.535963235717650
  0
LINE
  8
0
  6
CONTINUOUS
 62
3
 10
-284.719387299390180
 20
-161.171156684461720
 11
-284.719387299390180
 21
-158.147370725835340
  0
ARC
  8
0
  6
CONTINUOUS
 62
3
 10
-291.617916569779370
 20
-133.264311172626550
 40
0.999999999999885
 50
300.000000000003810
 51
8.381727577845549
  0
ARC
  8
0
  6
CONTINUOUS
 62
3
 10
-282.219387299390180
 20
-131.879519652708040
 40
8.499999999999972
 50
171.618272422157790
 51
188.381727577842210
  0
LINE
  8
0
  6
CONTINUOUS
 62
3
 10
-293.861692144803670
 20
-135.714456143246930
 11
-291.117916569779370
 21
-134.130336576410850
  0
ARC
  8
0
  6
CONTINUOUS
 62
3
 10
-294.361692144803670
 20
-134.848430739462630
 40
0.999999999999879
 50
193.739795291686050
 51
300.000000000003810
  0
ARC
  8
0
  6
CONTINUOUS
 62
3
 10
-285.719387299390180
 20
-114.223076069698430
 40
0.999999999999982
 50
281.212271417643990
 51
0.000000000000000
  0
LINE
  8
0
  6
CONTINUOUS
 62
3
 10
-284.719387299390180
 20
-111.173240411859520
 11
-284.719387299390180
 21
-114.223076069698430
  0
ARC
  8
0
  6
CONTINUOUS
 62
3
 10
-285.719387299390180
 20
-111.173240411859520
 40
1.000000000000000
 50
0.000000000000000
 51
99.594068226875478
  0
ARC
  8
0
  6
CONTINUOUS
 62
3
 10
-285.719387299390180
 20
-105.611668579580730
 40
0.999999999999749
 50
277.589542391855960
 51
0.000000000013028
  0
LINE
  8
0
  6
CONTINUOUS
 62
3
 10
-284.719387299390180
 20
-102.587882620954360
 11
-284.719387299390180
 21
-105.611668579580510
  0
ARC
  8
0
  6
CONTINUOUS
 62
3
 10
-285.719387299390180
 20
-102.587882620954360
 40
1.000000000000000
 50
0.000000000000000
 51
96.813854344179688
  0
ARC
  8
0
  6
CONTINUOUS
 62
3
 10
-285.719387299390180
 20
-97.054959353976301
 40
0.999999999999973
 50
275.739170477261670
 51
0.000000000000000
  0
LINE
  8
0
  6
CONTINUOUS
 62
3
 10
-284.719387299390180
 20
-94.041047167683018
 11
-284.719387299390180
 21
-97.054959353976301
  0
ARC
  8
0
  6
CONTINUOUS
 62
3
 10
-285.719387299390180
 20
-94.041047167683018
 40
1.000000000000000
 50
0.000000000000000
 51
95.284732954535698
  0
ARC
  8
0
  6
CONTINUOUS
 62
3
 10
-305.836689087322040
 20
-114.202612223585670
 40
0.999999999999774
 50
143.186145655813330
 51
240.000000000002730
  0
LINE
  8
0
  6
CONTINUOUS
 62
3
 10
-306.336689087322040
 20
-115.068637627370200
 11
-303.718013631544520
 21
-116.580530606683390
  0
ARC
  8
0
  6
CONTINUOUS
 62
3
 10
-303.218013631544520
 20
-115.714505202898860
 40
1.000000000000082
 50
240.000000000002730
 51
322.410457608132330
  0
ARC
  8
0
  6
CONTINUOUS
 62
3
 10
-313.238465711820370
 20
-109.929194496950000
 40
0.999999999999908
 50
144.715267045455050
 51
239.999999999996220
  0
LINE
  8
0
  6
CONTINUOUS
 62
3
 10
-313.738465711820370
 20
-110.795219900734310
 11
-311.128341193714620
 21
-112.302175993881060
  0
ARC
  8
0
  6
CONTINUOUS
 62
3
 10
-310.628341193714620
 20
-111.436150590096750
 40
0.999999999999885
 50
239.999999999996220
 51
324.260829522725940
  0
ARC
  8
0
  6
CONTINUOUS
 62
3
 10
-288.117916569779370
 20
-124.432550306298480
 40
1.000000000000082
 50
240.000000000002730
 51
308.381727577840190
  0
LINE
  8
0
  6
CONTINUOUS
 62
3
 10
-291.361692144803670
 20
-123.714456143246930
 11
-288.617916569779370
 21
-125.298575710083010
  0
ARC
  8
0
  6
CONTINUOUS
 62
3
 10
-295.760315982763020
 20
-120.020208947957820
 40
0.999999999999885
 50
239.999999999996220
 51
318.787728582348790
  0
LINE
  8
0
  6
CONTINUOUS
 62
3
 10
-298.901551139819160
 20
-119.361316522822560
 11
-296.260315982763020
 21
-120.886234351742130
  0
ARC
  8
0
  6
CONTINUOUS
 62
3
 10
-298.401551139819160
 20
-118.495291119038020
 40
1.000000000000173
 50
140.405931773149600
 51
240.000000000002730
  0
ARC
  8
0
  6
CONTINUOUS
 62
3
 10
-285.719387299390180
 20
-123.047758786380200
 40
1.000000000000090
 50
291.618272422161970
 51
0.000000000000000
  0
ARC
  8
0
  6
CONTINUOUS
 62
3
 10
-282.219387299390180
 20
-131.879519652708040
 40
8.499999999999904
 50
111.618272422157710
 51
128.381727577841670
  0
ARC
  8
0
  6
CONTINUOUS
 62
3
 10
-290.861692144803670
 20
-122.848430739462620
 40
0.999999999999858
 50
133.739795291671300
 51
239.999999999996220
  0
LINE
  8
0
  6
CONTINUOUS
 62
3
 10
-284.719387299390180
 20
-119.879519652708040
 11
-284.719387299390180
 21
-123.047758786380200
  0
ARC
  8
0
  6
CONTINUOUS
 62
3
 10
-285.719387299390180
 20
-119.879519652708040
 40
1.000000000000000
 50
0.000000000000000
 51
106.260204708297360
  0
ARC
  8
0
  6
CONTINUOUS
 62
3
 10
-282.219387299390180
 20
-131.879519652708040
 40
13.499999999999963
 50
106.260204708310860
 51
133.739795291687870
  0
ARC
  8
0
  6
CONTINUOUS
 62
3
 10
-282.219387299390180
 20
-131.879519652708040
 40
17.000000000000046
 50
101.212271417650010
 51
138.787728582350240
  0
ARC
  8
0
  6
CONTINUOUS
 62
3
 10
-282.219387299390180
 20
-131.879519652708040
 40
22.000000000000131
 50
99.594068226861211
 51
140.405931773139200
  0
ARC
  8
0
  6
CONTINUOUS
 62
3
 10
-282.219387299390180
 20
-131.879519652708040
 40
30.500000000000135
 50
96.813854344181038
 51
143.186145655818930
  0
ARC
  8
0
  6
CONTINUOUS
 62
3
 10
-282.219387299390180
 20
-131.879519652708040
 40
25.500000000000160
 50
97.589542391858117
 51
142.410457608142050
  0
ARC
  8
0
  6
CONTINUOUS
 62
3
 10
-282.219387299390180
 20
-131.879519652708040
 40
34.000000000000071
 50
95.739170477266924
 51
144.260829522733360
  0
ARC
  8
0
  6
CONTINUOUS
 62
3
 10
-282.219387299390180
 20
-131.879519652708040
 40
38.999999999999986
 50
95.284732954534590
 51
144.715267045465200
  0
ARC
  8
0
  6
CONTINUOUS
 62
3
 10
-309.336689087322040
 20
-120.264790050076720
 40
1.000000000000082
 50
60.000000000002721
 51
156.813854344180160
  0
LINE
  8
0
  6
CONTINUOUS
 62
3
 10
-308.836689087322040
 20
-119.398764646292190
 11
-306.218013631544520
 21
-120.910657625605380
  0
ARC
  8
0
  6
CONTINUOUS
 62
3
 10
-306.718013631544520
 20
-121.776683029389910
 40
0.999999999999701
 50
337.589542391853970
 51
60.000000000002721
  0
ARC
  8
0
  6
CONTINUOUS
 62
3
 10
-316.738465711820370
 20
-115.991372323441050
 40
1.000000000000082
 50
60.000000000002721
 51
155.284732954544520
  0
LINE
  8
0
  6
CONTINUOUS
 62
3
 10
-316.238465711820370
 20
-115.125346919656520
 11
-313.628341193714620
 21
-116.632303012803270
  0
ARC
  8
0
  6
CONTINUOUS
 62
3
 10
-314.128341193714620
 20
-117.498328416587580
 40
0.999999999999863
 50
335.739170477254390
 51
59.999999999996206
  0
ARC
  8
0
  6
CONTINUOUS
 62
3
 10
-291.617916569779370
 20
-130.494728132789760
 40
1.000000000000026
 50
351.618272422167310
 51
60.000000000002721
  0
LINE
  8
0
  6
CONTINUOUS
 62
3
 10
-293.861692144803670
 20
-128.044583162169150
 11
-291.117916569779370
 21
-129.628702729005230
  0
ARC
  8
0
  6
CONTINUOUS
 62
3
 10
-299.260315982763020
 20
-126.082386774448870
 40
1.000000000000076
 50
341.212271417652970
 51
60.000000000002721
  0
LINE
  8
0
  6
CONTINUOUS
 62
3
 10
-301.401551139819620
 20
-123.691443541745000
 11
-298.760315982763020
 21
-125.216361370664340
  0
ARC
  8
0
  6
CONTINUOUS
 62
3
 10
-301.901551139819620
 20
-124.557468945529300
 40
0.999999999999885
 50
59.999999999996206
 51
159.594068226861310
  0
ARC
  8
0
  6
CONTINUOUS
 62
3
 10
-294.361692144803670
 20
-128.910608565953450
 40
0.999999999999885
 50
59.999999999996206
 51
166.260204708307780
  0
ARC
  8
0
  6
CONTINUOUS
 62
3
 10
-282.219387299390180
 20
-131.879519652708040
 40
13.499999999999687
 50
166.260204708311360
 51
193.739795291688180
  0
ARC
  8
0
  6
CONTINUOUS
 62
3
 10
-282.219387299390180
 20
-131.879519652708040
 40
16.999999999999716
 50
161.212271417649560
 51
198.787728582350440
  0
ARC
  8
0
  6
CONTINUOUS
 62
3
 10
-282.219387299390180
 20
-131.879519652708040
 40
22.000000000000206
 50
159.594068226860770
 51
200.405931773139230
  0
ARC
  8
0
  6
CONTINUOUS
 62
3
 10
-282.219387299390180
 20
-131.879519652708040
 40
30.499999999999947
 50
156.813854344181150
 51
203.186145655818850
  0
ARC
  8
0
  6
CONTINUOUS
 62
3
 10
-282.219387299390180
 20
-131.879519652708040
 40
25.500000000000000
 50
157.589542391857980
 51
202.410457608142480
  0
ARC
  8
0
  6
CONTINUOUS
 62
3
 10
-282.219387299390180
 20
-131.879519652708040
 40
34.000000000000007
 50
155.739170477266780
 51
204.260829522733220
  0
ARC
  8
0
  6
CONTINUOUS
 62
3
 10
-282.219387299390180
 20
-131.879519652708040
 40
39.000000000000220
 50
155.284732954534800
 51
204.715267045465200
  0
LINE
  8
0
  6
CONTINUOUS
 62
3
 10
-279.719387299390180
 20
-161.171156684461720
 11
-279.719387299390180
 21
-158.147370725835340
  0
LINE
  8
0
  6
CONTINUOUS
 62
3
 10
-279.719387299390180
 20
-152.585798893556560
 11
-279.719387299390180
 21
-149.535963235717650
  0
LINE
  8
0
  6
CONTINUOUS
 62
3
 10
-279.719387299390180
 20
-143.879519652708040
 11
-279.719387299390180
 21
-140.711280519035880
  0
LINE
  8
0
  6
CONTINUOUS
 62
3
 10
-273.077082453976690
 20
-140.044583162169150
 11
-275.820858029000990
 21
-138.460463595333070
  0
LINE
  8
0
  6
CONTINUOUS
 62
3
 10
-265.537223458961190
 20
-144.397722782593520
 11
-268.178458616017340
 21
-142.872804953673950
  0
LINE
  8
0
  6
CONTINUOUS
 62
3
 10
-250.700308886959990
 20
-152.963819404681770
 11
-253.310433405065740
 21
-151.456863311535020
  0
LINE
  8
0
  6
CONTINUOUS
 62
3
 10
-279.719387299390180
 20
-169.717992137733060
 11
-279.719387299390180
 21
-166.704079951439780
  0
LINE
  8
0
  6
CONTINUOUS
 62
3
 10
-258.102085511458310
 20
-148.690401678045870
 11
-260.720760967235380
 21
-147.178508698732680
  0
ARC
  8
0
  6
CONTINUOUS
 62
3
 10
-282.219387299390180
 20
-131.879519652708040
 40
8.499999999999904
 50
291.618272422157700
 51
308.381727577842640
  0
ARC
  8
0
  6
CONTINUOUS
 62
3
 10
-282.219387299390180
 20
-131.879519652708040
 40
13.499999999999963
 50
286.260204708310820
 51
313.739795291687870
  0
ARC
  8
0
  6
CONTINUOUS
 62
3
 10
-282.219387299390180
 20
-131.879519652708040
 40
17.000000000000046
 50
281.212271417650020
 51
318.787728582350210
  0
ARC
  8
0
  6
CONTINUOUS
 62
3
 10
-282.219387299390180
 20
-131.879519652708040
 40
22.000000000000131
 50
279.594068226861170
 51
320.405931773139170
  0
ARC
  8
0
  6
CONTINUOUS
 62
3
 10
-282.219387299390180
 20
-131.879519652708040
 40
25.499999999999932
 50
277.589542391858170
 51
322.410457608142050
  0
ARC
  8
0
  6
CONTINUOUS
 62
3
 10
-282.219387299390180
 20
-131.879519652708040
 40
34.000000000000071
 50
275.739170477266950
 51
324.260829522733050
  0
ARC
  8
0
  6
CONTINUOUS
 62
3
 10
-282.219387299390180
 20
-131.879519652708040
 40
30.500000000000135
 50
276.813854344181040
 51
323.186145655818900
  0
ARC
  8
0
  6
CONTINUOUS
 62
3
 10
-282.219387299390180
 20
-131.879519652708040
 40
38.999999999999986
 50
275.284732954534600
 51
324.715267045465230
  0
ARC
  8
0
  6
CONTINUOUS
 62
3
 10
-276.320858029000990
 20
-139.326488999117370
 40
0.999999999999885
 50
59.999999999996206
 51
128.381727577840220
  0
ARC
  8
0
  6
CONTINUOUS
 62
3
 10
-278.719387299390180
 20
-140.711280519035880
 40
1.000000000000090
 50
111.618272422161970
 51
180.000000000000000
  0
ARC
  8
0
  6
CONTINUOUS
 62
3
 10
-278.719387299390180
 20
-143.879519652708040
 40
1.000000000000000
 50
180.000000000000000
 51
286.260204708297350
  0
ARC
  8
0
  6
CONTINUOUS
 62
3
 10
-273.577082453976690
 20
-140.910608565953450
 40
0.999999999999858
 50
313.739795291671330
 51
59.999999999996206
  0
ARC
  8
0
  6
CONTINUOUS
 62
3
 10
-268.678458616017340
 20
-143.738830357458480
 40
1.000000000000082
 50
60.000000000002721
 51
138.787728582338990
  0
ARC
  8
0
  6
CONTINUOUS
 62
3
 10
-266.037223458961190
 20
-145.263748186377820
 40
1.000000000000318
 50
320.405931773139570
 51
59.999999999996206
  0
ARC
  8
0
  6
CONTINUOUS
 62
3
 10
-278.719387299390180
 20
-149.535963235717650
 40
0.999999999999982
 50
101.212271417644000
 51
180.000000000000000
  0
ARC
  8
0
  6
CONTINUOUS
 62
3
 10
-278.719387299390180
 20
-152.585798893556560
 40
1.000000000000000
 50
180.000000000000000
 51
279.594068226875490
  0
ARC
  8
0
  6
CONTINUOUS
 62
3
 10
-278.719387299390180
 20
-161.171156684461720
 40
1.000000000000000
 50
180.000000000000000
 51
276.813854344179670
  0
ARC
  8
0
  6
CONTINUOUS
 62
3
 10
-261.220760967235380
 20
-148.044534102517220
 40
1.000000000000082
 50
60.000000000002721
 51
142.410457608148220
  0
ARC
  8
0
  6
CONTINUOUS
 62
3
 10
-258.602085511458310
 20
-149.556427081830180
 40
0.999999999999911
 50
323.186145655802870
 51
59.999999999996206
  0
ARC
  8
0
  6
CONTINUOUS
 62
3
 10
-278.719387299390180
 20
-158.147370725835340
 40
0.999999999999975
 50
97.589542391854238
 51
180.000000000000000
  0
ARC
  8
0
  6
CONTINUOUS
 62
3
 10
-278.719387299390180
 20
-169.717992137733060
 40
1.000000000000000
 50
180.000000000000000
 51
275.284732954535740
  0
ARC
  8
0
  6
CONTINUOUS
 62
3
 10
-278.719387299390180
 20
-166.704079951439780
 40
0.999999999999973
 50
95.739170477261709
 51
180.000000000000000
  0
ARC
  8
0
  6
CONTINUOUS
 62
3
 10
-253.810433405065740
 20
-152.322888715319320
 40
0.999999999999885
 50
59.999999999996206
 51
144.260829522736490
  0
ARC
  8
0
  6
CONTINUOUS
 62
3
 10
-251.200308886959990
 20
-153.829844808466310
 40
0.999999999999776
 50
324.715267045465680
 51
60.000000000002721
  0
CIRCLE
  8
0
  6
CONTINUOUS
 62
3
 10
-282.219387299390180
 20
-131.879519652708040
 40
5.000000000000000
  0
ARC
  8
0
  6
CONTINUOUS
 62
3
 10
-247.700308886959990
 20
-147.767666981975030
 40
0.999999999999885
 50
239.999999999996220
 51
335.284732954544490
  0
LINE
  8
0
  6
CONTINUOUS
 62
3
 10
-248.200308886959990
 20
-148.633692385759330
 11
-250.810433405065740
 21
-147.126736292612800
  0
ARC
  8
0
  6
CONTINUOUS
 62
3
 10
-282.219387299390180
 20
-131.879519652708040
 40
39.000000000000220
 50
335.284732954534830
 51
24.715267045465190
  0
ARC
  8
0
  6
CONTINUOUS
 62
3
 10
-282.219387299390180
 20
-131.879519652708040
 40
34.000000000000007
 50
335.739170477266780
 51
24.260829522733218
  0
ARC
  8
0
  6
CONTINUOUS
 62
3
 10
-282.219387299390180
 20
-131.879519652708040
 40
25.500000000000085
 50
337.589542391857490
 51
22.410457608142021
  0
ARC
  8
0
  6
CONTINUOUS
 62
3
 10
-282.219387299390180
 20
-131.879519652708040
 40
30.499999999999947
 50
336.813854344181150
 51
23.186145655818844
  0
ARC
  8
0
  6
CONTINUOUS
 62
3
 10
-255.102085511458310
 20
-143.494249255339350
 40
1.000000000000082
 50
240.000000000002730
 51
336.813854344180130
  0
LINE
  8
0
  6
CONTINUOUS
 62
3
 10
-255.602085511458310
 20
-144.360274659123890
 11
-258.220760967235830
 21
-142.848381679810930
  0
ARC
  8
0
  6
CONTINUOUS
 62
3
 10
-282.219387299390180
 20
-131.879519652708040
 40
22.000000000000206
 50
339.594068226860770
 51
20.405931773139226
  0
ARC
  8
0
  6
CONTINUOUS
 62
3
 10
-250.310433405065740
 20
-146.260710888828270
 40
0.999999999999769
 50
155.739170477266270
 51
240.000000000002730
  0
ARC
  8
0
  6
CONTINUOUS
 62
3
 10
-257.720760967235830
 20
-141.982356276026390
 40
0.999999999999701
 50
157.589542391853940
 51
240.000000000002730
  0
ARC
  8
0
  6
CONTINUOUS
 62
3
 10
-262.537223458960740
 20
-139.201570359886770
 40
0.999999999999885
 50
239.999999999996220
 51
339.594068226861340
  0
ARC
  8
0
  6
CONTINUOUS
 62
3
 10
-282.219387299390180
 20
-131.879519652708040
 40
17.000000000000146
 50
341.212271417650070
 51
18.787728582350418
  0
LINE
  8
0
  6
CONTINUOUS
 62
3
 10
-263.037223458960740
 20
-140.067595763671080
 11
-265.678458616017340
 21
-138.542677934751510
  0
ARC
  8
0
  6
CONTINUOUS
 62
3
 10
-265.178458616017340
 20
-137.676652530967200
 40
0.999999999999646
 50
161.212271417644620
 51
239.999999999996220
  0
ARC
  8
0
  6
CONTINUOUS
 62
3
 10
-282.219387299390180
 20
-131.879519652708040
 40
13.500000000000130
 50
346.260204708311850
 51
13.739795291688171
  0
ARC
  8
0
  6
CONTINUOUS
 62
3
 10
-270.077082453976690
 20
-134.848430739462630
 40
0.999999999999885
 50
239.999999999996220
 51
346.260204708314010
  0
LINE
  8
0
  6
CONTINUOUS
 62
3
 10
-270.577082453976690
 20
-135.714456143246930
 11
-273.320858029000990
 21
-134.130336576410850
  0
ARC
  8
0
  6
CONTINUOUS
 62
3
 10
-270.077082453976690
 20
-128.910608565953450
 40
0.999999999999879
 50
13.739795291686027
 51
120.000000000003780
  0
ARC
  8
0
  6
CONTINUOUS
 62
3
 10
-282.219387299390180
 20
-131.879519652708040
 40
8.499999999999972
 50
351.618272422157820
 51
8.381727577842204
  0
ARC
  8
0
  6
CONTINUOUS
 62
3
 10
-272.820858029000990
 20
-133.264311172626550
 40
1.000000000000059
 50
171.618272422154460
 51
239.999999999996220
  0
ARC
  8
0
  6
CONTINUOUS
 62
3
 10
-262.537223458960740
 20
-124.557468945529300
 40
1.000000000000094
 50
20.405931773138686
 51
120.000000000003780
  0
LINE
  8
0
  6
CONTINUOUS
 62
3
 10
-263.037223458960740
 20
-123.691443541745000
 11
-265.678458616017340
 21
-125.216361370664340
  0
ARC
  8
0
  6
CONTINUOUS
 62
3
 10
-265.178458616017340
 20
-126.082386774448870
 40
1.000000000000082
 50
119.999999999997270
 51
198.787728582347000
  0
LINE
  8
0
  6
CONTINUOUS
 62
3
 10
-270.577082453976690
 20
-128.044583162169150
 11
-273.320858029000990
 21
-129.628702729005230
  0
ARC
  8
0
  6
CONTINUOUS
 62
3
 10
-272.820858029000990
 20
-130.494728132789760
 40
1.000000000000082
 50
119.999999999997270
 51
188.381727577832660
  0
ARC
  8
0
  6
CONTINUOUS
 62
3
 10
-250.310433405065740
 20
-117.498328416587580
 40
0.999999999999885
 50
120.000000000003780
 51
204.260829522745610
  0
LINE
  8
0
  6
CONTINUOUS
 62
3
 10
-248.200308886959990
 20
-115.125346919656520
 11
-250.810433405065740
 21
-116.632303012803270
  0
ARC
  8
0
  6
CONTINUOUS
 62
3
 10
-247.700308886959990
 20
-115.991372323441050
 40
1.000000000000248
 50
24.715267045455477
 51
119.999999999997270
  0
ARC
  8
0
  6
CONTINUOUS
 62
3
 10
-257.720760967235830
 20
-121.776683029389910
 40
1.000000000000082
 50
119.999999999997270
 51
202.410457608146060
  0
LINE
  8
0
  6
CONTINUOUS
 62
3
 10
-255.602085511458310
 20
-119.398764646292190
 11
-258.220760967235830
 21
-120.910657625605380
  0
ARC
  8
0
  6
CONTINUOUS
 62
3
 10
-255.102085511458310
 20
-120.264790050076720
 40
0.999999999999730
 50
23.186145655819850
 51
119.999999999997270
  0
ARC
  8
0
  6
CONTINUOUS
 62
3
 10
-282.219387299390180
 20
-131.879519652708040
 40
38.999999999999865
 50
35.284732954534789
 51
84.715267045465410
  0
ARC
  8
0
  6
CONTINUOUS
 62
3
 10
-282.219387299390180
 20
-131.879519652708040
 40
33.999999999999829
 50
35.739170477266640
 51
84.260829522733076
  0
ARC
  8
0
  6
CONTINUOUS
 62
3
 10
-282.219387299390180
 20
-131.879519652708040
 40
25.499999999999890
 50
37.589542391857961
 51
82.410457608141883
  0
ARC
  8
0
  6
CONTINUOUS
 62
3
 10
-282.219387299390180
 20
-131.879519652708040
 40
30.499999999999964
 50
36.813854344181067
 51
83.186145655818962
  0
ARC
  8
0
  6
CONTINUOUS
 62
3
 10
-282.219387299390180
 20
-131.879519652708040
 40
22.000000000000025
 50
39.594068226860820
 51
80.405931773138789
  0
ARC
  8
0
  6
CONTINUOUS
 62
3
 10
-282.219387299390180
 20
-131.879519652708040
 40
17.000000000000114
 50
41.212271417649760
 51
78.787728582349985
  0
ARC
  8
0
  6
CONTINUOUS
 62
3
 10
-282.219387299390180
 20
-131.879519652708040
 40
13.499999999999927
 50
46.260204708312145
 51
73.739795291689134
  0
ARC
  8
0
  6
CONTINUOUS
 62
3
 10
-278.719387299390180
 20
-119.879519652708040
 40
0.999999999999964
 50
73.739795291702634
 51
180.000000000000000
  0
LINE
  8
0
  6
CONTINUOUS
 62
3
 10
-279.719387299390180
 20
-119.879519652708040
 11
-279.719387299390180
 21
-123.047758786380200
  0
ARC
  8
0
  6
CONTINUOUS
 62
3
 10
-273.577082453976690
 20
-122.848430739462620
 40
0.999999999999885
 50
300.000000000003810
 51
46.260204708328693
  0
ARC
  8
0
  6
CONTINUOUS
 62
3
 10
-282.219387299390180
 20
-131.879519652708040
 40
8.500000000000128
 50
51.618272422158320
 51
68.381727577842284
  0
ARC
  8
0
  6
CONTINUOUS
 62
3
 10
-278.719387299390180
 20
-123.047758786380200
 40
1.000000000000000
 50
180.000000000000000
 51
248.381727577838030
  0
ARC
  8
0
  6
CONTINUOUS
 62
3
 10
-266.037223458961190
 20
-118.495291119038020
 40
1.000000000000082
 50
299.999999999997270
 51
39.594068226850403
  0
LINE
  8
0
  6
CONTINUOUS
 62
3
 10
-265.537223458961190
 20
-119.361316522822560
 11
-268.178458616017340
 21
-120.886234351742130
  0
ARC
  8
0
  6
CONTINUOUS
 62
3
 10
-268.678458616017340
 20
-120.020208947957820
 40
0.999999999999673
 50
221.212271417651210
 51
300.000000000003810
  0
LINE
  8
0
  6
CONTINUOUS
 62
3
 10
-273.077082453976690
 20
-123.714456143246930
 11
-275.820858029000990
 21
-125.298575710083010
  0
ARC
  8
0
  6
CONTINUOUS
 62
3
 10
-276.320858029000990
 20
-124.432550306298480
 40
0.999999999999961
 50
231.618272422159780
 51
299.999999999997270
  0
ARC
  8
0
  6
CONTINUOUS
 62
3
 10
-253.810433405065740
 20
-111.436150590096750
 40
0.999999999999940
 50
215.739170477274090
 51
300.000000000003810
  0
LINE
  8
0
  6
CONTINUOUS
 62
3
 10
-250.700308886959990
 20
-110.795219900734310
 11
-253.310433405065740
 21
-112.302175993881060
  0
ARC
  8
0
  6
CONTINUOUS
 62
3
 10
-251.200308886959990
 20
-109.929194496950000
 40
0.999999999999885
 50
300.000000000003810
 51
35.284732954544943
  0
ARC
  8
0
  6
CONTINUOUS
 62
3
 10
-261.220760967235830
 20
-115.714505202898860
 40
0.999999999999834
 50
217.589542391867670
 51
299.999999999997270
  0
LINE
  8
0
  6
CONTINUOUS
 62
3
 10
-258.102085511458310
 20
-115.068637627370200
 11
-260.720760967235830
 21
-116.580530606683390
  0
ARC
  8
0
  6
CONTINUOUS
 62
3
 10
-258.602085511458310
 20
-114.202612223585670
 40
1.000000000000082
 50
299.999999999997270
 51
36.813854344186687
  0
ARC
  8
0
  6
CONTINUOUS
 62
3
 10
-278.719387299390180
 20
-94.041047167683018
 40
1.000000000000042
 50
84.715267045464302
 51
180.000000000000000
  0
LINE
  8
0
  6
CONTINUOUS
 62
3
 10
-279.719387299390180
 20
-94.041047167683018
 11
-279.719387299390180
 21
-97.054959353976301
  0
ARC
  8
0
  6
CONTINUOUS
 62
3
 10
-278.719387299390180
 20
-97.054959353976301
 40
1.000000000000000
 50
180.000000000000000
 51
264.260829522738280
  0
ARC
  8
0
  6
CONTINUOUS
 62
3
 10
-278.719387299390180
 20
-102.587882620954360
 40
1.000000000000077
 50
83.186145655820312
 51
180.000000000000000
  0
LINE
  8
0
  6
CONTINUOUS
 62
3
 10
-279.719387299390180
 20
-102.587882620954360
 11
-279.719387299390180
 21
-105.611668579580510
  0
ARC
  8
0
  6
CONTINUOUS
 62
3
 10
-278.719387299390180
 20
-105.611668579580730
 40
1.000000000000000
 50
179.999999999986980
 51
262.410457608144040
  0
ARC
  8
0
  6
CONTINUOUS
 62
3
 10
-278.719387299390180
 20
-111.173240411859520
 40
1.000000000000268
 50
80.405931773124522
 51
180.000000000000000
  0
LINE
  8
0
  6
CONTINUOUS
 62
3
 10
-279.719387299390180
 20
-111.173240411859520
 11
-279.719387299390180
 21
-114.223076069698430
  0
ARC
  8
0
  6
CONTINUOUS
 62
3
 10
-278.719387299390180
 20
-114.223076069698430
 40
1.000000000000000
 50
180.000000000000000
 51
258.787728582356010
  0
LINE
  8
0
  6
CONTINUOUS
 62
3
 10
-245.719387947446360
 20
-77.322893627384019
 11
-248.219392296952830
 21
-78.766267204079895
  0
LINE
  8
0
  6
CONTINUOUS
 62
3
 10
-248.219382516953710
 20
-72.992771392494660
 11
-250.719387245000580
 21
-74.436142427587811
  0
LINE
  8
0
  6
CONTINUOUS
 62
3
 10
-248.219392811515890
 20
-78.766266590430121
 11
-250.719385116559470
 21
-77.322891243686001
  0
LINE
  8
0
  6
CONTINUOUS
 62
3
 10
-248.219382578183170
 20
-72.992770912351943
 11
-245.719388793391890
 21
-74.436147556899414
  0
LINE
  8
0
  6
CONTINUOUS
 62
3
 10
-245.719389683575570
 20
-74.436148007708994
 11
-245.719388729901250
 21
-77.322893460589853
  0
LINE
  8
0
  6
CONTINUOUS
 62
3
 10
-250.719384915205920
 20
-77.322891297705951
 11
-250.719385868880180
 21
-74.436142030127826
  0
LINE
  8
0
  6
CONTINUOUS
 62
3
 10
-318.719386651333990
 20
-77.322893627384019
 11
-316.219382301827520
 21
-78.766267204079895
  0
LINE
  8
0
  6
CONTINUOUS
 62
3
 10
-316.219392081826640
 20
-72.992771392494660
 11
-313.719387353779780
 21
-74.436142427587811
  0
LINE
  8
0
  6
CONTINUOUS
 62
3
 10
-316.219381787264470
 20
-78.766266590430121
 11
-313.719389482220890
 21
-77.322891243686001
  0
LINE
  8
0
  6
CONTINUOUS
 62
3
 10
-316.219392020597180
 20
-72.992770912351943
 11
-318.719385805388470
 21
-74.436147556899414
  0
LINE
  8
0
  6
CONTINUOUS
 62
3
 10
-318.719384915204780
 20
-74.436148007708994
 11
-318.719385868879100
 21
-77.322893460589853
  0
LINE
  8
0
  6
CONTINUOUS
 62
3
 10
-313.719389683574430
 20
-77.322891297705951
 11
-313.719388729900170
 21
-74.436142030127826
  0
LINE
  8
0
  6
CONTINUOUS
 62
3
 10
-348.719386651334160
 20
-135.322893627383960
 11
-346.219382301827750
 21
-136.766267204079840
  0
LINE
  8
0
  6
CONTINUOUS
 62
3
 10
-346.219392081826870
 20
-130.992771392494600
 11
-343.719387353780010
 21
-132.436142427587750
  0
LINE
  8
0
  6
CONTINUOUS
 62
3
 10
-346.219381787264640
 20
-136.766266590430060
 11
-343.719389482221120
 21
-135.322891243685940
  0
LINE
  8
0
  6
CONTINUOUS
 62
3
 10
-346.219392020597410
 20
-130.992770912351890
 11
-348.719385805388700
 21
-132.436147556899360
  0
LINE
  8
0
  6
CONTINUOUS
 62
3
 10
-348.719384915204960
 20
-132.436148007708940
 11
-348.719385868879270
 21
-135.322893460589800
  0
LINE
  8
0
  6
CONTINUOUS
 62
3
 10
-343.719389683574660
 20
-135.322891297705890
 11
-343.719388729900400
 21
-132.436142030127770
  0
CIRCLE
  8
0
  6
CONTINUOUS
 62
3
 10
-346.219387299390180
 20
-133.879519652707980
 40
5.000000000000000
  0
LINE
  8
0
  6
CONTINUOUS
 62
3
 10
-324.719386651333990
 20
-191.822893627384080
 11
-322.219382301827520
 21
-193.266267204079950
  0
LINE
  8
0
  6
CONTINUOUS
 62
3
 10
-322.219392081826640
 20
-187.492771392494720
 11
-319.719387353779780
 21
-188.936142427587870
  0
LINE
  8
0
  6
CONTINUOUS
 62
3
 10
-322.219381787264470
 20
-193.266266590430180
 11
-319.719389482220890
 21
-191.822891243686060
  0
LINE
  8
0
  6
CONTINUOUS
 62
3
 10
-322.219392020597180
 20
-187.492770912352000
 11
-324.719385805388470
 21
-188.936147556899470
  0
LINE
  8
0
  6
CONTINUOUS
 62
3
 10
-324.719384915204780
 20
-188.936148007709050
 11
-324.719385868879100
 21
-191.822893460589910
  0
LINE
  8
0
  6
CONTINUOUS
 62
3
 10
-319.719389683574430
 20
-191.822891297706010
 11
-319.719388729900170
 21
-188.936142030127880
  0
CIRCLE
  8
0
  6
CONTINUOUS
 62
3
 10
-322.219387299389950
 20
-190.379519652708100
 40
5.000000000000000
  0
LINE
  8
0
  6
CONTINUOUS
 62
3
 10
-239.719387947446360
 20
-191.822893627384080
 11
-242.219392296952830
 21
-193.266267204079950
  0
LINE
  8
0
  6
CONTINUOUS
 62
3
 10
-242.219382516953710
 20
-187.492771392494720
 11
-244.719387245000580
 21
-188.936142427587870
  0
LINE
  8
0
  6
CONTINUOUS
 62
3
 10
-242.219392811515890
 20
-193.266266590430180
 11
-244.719385116559470
 21
-191.822891243686060
  0
LINE
  8
0
  6
CONTINUOUS
 62
3
 10
-242.219382578183170
 20
-187.492770912352000
 11
-239.719388793391890
 21
-188.936147556899470
  0
LINE
  8
0
  6
CONTINUOUS
 62
3
 10
-239.719389683575570
 20
-188.936148007709050
 11
-239.719388729901250
 21
-191.822893460589910
  0
LINE
  8
0
  6
CONTINUOUS
 62
3
 10
-244.719384915205920
 20
-191.822891297706010
 11
-244.719385868880180
 21
-188.936142030127880
  0
CIRCLE
  8
0
  6
CONTINUOUS
 62
3
 10
-242.219387299390410
 20
-190.379519652708100
 40
5.000000000000000
  0
LINE
  8
0
  6
CONTINUOUS
 62
3
 10
-202.219387299390180
 20
-41.879519652708041
 11
-202.219387299390180
 21
-101.879519652708040
  0
LINE
  8
0
  6
CONTINUOUS
 62
3
 10
-202.219387299390180
 20
-161.879519652708040
 11
-202.219387299390180
 21
-181.879519652708040
  0
LINE
  8
0
  6
CONTINUOUS
 62
3
 10
-217.879482602505050
 20
-161.879519652708040
 11
-226.759877242623020
 21
-175.930353232577770
  0
ARC
  8
0
  6
CONTINUOUS
 62
3
 10
-261.719387299390410
 20
-116.480392578812820
 40
50.000000000000000
 50
16.978776992020297
 51
86.642182578429185
  0
LINE
  8
0
  6
DASHDOT
 62
4
 10
-181.453854997556960
 20
-131.879519652708040
 11
-379.531065253122510
 21
-131.879519652708040
  0
ARC
  8
0
  6
CONTINUOUS
 62
3
 10
-248.219387299390410
 20
-75.879519652708041
 40
5.000000000000307
 50
311.551050375543410
 51
218.794478426544910
  0
ARC
  8
0
  6
CONTINUOUS
 62
3
 10
-248.219387299390410
 20
-75.879519652708041
 40
6.250000000000000
 50
180.000000000000000
 51
208.862789398056090
  0
ARC
  8
0
  6
CONTINUOUS
 62
3
 10
-248.219387299390410
 20
-75.879519652708041
 40
6.250000000000258
 50
321.482739404032770
 51
0.000000000000000
  0
ARC
  8
0
  6
CONTINUOUS
 62
3
 10
-316.219387299389950
 20
-75.879519652708041
 40
5.000000000000300
 50
321.205521573455090
 51
228.448949624456590
  0
ARC
  8
0
  6
CONTINUOUS
 62
3
 10
-316.219387299389950
 20
-75.879519652708041
 40
6.250000000000000
 50
180.000000000000000
 51
218.517260595967260
  0
ARC
  8
0
  6
CONTINUOUS
 62
3
 10
-316.219387299389950
 20
-75.879519652708041
 40
6.250000000000235
 50
331.137210601943930
 51
0.000000000000000
  0
LINE
  8
0
  6
CONTINUOUS
 62
3
 10
-344.219387299389950
 20
-104.879519652707980
 11
-340.004356861991650
 21
-104.879519652707980
  0
LINE
  8
0
  6
CONTINUOUS
 62
3
 10
-344.219387299389950
 20
-120.879519652707980
 11
-341.018055738515900
 21
-120.879519652707980
  0
ARC
  8
0
  6
CONTINUOUS
 62
3
 10
-346.219387299390180
 20
-133.879519652707980
 40
6.250000000000000
 50
270.000000000000000
 51
323.957337690087680
  0
ARC
  8
0
  6
CONTINUOUS
 62
3
 10
-346.219387299390180
 20
-133.879519652707980
 40
6.249999999999829
 50
36.792596361371992
 51
90.000000000000000
  0
LINE
  8
0
  6
CONTINUOUS
 62
3
 10
-316.409912280078860
 20
-195.879519652708040
 11
-326.549514318312220
 21
-195.879519652708040
  0
LINE
  8
0
  6
CONTINUOUS
 62
3
 10
-248.028862318701500
 20
-195.879519652708040
 11
-237.889260280468110
 21
-195.879519652708040
  0
LINE
  8
0
  6
CONTINUOUS
 62
3
 10
51.259748444436582
 20
103.010262607275760
 11
51.259748444436582
 21
31.916889613533385
  0
LINE
  8
0
  6
CONTINUOUS
 62
3
 10
42.259748444436582
 20
32.916889613535204
 11
42.259748444436582
 21
64.010262607274854
  0
ARC
  8
0
  6
CONTINUOUS
 62
3
 10
42.259748444436582
 20
33.876288011059842
 40
1.000000000000000
 50
180.000000000000000
 51
246.457436915979320
  0
ARC
  8
0
  6
CONTINUOUS
 62
3
 10
43.259748444436582
 20
32.916889613535204
 40
1.000000000000000
 50
180.000000000000000
 51
253.216766737311250
  0
ARC
  8
0
  6
CONTINUOUS
 62
3
 10
43.259748444436582
 20
32.916889613535204
 40
1.000000000000999
 50
253.216766737311250
 51
270.000000000000000
  0
LINE
  8
0
  6
CONTINUOUS
 62
3
 10
43.259748444436582
 20
31.916889613535204
 11
51.259748444436582
 21
31.916889613533385
  0
ARC
  8
0
  6
CONTINUOUS
 62
3
 10
41.460888021342953
 20
32.042760802531120
 40
0.999999999999802
 50
25.916728130901330
 51
66.457436915958496
  0
ARC
  8
0
  6
CONTINUOUS
 62
3
 10
41.460888021342953
 20
173.977764412020410
 40
0.999999999999640
 50
293.542563084041490
 51
334.083271869098670
  0
ARC
  8
0
  6
CONTINUOUS
 62
3
 10
40.259748444436582
 20
160.998376359129000
 40
1.999999999999851
 50
271.499999999989830
 51
0.000000000000000
  0
ARC
  8
0
  6
CONTINUOUS
 62
3
 10
43.259748444436582
 20
173.103635601016320
 40
1.000000000000999
 50
106.783233262688730
 51
180.000000000000000
  0
ARC
  8
0
  6
CONTINUOUS
 62
3
 10
43.259748444436582
 20
173.103635601016320
 40
1.000000000000000
 50
90.000000000000000
 51
106.783233262688730
  0
LINE
  8
0
  6
CONTINUOUS
 62
3
 10
43.259748444436582
 20
174.103635601016320
 11
51.259748444436582
 21
174.103635601018140
  0
LINE
  8
0
  6
CONTINUOUS
 62
3
 10
40.312102341051968
 20
158.999061709178020
 11
24.759748444437491
 21
158.591808989825040
  0
LINE
  8
0
  6
CONTINUOUS
 62
3
 10
51.259748444436582
 20
103.010262607275760
 11
51.259748444436582
 21
174.103635601018140
  0
LINE
  8
0
  6
CONTINUOUS
 62
3
 10
24.759748444437491
 20
103.010262607275760
 11
24.759748444437491
 21
158.591808989825040
  0
ARC
  8
0
  6
CONTINUOUS
 62
3
 10
42.259748444436582
 20
172.144237203491680
 40
1.000000000000474
 50
113.542563084020690
 51
180.000000000000000
  0
LINE
  8
0
  6
CONTINUOUS
 62
3
 10
41.259748444436582
 20
160.972190437560130
 11
41.259748444436582
 21
172.144237203491680
  0
ARC
  8
0
  6
CONTINUOUS
 62
3
 10
39.259748444436582
 20
160.972190437560130
 40
1.999999999999851
 50
271.499999999989830
 51
0.000000000000000
  0
ARC
  8
0
  6
CONTINUOUS
 62
3
 10
45.159748444437128
 20
143.160262607276310
 40
0.099999999999454
 50
0.000000000000000
 51
90.000000000000000
  0
ARC
  8
0
  6
CONTINUOUS
 62
3
 10
43.259748444436582
 20
144.260262607276670
 40
1.000000000000000
 50
180.000000000000000
 51
270.000000000000000
  0
ARC
  8
0
  6
CONTINUOUS
 62
3
 10
45.159748444437128
 20
130.860262607276130
 40
0.099999999999454
 50
270.000000000000000
 51
0.000000000000000
  0
ARC
  8
0
  6
CONTINUOUS
 62
3
 10
43.259748444436582
 20
129.760262607276670
 40
1.000000000000000
 50
90.000000000000000
 51
180.000000000000000
  0
LINE
  8
0
  6
CONTINUOUS
 62
3
 10
45.259748444436582
 20
143.160262607276310
 11
45.259748444436582
 21
130.860262607276130
  0
LINE
  8
0
  6
CONTINUOUS
 62
3
 10
43.259748444436582
 20
143.260262607276670
 11
45.159748444437128
 21
143.260262607276670
  0
LINE
  8
0
  6
CONTINUOUS
 62
3
 10
43.259748444436582
 20
130.760262607276670
 11
45.159748444437128
 21
130.760262607276670
  0
LINE
  8
0
  6
CONTINUOUS
 62
3
 10
42.259748444436582
 20
173.103635601016320
 11
42.259748444436582
 21
142.010262607276670
  0
LINE
  8
0
  6
CONTINUOUS
 62
3
 10
42.259748444436582
 20
132.010262607276670
 11
42.259748444436582
 21
103.010262607275760
  0
LINE
  8
0
  6
CONTINUOUS
 62
3
 10
39.259748444436582
 20
172.010262607276670
 11
39.259748444436582
 21
162.010262607276670
  0
LINE
  8
0
  6
CONTINUOUS
 62
3
 10
41.259748444436582
 20
172.010262607276670
 11
39.259748444436582
 21
172.010262607276670
  0
LINE
  8
0
  6
CONTINUOUS
 62
3
 10
41.259748444436582
 20
162.010262607276670
 11
39.259748444436582
 21
162.010262607276670
  0
ARC
  8
0
  6
CONTINUOUS
 62
3
 10
40.259748444436582
 20
45.022148855422529
 40
2.000000000000000
 50
0.000000000000000
 51
88.500000000010189
  0
LINE
  8
0
  6
CONTINUOUS
 62
3
 10
40.312102341051968
 20
47.021463505373504
 11
24.759748444437491
 21
47.428716224726486
  0
LINE
  8
0
  6
CONTINUOUS
 62
3
 10
24.759748444437491
 20
103.010262607275760
 11
24.759748444437491
 21
47.428716224726486
  0
LINE
  8
0
  6
CONTINUOUS
 62
3
 10
41.259748444436582
 20
45.048334776991396
 11
41.259748444436582
 21
33.876288011060751
  0
ARC
  8
0
  6
CONTINUOUS
 62
3
 10
39.259748444436582
 20
45.048334776991396
 40
2.000000000000000
 50
0.000000000000000
 51
88.500000000010189
  0
ARC
  8
0
  6
CONTINUOUS
 62
3
 10
45.159748444437128
 20
62.860262607276127
 40
0.100000000000364
 50
270.000000000000000
 51
0.000000000000000
  0
ARC
  8
0
  6
CONTINUOUS
 62
3
 10
43.259748444436582
 20
61.760262607275763
 40
1.000000000000000
 50
90.000000000000000
 51
180.000000000000000
  0
ARC
  8
0
  6
CONTINUOUS
 62
3
 10
45.159748444437128
 20
75.160262607275399
 40
0.099999999999454
 50
0.000000000000000
 51
90.000000000000000
  0
ARC
  8
0
  6
CONTINUOUS
 62
3
 10
43.259748444436582
 20
76.260262607275763
 40
1.000000000000000
 50
180.000000000000000
 51
270.000000000000000
  0
LINE
  8
0
  6
CONTINUOUS
 62
3
 10
45.259748444436582
 20
62.860262607276127
 11
45.259748444436582
 21
75.160262607275399
  0
LINE
  8
0
  6
CONTINUOUS
 62
3
 10
43.259748444436582
 20
62.760262607275763
 11
45.159748444437128
 21
62.760262607275763
  0
LINE
  8
0
  6
CONTINUOUS
 62
3
 10
43.259748444436582
 20
75.260262607275763
 11
45.159748444437128
 21
75.260262607275763
  0
LINE
  8
0
  6
CONTINUOUS
 62
3
 10
42.259748444436582
 20
74.010262607274854
 11
42.259748444436582
 21
103.010262607275760
  0
LINE
  8
0
  6
CONTINUOUS
 62
3
 10
39.259748444436582
 20
34.010262607275763
 11
39.259748444436582
 21
44.010262607275763
  0
LINE
  8
0
  6
CONTINUOUS
 62
3
 10
41.259748444436582
 20
34.010262607274854
 11
39.259748444436582
 21
34.010262607275372
  0
LINE
  8
0
  6
CONTINUOUS
 62
3
 10
41.259748444436582
 20
44.010262607274854
 11
39.259748444436582
 21
44.010262607275372
  0
LINE
  8
0
  6
CONTINUOUS
 62
3
 10
171.759748444436580
 20
103.010262607275760
 11
171.759748444436580
 21
92.410262607275399
  0
LINE
  8
0
  6
CONTINUOUS
 62
3
 10
171.359748444436490
 20
92.010262607275763
 11
138.319556065571990
 21
92.010262607275763
  0
LINE
  8
0
  6
CONTINUOUS
 62
3
 10
171.359748444436490
 20
92.010262607275763
 11
138.319556065571990
 21
92.010262607275763
  0
ARC
  8
0
  6
CONTINUOUS
 62
3
 10
171.359748444436490
 20
92.410262607275399
 40
0.399999999999636
 50
270.000000000000000
 51
0.000000000000000
  0
LINE
  8
0
  6
CONTINUOUS
 62
3
 10
171.759748444436580
 20
92.410262607275399
 11
171.759748444436580
 21
89.510262607275763
  0
LINE
  8
0
  6
CONTINUOUS
 62
3
 10
171.759750351739290
 20
89.510262607275763
 11
139.759750351739290
 21
89.510262607275763
  0
LINE
  8
0
  6
CONTINUOUS
 62
3
 10
135.759748444436580
 20
103.010262607275760
 11
135.759748444436580
 21
114.610262607275210
  0
LINE
  8
0
  6
CONTINUOUS
 62
3
 10
137.759748444436580
 20
113.860262607275210
 11
136.559748444436310
 21
113.860262607275210
  0
LINE
  8
0
  6
CONTINUOUS
 62
3
 10
138.319556065571990
 20
114.010262607275760
 11
137.759748444436580
 21
113.860262607275210
  0
LINE
  8
0
  6
CONTINUOUS
 62
3
 10
135.759748444436580
 20
114.610262607275210
 11
135.359748444436490
 21
115.010262607275760
  0
ARC
  8
0
  6
CONTINUOUS
 62
3
 10
136.559748444436310
 20
114.660262607275390
 40
0.799999999999783
 50
183.703196634282420
 51
270.000000000000000
  0
LINE
  8
0
  6
CONTINUOUS
 62
3
 10
137.759748444436580
 20
113.860262607275210
 11
136.559748444436310
 21
113.860262607275210
  0
LINE
  8
0
  6
CONTINUOUS
 62
3
 10
138.319556065571990
 20
114.010262607275760
 11
137.759748444436580
 21
113.860262607275210
  0
LINE
  8
0
  6
CONTINUOUS
 62
3
 10
135.759748444436580
 20
114.610262607275210
 11
135.359748444436490
 21
115.010262607275760
  0
LINE
  8
0
  6
CONTINUOUS
 62
3
 10
133.759748444436580
 20
115.010262607275760
 11
135.359748444436490
 21
115.010262607275760
  0
LINE
  8
0
  6
CONTINUOUS
 62
3
 10
139.759748444436580
 20
92.010262607275763
 11
139.759748444436580
 21
89.510262607275763
  0
LINE
  8
0
  6
CONTINUOUS
 62
3
 10
133.759748444436580
 20
91.010262607274854
 11
135.359748444436490
 21
91.010262607275763
  0
LINE
  8
0
  6
CONTINUOUS
 62
3
 10
135.759748444436580
 20
103.010262607275760
 11
135.759748444436580
 21
91.410262607275399
  0
LINE
  8
0
  6
CONTINUOUS
 62
3
 10
137.759748444436580
 20
92.160262607275399
 11
136.559748444436310
 21
92.160262607275399
  0
LINE
  8
0
  6
CONTINUOUS
 62
3
 10
138.319556065571990
 20
92.010262607275763
 11
137.759748444436580
 21
92.160262607275399
  0
LINE
  8
0
  6
CONTINUOUS
 62
3
 10
135.759748444436580
 20
91.410262607275399
 11
135.359748444436490
 21
91.010262607275763
  0
LINE
  8
0
  6
CONTINUOUS
 62
3
 10
171.359748444436490
 20
114.010262607275760
 11
138.319556065571990
 21
114.010262607275760
  0
ARC
  8
0
  6
CONTINUOUS
 62
3
 10
136.559748444436310
 20
91.360262607275217
 40
0.800000000000182
 50
90.000000000000000
 51
176.296803365717580
  0
LINE
  8
0
  6
CONTINUOUS
 62
3
 10
137.759748444436580
 20
92.160262607275399
 11
136.559748444436310
 21
92.160262607275399
  0
LINE
  8
0
  6
CONTINUOUS
 62
3
 10
138.319556065571990
 20
92.010262607275763
 11
137.759748444436580
 21
92.160262607275399
  0
LINE
  8
0
  6
CONTINUOUS
 62
3
 10
135.759748444436580
 20
91.410262607275399
 11
135.359748444436490
 21
91.010262607275763
  0
LINE
  8
0
  6
CONTINUOUS
 62
3
 10
171.359748444436490
 20
114.010262607275760
 11
138.319556065571990
 21
114.010262607275760
  0
LINE
  8
0
  6
CONTINUOUS
 62
3
 10
133.759748444436580
 20
91.010262607274854
 11
135.359748444436490
 21
91.010262607275763
  0
LINE
  8
0
  6
CONTINUOUS
 62
3
 10
171.759748444436580
 20
103.010262607275760
 11
171.759748444436580
 21
113.610262607275210
  0
ARC
  8
0
  6
CONTINUOUS
 62
3
 10
171.359748444436490
 20
113.610262607275210
 40
0.400000000000091
 50
0.000000000000000
 51
90.000000000000000
  0
LINE
  8
0
  6
DASHDOT
 62
4
 10
136.982582121446060
 20
34.067351441587562
 11
104.145393409052070
 21
34.067351441587562
  0
LINE
  8
0
  6
DASHDOT
 62
4
 10
136.982582121446060
 20
171.953173772963960
 11
104.145393409052070
 21
171.953173772963960
  0
LINE
  8
0
  6
CONTINUOUS
 62
3
 10
111.259748444437260
 20
63.994325358647984
 11
101.310229394765200
 21
63.994325358647984
  0
ARC
  8
0
  6
CONTINUOUS
 62
3
 10
98.349512321787415
 20
58.337471109156468
 40
1.999999999999685
 50
38.684601234802514
 51
90.000000000000000
  0
LINE
  8
0
  6
CONTINUOUS
 62
3
 10
99.910709159462158
 20
59.587536881039341
 11
112.820945282112910
 21
43.464049412094937
  0
ARC
  8
0
  6
CONTINUOUS
 62
3
 10
111.259748444437710
 20
42.213983640211154
 40
1.999999999999773
 50
0.000000000000000
 51
38.684601234814714
  0
ARC
  8
0
  6
CONTINUOUS
 62
3
 10
98.349512321787188
 20
61.994325358648894
 40
1.999999999999685
 50
38.684601234802514
 51
90.000000000000000
  0
LINE
  8
0
  6
CONTINUOUS
 62
3
 10
99.910709159461931
 20
63.244391130531767
 11
112.820945282112680
 21
47.120903661587363
  0
ARC
  8
0
  6
CONTINUOUS
 62
3
 10
111.259748444437490
 20
45.870837889703580
 40
1.999999999999773
 50
0.000000000000000
 51
38.684601234814714
  0
ARC
  8
0
  6
CONTINUOUS
 62
3
 10
98.349512321787188
 20
144.026199855902630
 40
2.000000000000000
 50
270.000000000000000
 51
321.315398765197470
  0
LINE
  8
0
  6
CONTINUOUS
 62
3
 10
99.910709159461931
 20
142.776134084019760
 11
112.820945282112680
 21
158.899621552964160
  0
ARC
  8
0
  6
CONTINUOUS
 62
3
 10
111.259748444437490
 20
160.149687324847950
 40
2.000000000000608
 50
321.315398765185310
 51
0.000000000000000
  0
ARC
  8
0
  6
CONTINUOUS
 62
3
 10
111.259748444437710
 20
163.806541574340370
 40
2.000000000000608
 50
321.315398765185310
 51
0.000000000000000
  0
ARC
  8
0
  6
CONTINUOUS
 62
3
 10
98.349512321787415
 20
147.683054105395060
 40
2.000000000000000
 50
270.000000000000000
 51
321.315398765197470
  0
ARC
  8
0
  6
CONTINUOUS
 62
3
 10
111.259748444436800
 20
107.010262607275760
 40
2.000000000000000
 50
270.000000000000000
 51
0.000000000000000
  0
ARC
  8
0
  6
CONTINUOUS
 62
3
 10
111.259748444436800
 20
99.010262607275763
 40
2.000000000000000
 50
0.000000000000000
 51
90.000000000000000
  0
ARC
  8
0
  6
CONTINUOUS
 62
3
 10
101.310229394765200
 20
99.010262607275763
 40
2.000000000000000
 50
90.000000000000000
 51
180.000000000000000
  0
ARC
  8
0
  6
CONTINUOUS
 62
3
 10
101.310229394765200
 20
107.010262607275760
 40
2.000000000000000
 50
180.000000000000000
 51
270.000000000000000
  0
LINE
  8
0
  6
CONTINUOUS
 62
3
 10
99.910709159462158
 20
146.432988333512180
 11
112.820945282112910
 21
162.556475802456590
  0
LINE
  8
0
  6
CONTINUOUS
 62
3
 10
111.259748444437260
 20
142.026199855903540
 11
101.310229394765200
 21
142.026199855903540
  0
LINE
  8
0
  6
CONTINUOUS
 62
3
 10
111.259748444436800
 20
101.010262607275760
 11
101.310229394765200
 21
101.010262607275760
  0
LINE
  8
0
  6
CONTINUOUS
 62
3
 10
111.259748444436800
 20
105.010262607275760
 11
101.310229394765200
 21
105.010262607275760
  0
LINE
  8
0
  6
CONTINUOUS
 62
3
 10
51.759748444436582
 20
31.916889613533385
 11
110.312105663748980
 21
30.894854416571434
  0
ARC
  8
0
  6
CONTINUOUS
 62
3
 10
110.259748444437260
 20
27.895311331102675
 40
3.000000000000000
 50
0.000000000000000
 51
89.000000000002430
  0
LINE
  8
0
  6
CONTINUOUS
 62
3
 10
51.759748444436582
 20
174.103635601018140
 11
110.312105663748980
 21
175.125670797980090
  0
LINE
  8
0
  6
CONTINUOUS
 62
3
 10
133.759748444436580
 20
103.010262607275760
 11
133.759748444436580
 21
82.032885197406358
  0
LINE
  8
0
  6
CONTINUOUS
 62
3
 10
133.759748444436580
 20
103.010262607275760
 11
133.759748444436580
 21
123.987640017145160
  0
LINE
  8
0
  6
CONTINUOUS
 62
3
 10
117.759748444437490
 20
183.010262607275760
 11
114.233571496129570
 21
182.917926414268550
  0
LINE
  8
0
  6
CONTINUOUS
 62
3
 10
125.259748444437490
 20
182.813868195506980
 11
117.759748444437490
 21
183.010262607275760
  0
LINE
  8
0
  6
CONTINUOUS
 62
3
 10
127.480422947700160
 20
28.010262607275763
 11
128.259748444437490
 21
28.810262607275945
  0
LINE
  8
0
  6
CONTINUOUS
 62
3
 10
127.480422947700160
 20
178.010262607275760
 11
128.259748444437490
 21
177.210262607275580
  0
ARC
  8
0
  6
CONTINUOUS
 62
3
 10
114.259748444437490
 20
181.918269089293060
 40
0.999999999999931
 50
91.500000000002814
 51
180.000000000000000
  0
ARC
  8
0
  6
CONTINUOUS
 62
3
 10
110.259748444437260
 20
178.125213883448850
 40
2.999999999999582
 50
270.999999999997610
 51
0.000000000000000
  0
ARC
  8
0
  6
CONTINUOUS
 62
3
 10
131.759748444436580
 20
123.987640017145160
 40
2.000000000000000
 50
0.000000000000000
 51
54.162347045717610
  0
ARC
  8
0
  6
CONTINUOUS
 62
3
 10
131.759748444436580
 20
82.032885197406358
 40
1.999999999999779
 50
305.837652954282420
 51
0.000000000000000
  0
LINE
  8
0
  6
CONTINUOUS
 62
3
 10
51.759748444436582
 20
174.103635601018140
 11
51.759748444436582
 21
31.916889613533385
  0
LINE
  8
0
  6
CONTINUOUS
 62
3
 10
127.480422947700160
 20
178.010262607275760
 11
125.259748444437490
 21
178.010262607275760
  0
LINE
  8
0
  6
CONTINUOUS
 62
3
 10
127.480422947700160
 20
28.010262607275763
 11
125.259748444437490
 21
28.010262607275763
  0
LINE
  8
0
  6
CONTINUOUS
 62
3
 10
125.259748444437490
 20
103.010262607275760
 11
125.259748444437490
 21
182.800775234722100
  0
LINE
  8
0
  6
CONTINUOUS
 62
3
 10
128.259748444436350
 20
103.010262607275760
 11
128.259748444437490
 21
177.210262607275580
  0
LINE
  8
0
  6
CONTINUOUS
 62
3
 10
128.259748444436580
 20
103.010262607275760
 11
128.259748444437490
 21
28.810262607275945
  0
LINE
  8
0
  6
CONTINUOUS
 62
3
 10
132.930729552125290
 20
80.411526740606860
 11
128.259748444437040
 21
77.038040385054046
  0
LINE
  8
0
  6
CONTINUOUS
 62
3
 10
132.930729552125290
 20
125.608998473944660
 11
128.259748444436580
 21
128.982484829498390
  0
LINE
  8
0
  6
CONTINUOUS
 62
3
 10
117.759748444437490
 20
23.010262607275763
 11
114.233571496129570
 21
23.102598800282976
  0
ARC
  8
0
  6
CONTINUOUS
 62
3
 10
114.259748444437490
 20
24.102256125258464
 40
1.000000000000000
 50
180.000000000000000
 51
268.499999999997210
  0
LINE
  8
0
  6
CONTINUOUS
 62
3
 10
125.259748444437490
 20
23.206657019044542
 11
117.759748444437490
 21
23.010262607275763
  0
LINE
  8
0
  6
CONTINUOUS
 62
3
 10
125.259748444437490
 20
103.010262607275760
 11
125.259748444437490
 21
23.206657019044542
  0
LINE
  8
0
  6
CONTINUOUS
 62
3
 10
113.259748444436120
 20
24.102256125258464
 11
113.259748444437490
 21
181.918269089293060
  0
ARC
  8
0
  6
CONTINUOUS
 62
3
 10
120.259748444437030
 20
164.039699858798490
 40
2.000000000000000
 50
90.000000000000000
 51
180.000000000000000
  0
LINE
  8
0
  6
CONTINUOUS
 62
3
 10
125.259748444437490
 20
166.039699858798490
 11
120.259748444437030
 21
166.039699858798490
  0
LINE
  8
0
  6
CONTINUOUS
 62
3
 10
120.259748444437030
 20
147.703394746739830
 11
125.259748444437490
 21
147.703394746739830
  0
ARC
  8
0
  6
CONTINUOUS
 62
3
 10
120.259748444437030
 20
145.703394746739830
 40
2.000000000000000
 50
90.000000000000000
 51
180.000000000000000
  0
ARC
  8
0
  6
CONTINUOUS
 62
3
 10
120.259748444437030
 20
41.980825355753041
 40
1.999999999999773
 50
180.000000000000000
 51
270.000000000000000
  0
LINE
  8
0
  6
CONTINUOUS
 62
3
 10
125.259748444437490
 20
39.980825355753041
 11
120.259748444437030
 21
39.980825355753041
  0
LINE
  8
0
  6
CONTINUOUS
 62
3
 10
120.259748444437030
 20
58.317130467811694
 11
125.259748444437490
 21
58.317130467811694
  0
ARC
  8
0
  6
CONTINUOUS
 62
3
 10
120.259748444437030
 20
60.317130467811694
 40
2.000000000000000
 50
180.000000000000000
 51
270.000000000000000
  0
LINE
  8
0
  6
CONTINUOUS
 62
3
 10
118.259748444436350
 20
41.980825355753041
 11
118.259748444436800
 21
103.010262607275760
  0
LINE
  8
0
  6
CONTINUOUS
 62
3
 10
118.259748444436800
 20
103.010262607275760
 11
118.259748444437260
 21
164.039699858798490
  0
LINE
  8
0
  6
CONTINUOUS
 62
3
 10
24.759748444437491
 20
49.510262607275763
 11
24.759748444437491
 21
103.010262607275760
  0
LINE
  8
0
  6
CONTINUOUS
 62
3
 10
-103.740251555562280
 20
45.510262607275763
 11
-28.740251555562281
 21
45.510262607275763
  0
LINE
  8
0
  6
CONTINUOUS
 62
3
 10
-28.740251555562281
 20
45.510262607275763
 11
-28.740251555562281
 21
50.510262607275877
  0
LINE
  8
0
  6
CONTINUOUS
 62
3
 10
-29.740251555562281
 20
17.010262607275763
 11
-29.740251555562281
 21
45.510262607275763
  0
LINE
  8
0
  6
CONTINUOUS
 62
3
 10
-102.740251555562280
 20
17.010262607275763
 11
-102.740251555562280
 21
45.510262607275763
  0
ARC
  8
0
  6
CONTINUOUS
 62
3
 10
-101.740251555562280
 20
17.010262607275763
 40
1.000000000000000
 50
180.000000000000000
 51
270.000000000000000
  0
ARC
  8
0
  6
CONTINUOUS
 62
3
 10
-30.740251555562281
 20
17.010262607275763
 40
1.000000000000000
 50
270.000000000000000
 51
0.000000000000000
  0
LINE
  8
0
  6
CONTINUOUS
 62
3
 10
24.759748444437491
 20
49.510262607275763
 11
-28.740251555562281
 21
49.510262607275763
  0
LINE
  8
0
  6
CONTINUOUS
 62
3
 10
24.759748444437491
 20
156.510262607275760
 11
24.759748444437491
 21
103.010262607275760
  0
LINE
  8
0
  6
CONTINUOUS
 62
3
 10
-36.740251555562281
 20
15.510262607275763
 11
-36.740251555562281
 21
16.010262607275763
  0
LINE
  8
0
  6
CONTINUOUS
 62
3
 10
-44.740251555562281
 20
15.510262607275763
 11
-36.740251555562281
 21
15.510262607275763
  0
LINE
  8
0
  6
CONTINUOUS
 62
3
 10
-44.740251555562281
 20
15.510262607275763
 11
-44.740251555562281
 21
16.010262607275763
  0
LINE
  8
0
  6
CONTINUOUS
 62
3
 10
-30.740251555562281
 20
16.010262607275763
 11
-101.740251555562280
 21
16.010262607275763
  0
LINE
  8
0
  6
CONTINUOUS
 62
3
 10
-95.740251555583654
 20
51.670566246466819
 11
-95.740251555583427
 21
103.010262607275760
  0
ARC
  8
0
  6
CONTINUOUS
 62
3
 10
-98.740251555583654
 20
51.670566246466819
 40
3.000000000000000
 50
270.000000000000000
 51
0.000000000000000
  0
LINE
  8
0
  6
CONTINUOUS
 62
3
 10
-102.740251555583650
 20
48.670566246466819
 11
-98.740251555583654
 21
48.670566246466819
  0
POLYLINE
  8
0
  6
CONTINUOUS
 62
3
 66
1
 70
1
  0
VERTEX
  8
0
  6
CONTINUOUS
 62
3
 10
-102.040251555583430
 20
55.682931652928232
  0
VERTEX
  8
0
  6
CONTINUOUS
 62
3
 10
-102.130560737688250
 20
56.385888619128593
  0
VERTEX
  8
0
  6
CONTINUOUS
 62
3
 10
-102.398017752780390
 20
57.061831343340685
  0
VERTEX
  8
0
  6
CONTINUOUS
 62
3
 10
-102.832344377761470
 20
57.684783725746087
  0
VERTEX
  8
0
  6
CONTINUOUS
 62
3
 10
-103.416849684006660
 20
58.230806055644670
  0
VERTEX
  8
0
  6
CONTINUOUS
 62
3
 10
-104.129071460391300
 20
58.678915001111285
  0
VERTEX
  8
0
  6
CONTINUOUS
 62
3
 10
-104.941639423467500
 20
59.011889986674042
  0
VERTEX
  8
0
  6
CONTINUOUS
 62
3
 10
-105.823327042107620
 20
59.216934970372293
  0
VERTEX
  8
0
  6
CONTINUOUS
 62
3
 10
-106.740251555583420
 20
59.286170188473065
  0
VERTEX
  8
0
  6
CONTINUOUS
 62
3
 10
-107.657176069059230
 20
59.216934970372293
  0
VERTEX
  8
0
  6
CONTINUOUS
 62
3
 10
-108.538863687699340
 20
59.011889986674042
  0
VERTEX
  8
0
  6
CONTINUOUS
 62
3
 10
-109.351431650775550
 20
58.678915001111285
  0
VERTEX
  8
0
  6
CONTINUOUS
 62
3
 10
-110.063653427160190
 20
58.230806055644670
  0
VERTEX
  8
0
  6
CONTINUOUS
 62
3
 10
-110.648158733405380
 20
57.684783725746087
  0
VERTEX
  8
0
  6
CONTINUOUS
 62
3
 10
-111.082485358386460
 20
57.061831343340685
  0
VERTEX
  8
0
  6
CONTINUOUS
 62
3
 10
-111.349942373478590
 20
56.385888619128593
  0
VERTEX
  8
0
  6
CONTINUOUS
 62
3
 10
-111.440251555583410
 20
55.682931652928232
  0
VERTEX
  8
0
  6
CONTINUOUS
 62
3
 10
-111.349942373478590
 20
54.979974686727871
  0
VERTEX
  8
0
  6
CONTINUOUS
 62
3
 10
-111.082485358386460
 20
54.304031962515779
  0
VERTEX
  8
0
  6
CONTINUOUS
 62
3
 10
-110.648158733405380
 20
53.681079580110378
  0
VERTEX
  8
0
  6
CONTINUOUS
 62
3
 10
-110.063653427160190
 20
53.135057250211801
  0
VERTEX
  8
0
  6
CONTINUOUS
 62
3
 10
-109.351431650775550
 20
52.686948304745179
  0
VERTEX
  8
0
  6
CONTINUOUS
 62
3
 10
-108.538863687699340
 20
52.353973319182423
  0
VERTEX
  8
0
  6
CONTINUOUS
 62
3
 10
-107.657176069059230
 20
52.148928335484172
  0
VERTEX
  8
0
  6
CONTINUOUS
 62
3
 10
-106.740251555583420
 20
52.079693117383400
  0
VERTEX
  8
0
  6
CONTINUOUS
 62
3
 10
-105.823327042107620
 20
52.148928335484172
  0
VERTEX
  8
0
  6
CONTINUOUS
 62
3
 10
-104.941639423467500
 20
52.353973319182423
  0
VERTEX
  8
0
  6
CONTINUOUS
 62
3
 10
-104.129071460391300
 20
52.686948304745179
  0
VERTEX
  8
0
  6
CONTINUOUS
 62
3
 10
-103.416849684006660
 20
53.135057250211801
  0
VERTEX
  8
0
  6
CONTINUOUS
 62
3
 10
-102.832344377761470
 20
53.681079580110378
  0
VERTEX
  8
0
  6
CONTINUOUS
 62
3
 10
-102.398017752780390
 20
54.304031962515779
  0
VERTEX
  8
0
  6
CONTINUOUS
 62
3
 10
-102.130560737688250
 20
54.979974686727871
  0
SEQEND
  8
0
  6
CONTINUOUS
 62
3
  0
LINE
  8
0
  6
CONTINUOUS
 62
3
 10
-108.740251555583650
 20
52.690556098927800
 11
-106.740251555583650
 21
53.866341584550696
  0
LINE
  8
0
  6
CONTINUOUS
 62
3
 10
-106.740251555583650
 20
53.866341584550696
 11
-104.740251555583650
 21
55.518983223674013
  0
LINE
  8
0
  6
CONTINUOUS
 62
3
 10
-104.740251555583650
 20
52.690556098927800
 11
-106.740251555583650
 21
53.866341584550696
  0
LINE
  8
0
  6
CONTINUOUS
 62
3
 10
-106.740251555583650
 20
53.866341584550696
 11
-108.740251555583650
 21
55.518983223674013
  0
ARC
  8
0
  6
CONTINUOUS
 62
3
 10
-102.740251555583650
 20
45.670566246466819
 40
3.000000000000000
 50
90.000000000000000
 51
180.000000000000000
  0
LINE
  8
0
  6
CONTINUOUS
 62
3
 10
-105.740251555583650
 20
44.010262607275763
 11
-105.740251555583650
 21
45.670566246466819
  0
LINE
  8
0
  6
CONTINUOUS
 62
3
 10
-95.740251555583654
 20
162.010262607275760
 11
-95.740251555583427
 21
103.010262607275760
  0
POLYLINE
  8
0
  6
CONTINUOUS
 62
3
 66
1
 70
1
  0
VERTEX
  8
0
  6
CONTINUOUS
 62
3
 10
-102.040251555583430
 20
150.337593561623290
  0
VERTEX
  8
0
  6
CONTINUOUS
 62
3
 10
-102.130560737688250
 20
151.040550527823650
  0
VERTEX
  8
0
  6
CONTINUOUS
 62
3
 10
-102.398017752780390
 20
151.716493252035750
  0
VERTEX
  8
0
  6
CONTINUOUS
 62
3
 10
-102.832344377761470
 20
152.339445634441150
  0
VERTEX
  8
0
  6
CONTINUOUS
 62
3
 10
-103.416849684006660
 20
152.885467964339740
  0
VERTEX
  8
0
  6
CONTINUOUS
 62
3
 10
-104.129071460391300
 20
153.333576909806370
  0
VERTEX
  8
0
  6
CONTINUOUS
 62
3
 10
-104.941639423467500
 20
153.666551895369110
  0
VERTEX
  8
0
  6
CONTINUOUS
 62
3
 10
-105.823327042107620
 20
153.871596879067370
  0
VERTEX
  8
0
  6
CONTINUOUS
 62
3
 10
-106.740251555583420
 20
153.940832097168140
  0
VERTEX
  8
0
  6
CONTINUOUS
 62
3
 10
-107.657176069059230
 20
153.871596879067370
  0
VERTEX
  8
0
  6
CONTINUOUS
 62
3
 10
-108.538863687699340
 20
153.666551895369110
  0
VERTEX
  8
0
  6
CONTINUOUS
 62
3
 10
-109.351431650775550
 20
153.333576909806370
  0
VERTEX
  8
0
  6
CONTINUOUS
 62
3
 10
-110.063653427160190
 20
152.885467964339740
  0
VERTEX
  8
0
  6
CONTINUOUS
 62
3
 10
-110.648158733405380
 20
152.339445634441150
  0
VERTEX
  8
0
  6
CONTINUOUS
 62
3
 10
-111.082485358386460
 20
151.716493252035750
  0
VERTEX
  8
0
  6
CONTINUOUS
 62
3
 10
-111.349942373478590
 20
151.040550527823650
  0
VERTEX
  8
0
  6
CONTINUOUS
 62
3
 10
-111.440251555583410
 20
150.337593561623290
  0
VERTEX
  8
0
  6
CONTINUOUS
 62
3
 10
-111.349942373478590
 20
149.634636595422930
  0
VERTEX
  8
0
  6
CONTINUOUS
 62
3
 10
-111.082485358386460
 20
148.958693871210840
  0
VERTEX
  8
0
  6
CONTINUOUS
 62
3
 10
-110.648158733405380
 20
148.335741488805440
  0
VERTEX
  8
0
  6
CONTINUOUS
 62
3
 10
-110.063653427160190
 20
147.789719158906850
  0
VERTEX
  8
0
  6
CONTINUOUS
 62
3
 10
-109.351431650775550
 20
147.341610213440220
  0
VERTEX
  8
0
  6
CONTINUOUS
 62
3
 10
-108.538863687699340
 20
147.008635227877480
  0
VERTEX
  8
0
  6
CONTINUOUS
 62
3
 10
-107.657176069059230
 20
146.803590244179220
  0
VERTEX
  8
0
  6
CONTINUOUS
 62
3
 10
-106.740251555583420
 20
146.734355026078450
  0
VERTEX
  8
0
  6
CONTINUOUS
 62
3
 10
-105.823327042107620
 20
146.803590244179220
  0
VERTEX
  8
0
  6
CONTINUOUS
 62
3
 10
-104.941639423467500
 20
147.008635227877480
  0
VERTEX
  8
0
  6
CONTINUOUS
 62
3
 10
-104.129071460391300
 20
147.341610213440220
  0
VERTEX
  8
0
  6
CONTINUOUS
 62
3
 10
-103.416849684006660
 20
147.789719158906850
  0
VERTEX
  8
0
  6
CONTINUOUS
 62
3
 10
-102.832344377761470
 20
148.335741488805440
  0
VERTEX
  8
0
  6
CONTINUOUS
 62
3
 10
-102.398017752780390
 20
148.958693871210840
  0
VERTEX
  8
0
  6
CONTINUOUS
 62
3
 10
-102.130560737688250
 20
149.634636595422930
  0
SEQEND
  8
0
  6
CONTINUOUS
 62
3
  0
LINE
  8
0
  6
CONTINUOUS
 62
3
 10
-108.740251555583650
 20
153.329969115623730
 11
-106.740251555583650
 21
152.154183630000940
  0
LINE
  8
0
  6
CONTINUOUS
 62
3
 10
-106.740251555583650
 20
152.154183630000940
 11
-104.740251555583650
 21
150.501541990877510
  0
LINE
  8
0
  6
CONTINUOUS
 62
3
 10
-104.740251555583650
 20
153.329969115623730
 11
-106.740251555583650
 21
152.154183630000940
  0
LINE
  8
0
  6
CONTINUOUS
 62
3
 10
-106.740251555583650
 20
152.154183630000940
 11
-108.740251555583650
 21
150.501541990877510
  0
LINE
  8
0
  6
CONTINUOUS
 62
3
 10
24.759748444437491
 20
156.510262607275760
 11
-95.740251555583427
 21
156.510262607275760
  0
LINE
  8
0
  6
CONTINUOUS
 62
4
 10
-95.740251555583427
 20
154.010262607275760
 11
42.259748444436582
 21
154.010262607275760
  0
LINE
  8
0
  6
CONTINUOUS
 62
4
 10
-95.740251555583427
 20
153.510262607275760
 11
42.259748444436582
 21
153.510262607275760
  0
LINE
  8
0
  6
CONTINUOUS
 62
4
 10
-95.740251555583427
 20
149.143345202158460
 11
42.259748444436582
 21
149.143345202158460
  0
LINE
  8
0
  6
CONTINUOUS
 62
4
 10
-95.740251555583427
 20
144.052176377615520
 11
42.259748444436582
 21
144.052176377615520
  0
LINE
  8
0
  6
CONTINUOUS
 62
4
 10
-95.740251555583427
 20
136.313863558784530
 11
39.259748444436582
 21
136.313863558784530
  0
LINE
  8
0
  6
CONTINUOUS
 62
4
 10
-95.740251555583427
 20
134.724653766045780
 11
39.259748444436582
 21
134.724653766045780
  0
LINE
  8
0
  6
CONTINUOUS
 62
4
 10
-95.740251555583427
 20
131.766658157912840
 11
42.259748444436582
 21
131.766658157912840
  0
LINE
  8
0
  6
CONTINUOUS
 62
4
 10
-95.740251555583427
 20
130.287635004435860
 11
42.259748444436582
 21
130.287635004435860
  0
LINE
  8
0
  6
CONTINUOUS
 62
4
 10
-95.740251555583427
 20
127.194904012770500
 11
42.259748444436582
 21
127.194904012770500
  0
LINE
  8
0
  6
CONTINUOUS
 62
4
 10
-95.740251555583427
 20
125.848502287271910
 11
42.259748444436582
 21
125.848502287271910
  0
LINE
  8
0
  6
CONTINUOUS
 62
4
 10
-95.740251555583427
 20
122.638297263913610
 11
42.259748444436582
 21
122.638297263913600
  0
LINE
  8
0
  6
CONTINUOUS
 62
4
 10
-95.740251555583427
 20
121.396377399025710
 11
42.259748444436582
 21
121.396377399025710
  0
LINE
  8
0
  6
CONTINUOUS
 62
4
 10
-95.740251555583427
 20
117.010262607275760
 11
42.259748444436582
 21
117.010262607275760
  0
LINE
  8
0
  6
CONTINUOUS
 62
4
 10
-95.740251555583200
 20
89.010262607275763
 11
42.259748444436582
 21
89.010262607275763
  0
LINE
  8
0
  6
CONTINUOUS
 62
4
 10
-95.740251555583200
 20
84.624147815525816
 11
42.259748444436582
 21
84.624147815525831
  0
LINE
  8
0
  6
CONTINUOUS
 62
4
 10
-95.740251555583200
 20
83.382227950637912
 11
42.259748444436582
 21
83.382227950637912
  0
LINE
  8
0
  6
CONTINUOUS
 62
4
 10
-95.740251555583200
 20
80.172022927279613
 11
42.259748444436582
 21
80.172022927279613
  0
LINE
  8
0
  6
CONTINUOUS
 62
4
 10
-95.740251555583200
 20
78.825621201781018
 11
42.259748444436582
 21
78.825621201781018
  0
LINE
  8
0
  6
CONTINUOUS
 62
4
 10
-95.740251555583200
 20
75.732890210115784
 11
42.259748444436582
 21
75.732890210115784
  0
LINE
  8
0
  6
CONTINUOUS
 62
4
 10
-95.740251555583200
 20
74.253867056638683
 11
42.259748444436582
 21
74.253867056638697
  0
LINE
  8
0
  6
CONTINUOUS
 62
4
 10
-95.740251555583200
 20
69.706661655767107
 11
39.259748444436582
 21
69.706661655767107
  0
LINE
  8
0
  6
CONTINUOUS
 62
4
 10
-95.740251555583200
 20
71.295871448505750
 11
39.259748444436582
 21
71.295871448505750
  0
LINE
  8
0
  6
CONTINUOUS
 62
4
 10
-95.740251555583200
 20
61.968348836936002
 11
42.259748444436582
 21
61.968348836936002
  0
LINE
  8
0
  6
CONTINUOUS
 62
4
 10
-95.740251555583200
 20
56.877180012393069
 11
42.259748444436582
 21
56.877180012393197
  0
LINE
  8
0
  6
CONTINUOUS
 62
4
 10
-95.740251555583200
 20
52.510262607275763
 11
42.259748444436582
 21
52.510262607275763
  0
LINE
  8
0
  6
CONTINUOUS
 62
4
 10
-95.740251555583200
 20
52.010262607275763
 11
42.259748444436582
 21
52.010262607275763
  0
LINE
  8
0
  6
CONTINUOUS
 62
3
 10
-28.740251555562281
 20
50.510262607275877
 11
-95.973720249980943
 21
50.510262607275877
  0
LINE
  8
0
  6
CONTINUOUS
 62
3
 10
-103.740251555562280
 20
45.510262607275763
 11
-103.740251555562280
 21
48.498993371220422
  0
LINE
  8
0
  6
CONTINUOUS
 62
3
 10
-105.740251555583650
 20
44.010262607275763
 11
-125.245096504676440
 21
44.010262607275763
  0
LINE
  8
0
  6
CONTINUOUS
 62
3
 10
-95.740251555583654
 20
162.010262607275760
 11
-125.245096504676440
 21
162.010262607275760
  0
ARC
  8
0
  6
CONTINUOUS
 62
3
 10
-125.245096504676440
 20
64.610262607275786
 40
20.599999999999891
 50
235.000000000000400
 51
270.000000000000000
  0
ARC
  8
0
  6
CONTINUOUS
 62
3
 10
-143.140251555583750
 20
55.166642473646448
 40
2.600000000000136
 50
180.000000000000000
 51
234.999999999997390
  0
LINE
  8
0
  6
CONTINUOUS
 62
3
 10
-137.060771093507810
 20
47.735730494922564
 11
-144.631550290096580
 21
53.036847158495107
  0
LINE
  8
0
  6
CONTINUOUS
 62
3
 10
-145.740251555583880
 20
55.166642473646448
 11
-145.740251555583880
 21
103.010262607275760
  0
ARC
  8
0
  6
CONTINUOUS
 62
3
 10
-125.245096504676440
 20
141.410262607275740
 40
20.600000000000023
 50
90.000000000000000
 51
124.999999999999600
  0
ARC
  8
0
  6
CONTINUOUS
 62
3
 10
-143.140251555583750
 20
150.853882740905080
 40
2.600000000000131
 50
125.000000000001180
 51
180.000000000000000
  0
LINE
  8
0
  6
CONTINUOUS
 62
3
 10
-137.060771093507810
 20
158.284794719629080
 11
-144.631550290096580
 21
152.983678056056420
  0
LINE
  8
0
  6
CONTINUOUS
 62
3
 10
-145.740251555583880
 20
150.853882740905080
 11
-145.740251555583650
 21
103.010262607275760
  0
LINE
  8
0
  6
DASHDOT
 62
4
 10
185.045903047571070
 20
103.010262607275760
 11
-167.121396273296110
 21
103.010262607275760
  0
LINE
  8
0
  6
DASHDOT
 62
4
 10
-100.325940662145850
 20
31.010262607275877
 11
-79.839352428436541
 21
31.010262607275877
  0
LINE
  8
0
  6
DASHDOT
 62
4
 10
-91.240251555562281
 20
22.066105349599752
 11
-91.240251555562281
 21
43.614594330131808
  0
LINE
  8
0
  6
DASHDOT
 62
4
 10
-52.523780971288943
 20
31.010262607275877
 11
-30.756803562760638
 21
31.010262607275877
  0
LINE
  8
0
  6
DASHDOT
 62
4
 10
-41.240251555562281
 20
22.066105349599752
 11
-41.240251555562281
 21
44.045607482135097
  0
ARC
  8
0
  6
DASHED
 62
4
 10
-91.240251555562281
 20
31.010262607275877
 40
7.000000000000000
 50
180.000000000000000
 51
0.000000000000000
  0
LINE
  8
0
  6
DASHED
 62
4
 10
-98.240251555562281
 20
31.010262607275877
 11
-98.240251555562281
 21
45.510262607275877
  0
LINE
  8
0
  6
DASHED
 62
4
 10
-84.240251555562281
 20
31.010262607275877
 11
-84.240251555562281
 21
45.510262607275877
  0
CIRCLE
  8
0
  6
DASHED
 62
4
 10
-41.240251555562281
 20
31.010262607275877
 40
6.000000000000000
  0
ARC
  8
0
  6
DASHED
 62
4
 10
-41.240251555562281
 20
31.010262607275877
 40
7.000000000000000
 50
180.000000000000000
 51
0.000000000000000
  0
LINE
  8
0
  6
DASHED
 62
4
 10
-48.240251555562281
 20
31.010262607275877
 11
-48.240251555562281
 21
45.510262607275877
  0
LINE
  8
0
  6
DASHED
 62
4
 10
-34.240251555562281
 20
31.010262607275877
 11
-34.240251555562281
 21
45.510262607275877
  0
ARC
  8
0
  6
CONTINUOUS
 62
3
 10
318.818953560265070
 20
-116.480392578811910
 40
43.283778524804312
 50
26.056903281673080
 51
60.989001274772832
  0
ARC
  8
0
  6
CONTINUOUS
 62
3
 10
343.012085699729140
 20
-187.685350164379540
 40
10.000000000000242
 50
44.999999999999083
 51
120.522487814069530
  0
ARC
  8
0
  6
CONTINUOUS
 62
3
 10
-30.740251555562281
 20
-102.879519652708040
 40
1.000000000000000
 50
0.000000000000000
 51
90.000000000000000
  0
ARC
  8
0
  6
CONTINUOUS
 62
3
 10
-101.740251555562280
 20
-102.879519652708040
 40
1.000000000000000
 50
90.000000000000000
 51
180.000000000000000
  0
LINE
  8
0
  6
CONTINUOUS
 62
3
 10
-29.740251555562281
 20
-102.879519652708040
 11
-29.740251555562281
 21
-131.879519652708040
  0
LINE
  8
0
  6
CONTINUOUS
 62
3
 10
-102.740251555562280
 20
-131.879519652708040
 11
-102.740251555562280
 21
-102.879519652708040
  0
LINE
  8
0
  6
CONTINUOUS
 62
3
 10
-30.740251555562281
 20
-101.879519652708040
 11
-101.740251555562280
 21
-101.879519652708040
  0
LINE
  8
0
  6
CONTINUOUS
 62
4
 10
-28.740251555562281
 20
-103.123124102070960
 11
24.759748444437491
 21
-103.123124102070960
  0
LINE
  8
0
  6
CONTINUOUS
 62
4
 10
-28.740251555562281
 20
-104.602147255548060
 11
24.759748444437491
 21
-104.602147255548060
  0
LINE
  8
0
  6
CONTINUOUS
 62
4
 10
-28.740251555562281
 20
-107.694878247213290
 11
24.759748444437491
 21
-107.694878247213290
  0
LINE
  8
0
  6
CONTINUOUS
 62
4
 10
-28.740251555562281
 20
-109.041279972711890
 11
24.759748444437491
 21
-109.041279972711890
  0
LINE
  8
0
  6
CONTINUOUS
 62
4
 10
-28.740251555562281
 20
-111.879519652708040
 11
24.759748444437491
 21
-111.879519652708040
  0
LINE
  8
0
  6
CONTINUOUS
 62
4
 10
-95.897851901954709
 20
-91.839084246183575
 11
24.759748444437491
 21
-91.839084246183575
  0
LINE
  8
0
  6
CONTINUOUS
 62
4
 10
-95.740251555583427
 20
-87.374864125603153
 11
24.759748444437491
 21
-87.374864125603153
  0
LINE
  8
0
  6
CONTINUOUS
 62
4
 10
-105.740251555583420
 20
-109.041279972711890
 11
-103.740251555562280
 21
-109.041279972711890
  0
LINE
  8
0
  6
CONTINUOUS
 62
4
 10
-105.740251555583420
 20
-107.694878247213290
 11
-103.740251555562280
 21
-107.694878247213290
  0
LINE
  8
0
  6
CONTINUOUS
 62
4
 10
-105.740251555583420
 20
-104.602147255548060
 11
-103.740251555562280
 21
-104.602147255548060
  0
LINE
  8
0
  6
CONTINUOUS
 62
4
 10
-105.740251555583420
 20
-103.123124102070960
 11
-103.740251555562280
 21
-103.123124102070960
  0
LINE
  8
0
  6
CONTINUOUS
 62
4
 10
-105.740251555583420
 20
-100.165128493938020
 11
24.759748444437491
 21
-100.165128493938020
  0
LINE
  8
0
  6
CONTINUOUS
 62
4
 10
-105.740251555583420
 20
-98.575918701199271
 11
24.759748444437491
 21
-98.575918701199271
  0
LINE
  8
0
  6
CONTINUOUS
 62
4
 10
-105.740251555583420
 20
-111.879519652708040
 11
-103.740251555562280
 21
-111.879519652708040
  0
LINE
  8
0
  6
CONTINUOUS
 62
4
 10
-95.740251555583427
 20
-90.837605882368280
 11
24.759748444437491
 21
-90.837605882368280
  0
LINE
  8
0
  6
CONTINUOUS
 62
4
 10
-95.740251555583427
 20
-85.746437057825347
 11
24.759748444437491
 21
-85.746437057825347
  0
LINE
  8
0
  6
CONTINUOUS
 62
4
 10
-95.740251555583427
 20
-80.879519652707927
 11
24.759748444437491
 21
-80.879519652707927
  0
LINE
  8
0
  6
CONTINUOUS
 62
4
 10
-95.740251555583427
 20
-81.379519652708041
 11
24.759748444437491
 21
-81.379519652708041
  0
LINE
  8
0
  6
DASHDOT
 62
4
 10
58.726212131098919
 20
-131.879519652708040
 11
-160.502275922150830
 21
-131.879519652708040
  0
ARC
  8
0
  6
CONTINUOUS
 62
3
 10
-101.740251555562280
 20
-102.379519652708040
 40
2.000000000000000
 50
90.000000000000000
 51
180.000000000000000
  0
ARC
  8
0
  6
CONTINUOUS
 62
3
 10
-30.740251555562281
 20
-102.379519652708040
 40
2.000000000000000
 50
0.000000000000000
 51
90.000000000000000
  0
LINE
  8
0
  6
CONTINUOUS
 62
3
 10
-30.740251555562281
 20
-100.379519652708040
 11
-101.740251555562280
 21
-100.379519652708040
  0
LINE
  8
0
  6
CONTINUOUS
 62
3
 10
-28.740251555562281
 20
-131.879519652708040
 11
-28.740251555562281
 21
-102.379519652708040
  0
LINE
  8
0
  6
CONTINUOUS
 62
3
 10
-103.740251555562280
 20
-131.879519652708040
 11
-103.740251555562280
 21
-102.379519652708040
  0
LINE
  8
0
  6
CONTINUOUS
 62
3
 10
24.759748444437491
 20
-79.379519652708041
 11
-95.740251555583427
 21
-79.379519652708041
  0
LINE
  8
0
  6
CONTINUOUS
 62
3
 10
-95.740251555583427
 20
-77.879519652707813
 11
-125.245096504676440
 21
-77.879519652707813
  0
LINE
  8
0
  6
CONTINUOUS
 62
3
 10
-137.060771093507810
 20
-81.604987540354500
 11
-144.631550290096580
 21
-86.906104203927043
  0
LINE
  8
0
  6
CONTINUOUS
 62
3
 10
-145.740251555583650
 20
-89.035899519078498
 11
-145.740251555583650
 21
-131.879519652708040
  0
ARC
  8
0
  6
CONTINUOUS
 62
3
 10
-143.140251555583750
 20
-89.035899519078498
 40
2.600000000000131
 50
125.000000000001180
 51
180.000000000000000
  0
ARC
  8
0
  6
CONTINUOUS
 62
3
 10
-125.245096504676440
 20
-98.479519652707836
 40
20.600000000000023
 50
90.000000000000000
 51
124.999999999999600
  0
LINE
  8
0
  6
CONTINUOUS
 62
3
 10
-106.740251555583650
 20
-82.735598629982860
 11
-108.740251555583420
 21
-84.388240269106291
  0
LINE
  8
0
  6
CONTINUOUS
 62
3
 10
-104.740251555583420
 20
-81.559813144360078
 11
-106.740251555583650
 21
-82.735598629982860
  0
LINE
  8
0
  6
CONTINUOUS
 62
3
 10
-106.740251555583650
 20
-82.735598629982860
 11
-104.740251555583420
 21
-84.388240269106291
  0
LINE
  8
0
  6
CONTINUOUS
 62
3
 10
-108.740251555583420
 20
-81.559813144360078
 11
-106.740251555583650
 21
-82.735598629982860
  0
POLYLINE
  8
0
  6
CONTINUOUS
 62
3
 66
1
 70
1
  0
VERTEX
  8
0
  6
CONTINUOUS
 62
3
 10
-102.040251555583210
 20
-84.552188698360396
  0
VERTEX
  8
0
  6
CONTINUOUS
 62
3
 10
-102.130560737688020
 20
-83.849231732160035
  0
VERTEX
  8
0
  6
CONTINUOUS
 62
3
 10
-102.398017752780160
 20
-83.173289007947943
  0
VERTEX
  8
0
  6
CONTINUOUS
 62
3
 10
-102.832344377761240
 20
-82.550336625542542
  0
VERTEX
  8
0
  6
CONTINUOUS
 62
3
 10
-103.416849684006430
 20
-82.004314295643965
  0
VERTEX
  8
0
  6
CONTINUOUS
 62
3
 10
-104.129071460391070
 20
-81.556205350177351
  0
VERTEX
  8
0
  6
CONTINUOUS
 62
3
 10
-104.941639423467270
 20
-81.223230364614579
  0
VERTEX
  8
0
  6
CONTINUOUS
 62
3
 10
-105.823327042107390
 20
-81.018185380916336
  0
VERTEX
  8
0
  6
CONTINUOUS
 62
3
 10
-106.740251555583200
 20
-80.948950162815564
  0
VERTEX
  8
0
  6
CONTINUOUS
 62
3
 10
-107.657176069059000
 20
-81.018185380916336
  0
VERTEX
  8
0
  6
CONTINUOUS
 62
3
 10
-108.538863687699120
 20
-81.223230364614579
  0
VERTEX
  8
0
  6
CONTINUOUS
 62
3
 10
-109.351431650775320
 20
-81.556205350177351
  0
VERTEX
  8
0
  6
CONTINUOUS
 62
3
 10
-110.063653427159960
 20
-82.004314295643965
  0
VERTEX
  8
0
  6
CONTINUOUS
 62
3
 10
-110.648158733405150
 20
-82.550336625542542
  0
VERTEX
  8
0
  6
CONTINUOUS
 62
3
 10
-111.082485358386230
 20
-83.173289007947943
  0
VERTEX
  8
0
  6
CONTINUOUS
 62
3
 10
-111.349942373478370
 20
-83.849231732160035
  0
VERTEX
  8
0
  6
CONTINUOUS
 62
3
 10
-111.440251555583180
 20
-84.552188698360396
  0
VERTEX
  8
0
  6
CONTINUOUS
 62
3
 10
-111.349942373478370
 20
-85.255145664560757
  0
VERTEX
  8
0
  6
CONTINUOUS
 62
3
 10
-111.082485358386230
 20
-85.931088388772849
  0
VERTEX
  8
0
  6
CONTINUOUS
 62
3
 10
-110.648158733405150
 20
-86.554040771178251
  0
VERTEX
  8
0
  6
CONTINUOUS
 62
3
 10
-110.063653427159960
 20
-87.100063101076827
  0
VERTEX
  8
0
  6
CONTINUOUS
 62
3
 10
-109.351431650775320
 20
-87.548172046543442
  0
VERTEX
  8
0
  6
CONTINUOUS
 62
3
 10
-108.538863687699120
 20
-87.881147032106213
  0
VERTEX
  8
0
  6
CONTINUOUS
 62
3
 10
-107.657176069059000
 20
-88.086192015804457
  0
VERTEX
  8
0
  6
CONTINUOUS
 62
3
 10
-106.740251555583200
 20
-88.155427233905229
  0
VERTEX
  8
0
  6
CONTINUOUS
 62
3
 10
-105.823327042107390
 20
-88.086192015804457
  0
VERTEX
  8
0
  6
CONTINUOUS
 62
3
 10
-104.941639423467270
 20
-87.881147032106213
  0
VERTEX
  8
0
  6
CONTINUOUS
 62
3
 10
-104.129071460391070
 20
-87.548172046543442
  0
VERTEX
  8
0
  6
CONTINUOUS
 62
3
 10
-103.416849684006430
 20
-87.100063101076827
  0
VERTEX
  8
0
  6
CONTINUOUS
 62
3
 10
-102.832344377761240
 20
-86.554040771178251
  0
VERTEX
  8
0
  6
CONTINUOUS
 62
3
 10
-102.398017752780160
 20
-85.931088388772849
  0
VERTEX
  8
0
  6
CONTINUOUS
 62
3
 10
-102.130560737688020
 20
-85.255145664560757
  0
SEQEND
  8
0
  6
CONTINUOUS
 62
3
  0
ARC
  8
0
  6
CONTINUOUS
 62
3
 10
-98.740251555583427
 20
-90.879519652708041
 40
3.000000000000000
 50
270.000000000000000
 51
0.000000000000000
  0
LINE
  8
0
  6
CONTINUOUS
 62
3
 10
-95.740251555583427
 20
-77.879519652707813
 11
-95.740251555583427
 21
-90.879519652708041
  0
ARC
  8
0
  6
CONTINUOUS
 62
3
 10
-102.740251555583420
 20
-96.879519652708041
 40
3.000000000000000
 50
90.000000000000000
 51
180.000000000000000
  0
LINE
  8
0
  6
CONTINUOUS
 62
3
 10
-98.740251555583427
 20
-93.879519652708041
 11
-102.740251555583420
 21
-93.879519652708041
  0
LINE
  8
0
  6
CONTINUOUS
 62
3
 10
-105.740251555583420
 20
-131.879519652708040
 11
-105.740251555583420
 21
-96.879519652708041
  0
LINE
  8
0
  6
CONTINUOUS
 62
3
 10
-29.740251555562281
 20
-160.879519652708040
 11
-29.740251555562281
 21
-131.879519652708040
  0
LINE
  8
0
  6
CONTINUOUS
 62
3
 10
-102.740251555562280
 20
-131.879519652708040
 11
-102.740251555562280
 21
-160.879519652708040
  0
LINE
  8
0
  6
CONTINUOUS
 62
3
 10
-137.060771093507810
 20
-182.154051765061470
 11
-144.631550290096580
 21
-176.852935101488920
  0
LINE
  8
0
  6
CONTINUOUS
 62
3
 10
-145.740251555583650
 20
-174.723139786337580
 11
-145.740251555583650
 21
-131.879519652708040
  0
ARC
  8
0
  6
CONTINUOUS
 62
3
 10
-143.140251555583750
 20
-174.723139786337580
 40
2.599999999999909
 50
180.000000000000000
 51
234.999999999997390
  0
ARC
  8
0
  6
CONTINUOUS
 62
3
 10
-125.245096504676440
 20
-165.279519652708250
 40
20.599999999999891
 50
235.000000000000400
 51
270.000000000000000
  0
LINE
  8
0
  6
CONTINUOUS
 62
3
 10
-95.740251555583427
 20
-185.879519652708270
 11
-125.245096504676440
 21
-185.879519652708270
  0
LINE
  8
0
  6
CONTINUOUS
 62
4
 10
-105.740251555583420
 20
-151.879519652708040
 11
-103.740251555562280
 21
-151.879519652708040
  0
LINE
  8
0
  6
CONTINUOUS
 62
4
 10
-105.740251555583420
 20
-154.717759332704190
 11
-103.740251555562280
 21
-154.717759332704190
  0
LINE
  8
0
  6
CONTINUOUS
 62
4
 10
-105.740251555583420
 20
-156.064161058202790
 11
-103.740251555562280
 21
-156.064161058202790
  0
LINE
  8
0
  6
CONTINUOUS
 62
4
 10
-105.740251555583420
 20
-159.156892049868020
 11
-103.740251555562280
 21
-159.156892049868020
  0
LINE
  8
0
  6
CONTINUOUS
 62
4
 10
-105.740251555583420
 20
-160.635915203345120
 11
-103.740251555562280
 21
-160.635915203345120
  0
LINE
  8
0
  6
CONTINUOUS
 62
4
 10
-105.740251555583420
 20
-163.593910811478050
 11
24.759748444437491
 21
-163.593910811478050
  0
LINE
  8
0
  6
CONTINUOUS
 62
4
 10
-105.740251555583420
 20
-165.183120604216700
 11
24.759748444437491
 21
-165.183120604216700
  0
LINE
  8
0
  6
CONTINUOUS
 62
4
 10
-95.897851901954709
 20
-171.919955059232390
 11
24.759748444437491
 21
-171.919955059232390
  0
LINE
  8
0
  6
CONTINUOUS
 62
4
 10
-95.740251555583427
 20
-172.921433423047690
 11
24.759748444437491
 21
-172.921433423047690
  0
LINE
  8
0
  6
CONTINUOUS
 62
4
 10
-95.740251555583427
 20
-176.384175179812930
 11
24.759748444437491
 21
-176.384175179812930
  0
LINE
  8
0
  6
CONTINUOUS
 62
4
 10
-95.740251555583427
 20
-178.012602247590730
 11
24.759748444437491
 21
-178.012602247590730
  0
LINE
  8
0
  6
CONTINUOUS
 62
4
 10
-95.740251555583427
 20
-182.879519652708040
 11
24.759748444437491
 21
-182.879519652708040
  0
LINE
  8
0
  6
CONTINUOUS
 62
4
 10
-95.740251555583427
 20
-182.379519652708040
 11
24.759748444437491
 21
-182.379519652708040
  0
LINE
  8
0
  6
CONTINUOUS
 62
3
 10
24.759748444437491
 20
-184.379519652708040
 11
-95.740251555583427
 21
-184.379519652708040
  0
LINE
  8
0
  6
CONTINUOUS
 62
3
 10
-106.740251555583650
 20
-181.023440675433110
 11
-108.740251555583420
 21
-179.370799036309790
  0
LINE
  8
0
  6
CONTINUOUS
 62
3
 10
-104.740251555583420
 20
-182.199226161056000
 11
-106.740251555583650
 21
-181.023440675433110
  0
LINE
  8
0
  6
CONTINUOUS
 62
3
 10
-106.740251555583650
 20
-181.023440675433110
 11
-104.740251555583420
 21
-179.370799036309790
  0
LINE
  8
0
  6
CONTINUOUS
 62
3
 10
-108.740251555583420
 20
-182.199226161056000
 11
-106.740251555583650
 21
-181.023440675433110
  0
POLYLINE
  8
0
  6
CONTINUOUS
 62
3
 66
1
 70
1
  0
VERTEX
  8
0
  6
CONTINUOUS
 62
3
 10
-102.040251555583210
 20
-179.206850607055570
  0
VERTEX
  8
0
  6
CONTINUOUS
 62
3
 10
-102.130560737688020
 20
-178.503893640855210
  0
VERTEX
  8
0
  6
CONTINUOUS
 62
3
 10
-102.398017752780160
 20
-177.827950916643120
  0
VERTEX
  8
0
  6
CONTINUOUS
 62
3
 10
-102.832344377761240
 20
-177.204998534237720
  0
VERTEX
  8
0
  6
CONTINUOUS
 62
3
 10
-103.416849684006430
 20
-176.658976204339130
  0
VERTEX
  8
0
  6
CONTINUOUS
 62
3
 10
-104.129071460391070
 20
-176.210867258872500
  0
VERTEX
  8
0
  6
CONTINUOUS
 62
3
 10
-104.941639423467270
 20
-175.877892273309750
  0
VERTEX
  8
0
  6
CONTINUOUS
 62
3
 10
-105.823327042107390
 20
-175.672847289611500
  0
VERTEX
  8
0
  6
CONTINUOUS
 62
3
 10
-106.740251555583200
 20
-175.603612071510720
  0
VERTEX
  8
0
  6
CONTINUOUS
 62
3
 10
-107.657176069059000
 20
-175.672847289611500
  0
VERTEX
  8
0
  6
CONTINUOUS
 62
3
 10
-108.538863687699120
 20
-175.877892273309750
  0
VERTEX
  8
0
  6
CONTINUOUS
 62
3
 10
-109.351431650775320
 20
-176.210867258872500
  0
VERTEX
  8
0
  6
CONTINUOUS
 62
3
 10
-110.063653427159960
 20
-176.658976204339130
  0
VERTEX
  8
0
  6
CONTINUOUS
 62
3
 10
-110.648158733405150
 20
-177.204998534237720
  0
VERTEX
  8
0
  6
CONTINUOUS
 62
3
 10
-111.082485358386230
 20
-177.827950916643120
  0
VERTEX
  8
0
  6
CONTINUOUS
 62
3
 10
-111.349942373478370
 20
-178.503893640855210
  0
VERTEX
  8
0
  6
CONTINUOUS
 62
3
 10
-111.440251555583180
 20
-179.206850607055570
  0
VERTEX
  8
0
  6
CONTINUOUS
 62
3
 10
-111.349942373478370
 20
-179.909807573255930
  0
VERTEX
  8
0
  6
CONTINUOUS
 62
3
 10
-111.082485358386230
 20
-180.585750297468020
  0
VERTEX
  8
0
  6
CONTINUOUS
 62
3
 10
-110.648158733405150
 20
-181.208702679873430
  0
VERTEX
  8
0
  6
CONTINUOUS
 62
3
 10
-110.063653427159960
 20
-181.754725009772020
  0
VERTEX
  8
0
  6
CONTINUOUS
 62
3
 10
-109.351431650775320
 20
-182.202833955238650
  0
VERTEX
  8
0
  6
CONTINUOUS
 62
3
 10
-108.538863687699120
 20
-182.535808940801390
  0
VERTEX
  8
0
  6
CONTINUOUS
 62
3
 10
-107.657176069059000
 20
-182.740853924499650
  0
VERTEX
  8
0
  6
CONTINUOUS
 62
3
 10
-106.740251555583200
 20
-182.810089142600420
  0
VERTEX
  8
0
  6
CONTINUOUS
 62
3
 10
-105.823327042107390
 20
-182.740853924499650
  0
VERTEX
  8
0
  6
CONTINUOUS
 62
3
 10
-104.941639423467270
 20
-182.535808940801390
  0
VERTEX
  8
0
  6
CONTINUOUS
 62
3
 10
-104.129071460391070
 20
-182.202833955238650
  0
VERTEX
  8
0
  6
CONTINUOUS
 62
3
 10
-103.416849684006430
 20
-181.754725009772020
  0
VERTEX
  8
0
  6
CONTINUOUS
 62
3
 10
-102.832344377761240
 20
-181.208702679873430
  0
VERTEX
  8
0
  6
CONTINUOUS
 62
3
 10
-102.398017752780160
 20
-180.585750297468020
  0
VERTEX
  8
0
  6
CONTINUOUS
 62
3
 10
-102.130560737688020
 20
-179.909807573255930
  0
SEQEND
  8
0
  6
CONTINUOUS
 62
3
  0
ARC
  8
0
  6
CONTINUOUS
 62
3
 10
-98.740251555583427
 20
-172.879519652708040
 40
3.000000000000000
 50
0.000000000000000
 51
90.000000000000000
  0
LINE
  8
0
  6
CONTINUOUS
 62
3
 10
-95.740251555583427
 20
-185.879519652708270
 11
-95.740251555583427
 21
-172.879519652708040
  0
ARC
  8
0
  6
CONTINUOUS
 62
3
 10
-102.740251555583420
 20
-166.879519652708040
 40
3.000000000000000
 50
180.000000000000000
 51
270.000000000000000
  0
LINE
  8
0
  6
CONTINUOUS
 62
3
 10
-98.740251555583427
 20
-169.879519652708040
 11
-102.740251555583420
 21
-169.879519652708040
  0
LINE
  8
0
  6
CONTINUOUS
 62
3
 10
-105.740251555583420
 20
-131.879519652708040
 11
-105.740251555583420
 21
-166.879519652708040
  0
ARC
  8
0
  6
CONTINUOUS
 62
3
 10
-30.740251555562281
 20
-160.879519652708040
 40
1.000000000000000
 50
270.000000000000000
 51
0.000000000000000
  0
ARC
  8
0
  6
CONTINUOUS
 62
3
 10
-101.740251555562280
 20
-160.879519652708040
 40
1.000000000000000
 50
180.000000000000000
 51
270.000000000000000
  0
LINE
  8
0
  6
CONTINUOUS
 62
3
 10
-30.740251555562281
 20
-161.879519652708040
 11
-101.740251555562280
 21
-161.879519652708040
  0
LINE
  8
0
  6
CONTINUOUS
 62
4
 10
-28.740251555562281
 20
-160.635915203345120
 11
24.759748444437491
 21
-160.635915203345120
  0
LINE
  8
0
  6
CONTINUOUS
 62
4
 10
-28.740251555562281
 20
-159.156892049868020
 11
24.759748444437491
 21
-159.156892049868020
  0
LINE
  8
0
  6
CONTINUOUS
 62
4
 10
-28.740251555562281
 20
-156.064161058202790
 11
24.759748444437491
 21
-156.064161058202790
  0
LINE
  8
0
  6
CONTINUOUS
 62
4
 10
-28.740251555562281
 20
-154.717759332704190
 11
24.759748444437491
 21
-154.717759332704190
  0
LINE
  8
0
  6
CONTINUOUS
 62
4
 10
-28.740251555562281
 20
-151.879519652708040
 11
24.759748444437491
 21
-151.879519652708040
  0
ARC
  8
0
  6
CONTINUOUS
 62
3
 10
-101.740251555562280
 20
-161.379519652708040
 40
2.000000000000000
 50
180.000000000000000
 51
270.000000000000000
  0
ARC
  8
0
  6
CONTINUOUS
 62
3
 10
-30.740251555562281
 20
-161.379519652708040
 40
2.000000000000000
 50
270.000000000000000
 51
0.000000000000000
  0
LINE
  8
0
  6
CONTINUOUS
 62
3
 10
-30.740251555562281
 20
-163.379519652708040
 11
-101.740251555562280
 21
-163.379519652708040
  0
LINE
  8
0
  6
CONTINUOUS
 62
3
 10
-28.740251555562281
 20
-131.879519652708040
 11
-28.740251555562281
 21
-161.379519652708040
  0
LINE
  8
0
  6
CONTINUOUS
 62
3
 10
-103.740251555562280
 20
-131.879519652708040
 11
-103.740251555562280
 21
-161.379519652708040
  0
LINE
  8
0
  6
CONTINUOUS
 62
4
 10
24.759748444437491
 20
-182.379519652708040
 11
42.259748444436582
 21
-182.379519652708040
  0
LINE
  8
0
  6
CONTINUOUS
 62
4
 10
24.759748444437491
 20
-182.879519652708270
 11
42.259748444436582
 21
-182.879519652708270
  0
LINE
  8
0
  6
CONTINUOUS
 62
4
 10
24.759748444437491
 20
-178.012602247590850
 11
42.259748444436582
 21
-178.012602247590850
  0
LINE
  8
0
  6
CONTINUOUS
 62
4
 10
24.759748444437491
 20
-176.384175179812930
 11
42.259748444436582
 21
-176.384175179812930
  0
LINE
  8
0
  6
CONTINUOUS
 62
4
 10
24.759748444437491
 20
-172.921433423047800
 11
42.259748444436582
 21
-172.921433423047800
  0
LINE
  8
0
  6
CONTINUOUS
 62
4
 10
24.759748444437491
 20
-171.919955059232510
 11
42.259748444436582
 21
-171.919955059232510
  0
LINE
  8
0
  6
CONTINUOUS
 62
4
 10
24.759748444437491
 20
-165.183120604216810
 11
42.259748444436582
 21
-165.183120604216810
  0
LINE
  8
0
  6
CONTINUOUS
 62
4
 10
24.759748444437491
 20
-163.593910811478050
 11
42.259748444436582
 21
-163.593910811478050
  0
LINE
  8
0
  6
CONTINUOUS
 62
4
 10
24.759748444437491
 20
-160.635915203345120
 11
42.259748444436582
 21
-160.635915203345120
  0
LINE
  8
0
  6
CONTINUOUS
 62
4
 10
24.759748444437491
 20
-159.156892049868020
 11
42.259748444436582
 21
-159.156892049868020
  0
LINE
  8
0
  6
CONTINUOUS
 62
4
 10
24.759748444437491
 20
-156.064161058202670
 11
42.259748444436582
 21
-156.064161058202670
  0
LINE
  8
0
  6
CONTINUOUS
 62
4
 10
24.759748444437491
 20
-154.717759332704190
 11
42.259748444436582
 21
-154.717759332704190
  0
LINE
  8
0
  6
CONTINUOUS
 62
4
 10
24.759748444437491
 20
-151.879519652708040
 11
42.259748444436582
 21
-151.879519652708040
  0
LINE
  8
0
  6
CONTINUOUS
 62
4
 10
24.759748444437491
 20
-111.879519652708040
 11
41.259748444436589
 21
-111.879519652708040
  0
LINE
  8
0
  6
CONTINUOUS
 62
4
 10
24.759748444437491
 20
-109.041279972711890
 11
41.259748444436589
 21
-109.041279972711890
  0
LINE
  8
0
  6
CONTINUOUS
 62
4
 10
24.759748444437491
 20
-107.694878247213180
 11
41.259748444436589
 21
-107.694878247213180
  0
LINE
  8
0
  6
CONTINUOUS
 62
4
 10
24.759748444437491
 20
-103.123124102070960
 11
42.259748444436582
 21
-103.123124102070960
  0
LINE
  8
0
  6
CONTINUOUS
 62
4
 10
24.759748444437491
 20
-104.602147255548060
 11
41.950985992327091
 21
-104.602147255548060
  0
LINE
  8
0
  6
CONTINUOUS
 62
4
 10
24.759748444437491
 20
-100.165128493938020
 11
42.259748444436582
 21
-100.165128493938020
  0
LINE
  8
0
  6
CONTINUOUS
 62
4
 10
24.759748444437491
 20
-98.575918701199271
 11
42.259748444436582
 21
-98.575918701199271
  0
LINE
  8
0
  6
CONTINUOUS
 62
4
 10
24.759748444437491
 20
-91.839084246183575
 11
42.259748444436582
 21
-91.839084246183575
  0
LINE
  8
0
  6
CONTINUOUS
 62
4
 10
24.759748444437491
 20
-90.837605882368280
 11
42.259748444436582
 21
-90.837605882368280
  0
LINE
  8
0
  6
CONTINUOUS
 62
4
 10
24.759748444437491
 20
-87.374864125603153
 11
42.259748444436582
 21
-87.374864125603153
  0
LINE
  8
0
  6
CONTINUOUS
 62
4
 10
24.759748444437491
 20
-85.746437057825460
 11
42.259748444436582
 21
-85.746437057825460
  0
LINE
  8
0
  6
CONTINUOUS
 62
4
 10
24.759748444437491
 20
-80.879519652708041
 11
42.259748444436582
 21
-80.879519652708041
  0
LINE
  8
0
  6
CONTINUOUS
 62
4
 10
24.759748444437491
 20
-81.379519652708041
 11
42.259748444436582
 21
-81.379519652708041
  0
ARC
  8
0
  6
CONTINUOUS
 62
3
 10
318.818953560265070
 20
-116.480392578811910
 40
43.283778524804298
 50
59.292619216613510
 51
60.989001274772242
  0
LINE
  8
0
  6
CONTINUOUS
 62
3
 10
118.259748444437260
 20
-191.866426691922240
 11
118.259748444437710
 21
-196.371944326601810
  0
LINE
  8
0
  6
CONTINUOUS
 62
3
 10
118.259748444436800
 20
-104.879519652707130
 11
118.259748444437260
 21
-50.850082401184409
  0
LINE
  8
0
  6
CONTINUOUS
 62
3
 10
118.259748444436350
 20
-172.908956904229850
 11
118.259748444436800
 21
-118.879519652707130
  0
ARC
  8
0
  6
CONTINUOUS
 62
3
 10
120.259748444437030
 20
-154.572651792171200
 40
2.000000000000000
 50
180.000000000000000
 51
270.000000000000000
  0
LINE
  8
0
  6
CONTINUOUS
 62
3
 10
120.259748444437030
 20
-156.572651792171200
 11
125.259748444437490
 21
-156.572651792171200
  0
ARC
  8
0
  6
CONTINUOUS
 62
3
 10
120.259748444436800
 20
-118.879519652707130
 40
2.000000000000000
 50
90.000000000000000
 51
180.000000000000000
  0
LINE
  8
0
  6
CONTINUOUS
 62
3
 10
120.259748444436800
 20
-116.879519652707130
 11
125.259748444437490
 21
-116.879519652707130
  0
LINE
  8
0
  6
CONTINUOUS
 62
3
 10
125.259748444437490
 20
-174.908956904229850
 11
120.259748444437030
 21
-174.908956904229850
  0
ARC
  8
0
  6
CONTINUOUS
 62
3
 10
120.259748444437030
 20
-172.908956904229850
 40
1.999999999999773
 50
180.000000000000000
 51
270.000000000000000
  0
ARC
  8
0
  6
CONTINUOUS
 62
3
 10
120.259748444437030
 20
-69.186387513243062
 40
2.000000000000000
 50
90.000000000000000
 51
180.000000000000000
  0
LINE
  8
0
  6
CONTINUOUS
 62
3
 10
120.259748444437030
 20
-67.186387513243062
 11
125.259748444437490
 21
-67.186387513243062
  0
ARC
  8
0
  6
CONTINUOUS
 62
3
 10
120.259748444436800
 20
-104.879519652707130
 40
2.000000000000000
 50
180.000000000000000
 51
270.000000000000000
  0
LINE
  8
0
  6
CONTINUOUS
 62
3
 10
120.259748444436800
 20
-106.879519652707130
 11
125.259748444437490
 21
-106.879519652707130
  0
LINE
  8
0
  6
CONTINUOUS
 62
3
 10
125.259748444437490
 20
-48.850082401184409
 11
120.259748444437030
 21
-48.850082401184409
  0
ARC
  8
0
  6
CONTINUOUS
 62
3
 10
120.259748444437030
 20
-50.850082401184409
 40
2.000000000000000
 50
90.000000000000000
 51
180.000000000000000
  0
LINE
  8
0
  6
CONTINUOUS
 62
3
 10
113.259748444436120
 20
-190.787526134724430
 11
113.259748444437490
 21
-32.971513170689832
  0
LINE
  8
0
  6
CONTINUOUS
 62
3
 10
125.259748444437490
 20
-111.879519652707130
 11
125.259748444437490
 21
-191.683125240938350
  0
LINE
  8
0
  6
CONTINUOUS
 62
3
 10
125.259748444437490
 20
-191.683125240938350
 11
117.759748444437490
 21
-191.879519652707130
  0
ARC
  8
0
  6
CONTINUOUS
 62
3
 10
114.259748444437490
 20
-190.787526134724430
 40
1.000000000000000
 50
180.000000000000000
 51
268.499999999997210
  0
LINE
  8
0
  6
CONTINUOUS
 62
3
 10
117.759748444437490
 20
-191.879519652707130
 11
114.233571496129570
 21
-191.787183459699920
  0
LINE
  8
0
  6
CONTINUOUS
 62
3
 10
132.930729552125290
 20
-89.280783786038228
 11
128.259748444436580
 21
-85.907297430484505
  0
LINE
  8
0
  6
CONTINUOUS
 62
3
 10
132.930729552125290
 20
-134.478255519376030
 11
128.259748444437040
 21
-137.851741874928850
  0
LINE
  8
0
  6
CONTINUOUS
 62
3
 10
128.259748444436580
 20
-111.879519652707130
 11
128.259748444437490
 21
-186.079519652706950
  0
LINE
  8
0
  6
CONTINUOUS
 62
3
 10
128.259748444436350
 20
-111.879519652707130
 11
128.259748444437490
 21
-37.679519652707313
  0
LINE
  8
0
  6
CONTINUOUS
 62
3
 10
125.259748444437490
 20
-111.879519652707130
 11
125.259748444437490
 21
-32.089007025260798
  0
LINE
  8
0
  6
CONTINUOUS
 62
3
 10
127.480422947700160
 20
-186.879519652707130
 11
125.259748444437490
 21
-186.879519652707130
  0
LINE
  8
0
  6
CONTINUOUS
 62
3
 10
127.480422947700160
 20
-36.879519652707131
 11
125.259748444437490
 21
-36.879519652707131
  0
LINE
  8
0
  6
CONTINUOUS
 62
3
 10
51.759748444436582
 20
-65.879519652707131
 11
51.759748444436582
 21
-195.879519652707130
  0
ARC
  8
0
  6
CONTINUOUS
 62
3
 10
131.759748444436580
 20
-132.856897062576540
 40
1.999999999999779
 50
305.837652954282420
 51
0.000000000000000
  0
ARC
  8
0
  6
CONTINUOUS
 62
3
 10
131.759748444436580
 20
-90.902142242837726
 40
2.000000000000000
 50
0.000000000000000
 51
54.162347045717610
  0
ARC
  8
0
  6
CONTINUOUS
 62
3
 10
97.560812350694050
 20
-62.079602124311350
 40
2.999999999999582
 50
270.999999999997610
 51
329.999999999998350
  0
ARC
  8
0
  6
CONTINUOUS
 62
3
 10
110.259748444437490
 20
-40.084399607877458
 40
2.999999999999853
 50
329.999999999998350
 51
0.000000000000000
  0
ARC
  8
0
  6
CONTINUOUS
 62
3
 10
117.759748444437490
 20
-196.371944326601810
 40
0.500000000000379
 50
269.138474265448620
 51
0.000000000000000
  0
ARC
  8
0
  6
CONTINUOUS
 62
3
 10
114.259748444437490
 20
-32.971513170689832
 40
0.999999999999931
 50
91.500000000002814
 51
180.000000000000000
  0
LINE
  8
0
  6
CONTINUOUS
 62
3
 10
127.480422947700160
 20
-36.879519652707131
 11
128.259748444437490
 21
-37.679519652707313
  0
LINE
  8
0
  6
CONTINUOUS
 62
3
 10
127.480422947700160
 20
-186.879519652707130
 11
128.259748444437490
 21
-186.079519652706950
  0
LINE
  8
0
  6
CONTINUOUS
 62
3
 10
100.158888562047190
 20
-63.579602124311350
 11
112.857824655790630
 21
-41.584399607877458
  0
LINE
  8
0
  6
CONTINUOUS
 62
3
 10
51.759748444436582
 20
-195.879519652707130
 11
117.752230497410890
 21
-196.871887803879870
  0
LINE
  8
0
  6
DASHDOT
 62
4
 10
185.704780162682480
 20
-111.879519652707130
 11
93.903866415180119
 21
-111.879519652707130
  0
LINE
  8
0
  6
CONTINUOUS
 62
3
 10
125.259748444437490
 20
-32.075914064475910
 11
117.759748444437490
 21
-31.879519652707131
  0
LINE
  8
0
  6
CONTINUOUS
 62
3
 10
117.759748444437490
 20
-31.879519652707131
 11
114.233571496129570
 21
-31.971855845714344
  0
LINE
  8
0
  6
CONTINUOUS
 62
3
 10
133.759748444436580
 20
-111.879519652707130
 11
133.759748444436580
 21
-90.902142242837726
  0
LINE
  8
0
  6
CONTINUOUS
 62
3
 10
133.759748444436580
 20
-111.879519652707130
 11
133.759748444436580
 21
-132.856897062576540
  0
LINE
  8
0
  6
CONTINUOUS
 62
3
 10
51.759748444436582
 20
-65.879519652707131
 11
101.980180431273530
 21
-65.002918751654761
  0
LINE
  8
0
  6
CONTINUOUS
 62
3
 10
111.407845619242600
 20
-71.788476576865833
 11
101.047475289941530
 21
-71.788476576865833
  0
LINE
  8
0
  6
CONTINUOUS
 62
3
 10
100.208481121189830
 20
-70.735886716628556
 11
112.541763726496810
 21
-56.283492324395411
  0
ARC
  8
0
  6
CONTINUOUS
 62
3
 10
110.259748444437260
 20
-54.336082184633597
 40
3.000000000000073
 50
319.523454666815210
 51
0.000000000000000
  0
ARC
  8
0
  6
CONTINUOUS
 62
3
 10
97.926465839129605
 20
-68.788476576865833
 40
3.000000000000000
 50
270.000000000000000
 51
319.523454666810440
  0
LINE
  8
0
  6
CONTINUOUS
 62
3
 10
100.208481121189830
 20
-67.079032467136130
 11
112.541763726496810
 21
-52.626638074902985
  0
ARC
  8
0
  6
CONTINUOUS
 62
3
 10
110.259748444437260
 20
-50.679227935141171
 40
3.000000000000073
 50
319.523454666815210
 51
0.000000000000000
  0
ARC
  8
0
  6
CONTINUOUS
 62
3
 10
97.926465839129605
 20
-65.131622327373407
 40
3.000000000000000
 50
270.000000000000000
 51
319.523454666810440
  0
LINE
  8
0
  6
DASHDOT
 62
4
 10
136.982582121446060
 20
-180.822430818395330
 11
104.145393409052070
 21
-180.822430818395330
  0
LINE
  8
0
  6
DASHDOT
 62
4
 10
136.982582121446060
 20
-42.936608487018930
 11
104.145393409052070
 21
-42.936608487018930
  0
ARC
  8
0
  6
CONTINUOUS
 62
3
 10
171.359748444436490
 20
-122.479519652707490
 40
0.399999999999636
 50
270.000000000000000
 51
0.000000000000000
  0
LINE
  8
0
  6
CONTINUOUS
 62
3
 10
171.759748444436580
 20
-111.879519652707130
 11
171.759748444436580
 21
-122.479519652707490
  0
LINE
  8
0
  6
CONTINUOUS
 62
3
 10
133.759748444436580
 20
-123.879519652707130
 11
135.359748444436490
 21
-123.879519652707130
  0
LINE
  8
0
  6
CONTINUOUS
 62
3
 10
171.359748444436490
 20
-122.879519652707130
 11
138.319556065571990
 21
-122.879519652707130
  0
LINE
  8
0
  6
CONTINUOUS
 62
3
 10
135.759748444436580
 20
-123.479519652707490
 11
135.359748444436490
 21
-123.879519652707130
  0
LINE
  8
0
  6
CONTINUOUS
 62
3
 10
138.319556065571990
 20
-122.879519652707130
 11
137.759748444436580
 21
-122.729519652707490
  0
LINE
  8
0
  6
CONTINUOUS
 62
3
 10
137.759748444436580
 20
-122.729519652707490
 11
136.559748444436310
 21
-122.729519652707490
  0
ARC
  8
0
  6
CONTINUOUS
 62
3
 10
136.559748444436310
 20
-123.529519652706760
 40
0.799999999999272
 50
90.000000000000000
 51
176.296803365782610
  0
LINE
  8
0
  6
CONTINUOUS
 62
3
 10
171.359748444436490
 20
-122.879519652707130
 11
138.319556065571990
 21
-122.879519652707130
  0
LINE
  8
0
  6
CONTINUOUS
 62
3
 10
135.759748444436580
 20
-123.479519652707490
 11
135.359748444436490
 21
-123.879519652707130
  0
LINE
  8
0
  6
CONTINUOUS
 62
3
 10
138.319556065571990
 20
-122.879519652707130
 11
137.759748444436580
 21
-122.729519652707490
  0
LINE
  8
0
  6
CONTINUOUS
 62
3
 10
137.759748444436580
 20
-122.729519652707490
 11
136.559748444436310
 21
-122.729519652707490
  0
LINE
  8
0
  6
CONTINUOUS
 62
3
 10
135.759748444436580
 20
-111.879519652707130
 11
135.759748444436580
 21
-123.479519652707490
  0
LINE
  8
0
  6
CONTINUOUS
 62
3
 10
133.759748444436580
 20
-123.879519652707130
 11
135.359748444436490
 21
-123.879519652707130
  0
LINE
  8
0
  6
CONTINUOUS
 62
3
 10
133.759748444436580
 20
-99.879519652707131
 11
135.359748444436490
 21
-99.879519652707131
  0
LINE
  8
0
  6
CONTINUOUS
 62
3
 10
135.759748444436580
 20
-100.279519652707670
 11
135.359748444436490
 21
-99.879519652707131
  0
LINE
  8
0
  6
CONTINUOUS
 62
3
 10
138.319556065571990
 20
-100.879519652707130
 11
137.759748444436580
 21
-101.029519652707670
  0
LINE
  8
0
  6
CONTINUOUS
 62
3
 10
137.759748444436580
 20
-101.029519652707670
 11
136.559748444436310
 21
-101.029519652707670
  0
ARC
  8
0
  6
CONTINUOUS
 62
3
 10
136.559748444436310
 20
-100.229519652707490
 40
0.799999999999783
 50
183.703196634282420
 51
270.000000000000000
  0
LINE
  8
0
  6
CONTINUOUS
 62
3
 10
135.759748444436580
 20
-100.279519652707670
 11
135.359748444436490
 21
-99.879519652707131
  0
LINE
  8
0
  6
CONTINUOUS
 62
3
 10
138.319556065571990
 20
-100.879519652707130
 11
137.759748444436580
 21
-101.029519652707670
  0
LINE
  8
0
  6
CONTINUOUS
 62
3
 10
137.759748444436580
 20
-101.029519652707670
 11
136.559748444436310
 21
-101.029519652707670
  0
LINE
  8
0
  6
CONTINUOUS
 62
3
 10
135.759748444436580
 20
-111.879519652707130
 11
135.759748444436580
 21
-100.279519652707670
  0
LINE
  8
0
  6
CONTINUOUS
 62
3
 10
133.759748444436580
 20
-99.879519652707131
 11
135.359748444436490
 21
-99.879519652707131
  0
ARC
  8
0
  6
CONTINUOUS
 62
3
 10
171.359748444436490
 20
-101.279519652707670
 40
0.400000000000091
 50
0.000000000000000
 51
90.000000000000000
  0
LINE
  8
0
  6
CONTINUOUS
 62
3
 10
171.359748444436490
 20
-100.879519652707130
 11
138.319556065571990
 21
-100.879519652707130
  0
LINE
  8
0
  6
CONTINUOUS
 62
3
 10
171.359748444436490
 20
-100.879519652707130
 11
138.319556065571990
 21
-100.879519652707130
  0
LINE
  8
0
  6
CONTINUOUS
 62
3
 10
171.759748444436580
 20
-111.879519652707130
 11
171.759748444436580
 21
-101.279519652707670
  0
ARC
  8
0
  6
CONTINUOUS
 62
3
 10
142.759748444437040
 20
-111.879519652707130
 40
3.000000000000000
 50
90.000000000000000
 51
270.000000000000000
  0
LINE
  8
0
  6
CONTINUOUS
 62
3
 10
171.759748444436580
 20
-114.879519652707130
 11
142.759748444437040
 21
-114.879519652707130
  0
LINE
  8
0
  6
CONTINUOUS
 62
3
 10
171.759748444436580
 20
-108.879519652707130
 11
142.759748444437040
 21
-108.879519652707130
  0
ARC
  8
0
  6
CONTINUOUS
 62
3
 10
41.259748444436582
 20
-185.825023111874540
 40
1.000000000000000
 50
0.000000000000000
 51
88.499999999984155
  0
ARC
  8
0
  6
CONTINUOUS
 62
3
 10
44.259748444436582
 20
-193.879519652708040
 40
1.999999999999966
 50
228.590377890730250
 51
270.000000000000000
  0
LINE
  8
0
  6
CONTINUOUS
 62
3
 10
42.259748444436582
 20
-138.879519652708040
 11
42.259748444436582
 21
-186.487705275611010
  0
LINE
  8
0
  6
CONTINUOUS
 62
3
 10
44.259748444436582
 20
-195.879519652708040
 11
51.259748444437491
 21
-195.879519652708040
  0
ARC
  8
0
  6
CONTINUOUS
 62
3
 10
43.259748444436582
 20
-66.879519652708041
 40
1.000000000000000
 50
90.000000000000000
 51
180.000000000000000
  0
LINE
  8
0
  6
CONTINUOUS
 62
3
 10
43.259748444436582
 20
-65.879519652708041
 11
51.259748444436582
 21
-65.879519652708041
  0
LINE
  8
0
  6
CONTINUOUS
 62
3
 10
41.285925392744730
 20
-184.825365786899060
 11
24.759748444437491
 21
-184.392612613492930
  0
LINE
  8
0
  6
CONTINUOUS
 62
3
 10
39.259748444436582
 20
-78.986730829170511
 11
24.759748444437491
 21
-79.366426691923152
  0
LINE
  8
0
  6
CONTINUOUS
 62
3
 10
42.259748444436582
 20
-66.879519652708041
 11
42.259748444436582
 21
-70.879519652708041
  0
LINE
  8
0
  6
CONTINUOUS
 62
3
 10
51.259748444437491
 20
-195.879519652708040
 11
51.259748444437491
 21
-131.879519652708040
  0
LINE
  8
0
  6
CONTINUOUS
 62
3
 10
24.759748444437491
 20
-184.379519652708040
 11
24.759748444437491
 21
-131.879519652708040
  0
LINE
  8
0
  6
CONTINUOUS
 62
3
 10
51.259748444436582
 20
-65.879519652708041
 11
51.259748444436582
 21
-131.879519652708040
  0
LINE
  8
0
  6
CONTINUOUS
 62
3
 10
24.759748444437491
 20
-79.379519652708041
 11
24.759748444437491
 21
-131.879519652708040
  0
LINE
  8
0
  6
CONTINUOUS
 62
3
 10
42.259748444436582
 20
-71.546336585464815
 11
42.259748444436127
 21
-128.879519652708040
  0
LINE
  8
0
  6
CONTINUOUS
 62
3
 10
39.259748444436582
 20
-80.879519652708041
 11
39.259748444436582
 21
-70.879519652708041
  0
LINE
  8
0
  6
CONTINUOUS
 62
3
 10
42.514526881283246
 20
-70.879519652708041
 11
39.259748444436582
 21
-70.879519652708041
  0
LINE
  8
0
  6
CONTINUOUS
 62
3
 10
42.259748444436582
 20
-80.879519652708041
 11
39.259748444436582
 21
-80.879519652708041
  0
ARC
  8
0
  6
CONTINUOUS
 62
3
 10
45.359748444436946
 20
-195.779519652707680
 40
0.099999999999909
 50
180.000000000000000
 51
270.000000000000000
  0
ARC
  8
0
  6
CONTINUOUS
 62
3
 10
45.159748444437128
 20
-70.446336585464451
 40
0.100000000000364
 50
270.000000000000000
 51
0.000000000000000
  0
LINE
  8
0
  6
CONTINUOUS
 62
3
 10
39.259748444437037
 20
-195.379519652708040
 11
39.259748444437037
 21
-185.379519652708040
  0
LINE
  8
0
  6
CONTINUOUS
 62
3
 10
42.155028661949892
 20
-185.379519652708040
 11
39.259748444437037
 21
-185.379519652708040
  0
LINE
  8
0
  6
CONTINUOUS
 62
3
 10
45.259748444437037
 20
-195.379519652708040
 11
39.259748444437037
 21
-195.379519652708040
  0
ARC
  8
0
  6
CONTINUOUS
 62
3
 10
45.159748444437128
 20
-67.108809826690958
 40
0.099999999999454
 50
0.000000000000000
 51
90.000000000000000
  0
POINT
  8
0
  6
CONTINUOUS
 62
3
 10
45.259748444437037
 20
-190.379519652708040
  0
ARC
  8
0
  6
CONTINUOUS
 62
3
 10
45.159748444436673
 20
-140.029519652707680
 40
0.100000000000364
 50
270.000000000000000
 51
0.000000000000000
  0
ARC
  8
0
  6
CONTINUOUS
 62
3
 10
43.259748444436582
 20
-68.008809826691504
 40
1.000000000000000
 50
90.000000000000000
 51
180.000000000000000
  0
ARC
  8
0
  6
CONTINUOUS
 62
3
 10
43.259748444437037
 20
-186.487705275611010
 40
1.000000000000000
 50
180.000000000000000
 51
270.000000000000000
  0
LINE
  8
0
  6
CONTINUOUS
 62
3
 10
43.259748444436582
 20
-67.008809826691504
 11
45.159748444437128
 21
-67.008809826691504
  0
ARC
  8
0
  6
CONTINUOUS
 62
3
 10
43.259748444436582
 20
-71.546336585464815
 40
1.000000000000000
 50
90.000000000000000
 51
180.000000000000000
  0
LINE
  8
0
  6
CONTINUOUS
 62
3
 10
45.259748444437037
 20
-195.779519652707680
 11
45.259748444437037
 21
-187.587705275610460
  0
LINE
  8
0
  6
CONTINUOUS
 62
3
 10
43.259748444437037
 20
-187.487705275611010
 11
45.159748444437128
 21
-187.487705275611010
  0
LINE
  8
0
  6
CONTINUOUS
 62
3
 10
45.259748444436582
 20
-70.446336585464451
 11
45.259748444436582
 21
-67.108809826690958
  0
ARC
  8
0
  6
CONTINUOUS
 62
3
 10
41.259748444436582
 20
-103.879519652708040
 40
0.999999999999688
 50
300.000000000010290
 51
0.000000000000000
  0
ARC
  8
0
  6
CONTINUOUS
 62
3
 10
42.259748444436582
 20
-105.611570460276190
 40
0.999999999999688
 50
120.000000000010300
 51
180.000000000000000
  0
ARC
  8
0
  6
CONTINUOUS
 62
3
 10
41.259748444436582
 20
-121.879519652708040
 40
1.000000000000000
 50
0.000000000000000
 51
60.000000000015746
  0
LINE
  8
0
  6
CONTINUOUS
 62
3
 10
41.259748444436582
 20
-105.611570460276190
 11
41.259748444436582
 21
-120.147468845138970
  0
ARC
  8
0
  6
CONTINUOUS
 62
3
 10
42.259748444436582
 20
-120.147468845138970
 40
1.000000000000000
 50
180.000000000000000
 51
239.999999999989710
  0
ARC
  8
0
  6
CONTINUOUS
 62
3
 10
43.259748444436582
 20
-141.129519652708040
 40
1.000000000000000
 50
90.000000000000000
 51
180.000000000000000
  0
ARC
  8
0
  6
CONTINUOUS
 62
3
 10
45.159748444436673
 20
-127.729519652707490
 40
0.099999999999909
 50
0.000000000000000
 51
90.000000000000000
  0
ARC
  8
0
  6
CONTINUOUS
 62
3
 10
45.159748444437128
 20
-187.587705275610460
 40
0.099999999999909
 50
0.000000000000000
 51
90.000000000000000
  0
ARC
  8
0
  6
CONTINUOUS
 62
3
 10
43.259748444436582
 20
-126.629519652708040
 40
1.000000000000000
 50
180.000000000000000
 51
270.000000000000000
  0
LINE
  8
0
  6
CONTINUOUS
 62
3
 10
45.259748444436582
 20
-140.029519652707680
 11
45.259748444436582
 21
-127.729519652707490
  0
LINE
  8
0
  6
CONTINUOUS
 62
3
 10
43.259748444436582
 20
-140.129519652708040
 11
45.159748444436673
 21
-140.129519652708040
  0
LINE
  8
0
  6
CONTINUOUS
 62
3
 10
43.259748444436582
 20
-127.629519652708040
 11
45.159748444436673
 21
-127.629519652708040
  0
LINE
  8
0
  6
CONTINUOUS
 62
3
 10
43.259748444436582
 20
-70.546336585464815
 11
45.159748444437128
 21
-70.546336585464815
  0
ARC
  8
0
  6
DASHDOT
 62
4
 10
298.318953560265070
 20
-111.879519652707130
 40
97.500000000000043
 50
218.760324820342050
 51
230.876812265942480
  0
ARC
  8
0
  6
DASHDOT
 62
4
 10
298.318953560265070
 20
-111.879519652707130
 40
97.500000000000057
 50
38.947995294502796
 51
50.876812265942476
  0
CIRCLE
  8
0
  6
CONTINUOUS
 62
3
 10
298.318953560265070
 20
-111.879519652707130
 40
19.000000000000000
  0
CIRCLE
  8
0
  6
CONTINUOUS
 62
3
 10
298.510897998818110
 20
-111.853995288159240
 40
75.000000000000000
  0
CIRCLE
  8
0
  6
CONTINUOUS
 62
3
 10
298.309398250450610
 20
-111.832615525753680
 40
28.501149875631768
  0
CIRCLE
  8
0
  6
CONTINUOUS
 62
3
 10
298.640784567614900
 20
-112.164001842917960
 40
21.881536638176669
  0
ARC
  8
0
  6
CONTINUOUS
 62
3
 10
265.403421608237300
 20
-71.892919888813594
 40
3.000000000000185
 50
225.000000000006170
 51
285.560040400867420
  0
ARC
  8
0
  6
CONTINUOUS
 62
3
 10
255.372362046819490
 20
-76.003995951126853
 40
2.999999999999936
 50
299.010998725229910
 51
44.999999999990798
  0
ARC
  8
0
  6
CONTINUOUS
 62
3
 10
331.234485512292850
 20
-71.892919888813594
 40
3.000000000000183
 50
254.439959599132550
 51
314.999999999993860
  0
ARC
  8
0
  6
CONTINUOUS
 62
3
 10
341.265545073710650
 20
-76.003995951126853
 40
2.999999999999703
 50
135.000000000009210
 51
240.989001274778500
  0
ARC
  8
0
  6
CONTINUOUS
 62
3
 10
303.318953560265070
 20
-69.627285435793056
 40
3.000000000000000
 50
180.000000000000000
 51
269.277067307315410
  0
ARC
  8
0
  6
CONTINUOUS
 62
3
 10
293.318953560265070
 20
-69.627285435793056
 40
3.000000000000205
 50
270.722932692684590
 51
0.000000000000000
  0
ARC
  8
0
  6
CONTINUOUS
 62
3
 10
318.818953560265070
 20
-116.480392578811910
 40
43.283778524804475
 50
74.439959599133118
 51
86.642182578429356
  0
ARC
  8
0
  6
CONTINUOUS
 62
3
 10
277.818953560265070
 20
-116.480392578811910
 40
43.283778524804646
 50
119.010998725227180
 51
153.943096718326930
  0
CIRCLE
  8
0
  6
CONTINUOUS
 62
3
 10
298.318953560265070
 20
-111.879519652707130
 40
71.000000000000000
  0
ARC
  8
0
  6
CONTINUOUS
 62
3
 10
298.318953560265070
 20
-111.879519652707130
 40
77.999999999999957
 50
149.477512185929980
 51
175.644227372968660
  0
ARC
  8
0
  6
CONTINUOUS
 62
3
 10
222.513123048592660
 20
-67.186387513243062
 40
10.000000000000041
 50
329.477512185930440
 51
45.000000000000000
  0
ARC
  8
0
  6
CONTINUOUS
 62
3
 10
222.513123048592660
 20
-156.572651792171200
 40
10.000000000000242
 50
314.999999999999090
 51
30.522487814069546
  0
ARC
  8
0
  6
CONTINUOUS
 62
3
 10
298.318953560265070
 20
-111.879519652707130
 40
77.999999999999957
 50
329.477512185929980
 51
355.644227372968660
  0
ARC
  8
0
  6
CONTINUOUS
 62
3
 10
374.124784071937480
 20
-156.572651792171200
 40
10.000000000000041
 50
149.477512185930440
 51
225.000000000000910
  0
ARC
  8
0
  6
CONTINUOUS
 62
3
 10
374.124784071937480
 20
-67.186387513243062
 40
10.000000000000242
 50
134.999999999999090
 51
210.522487814069560
  0
ARC
  8
0
  6
CONTINUOUS
 62
3
 10
234.442823506956300
 20
-95.271087775711749
 40
4.999999999999824
 50
165.425247711517950
 51
333.943096718326790
  0
ARC
  8
0
  6
CONTINUOUS
 62
3
 10
277.818953560265070
 20
-116.480392578811910
 40
43.283778524803985
 50
93.357817421570644
 51
105.560040400866880
  0
ARC
  8
0
  6
CONTINUOUS
 62
3
 10
298.318953560265070
 20
-465.879519652707130
 40
393.283778524803950
 50
86.642182578429313
 51
89.277067307315235
  0
ARC
  8
0
  6
CONTINUOUS
 62
3
 10
298.318953560265070
 20
-465.879519652707130
 40
393.283778524804060
 50
90.722932692684765
 51
93.357817421570687
  0
ARC
  8
0
  6
CONTINUOUS
 62
3
 10
362.195083613573840
 20
-95.271087775712658
 40
4.999999999999898
 50
206.056903281674380
 51
14.574752288481397
  0
ARC
  8
0
  6
CONTINUOUS
 62
3
 10
298.318953560265070
 20
-111.879519652707130
 40
78.000000000000085
 50
184.355772627031340
 51
210.522487814070020
  0
ARC
  8
0
  6
CONTINUOUS
 62
3
 10
298.318953560265070
 20
-111.879519652707130
 40
78.000000000000085
 50
4.355772627031354
 51
30.522487814070015
  0
ARC
  8
0
  6
CONTINUOUS
 62
3
 10
219.547131187033070
 20
-105.879519652707130
 40
1.000000000000000
 50
270.000000000000000
 51
355.644227372976670
  0
ARC
  8
0
  6
CONTINUOUS
 62
3
 10
219.318953560265070
 20
-107.879519652707130
 40
1.000000000000000
 50
90.000000000000000
 51
180.000000000000000
  0
ARC
  8
0
  6
CONTINUOUS
 62
3
 10
219.547131187033070
 20
-117.879519652707130
 40
0.999999999999999
 50
4.355772627023321
 51
90.000000000000000
  0
ARC
  8
0
  6
CONTINUOUS
 62
3
 10
219.318953560265070
 20
-115.879519652707130
 40
1.000000000000000
 50
180.000000000000000
 51
270.000000000000000
  0
ARC
  8
0
  6
CONTINUOUS
 62
3
 10
377.318953560265070
 20
-107.879519652707130
 40
1.000000000000000
 50
0.000000000000000
 51
90.000000000000000
  0
ARC
  8
0
  6
CONTINUOUS
 62
3
 10
377.090775933497070
 20
-105.879519652707130
 40
0.999999999999999
 50
184.355772627023300
 51
270.000000000000000
  0
ARC
  8
0
  6
CONTINUOUS
 62
3
 10
377.318953560265070
 20
-115.879519652707130
 40
1.000000000000000
 50
270.000000000000000
 51
0.000000000000000
  0
ARC
  8
0
  6
CONTINUOUS
 62
3
 10
377.090775933497070
 20
-117.879519652707130
 40
1.000000000000000
 50
90.000000000000000
 51
175.644227372976700
  0
LINE
  8
0
  6
CONTINUOUS
 62
3
 10
298.318953560265070
 20
-194.879519652707130
 11
266.113182194324960
 21
-194.879519652707130
  0
LINE
  8
0
  6
CONTINUOUS
 62
3
 10
228.318953560265070
 20
-191.879519652707130
 11
250.460836737514230
 21
-191.879519652707130
  0
LINE
  8
0
  6
CONTINUOUS
 62
3
 10
264.543903359259500
 20
-196.879519652707130
 11
253.655264033720640
 21
-196.879519652707130
  0
LINE
  8
0
  6
CONTINUOUS
 62
3
 10
346.177070383015920
 20
-191.879519652707130
 11
368.318953560265070
 21
-191.879519652707130
  0
LINE
  8
0
  6
CONTINUOUS
 62
3
 10
332.094003761270640
 20
-196.879519652707130
 11
342.982643086809500
 21
-196.879519652707130
  0
LINE
  8
0
  6
CONTINUOUS
 62
3
 10
298.318953560265070
 20
-194.879519652707130
 11
330.524724926205180
 21
-194.879519652707130
  0
LINE
  8
0
  6
CONTINUOUS
 62
3
 10
251.780065033200800
 20
-62.512204000896418
 11
263.282101264677750
 21
-74.014240232373595
  0
LINE
  8
0
  6
CONTINUOUS
 62
3
 10
248.951637908454590
 20
-65.340631125643085
 11
257.493682390379260
 21
-73.882675607567762
  0
LINE
  8
0
  6
CONTINUOUS
 62
3
 10
347.686269212075560
 20
-65.340631125643085
 11
339.144224730150880
 21
-73.882675607567762
  0
LINE
  8
0
  6
CONTINUOUS
 62
3
 10
344.857842087329350
 20
-62.512204000896418
 11
333.355805855852400
 21
-74.014240232373595
  0
LINE
  8
0
  6
CONTINUOUS
 62
3
 10
300.318953560265070
 20
-44.063592319963391
 11
300.318953560265070
 21
-69.627285435793056
  0
LINE
  8
0
  6
CONTINUOUS
 62
3
 10
296.318953560265070
 20
-44.063592319963391
 11
296.318953560265070
 21
-69.627285435793056
  0
LINE
  8
0
  6
DASHDOT
 62
4
 10
298.318953560265070
 20
-25.707063600050787
 11
298.318953560265070
 21
-208.047371668090820
  0
LINE
  8
0
  6
DASHDOT
 62
4
 10
282.602254309098500
 20
-131.879519652707130
 11
314.367809238541670
 21
-131.879519652707130
  0
LINE
  8
0
  6
DASHDOT
 62
4
 10
200.838416301212420
 20
-111.879519652707130
 11
386.304193059721000
 21
-111.879519652707130
  0
LINE
  8
0
  6
DASHDOT
 62
4
 10
358.744709708435150
 20
-172.305275800877210
 11
374.349891664240320
 21
-187.910457756682380
  0
LINE
  8
0
  6
CONTINUOUS
 62
3
 10
350.083153511594900
 20
-180.614282352514240
 11
360.762604374161130
 21
-191.293733215080470
  0
LINE
  8
0
  6
CONTINUOUS
 62
3
 10
367.053716260071950
 20
-163.643719604036960
 11
377.733167122638180
 21
-174.323170466603190
  0
LINE
  8
0
  6
DASHDOT
 62
4
 10
236.631743269994220
 20
-173.566729942977990
 11
222.257289225637460
 21
-187.941183987334740
  0
LINE
  8
0
  6
CONTINUOUS
 62
3
 10
246.554753608935470
 20
-180.614282352514240
 11
235.875302746369020
 21
-191.293733215080470
  0
LINE
  8
0
  6
CONTINUOUS
 62
3
 10
229.584190860458190
 20
-163.643719604036960
 11
218.904739997891970
 21
-174.323170466603190
  0
LINE
  8
0
  6
CONTINUOUS
 62
3
 10
218.318953560265070
 20
-41.879519652707131
 11
218.318953560265070
 21
-181.879519652707130
  0
LINE
  8
0
  6
DASHDOT
 62
4
 10
238.059242707742780
 20
-51.619808800184785
 11
222.163414684240820
 21
-35.723980776682879
  0
LINE
  8
0
  6
CONTINUOUS
 62
3
 10
229.584190860458420
 20
-60.115319701377302
 11
218.904739997891970
 21
-49.435868838811075
  0
LINE
  8
0
  6
CONTINUOUS
 62
3
 10
246.554753608935240
 20
-43.144756952900025
 11
235.875302746369020
 21
-32.465306090333797
  0
LINE
  8
0
  6
CONTINUOUS
 62
3
 10
368.318953560265070
 20
-31.879519652707131
 11
228.318953560265070
 21
-31.879519652707131
  0
LINE
  8
0
  6
CONTINUOUS
 62
3
 10
378.318953560265070
 20
-41.879519652707131
 11
378.318953560265070
 21
-181.879519652707130
  0
LINE
  8
0
  6
DASHDOT
 62
4
 10
359.826008127501950
 20
-50.372465085470253
 11
374.403527268941500
 21
-35.794945944030701
  0
LINE
  8
0
  6
CONTINUOUS
 62
3
 10
350.083153511594670
 20
-43.144756952900025
 11
360.762604374161130
 21
-32.465306090333797
  0
LINE
  8
0
  6
CONTINUOUS
 62
3
 10
367.053716260071950
 20
-60.115319701377302
 11
377.733167122638180
 21
-49.435868838811075
  0
LINE
  8
0
  6
CONTINUOUS
 62
3
 10
219.318953560265070
 20
-106.879519652707130
 11
219.547131187033070
 21
-106.879519652707130
  0
LINE
  8
0
  6
CONTINUOUS
 62
3
 10
219.318953560265070
 20
-116.879519652707130
 11
219.547131187033070
 21
-116.879519652707130
  0
LINE
  8
0
  6
CONTINUOUS
 62
3
 10
377.318953560265070
 20
-106.879519652707130
 11
377.090775933497070
 21
-106.879519652707130
  0
LINE
  8
0
  6
CONTINUOUS
 62
3
 10
377.318953560265070
 20
-116.879519652707130
 11
377.090775933497070
 21
-116.879519652707130
  0
CIRCLE
  8
0
  6
CONTINUOUS
 62
3
 10
367.261864725953500
 20
-42.936608487018930
 40
5.300000000000011
  0
CIRCLE
  8
0
  6
CONTINUOUS
 62
3
 10
367.261864725953500
 20
-180.822430818395330
 40
5.300000000000011
  0
CIRCLE
  8
0
  6
CONTINUOUS
 62
3
 10
229.376042394576870
 20
-180.822430818395330
 40
5.300000000000011
  0
CIRCLE
  8
0
  6
CONTINUOUS
 62
3
 10
229.376042394576640
 20
-42.936608487018930
 40
5.300000000000011
  0
ARC
  8
0
  6
CONTINUOUS
 62
3
 10
343.012085699729140
 20
-36.073689141035175
 40
9.999999999999650
 50
239.477512185929130
 51
315.000000000002730
  0
ARC
  8
0
  6
CONTINUOUS
 62
3
 10
298.318953560265070
 20
-111.879519652707130
 40
77.999999999999957
 50
239.477512185929980
 51
300.522487814070020
  0
ARC
  8
0
  6
CONTINUOUS
 62
3
 10
253.625821420801000
 20
-187.685350164380000
 40
10.000000000000433
 50
59.477512185931793
 51
134.999999999999090
  0
ARC
  8
0
  6
CONTINUOUS
 62
3
 10
253.625821420801000
 20
-36.073689141035175
 40
9.999999999999758
 50
224.999999999996330
 51
300.522487814070870
  0
ARC
  8
0
  6
CONTINUOUS
 62
3
 10
298.318953560265070
 20
-111.879519652707130
 40
77.999999999999957
 50
59.477512185929996
 51
120.522487814070010
  0
ARC
  8
0
  6
CONTINUOUS
 62
3
 10
368.318953560265070
 20
-41.879519652707131
 40
10.000000000000000
 50
0.000000000000000
 51
90.000000000000000
  0
ARC
  8
0
  6
CONTINUOUS
 62
3
 10
376.318953560265070
 20
-48.021655276437741
 40
2.000000000000177
 50
314.999999999995400
 51
0.000000000000000
  0
ARC
  8
0
  6
CONTINUOUS
 62
3
 10
362.176817936534010
 20
-33.879519652707131
 40
2.000000000000000
 50
90.000000000000000
 51
134.999999999990790
  0
ARC
  8
0
  6
CONTINUOUS
 62
3
 10
228.318953560265070
 20
-41.879519652707131
 40
10.000000000000000
 50
90.000000000000000
 51
180.000000000000000
  0
ARC
  8
0
  6
CONTINUOUS
 62
3
 10
234.461089183996140
 20
-33.879519652707131
 40
2.000000000000016
 50
45.000000000009216
 51
90.000000000000000
  0
ARC
  8
0
  6
CONTINUOUS
 62
3
 10
220.318953560265070
 20
-48.021655276437741
 40
2.000000000000000
 50
180.000000000000000
 51
225.000000000004630
  0
ARC
  8
0
  6
DASHDOT
 62
4
 10
298.318953560265070
 20
-111.879519652707130
 40
97.500000000000298
 50
129.123187734056760
 51
140.876812265942500
  0
ARC
  8
0
  6
CONTINUOUS
 62
3
 10
220.318953560265070
 20
-175.737384028976520
 40
2.000000000000177
 50
134.999999999995370
 51
180.000000000000000
  0
ARC
  8
0
  6
CONTINUOUS
 62
3
 10
234.461089183996140
 20
-189.879519652707130
 40
2.000000000000000
 50
270.000000000000000
 51
314.999999999990790
  0
ARC
  8
0
  6
CONTINUOUS
 62
3
 10
362.176817936534010
 20
-189.879519652707130
 40
2.000000000000016
 50
225.000000000009210
 51
270.000000000000000
  0
ARC
  8
0
  6
CONTINUOUS
 62
3
 10
376.318953560265070
 20
-175.737384028976520
 40
2.000000000000000
 50
0.000000000026055
 51
45.000000000004619
  0
ARC
  8
0
  6
DASHDOT
 62
4
 10
298.318953560265070
 20
-111.879519652707130
 40
97.500000000000298
 50
309.123187734056780
 51
320.876812265942530
  0
ARC
  8
0
  6
CONTINUOUS
 62
3
 10
368.318953560265070
 20
-181.879519652707130
 40
10.000000000000000
 50
270.000000000000000
 51
0.000000000000000
  0
ARC
  8
0
  6
CONTINUOUS
 62
3
 10
228.318953560265070
 20
-181.879519652707130
 40
10.000000000000000
 50
180.000000000000000
 51
270.000000000000000
  0
ARC
  8
0
  6
CONTINUOUS
 62
3
 10
303.318953560265070
 20
-44.063592319963391
 40
2.999999999999889
 50
85.783269521146963
 51
180.000000000000000
  0
ARC
  8
0
  6
CONTINUOUS
 62
3
 10
293.318953560265070
 20
-44.063592319963391
 40
3.000000000000000
 50
0.000000000000000
 51
94.216730478853037
  0
ARC
  8
0
  6
CONTINUOUS
 62
3
 10
349.807589555635330
 20
-67.461951469202177
 40
2.999999999999589
 50
40.783269521141641
 51
135.000000000009210
  0
ARC
  8
0
  6
CONTINUOUS
 62
3
 10
342.736521743769800
 20
-60.390883657337326
 40
2.999999999999542
 50
315.000000000006140
 51
49.216730478857478
  0
ARC
  8
0
  6
CONTINUOUS
 62
3
 10
253.901385376760570
 20
-60.390883657337326
 40
3.000000000000379
 50
130.783269521145830
 51
224.999999999990790
  0
ARC
  8
0
  6
CONTINUOUS
 62
3
 10
246.830317564895040
 20
-67.461951469202177
 40
2.999999999999542
 50
44.999999999993868
 51
139.216730478861190
  0
ARC
  8
0
  6
CONTINUOUS
 62
3
 10
338.318953560265070
 20
-190.379519652707130
 40
8.999999999999950
 50
210.000000000000200
 51
226.238257307319910
  0
ARC
  8
0
  6
CONTINUOUS
 62
3
 10
338.318953560265070
 20
-190.379519652707130
 40
8.000000000000012
 50
305.659087696138900
 51
349.193077125139670
  0
ARC
  8
0
  6
CONTINUOUS
 62
3
 10
258.318953560265070
 20
-190.379519652707130
 40
7.999999999999988
 50
190.806922874860360
 51
234.340912303861100
  0
ARC
  8
0
  6
CONTINUOUS
 62
3
 10
258.318953560265070
 20
-190.379519652707130
 40
9.000000000000044
 50
313.761742692680060
 51
330.000000000000570
  0
LINE
  8
0
  6
CONTINUOUS
 62
3
 10
284.818953560265070
 20
-114.879519652707130
 11
290.818953560265070
 21
-114.879519652707130
  0
LINE
  8
0
  6
CONTINUOUS
 62
3
 10
290.818953560265070
 20
-114.879519652707130
 11
290.818953560265070
 21
-108.879519652707130
  0
ARC
  8
0
  6
CONTINUOUS
 62
3
 10
298.318953560265070
 20
-111.879519652707130
 40
11.000000000000037
 50
195.826620131872290
 51
164.173379868127710
  0
LINE
  8
0
  6
CONTINUOUS
 62
3
 10
284.818953560265070
 20
-108.879519652707130
 11
284.818953560265070
 21
-114.879519652707130
  0
LINE
  8
0
  6
CONTINUOUS
 62
3
 10
284.818953560265070
 20
-108.879519652707130
 11
290.818953560265070
 21
-108.879519652707130
  0
CIRCLE
  8
0
  6
CONTINUOUS
 62
4
 10
298.318953560265070
 20
-111.879519652707130
 40
4.000000000000000
  0
CIRCLE
  8
0
  6
CONTINUOUS
 62
3
 10
298.318953560265070
 20
-111.879519652707130
 40
3.323500000000024
  0
ARC
  8
0
  6
CONTINUOUS
 62
3
 10
217.380184426283450
 20
-156.879519652707130
 40
4.999999999999888
 50
184.861405395797990
 51
270.000000000000000
  0
ARC
  8
0
  6
CONTINUOUS
 62
3
 10
217.380184426283450
 20
-106.879519652707130
 40
5.000000000000000
 50
90.000000000000000
 51
175.138594604201390
  0
LINE
  8
0
  6
CONTINUOUS
 62
3
 10
218.318953560265070
 20
-161.879519652707130
 11
217.380184426283450
 21
-161.879519652707130
  0
LINE
  8
0
  6
CONTINUOUS
 62
3
 10
218.318953560265070
 20
-101.879519652707130
 11
217.380184426283450
 21
-101.879519652707130
  0
ARC
  8
0
  6
CONTINUOUS
 62
3
 10
511.318953560265070
 20
-131.879519652707130
 40
300.000000000000170
 50
175.138594604201960
 51
184.861405395798040
  0
LINE
  8
0
  6
CONTINUOUS
 62
3
 10
211.329370407782790
 20
-129.379519652707070
 11
210.818953560265070
 21
-129.379519652707070
  0
LINE
  8
0
  6
CONTINUOUS
 62
3
 10
211.329370407782790
 20
-134.379519652707070
 11
210.818953560265070
 21
-134.379519652707070
  0
LINE
  8
0
  6
CONTINUOUS
 62
3
 10
210.818953560265070
 20
-134.379519652707070
 11
210.818953560265070
 21
-129.379519652707070
  0
LINE
  8
0
  6
CONTINUOUS
 62
3
 10
24.759748444437491
 20
-79.379519652708154
 11
24.759748444437491
 21
-131.879519652708040
  0
LINE
  8
0
  6
CONTINUOUS
 62
3
 10
24.759748444437491
 20
-181.583481751524860
 11
24.759748444437491
 21
-131.879519652708040
  0
ENDSEC
  0
EOF
