  0
SECTION
  2
HEADER
  9
$FILLMODE
 70
1
  9
$TEXTSTYLE
  7
STANDARD1
  9
$ACADVER
  1
AC1009
  9
$DIMASZ
 40
1.931851648807023
  9
$DIMEXE
 40
2.000000000000000
  9
$DIMEXO
 40
1.000000000000000
  9
$DIMLFAC
 40
1.000000000000000
  9
$DIMSCALE
 40
1.000000000000000
  9
$DIMTAD
 70
1
  9
$DIMTFAC
 40
0.714285731315613
  9
$DIMTXT
 40
2.799999952316284
  9
$LUPREC
 70
3
  9
$TEXTSIZE
 40
2.799999952316284
  9
$REGENMODE
 70
1
  0
ENDSEC
  0
SECTION
  2
TABLES
  0
TABLE
  2
LTYPE
 70
4
  0
LTYPE
  2
CONTINUOUS
 70
64
  3
Solid line
 72
65
 73
0
 40
0.0
  0
LTYPE
  2
DASHED
 70
64
  3
-- -- -- -- -- -- -- -- -- -- -- -- -- -- --
 72
65
 73
2
 40
0.75
 49
0.5
 49
-0.25
  0
LTYPE
  2
DASHDOT
 70
64
  3
__ . __ . __ . __ . __ . __ . __ . __ . __ . __
 72
65
 73
4
 40
1.0
 49
0.5
 49
-0.25
 49
0.0
 49
-0.25
  0
LTYPE
  2
DIVIDE
 70
64
  3
__ . . __ . . __ . . __ . . __ . . __ . . __
 72
65
 73
6
 40
1.25
 49
0.5
 49
-0.25
 49
0.0
 49
-0.25
 49
0.0
 49
-0.25
  0
ENDTAB
  0
TABLE
  2
LAYER
 70
1
  0
LAYER
  2
0
 70
64
 62
2
  6
CONTINUOUS
  0
ENDTAB
  0
TABLE
  2
STYLE
 70
4
  0
STYLE
  2
STANDARD1
 70
64
 40
0.0
 41
1.0
 50
0.0
 71
0
 42
2.799999952316284
  3
MONOTXT
  4
BIGFONT
  0
STYLE
  2
STANDARD2
 70
68
 40
0.0
 41
1.0
 50
0.0
 71
0
 42
2.799999952316284
  3
MONOTXT
  4
BIGFONT
  0
STYLE
  2
STANDARD3
 70
64
 40
0.0
 41
1.0
 50
0.0
 71
0
 42
2.799999952316284
  3
MONOTXT
  4

  0
STYLE
  2
STANDARD4
 70
68
 40
0.0
 41
1.0
 50
0.0
 71
0
 42
2.799999952316284
  3
MONOTXT
  4

  0
ENDTAB
  0
TABLE
  2
VIEW
 70
0
  0
ENDTAB
  0
ENDSEC
  0
SECTION
  2
BLOCKS
  0
BLOCK
  8
0
  2
SYM1
 70
64
 10
0.000000000000000
 20
0.000000000000000
  0
POINT
  8
0
  6
CONTINUOUS
 62
3
 10
0.000000000000000
 20
0.000000000000000
  0
LINE
  8
0
  6
CONTINUOUS
 62
3
 10
0.000000000000000
 20
5.000000000000000
 11
0.000000000000000
 21
-5.000000000000000
  0
LINE
  8
0
  6
CONTINUOUS
 62
3
 10
-6.000000000000000
 20
-5.000000000000000
 11
-6.000000000000000
 21
5.000000000000000
  0
LINE
  8
0
  6
CONTINUOUS
 62
3
 10
0.000000000000000
 20
5.000000000000000
 11
-6.000000000000000
 21
5.000000000000000
  0
LINE
  8
0
  6
CONTINUOUS
 62
3
 10
-0.000000000000000
 20
-5.000000000000000
 11
-6.000000000000000
 21
-5.000000000000000
  0
ENDBLK
  8
0
  0
BLOCK
  8
0
  2
SYM2
 70
64
 10
0.000000000000000
 20
0.000000000000000
  0
ARC
  8
0
  6
CONTINUOUS
 62
3
 10
2.040000915527344
 20
-0.000008403939319
 40
5.539999008178711
 50
155.470186567177590
 51
204.529249714844780
  0
ARC
  8
0
  6
CONTINUOUS
 62
3
 10
-1.929986000061035
 20
3.450007438659668
 40
1.569999694824219
 50
179.999745461767870
 51
227.099746430935310
  0
ARC
  8
0
  6
CONTINUOUS
 62
3
 10
-1.930013656616211
 20
-3.449991226196289
 40
1.569999694824219
 50
132.899744492600430
 51
179.999745461767870
  0
LINE
  8
0
  6
CONTINUOUS
 62
3
 10
-2.999989096318101
 20
2.300010681148706
 11
0.000009475023974
 21
2.300000190729854
  0
LINE
  8
0
  6
CONTINUOUS
 62
3
 10
-3.000007597599688
 20
-2.299985885626180
 11
-0.000008155921205
 21
-2.299998283391806
  0
LINE
  8
0
  6
CONTINUOUS
 62
3
 10
0.000018950048186
 20
4.600000381469727
 11
-0.000018950048186
 21
-4.600000381469727
  0
LINE
  8
0
  6
CONTINUOUS
 62
3
 10
-2.999979146307184
 20
4.600011825551216
 11
0.000019104623546
 21
4.600001335133485
  0
LINE
  8
0
  6
CONTINUOUS
 62
3
 10
-3.499965125831864
 20
3.900000017678906
 11
-2.999963510759926
 21
4.599997551336457
  0
LINE
  8
0
  6
CONTINUOUS
 62
3
 10
-3.500011920918244
 20
-3.899979774771439
 11
-3.499980449679529
 21
3.900009925545944
  0
LINE
  8
0
  6
CONTINUOUS
 62
3
 10
-2.999996095884057
 20
-4.599969847145871
 11
-3.499991138206155
 21
-3.899966512616629
  0
LINE
  8
0
  6
CONTINUOUS
 62
3
 10
-0.000017659877873
 20
-4.599998474126673
 11
-3.000017102555891
 21
-4.599986076361044
  0
POINT
  8
0
  6
CONTINUOUS
 62
3
 10
0.000000000000000
 20
0.000000000000000
  0
ENDBLK
  8
0
  0
BLOCK
  8
0
  2
SYM3
 70
64
 10
0.000000000000000
 20
0.000000000000000
  0
ARC
  8
0
  6
CONTINUOUS
 62
3
 10
2.040000915527344
 20
-0.000008403939319
 40
5.539999008178711
 50
155.470186567177590
 51
204.529249714844780
  0
ARC
  8
0
  6
CONTINUOUS
 62
3
 10
-1.929986000061035
 20
3.450007438659668
 40
1.569999694824219
 50
179.999745461767870
 51
227.099746430935310
  0
ARC
  8
0
  6
CONTINUOUS
 62
3
 10
-1.930013656616211
 20
-3.449991226196289
 40
1.569999694824219
 50
132.899744492600430
 51
179.999745461767870
  0
LINE
  8
0
  6
CONTINUOUS
 62
3
 10
-2.999989096318101
 20
2.300010681148706
 11
0.000009475023974
 21
2.300000190729854
  0
LINE
  8
0
  6
CONTINUOUS
 62
3
 10
-3.000007597599688
 20
-2.299985885626180
 11
-0.000008155921205
 21
-2.299998283391806
  0
LINE
  8
0
  6
CONTINUOUS
 62
3
 10
0.000018950048186
 20
4.600000381469727
 11
-0.000018950048186
 21
-4.600000381469727
  0
LINE
  8
0
  6
CONTINUOUS
 62
3
 10
-2.999979146307184
 20
4.600011825551216
 11
0.000019104623546
 21
4.600001335133485
  0
LINE
  8
0
  6
CONTINUOUS
 62
3
 10
-3.499965125831864
 20
3.900000017678906
 11
-2.999963510759926
 21
4.599997551336457
  0
LINE
  8
0
  6
CONTINUOUS
 62
3
 10
-3.500011920918244
 20
-3.899979774771439
 11
-3.499980449679529
 21
3.900009925545944
  0
LINE
  8
0
  6
CONTINUOUS
 62
3
 10
-2.999996095884057
 20
-4.599969847145871
 11
-3.499991138206155
 21
-3.899966512616629
  0
LINE
  8
0
  6
CONTINUOUS
 62
3
 10
-0.000017659877873
 20
-4.599998474126673
 11
-3.000017102555891
 21
-4.599986076361044
  0
POINT
  8
0
  6
CONTINUOUS
 62
3
 10
0.000000000000000
 20
0.000000000000000
  0
ENDBLK
  8
0
  0
BLOCK
  8
0
  2
SYM4
 70
64
 10
0.000000000000000
 20
0.000000000000000
  0
POINT
  8
0
  6
CONTINUOUS
 62
3
 10
0.000000000000000
 20
0.000000000000000
  0
LINE
  8
0
  6
CONTINUOUS
 62
3
 10
0.000000000000000
 20
5.000000000000000
 11
0.000000000000000
 21
-5.000000000000000
  0
LINE
  8
0
  6
CONTINUOUS
 62
3
 10
-6.000000000000000
 20
-5.000000000000000
 11
-6.000000000000000
 21
5.000000000000000
  0
LINE
  8
0
  6
CONTINUOUS
 62
3
 10
0.000000000000000
 20
5.000000000000000
 11
-6.000000000000000
 21
5.000000000000000
  0
LINE
  8
0
  6
CONTINUOUS
 62
3
 10
-0.000000000000000
 20
-5.000000000000000
 11
-6.000000000000000
 21
-5.000000000000000
  0
ENDBLK
  8
0
  0
BLOCK
  8
0
  2
SYM5
 70
64
 10
0.000000000000000
 20
0.000000000000000
  0
POINT
  8
0
  6
CONTINUOUS
 62
3
 10
0.000000000000000
 20
0.000000000000000
  0
LINE
  8
0
  6
CONTINUOUS
 62
3
 10
0.000000000000000
 20
5.000000000000000
 11
0.000000000000000
 21
-5.000000000000000
  0
LINE
  8
0
  6
CONTINUOUS
 62
3
 10
-6.000000000000000
 20
-5.000000000000000
 11
-6.000000000000000
 21
5.000000000000000
  0
LINE
  8
0
  6
CONTINUOUS
 62
3
 10
0.000000000000000
 20
5.000000000000000
 11
-6.000000000000000
 21
5.000000000000000
  0
LINE
  8
0
  6
CONTINUOUS
 62
3
 10
-0.000000000000000
 20
-5.000000000000000
 11
-6.000000000000000
 21
-5.000000000000000
  0
ENDBLK
  8
0
  0
BLOCK
  8
0
  2
SYM6
 70
64
 10
0.000000000000000
 20
0.000000000000000
  0
ARC
  8
0
  6
CONTINUOUS
 62
3
 10
2.040000915527344
 20
-0.000008403939319
 40
5.539999008178711
 50
155.470186567177590
 51
204.529249714844780
  0
ARC
  8
0
  6
CONTINUOUS
 62
3
 10
-1.929986000061035
 20
3.450007438659668
 40
1.569999694824219
 50
179.999745461767870
 51
227.099746430935310
  0
ARC
  8
0
  6
CONTINUOUS
 62
3
 10
-1.930013656616211
 20
-3.449991226196289
 40
1.569999694824219
 50
132.899744492600430
 51
179.999745461767870
  0
LINE
  8
0
  6
CONTINUOUS
 62
3
 10
-2.999989096318101
 20
2.300010681148706
 11
0.000009475023974
 21
2.300000190729854
  0
LINE
  8
0
  6
CONTINUOUS
 62
3
 10
-3.000007597599688
 20
-2.299985885626180
 11
-0.000008155921205
 21
-2.299998283391806
  0
LINE
  8
0
  6
CONTINUOUS
 62
3
 10
0.000018950048186
 20
4.600000381469727
 11
-0.000018950048186
 21
-4.600000381469727
  0
LINE
  8
0
  6
CONTINUOUS
 62
3
 10
-2.999979146307184
 20
4.600011825551216
 11
0.000019104623546
 21
4.600001335133485
  0
LINE
  8
0
  6
CONTINUOUS
 62
3
 10
-3.499965125831864
 20
3.900000017678906
 11
-2.999963510759926
 21
4.599997551336457
  0
LINE
  8
0
  6
CONTINUOUS
 62
3
 10
-3.500011920918244
 20
-3.899979774771439
 11
-3.499980449679529
 21
3.900009925545944
  0
LINE
  8
0
  6
CONTINUOUS
 62
3
 10
-2.999996095884057
 20
-4.599969847145871
 11
-3.499991138206155
 21
-3.899966512616629
  0
LINE
  8
0
  6
CONTINUOUS
 62
3
 10
-0.000017659877873
 20
-4.599998474126673
 11
-3.000017102555891
 21
-4.599986076361044
  0
POINT
  8
0
  6
CONTINUOUS
 62
3
 10
0.000000000000000
 20
0.000000000000000
  0
ENDBLK
  8
0
  0
BLOCK
  8
0
  2
SYM7
 70
64
 10
0.000000000000000
 20
0.000000000000000
  0
ARC
  8
0
  6
CONTINUOUS
 62
3
 10
2.040000915527344
 20
-0.000008403939319
 40
5.539999008178711
 50
155.470186567177590
 51
204.529249714844780
  0
ARC
  8
0
  6
CONTINUOUS
 62
3
 10
-1.929986000061035
 20
3.450007438659668
 40
1.569999694824219
 50
179.999745461767870
 51
227.099746430935310
  0
ARC
  8
0
  6
CONTINUOUS
 62
3
 10
-1.930013656616211
 20
-3.449991226196289
 40
1.569999694824219
 50
132.899744492600430
 51
179.999745461767870
  0
LINE
  8
0
  6
CONTINUOUS
 62
3
 10
-2.999989096318101
 20
2.300010681148706
 11
0.000009475023974
 21
2.300000190729854
  0
LINE
  8
0
  6
CONTINUOUS
 62
3
 10
-3.000007597599688
 20
-2.299985885626180
 11
-0.000008155921205
 21
-2.299998283391806
  0
LINE
  8
0
  6
CONTINUOUS
 62
3
 10
0.000018950048186
 20
4.600000381469727
 11
-0.000018950048186
 21
-4.600000381469727
  0
LINE
  8
0
  6
CONTINUOUS
 62
3
 10
-2.999979146307184
 20
4.600011825551216
 11
0.000019104623546
 21
4.600001335133485
  0
LINE
  8
0
  6
CONTINUOUS
 62
3
 10
-3.499965125831864
 20
3.900000017678906
 11
-2.999963510759926
 21
4.599997551336457
  0
LINE
  8
0
  6
CONTINUOUS
 62
3
 10
-3.500011920918244
 20
-3.899979774771439
 11
-3.499980449679529
 21
3.900009925545944
  0
LINE
  8
0
  6
CONTINUOUS
 62
3
 10
-2.999996095884057
 20
-4.599969847145871
 11
-3.499991138206155
 21
-3.899966512616629
  0
LINE
  8
0
  6
CONTINUOUS
 62
3
 10
-0.000017659877873
 20
-4.599998474126673
 11
-3.000017102555891
 21
-4.599986076361044
  0
POINT
  8
0
  6
CONTINUOUS
 62
3
 10
0.000000000000000
 20
0.000000000000000
  0
ENDBLK
  8
0
  0
BLOCK
  8
0
  2
SYM8
 70
64
 10
0.000000000000000
 20
0.000000000000000
  0
POINT
  8
0
  6
CONTINUOUS
 62
3
 10
0.000000000000000
 20
0.000000000000000
  0
LINE
  8
0
  6
CONTINUOUS
 62
3
 10
3.999993333512748
 20
-2.300001902428903
 11
-0.000004858421221
 21
-4.599995671750889
  0
LINE
  8
0
  6
CONTINUOUS
 62
3
 10
-0.000007291900715
 20
-4.600000131531601
 11
-4.000000535118602
 21
-2.299995435993480
  0
LINE
  8
0
  6
CONTINUOUS
 62
3
 10
-4.000000476834402
 20
-2.299992229627764
 11
-3.999995708466355
 21
2.300002429796065
  0
LINE
  8
0
  6
CONTINUOUS
 62
3
 10
-3.999993333512748
 20
2.300001902428903
 11
0.000004858421221
 21
4.599995671750889
  0
LINE
  8
0
  6
CONTINUOUS
 62
3
 10
0.000007291900715
 20
4.600000131531601
 11
4.000000535118602
 21
2.299995435993480
  0
LINE
  8
0
  6
CONTINUOUS
 62
3
 10
4.000000476834402
 20
2.299992229627764
 11
3.999995708466355
 21
-2.300002429796065
  0
CIRCLE
  8
0
  6
CONTINUOUS
 62
3
 10
0.000000000000000
 20
0.000000000000000
 40
4.000000000000000
  0
ENDBLK
  8
0
  0
BLOCK
  8
0
  2
SYM9
 70
64
 10
0.000000000000000
 20
0.000000000000000
  0
POINT
  8
0
  6
CONTINUOUS
 62
3
 10
0.000000000000000
 20
0.000000000000000
  0
LINE
  8
0
  6
CONTINUOUS
 62
3
 10
3.999993333512748
 20
-2.300001902428903
 11
-0.000004858421221
 21
-4.599995671750889
  0
LINE
  8
0
  6
CONTINUOUS
 62
3
 10
-0.000007291900715
 20
-4.600000131531601
 11
-4.000000535118602
 21
-2.299995435993480
  0
LINE
  8
0
  6
CONTINUOUS
 62
3
 10
-4.000000476834402
 20
-2.299992229627764
 11
-3.999995708466355
 21
2.300002429796065
  0
LINE
  8
0
  6
CONTINUOUS
 62
3
 10
-3.999993333512748
 20
2.300001902428903
 11
0.000004858421221
 21
4.599995671750889
  0
LINE
  8
0
  6
CONTINUOUS
 62
3
 10
0.000007291900715
 20
4.600000131531601
 11
4.000000535118602
 21
2.299995435993480
  0
LINE
  8
0
  6
CONTINUOUS
 62
3
 10
4.000000476834402
 20
2.299992229627764
 11
3.999995708466355
 21
-2.300002429796065
  0
CIRCLE
  8
0
  6
CONTINUOUS
 62
3
 10
0.000000000000000
 20
0.000000000000000
 40
4.000000000000000
  0
ENDBLK
  8
0
  0
BLOCK
  8
0
  2
SYM10
 70
64
 10
0.000000000000000
 20
0.000000000000000
  0
CIRCLE
  8
0
  6
CONTINUOUS
 62
3
 10
0.000000000000000
 20
0.000000000000000
 40
5.000000000000000
  0
POINT
  8
0
  6
CONTINUOUS
 62
3
 10
0.000000000000000
 20
0.000000000000000
  0
LINE
  8
0
  6
CONTINUOUS
 62
3
 10
-2.499997615815493
 20
-1.443371644997905
 11
-2.499998569489762
 21
1.443377622580220
  0
LINE
  8
0
  6
CONTINUOUS
 62
3
 10
2.499997615814836
 20
1.443371644999042
 11
2.499998569489158
 21
-1.443373807881817
  0
LINE
  8
0
  6
CONTINUOUS
 62
3
 10
0.000004721207233
 20
2.886748740356097
 11
2.499998505998519
 21
1.443372095808627
  0
LINE
  8
0
  6
CONTINUOUS
 62
3
 10
-0.000005512125483
 20
-2.886746937722080
 11
-2.499997817169060
 21
-1.443371590977961
  0
LINE
  8
0
  6
CONTINUOUS
 62
3
 10
0.000004782436690
 20
2.886748260213380
 11
-2.499999945610170
 21
1.443377225120230
  0
LINE
  8
0
  6
CONTINUOUS
 62
3
 10
2.499999351944041
 20
-1.443373974675978
 11
-0.000004997562428
 21
-2.886747551371855
  0
ENDBLK
  8
0
  0
BLOCK
  8
0
  2
SYM11
 70
64
 10
0.000000000000000
 20
0.000000000000000
  0
CIRCLE
  8
0
  6
CONTINUOUS
 62
3
 10
0.000000000000000
 20
0.000000000000000
 40
5.000000000000000
  0
POINT
  8
0
  6
CONTINUOUS
 62
3
 10
0.000000000000000
 20
0.000000000000000
  0
LINE
  8
0
  6
CONTINUOUS
 62
3
 10
-2.499997615815493
 20
-1.443371644997905
 11
-2.499998569489762
 21
1.443377622580220
  0
LINE
  8
0
  6
CONTINUOUS
 62
3
 10
2.499997615814836
 20
1.443371644999042
 11
2.499998569489158
 21
-1.443373807881817
  0
LINE
  8
0
  6
CONTINUOUS
 62
3
 10
0.000004721207233
 20
2.886748740356097
 11
2.499998505998519
 21
1.443372095808627
  0
LINE
  8
0
  6
CONTINUOUS
 62
3
 10
-0.000005512125483
 20
-2.886746937722080
 11
-2.499997817169060
 21
-1.443371590977961
  0
LINE
  8
0
  6
CONTINUOUS
 62
3
 10
0.000004782436690
 20
2.886748260213380
 11
-2.499999945610170
 21
1.443377225120230
  0
LINE
  8
0
  6
CONTINUOUS
 62
3
 10
2.499999351944041
 20
-1.443373974675978
 11
-0.000004997562428
 21
-2.886747551371855
  0
ENDBLK
  8
0
  0
BLOCK
  8
0
  2
SYM12
 70
64
 10
0.000000000000000
 20
0.000000000000000
  0
CIRCLE
  8
0
  6
CONTINUOUS
 62
3
 10
0.000000000000000
 20
0.000000000000000
 40
5.000000000000000
  0
POINT
  8
0
  6
CONTINUOUS
 62
3
 10
0.000000000000000
 20
0.000000000000000
  0
LINE
  8
0
  6
CONTINUOUS
 62
3
 10
-2.499997615815493
 20
-1.443371644997905
 11
-2.499998569489762
 21
1.443377622580220
  0
LINE
  8
0
  6
CONTINUOUS
 62
3
 10
2.499997615814836
 20
1.443371644999042
 11
2.499998569489158
 21
-1.443373807881817
  0
LINE
  8
0
  6
CONTINUOUS
 62
3
 10
0.000004721207233
 20
2.886748740356097
 11
2.499998505998519
 21
1.443372095808627
  0
LINE
  8
0
  6
CONTINUOUS
 62
3
 10
-0.000005512125483
 20
-2.886746937722080
 11
-2.499997817169060
 21
-1.443371590977961
  0
LINE
  8
0
  6
CONTINUOUS
 62
3
 10
0.000004782436690
 20
2.886748260213380
 11
-2.499999945610170
 21
1.443377225120230
  0
LINE
  8
0
  6
CONTINUOUS
 62
3
 10
2.499999351944041
 20
-1.443373974675978
 11
-0.000004997562428
 21
-2.886747551371855
  0
ENDBLK
  8
0
  0
ENDSEC
  0
SECTION
  2
ENTITIES
  0
LINE
  8
0
  6
CONTINUOUS
 62
3
 10
373.441370316447260
 20
-219.294671212723100
 11
324.199258962034490
 21
-219.294671212723100
  0
LINE
  8
0
  6
CONTINUOUS
 62
3
 10
274.957147607621270
 20
-219.294671212723100
 11
324.199258962034040
 21
-219.294671212723100
  0
CIRCLE
  8
0
  6
CONTINUOUS
 62
3
 10
324.199258962033580
 20
-114.795025739480470
 40
85.000000000000000
  0
ARC
  8
0
  6
CONTINUOUS
 62
3
 10
-362.143613295726200
 20
-161.125595801575490
 40
6.099999427795398
 50
174.601910595264880
 51
275.398072101891500
  0
POINT
  8
0
  6
CONTINUOUS
 62
3
 10
-364.406354860653210
 20
-163.388337366502530
  0
LINE
  8
0
  6
CONTINUOUS
 62
3
 10
-367.729756597360050
 20
-160.064935629795660
 11
-361.082953123946370
 21
-166.711739103209400
  0
LINE
  8
0
  6
CONTINUOUS
 62
3
 10
-368.042895206328860
 20
-160.317482580646040
 11
-361.365795903855940
 21
-166.994581883118970
  0
LINE
  8
0
  6
CONTINUOUS
 62
3
 10
-361.082953123946370
 20
-166.711739103209400
 11
-361.569756515651990
 21
-167.198542494914990
  0
LINE
  8
0
  6
CONTINUOUS
 62
3
 10
-367.729756597360050
 20
-160.064935629795660
 11
-368.216559989065670
 21
-160.551739021501280
  0
ARC
  8
0
  6
CONTINUOUS
 62
3
 10
-272.482473171532380
 20
-161.125595801575490
 40
6.099999427795406
 50
264.601927898108500
 51
5.398089404735109
  0
POINT
  8
0
  6
CONTINUOUS
 62
3
 10
-270.219731606605360
 20
-163.388337366502530
  0
LINE
  8
0
  6
CONTINUOUS
 62
3
 10
-266.896329869898520
 20
-160.064935629795660
 11
-273.543133343312210
 21
-166.711739103209400
  0
LINE
  8
0
  6
CONTINUOUS
 62
3
 10
-266.583191260929710
 20
-160.317482580646040
 11
-273.260290563402630
 21
-166.994581883118970
  0
LINE
  8
0
  6
CONTINUOUS
 62
3
 10
-273.543133343312210
 20
-166.711739103209400
 11
-273.056329951606590
 21
-167.198542494914990
  0
LINE
  8
0
  6
CONTINUOUS
 62
3
 10
-266.896329869898520
 20
-160.064935629795660
 11
-266.409526478192900
 21
-160.551739021501280
  0
ARC
  8
0
  6
CONTINUOUS
 62
3
 10
-272.482473171532380
 20
-71.464455677381508
 40
6.099999427795398
 50
354.601910595264880
 51
95.398072101891515
  0
POINT
  8
0
  6
CONTINUOUS
 62
3
 10
-270.219731606605360
 20
-69.201714112454468
  0
LINE
  8
0
  6
CONTINUOUS
 62
3
 10
-266.896329869898520
 20
-72.525115849161324
 11
-273.543133343312210
 21
-65.878312375747612
  0
LINE
  8
0
  6
CONTINUOUS
 62
3
 10
-266.583191260929710
 20
-72.272568898310951
 11
-273.260290563402630
 21
-65.595469595838040
  0
LINE
  8
0
  6
CONTINUOUS
 62
3
 10
-273.543133343312210
 20
-65.878312375747612
 11
-273.056329951606590
 21
-65.391508984041991
  0
LINE
  8
0
  6
CONTINUOUS
 62
3
 10
-266.896329869898520
 20
-72.525115849161324
 11
-266.409526478192900
 21
-72.038312457455703
  0
INSERT
  8
0
  2
SYM1
 10
52.490399589611570
 20
-140.795025739480480
  0
INSERT
  8
0
  2
SYM2
 10
19.990399589612480
 20
-96.600851915321527
  0
INSERT
  8
0
  2
SYM3
 10
19.990399589612480
 20
-184.989199563639430
  0
INSERT
  8
0
  2
SYM4
 10
52.490399589594972
 20
86.526976553082932
 41
-1.000000000000000
 50
179.999999999999970
  0
INSERT
  8
0
  2
SYM5
 10
52.490399589594972
 20
170.526976553084750
 50
0.000000000000014
  0
INSERT
  8
0
  2
SYM6
 10
19.990391728292664
 20
172.721150377242340
 41
-1.000000000000000
 50
180.000000000000000
  0
INSERT
  8
0
  2
SYM7
 10
19.990391728292664
 20
84.332802728923525
  0
INSERT
  8
0
  2
SYM8
 10
-273.118869409469880
 20
-184.989199563637730
  0
INSERT
  8
0
  2
SYM9
 10
-361.507217057788690
 20
-184.989199563637780
  0
INSERT
  8
0
  2
SYM10
 10
-274.313043233629290
 20
-212.295025739478770
  0
INSERT
  8
0
  2
SYM11
 10
-360.313043233629290
 20
-212.295025739478770
  0
INSERT
  8
0
  2
SYM12
 10
-389.313043233629290
 20
-140.795025739478720
  0
TEXT
  8
0
  6
CONTINUOUS
 62
3
 10
-357.485900878906250
 20
139.653808593750000
 40
7.919999599456787
  1
Ｓ１４０
 50
0.000002504478167
 41
0.984848598876354
  7
STANDARD1
  0
TEXT
  8
0
  6
CONTINUOUS
 62
3
 10
-357.485900878906250
 20
126.933807373046870
 40
7.919999599456787
  1
三菱ギヤードモートル
 50
0.000002504478167
 41
0.984848598876354
  7
STANDARD1
  0
TEXT
  8
0
  6
CONTINUOUS
 62
3
 10
-357.485900878906250
 20
114.213806152343750
 40
7.919999599456787
  1
ＧＭ－ＳＦＳ
 50
0.000002504478167
 41
0.984848598876354
  7
STANDARD1
  0
TEXT
  8
0
  6
CONTINUOUS
 62
3
 10
-357.485900878906250
 20
101.493804931640620
 40
7.919999599456787
  1
０．１ｋＷ
 50
0.000002504478167
 41
0.984848598876354
  7
STANDARD1
  0
TEXT
  8
0
  6
CONTINUOUS
 62
3
 10
-357.485900878906250
 20
88.773803710937500
 40
7.919999599456787
  1
１／２７０～１／４５０
 50
0.000002504478167
 41
0.984848598876354
  7
STANDARD1
  0
TEXT
  8
0
  6
CONTINUOUS
 62
3
 10
-357.485900878906250
 20
76.053802490234375
 40
7.919999599456787
  1
ＳＣＡＬＥ１／１
 50
0.000002504478167
 41
0.984848598876354
  7
STANDARD1
  0
LINE
  8
0
  6
CONTINUOUS
 62
3
 10
25.990399589604635
 20
-197.095025739478270
 11
25.990399589604635
 21
-199.295025739480480
  0
LINE
  8
0
  6
CONTINUOUS
 62
3
 10
25.990399589604635
 20
-197.095025739478270
 11
25.990399589604635
 21
-82.295025739480366
  0
LINE
  8
0
  6
CONTINUOUS
 62
3
 10
47.490399589604749
 20
-160.795025739480480
 11
25.990399589604749
 21
-160.795025739480480
  0
LINE
  8
0
  6
CONTINUOUS
 62
3
 10
25.990399589605659
 20
-120.795025739480470
 11
44.490399589605659
 21
-120.795025739480470
  0
LINE
  8
0
  6
CONTINUOUS
 62
3
 10
42.752079370820866
 20
-81.364175545810212
 11
25.990399589605659
 21
-82.242617960197094
  0
LINE
  8
0
  6
CONTINUOUS
 62
3
 10
42.752079370819047
 20
-200.225875933150750
 11
25.990399589604749
 21
-199.347433518763860
  0
LINE
  8
0
  6
CONTINUOUS
 62
3
 10
25.990399589604749
 20
-199.347433518763860
 11
25.990399589604522
 21
-82.295025739480366
  0
ARC
  8
0
  6
CONTINUOUS
 62
3
 10
42.490399589604749
 20
-205.219023606923660
 40
5.000000000000000
 50
0.000000000000000
 51
87.000000000004846
  0
ARC
  8
0
  6
CONTINUOUS
 62
3
 10
42.490399589605659
 20
-76.371027872037303
 40
5.000000000000066
 50
273.000000000005570
 51
323.130102354303570
  0
LINE
  8
0
  6
CONTINUOUS
 62
3
 10
58.990399589598610
 20
-59.795025739480479
 11
49.490400942347151
 21
-59.795025739480479
  0
LINE
  8
0
  6
CONTINUOUS
 62
3
 10
58.990399589598610
 20
-217.295025739480480
 11
53.490399589604749
 21
-217.295025739480480
  0
LINE
  8
0
  6
CONTINUOUS
 62
3
 10
47.490399589603840
 20
-111.922042393273840
 11
47.490399589605659
 21
-75.189038760045150
  0
LINE
  8
0
  6
CONTINUOUS
 62
3
 10
47.490399589604749
 20
-131.668009085688940
 11
47.490399589604749
 21
-135.795025739480480
  0
ARC
  8
0
  6
CONTINUOUS
 62
3
 10
49.490399589606568
 20
-61.795025739480479
 40
2.000000000000000
 50
90.000000000000000
 51
180.000000000000000
  0
LINE
  8
0
  6
CONTINUOUS
 62
3
 10
47.490399589606568
 20
-69.795025739480479
 11
47.490399589606568
 21
-61.795025739480479
  0
LINE
  8
0
  6
CONTINUOUS
 62
3
 10
52.490399589604749
 20
-207.772898464935680
 11
52.490399589604749
 21
-217.295025739480480
  0
LINE
  8
0
  6
CONTINUOUS
 62
3
 10
47.490399589604749
 20
-145.795025739480480
 11
47.490399589604749
 21
-207.295025739480480
  0
ARC
  8
0
  6
CONTINUOUS
 62
3
 10
53.490399589604749
 20
-216.295025739480480
 40
1.000000000000000
 50
180.000000000000000
 51
270.000000000000000
  0
ARC
  8
0
  6
CONTINUOUS
 62
3
 10
51.490399589604749
 20
-207.772898464935680
 40
1.000000000000000
 50
0.000000000000000
 51
90.000000000000000
  0
ARC
  8
0
  6
CONTINUOUS
 62
3
 10
48.490399589604749
 20
-205.772898464935680
 40
1.000000000000000
 50
180.000000000000000
 51
270.000000000000000
  0
LINE
  8
0
  6
CONTINUOUS
 62
3
 10
48.490399589604749
 20
-206.772898464935680
 11
51.490399589604749
 21
-206.772898464935680
  0
LINE
  8
0
  6
CONTINUOUS
 62
3
 10
52.490399589604749
 20
-216.295025739480480
 11
52.490399589604749
 21
-207.772898464935680
  0
ARC
  8
0
  6
CONTINUOUS
 62
3
 10
51.490399589604749
 20
-134.795025739480480
 40
1.000000000000000
 50
0.000000000000000
 51
90.000000000000000
  0
ARC
  8
0
  6
CONTINUOUS
 62
3
 10
48.490399589604749
 20
-132.795025739480480
 40
1.000000000000000
 50
180.000000000000000
 51
270.000000000000000
  0
LINE
  8
0
  6
CONTINUOUS
 62
3
 10
52.490399589604749
 20
-146.795025739479570
 11
52.490399589604749
 21
-134.795025739480480
  0
LINE
  8
0
  6
CONTINUOUS
 62
3
 10
48.490399589604749
 20
-133.795025739480480
 11
51.490399589604749
 21
-133.795025739480480
  0
ARC
  8
0
  6
CONTINUOUS
 62
3
 10
45.490399589604749
 20
-131.668009085688940
 40
2.000000000000000
 50
0.000000000000000
 51
75.522487814070544
  0
LINE
  8
0
  6
CONTINUOUS
 62
3
 10
44.490399589605659
 20
-127.795025739481380
 11
44.490399589605659
 21
-115.795025739481380
  0
ARC
  8
0
  6
CONTINUOUS
 62
3
 10
46.490399589605659
 20
-127.795025739481380
 40
2.000000000000000
 50
180.000000000000000
 51
255.522487814045290
  0
ARC
  8
0
  6
CONTINUOUS
 62
3
 10
45.490399589604749
 20
-111.922042393273840
 40
2.000000000000063
 50
284.477512185929470
 51
359.999999999973970
  0
ARC
  8
0
  6
CONTINUOUS
 62
3
 10
46.490399589605659
 20
-115.795025739481380
 40
2.000000000000290
 50
104.477512185954690
 51
180.000000000000000
  0
ARC
  8
0
  6
CONTINUOUS
 62
3
 10
51.490399589604749
 20
-146.795025739479570
 40
1.000000000000000
 50
270.000000000000000
 51
0.000000000000000
  0
ARC
  8
0
  6
CONTINUOUS
 62
3
 10
48.490399589604749
 20
-148.795025739479570
 40
1.000000000000000
 50
90.000000000000000
 51
180.000000000000000
  0
LINE
  8
0
  6
CONTINUOUS
 62
3
 10
48.490399589604749
 20
-147.795025739479570
 11
51.490399589604749
 21
-147.795025739479570
  0
LINE
  8
0
  6
CONTINUOUS
 62
3
 10
46.490399589604749
 20
-217.295025739480480
 11
46.490399589604749
 21
-207.295025739480480
  0
LINE
  8
0
  6
CONTINUOUS
 62
3
 10
52.490399589604749
 20
-217.295025739480480
 11
46.490399589604749
 21
-217.295025739480480
  0
LINE
  8
0
  6
CONTINUOUS
 62
3
 10
52.368828675112525
 20
-207.295025739480480
 11
46.490399589604749
 21
-207.295025739480480
  0
LINE
  8
0
  6
CONTINUOUS
 62
3
 10
52.490399589613389
 20
-73.189038760045605
 11
52.490399589613389
 21
-64.385518999381929
  0
LINE
  8
0
  6
CONTINUOUS
 62
3
 10
48.490399589613389
 20
-74.189038760045605
 11
51.490399589613389
 21
-74.189038760045605
  0
ARC
  8
0
  6
CONTINUOUS
 62
3
 10
51.490399589613389
 20
-73.189038760045605
 40
1.000000000000000
 50
270.000000000000000
 51
0.000000000000000
  0
LINE
  8
0
  6
CONTINUOUS
 62
3
 10
48.490399589613389
 20
-63.385518999381929
 11
51.490399589613389
 21
-63.385518999381929
  0
ARC
  8
0
  6
CONTINUOUS
 62
3
 10
51.490399589613389
 20
-64.385518999381929
 40
1.000000000000000
 50
0.000000000000000
 51
90.000000000000000
  0
LINE
  8
0
  6
CONTINUOUS
 62
3
 10
52.490399589613389
 20
-69.795025739480479
 11
46.490399589613389
 21
-69.795025739480479
  0
LINE
  8
0
  6
CONTINUOUS
 62
3
 10
52.490399589613389
 20
-68.695026311685069
 11
52.490399589613389
 21
-73.189038760045605
  0
LINE
  8
0
  6
CONTINUOUS
 62
3
 10
46.490399589613389
 20
-79.795025739480479
 11
46.490399589613389
 21
-69.795025739480479
  0
LINE
  8
0
  6
CONTINUOUS
 62
3
 10
47.490399589612480
 20
-79.795025739480479
 11
46.490399589613389
 21
-79.795025739480479
  0
ARC
  8
0
  6
CONTINUOUS
 62
3
 10
48.490399589613389
 20
-75.189038760045605
 40
1.000000000000000
 50
90.000000000000000
 51
180.000000000000000
  0
ARC
  8
0
  6
CONTINUOUS
 62
3
 10
48.490399589613389
 20
-62.385518999381929
 40
1.000000000000000
 50
180.000000000000000
 51
270.000000000000000
  0
ARC
  8
0
  6
CONTINUOUS
 62
3
 10
-71.509600410400026
 20
-145.795025739478550
 40
2.000000000000000
 50
270.000000000000000
 51
0.000000000000000
  0
ARC
  8
0
  6
CONTINUOUS
 62
3
 10
-71.509600410400026
 20
-145.295025739478550
 40
1.000000000000000
 50
270.000000000000000
 51
0.000000000000000
  0
LINE
  8
0
  6
CONTINUOUS
 62
3
 10
-69.509600410400026
 20
-116.295025739478540
 11
-69.509600410400026
 21
-145.795025739478550
  0
LINE
  8
0
  6
CONTINUOUS
 62
3
 10
-70.509600410400026
 20
-145.295025739478550
 11
-70.509600410400026
 21
-116.295025739478540
  0
LINE
  8
0
  6
CONTINUOUS
 62
3
 10
-70.509600410400026
 20
-87.295025739478547
 11
-70.509600410400026
 21
-116.295025739478540
  0
LINE
  8
0
  6
CONTINUOUS
 62
3
 10
-69.509600410400026
 20
-116.295025739478540
 11
-69.509600410400026
 21
-86.795025739478547
  0
ARC
  8
0
  6
CONTINUOUS
 62
3
 10
-71.509600410400026
 20
-86.795025739478547
 40
2.000000000000000
 50
0.000000000000000
 51
90.000000000000000
  0
ARC
  8
0
  6
CONTINUOUS
 62
3
 10
-71.509600410400026
 20
-87.295025739478547
 40
1.000000000000000
 50
0.000000000000000
 51
90.000000000000000
  0
LINE
  8
0
  6
CONTINUOUS
 62
3
 10
-71.509600410400026
 20
-86.295025739478547
 11
-142.509600410400030
 21
-86.295025739478547
  0
LINE
  8
0
  6
CONTINUOUS
 62
3
 10
-71.509600410400026
 20
-147.795025739478550
 11
-142.509600410400030
 21
-147.795025739478550
  0
ARC
  8
0
  6
CONTINUOUS
 62
3
 10
-142.509600410400030
 20
-145.795025739478550
 40
2.000000000000000
 50
180.000000000000000
 51
270.000000000000000
  0
LINE
  8
0
  6
CONTINUOUS
 62
3
 10
-71.509600410400026
 20
-146.295025739478550
 11
-142.509600410400030
 21
-146.295025739478550
  0
ARC
  8
0
  6
CONTINUOUS
 62
3
 10
-142.509600410400030
 20
-145.295025739478550
 40
1.000000000000000
 50
180.000000000000000
 51
270.000000000000000
  0
LINE
  8
0
  6
CONTINUOUS
 62
3
 10
-144.509600410400030
 20
-116.295025739478540
 11
-144.509600410400030
 21
-145.795025739478550
  0
LINE
  8
0
  6
CONTINUOUS
 62
3
 10
-143.509600410400030
 20
-116.295025739478540
 11
-143.509600410400030
 21
-145.295025739478550
  0
LINE
  8
0
  6
CONTINUOUS
 62
3
 10
-143.509600410400030
 20
-116.295025739478540
 11
-143.509600410400030
 21
-87.295025739478547
  0
LINE
  8
0
  6
CONTINUOUS
 62
3
 10
-144.509600410400030
 20
-116.295025739478540
 11
-144.509600410400030
 21
-86.795025739478547
  0
ARC
  8
0
  6
CONTINUOUS
 62
3
 10
-142.509600410400030
 20
-86.795025739478547
 40
2.000000000000000
 50
90.000000000000000
 51
180.000000000000000
  0
ARC
  8
0
  6
CONTINUOUS
 62
3
 10
-142.509600410400030
 20
-87.295025739478547
 40
1.000000000000000
 50
90.000000000000000
 51
180.000000000000000
  0
LINE
  8
0
  6
CONTINUOUS
 62
3
 10
-71.509600410400026
 20
-84.795025739478547
 11
-142.509600410400030
 21
-84.795025739478547
  0
LINE
  8
0
  6
CONTINUOUS
 62
4
 10
-69.509600410400026
 20
-87.538630188841466
 11
-16.009600410400253
 21
-87.538630188841466
  0
LINE
  8
0
  6
CONTINUOUS
 62
4
 10
-69.509600410400026
 20
-89.017653342318567
 11
-16.009600410400253
 21
-89.017653342318567
  0
LINE
  8
0
  6
CONTINUOUS
 62
4
 10
-69.509600410400026
 20
-92.110384333983802
 11
-16.009600410400253
 21
-92.110384333983802
  0
LINE
  8
0
  6
CONTINUOUS
 62
4
 10
-69.509600410400026
 20
-93.456786059482397
 11
-16.009600410400253
 21
-93.456786059482397
  0
LINE
  8
0
  6
CONTINUOUS
 62
4
 10
-69.509600410400026
 20
-96.295025739478547
 11
-16.009600410400253
 21
-96.295025739478547
  0
LINE
  8
0
  6
CONTINUOUS
 62
4
 10
-136.667200756792450
 20
-76.254590332954081
 11
-16.009600410400253
 21
-76.254590332954081
  0
LINE
  8
0
  6
CONTINUOUS
 62
4
 10
-136.509600410421170
 20
-71.790370212373659
 11
-16.009600410400253
 21
-71.790370212373659
  0
LINE
  8
0
  6
CONTINUOUS
 62
4
 10
-146.509600410421170
 20
-93.456786059482397
 11
-144.509600410400030
 21
-93.456786059482397
  0
LINE
  8
0
  6
CONTINUOUS
 62
4
 10
-146.509600410421170
 20
-92.110384333983802
 11
-144.509600410400030
 21
-92.110384333983802
  0
LINE
  8
0
  6
CONTINUOUS
 62
4
 10
-146.509600410421170
 20
-89.017653342318567
 11
-144.509600410400030
 21
-89.017653342318567
  0
LINE
  8
0
  6
CONTINUOUS
 62
4
 10
-146.509600410421170
 20
-87.538630188841466
 11
-144.509600410400030
 21
-87.538630188841466
  0
LINE
  8
0
  6
CONTINUOUS
 62
4
 10
-146.509600410421170
 20
-84.580634580708534
 11
-16.009600410400253
 21
-84.580634580708534
  0
LINE
  8
0
  6
CONTINUOUS
 62
4
 10
-146.509600410421170
 20
-82.991424787969777
 11
-16.009600410400253
 21
-82.991424787969777
  0
LINE
  8
0
  6
CONTINUOUS
 62
4
 10
-146.509600410421170
 20
-96.295025739478547
 11
-144.509600410400030
 21
-96.295025739478547
  0
LINE
  8
0
  6
CONTINUOUS
 62
4
 10
-136.509600410421170
 20
-75.253111969138786
 11
-16.009600410400253
 21
-75.253111969138786
  0
LINE
  8
0
  6
CONTINUOUS
 62
4
 10
-136.509600410421170
 20
-70.161943144595853
 11
-16.009600410400253
 21
-70.161943144595853
  0
LINE
  8
0
  6
CONTINUOUS
 62
4
 10
-136.509600410421170
 20
-65.295025739478433
 11
-16.009600410400253
 21
-65.295025739478433
  0
LINE
  8
0
  6
CONTINUOUS
 62
4
 10
-136.509600410421170
 20
-65.795025739478547
 11
-16.009600410400253
 21
-65.795025739478547
  0
LINE
  8
0
  6
CONTINUOUS
 62
3
 10
-16.009600410400253
 20
-63.795025739478547
 11
-136.509600410421170
 21
-63.795025739478547
  0
LINE
  8
0
  6
CONTINUOUS
 62
3
 10
-136.509600410421170
 20
-62.295025739478319
 11
-166.014445359514180
 21
-62.295025739478319
  0
LINE
  8
0
  6
CONTINUOUS
 62
3
 10
-177.830119948345550
 20
-66.020493627125006
 11
-185.400899144934330
 21
-71.321610290697549
  0
LINE
  8
0
  6
CONTINUOUS
 62
3
 10
-186.509600410421400
 20
-73.451405605849004
 11
-186.509600410421400
 21
-116.295025739478540
  0
ARC
  8
0
  6
CONTINUOUS
 62
3
 10
-183.909600410421490
 20
-73.451405605849004
 40
2.600000000000131
 50
125.000000000001180
 51
180.000000000000000
  0
ARC
  8
0
  6
CONTINUOUS
 62
3
 10
-166.014445359514180
 20
-82.895025739478342
 40
20.600000000000023
 50
90.000000000000000
 51
124.999999999999600
  0
LINE
  8
0
  6
CONTINUOUS
 62
3
 10
-147.509600410421400
 20
-67.151104716753366
 11
-149.509600410421170
 21
-68.803746355876797
  0
LINE
  8
0
  6
CONTINUOUS
 62
3
 10
-145.509600410421170
 20
-65.975319231130584
 11
-147.509600410421400
 21
-67.151104716753366
  0
LINE
  8
0
  6
CONTINUOUS
 62
3
 10
-147.509600410421400
 20
-67.151104716753366
 11
-145.509600410421170
 21
-68.803746355876797
  0
LINE
  8
0
  6
CONTINUOUS
 62
3
 10
-149.509600410421170
 20
-65.975319231130584
 11
-147.509600410421400
 21
-67.151104716753366
  0
POLYLINE
  8
0
  6
CONTINUOUS
 62
3
 66
1
 70
1
  0
VERTEX
  8
0
  6
CONTINUOUS
 62
3
 10
-142.809600410420960
 20
-68.967694785130902
  0
VERTEX
  8
0
  6
CONTINUOUS
 62
3
 10
-142.899909592525770
 20
-68.264737818930541
  0
VERTEX
  8
0
  6
CONTINUOUS
 62
3
 10
-143.167366607617910
 20
-67.588795094718449
  0
VERTEX
  8
0
  6
CONTINUOUS
 62
3
 10
-143.601693232598990
 20
-66.965842712313048
  0
VERTEX
  8
0
  6
CONTINUOUS
 62
3
 10
-144.186198538844170
 20
-66.419820382414471
  0
VERTEX
  8
0
  6
CONTINUOUS
 62
3
 10
-144.898420315228830
 20
-65.971711436947857
  0
VERTEX
  8
0
  6
CONTINUOUS
 62
3
 10
-145.710988278305020
 20
-65.638736451385086
  0
VERTEX
  8
0
  6
CONTINUOUS
 62
3
 10
-146.592675896945140
 20
-65.433691467686842
  0
VERTEX
  8
0
  6
CONTINUOUS
 62
3
 10
-147.509600410420940
 20
-65.364456249586070
  0
VERTEX
  8
0
  6
CONTINUOUS
 62
3
 10
-148.426524923896750
 20
-65.433691467686842
  0
VERTEX
  8
0
  6
CONTINUOUS
 62
3
 10
-149.308212542536860
 20
-65.638736451385086
  0
VERTEX
  8
0
  6
CONTINUOUS
 62
3
 10
-150.120780505613060
 20
-65.971711436947857
  0
VERTEX
  8
0
  6
CONTINUOUS
 62
3
 10
-150.833002281997720
 20
-66.419820382414471
  0
VERTEX
  8
0
  6
CONTINUOUS
 62
3
 10
-151.417507588242900
 20
-66.965842712313048
  0
VERTEX
  8
0
  6
CONTINUOUS
 62
3
 10
-151.851834213223980
 20
-67.588795094718449
  0
VERTEX
  8
0
  6
CONTINUOUS
 62
3
 10
-152.119291228316110
 20
-68.264737818930541
  0
VERTEX
  8
0
  6
CONTINUOUS
 62
3
 10
-152.209600410420930
 20
-68.967694785130902
  0
VERTEX
  8
0
  6
CONTINUOUS
 62
3
 10
-152.119291228316110
 20
-69.670651751331263
  0
VERTEX
  8
0
  6
CONTINUOUS
 62
3
 10
-151.851834213223980
 20
-70.346594475543355
  0
VERTEX
  8
0
  6
CONTINUOUS
 62
3
 10
-151.417507588242900
 20
-70.969546857948757
  0
VERTEX
  8
0
  6
CONTINUOUS
 62
3
 10
-150.833002281997690
 20
-71.515569187847333
  0
VERTEX
  8
0
  6
CONTINUOUS
 62
3
 10
-150.120780505613060
 20
-71.963678133313948
  0
VERTEX
  8
0
  6
CONTINUOUS
 62
3
 10
-149.308212542536860
 20
-72.296653118876719
  0
VERTEX
  8
0
  6
CONTINUOUS
 62
3
 10
-148.426524923896750
 20
-72.501698102574963
  0
VERTEX
  8
0
  6
CONTINUOUS
 62
3
 10
-147.509600410420940
 20
-72.570933320675735
  0
VERTEX
  8
0
  6
CONTINUOUS
 62
3
 10
-146.592675896945140
 20
-72.501698102574963
  0
VERTEX
  8
0
  6
CONTINUOUS
 62
3
 10
-145.710988278305020
 20
-72.296653118876719
  0
VERTEX
  8
0
  6
CONTINUOUS
 62
3
 10
-144.898420315228830
 20
-71.963678133313948
  0
VERTEX
  8
0
  6
CONTINUOUS
 62
3
 10
-144.186198538844200
 20
-71.515569187847333
  0
VERTEX
  8
0
  6
CONTINUOUS
 62
3
 10
-143.601693232598990
 20
-70.969546857948757
  0
VERTEX
  8
0
  6
CONTINUOUS
 62
3
 10
-143.167366607617910
 20
-70.346594475543355
  0
VERTEX
  8
0
  6
CONTINUOUS
 62
3
 10
-142.899909592525770
 20
-69.670651751331263
  0
SEQEND
  8
0
  6
CONTINUOUS
 62
3
  0
ARC
  8
0
  6
CONTINUOUS
 62
3
 10
-139.509600410421170
 20
-75.295025739478547
 40
3.000000000000000
 50
270.000000000000000
 51
0.000000000000000
  0
LINE
  8
0
  6
CONTINUOUS
 62
3
 10
-136.509600410421170
 20
-62.295025739478319
 11
-136.509600410421170
 21
-75.295025739478547
  0
ARC
  8
0
  6
CONTINUOUS
 62
3
 10
-143.509600410421170
 20
-81.295025739478547
 40
3.000000000000000
 50
90.000000000000000
 51
180.000000000000000
  0
LINE
  8
0
  6
CONTINUOUS
 62
3
 10
-139.509600410421170
 20
-78.295025739478547
 11
-143.509600410421170
 21
-78.295025739478547
  0
LINE
  8
0
  6
CONTINUOUS
 62
3
 10
-146.509600410421170
 20
-116.295025739478540
 11
-146.509600410421170
 21
-81.295025739478547
  0
LINE
  8
0
  6
CONTINUOUS
 62
3
 10
-177.830119948345550
 20
-166.569557851831970
 11
-185.400899144934330
 21
-161.268441188259430
  0
LINE
  8
0
  6
CONTINUOUS
 62
3
 10
-186.509600410421400
 20
-159.138645873108090
 11
-186.509600410421400
 21
-116.295025739478540
  0
ARC
  8
0
  6
CONTINUOUS
 62
3
 10
-183.909600410421490
 20
-159.138645873108090
 40
2.599999999999909
 50
180.000000000000000
 51
234.999999999997390
  0
ARC
  8
0
  6
CONTINUOUS
 62
3
 10
-166.014445359514180
 20
-149.695025739478750
 40
20.599999999999891
 50
235.000000000000400
 51
270.000000000000000
  0
LINE
  8
0
  6
CONTINUOUS
 62
3
 10
-136.509600410421170
 20
-170.295025739478770
 11
-166.014445359514180
 21
-170.295025739478770
  0
LINE
  8
0
  6
CONTINUOUS
 62
4
 10
-146.509600410421170
 20
-136.295025739478550
 11
-144.509600410400030
 21
-136.295025739478550
  0
LINE
  8
0
  6
CONTINUOUS
 62
4
 10
-146.509600410421170
 20
-139.133265419474700
 11
-144.509600410400030
 21
-139.133265419474700
  0
LINE
  8
0
  6
CONTINUOUS
 62
4
 10
-146.509600410421170
 20
-140.479667144973290
 11
-144.509600410400030
 21
-140.479667144973290
  0
LINE
  8
0
  6
CONTINUOUS
 62
4
 10
-146.509600410421170
 20
-143.572398136638530
 11
-144.509600410400030
 21
-143.572398136638530
  0
LINE
  8
0
  6
CONTINUOUS
 62
4
 10
-146.509600410421170
 20
-145.051421290115630
 11
-144.509600410400030
 21
-145.051421290115630
  0
LINE
  8
0
  6
CONTINUOUS
 62
4
 10
-146.509600410421170
 20
-148.009416898248560
 11
-16.009600410400253
 21
-148.009416898248560
  0
LINE
  8
0
  6
CONTINUOUS
 62
4
 10
-146.509600410421170
 20
-149.598626690987200
 11
-16.009600410400253
 21
-149.598626690987200
  0
LINE
  8
0
  6
CONTINUOUS
 62
4
 10
-136.667200756792450
 20
-156.335461146002900
 11
-16.009600410400253
 21
-156.335461146002900
  0
LINE
  8
0
  6
CONTINUOUS
 62
4
 10
-136.509600410421170
 20
-157.336939509818190
 11
-16.009600410400253
 21
-157.336939509818190
  0
LINE
  8
0
  6
CONTINUOUS
 62
4
 10
-136.509600410421170
 20
-160.799681266583430
 11
-16.009600410400253
 21
-160.799681266583430
  0
LINE
  8
0
  6
CONTINUOUS
 62
4
 10
-136.509600410421170
 20
-162.428108334361240
 11
-16.009600410400253
 21
-162.428108334361240
  0
LINE
  8
0
  6
CONTINUOUS
 62
4
 10
-136.509600410421170
 20
-167.295025739478550
 11
-16.009600410400253
 21
-167.295025739478550
  0
LINE
  8
0
  6
CONTINUOUS
 62
4
 10
-136.509600410421170
 20
-166.795025739478550
 11
-16.009600410400253
 21
-166.795025739478550
  0
LINE
  8
0
  6
CONTINUOUS
 62
3
 10
-16.009600410400253
 20
-168.795025739478550
 11
-136.509600410421170
 21
-168.795025739478550
  0
LINE
  8
0
  6
CONTINUOUS
 62
3
 10
-147.509600410421400
 20
-165.438946762203610
 11
-149.509600410421170
 21
-163.786305123080300
  0
LINE
  8
0
  6
CONTINUOUS
 62
3
 10
-145.509600410421170
 20
-166.614732247826510
 11
-147.509600410421400
 21
-165.438946762203610
  0
LINE
  8
0
  6
CONTINUOUS
 62
3
 10
-147.509600410421400
 20
-165.438946762203610
 11
-145.509600410421170
 21
-163.786305123080300
  0
LINE
  8
0
  6
CONTINUOUS
 62
3
 10
-149.509600410421170
 20
-166.614732247826510
 11
-147.509600410421400
 21
-165.438946762203610
  0
POLYLINE
  8
0
  6
CONTINUOUS
 62
3
 66
1
 70
1
  0
VERTEX
  8
0
  6
CONTINUOUS
 62
3
 10
-142.809600410420960
 20
-163.622356693826080
  0
VERTEX
  8
0
  6
CONTINUOUS
 62
3
 10
-142.899909592525770
 20
-162.919399727625720
  0
VERTEX
  8
0
  6
CONTINUOUS
 62
3
 10
-143.167366607617910
 20
-162.243457003413620
  0
VERTEX
  8
0
  6
CONTINUOUS
 62
3
 10
-143.601693232598990
 20
-161.620504621008220
  0
VERTEX
  8
0
  6
CONTINUOUS
 62
3
 10
-144.186198538844170
 20
-161.074482291109630
  0
VERTEX
  8
0
  6
CONTINUOUS
 62
3
 10
-144.898420315228830
 20
-160.626373345643000
  0
VERTEX
  8
0
  6
CONTINUOUS
 62
3
 10
-145.710988278305020
 20
-160.293398360080260
  0
VERTEX
  8
0
  6
CONTINUOUS
 62
3
 10
-146.592675896945140
 20
-160.088353376382000
  0
VERTEX
  8
0
  6
CONTINUOUS
 62
3
 10
-147.509600410420940
 20
-160.019118158281230
  0
VERTEX
  8
0
  6
CONTINUOUS
 62
3
 10
-148.426524923896750
 20
-160.088353376382000
  0
VERTEX
  8
0
  6
CONTINUOUS
 62
3
 10
-149.308212542536860
 20
-160.293398360080260
  0
VERTEX
  8
0
  6
CONTINUOUS
 62
3
 10
-150.120780505613060
 20
-160.626373345643000
  0
VERTEX
  8
0
  6
CONTINUOUS
 62
3
 10
-150.833002281997720
 20
-161.074482291109630
  0
VERTEX
  8
0
  6
CONTINUOUS
 62
3
 10
-151.417507588242900
 20
-161.620504621008220
  0
VERTEX
  8
0
  6
CONTINUOUS
 62
3
 10
-151.851834213223980
 20
-162.243457003413620
  0
VERTEX
  8
0
  6
CONTINUOUS
 62
3
 10
-152.119291228316110
 20
-162.919399727625720
  0
VERTEX
  8
0
  6
CONTINUOUS
 62
3
 10
-152.209600410420930
 20
-163.622356693826080
  0
VERTEX
  8
0
  6
CONTINUOUS
 62
3
 10
-152.119291228316110
 20
-164.325313660026440
  0
VERTEX
  8
0
  6
CONTINUOUS
 62
3
 10
-151.851834213223980
 20
-165.001256384238530
  0
VERTEX
  8
0
  6
CONTINUOUS
 62
3
 10
-151.417507588242900
 20
-165.624208766643930
  0
VERTEX
  8
0
  6
CONTINUOUS
 62
3
 10
-150.833002281997690
 20
-166.170231096542520
  0
VERTEX
  8
0
  6
CONTINUOUS
 62
3
 10
-150.120780505613060
 20
-166.618340042009150
  0
VERTEX
  8
0
  6
CONTINUOUS
 62
3
 10
-149.308212542536860
 20
-166.951315027571890
  0
VERTEX
  8
0
  6
CONTINUOUS
 62
3
 10
-148.426524923896750
 20
-167.156360011270150
  0
VERTEX
  8
0
  6
CONTINUOUS
 62
3
 10
-147.509600410420940
 20
-167.225595229370920
  0
VERTEX
  8
0
  6
CONTINUOUS
 62
3
 10
-146.592675896945140
 20
-167.156360011270150
  0
VERTEX
  8
0
  6
CONTINUOUS
 62
3
 10
-145.710988278305020
 20
-166.951315027571890
  0
VERTEX
  8
0
  6
CONTINUOUS
 62
3
 10
-144.898420315228830
 20
-166.618340042009150
  0
VERTEX
  8
0
  6
CONTINUOUS
 62
3
 10
-144.186198538844200
 20
-166.170231096542520
  0
VERTEX
  8
0
  6
CONTINUOUS
 62
3
 10
-143.601693232598990
 20
-165.624208766643930
  0
VERTEX
  8
0
  6
CONTINUOUS
 62
3
 10
-143.167366607617910
 20
-165.001256384238530
  0
VERTEX
  8
0
  6
CONTINUOUS
 62
3
 10
-142.899909592525770
 20
-164.325313660026440
  0
SEQEND
  8
0
  6
CONTINUOUS
 62
3
  0
ARC
  8
0
  6
CONTINUOUS
 62
3
 10
-139.509600410421170
 20
-157.295025739478550
 40
3.000000000000000
 50
0.000000000000000
 51
90.000000000000000
  0
LINE
  8
0
  6
CONTINUOUS
 62
3
 10
-136.509600410421170
 20
-170.295025739478770
 11
-136.509600410421170
 21
-157.295025739478550
  0
ARC
  8
0
  6
CONTINUOUS
 62
3
 10
-143.509600410421170
 20
-151.295025739478550
 40
3.000000000000000
 50
180.000000000000000
 51
270.000000000000000
  0
LINE
  8
0
  6
CONTINUOUS
 62
3
 10
-139.509600410421170
 20
-154.295025739478550
 11
-143.509600410421170
 21
-154.295025739478550
  0
LINE
  8
0
  6
CONTINUOUS
 62
3
 10
-146.509600410421170
 20
-116.295025739478540
 11
-146.509600410421170
 21
-151.295025739478550
  0
LINE
  8
0
  6
CONTINUOUS
 62
4
 10
-69.509600410400026
 20
-145.051421290115630
 11
-16.009600410400253
 21
-145.051421290115630
  0
LINE
  8
0
  6
CONTINUOUS
 62
4
 10
-69.509600410400026
 20
-143.572398136638530
 11
-16.009600410400253
 21
-143.572398136638530
  0
LINE
  8
0
  6
CONTINUOUS
 62
4
 10
-69.509600410400026
 20
-140.479667144973290
 11
-16.009600410400253
 21
-140.479667144973290
  0
LINE
  8
0
  6
CONTINUOUS
 62
4
 10
-69.509600410400026
 20
-139.133265419474700
 11
-16.009600410400253
 21
-139.133265419474700
  0
LINE
  8
0
  6
CONTINUOUS
 62
4
 10
-69.509600410400026
 20
-136.295025739478550
 11
-16.009600410400253
 21
-136.295025739478550
  0
ARC
  8
0
  6
CONTINUOUS
 62
3
 10
20.990414943733867
 20
-68.088923379747882
 40
3.000000000000000
 50
0.000000000000000
 51
88.000000000000682
  0
ARC
  8
0
  6
CONTINUOUS
 62
3
 10
-6.009569702169074
 20
-69.199662310127735
 40
5.000000000000000
 50
359.999999999998690
 51
88.000000000000256
  0
LINE
  8
0
  6
CONTINUOUS
 62
3
 10
23.990414943733867
 20
-78.795025739480423
 11
23.990414943733867
 21
-68.088923379747882
  0
LINE
  8
0
  6
DASHDOT
 62
4
 10
9.990414943733867
 20
-85.862376468485195
 11
9.990414943733867
 21
-61.399235470382223
  0
LINE
  8
0
  6
CONTINUOUS
 62
3
 10
21.095113433841334
 20
-65.090750898690601
 11
-16.009600410400253
 21
-63.795025739478547
  0
LINE
  8
0
  6
CONTINUOUS
 62
3
 10
-1.009585056300921
 20
-82.381162252658328
 11
-1.009585056300693
 21
-69.199662310127849
  0
LINE
  8
0
  6
CONTINUOUS
 62
3
 10
-16.009585056268634
 20
-63.795025739478547
 11
-16.009585056273863
 21
-168.803753003935240
  0
LINE
  8
0
  6
CONTINUOUS
 62
3
 10
-2.009585056301148
 20
-96.295025739480366
 11
-16.009585056270225
 21
-96.295025739480366
  0
ARC
  8
0
  6
CONTINUOUS
 62
3
 10
3.990414943699079
 20
-74.635192865262070
 40
5.000000000000000
 50
179.999999999999350
 51
267.000000000000910
  0
LINE
  8
0
  6
CONTINUOUS
 62
3
 10
25.990414943733867
 20
-80.795025739480423
 11
3.728735162484440
 21
-79.628340539034923
  0
LINE
  8
0
  6
CONTINUOUS
 62
3
 10
-1.009585056302285
 20
-169.065578977857910
 11
-1.009585056301262
 21
-102.332902722890310
  0
LINE
  8
0
  6
CONTINUOUS
 62
3
 10
-0.509613354017461
 20
-79.295025739479001
 11
-0.509614810867902
 21
-79.295025739479001
  0
LINE
  8
0
  6
CONTINUOUS
 62
3
 10
2.799841685596448
 20
-92.009141510535699
 11
13.476426446011146
 21
-92.009141510535699
  0
ARC
  8
0
  6
CONTINUOUS
 62
3
 10
-1.009585056301148
 20
-100.600851915321410
 40
1.000000000000000
 50
180.000000000000000
 51
239.999999999995450
  0
ARC
  8
0
  6
CONTINUOUS
 62
3
 10
-2.009585056300921
 20
-82.381162252658328
 40
1.000000000000033
 50
299.999999999998920
 51
0.000000000000000
  0
ARC
  8
0
  6
CONTINUOUS
 62
3
 10
-1.009585056300921
 20
-84.113213060227224
 40
0.999999999999984
 50
120.000000000000520
 51
180.000000000000000
  0
LINE
  8
0
  6
CONTINUOUS
 62
3
 10
-2.009585056301148
 20
-100.600851915321410
 11
-2.009585056300921
 21
-84.113213060227224
  0
ARC
  8
0
  6
CONTINUOUS
 62
3
 10
-2.009585056301262
 20
-102.332902722890310
 40
1.000000000000000
 50
0.000000000000000
 51
59.999999999999460
  0
LINE
  8
0
  6
CONTINUOUS
 62
3
 10
2.587481932155470
 20
-105.795025739480420
 11
13.308437505316078
 21
-105.795025739480420
  0
LINE
  8
0
  6
CONTINUOUS
 62
3
 10
2.116294366192278
 20
-151.841083686740320
 11
13.607253136016197
 21
-151.841083686740320
  0
LINE
  8
0
  6
CONTINUOUS
 62
3
 10
2.025096280716070
 20
-148.795025739480370
 11
13.424856965067420
 21
-148.795025739480370
  0
LINE
  8
0
  6
CONTINUOUS
 62
3
 10
-1.009585056301830
 20
-136.295025739480370
 11
-16.009585056272272
 21
-136.295025739480370
  0
ARC
  8
0
  6
CONTINUOUS
 62
3
 10
-13.111493906900705
 20
-173.855101013334950
 40
5.000000000000026
 50
45.102043218056203
 51
89.000000000000824
  0
LINE
  8
0
  6
CONTINUOUS
 62
3
 10
14.532909742201809
 20
-194.342702918428530
 11
-9.582262355869716
 21
-170.313275966948880
  0
LINE
  8
0
  6
CONTINUOUS
 62
3
 10
13.042787517177658
 20
-169.310864053523520
 11
-16.009569702134058
 21
-168.803753271942750
  0
LINE
  8
0
  6
CONTINUOUS
 62
3
 10
25.990414943733867
 20
-200.795025739480420
 11
25.990414943733867
 21
-80.795025739480423
  0
LINE
  8
0
  6
CONTINUOUS
 62
3
 10
25.990414943733867
 20
-120.809960806998950
 11
15.990414943734208
 21
-120.809960806998950
  0
LINE
  8
0
  6
CONTINUOUS
 62
3
 10
15.990414943734208
 20
-197.424054246505360
 11
15.990414943734208
 21
-84.295025739480479
  0
ARC
  8
0
  6
CONTINUOUS
 62
3
 10
25.990414943733867
 20
-78.795025739480423
 40
2.000000000000000
 50
180.000000000000000
 51
270.000000000000000
  0
LINE
  8
0
  6
CONTINUOUS
 62
3
 10
19.990414943733867
 20
-103.795025739480420
 11
19.990414943733867
 21
-82.588139314344119
  0
ARC
  8
0
  6
CONTINUOUS
 62
3
 10
21.990414943733867
 20
-82.588139314344119
 40
2.000000000000048
 50
87.000000000000995
 51
180.000000000000000
  0
ARC
  8
0
  6
CONTINUOUS
 62
3
 10
17.990414943734208
 20
-107.795025739480420
 40
2.000000000000000
 50
90.000000000000000
 51
180.000000000000000
  0
ARC
  8
0
  6
CONTINUOUS
 62
3
 10
17.990414943733867
 20
-103.795025739480420
 40
2.000000000000000
 50
270.000000000000000
 51
0.000000000000000
  0
LINE
  8
0
  6
CONTINUOUS
 62
3
 10
25.990414943733867
 20
-160.780090671961890
 11
15.990414943734208
 21
-160.780090671961890
  0
ARC
  8
0
  6
CONTINUOUS
 62
3
 10
12.990414943734208
 20
-172.310407138992620
 40
3.000000000000000
 50
0.000000000000000
 51
89.000000000000369
  0
ARC
  8
0
  6
CONTINUOUS
 62
3
 10
17.990414943734208
 20
-173.795025739480420
 40
2.000000000000000
 50
180.000000000000000
 51
270.000000000000000
  0
ARC
  8
0
  6
CONTINUOUS
 62
3
 10
17.990414943733867
 20
-177.795025739480420
 40
2.000000000000000
 50
0.000000000000000
 51
90.000000000000000
  0
LINE
  8
0
  6
CONTINUOUS
 62
3
 10
19.990414943733867
 20
-198.582649930352370
 11
19.990414943733867
 21
-177.795025739480420
  0
ARC
  8
0
  6
CONTINUOUS
 62
3
 10
11.003678191170820
 20
-197.884527964814590
 40
5.000000000000025
 50
3.299723825005552
 51
45.102043218056203
  0
ARC
  8
0
  6
CONTINUOUS
 62
3
 10
18.990414943734208
 20
-197.424054246505360
 40
3.000000000000000
 50
180.000000000000000
 51
267.000000000000970
  0
LINE
  8
0
  6
CONTINUOUS
 62
3
 10
25.990414943733867
 20
-200.795025739480420
 11
18.833407075005425
 21
-200.419942850769130
  0
ARC
  8
0
  6
CONTINUOUS
 62
3
 10
21.990414943733867
 20
-198.582649930352370
 40
2.000000000000000
 50
180.000000000000000
 51
267.000000000000910
  0
LINE
  8
0
  6
DASHDOT
 62
4
 10
8.902720019250410
 20
-116.295025739478540
 11
-202.782725646331530
 21
-116.295025739478540
  0
LINE
  8
0
  6
CONTINUOUS
 62
3
 10
-16.009600410391556
 20
75.026976553082932
 11
-16.009600410391556
 21
128.526976553082930
  0
LINE
  8
0
  6
CONTINUOUS
 62
3
 10
-144.509600410391330
 20
71.026976553082932
 11
-69.509600410391329
 21
71.026976553082932
  0
LINE
  8
0
  6
CONTINUOUS
 62
3
 10
-69.509600410391329
 20
71.026976553082932
 11
-69.509600410391329
 21
76.026976553083045
  0
LINE
  8
0
  6
CONTINUOUS
 62
3
 10
-70.509600410391329
 20
42.526976553082932
 11
-70.509600410391329
 21
71.026976553082932
  0
LINE
  8
0
  6
CONTINUOUS
 62
3
 10
-143.509600410391330
 20
42.526976553082932
 11
-143.509600410391330
 21
71.026976553082932
  0
ARC
  8
0
  6
CONTINUOUS
 62
3
 10
-142.509600410391330
 20
42.526976553082932
 40
1.000000000000000
 50
180.000000000000000
 51
270.000000000000000
  0
ARC
  8
0
  6
CONTINUOUS
 62
3
 10
-71.509600410391329
 20
42.526976553082932
 40
1.000000000000000
 50
270.000000000000000
 51
0.000000000000000
  0
LINE
  8
0
  6
CONTINUOUS
 62
3
 10
-16.009600410391556
 20
75.026976553082932
 11
-69.509600410391329
 21
75.026976553082932
  0
LINE
  8
0
  6
CONTINUOUS
 62
3
 10
-16.009600410391556
 20
182.026976553082930
 11
-16.009600410391556
 21
128.526976553082930
  0
LINE
  8
0
  6
CONTINUOUS
 62
3
 10
-77.509600410391329
 20
41.026976553082932
 11
-77.509600410391329
 21
41.526976553082932
  0
LINE
  8
0
  6
CONTINUOUS
 62
3
 10
-85.509600410391329
 20
41.026976553082932
 11
-77.509600410391329
 21
41.026976553082932
  0
LINE
  8
0
  6
CONTINUOUS
 62
3
 10
-85.509600410391329
 20
41.026976553082932
 11
-85.509600410391329
 21
41.526976553082932
  0
LINE
  8
0
  6
CONTINUOUS
 62
3
 10
-71.509600410391329
 20
41.526976553082932
 11
-142.509600410391330
 21
41.526976553082932
  0
LINE
  8
0
  6
CONTINUOUS
 62
3
 10
-136.509600410412700
 20
77.187280192273988
 11
-136.509600410412470
 21
128.526976553082930
  0
ARC
  8
0
  6
CONTINUOUS
 62
3
 10
-139.509600410412700
 20
77.187280192273988
 40
3.000000000000000
 50
270.000000000000000
 51
0.000000000000000
  0
LINE
  8
0
  6
CONTINUOUS
 62
3
 10
-143.509600410412700
 20
74.187280192273988
 11
-139.509600410412700
 21
74.187280192273988
  0
POLYLINE
  8
0
  6
CONTINUOUS
 62
3
 66
1
 70
1
  0
VERTEX
  8
0
  6
CONTINUOUS
 62
3
 10
-142.809600410412490
 20
81.199645598735401
  0
VERTEX
  8
0
  6
CONTINUOUS
 62
3
 10
-142.899909592517300
 20
81.902602564935762
  0
VERTEX
  8
0
  6
CONTINUOUS
 62
3
 10
-143.167366607609440
 20
82.578545289147854
  0
VERTEX
  8
0
  6
CONTINUOUS
 62
3
 10
-143.601693232590520
 20
83.201497671553255
  0
VERTEX
  8
0
  6
CONTINUOUS
 62
3
 10
-144.186198538835700
 20
83.747520001451832
  0
VERTEX
  8
0
  6
CONTINUOUS
 62
3
 10
-144.898420315220360
 20
84.195628946918447
  0
VERTEX
  8
0
  6
CONTINUOUS
 62
3
 10
-145.710988278296550
 20
84.528603932481218
  0
VERTEX
  8
0
  6
CONTINUOUS
 62
3
 10
-146.592675896936670
 20
84.733648916179462
  0
VERTEX
  8
0
  6
CONTINUOUS
 62
3
 10
-147.509600410412470
 20
84.802884134280234
  0
VERTEX
  8
0
  6
CONTINUOUS
 62
3
 10
-148.426524923888280
 20
84.733648916179462
  0
VERTEX
  8
0
  6
CONTINUOUS
 62
3
 10
-149.308212542528390
 20
84.528603932481218
  0
VERTEX
  8
0
  6
CONTINUOUS
 62
3
 10
-150.120780505604590
 20
84.195628946918447
  0
VERTEX
  8
0
  6
CONTINUOUS
 62
3
 10
-150.833002281989250
 20
83.747520001451832
  0
VERTEX
  8
0
  6
CONTINUOUS
 62
3
 10
-151.417507588234430
 20
83.201497671553255
  0
VERTEX
  8
0
  6
CONTINUOUS
 62
3
 10
-151.851834213215510
 20
82.578545289147854
  0
VERTEX
  8
0
  6
CONTINUOUS
 62
3
 10
-152.119291228307650
 20
81.902602564935762
  0
VERTEX
  8
0
  6
CONTINUOUS
 62
3
 10
-152.209600410412460
 20
81.199645598735401
  0
VERTEX
  8
0
  6
CONTINUOUS
 62
3
 10
-152.119291228307650
 20
80.496688632535040
  0
VERTEX
  8
0
  6
CONTINUOUS
 62
3
 10
-151.851834213215510
 20
79.820745908322948
  0
VERTEX
  8
0
  6
CONTINUOUS
 62
3
 10
-151.417507588234430
 20
79.197793525917547
  0
VERTEX
  8
0
  6
CONTINUOUS
 62
3
 10
-150.833002281989220
 20
78.651771196018970
  0
VERTEX
  8
0
  6
CONTINUOUS
 62
3
 10
-150.120780505604590
 20
78.203662250552355
  0
VERTEX
  8
0
  6
CONTINUOUS
 62
3
 10
-149.308212542528390
 20
77.870687264989584
  0
VERTEX
  8
0
  6
CONTINUOUS
 62
3
 10
-148.426524923888280
 20
77.665642281291341
  0
VERTEX
  8
0
  6
CONTINUOUS
 62
3
 10
-147.509600410412470
 20
77.596407063190568
  0
VERTEX
  8
0
  6
CONTINUOUS
 62
3
 10
-146.592675896936670
 20
77.665642281291341
  0
VERTEX
  8
0
  6
CONTINUOUS
 62
3
 10
-145.710988278296550
 20
77.870687264989584
  0
VERTEX
  8
0
  6
CONTINUOUS
 62
3
 10
-144.898420315220360
 20
78.203662250552355
  0
VERTEX
  8
0
  6
CONTINUOUS
 62
3
 10
-144.186198538835730
 20
78.651771196018970
  0
VERTEX
  8
0
  6
CONTINUOUS
 62
3
 10
-143.601693232590520
 20
79.197793525917547
  0
VERTEX
  8
0
  6
CONTINUOUS
 62
3
 10
-143.167366607609440
 20
79.820745908322948
  0
VERTEX
  8
0
  6
CONTINUOUS
 62
3
 10
-142.899909592517300
 20
80.496688632535040
  0
SEQEND
  8
0
  6
CONTINUOUS
 62
3
  0
LINE
  8
0
  6
CONTINUOUS
 62
3
 10
-149.509600410412700
 20
78.207270044734969
 11
-147.509600410412700
 21
79.383055530357865
  0
LINE
  8
0
  6
CONTINUOUS
 62
3
 10
-147.509600410412700
 20
79.383055530357865
 11
-145.509600410412700
 21
81.035697169481182
  0
LINE
  8
0
  6
CONTINUOUS
 62
3
 10
-145.509600410412700
 20
78.207270044734969
 11
-147.509600410412700
 21
79.383055530357865
  0
LINE
  8
0
  6
CONTINUOUS
 62
3
 10
-147.509600410412700
 20
79.383055530357865
 11
-149.509600410412700
 21
81.035697169481182
  0
ARC
  8
0
  6
CONTINUOUS
 62
3
 10
-143.509600410412700
 20
71.187280192273988
 40
3.000000000000000
 50
90.000000000000000
 51
180.000000000000000
  0
LINE
  8
0
  6
CONTINUOUS
 62
3
 10
-146.509600410412700
 20
69.526976553082932
 11
-146.509600410412700
 21
71.187280192273988
  0
LINE
  8
0
  6
CONTINUOUS
 62
3
 10
-136.509600410412700
 20
187.526976553082930
 11
-136.509600410412470
 21
128.526976553082930
  0
POLYLINE
  8
0
  6
CONTINUOUS
 62
3
 66
1
 70
1
  0
VERTEX
  8
0
  6
CONTINUOUS
 62
3
 10
-142.809600410412490
 20
175.854307507430460
  0
VERTEX
  8
0
  6
CONTINUOUS
 62
3
 10
-142.899909592517300
 20
176.557264473630820
  0
VERTEX
  8
0
  6
CONTINUOUS
 62
3
 10
-143.167366607609440
 20
177.233207197842920
  0
VERTEX
  8
0
  6
CONTINUOUS
 62
3
 10
-143.601693232590520
 20
177.856159580248320
  0
VERTEX
  8
0
  6
CONTINUOUS
 62
3
 10
-144.186198538835700
 20
178.402181910146910
  0
VERTEX
  8
0
  6
CONTINUOUS
 62
3
 10
-144.898420315220360
 20
178.850290855613540
  0
VERTEX
  8
0
  6
CONTINUOUS
 62
3
 10
-145.710988278296550
 20
179.183265841176280
  0
VERTEX
  8
0
  6
CONTINUOUS
 62
3
 10
-146.592675896936670
 20
179.388310824874540
  0
VERTEX
  8
0
  6
CONTINUOUS
 62
3
 10
-147.509600410412470
 20
179.457546042975310
  0
VERTEX
  8
0
  6
CONTINUOUS
 62
3
 10
-148.426524923888280
 20
179.388310824874540
  0
VERTEX
  8
0
  6
CONTINUOUS
 62
3
 10
-149.308212542528390
 20
179.183265841176280
  0
VERTEX
  8
0
  6
CONTINUOUS
 62
3
 10
-150.120780505604590
 20
178.850290855613540
  0
VERTEX
  8
0
  6
CONTINUOUS
 62
3
 10
-150.833002281989250
 20
178.402181910146910
  0
VERTEX
  8
0
  6
CONTINUOUS
 62
3
 10
-151.417507588234430
 20
177.856159580248320
  0
VERTEX
  8
0
  6
CONTINUOUS
 62
3
 10
-151.851834213215510
 20
177.233207197842920
  0
VERTEX
  8
0
  6
CONTINUOUS
 62
3
 10
-152.119291228307650
 20
176.557264473630820
  0
VERTEX
  8
0
  6
CONTINUOUS
 62
3
 10
-152.209600410412460
 20
175.854307507430460
  0
VERTEX
  8
0
  6
CONTINUOUS
 62
3
 10
-152.119291228307650
 20
175.151350541230100
  0
VERTEX
  8
0
  6
CONTINUOUS
 62
3
 10
-151.851834213215510
 20
174.475407817018010
  0
VERTEX
  8
0
  6
CONTINUOUS
 62
3
 10
-151.417507588234430
 20
173.852455434612610
  0
VERTEX
  8
0
  6
CONTINUOUS
 62
3
 10
-150.833002281989220
 20
173.306433104714020
  0
VERTEX
  8
0
  6
CONTINUOUS
 62
3
 10
-150.120780505604590
 20
172.858324159247390
  0
VERTEX
  8
0
  6
CONTINUOUS
 62
3
 10
-149.308212542528390
 20
172.525349173684650
  0
VERTEX
  8
0
  6
CONTINUOUS
 62
3
 10
-148.426524923888280
 20
172.320304189986390
  0
VERTEX
  8
0
  6
CONTINUOUS
 62
3
 10
-147.509600410412470
 20
172.251068971885620
  0
VERTEX
  8
0
  6
CONTINUOUS
 62
3
 10
-146.592675896936670
 20
172.320304189986390
  0
VERTEX
  8
0
  6
CONTINUOUS
 62
3
 10
-145.710988278296550
 20
172.525349173684650
  0
VERTEX
  8
0
  6
CONTINUOUS
 62
3
 10
-144.898420315220360
 20
172.858324159247390
  0
VERTEX
  8
0
  6
CONTINUOUS
 62
3
 10
-144.186198538835730
 20
173.306433104714020
  0
VERTEX
  8
0
  6
CONTINUOUS
 62
3
 10
-143.601693232590520
 20
173.852455434612610
  0
VERTEX
  8
0
  6
CONTINUOUS
 62
3
 10
-143.167366607609440
 20
174.475407817018010
  0
VERTEX
  8
0
  6
CONTINUOUS
 62
3
 10
-142.899909592517300
 20
175.151350541230100
  0
SEQEND
  8
0
  6
CONTINUOUS
 62
3
  0
LINE
  8
0
  6
CONTINUOUS
 62
3
 10
-149.509600410412700
 20
178.846683061430890
 11
-147.509600410412700
 21
177.670897575808110
  0
LINE
  8
0
  6
CONTINUOUS
 62
3
 10
-147.509600410412700
 20
177.670897575808110
 11
-145.509600410412700
 21
176.018255936684680
  0
LINE
  8
0
  6
CONTINUOUS
 62
3
 10
-145.509600410412700
 20
178.846683061430890
 11
-147.509600410412700
 21
177.670897575808110
  0
LINE
  8
0
  6
CONTINUOUS
 62
3
 10
-147.509600410412700
 20
177.670897575808110
 11
-149.509600410412700
 21
176.018255936684680
  0
LINE
  8
0
  6
CONTINUOUS
 62
3
 10
-16.009600410391556
 20
182.026976553082930
 11
-136.509600410412470
 21
182.026976553082930
  0
LINE
  8
0
  6
CONTINUOUS
 62
4
 10
-136.509600410412470
 20
179.526976553082930
 11
-16.009600410391556
 21
179.526976553082930
  0
LINE
  8
0
  6
CONTINUOUS
 62
4
 10
-136.509600410412470
 20
179.026976553082930
 11
-16.009600410391556
 21
179.026976553082930
  0
LINE
  8
0
  6
CONTINUOUS
 62
4
 10
-136.509600410412470
 20
174.660059147965630
 11
-16.009600410391556
 21
174.660059147965630
  0
LINE
  8
0
  6
CONTINUOUS
 62
4
 10
-136.509600410412470
 20
169.568890323422690
 11
-16.009600410391556
 21
169.568890323422690
  0
LINE
  8
0
  6
CONTINUOUS
 62
4
 10
-136.509600410412470
 20
161.830577504591700
 11
-16.009600410391556
 21
161.830577504591700
  0
LINE
  8
0
  6
CONTINUOUS
 62
4
 10
-136.509600410412470
 20
160.241367711852940
 11
-16.009600410391556
 21
160.241367711852940
  0
LINE
  8
0
  6
CONTINUOUS
 62
4
 10
-136.509600410412470
 20
157.283372103720010
 11
-16.009600410391556
 21
157.283372103720010
  0
LINE
  8
0
  6
CONTINUOUS
 62
4
 10
-136.509600410412470
 20
155.804348950243020
 11
-16.009600410391556
 21
155.804348950243020
  0
LINE
  8
0
  6
CONTINUOUS
 62
4
 10
-136.509600410412470
 20
152.711617958577680
 11
-16.009600410391556
 21
152.711617958577680
  0
LINE
  8
0
  6
CONTINUOUS
 62
4
 10
-136.509600410412470
 20
151.365216233079080
 11
-16.009600410391556
 21
151.365216233079080
  0
LINE
  8
0
  6
CONTINUOUS
 62
4
 10
-136.509600410412470
 20
148.155011209720780
 11
-16.009600410391556
 21
148.155011209720780
  0
LINE
  8
0
  6
CONTINUOUS
 62
4
 10
-136.509600410412470
 20
146.913091344832880
 11
-16.009600410391556
 21
146.913091344832880
  0
LINE
  8
0
  6
CONTINUOUS
 62
4
 10
-136.509600410412470
 20
142.526976553082930
 11
-16.009600410391556
 21
142.526976553082930
  0
LINE
  8
0
  6
CONTINUOUS
 62
4
 10
-136.509600410412250
 20
114.526976553082930
 11
-16.009600410391556
 21
114.526976553082930
  0
LINE
  8
0
  6
CONTINUOUS
 62
4
 10
-136.509600410412250
 20
110.140861761332980
 11
-16.009600410391556
 21
110.140861761332980
  0
LINE
  8
0
  6
CONTINUOUS
 62
4
 10
-136.509600410412250
 20
108.898941896445080
 11
-16.009600410391556
 21
108.898941896445080
  0
LINE
  8
0
  6
CONTINUOUS
 62
4
 10
-136.509600410412250
 20
105.688736873086780
 11
-16.009600410391556
 21
105.688736873086780
  0
LINE
  8
0
  6
CONTINUOUS
 62
4
 10
-136.509600410412250
 20
104.342335147588180
 11
-16.009600410391556
 21
104.342335147588180
  0
LINE
  8
0
  6
CONTINUOUS
 62
4
 10
-136.509600410412250
 20
101.249604155922950
 11
-16.009600410391556
 21
101.249604155922950
  0
LINE
  8
0
  6
CONTINUOUS
 62
4
 10
-136.509600410412250
 20
99.770581002445851
 11
-16.009600410391556
 21
99.770581002445851
  0
LINE
  8
0
  6
CONTINUOUS
 62
4
 10
-136.509600410412250
 20
95.223375601574276
 11
-16.009600410391556
 21
95.223375601574276
  0
LINE
  8
0
  6
CONTINUOUS
 62
4
 10
-136.509600410412250
 20
96.812585394312919
 11
-16.009600410391556
 21
96.812585394312919
  0
LINE
  8
0
  6
CONTINUOUS
 62
4
 10
-136.509600410412250
 20
87.485062782743171
 11
-16.009600410391556
 21
87.485062782743171
  0
LINE
  8
0
  6
CONTINUOUS
 62
4
 10
-136.509600410412250
 20
82.393893958200238
 11
-16.009600410391556
 21
82.393893958200351
  0
LINE
  8
0
  6
CONTINUOUS
 62
4
 10
-136.509600410412250
 20
78.026976553082932
 11
-16.009600410391556
 21
78.026976553082932
  0
LINE
  8
0
  6
CONTINUOUS
 62
4
 10
-136.509600410412250
 20
77.526976553082932
 11
-16.009600410391556
 21
77.526976553082932
  0
LINE
  8
0
  6
CONTINUOUS
 62
3
 10
-69.509600410391329
 20
76.026976553083045
 11
-136.743069104809990
 21
76.026976553083045
  0
LINE
  8
0
  6
CONTINUOUS
 62
3
 10
-144.509600410391330
 20
71.026976553082932
 11
-144.509600410391330
 21
74.015707317027591
  0
LINE
  8
0
  6
CONTINUOUS
 62
3
 10
-146.509600410412700
 20
69.526976553082932
 11
-166.014445359505490
 21
69.526976553082932
  0
LINE
  8
0
  6
CONTINUOUS
 62
3
 10
-136.509600410412700
 20
187.526976553082930
 11
-166.014445359505490
 21
187.526976553082930
  0
ARC
  8
0
  6
CONTINUOUS
 62
3
 10
-166.014445359505490
 20
90.126976553082955
 40
20.599999999999891
 50
235.000000000000400
 51
270.000000000000000
  0
ARC
  8
0
  6
CONTINUOUS
 62
3
 10
-183.909600410412790
 20
80.683356419453617
 40
2.600000000000136
 50
180.000000000000000
 51
234.999999999997390
  0
LINE
  8
0
  6
CONTINUOUS
 62
3
 10
-177.830119948336860
 20
73.252444440729732
 11
-185.400899144925630
 21
78.553561104302275
  0
LINE
  8
0
  6
CONTINUOUS
 62
3
 10
-186.509600410412930
 20
80.683356419453617
 11
-186.509600410412930
 21
128.526976553082930
  0
ARC
  8
0
  6
CONTINUOUS
 62
3
 10
-166.014445359505490
 20
166.926976553082910
 40
20.600000000000023
 50
90.000000000000000
 51
124.999999999999600
  0
ARC
  8
0
  6
CONTINUOUS
 62
3
 10
-183.909600410412790
 20
176.370596686712250
 40
2.600000000000131
 50
125.000000000001180
 51
180.000000000000000
  0
LINE
  8
0
  6
CONTINUOUS
 62
3
 10
-177.830119948336860
 20
183.801508665436240
 11
-185.400899144925630
 21
178.500392001863590
  0
LINE
  8
0
  6
CONTINUOUS
 62
3
 10
-186.509600410412930
 20
176.370596686712250
 11
-186.509600410412700
 21
128.526976553082930
  0
ARC
  8
0
  6
DASHED
 62
4
 10
-132.009600410391330
 20
56.526976553082932
 40
7.000000000000000
 50
180.000000000000000
 51
0.000000000000000
  0
LINE
  8
0
  6
DASHDOT
 62
4
 10
-132.009600410391330
 20
47.582819295406807
 11
-132.009600410391330
 21
69.131308275938864
  0
LINE
  8
0
  6
DASHED
 62
4
 10
-125.009600410391320
 20
56.526976553082932
 11
-125.009600410391320
 21
71.026976553082932
  0
LINE
  8
0
  6
DASHED
 62
4
 10
-139.009600410391330
 20
56.526976553082932
 11
-139.009600410391330
 21
71.026976553082932
  0
LINE
  8
0
  6
DASHDOT
 62
4
 10
-141.095289516974900
 20
56.526976553082932
 11
-120.608701283265580
 21
56.526976553082932
  0
LINE
  8
0
  6
DASHED
 62
4
 10
-89.009600410391329
 20
56.526976553082932
 11
-89.009600410391329
 21
71.026976553082932
  0
CIRCLE
  8
0
  6
DASHED
 62
4
 10
-82.009600410391329
 20
56.526976553082932
 40
6.000000000000000
  0
LINE
  8
0
  6
DASHED
 62
4
 10
-75.009600410391329
 20
56.526976553082932
 11
-75.009600410391329
 21
71.026976553082932
  0
ARC
  8
0
  6
DASHED
 62
4
 10
-82.009600410391329
 20
56.526976553082932
 40
7.000000000000000
 50
180.000000000000000
 51
0.000000000000000
  0
LINE
  8
0
  6
DASHDOT
 62
4
 10
-93.293129826117990
 20
56.526976553082932
 11
-71.526152417589685
 21
56.526976553082932
  0
LINE
  8
0
  6
DASHDOT
 62
4
 10
-82.009600410391329
 20
47.582819295406807
 11
-82.009600410391329
 21
69.562321427942152
  0
LINE
  8
0
  6
CONTINUOUS
 62
3
 10
58.990399589598610
 20
49.026976553083841
 11
46.490399589594972
 21
49.026976553083841
  0
LINE
  8
0
  6
CONTINUOUS
 62
3
 10
48.490386645977424
 20
91.526976553084751
 11
48.490385189126982
 21
91.526976553084751
  0
ARC
  8
0
  6
CONTINUOUS
 62
3
 10
42.490399589594062
 20
64.102978685641574
 40
5.000000000000000
 50
0.000000000000000
 51
86.999999999993889
  0
ARC
  8
0
  6
CONTINUOUS
 62
3
 10
48.490399589594972
 20
78.526976553083841
 40
1.000000000000000
 50
90.000000000000000
 51
180.000000000000000
  0
LINE
  8
0
  6
CONTINUOUS
 62
3
 10
48.490386645978333
 20
91.526976553083841
 11
48.490385189127892
 21
91.526976553083841
  0
ARC
  8
0
  6
CONTINUOUS
 62
3
 10
48.490399589594972
 20
94.526976553082022
 40
1.000000000000000
 50
180.000000000000000
 51
270.000000000000000
  0
LINE
  8
0
  6
CONTINUOUS
 62
3
 10
48.490399589594972
 20
93.526976553082022
 11
51.490399589594972
 21
93.526976553082022
  0
ARC
  8
0
  6
CONTINUOUS
 62
3
 10
51.490399589594972
 20
92.526976553082022
 40
1.000000000000000
 50
0.000000000000000
 51
90.000000000000000
  0
LINE
  8
0
  6
CONTINUOUS
 62
3
 10
48.490399589594972
 20
79.526976553083841
 11
51.490399589594972
 21
79.526976553083841
  0
LINE
  8
0
  6
CONTINUOUS
 62
3
 10
52.490399589594972
 20
92.526976553082022
 11
52.490399589594972
 21
80.526976553083841
  0
ARC
  8
0
  6
CONTINUOUS
 62
3
 10
51.490399589594972
 20
80.526976553083841
 40
1.000000000000000
 50
270.000000000000000
 51
0.000000000000000
  0
LINE
  8
0
  6
CONTINUOUS
 62
3
 10
47.490399589593153
 20
128.526976553083840
 11
47.490399589593153
 21
91.526976553082932
  0
LINE
  8
0
  6
CONTINUOUS
 62
3
 10
47.490399589594972
 20
81.526976553082932
 11
47.490399589595881
 21
51.026976553083841
  0
ARC
  8
0
  6
CONTINUOUS
 62
3
 10
46.490399589594972
 20
51.026976553083841
 40
2.000000000000000
 50
180.000000000000000
 51
270.000000000000000
  0
ARC
  8
0
  6
CONTINUOUS
 62
3
 10
49.490399589595881
 20
51.026976553083841
 40
2.000000000000000
 50
180.000000000000000
 51
270.000000000000000
  0
LINE
  8
0
  6
CONTINUOUS
 62
3
 10
44.490399589594972
 20
64.260202023490820
 11
44.490399589594972
 21
51.026976553083841
  0
ARC
  8
0
  6
CONTINUOUS
 62
3
 10
39.490399589594972
 20
64.260202023490820
 40
5.000000000000000
 50
0.000000000000000
 51
86.999999999993889
  0
LINE
  8
0
  6
CONTINUOUS
 62
3
 10
48.490386645977424
 20
165.526976553082930
 11
48.490385189126982
 21
165.526976553082930
  0
ARC
  8
0
  6
CONTINUOUS
 62
3
 10
42.490399589594062
 20
192.950974420526110
 40
4.999999999999158
 50
273.000000000006140
 51
0.000000000000000
  0
ARC
  8
0
  6
CONTINUOUS
 62
3
 10
48.490399589594972
 20
178.526976553083840
 40
1.000000000000000
 50
180.000000000000000
 51
270.000000000000000
  0
LINE
  8
0
  6
CONTINUOUS
 62
3
 10
48.490386645978333
 20
165.526976553083840
 11
48.490385189127892
 21
165.526976553083840
  0
ARC
  8
0
  6
CONTINUOUS
 62
3
 10
48.490399589594972
 20
162.526976553085660
 40
1.000000000000000
 50
90.000000000000000
 51
180.000000000000000
  0
LINE
  8
0
  6
CONTINUOUS
 62
3
 10
48.490399589594972
 20
163.526976553085660
 11
51.490399589594972
 21
163.526976553085660
  0
ARC
  8
0
  6
CONTINUOUS
 62
3
 10
51.490399589594972
 20
164.526976553085660
 40
1.000000000000000
 50
270.000000000000000
 51
0.000000000000000
  0
LINE
  8
0
  6
CONTINUOUS
 62
3
 10
48.490399589594972
 20
177.526976553083840
 11
51.490399589594972
 21
177.526976553083840
  0
LINE
  8
0
  6
CONTINUOUS
 62
3
 10
52.490399589594972
 20
164.526976553085660
 11
52.490399589594972
 21
176.526976553083840
  0
ARC
  8
0
  6
CONTINUOUS
 62
3
 10
51.490399589594972
 20
176.526976553083840
 40
1.000000000000000
 50
0.000000000000000
 51
90.000000000000000
  0
LINE
  8
0
  6
CONTINUOUS
 62
3
 10
47.490399589593153
 20
128.526976553083840
 11
47.490399589593153
 21
165.526976553084750
  0
ARC
  8
0
  6
CONTINUOUS
 62
3
 10
39.490399589594972
 20
192.793751082676860
 40
4.999999999999158
 50
273.000000000006140
 51
0.000000000000000
  0
LINE
  8
0
  6
CONTINUOUS
 62
3
 10
47.490399589594972
 20
175.526976553084750
 11
47.490399589595881
 21
206.026976553083840
  0
ARC
  8
0
  6
CONTINUOUS
 62
3
 10
46.490399589594972
 20
206.026976553083840
 40
2.000000000000000
 50
90.000000000000000
 51
180.000000000000000
  0
LINE
  8
0
  6
CONTINUOUS
 62
3
 10
58.990399589598610
 20
208.026976553083840
 11
46.490399589594972
 21
208.026976553083840
  0
ARC
  8
0
  6
CONTINUOUS
 62
3
 10
49.490399589595881
 20
206.026976553083840
 40
2.000000000000000
 50
90.000000000000000
 51
180.000000000000000
  0
LINE
  8
0
  6
CONTINUOUS
 62
3
 10
44.490399589594972
 20
192.793751082676860
 11
44.490399589594972
 21
206.026976553083840
  0
LINE
  8
0
  6
CONTINUOUS
 62
3
 10
25.990399589609524
 20
145.526976553087480
 11
47.490399589593153
 21
145.526976553087480
  0
LINE
  8
0
  6
CONTINUOUS
 62
3
 10
42.752079370808360
 20
187.957826746754110
 11
25.990399589609538
 21
187.079384332367230
  0
LINE
  8
0
  6
CONTINUOUS
 62
3
 10
25.990399589609524
 20
111.526976553080200
 11
47.490399589593153
 21
111.526976553080200
  0
LINE
  8
0
  6
CONTINUOUS
 62
3
 10
42.752079370808360
 20
69.096126359413574
 11
25.990399589609552
 21
69.974568773800456
  0
LINE
  8
0
  6
CONTINUOUS
 62
3
 10
25.990399589609538
 20
69.026976553082932
 11
25.990399589609538
 21
188.026976553082930
  0
LINE
  8
0
  6
CONTINUOUS
 62
3
 10
15.990399589609808
 20
158.957553476365660
 11
1.990399589574793
 21
158.957553476365660
  0
ARC
  8
0
  6
CONTINUOUS
 62
3
 10
1.990399589574793
 20
161.957553476365660
 40
3.000000000000000
 50
180.000000000000000
 51
270.000000000000000
  0
ARC
  8
0
  6
CONTINUOUS
 62
3
 10
-6.009600410425207
 20
174.526976553082930
 40
5.000000000000000
 50
0.000000000000000
 51
90.000000000000000
  0
LINE
  8
0
  6
CONTINUOUS
 62
3
 10
-16.009600410394057
 20
179.526976553082930
 11
-6.009600410425207
 21
179.526976553082930
  0
ARC
  8
0
  6
CONTINUOUS
 62
3
 10
-6.009600410425207
 20
177.026976553082930
 40
5.000000000000000
 50
0.000000000000000
 51
90.000000000000000
  0
LINE
  8
0
  6
CONTINUOUS
 62
3
 10
-16.009600410394171
 20
182.026976553082930
 11
12.990399589609808
 21
182.026976553082930
  0
LINE
  8
0
  6
CONTINUOUS
 62
3
 10
-1.009600410425207
 20
177.026976553082930
 11
-1.009600410425207
 21
144.526976553082930
  0
LINE
  8
0
  6
CONTINUOUS
 62
3
 10
-16.009600410391556
 20
182.026976553082930
 11
-16.009600410391556
 21
128.526976553082930
  0
LINE
  8
0
  6
CONTINUOUS
 62
3
 10
-16.009600410391556
 20
75.026976553082932
 11
-16.009600410391556
 21
128.526976553082930
  0
LINE
  8
0
  6
CONTINUOUS
 62
3
 10
15.990399589609808
 20
98.096399629800203
 11
1.990399589574793
 21
98.096399629800203
  0
ARC
  8
0
  6
CONTINUOUS
 62
3
 10
1.990399589574793
 20
95.096399629800203
 40
3.000000000000000
 50
90.000000000000000
 51
180.000000000000000
  0
ARC
  8
0
  6
CONTINUOUS
 62
3
 10
1.990399589574793
 20
112.526976553082930
 40
3.000000000000000
 50
90.000000000000000
 51
180.000000000000000
  0
LINE
  8
0
  6
CONTINUOUS
 62
3
 10
-16.009600410392238
 20
115.526976553082930
 11
20.990399589609581
 21
115.526976553082930
  0
LINE
  8
0
  6
CONTINUOUS
 62
3
 10
-1.009600410425207
 20
80.026976553082932
 11
-1.009600410425207
 21
112.526976553082930
  0
ARC
  8
0
  6
CONTINUOUS
 62
3
 10
-6.009600410425207
 20
82.526976553082932
 40
5.000000000000000
 50
270.000000000000000
 51
0.000000000000000
  0
LINE
  8
0
  6
CONTINUOUS
 62
3
 10
-16.009600410394057
 20
77.526976553082932
 11
-6.009600410425207
 21
77.526976553082932
  0
ARC
  8
0
  6
CONTINUOUS
 62
3
 10
-6.009600410425207
 20
80.026976553082932
 40
5.000000000000000
 50
270.000000000000000
 51
0.000000000000000
  0
LINE
  8
0
  6
CONTINUOUS
 62
3
 10
-16.009600410394171
 20
75.026976553082932
 11
12.990399589609808
 21
75.026976553082932
  0
ARC
  8
0
  6
CONTINUOUS
 62
3
 10
1.990399589574793
 20
144.526976553082930
 40
3.000000000000000
 50
180.000000000000000
 51
270.000000000000000
  0
LINE
  8
0
  6
CONTINUOUS
 62
3
 10
-16.009600410392238
 20
141.526976553082930
 11
20.990399589609581
 21
141.526976553082930
  0
CIRCLE
  8
0
  6
CONTINUOUS
 62
3
 10
9.990399589609581
 20
128.526976553082930
 40
8.349999999999909
  0
LINE
  8
0
  6
DASHDOT
 62
4
 10
9.990399589609581
 20
118.826197194155150
 11
9.990399589609581
 21
139.686466496861160
  0
LINE
  8
0
  6
CONTINUOUS
 62
3
 10
15.990399589609808
 20
184.656005060107990
 11
15.990399589609808
 21
141.526976553082930
  0
ARC
  8
0
  6
CONTINUOUS
 62
3
 10
17.990399589609808
 20
156.957553476365660
 40
2.000000000000000
 50
90.000000000000000
 51
180.000000000000000
  0
ARC
  8
0
  6
CONTINUOUS
 62
3
 10
17.990399589609581
 20
160.957553476365660
 40
2.000000000000000
 50
270.000000000000000
 51
0.000000000000000
  0
LINE
  8
0
  6
CONTINUOUS
 62
3
 10
19.990399589609581
 20
185.814600743955000
 11
19.990399589609581
 21
160.957553476365660
  0
ARC
  8
0
  6
CONTINUOUS
 62
3
 10
12.990399589609808
 20
185.026976553082930
 40
3.000000000000000
 50
270.000000000000000
 51
0.000000000000000
  0
ARC
  8
0
  6
CONTINUOUS
 62
3
 10
18.990399589609808
 20
184.656005060107990
 40
2.999999999999925
 50
92.999999999996973
 51
180.000000000000000
  0
LINE
  8
0
  6
CONTINUOUS
 62
3
 10
25.990399589609581
 20
188.026976553082930
 11
18.833391720881025
 21
187.651893664371760
  0
ARC
  8
0
  6
CONTINUOUS
 62
3
 10
21.990399589609581
 20
185.814600743955000
 40
1.999999999999992
 50
92.999999999999091
 51
180.000000000000000
  0
LINE
  8
0
  6
CONTINUOUS
 62
3
 10
15.990399589609808
 20
72.026976553082932
 11
15.990399589609808
 21
115.526976553082930
  0
ARC
  8
0
  6
CONTINUOUS
 62
3
 10
17.990399589609808
 20
100.096399629800200
 40
2.000000000000000
 50
180.000000000000000
 51
270.000000000000000
  0
ARC
  8
0
  6
CONTINUOUS
 62
3
 10
17.990399589609581
 20
96.096399629800203
 40
2.000000000000000
 50
0.000000000000000
 51
90.000000000000000
  0
LINE
  8
0
  6
CONTINUOUS
 62
3
 10
19.990399589609581
 20
71.239352362210866
 11
19.990399589609581
 21
96.096399629800203
  0
ARC
  8
0
  6
CONTINUOUS
 62
3
 10
12.990399589609808
 20
72.026976553082932
 40
3.000000000000000
 50
0.000000000000000
 51
90.000000000000000
  0
ARC
  8
0
  6
CONTINUOUS
 62
3
 10
18.990399589609808
 20
72.397948046057877
 40
3.000000000000000
 50
180.000000000000000
 51
267.000000000003010
  0
LINE
  8
0
  6
CONTINUOUS
 62
3
 10
25.990399589609581
 20
69.026976553082932
 11
18.833391720881025
 21
69.402059441794108
  0
ARC
  8
0
  6
CONTINUOUS
 62
3
 10
21.990399589609581
 20
71.239352362210866
 40
2.000000000000000
 50
180.000000000000000
 51
267.000000000000910
  0
LINE
  8
0
  6
CONTINUOUS
 62
3
 10
25.990399589609581
 20
71.226976553085137
 11
25.990399589609581
 21
128.526976553082930
  0
ARC
  8
0
  6
CONTINUOUS
 62
3
 10
20.990399589609581
 20
138.526976553082930
 40
3.000000000000000
 50
0.000000000000000
 51
90.000000000000000
  0
LINE
  8
0
  6
CONTINUOUS
 62
3
 10
23.990399589609581
 20
138.526976553082930
 11
23.990399589609581
 21
128.526976553082930
  0
ARC
  8
0
  6
CONTINUOUS
 62
3
 10
20.990399589609581
 20
118.526976553082930
 40
3.000000000000000
 50
270.000000000000000
 51
0.000000000000000
  0
LINE
  8
0
  6
CONTINUOUS
 62
3
 10
23.990399589609581
 20
118.526976553082930
 11
23.990399589609581
 21
128.526976553082930
  0
LINE
  8
0
  6
CONTINUOUS
 62
3
 10
25.990399589609581
 20
185.826976553080730
 11
25.990399589609581
 21
128.526976553082930
  0
LINE
  8
0
  6
CONTINUOUS
 62
3
 10
25.990399589609581
 20
185.826976553080730
 11
25.990399589609581
 21
188.026976553082930
  0
LINE
  8
0
  6
CONTINUOUS
 62
3
 10
25.990399589609581
 20
71.226976553085137
 11
25.990399589609581
 21
69.026976553082932
  0
LINE
  8
0
  6
CONTINUOUS
 62
3
 10
-363.128109336897300
 20
-65.444425730278013
 11
-378.831333196858850
 21
-49.741201870316374
  0
ARC
  8
0
  6
CONTINUOUS
 62
3
 10
-384.488187446351280
 20
-55.398056119808686
 40
2.999999999999904
 50
45.000000000000774
 51
135.000000000002300
  0
ARC
  8
0
  6
CONTINUOUS
 62
3
 10
-376.710012853299300
 20
-47.619881526756714
 40
2.999999999999944
 50
134.999999999998470
 51
225.000000000001530
  0
ARC
  8
0
  6
CONTINUOUS
 62
3
 10
-322.813043233629510
 20
-25.295025739478703
 40
3.000000000000000
 50
0.000000000000000
 51
90.000000000000000
  0
LINE
  8
0
  6
CONTINUOUS
 62
3
 10
-314.813043233629510
 20
-25.295025739478703
 11
-314.813043233629510
 21
-56.828415491220753
  0
ARC
  8
0
  6
CONTINUOUS
 62
3
 10
-311.813043233629510
 20
-25.295025739478703
 40
3.000000000000000
 50
90.000000000000000
 51
180.000000000000000
  0
LINE
  8
0
  6
CONTINUOUS
 62
3
 10
-266.105402362331460
 20
-67.122918774113302
 11
-252.259219364467070
 21
-53.276735776248970
  0
ARC
  8
0
  6
CONTINUOUS
 62
3
 10
-250.137899020907300
 20
-55.398056119808686
 40
2.999999999999904
 50
45.000000000000774
 51
135.000000000002300
  0
ARC
  8
0
  6
CONTINUOUS
 62
3
 10
-257.916073613959500
 20
-47.619881526756714
 40
3.000000000000105
 50
315.000000000001530
 51
44.999999999998472
  0
ARC
  8
0
  6
CONTINUOUS
 62
3
 10
-311.813043233629510
 20
-56.828415491220753
 40
3.000000000000000
 50
180.000000000000000
 51
269.304338785846990
  0
ARC
  8
0
  6
CONTINUOUS
 62
3
 10
-322.813043233629290
 20
-56.828415491220753
 40
2.999999999999993
 50
270.695661214153010
 51
0.000000000000000
  0
CIRCLE
  8
0
  6
CONTINUOUS
 62
3
 10
-234.227996444210480
 20
-197.880072528898210
 40
6.000000000000000
  0
ARC
  8
0
  6
CONTINUOUS
 62
3
 10
-232.313043233629510
 20
-199.795025739478830
 40
10.000000000000000
 50
270.000000000000000
 51
0.000000000000000
  0
CIRCLE
  8
0
  6
CONTINUOUS
 62
3
 10
-234.227996444210250
 20
-31.709978950059323
 40
6.000000000000000
  0
ARC
  8
0
  6
CONTINUOUS
 62
3
 10
-232.313043233629510
 20
-29.795025739478817
 40
10.000000000000000
 50
0.000000000000000
 51
90.000000000000000
  0
ARC
  8
0
  6
CONTINUOUS
 62
3
 10
-263.984082018771910
 20
-69.244239117672848
 40
2.999999999999864
 50
135.000000000000000
 51
172.868333574694500
  0
ARC
  8
0
  6
CONTINUOUS
 62
3
 10
-370.642004448487110
 20
-69.244239117673075
 40
2.999999999999977
 50
304.820974823218140
 51
323.585622645426440
  0
LINE
  8
0
  6
CONTINUOUS
 62
3
 10
-271.497977130361730
 20
-65.444425730277985
 11
-255.794753270399950
 21
-49.741201870316317
  0
LINE
  8
0
  6
CONTINUOUS
 62
3
 10
-368.520684104927570
 20
-67.122918774113359
 11
-382.366867102791730
 21
-53.276735776249026
  0
LINE
  8
0
  6
CONTINUOUS
 62
3
 10
-319.813043233629510
 20
-25.295025739478703
 11
-319.813043233629510
 21
-56.828415491220753
  0
LINE
  8
0
  6
CONTINUOUS
 62
3
 10
-402.313043233629510
 20
-209.795025739478600
 11
-368.023248819856920
 21
-209.795025739478600
  0
LINE
  8
0
  6
CONTINUOUS
 62
3
 10
-266.602837647401880
 20
-209.795025739478720
 11
-232.313043233629510
 21
-209.795025739478830
  0
LINE
  8
0
  6
CONTINUOUS
 62
3
 10
-222.313043233629510
 20
-29.795025739478817
 11
-222.313043233629510
 21
-199.795025739478830
  0
LINE
  8
0
  6
CONTINUOUS
 62
3
 10
-402.313043233629510
 20
-19.795025739478589
 11
-232.313043233629510
 21
-19.795025739478817
  0
LINE
  8
0
  6
CONTINUOUS
 62
3
 10
-394.813043233629290
 20
-129.795025739478770
 11
-387.313043233629290
 21
-129.795025739478720
  0
ARC
  8
0
  6
CONTINUOUS
 62
3
 10
-387.313043233629290
 20
-121.795025739478710
 40
8.000000000000000
 50
270.000000000000000
 51
90.000000000000000
  0
LINE
  8
0
  6
CONTINUOUS
 62
3
 10
-393.398946813465730
 20
-113.795025739478760
 11
-387.313043233629290
 21
-113.795025739478700
  0
ARC
  8
0
  6
CONTINUOUS
 62
3
 10
-393.398946813465730
 20
-111.795025739478760
 40
1.999999999999977
 50
167.837507721111820
 51
270.000000000000000
  0
ARC
  8
0
  6
CONTINUOUS
 62
3
 10
-286.313043233629290
 20
-212.795025739478660
 40
5.000000000000000
 50
270.000000000000000
 51
0.000000000000000
  0
ARC
  8
0
  6
CONTINUOUS
 62
3
 10
-274.313043233629290
 20
-212.295025739478660
 40
7.000000000000020
 50
61.263962136561375
 51
180.000000000000000
  0
ARC
  8
0
  6
CONTINUOUS
 62
3
 10
-268.543741922526810
 20
-201.772898464934200
 40
5.000000000000031
 50
241.263962136560650
 51
316.112971245445520
  0
ARC
  8
0
  6
CONTINUOUS
 62
3
 10
-264.146456934535760
 20
-79.189038760043715
 40
4.999999999999965
 50
49.876065772937274
 51
101.642077717792400
  0
ARC
  8
0
  6
CONTINUOUS
 62
3
 10
-287.313043233629290
 20
-67.104824094466082
 40
4.999999999999281
 50
42.719327039978303
 51
75.028809004051297
  0
ARC
  8
0
  6
CONTINUOUS
 62
3
 10
-348.313043233629290
 20
-212.795025739478660
 40
5.000000000000000
 50
180.000000000000000
 51
270.000000000000000
  0
ARC
  8
0
  6
CONTINUOUS
 62
3
 10
-366.082344544731770
 20
-201.772898464934200
 40
4.999999999999870
 50
223.887028754554480
 51
298.736037863439320
  0
ARC
  8
0
  6
CONTINUOUS
 62
3
 10
-360.313043233629290
 20
-212.295025739478660
 40
7.000000000000000
 50
0.000000000000000
 51
118.736037863438630
  0
ARC
  8
0
  6
CONTINUOUS
 62
3
 10
-370.479629532722810
 20
-79.189038760043715
 40
5.000000000000010
 50
78.357922282207596
 51
130.123934227063560
  0
ARC
  8
0
  6
CONTINUOUS
 62
3
 10
-347.313043233629290
 20
-67.104824094466082
 40
5.000000000000014
 50
104.971190995948700
 51
137.280672960021690
  0
ARC
  8
0
  6
CONTINUOUS
 62
3
 10
-245.313043233629290
 20
-140.795025739478600
 40
7.000000000000012
 50
231.786789298261710
 51
270.000000000000000
  0
LINE
  8
0
  6
CONTINUOUS
 62
3
 10
-238.813043233629290
 20
-147.795025739478600
 11
-245.313043233629290
 21
-147.795025739478600
  0
ARC
  8
0
  6
CONTINUOUS
 62
3
 10
-238.813043233629290
 20
-148.795025739478600
 40
1.000000000000000
 50
0.000000000000000
 51
90.000000000000000
  0
LINE
  8
0
  6
CONTINUOUS
 62
3
 10
-395.813043233629290
 20
-147.795025739478600
 11
-389.313043233629290
 21
-147.795025739478600
  0
ARC
  8
0
  6
CONTINUOUS
 62
3
 10
-389.313043233629290
 20
-140.795025739478600
 40
7.000000000000000
 50
270.000000000000000
 51
90.000000000000000
  0
LINE
  8
0
  6
CONTINUOUS
 62
3
 10
-395.813043233629290
 20
-133.795025739478600
 11
-389.313043233629290
 21
-133.795025739478600
  0
ARC
  8
0
  6
CONTINUOUS
 62
3
 10
-260.615953118357310
 20
-209.398523991832520
 40
5.999999999999943
 50
129.571894934440370
 51
191.940334905755690
  0
ARC
  8
0
  6
CONTINUOUS
 62
3
 10
-274.313043233629290
 20
-212.295025739478660
 40
7.999999999999977
 50
316.567463442210060
 51
11.940334905756142
  0
LINE
  8
0
  6
CONTINUOUS
 62
3
 10
-268.503568214318190
 20
-217.795025739478660
 11
-317.313043233629290
 21
-217.795025739478660
  0
LINE
  8
0
  6
CONTINUOUS
 62
3
 10
-366.122518252940380
 20
-217.795025739478660
 11
-317.313043233629290
 21
-217.795025739478660
  0
ARC
  8
0
  6
CONTINUOUS
 62
3
 10
-360.313043233629290
 20
-212.295025739478660
 40
8.000000000000096
 50
168.059665094244200
 51
223.432536557789920
  0
ARC
  8
0
  6
CONTINUOUS
 62
3
 10
-374.010133348901260
 20
-209.398523991832520
 40
5.999999999999847
 50
348.059665094243880
 51
50.428105065559635
  0
ARC
  8
0
  6
CONTINUOUS
 62
3
 10
-270.997549065910110
 20
-194.181587719062630
 40
2.999999999999944
 50
45.000000000001542
 51
135.000000000002300
  0
LINE
  8
0
  6
CONTINUOUS
 62
3
 10
-268.876228722350560
 20
-192.060267375502970
 11
-262.512267691671700
 21
-198.424228406181900
  0
ARC
  8
0
  6
CONTINUOUS
 62
3
 10
-264.633588035231240
 20
-200.545548749741560
 40
3.000000000000064
 50
315.000000000002270
 51
45.000000000001542
  0
ARC
  8
0
  6
CONTINUOUS
 62
3
 10
-257.562520223365710
 20
-193.474480937876080
 40
3.000000000000105
 50
224.999999999998470
 51
315.000000000001530
  0
ARC
  8
0
  6
CONTINUOUS
 62
3
 10
-263.926481254044570
 20
-187.110519907197160
 40
3.000000000000064
 50
135.000000000002300
 51
224.999999999998470
  0
LINE
  8
0
  6
CONTINUOUS
 62
3
 10
-266.047801597604350
 20
-189.231840250756820
 11
-259.683840566925480
 21
-195.595801281435740
  0
ARC
  8
0
  6
CONTINUOUS
 62
3
 10
-363.628537401348470
 20
-194.181587719062630
 40
3.000000000000064
 50
44.999999999997698
 51
134.999999999999230
  0
LINE
  8
0
  6
CONTINUOUS
 62
3
 10
-365.749857744908010
 20
-192.060267375503030
 11
-372.113818775586880
 21
-198.424228406181900
  0
ARC
  8
0
  6
CONTINUOUS
 62
3
 10
-369.992498432027330
 20
-200.545548749741560
 40
2.999999999999944
 50
134.999999999998470
 51
224.999999999997700
  0
ARC
  8
0
  6
CONTINUOUS
 62
3
 10
-377.063566243892860
 20
-193.474480937876080
 40
3.000000000000105
 50
224.999999999998470
 51
315.000000000001530
  0
ARC
  8
0
  6
CONTINUOUS
 62
3
 10
-370.699605213214000
 20
-187.110519907197160
 40
3.000000000000105
 50
315.000000000001530
 51
44.999999999997698
  0
LINE
  8
0
  6
CONTINUOUS
 62
3
 10
-368.578284869654230
 20
-189.231840250756820
 11
-374.942245900333090
 21
-195.595801281435740
  0
ARC
  8
0
  6
CONTINUOUS
 62
3
 10
-377.063566243892860
 20
-88.115570541081112
 40
3.000000000000105
 50
44.999999999998472
 51
135.000000000001530
  0
LINE
  8
0
  6
CONTINUOUS
 62
3
 10
-374.796667431846340
 20
-86.139828666008142
 11
-374.942245900333090
 21
-85.994250197521453
  0
ARC
  8
0
  6
CONTINUOUS
 62
3
 10
-257.562520223365710
 20
-88.115570541081112
 40
2.999999999999944
 50
45.000000000001542
 51
134.999999999998470
  0
LINE
  8
0
  6
CONTINUOUS
 62
3
 10
-259.813043233629290
 20
-86.123452864225484
 11
-259.683840566925260
 21
-85.994250197521453
  0
ARC
  8
0
  6
CONTINUOUS
 62
3
 10
-317.313043233629290
 20
-509.795025739702510
 40
449.999999999999770
 50
87.841596534959436
 51
90.000000000000000
  0
ARC
  8
0
  6
CONTINUOUS
 62
3
 10
-317.313043233629290
 20
-509.795025739702510
 40
449.999999999999940
 50
90.000000000000000
 51
92.158403465040564
  0
ARC
  8
0
  6
CONTINUOUS
 62
3
 10
-331.813043233629290
 20
-125.068174584236770
 40
64.999999999999929
 50
92.158403465040536
 51
109.980621488144020
  0
ARC
  8
0
  6
CONTINUOUS
 62
3
 10
-317.313043233629290
 20
-140.795025739478600
 40
82.999999999999957
 50
197.813976466619180
 51
230.428105065559090
  0
LINE
  8
0
  6
CONTINUOUS
 62
3
 10
-237.813043233629290
 20
-146.295025739478600
 11
-237.813043233629290
 21
-163.127737173605960
  0
ARC
  8
0
  6
CONTINUOUS
 62
3
 10
-302.813043233629290
 20
-125.068174584236770
 40
64.999999999999957
 50
36.620350326697661
 51
55.916311411658278
  0
ARC
  8
0
  6
CONTINUOUS
 62
3
 10
-247.813043233629290
 20
-163.127737173605960
 40
10.000000000000151
 50
342.186023533381100
 51
0.000000000000000
  0
ARC
  8
0
  6
CONTINUOUS
 62
3
 10
-317.313043233629290
 20
-140.795025739478600
 40
83.000000000000043
 50
309.571894934440880
 51
342.186023533380880
  0
LINE
  8
0
  6
CONTINUOUS
 62
3
 10
-330.645334859602600
 20
-199.295025739478600
 11
-332.960494077387010
 21
-199.295025739478600
  0
LINE
  8
0
  6
CONTINUOUS
 62
3
 10
-303.980751607655980
 20
-199.295025739478600
 11
-301.665592389871560
 21
-199.295025739478600
  0
ARC
  8
0
  6
CONTINUOUS
 62
3
 10
-317.313043233629290
 20
-140.795025739478600
 40
59.999999999999986
 50
257.161431859015980
 51
282.838568140984020
  0
ARC
  8
0
  6
CONTINUOUS
 62
3
 10
-332.813043233629290
 20
-195.295025739478600
 40
3.000000000000000
 50
180.000000000000000
 51
270.000000000000000
  0
ARC
  8
0
  6
CONTINUOUS
 62
3
 10
-301.813043233629290
 20
-195.295025739478600
 40
3.000000000000000
 50
270.000000000000000
 51
0.000000000000000
  0
ARC
  8
0
  6
CONTINUOUS
 62
3
 10
-342.813043233629290
 20
-170.295025739478490
 40
3.000000000000000
 50
0.000000000000000
 51
12.243652867704627
  0
ARC
  8
0
  6
CONTINUOUS
 62
3
 10
-332.813043233629290
 20
-170.622085011560220
 40
3.000000000001078
 50
165.521193763425200
 51
180.000000000000000
  0
ARC
  8
0
  6
CONTINUOUS
 62
3
 10
-291.813043233629290
 20
-170.295025739478490
 40
3.000000000000688
 50
167.756347132295390
 51
180.000000000000000
  0
ARC
  8
0
  6
CONTINUOUS
 62
3
 10
-301.813043233629290
 20
-170.622085011560220
 40
3.000000000000000
 50
0.000000000000000
 51
14.478806236574789
  0
ARC
  8
0
  6
CONTINUOUS
 62
3
 10
-344.813043233629290
 20
-195.524473936952690
 40
5.000000000000000
 50
0.000000000000000
 51
63.321765549190943
  0
ARC
  8
0
  6
CONTINUOUS
 62
3
 10
-317.313043233629290
 20
-140.795025739478600
 40
56.250000000000071
 50
220.772804694042890
 51
243.321765549190360
  0
ARC
  8
0
  6
CONTINUOUS
 62
3
 10
-363.697981521827840
 20
-180.795025739478660
 40
4.999999999999867
 50
40.772804694044133
 51
90.000000000000000
  0
LINE
  8
0
  6
CONTINUOUS
 62
3
 10
-368.472640367115900
 20
-175.795025739478660
 11
-363.697981521827840
 21
-175.795025739478660
  0
ARC
  8
0
  6
CONTINUOUS
 62
3
 10
-368.472640367115900
 20
-170.795025739478660
 40
5.000000000000107
 50
190.000000000000280
 51
270.000000000000000
  0
ARC
  8
0
  6
CONTINUOUS
 62
3
 10
-289.813043233629290
 20
-195.524473936952690
 40
4.999999999999968
 50
116.678234450809050
 51
180.000000000000000
  0
ARC
  8
0
  6
CONTINUOUS
 62
3
 10
-317.313043233629290
 20
-140.795025739478600
 40
56.250000000000021
 50
296.678234450809610
 51
319.227195305957140
  0
ARC
  8
0
  6
CONTINUOUS
 62
3
 10
-270.928104945430730
 20
-180.795025739478600
 40
5.000000000000000
 50
90.000000000000000
 51
139.227195305956340
  0
LINE
  8
0
  6
CONTINUOUS
 62
3
 10
-266.153446100142670
 20
-175.795025739478600
 11
-270.928104945430730
 21
-175.795025739478600
  0
ARC
  8
0
  6
CONTINUOUS
 62
3
 10
-266.153446100142670
 20
-170.795025739478600
 40
5.000000000000000
 50
270.000000000000000
 51
349.999999999999030
  0
LINE
  8
0
  6
CONTINUOUS
 62
3
 10
-339.813043233629290
 20
-170.295025739478490
 11
-339.813043233629290
 21
-198.295025739478600
  0
LINE
  8
0
  6
CONTINUOUS
 62
3
 10
-294.813043233629290
 20
-170.295025739478490
 11
-294.813043233629290
 21
-198.295025739478600
  0
LINE
  8
0
  6
CONTINUOUS
 62
3
 10
-335.813043233629290
 20
-170.622085011560220
 11
-335.813043233629290
 21
-195.295025739478600
  0
LINE
  8
0
  6
CONTINUOUS
 62
3
 10
-298.813043233629290
 20
-170.622085011560220
 11
-298.813043233629290
 21
-195.295025739478600
  0
ARC
  8
0
  6
CONTINUOUS
 62
3
 10
-375.813043233629290
 20
-121.795025739478600
 40
0.999999999999198
 50
117.683035930749780
 51
180.000000000000000
  0
LINE
  8
0
  6
CONTINUOUS
 62
3
 10
-376.813043233629290
 20
-140.795025739478600
 11
-376.813043233629290
 21
-121.795025739478600
  0
ARC
  8
0
  6
CONTINUOUS
 62
3
 10
-376.157409775531050
 20
-161.765155604441470
 40
0.999999999999891
 50
10.000000000002947
 51
80.085216630856877
  0
ARC
  8
0
  6
CONTINUOUS
 62
3
 10
-375.813043233629290
 20
-159.795025739478600
 40
1.000000000000000
 50
180.000000000000000
 51
260.085216630857420
  0
LINE
  8
0
  6
CONTINUOUS
 62
3
 10
-375.172602022518960
 20
-161.591507426774510
 11
-372.396702171190550
 21
-177.334417786691970
  0
LINE
  8
0
  6
CONTINUOUS
 62
3
 10
-375.313043233629290
 20
-160.795025739478600
 11
-375.813043233629290
 21
-160.795025739478600
  0
LINE
  8
0
  6
CONTINUOUS
 62
3
 10
-376.813043233629290
 20
-140.795025739478600
 11
-376.813043233629290
 21
-159.795025739478600
  0
ARC
  8
0
  6
CONTINUOUS
 62
3
 10
-357.624585876007590
 20
-174.729695121687940
 40
14.999999999999863
 50
190.000000000000400
 51
225.000000000000140
  0
LINE
  8
0
  6
CONTINUOUS
 62
3
 10
-368.231187593805770
 20
-185.336296839486180
 11
-362.021137238421720
 21
-191.546347194870120
  0
ARC
  8
0
  6
CONTINUOUS
 62
3
 10
-351.414535520623530
 20
-180.939745477071880
 40
15.000000000000000
 50
225.000000000000140
 51
259.695153531234150
  0
LINE
  8
0
  6
CONTINUOUS
 62
3
 10
-354.097817093623230
 20
-195.697794128570480
 11
-335.643775650386940
 21
-199.053074390977200
  0
ARC
  8
0
  6
CONTINUOUS
 62
3
 10
-332.960494077387010
 20
-184.295025739478600
 40
15.000000000000020
 50
259.695153531233250
 51
270.000000000000000
  0
ARC
  8
0
  6
CONTINUOUS
 62
3
 10
-258.468676691727520
 20
-161.765155604441470
 40
0.999999999999972
 50
99.914783369143109
 51
169.999999999997070
  0
ARC
  8
0
  6
CONTINUOUS
 62
3
 10
-258.813043233629290
 20
-159.795025739478600
 40
1.000000000000028
 50
279.914783369142580
 51
0.000000000000000
  0
LINE
  8
0
  6
CONTINUOUS
 62
3
 10
-259.453484444739620
 20
-161.591507426774510
 11
-262.229384296068020
 21
-177.334417786691970
  0
LINE
  8
0
  6
CONTINUOUS
 62
3
 10
-257.813043233629290
 20
-146.295025739478600
 11
-257.813043233629290
 21
-159.795025739478600
  0
ARC
  8
0
  6
CONTINUOUS
 62
3
 10
-277.001500591250990
 20
-174.729695121687940
 40
15.000000000000000
 50
314.999999999999830
 51
349.999999999999600
  0
LINE
  8
0
  6
CONTINUOUS
 62
3
 10
-266.394898873452800
 20
-185.336296839486180
 11
-272.604949228836860
 21
-191.546347194870120
  0
ARC
  8
0
  6
CONTINUOUS
 62
3
 10
-283.211550946635040
 20
-180.939745477071880
 40
14.999999999999979
 50
280.304846468765850
 51
314.999999999999830
  0
LINE
  8
0
  6
CONTINUOUS
 62
3
 10
-280.528269373635340
 20
-195.697794128570480
 11
-298.982310816871630
 21
-199.053074390977200
  0
ARC
  8
0
  6
CONTINUOUS
 62
3
 10
-301.665592389871560
 20
-184.295025739478600
 40
15.000000000000000
 50
270.000000000000000
 51
280.304846468766750
  0
LINE
  8
0
  6
CONTINUOUS
 62
3
 10
-353.313043233629290
 20
-212.295025739478660
 11
-353.313043233629290
 21
-212.795025739478660
  0
LINE
  8
0
  6
CONTINUOUS
 62
3
 10
-281.313043233629290
 20
-212.295025739478660
 11
-281.313043233629290
 21
-212.795025739478660
  0
LINE
  8
0
  6
DASHDOT
 62
4
 10
-241.978426185238500
 20
-39.460408691088205
 11
-226.449821851157590
 21
-23.931804357007351
  0
ARC
  8
0
  6
DASHDOT
 62
4
 10
-317.313043233628830
 20
-114.795025739478580
 40
117.499999999999810
 50
40.283229257203757
 51
50.364178174483833
  0
ARC
  8
0
  6
DASHDOT
 62
4
 10
-317.313043233628830
 20
-114.795025739478580
 40
117.499999999999780
 50
129.635821825516160
 51
140.364178174483360
  0
ARC
  8
0
  6
DASHDOT
 62
4
 10
-317.313043233628830
 20
-114.795025739478580
 40
117.499999999999510
 50
309.635821825515960
 51
320.364178174483360
  0
LINE
  8
0
  6
DASHDOT
 62
4
 10
-392.619915429995670
 20
-190.101897935845900
 11
-408.176264616099620
 21
-205.658247121949840
  0
ARC
  8
0
  6
DASHDOT
 62
4
 10
-317.313043233628830
 20
-114.795025739478580
 40
117.499999999999850
 50
219.632292221130970
 51
230.364178174484010
  0
ARC
  8
0
  6
CONTINUOUS
 62
3
 10
-302.813043233629290
 20
-125.068174584236770
 40
64.999999999999943
 50
70.019378511855976
 51
87.841596534959464
  0
ARC
  8
0
  6
CONTINUOUS
 62
3
 10
-331.813043233629290
 20
-125.068174584236770
 40
64.999999999999957
 50
124.083688588341710
 51
180.000000000000000
  0
ARC
  8
0
  6
CONTINUOUS
 62
3
 10
-370.642004448487110
 20
-69.244239117673075
 40
3.000000000000068
 50
7.131666425293899
 51
45.000000000002316
  0
ARC
  8
0
  6
CONTINUOUS
 62
3
 10
-313.813043233629290
 20
-98.638582156469013
 40
1.000000000000000
 50
180.000000000000000
 51
258.787728582356010
  0
LINE
  8
0
  6
CONTINUOUS
 62
3
 10
-314.813043233629290
 20
-95.588746498630101
 11
-314.813043233629290
 21
-98.638582156469013
  0
ARC
  8
0
  6
CONTINUOUS
 62
3
 10
-313.813043233629290
 20
-95.588746498630101
 40
1.000000000000268
 50
80.405931773124522
 51
180.000000000000000
  0
ARC
  8
0
  6
CONTINUOUS
 62
3
 10
-313.813043233629290
 20
-90.027174666351314
 40
1.000000000000000
 50
179.999999999986980
 51
262.410457608144040
  0
LINE
  8
0
  6
CONTINUOUS
 62
3
 10
-314.813043233629290
 20
-87.003388707724937
 11
-314.813043233629290
 21
-90.027174666351087
  0
ARC
  8
0
  6
CONTINUOUS
 62
3
 10
-313.813043233629290
 20
-87.003388707724937
 40
1.000000000000077
 50
83.186145655820312
 51
180.000000000000000
  0
ARC
  8
0
  6
CONTINUOUS
 62
3
 10
-313.813043233629290
 20
-81.470465440746878
 40
1.000000000000000
 50
180.000000000000000
 51
264.260829522738280
  0
LINE
  8
0
  6
CONTINUOUS
 62
3
 10
-314.813043233629290
 20
-78.456553254453596
 11
-314.813043233629290
 21
-81.470465440746878
  0
ARC
  8
0
  6
CONTINUOUS
 62
3
 10
-313.813043233629290
 20
-78.456553254453596
 40
1.000000000000042
 50
84.715267045464302
 51
180.000000000000000
  0
ARC
  8
0
  6
CONTINUOUS
 62
3
 10
-293.695741445697420
 20
-98.618118310356252
 40
1.000000000000082
 50
299.999999999997270
 51
36.813854344186687
  0
LINE
  8
0
  6
CONTINUOUS
 62
3
 10
-293.195741445697420
 20
-99.484143714140785
 11
-295.814416901474940
 21
-100.996036693453970
  0
ARC
  8
0
  6
CONTINUOUS
 62
3
 10
-296.314416901474940
 20
-100.130011289669440
 40
0.999999999999834
 50
217.589542391867670
 51
299.999999999997270
  0
ARC
  8
0
  6
CONTINUOUS
 62
3
 10
-286.293964821199100
 20
-94.344700583720581
 40
0.999999999999885
 50
300.000000000003810
 51
35.284732954544943
  0
LINE
  8
0
  6
CONTINUOUS
 62
3
 10
-285.793964821199100
 20
-95.210725987504887
 11
-288.404089339304850
 21
-96.717682080651642
  0
ARC
  8
0
  6
CONTINUOUS
 62
3
 10
-288.904089339304850
 20
-95.851656676867336
 40
0.999999999999940
 50
215.739170477274090
 51
300.000000000003810
  0
ARC
  8
0
  6
CONTINUOUS
 62
3
 10
-311.414513963240100
 20
-108.848056393069050
 40
0.999999999999961
 50
231.618272422159780
 51
299.999999999997270
  0
LINE
  8
0
  6
CONTINUOUS
 62
3
 10
-308.170738388215800
 20
-108.129962230017510
 11
-310.914513963240100
 21
-109.714081796853590
  0
ARC
  8
0
  6
CONTINUOUS
 62
3
 10
-303.772114550256450
 20
-104.435715034728400
 40
0.999999999999673
 50
221.212271417651210
 51
300.000000000003810
  0
LINE
  8
0
  6
CONTINUOUS
 62
3
 10
-300.630879393200300
 20
-103.776822609593140
 11
-303.272114550256450
 21
-105.301740438512700
  0
ARC
  8
0
  6
CONTINUOUS
 62
3
 10
-301.130879393200300
 20
-102.910797205808600
 40
1.000000000000082
 50
299.999999999997270
 51
39.594068226850403
  0
ARC
  8
0
  6
CONTINUOUS
 62
3
 10
-313.813043233629290
 20
-107.463264873150770
 40
1.000000000000000
 50
180.000000000000000
 51
248.381727577838030
  0
ARC
  8
0
  6
CONTINUOUS
 62
3
 10
-317.313043233629290
 20
-116.295025739478600
 40
8.500000000000115
 50
51.618272422158263
 51
68.381727577842270
  0
ARC
  8
0
  6
CONTINUOUS
 62
3
 10
-308.670738388215800
 20
-107.263936826233200
 40
0.999999999999885
 50
300.000000000003810
 51
46.260204708328693
  0
LINE
  8
0
  6
CONTINUOUS
 62
3
 10
-314.813043233629290
 20
-104.295025739478610
 11
-314.813043233629290
 21
-107.463264873150770
  0
ARC
  8
0
  6
CONTINUOUS
 62
3
 10
-313.813043233629290
 20
-104.295025739478610
 40
0.999999999999964
 50
73.739795291702634
 51
180.000000000000000
  0
ARC
  8
0
  6
CONTINUOUS
 62
3
 10
-317.313043233629290
 20
-116.295025739478600
 40
13.499999999999917
 50
46.260204708312109
 51
73.739795291689106
  0
ARC
  8
0
  6
CONTINUOUS
 62
3
 10
-317.313043233629290
 20
-116.295025739478600
 40
17.000000000000107
 50
41.212271417649724
 51
78.787728582349985
  0
ARC
  8
0
  6
CONTINUOUS
 62
3
 10
-317.313043233629290
 20
-116.295025739478600
 40
22.000000000000018
 50
39.594068226860799
 51
80.405931773138789
  0
ARC
  8
0
  6
CONTINUOUS
 62
3
 10
-317.313043233629290
 20
-116.295025739478600
 40
30.499999999999954
 50
36.813854344181046
 51
83.186145655818962
  0
ARC
  8
0
  6
CONTINUOUS
 62
3
 10
-317.313043233629290
 20
-116.295025739478600
 40
25.499999999999879
 50
37.589542391857933
 51
82.410457608141883
  0
ARC
  8
0
  6
CONTINUOUS
 62
3
 10
-317.313043233629290
 20
-116.295025739478600
 40
33.999999999999822
 50
35.739170477266619
 51
84.260829522733061
  0
ARC
  8
0
  6
CONTINUOUS
 62
3
 10
-317.313043233629290
 20
-116.295025739478600
 40
38.999999999999858
 50
35.284732954534782
 51
84.715267045465410
  0
ARC
  8
0
  6
CONTINUOUS
 62
3
 10
-290.195741445697420
 20
-104.680296136847300
 40
0.999999999999730
 50
23.186145655819850
 51
119.999999999997270
  0
LINE
  8
0
  6
CONTINUOUS
 62
3
 10
-290.695741445697420
 20
-103.814270733062770
 11
-293.314416901474940
 21
-105.326163712375950
  0
ARC
  8
0
  6
CONTINUOUS
 62
3
 10
-292.814416901474940
 20
-106.192189116160490
 40
1.000000000000082
 50
119.999999999997270
 51
202.410457608146060
  0
ARC
  8
0
  6
CONTINUOUS
 62
3
 10
-282.793964821199100
 20
-100.406878410211630
 40
1.000000000000248
 50
24.715267045455477
 51
119.999999999997270
  0
LINE
  8
0
  6
CONTINUOUS
 62
3
 10
-283.293964821199100
 20
-99.540853006427099
 11
-285.904089339304850
 21
-101.047809099573850
  0
ARC
  8
0
  6
CONTINUOUS
 62
3
 10
-285.404089339304850
 20
-101.913834503358160
 40
0.999999999999885
 50
120.000000000003780
 51
204.260829522745610
  0
ARC
  8
0
  6
CONTINUOUS
 62
3
 10
-307.914513963240100
 20
-114.910234219560330
 40
1.000000000000082
 50
119.999999999997270
 51
188.381727577832660
  0
LINE
  8
0
  6
CONTINUOUS
 62
3
 10
-305.670738388215800
 20
-112.460089248939720
 11
-308.414513963240100
 21
-114.044208815775800
  0
ARC
  8
0
  6
CONTINUOUS
 62
3
 10
-300.272114550256450
 20
-110.497892861219450
 40
1.000000000000082
 50
119.999999999997270
 51
198.787728582347000
  0
LINE
  8
0
  6
CONTINUOUS
 62
3
 10
-298.130879393199850
 20
-108.106949628515570
 11
-300.772114550256450
 21
-109.631867457434920
  0
ARC
  8
0
  6
CONTINUOUS
 62
3
 10
-297.630879393199850
 20
-108.972975032299880
 40
1.000000000000094
 50
20.405931773138686
 51
120.000000000003780
  0
ARC
  8
0
  6
CONTINUOUS
 62
3
 10
-307.914513963240100
 20
-117.679817259397110
 40
1.000000000000059
 50
171.618272422154460
 51
239.999999999996220
  0
ARC
  8
0
  6
CONTINUOUS
 62
3
 10
-317.313043233629290
 20
-116.295025739478600
 40
8.499999999999972
 50
351.618272422157820
 51
8.381727577842110
  0
ARC
  8
0
  6
CONTINUOUS
 62
3
 10
-305.170738388215800
 20
-113.326114652724030
 40
0.999999999999879
 50
13.739795291686027
 51
120.000000000003780
  0
LINE
  8
0
  6
CONTINUOUS
 62
3
 10
-305.670738388215800
 20
-120.129962230017490
 11
-308.414513963240100
 21
-118.545842663181410
  0
ARC
  8
0
  6
CONTINUOUS
 62
3
 10
-305.170738388215800
 20
-119.263936826233190
 40
0.999999999999885
 50
239.999999999996220
 51
346.260204708314010
  0
ARC
  8
0
  6
CONTINUOUS
 62
3
 10
-317.313043233629290
 20
-116.295025739478600
 40
13.500000000000130
 50
346.260204708311850
 51
13.739795291688113
  0
ARC
  8
0
  6
CONTINUOUS
 62
3
 10
-300.272114550256450
 20
-122.092158617737760
 40
0.999999999999646
 50
161.212271417644620
 51
239.999999999996220
  0
LINE
  8
0
  6
CONTINUOUS
 62
3
 10
-298.130879393199850
 20
-124.483101850441640
 11
-300.772114550256450
 21
-122.958184021522070
  0
ARC
  8
0
  6
CONTINUOUS
 62
3
 10
-317.313043233629290
 20
-116.295025739478600
 40
17.000000000000146
 50
341.212271417650070
 51
18.787728582350372
  0
ARC
  8
0
  6
CONTINUOUS
 62
3
 10
-297.630879393199850
 20
-123.617076446657330
 40
0.999999999999885
 50
239.999999999996220
 51
339.594068226861340
  0
ARC
  8
0
  6
CONTINUOUS
 62
3
 10
-292.814416901474940
 20
-126.397862362796950
 40
0.999999999999701
 50
157.589542391853940
 51
240.000000000002730
  0
ARC
  8
0
  6
CONTINUOUS
 62
3
 10
-285.404089339304850
 20
-130.676216975598830
 40
0.999999999999769
 50
155.739170477266270
 51
240.000000000002730
  0
ARC
  8
0
  6
CONTINUOUS
 62
3
 10
-317.313043233629290
 20
-116.295025739478600
 40
22.000000000000206
 50
339.594068226860770
 51
20.405931773139194
  0
LINE
  8
0
  6
CONTINUOUS
 62
3
 10
-290.695741445697420
 20
-128.775780745894450
 11
-293.314416901474940
 21
-127.263887766581490
  0
ARC
  8
0
  6
CONTINUOUS
 62
3
 10
-290.195741445697420
 20
-127.909755342109910
 40
1.000000000000082
 50
240.000000000002730
 51
336.813854344180130
  0
ARC
  8
0
  6
CONTINUOUS
 62
3
 10
-317.313043233629290
 20
-116.295025739478600
 40
30.499999999999947
 50
336.813854344181150
 51
23.186145655818819
  0
ARC
  8
0
  6
CONTINUOUS
 62
3
 10
-317.313043233629290
 20
-116.295025739478600
 40
25.500000000000085
 50
337.589542391857490
 51
22.410457608141989
  0
ARC
  8
0
  6
CONTINUOUS
 62
3
 10
-317.313043233629290
 20
-116.295025739478600
 40
34.000000000000007
 50
335.739170477266780
 51
24.260829522733200
  0
ARC
  8
0
  6
CONTINUOUS
 62
3
 10
-317.313043233629290
 20
-116.295025739478600
 40
39.000000000000220
 50
335.284732954534830
 51
24.715267045465172
  0
LINE
  8
0
  6
CONTINUOUS
 62
3
 10
-283.293964821199100
 20
-133.049198472529890
 11
-285.904089339304850
 21
-131.542242379383370
  0
ARC
  8
0
  6
CONTINUOUS
 62
3
 10
-282.793964821199100
 20
-132.183173068745590
 40
0.999999999999885
 50
239.999999999996220
 51
335.284732954544490
  0
CIRCLE
  8
0
  6
CONTINUOUS
 62
3
 10
-317.313043233629290
 20
-116.295025739478600
 40
5.000000000000000
  0
ARC
  8
0
  6
CONTINUOUS
 62
3
 10
-286.293964821199100
 20
-138.245350895236870
 40
0.999999999999776
 50
324.715267045465680
 51
60.000000000002721
  0
ARC
  8
0
  6
CONTINUOUS
 62
3
 10
-288.904089339304850
 20
-136.738394802089890
 40
0.999999999999885
 50
59.999999999996206
 51
144.260829522736490
  0
ARC
  8
0
  6
CONTINUOUS
 62
3
 10
-313.813043233629290
 20
-151.119586038210340
 40
0.999999999999973
 50
95.739170477261709
 51
180.000000000000000
  0
ARC
  8
0
  6
CONTINUOUS
 62
3
 10
-313.813043233629290
 20
-154.133498224503630
 40
1.000000000000000
 50
180.000000000000000
 51
275.284732954535740
  0
ARC
  8
0
  6
CONTINUOUS
 62
3
 10
-313.813043233629290
 20
-142.562876812605910
 40
0.999999999999975
 50
97.589542391854238
 51
180.000000000000000
  0
ARC
  8
0
  6
CONTINUOUS
 62
3
 10
-293.695741445697420
 20
-133.971933168600740
 40
0.999999999999911
 50
323.186145655802870
 51
59.999999999996206
  0
ARC
  8
0
  6
CONTINUOUS
 62
3
 10
-296.314416901474490
 20
-132.460040189287780
 40
1.000000000000082
 50
60.000000000002721
 51
142.410457608148220
  0
ARC
  8
0
  6
CONTINUOUS
 62
3
 10
-313.813043233629290
 20
-145.586662771232280
 40
1.000000000000000
 50
180.000000000000000
 51
276.813854344179670
  0
ARC
  8
0
  6
CONTINUOUS
 62
3
 10
-313.813043233629290
 20
-137.001304980327120
 40
1.000000000000000
 50
180.000000000000000
 51
279.594068226875490
  0
ARC
  8
0
  6
CONTINUOUS
 62
3
 10
-313.813043233629290
 20
-133.951469322488210
 40
0.999999999999982
 50
101.212271417644000
 51
180.000000000000000
  0
ARC
  8
0
  6
CONTINUOUS
 62
3
 10
-301.130879393200300
 20
-129.679254273148390
 40
1.000000000000318
 50
320.405931773139570
 51
59.999999999996206
  0
ARC
  8
0
  6
CONTINUOUS
 62
3
 10
-303.772114550256450
 20
-128.154336444229050
 40
1.000000000000082
 50
60.000000000002721
 51
138.787728582338990
  0
ARC
  8
0
  6
CONTINUOUS
 62
3
 10
-308.670738388215800
 20
-125.326114652724010
 40
0.999999999999858
 50
313.739795291671330
 51
59.999999999996206
  0
ARC
  8
0
  6
CONTINUOUS
 62
3
 10
-313.813043233629290
 20
-128.295025739478600
 40
1.000000000000000
 50
180.000000000000000
 51
286.260204708297350
  0
ARC
  8
0
  6
CONTINUOUS
 62
3
 10
-313.813043233629290
 20
-125.126786605806440
 40
1.000000000000090
 50
111.618272422161970
 51
180.000000000000000
  0
ARC
  8
0
  6
CONTINUOUS
 62
3
 10
-311.414513963240100
 20
-123.741995085887930
 40
0.999999999999885
 50
59.999999999996206
 51
128.381727577840220
  0
ARC
  8
0
  6
CONTINUOUS
 62
3
 10
-317.313043233629290
 20
-116.295025739478600
 40
38.999999999999986
 50
275.284732954534600
 51
324.715267045465230
  0
ARC
  8
0
  6
CONTINUOUS
 62
3
 10
-317.313043233629290
 20
-116.295025739478600
 40
30.500000000000135
 50
276.813854344181040
 51
323.186145655818900
  0
ARC
  8
0
  6
CONTINUOUS
 62
3
 10
-317.313043233629290
 20
-116.295025739478600
 40
34.000000000000071
 50
275.739170477266950
 51
324.260829522733050
  0
ARC
  8
0
  6
CONTINUOUS
 62
3
 10
-317.313043233629290
 20
-116.295025739478600
 40
25.499999999999932
 50
277.589542391858170
 51
322.410457608142050
  0
ARC
  8
0
  6
CONTINUOUS
 62
3
 10
-317.313043233629290
 20
-116.295025739478600
 40
22.000000000000131
 50
279.594068226861170
 51
320.405931773139170
  0
ARC
  8
0
  6
CONTINUOUS
 62
3
 10
-317.313043233629290
 20
-116.295025739478600
 40
17.000000000000046
 50
281.212271417650020
 51
318.787728582350210
  0
ARC
  8
0
  6
CONTINUOUS
 62
3
 10
-317.313043233629290
 20
-116.295025739478600
 40
13.499999999999963
 50
286.260204708310820
 51
313.739795291687870
  0
ARC
  8
0
  6
CONTINUOUS
 62
3
 10
-317.313043233629290
 20
-116.295025739478600
 40
8.499999999999904
 50
291.618272422157700
 51
308.381727577842640
  0
LINE
  8
0
  6
CONTINUOUS
 62
3
 10
-293.195741445697420
 20
-133.105907764816440
 11
-295.814416901474490
 21
-131.594014785503250
  0
LINE
  8
0
  6
CONTINUOUS
 62
3
 10
-314.813043233629290
 20
-154.133498224503630
 11
-314.813043233629290
 21
-151.119586038210340
  0
LINE
  8
0
  6
CONTINUOUS
 62
3
 10
-285.793964821199100
 20
-137.379325491452330
 11
-288.404089339304850
 21
-135.872369398305580
  0
LINE
  8
0
  6
CONTINUOUS
 62
3
 10
-300.630879393200300
 20
-128.813228869364080
 11
-303.272114550256450
 21
-127.288311040444510
  0
LINE
  8
0
  6
CONTINUOUS
 62
3
 10
-308.170738388215800
 20
-124.460089248939710
 11
-310.914513963240100
 21
-122.875969682103630
  0
LINE
  8
0
  6
CONTINUOUS
 62
3
 10
-314.813043233629290
 20
-128.295025739478600
 11
-314.813043233629290
 21
-125.126786605806440
  0
LINE
  8
0
  6
CONTINUOUS
 62
3
 10
-314.813043233629290
 20
-137.001304980327120
 11
-314.813043233629290
 21
-133.951469322488210
  0
LINE
  8
0
  6
CONTINUOUS
 62
3
 10
-314.813043233629290
 20
-145.586662771232280
 11
-314.813043233629290
 21
-142.562876812605910
  0
ARC
  8
0
  6
CONTINUOUS
 62
3
 10
-317.313043233629290
 20
-116.295025739478600
 40
39.000000000000213
 50
155.284732954534830
 51
204.715267045465200
  0
ARC
  8
0
  6
CONTINUOUS
 62
3
 10
-317.313043233629290
 20
-116.295025739478600
 40
34.000000000000000
 50
155.739170477266780
 51
204.260829522733220
  0
ARC
  8
0
  6
CONTINUOUS
 62
3
 10
-317.313043233629290
 20
-116.295025739478600
 40
25.499999999999996
 50
157.589542391858000
 51
202.410457608142480
  0
ARC
  8
0
  6
CONTINUOUS
 62
3
 10
-317.313043233629290
 20
-116.295025739478600
 40
30.499999999999943
 50
156.813854344181180
 51
203.186145655818850
  0
ARC
  8
0
  6
CONTINUOUS
 62
3
 10
-317.313043233629290
 20
-116.295025739478600
 40
22.000000000000199
 50
159.594068226860800
 51
200.405931773139230
  0
ARC
  8
0
  6
CONTINUOUS
 62
3
 10
-317.313043233629290
 20
-116.295025739478600
 40
16.999999999999712
 50
161.212271417649620
 51
198.787728582350440
  0
ARC
  8
0
  6
CONTINUOUS
 62
3
 10
-317.313043233629290
 20
-116.295025739478600
 40
13.499999999999684
 50
166.260204708311420
 51
193.739795291688180
  0
ARC
  8
0
  6
CONTINUOUS
 62
3
 10
-329.455348079042780
 20
-113.326114652724030
 40
0.999999999999885
 50
59.999999999996206
 51
166.260204708307780
  0
ARC
  8
0
  6
CONTINUOUS
 62
3
 10
-336.995207074058730
 20
-108.972975032299880
 40
0.999999999999885
 50
59.999999999996206
 51
159.594068226861310
  0
LINE
  8
0
  6
CONTINUOUS
 62
3
 10
-336.495207074058730
 20
-108.106949628515570
 11
-333.853971917002130
 21
-109.631867457434920
  0
ARC
  8
0
  6
CONTINUOUS
 62
3
 10
-334.353971917002130
 20
-110.497892861219450
 40
1.000000000000076
 50
341.212271417652970
 51
60.000000000002721
  0
LINE
  8
0
  6
CONTINUOUS
 62
3
 10
-328.955348079042780
 20
-112.460089248939720
 11
-326.211572504018480
 21
-114.044208815775800
  0
ARC
  8
0
  6
CONTINUOUS
 62
3
 10
-326.711572504018480
 20
-114.910234219560330
 40
1.000000000000026
 50
351.618272422167310
 51
60.000000000002721
  0
ARC
  8
0
  6
CONTINUOUS
 62
3
 10
-349.221997127953730
 20
-101.913834503358160
 40
0.999999999999863
 50
335.739170477254390
 51
59.999999999996206
  0
LINE
  8
0
  6
CONTINUOUS
 62
3
 10
-351.332121646059480
 20
-99.540853006427099
 11
-348.721997127953730
 21
-101.047809099573850
  0
ARC
  8
0
  6
CONTINUOUS
 62
3
 10
-351.832121646059480
 20
-100.406878410211630
 40
1.000000000000082
 50
60.000000000002721
 51
155.284732954544520
  0
ARC
  8
0
  6
CONTINUOUS
 62
3
 10
-341.811669565783630
 20
-106.192189116160490
 40
0.999999999999701
 50
337.589542391853970
 51
60.000000000002721
  0
LINE
  8
0
  6
CONTINUOUS
 62
3
 10
-343.930345021561150
 20
-103.814270733062770
 11
-341.311669565783630
 21
-105.326163712375950
  0
ARC
  8
0
  6
CONTINUOUS
 62
3
 10
-344.430345021561150
 20
-104.680296136847300
 40
1.000000000000082
 50
60.000000000002721
 51
156.813854344180160
  0
ARC
  8
0
  6
CONTINUOUS
 62
3
 10
-317.313043233629290
 20
-116.295025739478600
 40
38.999999999999972
 50
95.284732954534590
 51
144.715267045465230
  0
ARC
  8
0
  6
CONTINUOUS
 62
3
 10
-317.313043233629290
 20
-116.295025739478600
 40
34.000000000000057
 50
95.739170477266939
 51
144.260829522733390
  0
ARC
  8
0
  6
CONTINUOUS
 62
3
 10
-317.313043233629290
 20
-116.295025739478600
 40
25.500000000000146
 50
97.589542391858117
 51
142.410457608142050
  0
ARC
  8
0
  6
CONTINUOUS
 62
3
 10
-317.313043233629290
 20
-116.295025739478600
 40
30.500000000000124
 50
96.813854344181038
 51
143.186145655818960
  0
ARC
  8
0
  6
CONTINUOUS
 62
3
 10
-317.313043233629290
 20
-116.295025739478600
 40
22.000000000000117
 50
99.594068226861211
 51
140.405931773139200
  0
ARC
  8
0
  6
CONTINUOUS
 62
3
 10
-317.313043233629290
 20
-116.295025739478600
 40
17.000000000000032
 50
101.212271417650010
 51
138.787728582350300
  0
ARC
  8
0
  6
CONTINUOUS
 62
3
 10
-317.313043233629290
 20
-116.295025739478600
 40
13.499999999999950
 50
106.260204708310890
 51
133.739795291687900
  0
ARC
  8
0
  6
CONTINUOUS
 62
3
 10
-320.813043233629290
 20
-104.295025739478610
 40
1.000000000000000
 50
0.000000000000000
 51
106.260204708297360
  0
LINE
  8
0
  6
CONTINUOUS
 62
3
 10
-319.813043233629290
 20
-104.295025739478610
 11
-319.813043233629290
 21
-107.463264873150770
  0
ARC
  8
0
  6
CONTINUOUS
 62
3
 10
-325.955348079042780
 20
-107.263936826233200
 40
0.999999999999858
 50
133.739795291671300
 51
239.999999999996220
  0
ARC
  8
0
  6
CONTINUOUS
 62
3
 10
-317.313043233629290
 20
-116.295025739478600
 40
8.499999999999892
 50
111.618272422157730
 51
128.381727577841730
  0
ARC
  8
0
  6
CONTINUOUS
 62
3
 10
-320.813043233629290
 20
-107.463264873150770
 40
1.000000000000090
 50
291.618272422161970
 51
0.000000000000000
  0
ARC
  8
0
  6
CONTINUOUS
 62
3
 10
-333.495207074058270
 20
-102.910797205808600
 40
1.000000000000173
 50
140.405931773149600
 51
240.000000000002730
  0
LINE
  8
0
  6
CONTINUOUS
 62
3
 10
-333.995207074058270
 20
-103.776822609593140
 11
-331.353971917002130
 21
-105.301740438512700
  0
ARC
  8
0
  6
CONTINUOUS
 62
3
 10
-330.853971917002130
 20
-104.435715034728400
 40
0.999999999999885
 50
239.999999999996220
 51
318.787728582348790
  0
LINE
  8
0
  6
CONTINUOUS
 62
3
 10
-326.455348079042780
 20
-108.129962230017510
 11
-323.711572504018480
 21
-109.714081796853590
  0
ARC
  8
0
  6
CONTINUOUS
 62
3
 10
-323.211572504018480
 20
-108.848056393069050
 40
1.000000000000082
 50
240.000000000002730
 51
308.381727577840190
  0
ARC
  8
0
  6
CONTINUOUS
 62
3
 10
-345.721997127953730
 20
-95.851656676867336
 40
0.999999999999885
 50
239.999999999996220
 51
324.260829522725940
  0
LINE
  8
0
  6
CONTINUOUS
 62
3
 10
-348.832121646059480
 20
-95.210725987504887
 11
-346.221997127953730
 21
-96.717682080651642
  0
ARC
  8
0
  6
CONTINUOUS
 62
3
 10
-348.332121646059480
 20
-94.344700583720581
 40
0.999999999999908
 50
144.715267045455050
 51
239.999999999996220
  0
ARC
  8
0
  6
CONTINUOUS
 62
3
 10
-338.311669565783630
 20
-100.130011289669440
 40
1.000000000000082
 50
240.000000000002730
 51
322.410457608132330
  0
LINE
  8
0
  6
CONTINUOUS
 62
3
 10
-341.430345021561150
 20
-99.484143714140785
 11
-338.811669565783630
 21
-100.996036693453970
  0
ARC
  8
0
  6
CONTINUOUS
 62
3
 10
-340.930345021561150
 20
-98.618118310356252
 40
0.999999999999774
 50
143.186145655813330
 51
240.000000000002730
  0
ARC
  8
0
  6
CONTINUOUS
 62
3
 10
-320.813043233629290
 20
-78.456553254453596
 40
1.000000000000000
 50
0.000000000000000
 51
95.284732954535698
  0
LINE
  8
0
  6
CONTINUOUS
 62
3
 10
-319.813043233629290
 20
-78.456553254453596
 11
-319.813043233629290
 21
-81.470465440746878
  0
ARC
  8
0
  6
CONTINUOUS
 62
3
 10
-320.813043233629290
 20
-81.470465440746878
 40
0.999999999999973
 50
275.739170477261670
 51
0.000000000000000
  0
ARC
  8
0
  6
CONTINUOUS
 62
3
 10
-320.813043233629290
 20
-87.003388707724937
 40
1.000000000000000
 50
0.000000000000000
 51
96.813854344179688
  0
LINE
  8
0
  6
CONTINUOUS
 62
3
 10
-319.813043233629290
 20
-87.003388707724937
 11
-319.813043233629290
 21
-90.027174666351087
  0
ARC
  8
0
  6
CONTINUOUS
 62
3
 10
-320.813043233629290
 20
-90.027174666351314
 40
0.999999999999749
 50
277.589542391855960
 51
0.000000000013028
  0
ARC
  8
0
  6
CONTINUOUS
 62
3
 10
-320.813043233629290
 20
-95.588746498630101
 40
1.000000000000000
 50
0.000000000000000
 51
99.594068226875478
  0
LINE
  8
0
  6
CONTINUOUS
 62
3
 10
-319.813043233629290
 20
-95.588746498630101
 11
-319.813043233629290
 21
-98.638582156469013
  0
ARC
  8
0
  6
CONTINUOUS
 62
3
 10
-320.813043233629290
 20
-98.638582156469013
 40
0.999999999999982
 50
281.212271417643990
 51
0.000000000000000
  0
ARC
  8
0
  6
CONTINUOUS
 62
3
 10
-329.455348079042780
 20
-119.263936826233190
 40
0.999999999999879
 50
193.739795291686050
 51
300.000000000003810
  0
LINE
  8
0
  6
CONTINUOUS
 62
3
 10
-328.955348079042780
 20
-120.129962230017490
 11
-326.211572504018480
 21
-118.545842663181410
  0
ARC
  8
0
  6
CONTINUOUS
 62
3
 10
-317.313043233629290
 20
-116.295025739478600
 40
8.499999999999970
 50
171.618272422157900
 51
188.381727577842210
  0
ARC
  8
0
  6
CONTINUOUS
 62
3
 10
-326.711572504018480
 20
-117.679817259397110
 40
0.999999999999885
 50
300.000000000003810
 51
8.381727577845549
  0
LINE
  8
0
  6
CONTINUOUS
 62
3
 10
-319.813043233629290
 20
-145.586662771232280
 11
-319.813043233629290
 21
-142.562876812605910
  0
LINE
  8
0
  6
CONTINUOUS
 62
3
 10
-319.813043233629290
 20
-137.001304980327120
 11
-319.813043233629290
 21
-133.951469322488210
  0
LINE
  8
0
  6
CONTINUOUS
 62
3
 10
-319.813043233629290
 20
-128.295025739478600
 11
-319.813043233629290
 21
-125.126786605806440
  0
LINE
  8
0
  6
CONTINUOUS
 62
3
 10
-326.455348079042780
 20
-124.460089248939710
 11
-323.711572504018480
 21
-122.875969682103630
  0
LINE
  8
0
  6
CONTINUOUS
 62
3
 10
-333.995207074058270
 20
-128.813228869364080
 11
-331.353971917002130
 21
-127.288311040444510
  0
LINE
  8
0
  6
CONTINUOUS
 62
3
 10
-348.832121646059480
 20
-137.379325491452330
 11
-346.221997127953730
 21
-135.872369398305580
  0
LINE
  8
0
  6
CONTINUOUS
 62
3
 10
-341.430345021561150
 20
-133.105907764816440
 11
-338.811669565784090
 21
-131.594014785503250
  0
ARC
  8
0
  6
CONTINUOUS
 62
3
 10
-317.313043233629290
 20
-116.295025739478600
 40
8.499999999999948
 50
231.618272422157330
 51
248.381727577842330
  0
ARC
  8
0
  6
CONTINUOUS
 62
3
 10
-317.313043233629290
 20
-116.295025739478600
 40
13.499999999999927
 50
226.260204708312130
 51
253.739795291689150
  0
ARC
  8
0
  6
CONTINUOUS
 62
3
 10
-317.313043233629290
 20
-116.295025739478600
 40
16.999999999999773
 50
221.212271417650780
 51
258.787728582349980
  0
ARC
  8
0
  6
CONTINUOUS
 62
3
 10
-317.313043233629290
 20
-116.295025739478600
 40
22.000000000000025
 50
219.594068226860800
 51
260.405931773138780
  0
ARC
  8
0
  6
CONTINUOUS
 62
3
 10
-317.313043233629290
 20
-116.295025739478600
 40
25.499999999999890
 50
217.589542391857950
 51
262.410457608141830
  0
ARC
  8
0
  6
CONTINUOUS
 62
3
 10
-317.313043233629290
 20
-116.295025739478600
 40
33.999999999999964
 50
215.739170477266950
 51
264.260829522733050
  0
ARC
  8
0
  6
CONTINUOUS
 62
3
 10
-317.313043233629290
 20
-116.295025739478600
 40
30.499999999999964
 50
216.813854344181070
 51
263.186145655818960
  0
ARC
  8
0
  6
CONTINUOUS
 62
3
 10
-317.313043233629290
 20
-116.295025739478600
 40
38.999999999999865
 50
215.284732954534800
 51
264.715267045465400
  0
ARC
  8
0
  6
CONTINUOUS
 62
3
 10
-323.211572504018480
 20
-123.741995085887930
 40
0.999999999999961
 50
51.618272422159777
 51
120.000000000003780
  0
ARC
  8
0
  6
CONTINUOUS
 62
3
 10
-320.813043233629290
 20
-125.126786605806440
 40
1.000000000000000
 50
0.000000000000000
 51
68.381727577838021
  0
ARC
  8
0
  6
CONTINUOUS
 62
3
 10
-320.813043233629290
 20
-128.295025739478600
 40
0.999999999999964
 50
253.739795291702650
 51
0.000000000000000
  0
ARC
  8
0
  6
CONTINUOUS
 62
3
 10
-325.955348079042780
 20
-125.326114652724010
 40
0.999999999999885
 50
120.000000000003780
 51
226.260204708328700
  0
ARC
  8
0
  6
CONTINUOUS
 62
3
 10
-330.853971917002130
 20
-128.154336444229050
 40
1.000000000000165
 50
41.212271417643841
 51
119.999999999997270
  0
ARC
  8
0
  6
CONTINUOUS
 62
3
 10
-333.495207074058270
 20
-129.679254273148390
 40
0.999999999999885
 50
120.000000000003780
 51
219.594068226860460
  0
ARC
  8
0
  6
CONTINUOUS
 62
3
 10
-320.813043233629290
 20
-133.951469322488210
 40
1.000000000000000
 50
0.000000000000000
 51
78.787728582355996
  0
ARC
  8
0
  6
CONTINUOUS
 62
3
 10
-320.813043233629290
 20
-137.001304980327120
 40
1.000000000000268
 50
260.405931773124510
 51
0.000000000000000
  0
ARC
  8
0
  6
CONTINUOUS
 62
3
 10
-338.311669565784090
 20
-132.460040189287780
 40
1.000000000000194
 50
37.589542391851793
 51
119.999999999997270
  0
ARC
  8
0
  6
CONTINUOUS
 62
3
 10
-340.930345021561150
 20
-133.971933168600740
 40
0.999999999999885
 50
120.000000000003780
 51
216.813854344197100
  0
ARC
  8
0
  6
CONTINUOUS
 62
3
 10
-320.813043233629290
 20
-142.562876812605910
 40
1.000000000000000
 50
0.000000000000000
 51
82.410457608145762
  0
ARC
  8
0
  6
CONTINUOUS
 62
3
 10
-345.721997127953730
 20
-136.738394802089890
 40
0.999999999999807
 50
35.739170477263521
 51
120.000000000003780
  0
ARC
  8
0
  6
CONTINUOUS
 62
3
 10
-348.332121646059480
 20
-138.245350895236870
 40
1.000000000000082
 50
119.999999999997270
 51
215.284732954534320
  0
ARC
  8
0
  6
CONTINUOUS
 62
3
 10
-351.832121646059480
 20
-132.183173068745590
 40
1.000000000000248
 50
204.715267045455480
 51
300.000000000003810
  0
LINE
  8
0
  6
CONTINUOUS
 62
3
 10
-351.332121646059480
 20
-133.049198472529890
 11
-348.721997127953730
 21
-131.542242379383370
  0
ARC
  8
0
  6
CONTINUOUS
 62
3
 10
-344.430345021561150
 20
-127.909755342109910
 40
0.999999999999730
 50
203.186145655819840
 51
299.999999999997270
  0
LINE
  8
0
  6
CONTINUOUS
 62
3
 10
-343.930345021561150
 20
-128.775780745894450
 11
-341.311669565783630
 21
-127.263887766581490
  0
ARC
  8
0
  6
CONTINUOUS
 62
3
 10
-349.221997127953730
 20
-130.676216975598830
 40
1.000000000000082
 50
299.999999999997270
 51
24.260829522733715
  0
ARC
  8
0
  6
CONTINUOUS
 62
3
 10
-341.811669565783630
 20
-126.397862362796950
 40
1.000000000000082
 50
299.999999999997270
 51
22.410457608146043
  0
ARC
  8
0
  6
CONTINUOUS
 62
3
 10
-336.995207074058730
 20
-123.617076446657330
 40
1.000000000000094
 50
200.405931773138690
 51
300.000000000003810
  0
LINE
  8
0
  6
CONTINUOUS
 62
3
 10
-336.495207074058730
 20
-124.483101850441640
 11
-333.853971917002130
 21
-122.958184021522070
  0
ARC
  8
0
  6
CONTINUOUS
 62
3
 10
-334.353971917002130
 20
-122.092158617737760
 40
0.999999999999885
 50
300.000000000003810
 51
18.787728582346993
  0
LINE
  8
0
  6
CONTINUOUS
 62
3
 10
-319.813043233629290
 20
-154.133498224503630
 11
-319.813043233629290
 21
-151.119586038210340
  0
ARC
  8
0
  6
CONTINUOUS
 62
3
 10
-320.813043233629290
 20
-145.586662771232280
 40
1.000000000000077
 50
263.186145655820330
 51
0.000000000000000
  0
ARC
  8
0
  6
CONTINUOUS
 62
3
 10
-320.813043233629290
 20
-154.133498224503630
 40
1.000000000000042
 50
264.715267045464260
 51
0.000000000000000
  0
ARC
  8
0
  6
CONTINUOUS
 62
3
 10
-320.813043233629290
 20
-151.119586038210340
 40
1.000000000000000
 50
0.000000000000000
 51
84.260829522738291
  0
ARC
  8
0
  6
CONTINUOUS
 62
3
 10
-317.313043233629290
 20
-462.895025739478740
 40
400.599999999999910
 50
84.256318189006564
 51
90.000000000000000
  0
ARC
  8
0
  6
CONTINUOUS
 62
3
 10
-277.882176233541940
 20
-70.873078997180258
 40
6.600000000000278
 50
44.999999999997215
 51
84.256318189004901
  0
ARC
  8
0
  6
CONTINUOUS
 62
4
 10
-317.313043233629290
 20
-462.895025739478740
 40
390.797000000000030
 50
84.582036237639471
 51
90.000000000000000
  0
ARC
  8
0
  6
CONTINUOUS
 62
4
 10
-280.697078294610950
 20
-76.830543663511847
 40
3.000000000000346
 50
44.999999999996930
 51
84.582036237634313
  0
ARC
  8
0
  6
CONTINUOUS
 62
4
 10
-280.697078294610950
 20
-155.759507815445370
 40
3.000000000000067
 50
275.417963762365730
 51
315.000000000003070
  0
ARC
  8
0
  6
CONTINUOUS
 62
4
 10
-317.313043233629290
 20
230.304974260521530
 40
390.797000000000030
 50
270.000000000000000
 51
275.417963762360500
  0
ARC
  8
0
  6
CONTINUOUS
 62
4
 10
-289.941152646109910
 20
-139.834823397390610
 40
20.797000000000015
 50
315.000000000000000
 51
354.998349729064670
  0
LINE
  8
0
  6
CONTINUOUS
 62
4
 10
-275.235452917773270
 20
-154.540523125727250
 11
-278.575757951050950
 21
-157.880828159005150
  0
ARC
  8
0
  6
CONTINUOUS
 62
4
 10
-558.913043233629650
 20
-116.295025739478600
 40
290.797000000000140
 50
354.998349729065010
 51
0.000000000000000
  0
ARC
  8
0
  6
CONTINUOUS
 62
4
 10
-353.929008172647630
 20
-155.759507815445370
 40
3.000000000000346
 50
224.999999999996960
 51
264.582036237634270
  0
ARC
  8
0
  6
CONTINUOUS
 62
4
 10
-317.313043233629290
 20
230.304974260521530
 40
390.797000000000030
 50
264.582036237639500
 51
270.000000000000000
  0
ARC
  8
0
  6
CONTINUOUS
 62
4
 10
-344.684933821148660
 20
-139.834823397390610
 40
20.796999999999880
 50
185.001650270935330
 51
225.000000000000000
  0
LINE
  8
0
  6
CONTINUOUS
 62
4
 10
-359.390633549485300
 20
-154.540523125727250
 11
-356.050328516207630
 21
-157.880828159005150
  0
ARC
  8
0
  6
CONTINUOUS
 62
4
 10
-75.713043233629151
 20
-116.295025739478600
 40
290.797000000000250
 50
180.000000000000000
 51
185.001650270934930
  0
ARC
  8
0
  6
CONTINUOUS
 62
4
 10
-353.929008172647630
 20
-76.830543663511847
 40
3.000000000000067
 50
95.417963762365673
 51
135.000000000003040
  0
ARC
  8
0
  6
CONTINUOUS
 62
4
 10
-317.313043233629290
 20
-462.895025739478740
 40
390.797000000000030
 50
90.000000000000000
 51
95.417963762360529
  0
ARC
  8
0
  6
CONTINUOUS
 62
4
 10
-344.684933821148660
 20
-92.755228081566614
 40
20.797000000000015
 50
135.000000000000000
 51
174.998349729064670
  0
LINE
  8
0
  6
CONTINUOUS
 62
4
 10
-359.390633549485300
 20
-78.049528353229974
 11
-356.050328516207630
 21
-74.709223319952073
  0
ARC
  8
0
  6
CONTINUOUS
 62
4
 10
-75.713043233629151
 20
-116.295025739478600
 40
290.796999999999910
 50
174.998349729065040
 51
180.000000000000000
  0
ARC
  8
0
  6
CONTINUOUS
 62
3
 10
-236.374274099647660
 20
-141.295025739478600
 40
5.000000000000000
 50
270.000000000000000
 51
355.138594604201330
  0
ARC
  8
0
  6
CONTINUOUS
 62
3
 10
-236.374274099647660
 20
-91.295025739478618
 40
4.999999999999893
 50
4.861405395798621
 51
90.000000000000000
  0
LINE
  8
0
  6
CONTINUOUS
 62
3
 10
-259.813043233629290
 20
-146.295025739478600
 11
-236.374274099647660
 21
-146.295025739478600
  0
LINE
  8
0
  6
CONTINUOUS
 62
3
 10
-259.813043233629290
 20
-86.295025739478618
 11
-236.374274099647660
 21
-86.295025739478618
  0
ARC
  8
0
  6
CONTINUOUS
 62
3
 10
-530.313043233629290
 20
-116.295025739478600
 40
300.000000000000170
 50
355.138594604201960
 51
4.861405395798033
  0
LINE
  8
0
  6
CONTINUOUS
 62
3
 10
-230.323460081147000
 20
-113.795025739478610
 11
-229.813043233629290
 21
-113.795025739478610
  0
LINE
  8
0
  6
CONTINUOUS
 62
3
 10
-230.323460081147000
 20
-118.795025739478600
 11
-229.813043233629290
 21
-118.795025739478600
  0
LINE
  8
0
  6
CONTINUOUS
 62
3
 10
-229.813043233629290
 20
-118.795025739478600
 11
-229.813043233629290
 21
-113.795025739478610
  0
ARC
  8
0
  6
CONTINUOUS
 62
3
 10
-280.322975995482920
 20
-88.231269108462996
 40
20.599999999999916
 50
5.752282731536487
 51
44.999999999997321
  0
LINE
  8
0
  6
CONTINUOUS
 62
3
 10
-265.756576303039310
 20
-73.664869416020750
 11
-273.215271477710300
 21
-66.206174241349075
  0
ARC
  8
0
  6
CONTINUOUS
 62
3
 10
-558.913043233629650
 20
-116.295025739478600
 40
300.600000000000360
 50
0.000000000000000
 51
5.752282731536601
  0
LINE
  8
0
  6
CONTINUOUS
 62
3
 10
-260.011594173728100
 20
-84.795025739478618
 11
-259.813043233629290
 21
-84.795025739478618
  0
LINE
  8
0
  6
CONTINUOUS
 62
3
 10
-259.813043233629290
 20
-86.302526677216477
 11
-259.813043233629290
 21
-84.795025739478618
  0
ARC
  8
0
  6
CONTINUOUS
 62
4
 10
-280.322975995482920
 20
-88.231269108462996
 40
10.797000000000011
 50
5.752282731536912
 51
44.999999999998295
  0
LINE
  8
0
  6
CONTINUOUS
 62
4
 10
-272.688344079011590
 20
-80.596637191992116
 11
-278.575757951050950
 21
-74.709223319952073
  0
ARC
  8
0
  6
CONTINUOUS
 62
4
 10
-558.913043233629650
 20
-116.295025739478600
 40
290.797000000000480
 50
0.000000000000000
 51
5.752282731536622
  0
ARC
  8
0
  6
CONTINUOUS
 62
3
 10
-558.913043233629650
 20
-116.295025739478600
 40
300.599999999999910
 50
354.247717268463420
 51
0.000000000000000
  0
LINE
  8
0
  6
CONTINUOUS
 62
3
 10
-265.756576303039310
 20
-158.925182062936470
 11
-273.215271477710300
 21
-166.383877237608150
  0
ARC
  8
0
  6
CONTINUOUS
 62
3
 10
-280.322975995482920
 20
-144.358782370494230
 40
20.600000000000069
 50
315.000000000002670
 51
354.247717268463480
  0
ARC
  8
0
  6
CONTINUOUS
 62
3
 10
-317.313043233629290
 20
230.304974260521530
 40
400.599999999999910
 50
270.000000000000000
 51
275.743681810993450
  0
ARC
  8
0
  6
CONTINUOUS
 62
3
 10
-277.882176233541940
 20
-161.716972481776960
 40
6.600000000000009
 50
275.743681810995100
 51
315.000000000002790
  0
ARC
  8
0
  6
CONTINUOUS
 62
3
 10
-75.713043233628923
 20
-116.295025739478600
 40
300.600000000000360
 50
180.000000000000000
 51
185.752282731536610
  0
LINE
  8
0
  6
CONTINUOUS
 62
3
 10
-368.869510164219260
 20
-158.925182062936470
 11
-361.410814989548270
 21
-166.383877237608150
  0
ARC
  8
0
  6
CONTINUOUS
 62
3
 10
-354.303110471775650
 20
-144.358782370494230
 40
20.599999999999916
 50
185.752282731536500
 51
224.999999999997330
  0
ARC
  8
0
  6
CONTINUOUS
 62
3
 10
-317.313043233629290
 20
230.304974260521530
 40
400.599999999999910
 50
264.256318189006550
 51
270.000000000000000
  0
ARC
  8
0
  6
CONTINUOUS
 62
3
 10
-356.743910233716630
 20
-161.716972481776960
 40
6.600000000000278
 50
224.999999999997190
 51
264.256318189004900
  0
ARC
  8
0
  6
CONTINUOUS
 62
3
 10
-75.713043233628923
 20
-116.295025739478600
 40
300.599999999999910
 50
174.247717268463390
 51
180.000000000000000
  0
LINE
  8
0
  6
CONTINUOUS
 62
3
 10
-368.869510164219260
 20
-73.664869416020750
 11
-361.410814989548270
 21
-66.206174241349075
  0
ARC
  8
0
  6
CONTINUOUS
 62
3
 10
-354.303110471775650
 20
-88.231269108462996
 40
20.600000000000069
 50
135.000000000002670
 51
174.247717268463500
  0
ARC
  8
0
  6
CONTINUOUS
 62
3
 10
-317.313043233629290
 20
-462.895025739478740
 40
400.599999999999910
 50
90.000000000000000
 51
95.743681810993436
  0
ARC
  8
0
  6
CONTINUOUS
 62
3
 10
-356.743910233716630
 20
-70.873078997180258
 40
6.600000000000009
 50
95.743681810995099
 51
135.000000000002790
  0
LINE
  8
0
  6
CONTINUOUS
 62
3
 10
-259.813043233629290
 20
-147.795025739478600
 11
-259.813043233629290
 21
-146.283011593908840
  0
LINE
  8
0
  6
CONTINUOUS
 62
3
 10
-260.011594173728100
 20
-147.795025739478600
 11
-259.813043233629290
 21
-147.795025739478600
  0
LINE
  8
0
  6
CONTINUOUS
 62
3
 10
-367.729756597360050
 20
-72.525115849161338
 11
-368.216559989065670
 21
-72.038312457455717
  0
LINE
  8
0
  6
CONTINUOUS
 62
3
 10
-361.082953123946370
 20
-65.878312375747598
 11
-361.569756515651990
 21
-65.391508984042005
  0
LINE
  8
0
  6
CONTINUOUS
 62
3
 10
-368.042895206328810
 20
-72.272568898310951
 11
-361.365795903856000
 21
-65.595469595838026
  0
LINE
  8
0
  6
CONTINUOUS
 62
3
 10
-367.729756597360050
 20
-72.525115849161338
 11
-361.082953123946370
 21
-65.878312375747598
  0
POINT
  8
0
  6
CONTINUOUS
 62
3
 10
-364.406354860653210
 20
-69.201714112454468
  0
ARC
  8
0
  6
CONTINUOUS
 62
3
 10
-362.143613295726140
 20
-71.464455677381508
 40
6.099999427795394
 50
84.601927898109537
 51
185.398089404735120
  0
LINE
  8
0
  6
DASHDOT
 62
4
 10
-242.130621930886040
 20
-189.977447042222310
 11
-226.845639031076590
 21
-205.262429942032040
  0
LINE
  8
0
  6
DASHDOT
 62
4
 10
-212.031787070623980
 20
-116.295025739478510
 11
-428.029393992095720
 21
-116.295025739478710
  0
LINE
  8
0
  6
DASHDOT
 62
4
 10
-339.522108085202490
 20
-114.795025739478580
 11
-294.826869164451640
 21
-114.795025739478580
  0
LINE
  8
0
  6
DASHDOT
 62
4
 10
-317.313043233629290
 20
-12.682168338546035
 11
-317.313043233629290
 21
-223.868958356288200
  0
LINE
  8
0
  6
DASHDOT
 62
4
 10
-393.350400819329480
 20
-38.757668153777544
 11
-408.560590528536070
 21
-23.547478444570935
  0
LINE
  8
0
  6
DASHDOT
 62
4
 10
210.491181216093540
 20
128.526976553082930
 11
-207.596475837047650
 21
128.526976553082930
  0
LINE
  8
0
  6
CONTINUOUS
 62
3
 10
-396.813043233629290
 20
-125.068174584236770
 11
-396.813043233629290
 21
-163.127737173605960
  0
ARC
  8
0
  6
CONTINUOUS
 62
3
 10
-386.813043233629290
 20
-163.127737173605960
 40
10.000000000000000
 50
180.000000000000000
 51
197.813976466619290
  0
ARC
  8
0
  6
CONTINUOUS
 62
3
 10
-395.813043233629290
 20
-132.795025739478600
 40
1.000000000000000
 50
180.000000000000000
 51
270.000000000000000
  0
ARC
  8
0
  6
CONTINUOUS
 62
3
 10
-395.813043233629290
 20
-148.795025739478600
 40
1.000000000000000
 50
90.000000000000000
 51
180.000000000000000
  0
ARC
  8
0
  6
CONTINUOUS
 62
3
 10
-394.813043233629290
 20
-131.795025739478770
 40
2.000000000000000
 50
90.000000000000000
 51
180.000000000000000
  0
LINE
  8
0
  6
CONTINUOUS
 62
3
 10
-412.313043233629510
 20
-29.795025739478589
 11
-412.313043233629510
 21
-199.795025739478600
  0
ARC
  8
0
  6
CONTINUOUS
 62
3
 10
-402.313043233629510
 20
-29.795025739478589
 40
10.000000000000000
 50
90.000000000000000
 51
180.000000000000000
  0
CIRCLE
  8
0
  6
CONTINUOUS
 62
3
 10
-400.398090023048780
 20
-31.709978950059323
 40
6.000000000000000
  0
ARC
  8
0
  6
CONTINUOUS
 62
3
 10
-402.313043233629510
 20
-199.795025739478600
 40
10.000000000000000
 50
180.000000000000000
 51
270.000000000000000
  0
CIRCLE
  8
0
  6
CONTINUOUS
 62
3
 10
-400.398090023048330
 20
-197.880072528898210
 40
6.000000000000000
  0
LINE
  8
0
  6
CONTINUOUS
 62
3
 10
131.470206864189320
 20
84.453127704841791
 11
116.392512829137780
 21
84.453127704841791
  0
ARC
  8
0
  6
CONTINUOUS
 62
3
 10
130.990399589598610
 20
60.008165520497641
 40
3.000000000000000
 50
0.000000000000000
 51
48.254159514985268
  0
LINE
  8
0
  6
CONTINUOUS
 62
3
 10
114.311595202070520
 20
78.913270254573035
 11
132.987882097237160
 21
62.246482663282222
  0
ARC
  8
0
  6
CONTINUOUS
 62
3
 10
112.314112694432190
 20
76.674953111789364
 40
3.000000000000058
 50
48.254159514976941
 51
90.000000000000000
  0
ARC
  8
0
  6
CONTINUOUS
 62
3
 10
130.990399589598610
 20
64.786340113550068
 40
3.000000000000000
 50
0.000000000000000
 51
48.254159514985268
  0
LINE
  8
0
  6
CONTINUOUS
 62
3
 10
114.311595202070520
 20
83.691444847625462
 11
132.987882097237160
 21
67.024657256334649
  0
ARC
  8
0
  6
CONTINUOUS
 62
3
 10
112.314112694432190
 20
81.453127704841791
 40
3.000000000000058
 50
48.254159514976941
 51
90.000000000000000
  0
LINE
  8
0
  6
CONTINUOUS
 62
3
 10
131.470206864189320
 20
172.600825401324070
 11
116.392512829137780
 21
172.600825401324070
  0
ARC
  8
0
  6
CONTINUOUS
 62
3
 10
130.990399589598610
 20
197.045787585668220
 40
3.000000000000888
 50
311.745840485014750
 51
0.000000000000000
  0
LINE
  8
0
  6
CONTINUOUS
 62
3
 10
114.311595202070520
 20
178.140682851592830
 11
132.987882097237160
 21
194.807470442883640
  0
ARC
  8
0
  6
CONTINUOUS
 62
3
 10
112.314112694432190
 20
180.378999994376500
 40
3.000000000000000
 50
270.000000000000000
 51
311.745840485023050
  0
ARC
  8
0
  6
CONTINUOUS
 62
3
 10
130.990399589598610
 20
192.267612992615800
 40
3.000000000000888
 50
311.745840485014750
 51
0.000000000000000
  0
LINE
  8
0
  6
CONTINUOUS
 62
3
 10
114.311595202070520
 20
173.362508258540400
 11
132.987882097237160
 21
190.029295849831210
  0
ARC
  8
0
  6
CONTINUOUS
 62
3
 10
112.314112694432190
 20
175.600825401324070
 40
3.000000000000000
 50
270.000000000000000
 51
311.745840485023050
  0
ARC
  8
0
  6
CONTINUOUS
 62
3
 10
116.458076940883300
 20
123.026976553083840
 40
3.000000000000000
 50
90.000000000000000
 51
180.000000000000000
  0
LINE
  8
0
  6
CONTINUOUS
 62
3
 10
116.458076940883300
 20
126.026976553083840
 11
130.990399589598610
 21
126.026976553083840
  0
ARC
  8
0
  6
CONTINUOUS
 62
3
 10
130.990399589598610
 20
123.026976553083840
 40
3.000000000000000
 50
0.000000000000000
 51
90.000000000000000
  0
ARC
  8
0
  6
CONTINUOUS
 62
3
 10
116.458076940883300
 20
134.026976553083840
 40
3.000000000000000
 50
180.000000000000000
 51
270.000000000000000
  0
LINE
  8
0
  6
CONTINUOUS
 62
3
 10
116.458076940883300
 20
131.026976553083840
 11
130.990399589598610
 21
131.026976553083840
  0
ARC
  8
0
  6
CONTINUOUS
 62
3
 10
130.990399589598610
 20
134.026976553083840
 40
3.000000000000000
 50
270.000000000000000
 51
0.000000000000000
  0
LINE
  8
0
  6
CONTINUOUS
 62
3
 10
138.990399589598610
 20
55.325966426305968
 11
138.990399589598610
 21
128.526976553082930
  0
LINE
  8
0
  6
CONTINUOUS
 62
3
 10
138.990399589598610
 20
201.727986679859900
 11
138.990399589598610
 21
128.526976553082930
  0
LINE
  8
0
  6
CONTINUOUS
 62
3
 10
58.990399589598610
 20
49.026976553082022
 11
58.990399589598610
 21
208.026976553082930
  0
ARC
  8
0
  6
CONTINUOUS
 62
3
 10
130.990399589598610
 20
43.510852516779778
 40
3.000000000000000
 50
0.000000000000000
 51
88.000000000000995
  0
LINE
  8
0
  6
CONTINUOUS
 62
3
 10
58.990399589598610
 20
49.026976553082932
 11
131.095098079706080
 21
46.509024997837514
  0
ARC
  8
0
  6
CONTINUOUS
 62
3
 10
130.990399589598610
 20
213.543100589386090
 40
3.000000000000447
 50
271.999999999999030
 51
0.000000000000000
  0
LINE
  8
0
  6
CONTINUOUS
 62
3
 10
58.990399589598610
 20
208.026976553082930
 11
131.095098079706080
 21
210.544928108328350
  0
LINE
  8
0
  6
CONTINUOUS
 62
3
 10
145.990399589598610
 20
76.993581276064106
 11
140.990399589598610
 21
76.993581276064106
  0
LINE
  8
0
  6
CONTINUOUS
 62
3
 10
145.990399589598610
 20
53.325966426305968
 11
140.990399589598610
 21
53.325966426305968
  0
ARC
  8
0
  6
CONTINUOUS
 62
3
 10
140.990399589598610
 20
55.325966426305968
 40
2.000000000000000
 50
180.000000000000000
 51
270.000000000000000
  0
ARC
  8
0
  6
CONTINUOUS
 62
3
 10
140.990399589598610
 20
78.993581276064106
 40
2.000000000000000
 50
180.000000000000000
 51
270.000000000000000
  0
LINE
  8
0
  6
CONTINUOUS
 62
3
 10
145.990399589598610
 20
180.060371830101760
 11
140.990399589598610
 21
180.060371830101760
  0
LINE
  8
0
  6
CONTINUOUS
 62
3
 10
145.990399589598610
 20
203.727986679859900
 11
140.990399589598610
 21
203.727986679859900
  0
ARC
  8
0
  6
CONTINUOUS
 62
3
 10
140.990399589598610
 20
201.727986679859900
 40
2.000000000000000
 50
90.000000000000000
 51
180.000000000000000
  0
ARC
  8
0
  6
CONTINUOUS
 62
3
 10
140.990399589598610
 20
178.060371830101760
 40
2.000000000000000
 50
90.000000000000000
 51
180.000000000000000
  0
LINE
  8
0
  6
DASHDOT
 62
4
 10
156.608852000212660
 20
45.441929763663211
 11
124.133391299849100
 21
45.441929763663211
  0
LINE
  8
0
  6
DASHDOT
 62
4
 10
156.608852000212660
 20
211.612023342502650
 11
124.133391299849100
 21
211.612023342502650
  0
LINE
  8
0
  6
CONTINUOUS
 62
3
 10
145.990399589598610
 20
34.015122651228012
 11
145.990399589598610
 21
128.526976553082930
  0
LINE
  8
0
  6
CONTINUOUS
 62
3
 10
145.990399589598610
 20
223.038830454936940
 11
145.990399589598610
 21
128.526976553082930
  0
ARC
  8
0
  6
CONTINUOUS
 62
3
 10
135.990399589598610
 20
222.111198989056900
 40
1.999999999999651
 50
87.000000000000398
 51
180.000000000000000
  0
ARC
  8
0
  6
CONTINUOUS
 62
3
 10
135.990399589598610
 20
34.942754117108962
 40
2.000000000000000
 50
180.000000000000000
 51
272.999999999999600
  0
LINE
  8
0
  6
CONTINUOUS
 62
3
 10
133.990399589598610
 20
222.111198989056900
 11
133.990399589598610
 21
34.942754117108962
  0
LINE
  8
0
  6
CONTINUOUS
 62
3
 10
145.440119331223740
 20
33.435248251617850
 11
136.095071502084470
 21
32.945495047599252
  0
LINE
  8
0
  6
CONTINUOUS
 62
3
 10
148.990399589598610
 20
43.526976553082932
 11
148.990399589598610
 21
128.526976553082930
  0
LINE
  8
0
  6
CONTINUOUS
 62
3
 10
148.990399589598610
 20
213.526976553082930
 11
148.990399589598610
 21
128.526976553082930
  0
ARC
  8
0
  6
CONTINUOUS
 62
3
 10
149.490399589598840
 20
99.973196427801668
 40
0.999999999999832
 50
93.000000000006111
 51
120.000000000021580
  0
ARC
  8
0
  6
CONTINUOUS
 62
3
 10
149.490399589598840
 20
157.080756678363290
 40
0.999999999999802
 50
239.999999999978400
 51
266.999999999993860
  0
LINE
  8
0
  6
CONTINUOUS
 62
3
 10
148.990399589598610
 20
43.526976553082932
 11
145.990399589598610
 21
43.526976553082932
  0
LINE
  8
0
  6
CONTINUOUS
 62
3
 10
148.990399589598610
 20
213.526976553082930
 11
145.990399589598610
 21
213.526976553082930
  0
ARC
  8
0
  6
CONTINUOUS
 62
3
 10
135.990399589598610
 20
222.111198989056900
 40
2.000000000000025
 50
177.837310087963030
 51
180.000000000000000
  0
LINE
  8
0
  6
CONTINUOUS
 62
3
 10
150.490399589598840
 20
128.526976553082930
 11
150.490399589598840
 21
155.026976553082930
  0
LINE
  8
0
  6
CONTINUOUS
 62
3
 10
150.490399589598840
 20
128.526976553082930
 11
150.490399589598840
 21
102.026976553082930
  0
LINE
  8
0
  6
CONTINUOUS
 62
3
 10
145.440119331223740
 20
223.618704854547100
 11
136.095071502084470
 21
224.108458058565700
  0
LINE
  8
0
  6
CONTINUOUS
 62
3
 10
145.440119331223740
 20
223.618704854547100
 11
145.990399589598610
 21
223.038830454936940
  0
LINE
  8
0
  6
CONTINUOUS
 62
3
 10
145.440119331223740
 20
33.435248251617850
 11
145.990399589598610
 21
34.015122651228012
  0
LINE
  8
0
  6
CONTINUOUS
 62
3
 10
149.490399589598840
 20
156.026976553082930
 11
149.438063633355800
 21
156.082127143608890
  0
LINE
  8
0
  6
CONTINUOUS
 62
3
 10
149.490399589598840
 20
101.026976553082930
 11
149.438063633355800
 21
100.971825962556060
  0
ARC
  8
0
  6
CONTINUOUS
 62
3
 10
149.490399589598840
 20
155.026976553082930
 40
1.000000000000000
 50
0.000000000000000
 51
90.000000000000000
  0
ARC
  8
0
  6
CONTINUOUS
 62
3
 10
149.490399589598840
 20
102.026976553082930
 40
1.000000000000000
 50
270.000000000000000
 51
0.000000000000000
  0
LINE
  8
0
  6
CONTINUOUS
 62
3
 10
58.490399589598610
 20
208.026976553083840
 11
58.490399589598610
 21
128.526976553084750
  0
LINE
  8
0
  6
CONTINUOUS
 62
3
 10
58.490399589598610
 20
49.026976553083841
 11
58.490399589598610
 21
128.526976553082930
  0
LINE
  8
0
  6
CONTINUOUS
 62
3
 10
152.290399589598110
 20
114.026976553082930
 11
150.490399589598840
 21
114.026976553082930
  0
LINE
  8
0
  6
CONTINUOUS
 62
3
 10
152.490399589598840
 20
128.526976553082930
 11
152.490399589598840
 21
114.226976553082750
  0
LINE
  8
0
  6
CONTINUOUS
 62
3
 10
152.490399589598840
 20
114.226976553082750
 11
152.290399589598110
 21
114.026976553082930
  0
ARC
  8
0
  6
CONTINUOUS
 62
3
 10
152.890399589598470
 20
114.276976553082930
 40
0.399999999999636
 50
90.000000000000000
 51
180.000000000000000
  0
LINE
  8
0
  6
CONTINUOUS
 62
3
 10
155.050207210733330
 20
114.526976553082930
 11
154.490399589598840
 21
114.676976553082560
  0
LINE
  8
0
  6
CONTINUOUS
 62
3
 10
154.490399589598840
 20
114.676976553082560
 11
152.890399589598470
 21
114.676976553082560
  0
LINE
  8
0
  6
CONTINUOUS
 62
3
 10
152.290399589598110
 20
143.026976553082930
 11
150.490399589598840
 21
143.026976553082930
  0
LINE
  8
0
  6
CONTINUOUS
 62
3
 10
152.490399589598840
 20
128.526976553082930
 11
152.490399589598840
 21
142.826976553083110
  0
LINE
  8
0
  6
CONTINUOUS
 62
3
 10
152.490399589598840
 20
142.826976553083110
 11
152.290399589598110
 21
143.026976553082930
  0
ARC
  8
0
  6
CONTINUOUS
 62
3
 10
152.890399589598470
 20
142.776976553082930
 40
0.399999999999636
 50
180.000000000000000
 51
270.000000000000000
  0
LINE
  8
0
  6
CONTINUOUS
 62
3
 10
155.050207210733330
 20
142.526976553082930
 11
154.490399589598840
 21
142.376976553083300
  0
LINE
  8
0
  6
CONTINUOUS
 62
3
 10
154.490399589598840
 20
142.376976553083300
 11
152.890399589598470
 21
142.376976553083300
  0
LINE
  8
0
  6
CONTINUOUS
 62
3
 10
158.490399589598840
 20
111.526976553082930
 11
158.490399589598840
 21
114.526976553082930
  0
LINE
  8
0
  6
CONTINUOUS
 62
3
 10
194.490399589598840
 20
142.126976553083300
 11
194.490399589598840
 21
128.526976553082930
  0
LINE
  8
0
  6
CONTINUOUS
 62
3
 10
194.090399589598290
 20
142.526976553082930
 11
155.050207210733330
 21
142.526976553082930
  0
ARC
  8
0
  6
CONTINUOUS
 62
3
 10
194.090399589598290
 20
142.126976553083300
 40
0.400000000000546
 50
0.000000000000000
 51
90.000000000000000
  0
LINE
  8
0
  6
CONTINUOUS
 62
3
 10
194.490399589598840
 20
111.526976553082930
 11
194.490399589598840
 21
114.926976553082560
  0
LINE
  8
0
  6
CONTINUOUS
 62
3
 10
194.490399589598840
 20
111.526976553082930
 11
158.490399589598840
 21
111.526976553082930
  0
LINE
  8
0
  6
CONTINUOUS
 62
3
 10
194.490399589598840
 20
114.926976553082560
 11
194.490399589598840
 21
128.526976553082930
  0
LINE
  8
0
  6
CONTINUOUS
 62
3
 10
194.090399589598290
 20
114.526976553082930
 11
155.050207210733330
 21
114.526976553082930
  0
ARC
  8
0
  6
CONTINUOUS
 62
3
 10
194.090399589598290
 20
114.926976553082560
 40
0.399999999999636
 50
270.000000000000000
 51
0.000000000000000
  0
ARC
  8
0
  6
DASHDOT
 62
4
 10
324.199258962034040
 20
-114.795025739480470
 40
117.499999999999850
 50
219.632292221130970
 51
230.364178174484010
  0
ARC
  8
0
  6
DASHDOT
 62
4
 10
324.199258962034040
 20
-114.795025739480470
 40
117.499999999999820
 50
39.819944785099644
 51
50.364178174483833
  0
LINE
  8
0
  6
CONTINUOUS
 62
3
 10
266.912445769682110
 20
-191.880828805054990
 11
249.584035272884190
 21
-209.209239301853810
  0
LINE
  8
0
  6
DASHDOT
 62
4
 10
248.892386765667200
 20
-190.101897935847770
 11
233.336037579563250
 21
-205.658247121951720
  0
ARC
  8
0
  6
CONTINUOUS
 62
3
 10
273.983513581547870
 20
-198.951896616920750
 40
9.999999999999677
 50
59.175803515864729
 51
135.000000000000000
  0
ARC
  8
0
  6
CONTINUOUS
 62
3
 10
231.199258962034040
 20
-190.824462991003200
 40
2.000000000000016
 50
134.999999999990790
 51
180.000000000000000
  0
ARC
  8
0
  6
CONTINUOUS
 62
3
 10
324.199258962034040
 20
-114.795025739480470
 40
88.000000000000185
 50
239.175803515867240
 51
300.824196484132760
  0
CIRCLE
  8
0
  6
CONTINUOUS
 62
3
 10
241.114212172615230
 20
-197.880072528900200
 40
6.000000000000000
  0
ARC
  8
0
  6
CONTINUOUS
 62
3
 10
309.699258962034040
 20
-125.068174584238470
 40
62.692927983299825
 50
92.158403465040607
 51
112.319350801796330
  0
ARC
  8
0
  6
CONTINUOUS
 62
3
 10
266.002023105646460
 20
-64.375964476144873
 40
3.000000000000185
 50
45.000000000006146
 51
139.096043758148540
  0
ARC
  8
0
  6
CONTINUOUS
 62
3
 10
252.127969010005470
 20
-109.295025739480470
 40
3.000000000000146
 50
164.678311543429370
 51
270.000000000000000
  0
LINE
  8
0
  6
CONTINUOUS
 62
3
 10
247.395938721304900
 20
-117.295025739480470
 11
286.599391940992520
 21
-117.295025739480470
  0
LINE
  8
0
  6
CONTINUOUS
 62
3
 10
247.395938721304900
 20
-112.295025739480470
 11
286.599391940992520
 21
-112.295025739480470
  0
LINE
  8
0
  6
DASHDOT
 62
4
 10
214.605872281168560
 20
-114.795025739480470
 11
428.290154950253050
 21
-114.795025739480470
  0
LINE
  8
0
  6
CONTINUOUS
 62
3
 10
229.199258962034040
 20
-29.795025739480479
 11
229.199258962034040
 21
-199.795025739480480
  0
LINE
  8
0
  6
CONTINUOUS
 62
3
 10
247.006330978734240
 20
-135.396225638148280
 11
247.006330978734240
 21
-125.068174584238470
  0
ARC
  8
0
  6
CONTINUOUS
 62
3
 10
300.312636592200310
 20
-167.647927947031350
 40
27.000000000000064
 50
101.549996895618320
 51
184.263738012298550
  0
ARC
  8
0
  6
CONTINUOUS
 62
3
 10
231.199258962034040
 20
-117.795025739480470
 40
2.000000000000000
 50
180.000000000000000
 51
270.000000000000000
  0
ARC
  8
0
  6
CONTINUOUS
 62
3
 10
233.551589383605460
 20
-122.795025739480470
 40
2.999999999999722
 50
5.043502368944078
 51
90.000000000000000
  0
ARC
  8
0
  6
CONTINUOUS
 62
3
 10
231.199258962034040
 20
-111.795025739480470
 40
2.000000000000000
 50
90.000000000000000
 51
180.000000000000000
  0
ARC
  8
0
  6
CONTINUOUS
 62
3
 10
233.551589383605010
 20
-106.795025739480470
 40
3.000000000000000
 50
270.000000000000000
 51
354.956497631056660
  0
ARC
  8
0
  6
CONTINUOUS
 62
3
 10
324.199258962034040
 20
-114.795025739480470
 40
88.000000000000014
 50
149.175803515866790
 51
174.956497631052430
  0
ARC
  8
0
  6
CONTINUOUS
 62
3
 10
247.395938721304900
 20
-120.295025739480470
 40
3.000000000000000
 50
90.000000000000000
 51
184.096043758144700
  0
ARC
  8
0
  6
CONTINUOUS
 62
3
 10
247.395938721304900
 20
-109.295025739480470
 40
3.000000000000195
 50
175.903956241837960
 51
270.000000000000000
  0
ARC
  8
0
  6
CONTINUOUS
 62
3
 10
309.699258962034040
 20
-125.068174584238470
 40
62.692927983299811
 50
175.413634931334290
 51
180.000000000000000
  0
ARC
  8
0
  6
CONTINUOUS
 62
3
 10
309.699258962034040
 20
-125.068174584238470
 40
62.692927983299832
 50
123.385956680340820
 51
164.678311543432900
  0
ARC
  8
0
  6
CONTINUOUS
 62
3
 10
250.197471582785970
 20
-120.295025739480470
 40
3.000000000000000
 50
90.000000000000000
 51
175.413634931326700
  0
ARC
  8
0
  6
CONTINUOUS
 62
3
 10
250.006330978734240
 20
-135.396225638148280
 40
3.000000000000000
 50
180.000000000000000
 51
195.518413527624970
  0
CIRCLE
  8
0
  6
CONTINUOUS
 62
3
 10
324.199258962034040
 20
-114.795025739480470
 40
80.000000000000000
  0
ARC
  8
0
  6
CONTINUOUS
 62
3
 10
324.199258962034040
 20
-114.795025739480470
 40
88.000000000000085
 50
185.043502368947570
 51
205.222612744695400
  0
ARC
  8
0
  6
CONTINUOUS
 62
3
 10
324.199258962034040
 20
-114.795025739480470
 40
88.000000000000014
 50
205.222612744695400
 51
210.824196484133210
  0
LINE
  8
0
  6
CONTINUOUS
 62
3
 10
233.551589383605010
 20
-119.795025739480470
 11
232.719676323481790
 21
-119.795025739480470
  0
LINE
  8
0
  6
CONTINUOUS
 62
3
 10
232.719676323481790
 20
-119.795025739480470
 11
231.199258962034040
 21
-119.795025739480470
  0
LINE
  8
0
  6
CONTINUOUS
 62
3
 10
233.551589383605010
 20
-109.795025739480470
 11
232.769683894819250
 21
-109.795025739480470
  0
LINE
  8
0
  6
CONTINUOUS
 62
3
 10
232.769683894819250
 20
-109.795025739480470
 11
231.199258962034040
 21
-109.795025739480470
  0
ARC
  8
0
  6
CONTINUOUS
 62
3
 10
287.029758449649310
 20
-69.847350634043323
 40
2.999999999999910
 50
112.319350801792870
 51
225.000000000006170
  0
ARC
  8
0
  6
CONTINUOUS
 62
3
 10
276.851667322020600
 20
-75.225608692519017
 40
2.999999999999864
 50
44.999999999987722
 51
123.385956680338290
  0
ARC
  8
0
  6
CONTINUOUS
 62
3
 10
324.199258962034040
 20
-114.795025739480470
 40
41.999999999999943
 50
138.412480210151980
 51
176.587519789847280
  0
ARC
  8
0
  6
CONTINUOUS
 62
3
 10
324.199258962034040
 20
-114.795025739480470
 40
41.999999999999993
 50
183.412480210152720
 51
220.223497577760530
  0
ARC
  8
0
  6
CONTINUOUS
 62
3
 10
240.042388084593770
 20
-64.579280358993856
 40
10.000000000000068
 50
329.175803515866050
 51
44.999999999998167
  0
ARC
  8
0
  6
CONTINUOUS
 62
3
 10
240.042388084593310
 20
-165.010771119966190
 40
10.000000000000401
 50
315.000000000000000
 51
30.824196484128137
  0
ARC
  8
0
  6
CONTINUOUS
 62
3
 10
270.395664976877010
 20
-169.878356015348800
 40
2.999999999999571
 50
225.673360121564310
 51
4.263738012311674
  0
LINE
  8
0
  6
CONTINUOUS
 62
3
 10
271.658877355138880
 20
-58.719110226652447
 11
299.379904972709940
 21
-86.440137844223500
  0
LINE
  8
0
  6
CONTINUOUS
 62
3
 10
247.113455896459070
 20
-172.081838931831950
 11
229.785045399661160
 21
-189.410249428629870
  0
LINE
  8
0
  6
CONTINUOUS
 62
3
 10
268.123343449206460
 20
-62.254644132584872
 11
295.844371066776600
 21
-89.975671750155925
  0
LINE
  8
0
  6
DASHED
 62
3
 10
243.260489828051960
 20
-86.295025739479001
 11
266.699258962033580
 21
-86.295025739479001
  0
LINE
  8
0
  6
DASHED
 62
3
 10
266.699258962033580
 20
-147.795025739479000
 11
266.699258962033580
 21
-84.795025739479001
  0
LINE
  8
0
  6
DASHED
 62
3
 10
271.699258962033580
 20
-84.795025739479001
 11
266.699258962033580
 21
-84.795025739479001
  0
ARC
  8
0
  6
DASHED
 62
3
 10
270.399258962033400
 20
-95.995025739478990
 40
0.199999999999989
 50
90.000000000000000
 51
180.000000000000000
  0
LINE
  8
0
  6
DASHED
 62
3
 10
270.199258962033580
 20
-116.295025739479000
 11
270.199258962033580
 21
-95.995025739478990
  0
LINE
  8
0
  6
DASHED
 62
3
 10
271.699258962033580
 20
-95.795025739479001
 11
270.399258962033400
 21
-95.795025739479001
  0
LINE
  8
0
  6
DASHED
 62
3
 10
271.699258962033580
 20
-95.795025739479001
 11
271.699258962033580
 21
-84.795025739479001
  0
LINE
  8
0
  6
DASHED
 62
3
 10
243.260489828051960
 20
-146.295025739479000
 11
266.699258962033580
 21
-146.295025739479000
  0
LINE
  8
0
  6
DASHED
 62
3
 10
271.699258962033580
 20
-147.795025739479000
 11
266.699258962033580
 21
-147.795025739479000
  0
LINE
  8
0
  6
DASHED
 62
3
 10
271.699258962033580
 20
-136.795025739479000
 11
271.699258962033580
 21
-147.795025739479000
  0
ARC
  8
0
  6
DASHED
 62
3
 10
270.399258962033400
 20
-136.595025739479010
 40
0.199999999999818
 50
180.000000000000000
 51
270.000000000000000
  0
LINE
  8
0
  6
DASHED
 62
3
 10
270.199258962033580
 20
-116.295025739479000
 11
270.199258962033580
 21
-136.595025739479010
  0
LINE
  8
0
  6
DASHED
 62
3
 10
271.699258962033580
 20
-136.795025739479000
 11
270.399258962033400
 21
-136.795025739479000
  0
ARC
  8
0
  6
DASHED
 62
3
 10
243.260489828051960
 20
-141.295025739479000
 40
4.999999999999890
 50
184.861405395798270
 51
270.000000000000000
  0
ARC
  8
0
  6
DASHED
 62
3
 10
537.199258962033580
 20
-116.295025739479000
 40
300.000000000000000
 50
180.000000000000000
 51
184.861405395798040
  0
LINE
  8
0
  6
DASHED
 62
3
 10
236.699258962033580
 20
-118.795025739479000
 11
236.699258962033580
 21
-113.795025739479000
  0
LINE
  8
0
  6
DASHED
 62
3
 10
236.699258962033580
 20
-113.795025739479000
 11
237.209675809551300
 21
-113.795025739479000
  0
ARC
  8
0
  6
DASHED
 62
3
 10
537.199258962033580
 20
-116.295025739479000
 40
300.000000000000110
 50
175.138594604201960
 51
180.000000000000000
  0
LINE
  8
0
  6
DASHED
 62
3
 10
236.699258962033580
 20
-118.795025739479000
 11
237.209675809551300
 21
-118.795025739479000
  0
ARC
  8
0
  6
DASHED
 62
3
 10
243.260489828051960
 20
-91.295025739479001
 40
5.000000000000000
 50
90.000000000000000
 51
175.138594604202010
  0
LINE
  8
0
  6
CONTINUOUS
 62
3
 10
247.113455896459070
 20
-57.508212547129006
 11
229.785045399661160
 21
-40.179802050330181
  0
CIRCLE
  8
0
  6
CONTINUOUS
 62
3
 10
324.199258962034040
 20
-114.795025739480470
 40
35.000000000000000
  0
CIRCLE
  8
0
  6
CONTINUOUS
 62
3
 10
324.199258962034040
 20
-114.795025739480470
 40
27.500000000000000
  0
ARC
  8
0
  6
CONTINUOUS
 62
3
 10
286.599391940992520
 20
-109.295025739480470
 40
3.000000000000000
 50
270.000000000000000
 51
351.677959400822430
  0
ARC
  8
0
  6
CONTINUOUS
 62
3
 10
286.599391940992520
 20
-120.295025739480470
 40
3.000000000000119
 50
8.322040599177583
 51
90.000000000000000
  0
ARC
  8
0
  6
CONTINUOUS
 62
3
 10
324.199258962034040
 20
-114.795025739480470
 40
41.999999999999993
 50
93.412480210152708
 51
131.587519789847140
  0
ARC
  8
0
  6
CONTINUOUS
 62
3
 10
294.305948064110000
 20
-138.255417116439280
 40
2.999999999999337
 50
281.549996895632720
 51
38.124966414610668
  0
ARC
  8
0
  6
CONTINUOUS
 62
3
 10
293.723050723217510
 20
-92.096992093715926
 40
2.999999999999426
 50
323.322040599176720
 51
45.000000000012292
  0
LINE
  8
0
  6
DASHDOT
 62
4
 10
354.217818836525110
 20
-116.295025739479000
 11
293.997144739605570
 21
-116.295025739479000
  0
LINE
  8
0
  6
DASHDOT
 62
4
 10
324.199258962033580
 20
-232.921872819664710
 11
324.199258962033580
 21
-9.628670246689580
  0
ARC
  8
0
  6
CONTINUOUS
 62
3
 10
338.699258962034040
 20
-125.068174584238470
 40
62.692927983299995
 50
15.321688456566910
 51
56.614043319658833
  0
LINE
  8
0
  6
CONTINUOUS
 62
3
 10
152.490399589598840
 20
-114.795025739480470
 11
152.490399589598840
 21
-126.395025739480840
  0
LINE
  8
0
  6
CONTINUOUS
 62
3
 10
152.490399589598840
 20
-114.795025739480470
 11
152.490399589598840
 21
-103.195025739481020
  0
LINE
  8
0
  6
CONTINUOUS
 62
3
 10
194.490399589598840
 20
-110.795025739480470
 11
162.490399589598840
 21
-110.795025739480470
  0
LINE
  8
0
  6
CONTINUOUS
 62
3
 10
194.490399589598840
 20
-118.795025739480470
 11
162.490399589598840
 21
-118.795025739480470
  0
ARC
  8
0
  6
CONTINUOUS
 62
3
 10
162.490399589598840
 20
-114.795025739480470
 40
4.000000000000000
 50
90.000000000000000
 51
270.000000000000000
  0
ARC
  8
0
  6
CONTINUOUS
 62
3
 10
194.090399589598290
 20
-128.395025739480840
 40
0.399999999999636
 50
270.000000000000000
 51
0.000000000000000
  0
LINE
  8
0
  6
CONTINUOUS
 62
3
 10
194.090399589598290
 20
-128.795025739480480
 11
155.050207210733330
 21
-128.795025739480480
  0
LINE
  8
0
  6
CONTINUOUS
 62
3
 10
194.490399589598840
 20
-128.395025739480840
 11
194.490399589598840
 21
-114.795025739480470
  0
ARC
  8
0
  6
CONTINUOUS
 62
3
 10
194.090399589598290
 20
-101.195025739480110
 40
0.400000000000546
 50
0.000000000000000
 51
90.000000000000000
  0
LINE
  8
0
  6
CONTINUOUS
 62
3
 10
194.090399589598290
 20
-100.795025739480470
 11
155.050207210733330
 21
-100.795025739480470
  0
LINE
  8
0
  6
CONTINUOUS
 62
3
 10
194.490399589598840
 20
-101.195025739480110
 11
194.490399589598840
 21
-114.795025739480470
  0
LINE
  8
0
  6
CONTINUOUS
 62
3
 10
154.490399589598840
 20
-100.945025739480110
 11
152.890399589598470
 21
-100.945025739480110
  0
LINE
  8
0
  6
CONTINUOUS
 62
3
 10
155.050207210733330
 20
-100.795025739480470
 11
154.490399589598840
 21
-100.945025739480110
  0
ARC
  8
0
  6
CONTINUOUS
 62
3
 10
152.890399589598470
 20
-100.545025739480470
 40
0.399999999999636
 50
180.000000000000000
 51
270.000000000000000
  0
LINE
  8
0
  6
CONTINUOUS
 62
3
 10
152.490399589598840
 20
-100.495025739480290
 11
152.290399589598110
 21
-100.295025739480470
  0
LINE
  8
0
  6
CONTINUOUS
 62
3
 10
152.490399589598840
 20
-114.795025739480470
 11
152.490399589598840
 21
-100.495025739480290
  0
LINE
  8
0
  6
CONTINUOUS
 62
3
 10
152.290399589598110
 20
-100.295025739480470
 11
150.490399589597930
 21
-100.295025739480470
  0
LINE
  8
0
  6
CONTINUOUS
 62
3
 10
154.490399589598840
 20
-128.645025739480840
 11
152.890399589598470
 21
-128.645025739480840
  0
LINE
  8
0
  6
CONTINUOUS
 62
3
 10
155.050207210733330
 20
-128.795025739480480
 11
154.490399589598840
 21
-128.645025739480840
  0
ARC
  8
0
  6
CONTINUOUS
 62
3
 10
152.890399589598470
 20
-129.045025739480480
 40
0.399999999999636
 50
90.000000000000000
 51
180.000000000000000
  0
LINE
  8
0
  6
CONTINUOUS
 62
3
 10
152.490399589598840
 20
-129.095025739480660
 11
152.290399589598110
 21
-129.295025739480480
  0
LINE
  8
0
  6
CONTINUOUS
 62
3
 10
152.490399589598840
 20
-114.795025739480470
 11
152.490399589598840
 21
-129.095025739480660
  0
LINE
  8
0
  6
CONTINUOUS
 62
3
 10
152.290399589598110
 20
-129.295025739480480
 11
150.490399589597930
 21
-129.295025739480480
  0
ARC
  8
0
  6
CONTINUOUS
 62
3
 10
324.199258962034040
 20
-114.795025739480470
 40
41.999999999999943
 50
318.412480210151950
 51
356.587519789847310
  0
ARC
  8
0
  6
CONTINUOUS
 62
3
 10
354.675467200850560
 20
-137.493059385245030
 40
2.999999999999426
 50
143.322040599176740
 51
225.000000000012280
  0
ARC
  8
0
  6
CONTINUOUS
 62
3
 10
324.199258962034040
 20
-114.795025739480470
 40
41.999999999999979
 50
48.412480210152864
 51
86.587519789847292
  0
ARC
  8
0
  6
CONTINUOUS
 62
3
 10
371.546850602047470
 20
-75.225608692519017
 40
2.999999999999778
 50
56.614043319654456
 51
135.000000000012250
  0
ARC
  8
0
  6
CONTINUOUS
 62
3
 10
361.368759474419220
 20
-69.847350634043323
 40
2.999999999999864
 50
314.999999999987720
 51
67.680649198207121
  0
ARC
  8
0
  6
CONTINUOUS
 62
3
 10
346.897292607799050
 20
-84.318817500663499
 40
3.000000000000427
 50
233.322040599180130
 51
314.999999999993860
  0
ARC
  8
0
  6
CONTINUOUS
 62
3
 10
354.675467200851020
 20
-92.096992093715926
 40
3.000000000000185
 50
134.999999999993830
 51
216.677959400818080
  0
ARC
  8
0
  6
CONTINUOUS
 62
3
 10
301.501225316269030
 20
-84.318817500663499
 40
2.999999999999864
 50
225.000000000012280
 51
306.677959400826810
  0
ARC
  8
0
  6
CONTINUOUS
 62
3
 10
398.392186945333830
 20
-135.396225638148280
 40
3.000000000000288
 50
344.481586472375000
 51
0.000000000000000
  0
ARC
  8
0
  6
CONTINUOUS
 62
3
 10
396.270548914062600
 20
-109.295025739480470
 40
3.000000000000000
 50
270.000000000000000
 51
15.321688456570628
  0
ARC
  8
0
  6
CONTINUOUS
 62
3
 10
398.201046341282110
 20
-120.295025739480470
 40
2.999999999999651
 50
4.586365068673312
 51
90.000000000000000
  0
ARC
  8
0
  6
CONTINUOUS
 62
3
 10
318.699258962034040
 20
-65.136111291381894
 40
3.000000000000000
 50
0.000000000000000
 51
90.708657147838480
  0
ARC
  8
0
  6
CONTINUOUS
 62
3
 10
329.699258962034040
 20
-65.136111291381894
 40
2.999999999999795
 50
89.291342852161520
 51
180.000000000000000
  0
ARC
  8
0
  6
CONTINUOUS
 62
3
 10
324.199258962034040
 20
-114.795025739480470
 40
41.999999999999993
 50
3.412480210152714
 51
41.587519789847612
  0
ARC
  8
0
  6
CONTINUOUS
 62
3
 10
329.699258962034040
 20
-77.195158718438506
 40
3.000000000000000
 50
180.000000000000000
 51
261.677959400831010
  0
ARC
  8
0
  6
CONTINUOUS
 62
3
 10
318.699258962034040
 20
-77.195158718438506
 40
3.000000000000119
 50
278.322040599177570
 51
0.000000000000000
  0
ARC
  8
0
  6
CONTINUOUS
 62
3
 10
361.799125983075560
 20
-120.295025739480470
 40
3.000000000000000
 50
90.000000000000000
 51
171.677959400822400
  0
ARC
  8
0
  6
CONTINUOUS
 62
3
 10
361.799125983075560
 20
-109.295025739480470
 40
3.000000000000119
 50
188.322040599177600
 51
270.000000000000000
  0
ARC
  8
0
  6
CONTINUOUS
 62
3
 10
382.396494818421620
 20
-165.214087002816090
 40
3.000000000000507
 50
225.000000000000000
 51
319.096043758148540
  0
ARC
  8
0
  6
CONTINUOUS
 62
3
 10
338.699258962034040
 20
-125.068174584238470
 40
62.692927983300230
 50
67.680649198203270
 51
87.841596534959393
  0
ARC
  8
0
  6
CONTINUOUS
 62
3
 10
374.618320225369640
 20
-56.597789883092446
 40
3.000000000000185
 50
314.999999999993860
 51
49.096043758149435
  0
ARC
  8
0
  6
CONTINUOUS
 62
3
 10
382.396494818421620
 20
-64.375964476144873
 40
3.000000000000403
 50
40.903956241845769
 51
134.999999999993830
  0
ARC
  8
0
  6
CONTINUOUS
 62
3
 10
273.780197698698430
 20
-56.597789883092446
 40
2.999999999999418
 50
130.903956241850580
 51
225.000000000006170
  0
ARC
  8
0
  6
CONTINUOUS
 62
3
 10
324.199258962034040
 20
-509.795025739704220
 40
447.692927983299680
 50
87.841596534959422
 51
89.291342852163240
  0
ARC
  8
0
  6
CONTINUOUS
 62
3
 10
338.699258962034040
 20
-125.068174584238470
 40
62.692927983299796
 50
0.000000000000000
 51
4.586365068665701
  0
ARC
  8
0
  6
CONTINUOUS
 62
3
 10
324.199258962034490
 20
-509.795025739704220
 40
447.692927983299800
 50
90.708657147836817
 51
92.158403465040649
  0
ARC
  8
0
  6
CONTINUOUS
 62
3
 10
379.567802277686950
 20
-212.795025739480480
 40
3.000000000000000
 50
90.000000000000000
 51
177.685070995693200
  0
ARC
  8
0
  6
CONTINUOUS
 62
3
 10
367.199258962034490
 20
-212.295025739480480
 40
9.378645473199995
 50
311.725793146349250
 51
357.685070995696950
  0
ARC
  8
0
  6
CONTINUOUS
 62
3
 10
281.199258962034040
 20
-212.295025739480480
 40
9.378645473200079
 50
182.314929004302910
 51
228.274206853650720
  0
ARC
  8
0
  6
CONTINUOUS
 62
3
 10
268.830715646381120
 20
-212.795025739480480
 40
3.000000000000225
 50
2.314929004306812
 51
90.000000000000000
  0
ARC
  8
0
  6
CONTINUOUS
 62
3
 10
324.199258962034040
 20
-114.795025739480470
 40
88.000000000000085
 50
5.043502368947569
 51
30.824196484133207
  0
ARC
  8
0
  6
CONTINUOUS
 62
3
 10
401.002579202763170
 20
-120.295025739480470
 40
3.000000000000130
 50
355.903956241855330
 51
90.000000000000000
  0
ARC
  8
0
  6
CONTINUOUS
 62
3
 10
401.002579202763170
 20
-109.295025739480470
 40
3.000000000000000
 50
270.000000000000000
 51
4.096043758162018
  0
ARC
  8
0
  6
CONTINUOUS
 62
3
 10
318.699258962034040
 20
-37.991705498750889
 40
3.000000000000000
 50
0.000000000000000
 51
94.096043758154593
  0
ARC
  8
0
  6
CONTINUOUS
 62
3
 10
329.699258962034040
 20
-37.991705498750889
 40
2.999999999999255
 50
85.903956241845407
 51
180.000000000000000
  0
ARC
  8
0
  6
CONTINUOUS
 62
3
 10
400.228696213556760
 20
-207.795025739480480
 40
2.000000000000338
 50
225.000000000000000
 51
270.000000000000000
  0
CIRCLE
  8
0
  6
CONTINUOUS
 62
3
 10
407.284305751453300
 20
-31.709978950060759
 40
6.000000000000000
  0
ARC
  8
0
  6
CONTINUOUS
 62
3
 10
409.199258962034040
 20
-29.795025739480479
 40
10.000000000000000
 50
0.000000000000000
 51
90.000000000000000
  0
ARC
  8
0
  6
CONTINUOUS
 62
3
 10
408.356129839474310
 20
-64.579280358993856
 40
9.999999999999437
 50
135.000000000001820
 51
210.824196484133950
  0
ARC
  8
0
  6
CONTINUOUS
 62
3
 10
400.228696213556760
 20
-21.795025739480479
 40
2.000000000000000
 50
90.000000000000000
 51
135.000000000000000
  0
ARC
  8
0
  6
CONTINUOUS
 62
3
 10
417.199258962034040
 20
-38.765588487957757
 40
1.999999999999373
 50
315.000000000009210
 51
0.000000000000000
  0
ARC
  8
0
  6
CONTINUOUS
 62
3
 10
324.199258962034040
 20
-114.795025739480470
 40
88.000000000000014
 50
329.175803515866790
 51
354.956497631052460
  0
ARC
  8
0
  6
CONTINUOUS
 62
3
 10
408.356129839474310
 20
-165.010771119966190
 40
9.999999999999602
 50
149.175803515870540
 51
225.000000000001850
  0
CIRCLE
  8
0
  6
CONTINUOUS
 62
3
 10
407.284305751453300
 20
-197.880072528900200
 40
6.000000000000000
  0
ARC
  8
0
  6
DASHDOT
 62
4
 10
324.199258962034040
 20
-114.795025739480470
 40
117.499999999999500
 50
309.635821825515960
 51
320.364178174483360
  0
ARC
  8
0
  6
CONTINUOUS
 62
3
 10
409.199258962034040
 20
-199.795025739480480
 40
10.000000000000000
 50
270.000000000000000
 51
0.000000000000000
  0
ARC
  8
0
  6
CONTINUOUS
 62
3
 10
417.199258962034040
 20
-190.824462991003200
 40
2.000000000000000
 50
0.000000000000000
 51
44.999999999990798
  0
CIRCLE
  8
0
  6
CONTINUOUS
 62
3
 10
241.114212172614770
 20
-31.709978950060759
 40
6.000000000000000
  0
ARC
  8
0
  6
CONTINUOUS
 62
3
 10
239.199258962034040
 20
-199.795025739480480
 40
10.000000000000000
 50
180.000000000000000
 51
270.000000000000000
  0
ARC
  8
0
  6
CONTINUOUS
 62
3
 10
239.199258962034040
 20
-29.795025739480479
 40
10.000000000000000
 50
90.000000000000000
 51
180.000000000000000
  0
ARC
  8
0
  6
DASHDOT
 62
4
 10
324.199258962034040
 20
-114.795025739480470
 40
117.499999999999780
 50
129.635821825516160
 51
140.364178174483360
  0
ARC
  8
0
  6
CONTINUOUS
 62
3
 10
374.415004342520210
 20
-30.638154862040210
 40
9.999999999999677
 50
239.175803515864690
 51
315.000000000001820
  0
ARC
  8
0
  6
CONTINUOUS
 62
3
 10
231.199258962034040
 20
-38.765588487957757
 40
2.000000000000000
 50
180.000000000000000
 51
224.999999999990790
  0
ARC
  8
0
  6
CONTINUOUS
 62
3
 10
248.169821710511310
 20
-21.795025739480479
 40
2.000000000000338
 50
45.000000000000000
 51
90.000000000000000
  0
ARC
  8
0
  6
CONTINUOUS
 62
3
 10
273.983513581547870
 20
-30.638154862040210
 40
9.999999999999437
 50
224.999999999998180
 51
300.824196484135310
  0
ARC
  8
0
  6
CONTINUOUS
 62
3
 10
324.199258962034040
 20
-114.795025739480470
 40
88.000000000000185
 50
59.175803515867223
 51
120.824196484132780
  0
ARC
  8
0
  6
CONTINUOUS
 62
3
 10
248.169821710510860
 20
-207.795025739480480
 40
2.000000000000000
 50
270.000000000000000
 51
315.000000000000000
  0
ARC
  8
0
  6
CONTINUOUS
 62
3
 10
374.415004342520210
 20
-198.951896616920750
 40
10.000000000000082
 50
45.000000000001855
 51
120.824196484135270
  0
ARC
  8
0
  6
CONTINUOUS
 62
3
 10
414.846928540463070
 20
-122.795025739480470
 40
3.000000000000000
 50
90.000000000000000
 51
174.956497631056660
  0
ARC
  8
0
  6
CONTINUOUS
 62
3
 10
417.199258962034040
 20
-117.795025739480470
 40
2.000000000000000
 50
270.000000000000000
 51
0.000000000000000
  0
ARC
  8
0
  6
CONTINUOUS
 62
3
 10
414.846928540463070
 20
-106.795025739480470
 40
3.000000000000175
 50
185.043502368943310
 51
270.000000000000000
  0
ARC
  8
0
  6
CONTINUOUS
 62
3
 10
417.199258962034040
 20
-111.795025739480470
 40
2.000000000000000
 50
0.000000000000000
 51
90.000000000000000
  0
LINE
  8
0
  6
CONTINUOUS
 62
3
 10
380.275174474861610
 20
-167.335407346376090
 11
352.554146857291470
 21
-139.614379728805030
  0
LINE
  8
0
  6
CONTINUOUS
 62
3
 10
380.275174474862070
 20
-62.254644132584872
 11
352.554146857291470
 21
-89.975671750155925
  0
LINE
  8
0
  6
CONTINUOUS
 62
3
 10
376.739640568929190
 20
-58.719110226652447
 11
349.018612951358590
 21
-86.440137844223500
  0
LINE
  8
0
  6
CONTINUOUS
 62
3
 10
401.392186945333830
 20
-125.068174584238470
 11
401.392186945333830
 21
-135.396225638148280
  0
LINE
  8
0
  6
CONTINUOUS
 62
3
 10
324.199258962034040
 20
-209.795025739480480
 11
409.199258962034040
 21
-209.795025739480480
  0
LINE
  8
0
  6
CONTINUOUS
 62
3
 10
239.199258962034040
 20
-209.795025739480480
 11
324.199258962034040
 21
-209.795025739480480
  0
LINE
  8
0
  6
DASHED
 62
4
 10
268.830715646381120
 20
-209.795025739480480
 11
270.210628474116220
 21
-209.795025739480480
  0
LINE
  8
0
  6
DASHDOT
 62
4
 10
399.381680264776830
 20
-189.977447042224210
 11
414.744117787994410
 21
-205.339884565442110
  0
LINE
  8
0
  6
DASHDOT
 62
4
 10
399.533876010424360
 20
-39.460408691090095
 11
415.062480344505270
 21
-23.931804357009241
  0
LINE
  8
0
  6
CONTINUOUS
 62
3
 10
401.285062027609000
 20
-57.508212547129006
 11
418.613472524406920
 21
-40.179802050330181
  0
LINE
  8
0
  6
CONTINUOUS
 62
3
 10
419.199258962034040
 20
-29.795025739480479
 11
419.199258962034040
 21
-199.795025739480480
  0
LINE
  8
0
  6
CONTINUOUS
 62
3
 10
401.285062027609000
 20
-172.081838931831950
 11
418.613472524406920
 21
-189.410249428630780
  0
LINE
  8
0
  6
CONTINUOUS
 62
3
 10
239.199258962034040
 20
-19.795025739480479
 11
409.199258962034040
 21
-19.795025739480479
  0
LINE
  8
0
  6
DASHDOT
 62
4
 10
248.161901376333390
 20
-38.757668153779434
 11
233.710635240433250
 21
-24.306402017879236
  0
LINE
  8
0
  6
CONTINUOUS
 62
3
 10
381.486072154385510
 20
-37.709222673905060
 11
398.814482651183430
 21
-20.380812177107146
  0
LINE
  8
0
  6
CONTINUOUS
 62
3
 10
266.912445769682560
 20
-37.709222673905060
 11
249.584035272884650
 21
-20.380812177107146
  0
LINE
  8
0
  6
CONTINUOUS
 62
3
 10
381.486072154385510
 20
-191.880828805054990
 11
398.814482651183430
 21
-209.209239301853810
  0
LINE
  8
0
  6
CONTINUOUS
 62
3
 10
414.846928540463070
 20
-119.795025739480470
 11
417.199258962034040
 21
-119.795025739480470
  0
LINE
  8
0
  6
CONTINUOUS
 62
3
 10
414.846928540463070
 20
-109.795025739480470
 11
417.199258962034040
 21
-109.795025739480470
  0
LINE
  8
0
  6
CONTINUOUS
 62
3
 10
321.699258962034040
 20
-37.991705498750889
 11
321.699258962034040
 21
-77.195158718438506
  0
LINE
  8
0
  6
CONTINUOUS
 62
3
 10
326.699258962034040
 20
-37.991705498750889
 11
326.699258962034040
 21
-77.195158718438506
  0
LINE
  8
0
  6
CONTINUOUS
 62
3
 10
401.002579202763170
 20
-112.295025739480470
 11
361.799125983075560
 21
-112.295025739480470
  0
LINE
  8
0
  6
CONTINUOUS
 62
3
 10
401.002579202763170
 20
-117.295025739480470
 11
361.799125983075560
 21
-117.295025739480470
  0
CIRCLE
  8
0
  6
CONTINUOUS
 62
3
 10
324.199258962034040
 20
-114.795025739480470
 40
22.499999999999545
  0
ARC
  8
0
  6
CONTINUOUS
 62
3
 10
138.490399589598610
 20
-218.700082302180820
 40
0.500000000000234
 50
268.999999999998690
 51
0.000000000000000
  0
ARC
  8
0
  6
CONTINUOUS
 62
3
 10
149.490399589598840
 20
-141.295025739480480
 40
1.000000000000000
 50
270.000000000000000
 51
0.000000000000000
  0
ARC
  8
0
  6
CONTINUOUS
 62
3
 10
149.490399589598840
 20
-88.295025739480479
 40
1.000000000000000
 50
0.000000000000000
 51
90.000000000000000
  0
LINE
  8
0
  6
CONTINUOUS
 62
3
 10
149.490399589598840
 20
-142.295025739480480
 11
149.438063633355800
 21
-142.350176330007340
  0
LINE
  8
0
  6
CONTINUOUS
 62
3
 10
149.490399589598840
 20
-87.295025739480479
 11
149.438063633355800
 21
-87.239875148954525
  0
LINE
  8
0
  6
CONTINUOUS
 62
3
 10
138.481673386379950
 20
-219.200006149758340
 11
58.990399589598610
 21
-217.812480804408550
  0
LINE
  8
0
  6
CONTINUOUS
 62
3
 10
145.440119331223740
 20
-209.886754040945560
 11
145.990399589598610
 21
-209.306879641335400
  0
LINE
  8
0
  6
CONTINUOUS
 62
3
 10
145.440119331223740
 20
-19.703297438016307
 11
145.990399589598610
 21
-20.283171837626469
  0
LINE
  8
0
  6
CONTINUOUS
 62
3
 10
145.440119331223740
 20
-19.703297438016307
 11
136.095071502084470
 21
-19.213544233997709
  0
LINE
  8
0
  6
CONTINUOUS
 62
3
 10
150.490399589598840
 20
-114.795025739480470
 11
150.490399589598840
 21
-141.295025739480480
  0
LINE
  8
0
  6
CONTINUOUS
 62
3
 10
150.490399589598840
 20
-114.795025739480470
 11
150.490399589598840
 21
-88.295025739480479
  0
ARC
  8
0
  6
CONTINUOUS
 62
3
 10
110.513722550592770
 20
-52.957823163924331
 40
5.000000000000146
 50
272.000000000000970
 51
330.000000000000110
  0
LINE
  8
0
  6
CONTINUOUS
 62
3
 10
133.325512694049390
 20
-23.446643623858108
 11
114.843849569514980
 21
-55.457823163924331
  0
ARC
  8
0
  6
CONTINUOUS
 62
3
 10
135.990399589598610
 20
-21.210803303506509
 40
2.000000000000025
 50
177.837310087963030
 51
180.000000000000000
  0
LINE
  8
0
  6
CONTINUOUS
 62
3
 10
58.990399589598610
 20
-217.812480804408550
 11
58.990399589598610
 21
-59.760104969988788
  0
LINE
  8
0
  6
CONTINUOUS
 62
3
 10
148.990399589598610
 20
-29.795025739480479
 11
145.990399589598610
 21
-29.795025739480479
  0
LINE
  8
0
  6
CONTINUOUS
 62
3
 10
148.990399589598610
 20
-199.795025739480480
 11
145.990399589598610
 21
-199.795025739480480
  0
ARC
  8
0
  6
CONTINUOUS
 62
3
 10
128.995385675127180
 20
-20.946643623858108
 40
5.000000000000016
 50
330.000000000000110
 51
357.837310087936940
  0
ARC
  8
0
  6
CONTINUOUS
 62
3
 10
149.490399589598840
 20
-86.241245614200125
 40
0.999999999999802
 50
239.999999999978400
 51
266.999999999993860
  0
ARC
  8
0
  6
CONTINUOUS
 62
3
 10
149.490399589598840
 20
-143.348805864761740
 40
0.999999999999832
 50
93.000000000006111
 51
120.000000000021580
  0
LINE
  8
0
  6
CONTINUOUS
 62
3
 10
148.990399589598610
 20
-29.795025739480479
 11
148.990399589598610
 21
-114.795025739480470
  0
LINE
  8
0
  6
CONTINUOUS
 62
3
 10
148.990399589598610
 20
-199.795025739480480
 11
148.990399589598610
 21
-114.795025739480470
  0
LINE
  8
0
  6
CONTINUOUS
 62
3
 10
145.440119331223740
 20
-209.886754040945560
 11
136.095071502084470
 21
-210.376507244964160
  0
LINE
  8
0
  6
CONTINUOUS
 62
3
 10
138.990399589598610
 20
-210.224769529601870
 11
138.990399589598610
 21
-218.700082302180820
  0
LINE
  8
0
  6
CONTINUOUS
 62
3
 10
133.990399589598610
 20
-21.210803303506509
 11
133.990399589598610
 21
-208.379248175454450
  0
ARC
  8
0
  6
CONTINUOUS
 62
3
 10
135.990399589598610
 20
-208.379248175454450
 40
2.000000000000000
 50
180.000000000000000
 51
272.999999999999600
  0
ARC
  8
0
  6
CONTINUOUS
 62
3
 10
135.990399589598610
 20
-21.210803303506509
 40
1.999999999999651
 50
87.000000000000398
 51
180.000000000000000
  0
LINE
  8
0
  6
CONTINUOUS
 62
3
 10
145.990399589598610
 20
-20.283171837626469
 11
145.990399589598610
 21
-114.795025739480470
  0
LINE
  8
0
  6
CONTINUOUS
 62
3
 10
145.990399589598610
 20
-209.306879641335400
 11
145.990399589598610
 21
-114.795025739480470
  0
LINE
  8
0
  6
DASHDOT
 62
4
 10
156.608852000212660
 20
-31.709978950060759
 11
124.133391299849100
 21
-31.709978950060759
  0
LINE
  8
0
  6
DASHDOT
 62
4
 10
156.608852000212660
 20
-197.880072528900200
 11
124.133391299849100
 21
-197.880072528900200
  0
ARC
  8
0
  6
CONTINUOUS
 62
3
 10
140.990399589598610
 20
-107.795025739480470
 40
2.000000000000000
 50
180.000000000000000
 51
270.000000000000000
  0
ARC
  8
0
  6
CONTINUOUS
 62
3
 10
140.990399589598610
 20
-65.261630462461653
 40
2.000000000000000
 50
90.000000000000000
 51
180.000000000000000
  0
LINE
  8
0
  6
CONTINUOUS
 62
3
 10
138.990399589598610
 20
-41.594015612703515
 11
138.990399589598610
 21
-107.795025739480470
  0
ARC
  8
0
  6
CONTINUOUS
 62
3
 10
140.990399589598610
 20
-41.594015612703515
 40
2.000000000000000
 50
90.000000000000000
 51
180.000000000000000
  0
LINE
  8
0
  6
CONTINUOUS
 62
3
 10
145.990399589598610
 20
-39.594015612703515
 11
140.990399589598610
 21
-39.594015612703515
  0
LINE
  8
0
  6
CONTINUOUS
 62
3
 10
145.990399589598610
 20
-63.261630462461653
 11
140.990399589598610
 21
-63.261630462461653
  0
LINE
  8
0
  6
CONTINUOUS
 62
3
 10
145.990399589598610
 20
-109.795025739480470
 11
140.990399589598610
 21
-109.795025739480470
  0
ARC
  8
0
  6
CONTINUOUS
 62
3
 10
140.990399589598610
 20
-121.795025739480470
 40
2.000000000000000
 50
90.000000000000000
 51
180.000000000000000
  0
ARC
  8
0
  6
CONTINUOUS
 62
3
 10
140.990399589598610
 20
-164.328421016499310
 40
2.000000000000000
 50
180.000000000000000
 51
270.000000000000000
  0
LINE
  8
0
  6
CONTINUOUS
 62
3
 10
138.990399589598610
 20
-187.996035866257440
 11
138.990399589598610
 21
-121.795025739480470
  0
ARC
  8
0
  6
CONTINUOUS
 62
3
 10
140.990399589598610
 20
-187.996035866257440
 40
2.000000000000000
 50
180.000000000000000
 51
270.000000000000000
  0
LINE
  8
0
  6
CONTINUOUS
 62
3
 10
145.990399589598610
 20
-189.996035866257440
 11
140.990399589598610
 21
-189.996035866257440
  0
LINE
  8
0
  6
CONTINUOUS
 62
3
 10
145.990399589598610
 20
-166.328421016499310
 11
140.990399589598610
 21
-166.328421016499310
  0
LINE
  8
0
  6
CONTINUOUS
 62
3
 10
145.990399589598610
 20
-119.795025739480470
 11
140.990399589598610
 21
-119.795025739480470
  0
ARC
  8
0
  6
CONTINUOUS
 62
3
 10
111.629812049026210
 20
-64.730904172462033
 40
5.000000000000000
 50
270.000000000000000
 51
310.170179485510800
  0
LINE
  8
0
  6
CONTINUOUS
 62
3
 10
114.855112400683990
 20
-68.551563492736022
 11
132.215699941256390
 21
-53.896210998344941
  0
ARC
  8
0
  6
CONTINUOUS
 62
3
 10
128.990399589598610
 20
-50.075551678070951
 40
5.000000000000030
 50
310.170179485510800
 51
0.000000000000000
  0
ARC
  8
0
  6
CONTINUOUS
 62
3
 10
111.629812049026210
 20
-59.952729579410516
 40
5.000000000000000
 50
270.000000000000000
 51
310.170179485510800
  0
LINE
  8
0
  6
CONTINUOUS
 62
3
 10
114.855112400683990
 20
-63.773388899684505
 11
132.215699941256390
 21
-49.118036405293424
  0
ARC
  8
0
  6
CONTINUOUS
 62
3
 10
128.990399589598610
 20
-45.297377085019434
 40
5.000000000000030
 50
310.170179485510800
 51
0.000000000000000
  0
LINE
  8
0
  6
CONTINUOUS
 62
3
 10
58.990399589598610
 20
-59.760104969988788
 11
122.225023595106670
 21
-57.551903241193941
  0
LINE
  8
0
  6
CONTINUOUS
 62
3
 10
115.920657926170170
 20
-69.730904172462033
 11
131.751207558467510
 21
-69.730904172462033
  0
LINE
  8
0
  6
DASHDOT
 62
4
 10
205.750290230356770
 20
-114.795025739480470
 11
116.996553921155510
 21
-114.795025739480470
  0
CIRCLE
  8
0
  6
CONTINUOUS
 62
4
 10
324.199258962034040
 20
-114.795025739480470
 40
4.000000000000000
  0
CIRCLE
  8
0
  6
CONTINUOUS
 62
3
 10
324.199258962034040
 20
-114.795025739480470
 40
3.323500000000024
  0
ARC
  8
0
  6
CONTINUOUS
 62
3
 10
324.199258962034040
 20
-114.795025739481380
 40
13.999999999999572
 50
196.601549599020760
 51
163.398450400979240
  0
LINE
  8
0
  6
CONTINUOUS
 62
3
 10
307.199258962034040
 20
-110.795025739481380
 11
314.199258962034040
 21
-110.795025739481380
  0
LINE
  8
0
  6
CONTINUOUS
 62
3
 10
314.199258962034040
 20
-118.795025739481380
 11
314.199258962034040
 21
-110.795025739481380
  0
LINE
  8
0
  6
CONTINUOUS
 62
3
 10
307.199258962034040
 20
-118.795025739481380
 11
314.199258962034040
 21
-118.795025739481380
  0
LINE
  8
0
  6
CONTINUOUS
 62
3
 10
307.199258962034040
 20
-118.795025739481380
 11
307.199258962034040
 21
-110.795025739481380
  0
LINE
  8
0
  6
CONTINUOUS
 62
3
 10
58.490399589594745
 20
-140.795025739480480
 11
58.490399589606568
 21
-59.795025739480479
  0
LINE
  8
0
  6
CONTINUOUS
 62
3
 10
58.490399589604749
 20
-140.795025739480480
 11
58.490399589604749
 21
-217.295025739480480
  0
ENDSEC
  0
EOF
