  0
SECTION
  2
HEADER
  9
$FILLMODE
 70
1
  9
$TEXTSTYLE
  7
STANDARD1
  9
$ACADVER
  1
AC1009
  9
$DIMASZ
 40
1.931851648807023
  9
$DIMEXE
 40
2.000000000000000
  9
$DIMEXO
 40
1.000000000000000
  9
$DIMLFAC
 40
1.000000000000000
  9
$DIMSCALE
 40
1.000000000000000
  9
$DIMTAD
 70
1
  9
$DIMTFAC
 40
0.714285731315613
  9
$DIMTXT
 40
2.799999952316284
  9
$LUPREC
 70
3
  9
$TEXTSIZE
 40
2.799999952316284
  9
$REGENMODE
 70
1
  0
ENDSEC
  0
SECTION
  2
TABLES
  0
TABLE
  2
LTYPE
 70
4
  0
LTYPE
  2
CONTINUOUS
 70
64
  3
Solid line
 72
65
 73
0
 40
0.0
  0
LTYPE
  2
DASHED
 70
64
  3
-- -- -- -- -- -- -- -- -- -- -- -- -- -- --
 72
65
 73
2
 40
0.75
 49
0.5
 49
-0.25
  0
LTYPE
  2
DASHDOT
 70
64
  3
__ . __ . __ . __ . __ . __ . __ . __ . __ . __
 72
65
 73
4
 40
1.0
 49
0.5
 49
-0.25
 49
0.0
 49
-0.25
  0
LTYPE
  2
DIVIDE
 70
64
  3
__ . . __ . . __ . . __ . . __ . . __ . . __
 72
65
 73
6
 40
1.25
 49
0.5
 49
-0.25
 49
0.0
 49
-0.25
 49
0.0
 49
-0.25
  0
ENDTAB
  0
TABLE
  2
LAYER
 70
1
  0
LAYER
  2
0
 70
64
 62
2
  6
CONTINUOUS
  0
ENDTAB
  0
TABLE
  2
STYLE
 70
4
  0
STYLE
  2
STANDARD1
 70
64
 40
0.0
 41
1.0
 50
0.0
 71
0
 42
2.799999952316284
  3
MONOTXT
  4
BIGFONT
  0
STYLE
  2
STANDARD2
 70
68
 40
0.0
 41
1.0
 50
0.0
 71
0
 42
2.799999952316284
  3
MONOTXT
  4
BIGFONT
  0
STYLE
  2
STANDARD3
 70
64
 40
0.0
 41
1.0
 50
0.0
 71
0
 42
2.799999952316284
  3
MONOTXT
  4

  0
STYLE
  2
STANDARD4
 70
68
 40
0.0
 41
1.0
 50
0.0
 71
0
 42
2.799999952316284
  3
MONOTXT
  4

  0
ENDTAB
  0
TABLE
  2
VIEW
 70
0
  0
ENDTAB
  0
ENDSEC
  0
SECTION
  2
BLOCKS
  0
BLOCK
  8
0
  2
SYM1
 70
64
 10
0.000000000000000
 20
0.000000000000000
  0
POINT
  8
0
  6
CONTINUOUS
 62
3
 10
0.000000000000000
 20
0.000000000000000
  0
LINE
  8
0
  6
CONTINUOUS
 62
3
 10
0.000000000000000
 20
-6.500000000000000
 11
-0.000000000000000
 21
6.500000000000000
  0
LINE
  8
0
  6
CONTINUOUS
 62
3
 10
-7.999999046325684
 20
5.633875846862793
 11
-7.999999046325684
 21
-5.634070396423340
  0
LINE
  8
0
  6
CONTINUOUS
 62
3
 10
0.000000000000000
 20
6.500000000000000
 11
-7.499999046325684
 21
6.500000000000000
  0
LINE
  8
0
  6
CONTINUOUS
 62
3
 10
-0.000000000000000
 20
-6.500000000000000
 11
-7.499998092651367
 21
-6.500000000000000
  0
LINE
  8
0
  6
CONTINUOUS
 62
3
 10
-7.499999203818277
 20
6.499999909101064
 11
-7.999999021366804
 21
5.633876130311293
  0
LINE
  8
0
  6
CONTINUOUS
 62
3
 10
-7.499997911632022
 20
-6.499999445138201
 11
-7.999998623386432
 21
-5.634070287011241
  0
LINE
  8
0
  6
CONTINUOUS
 62
3
 10
-7.499999046325684
 20
6.500000000000000
 11
-7.499999046325684
 21
-6.500000000000000
  0
ENDBLK
  8
0
  0
BLOCK
  8
0
  2
SYM2
 70
64
 10
0.000000000000000
 20
0.000000000000000
  0
POINT
  8
0
  6
CONTINUOUS
 62
3
 10
0.000000000000000
 20
0.000000000000000
  0
LINE
  8
0
  6
CONTINUOUS
 62
3
 10
0.000000000000000
 20
-6.500000000000000
 11
-0.000000000000000
 21
6.500000000000000
  0
LINE
  8
0
  6
CONTINUOUS
 62
3
 10
-7.999999046325684
 20
5.633875846862793
 11
-7.999999046325684
 21
-5.634070396423340
  0
LINE
  8
0
  6
CONTINUOUS
 62
3
 10
0.000000000000000
 20
6.500000000000000
 11
-7.499999046325684
 21
6.500000000000000
  0
LINE
  8
0
  6
CONTINUOUS
 62
3
 10
-0.000000000000000
 20
-6.500000000000000
 11
-7.499998092651367
 21
-6.500000000000000
  0
LINE
  8
0
  6
CONTINUOUS
 62
3
 10
-7.499999203818277
 20
6.499999909101064
 11
-7.999999021366804
 21
5.633876130311293
  0
LINE
  8
0
  6
CONTINUOUS
 62
3
 10
-7.499997911632022
 20
-6.499999445138201
 11
-7.999998623386432
 21
-5.634070287011241
  0
LINE
  8
0
  6
CONTINUOUS
 62
3
 10
-7.499999046325684
 20
6.500000000000000
 11
-7.499999046325684
 21
-6.500000000000000
  0
ENDBLK
  8
0
  0
BLOCK
  8
0
  2
SYM3
 70
64
 10
0.000000000000000
 20
0.000000000000000
  0
POINT
  8
0
  6
CONTINUOUS
 62
3
 10
0.000000000000000
 20
0.000000000000000
  0
LINE
  8
0
  6
CONTINUOUS
 62
3
 10
0.000000000000000
 20
-6.500000000000000
 11
-0.000000000000000
 21
6.500000000000000
  0
LINE
  8
0
  6
CONTINUOUS
 62
3
 10
-7.999999046325684
 20
5.633875846862793
 11
-7.999999046325684
 21
-5.634070396423340
  0
LINE
  8
0
  6
CONTINUOUS
 62
3
 10
0.000000000000000
 20
6.500000000000000
 11
-7.499999046325684
 21
6.500000000000000
  0
LINE
  8
0
  6
CONTINUOUS
 62
3
 10
-0.000000000000000
 20
-6.500000000000000
 11
-7.499998092651367
 21
-6.500000000000000
  0
LINE
  8
0
  6
CONTINUOUS
 62
3
 10
-7.499999203818277
 20
6.499999909101064
 11
-7.999999021366804
 21
5.633876130311293
  0
LINE
  8
0
  6
CONTINUOUS
 62
3
 10
-7.499997911632022
 20
-6.499999445138201
 11
-7.999998623386432
 21
-5.634070287011241
  0
LINE
  8
0
  6
CONTINUOUS
 62
3
 10
-7.499999046325684
 20
6.500000000000000
 11
-7.499999046325684
 21
-6.500000000000000
  0
ENDBLK
  8
0
  0
BLOCK
  8
0
  2
SYM4
 70
64
 10
0.000000000000000
 20
0.000000000000000
  0
POINT
  8
0
  6
CONTINUOUS
 62
3
 10
0.000000000000000
 20
0.000000000000000
  0
LINE
  8
0
  6
CONTINUOUS
 62
3
 10
0.000000000000000
 20
-6.500000000000000
 11
-0.000000000000000
 21
6.500000000000000
  0
LINE
  8
0
  6
CONTINUOUS
 62
3
 10
-7.999999046325684
 20
5.633875846862793
 11
-7.999999046325684
 21
-5.634070396423340
  0
LINE
  8
0
  6
CONTINUOUS
 62
3
 10
0.000000000000000
 20
6.500000000000000
 11
-7.499999046325684
 21
6.500000000000000
  0
LINE
  8
0
  6
CONTINUOUS
 62
3
 10
-0.000000000000000
 20
-6.500000000000000
 11
-7.499998092651367
 21
-6.500000000000000
  0
LINE
  8
0
  6
CONTINUOUS
 62
3
 10
-7.499999203818277
 20
6.499999909101064
 11
-7.999999021366804
 21
5.633876130311293
  0
LINE
  8
0
  6
CONTINUOUS
 62
3
 10
-7.499997911632022
 20
-6.499999445138201
 11
-7.999998623386432
 21
-5.634070287011241
  0
LINE
  8
0
  6
CONTINUOUS
 62
3
 10
-7.499999046325684
 20
6.500000000000000
 11
-7.499999046325684
 21
-6.500000000000000
  0
ENDBLK
  8
0
  0
BLOCK
  8
0
  2
SYM5
 70
64
 10
0.000000000000000
 20
0.000000000000000
  0
ARC
  8
0
  6
CONTINUOUS
 62
3
 10
2.040000915527344
 20
-0.000008403939319
 40
5.539999008178711
 50
155.470186567177590
 51
204.529249714844780
  0
ARC
  8
0
  6
CONTINUOUS
 62
3
 10
-1.929986000061035
 20
3.450007438659668
 40
1.569999694824219
 50
179.999745461767870
 51
227.099746430935310
  0
ARC
  8
0
  6
CONTINUOUS
 62
3
 10
-1.930013656616211
 20
-3.449991226196289
 40
1.569999694824219
 50
132.899744492600430
 51
179.999745461767870
  0
LINE
  8
0
  6
CONTINUOUS
 62
3
 10
-2.999989096318101
 20
2.300010681148706
 11
0.000009475023974
 21
2.300000190729854
  0
LINE
  8
0
  6
CONTINUOUS
 62
3
 10
-3.000007597599688
 20
-2.299985885626180
 11
-0.000008155921205
 21
-2.299998283391806
  0
LINE
  8
0
  6
CONTINUOUS
 62
3
 10
0.000018950048186
 20
4.600000381469727
 11
-0.000018950048186
 21
-4.600000381469727
  0
LINE
  8
0
  6
CONTINUOUS
 62
3
 10
-2.999979146307184
 20
4.600011825551216
 11
0.000019104623546
 21
4.600001335133485
  0
LINE
  8
0
  6
CONTINUOUS
 62
3
 10
-3.499965125831864
 20
3.900000017678906
 11
-2.999963510759926
 21
4.599997551336457
  0
LINE
  8
0
  6
CONTINUOUS
 62
3
 10
-3.500011920918244
 20
-3.899979774771439
 11
-3.499980449679529
 21
3.900009925545944
  0
LINE
  8
0
  6
CONTINUOUS
 62
3
 10
-2.999996095884057
 20
-4.599969847145871
 11
-3.499991138206155
 21
-3.899966512616629
  0
LINE
  8
0
  6
CONTINUOUS
 62
3
 10
-0.000017659877873
 20
-4.599998474126673
 11
-3.000017102555891
 21
-4.599986076361044
  0
POINT
  8
0
  6
CONTINUOUS
 62
3
 10
0.000000000000000
 20
0.000000000000000
  0
ENDBLK
  8
0
  0
BLOCK
  8
0
  2
SYM6
 70
64
 10
0.000000000000000
 20
0.000000000000000
  0
ARC
  8
0
  6
CONTINUOUS
 62
3
 10
2.040000915527344
 20
-0.000008403939319
 40
5.539999008178711
 50
155.470186567177590
 51
204.529249714844780
  0
ARC
  8
0
  6
CONTINUOUS
 62
3
 10
-1.929986000061035
 20
3.450007438659668
 40
1.569999694824219
 50
179.999745461767870
 51
227.099746430935310
  0
ARC
  8
0
  6
CONTINUOUS
 62
3
 10
-1.930013656616211
 20
-3.449991226196289
 40
1.569999694824219
 50
132.899744492600430
 51
179.999745461767870
  0
LINE
  8
0
  6
CONTINUOUS
 62
3
 10
-2.999989096318101
 20
2.300010681148706
 11
0.000009475023974
 21
2.300000190729854
  0
LINE
  8
0
  6
CONTINUOUS
 62
3
 10
-3.000007597599688
 20
-2.299985885626180
 11
-0.000008155921205
 21
-2.299998283391806
  0
LINE
  8
0
  6
CONTINUOUS
 62
3
 10
0.000018950048186
 20
4.600000381469727
 11
-0.000018950048186
 21
-4.600000381469727
  0
LINE
  8
0
  6
CONTINUOUS
 62
3
 10
-2.999979146307184
 20
4.600011825551216
 11
0.000019104623546
 21
4.600001335133485
  0
LINE
  8
0
  6
CONTINUOUS
 62
3
 10
-3.499965125831864
 20
3.900000017678906
 11
-2.999963510759926
 21
4.599997551336457
  0
LINE
  8
0
  6
CONTINUOUS
 62
3
 10
-3.500011920918244
 20
-3.899979774771439
 11
-3.499980449679529
 21
3.900009925545944
  0
LINE
  8
0
  6
CONTINUOUS
 62
3
 10
-2.999996095884057
 20
-4.599969847145871
 11
-3.499991138206155
 21
-3.899966512616629
  0
LINE
  8
0
  6
CONTINUOUS
 62
3
 10
-0.000017659877873
 20
-4.599998474126673
 11
-3.000017102555891
 21
-4.599986076361044
  0
POINT
  8
0
  6
CONTINUOUS
 62
3
 10
0.000000000000000
 20
0.000000000000000
  0
ENDBLK
  8
0
  0
BLOCK
  8
0
  2
SYM7
 70
64
 10
0.000000000000000
 20
0.000000000000000
  0
POINT
  8
0
  6
CONTINUOUS
 62
3
 10
0.000000000000000
 20
0.000000000000000
  0
LINE
  8
0
  6
CONTINUOUS
 62
3
 10
-0.000017659877873
 20
-4.599998474126673
 11
-3.000017102555891
 21
-4.599986076361044
  0
LINE
  8
0
  6
CONTINUOUS
 62
3
 10
-2.999996095884057
 20
-4.599969847145871
 11
-3.499991138206155
 21
-3.899966512616629
  0
LINE
  8
0
  6
CONTINUOUS
 62
3
 10
-3.500011920918244
 20
-3.899979774771439
 11
-3.499980449679529
 21
3.900009925545944
  0
LINE
  8
0
  6
CONTINUOUS
 62
3
 10
-3.499965125831864
 20
3.900000017678906
 11
-2.999963510759926
 21
4.599997551336457
  0
LINE
  8
0
  6
CONTINUOUS
 62
3
 10
-2.999979146307184
 20
4.600011825551216
 11
0.000019104623546
 21
4.600001335133485
  0
LINE
  8
0
  6
CONTINUOUS
 62
3
 10
0.000018950048186
 20
4.600000381469727
 11
-0.000018950048186
 21
-4.600000381469727
  0
LINE
  8
0
  6
CONTINUOUS
 62
3
 10
-3.000007597599688
 20
-2.299985885626180
 11
-0.000008155921205
 21
-2.299998283391806
  0
LINE
  8
0
  6
CONTINUOUS
 62
3
 10
-2.999989096318101
 20
2.300010681148706
 11
0.000009475023974
 21
2.300000190729854
  0
ARC
  8
0
  6
CONTINUOUS
 62
3
 10
-1.930013656616211
 20
-3.449991226196289
 40
1.569999694824219
 50
132.899744492600430
 51
179.999745461767870
  0
ARC
  8
0
  6
CONTINUOUS
 62
3
 10
-1.929986000061035
 20
3.450007438659668
 40
1.569999694824219
 50
179.999745461767870
 51
227.099746430935310
  0
ARC
  8
0
  6
CONTINUOUS
 62
3
 10
2.040000915527344
 20
-0.000008403939319
 40
5.539999008178711
 50
155.470186567177590
 51
204.529249714844780
  0
ENDBLK
  8
0
  0
BLOCK
  8
0
  2
SYM8
 70
64
 10
0.000000000000000
 20
0.000000000000000
  0
POINT
  8
0
  6
CONTINUOUS
 62
3
 10
0.000000000000000
 20
0.000000000000000
  0
LINE
  8
0
  6
CONTINUOUS
 62
3
 10
-0.000017659877873
 20
-4.599998474126673
 11
-3.000017102555891
 21
-4.599986076361044
  0
LINE
  8
0
  6
CONTINUOUS
 62
3
 10
-2.999996095884057
 20
-4.599969847145871
 11
-3.499991138206155
 21
-3.899966512616629
  0
LINE
  8
0
  6
CONTINUOUS
 62
3
 10
-3.500011920918244
 20
-3.899979774771439
 11
-3.499980449679529
 21
3.900009925545944
  0
LINE
  8
0
  6
CONTINUOUS
 62
3
 10
-3.499965125831864
 20
3.900000017678906
 11
-2.999963510759926
 21
4.599997551336457
  0
LINE
  8
0
  6
CONTINUOUS
 62
3
 10
-2.999979146307184
 20
4.600011825551216
 11
0.000019104623546
 21
4.600001335133485
  0
LINE
  8
0
  6
CONTINUOUS
 62
3
 10
0.000018950048186
 20
4.600000381469727
 11
-0.000018950048186
 21
-4.600000381469727
  0
LINE
  8
0
  6
CONTINUOUS
 62
3
 10
-3.000007597599688
 20
-2.299985885626180
 11
-0.000008155921205
 21
-2.299998283391806
  0
LINE
  8
0
  6
CONTINUOUS
 62
3
 10
-2.999989096318101
 20
2.300010681148706
 11
0.000009475023974
 21
2.300000190729854
  0
ARC
  8
0
  6
CONTINUOUS
 62
3
 10
-1.930013656616211
 20
-3.449991226196289
 40
1.569999694824219
 50
132.899744492600430
 51
179.999745461767870
  0
ARC
  8
0
  6
CONTINUOUS
 62
3
 10
-1.929986000061035
 20
3.450007438659668
 40
1.569999694824219
 50
179.999745461767870
 51
227.099746430935310
  0
ARC
  8
0
  6
CONTINUOUS
 62
3
 10
2.040000915527344
 20
-0.000008403939319
 40
5.539999008178711
 50
155.470186567177590
 51
204.529249714844780
  0
ENDBLK
  8
0
  0
BLOCK
  8
0
  2
SYM9
 70
64
 10
0.000000000000000
 20
0.000000000000000
  0
LINE
  8
0
  6
CONTINUOUS
 62
3
 10
-7.499999046325684
 20
6.500000000000000
 11
-7.499999046325684
 21
-6.500000000000000
  0
LINE
  8
0
  6
CONTINUOUS
 62
3
 10
-7.499997911632022
 20
-6.499999445138201
 11
-7.999998623386432
 21
-5.634070287011241
  0
LINE
  8
0
  6
CONTINUOUS
 62
3
 10
-7.499999203818277
 20
6.499999909101064
 11
-7.999999021366804
 21
5.633876130311293
  0
LINE
  8
0
  6
CONTINUOUS
 62
3
 10
-0.000000000000000
 20
-6.500000000000000
 11
-7.499998092651367
 21
-6.500000000000000
  0
LINE
  8
0
  6
CONTINUOUS
 62
3
 10
0.000000000000000
 20
6.500000000000000
 11
-7.499999046325684
 21
6.500000000000000
  0
LINE
  8
0
  6
CONTINUOUS
 62
3
 10
-7.999999046325684
 20
5.633875846862793
 11
-7.999999046325684
 21
-5.634070396423340
  0
LINE
  8
0
  6
CONTINUOUS
 62
3
 10
0.000000000000000
 20
-6.500000000000000
 11
-0.000000000000000
 21
6.500000000000000
  0
POINT
  8
0
  6
CONTINUOUS
 62
3
 10
0.000000000000000
 20
0.000000000000000
  0
ENDBLK
  8
0
  0
BLOCK
  8
0
  2
SYM10
 70
64
 10
0.000000000000000
 20
0.000000000000000
  0
LINE
  8
0
  6
CONTINUOUS
 62
3
 10
-7.499999046325684
 20
6.500000000000000
 11
-7.499999046325684
 21
-6.500000000000000
  0
LINE
  8
0
  6
CONTINUOUS
 62
3
 10
-7.499997911632022
 20
-6.499999445138201
 11
-7.999998623386432
 21
-5.634070287011241
  0
LINE
  8
0
  6
CONTINUOUS
 62
3
 10
-7.499999203818277
 20
6.499999909101064
 11
-7.999999021366804
 21
5.633876130311293
  0
LINE
  8
0
  6
CONTINUOUS
 62
3
 10
-0.000000000000000
 20
-6.500000000000000
 11
-7.499998092651367
 21
-6.500000000000000
  0
LINE
  8
0
  6
CONTINUOUS
 62
3
 10
0.000000000000000
 20
6.500000000000000
 11
-7.499999046325684
 21
6.500000000000000
  0
LINE
  8
0
  6
CONTINUOUS
 62
3
 10
-7.999999046325684
 20
5.633875846862793
 11
-7.999999046325684
 21
-5.634070396423340
  0
LINE
  8
0
  6
CONTINUOUS
 62
3
 10
0.000000000000000
 20
-6.500000000000000
 11
-0.000000000000000
 21
6.500000000000000
  0
POINT
  8
0
  6
CONTINUOUS
 62
3
 10
0.000000000000000
 20
0.000000000000000
  0
ENDBLK
  8
0
  0
BLOCK
  8
0
  2
SYM11
 70
64
 10
0.000000000000000
 20
0.000000000000000
  0
LINE
  8
0
  6
CONTINUOUS
 62
3
 10
-7.499999046325684
 20
6.500000000000000
 11
-7.499999046325684
 21
-6.500000000000000
  0
LINE
  8
0
  6
CONTINUOUS
 62
3
 10
-7.499997911632022
 20
-6.499999445138201
 11
-7.999998623386432
 21
-5.634070287011241
  0
LINE
  8
0
  6
CONTINUOUS
 62
3
 10
-7.499999203818277
 20
6.499999909101064
 11
-7.999999021366804
 21
5.633876130311293
  0
LINE
  8
0
  6
CONTINUOUS
 62
3
 10
-0.000000000000000
 20
-6.500000000000000
 11
-7.499998092651367
 21
-6.500000000000000
  0
LINE
  8
0
  6
CONTINUOUS
 62
3
 10
0.000000000000000
 20
6.500000000000000
 11
-7.499999046325684
 21
6.500000000000000
  0
LINE
  8
0
  6
CONTINUOUS
 62
3
 10
-7.999999046325684
 20
5.633875846862793
 11
-7.999999046325684
 21
-5.634070396423340
  0
LINE
  8
0
  6
CONTINUOUS
 62
3
 10
0.000000000000000
 20
-6.500000000000000
 11
-0.000000000000000
 21
6.500000000000000
  0
POINT
  8
0
  6
CONTINUOUS
 62
3
 10
0.000000000000000
 20
0.000000000000000
  0
ENDBLK
  8
0
  0
BLOCK
  8
0
  2
SYM12
 70
64
 10
0.000000000000000
 20
0.000000000000000
  0
LINE
  8
0
  6
CONTINUOUS
 62
3
 10
-7.499999046325684
 20
6.500000000000000
 11
-7.499999046325684
 21
-6.500000000000000
  0
LINE
  8
0
  6
CONTINUOUS
 62
3
 10
-7.499997911632022
 20
-6.499999445138201
 11
-7.999998623386432
 21
-5.634070287011241
  0
LINE
  8
0
  6
CONTINUOUS
 62
3
 10
-7.499999203818277
 20
6.499999909101064
 11
-7.999999021366804
 21
5.633876130311293
  0
LINE
  8
0
  6
CONTINUOUS
 62
3
 10
-0.000000000000000
 20
-6.500000000000000
 11
-7.499998092651367
 21
-6.500000000000000
  0
LINE
  8
0
  6
CONTINUOUS
 62
3
 10
0.000000000000000
 20
6.500000000000000
 11
-7.499999046325684
 21
6.500000000000000
  0
LINE
  8
0
  6
CONTINUOUS
 62
3
 10
-7.999999046325684
 20
5.633875846862793
 11
-7.999999046325684
 21
-5.634070396423340
  0
LINE
  8
0
  6
CONTINUOUS
 62
3
 10
0.000000000000000
 20
-6.500000000000000
 11
-0.000000000000000
 21
6.500000000000000
  0
POINT
  8
0
  6
CONTINUOUS
 62
3
 10
0.000000000000000
 20
0.000000000000000
  0
ENDBLK
  8
0
  0
BLOCK
  8
0
  2
SYM13
 70
64
 10
0.000000000000000
 20
0.000000000000000
  0
POINT
  8
0
  6
CONTINUOUS
 62
3
 10
0.000000000000000
 20
5.633955001831055
  0
POINT
  8
0
  6
CONTINUOUS
 62
3
 10
0.500000119209290
 20
6.500000000000000
  0
LINE
  8
0
  6
CONTINUOUS
 62
3
 10
-0.000004704988612
 20
-3.464098175748802
 11
-2.999997577100373
 21
-1.732046218032735
  0
LINE
  8
0
  6
CONTINUOUS
 62
3
 10
0.000006618601731
 20
3.464096896385627
 11
2.999997425948948
 21
1.732046782136365
  0
LINE
  8
0
  6
CONTINUOUS
 62
3
 10
2.999998112093635
 20
-1.732051392778772
 11
-0.000004464412200
 21
-3.464098365415111
  0
LINE
  8
0
  6
CONTINUOUS
 62
3
 10
0.000006701720849
 20
3.464096999935236
 11
-2.999997939551520
 21
1.732051821705568
  0
LINE
  8
0
  6
CONTINUOUS
 62
3
 10
2.999996662140697
 20
1.732046953225571
 11
2.999997615814979
 21
-1.732051023458999
  0
LINE
  8
0
  6
CONTINUOUS
 62
3
 10
-2.999996662140960
 20
-1.732045999551255
 11
-2.999997615815242
 21
1.732051977133316
  0
POINT
  8
0
  6
CONTINUOUS
 62
3
 10
0.000000000000000
 20
0.000000000000000
  0
CIRCLE
  8
0
  6
CONTINUOUS
 62
3
 10
0.000000000000000
 20
0.000000000000000
 40
6.500000000000000
  0
CIRCLE
  8
0
  6
CONTINUOUS
 62
3
 10
0.000000000000000
 20
0.000000000000000
 40
5.633955001831055
  0
ENDBLK
  8
0
  0
BLOCK
  8
0
  2
SYM14
 70
64
 10
0.000000000000000
 20
0.000000000000000
  0
POINT
  8
0
  6
CONTINUOUS
 62
3
 10
0.000000000000000
 20
5.633955001831055
  0
POINT
  8
0
  6
CONTINUOUS
 62
3
 10
0.500000119209290
 20
6.500000000000000
  0
LINE
  8
0
  6
CONTINUOUS
 62
3
 10
-0.000004704988612
 20
-3.464098175748802
 11
-2.999997577100373
 21
-1.732046218032735
  0
LINE
  8
0
  6
CONTINUOUS
 62
3
 10
0.000006618601731
 20
3.464096896385627
 11
2.999997425948948
 21
1.732046782136365
  0
LINE
  8
0
  6
CONTINUOUS
 62
3
 10
2.999998112093635
 20
-1.732051392778772
 11
-0.000004464412200
 21
-3.464098365415111
  0
LINE
  8
0
  6
CONTINUOUS
 62
3
 10
0.000006701720849
 20
3.464096999935236
 11
-2.999997939551520
 21
1.732051821705568
  0
LINE
  8
0
  6
CONTINUOUS
 62
3
 10
2.999996662140697
 20
1.732046953225571
 11
2.999997615814979
 21
-1.732051023458999
  0
LINE
  8
0
  6
CONTINUOUS
 62
3
 10
-2.999996662140960
 20
-1.732045999551255
 11
-2.999997615815242
 21
1.732051977133316
  0
POINT
  8
0
  6
CONTINUOUS
 62
3
 10
0.000000000000000
 20
0.000000000000000
  0
CIRCLE
  8
0
  6
CONTINUOUS
 62
3
 10
0.000000000000000
 20
0.000000000000000
 40
6.500000000000000
  0
CIRCLE
  8
0
  6
CONTINUOUS
 62
3
 10
0.000000000000000
 20
0.000000000000000
 40
5.633955001831055
  0
ENDBLK
  8
0
  0
BLOCK
  8
0
  2
SYM15
 70
64
 10
0.000000000000000
 20
0.000000000000000
  0
CIRCLE
  8
0
  6
CONTINUOUS
 62
3
 10
0.000000000000000
 20
0.000000000000000
 40
4.000000000000000
  0
LINE
  8
0
  6
CONTINUOUS
 62
3
 10
4.000000476834402
 20
2.299992229627764
 11
3.999995708466355
 21
-2.300002429796065
  0
LINE
  8
0
  6
CONTINUOUS
 62
3
 10
0.000007291900715
 20
4.600000131531601
 11
4.000000535118602
 21
2.299995435993480
  0
LINE
  8
0
  6
CONTINUOUS
 62
3
 10
-3.999993333512748
 20
2.300001902428903
 11
0.000004858421221
 21
4.599995671750889
  0
LINE
  8
0
  6
CONTINUOUS
 62
3
 10
-4.000000476834402
 20
-2.299992229627764
 11
-3.999995708466355
 21
2.300002429796065
  0
LINE
  8
0
  6
CONTINUOUS
 62
3
 10
-0.000007291900715
 20
-4.600000131531601
 11
-4.000000535118602
 21
-2.299995435993480
  0
LINE
  8
0
  6
CONTINUOUS
 62
3
 10
3.999993333512748
 20
-2.300001902428903
 11
-0.000004858421221
 21
-4.599995671750889
  0
POINT
  8
0
  6
CONTINUOUS
 62
3
 10
0.000000000000000
 20
0.000000000000000
  0
ENDBLK
  8
0
  0
BLOCK
  8
0
  2
SYM16
 70
64
 10
0.000000000000000
 20
0.000000000000000
  0
CIRCLE
  8
0
  6
CONTINUOUS
 62
3
 10
0.000000000000000
 20
0.000000000000000
 40
4.000000000000000
  0
LINE
  8
0
  6
CONTINUOUS
 62
3
 10
4.000000476834402
 20
2.299992229627764
 11
3.999995708466355
 21
-2.300002429796065
  0
LINE
  8
0
  6
CONTINUOUS
 62
3
 10
0.000007291900715
 20
4.600000131531601
 11
4.000000535118602
 21
2.299995435993480
  0
LINE
  8
0
  6
CONTINUOUS
 62
3
 10
-3.999993333512748
 20
2.300001902428903
 11
0.000004858421221
 21
4.599995671750889
  0
LINE
  8
0
  6
CONTINUOUS
 62
3
 10
-4.000000476834402
 20
-2.299992229627764
 11
-3.999995708466355
 21
2.300002429796065
  0
LINE
  8
0
  6
CONTINUOUS
 62
3
 10
-0.000007291900715
 20
-4.600000131531601
 11
-4.000000535118602
 21
-2.299995435993480
  0
LINE
  8
0
  6
CONTINUOUS
 62
3
 10
3.999993333512748
 20
-2.300001902428903
 11
-0.000004858421221
 21
-4.599995671750889
  0
POINT
  8
0
  6
CONTINUOUS
 62
3
 10
0.000000000000000
 20
0.000000000000000
  0
ENDBLK
  8
0
  0
BLOCK
  8
0
  2
SYM17
 70
64
 10
0.000000000000000
 20
0.000000000000000
  0
POINT
  8
0
  6
CONTINUOUS
 62
3
 10
0.000000000000000
 20
5.633955001831055
  0
POINT
  8
0
  6
CONTINUOUS
 62
3
 10
0.500000119209290
 20
6.500000000000000
  0
LINE
  8
0
  6
CONTINUOUS
 62
3
 10
-0.000004704988612
 20
-3.464098175748802
 11
-2.999997577100373
 21
-1.732046218032735
  0
LINE
  8
0
  6
CONTINUOUS
 62
3
 10
0.000006618601731
 20
3.464096896385627
 11
2.999997425948948
 21
1.732046782136365
  0
LINE
  8
0
  6
CONTINUOUS
 62
3
 10
2.999998112093635
 20
-1.732051392778772
 11
-0.000004464412200
 21
-3.464098365415111
  0
LINE
  8
0
  6
CONTINUOUS
 62
3
 10
0.000006701720849
 20
3.464096999935236
 11
-2.999997939551520
 21
1.732051821705568
  0
LINE
  8
0
  6
CONTINUOUS
 62
3
 10
2.999996662140697
 20
1.732046953225571
 11
2.999997615814979
 21
-1.732051023458999
  0
LINE
  8
0
  6
CONTINUOUS
 62
3
 10
-2.999996662140960
 20
-1.732045999551255
 11
-2.999997615815242
 21
1.732051977133316
  0
POINT
  8
0
  6
CONTINUOUS
 62
3
 10
0.000000000000000
 20
0.000000000000000
  0
CIRCLE
  8
0
  6
CONTINUOUS
 62
3
 10
0.000000000000000
 20
0.000000000000000
 40
6.500000000000000
  0
CIRCLE
  8
0
  6
CONTINUOUS
 62
3
 10
0.000000000000000
 20
0.000000000000000
 40
5.633955001831055
  0
ENDBLK
  8
0
  0
BLOCK
  8
0
  2
SYM18
 70
64
 10
0.000000000000000
 20
0.000000000000000
  0
POINT
  8
0
  6
CONTINUOUS
 62
3
 10
0.000000000000000
 20
5.633955001831055
  0
POINT
  8
0
  6
CONTINUOUS
 62
3
 10
0.500000119209290
 20
6.500000000000000
  0
LINE
  8
0
  6
CONTINUOUS
 62
3
 10
-0.000004704988612
 20
-3.464098175748802
 11
-2.999997577100373
 21
-1.732046218032735
  0
LINE
  8
0
  6
CONTINUOUS
 62
3
 10
0.000006618601731
 20
3.464096896385627
 11
2.999997425948948
 21
1.732046782136365
  0
LINE
  8
0
  6
CONTINUOUS
 62
3
 10
2.999998112093635
 20
-1.732051392778772
 11
-0.000004464412200
 21
-3.464098365415111
  0
LINE
  8
0
  6
CONTINUOUS
 62
3
 10
0.000006701720849
 20
3.464096999935236
 11
-2.999997939551520
 21
1.732051821705568
  0
LINE
  8
0
  6
CONTINUOUS
 62
3
 10
2.999996662140697
 20
1.732046953225571
 11
2.999997615814979
 21
-1.732051023458999
  0
LINE
  8
0
  6
CONTINUOUS
 62
3
 10
-2.999996662140960
 20
-1.732045999551255
 11
-2.999997615815242
 21
1.732051977133316
  0
POINT
  8
0
  6
CONTINUOUS
 62
3
 10
0.000000000000000
 20
0.000000000000000
  0
CIRCLE
  8
0
  6
CONTINUOUS
 62
3
 10
0.000000000000000
 20
0.000000000000000
 40
6.500000000000000
  0
CIRCLE
  8
0
  6
CONTINUOUS
 62
3
 10
0.000000000000000
 20
0.000000000000000
 40
5.633955001831055
  0
ENDBLK
  8
0
  0
BLOCK
  8
0
  2
SYM19
 70
64
 10
0.000000000000000
 20
0.000000000000000
  0
POINT
  8
0
  6
CONTINUOUS
 62
3
 10
0.000000000000000
 20
5.633955001831055
  0
POINT
  8
0
  6
CONTINUOUS
 62
3
 10
0.500000119209290
 20
6.500000000000000
  0
LINE
  8
0
  6
CONTINUOUS
 62
3
 10
-0.000004704988612
 20
-3.464098175748802
 11
-2.999997577100373
 21
-1.732046218032735
  0
LINE
  8
0
  6
CONTINUOUS
 62
3
 10
0.000006618601731
 20
3.464096896385627
 11
2.999997425948948
 21
1.732046782136365
  0
LINE
  8
0
  6
CONTINUOUS
 62
3
 10
2.999998112093635
 20
-1.732051392778772
 11
-0.000004464412200
 21
-3.464098365415111
  0
LINE
  8
0
  6
CONTINUOUS
 62
3
 10
0.000006701720849
 20
3.464096999935236
 11
-2.999997939551520
 21
1.732051821705568
  0
LINE
  8
0
  6
CONTINUOUS
 62
3
 10
2.999996662140697
 20
1.732046953225571
 11
2.999997615814979
 21
-1.732051023458999
  0
LINE
  8
0
  6
CONTINUOUS
 62
3
 10
-2.999996662140960
 20
-1.732045999551255
 11
-2.999997615815242
 21
1.732051977133316
  0
POINT
  8
0
  6
CONTINUOUS
 62
3
 10
0.000000000000000
 20
0.000000000000000
  0
CIRCLE
  8
0
  6
CONTINUOUS
 62
3
 10
0.000000000000000
 20
0.000000000000000
 40
6.500000000000000
  0
CIRCLE
  8
0
  6
CONTINUOUS
 62
3
 10
0.000000000000000
 20
0.000000000000000
 40
5.633955001831055
  0
ENDBLK
  8
0
  0
BLOCK
  8
0
  2
SYM20
 70
64
 10
0.000000000000000
 20
0.000000000000000
  0
POINT
  8
0
  6
CONTINUOUS
 62
3
 10
0.000000000000000
 20
5.633955001831055
  0
POINT
  8
0
  6
CONTINUOUS
 62
3
 10
0.500000119209290
 20
6.500000000000000
  0
LINE
  8
0
  6
CONTINUOUS
 62
3
 10
-0.000004704988612
 20
-3.464098175748802
 11
-2.999997577100373
 21
-1.732046218032735
  0
LINE
  8
0
  6
CONTINUOUS
 62
3
 10
0.000006618601731
 20
3.464096896385627
 11
2.999997425948948
 21
1.732046782136365
  0
LINE
  8
0
  6
CONTINUOUS
 62
3
 10
2.999998112093635
 20
-1.732051392778772
 11
-0.000004464412200
 21
-3.464098365415111
  0
LINE
  8
0
  6
CONTINUOUS
 62
3
 10
0.000006701720849
 20
3.464096999935236
 11
-2.999997939551520
 21
1.732051821705568
  0
LINE
  8
0
  6
CONTINUOUS
 62
3
 10
2.999996662140697
 20
1.732046953225571
 11
2.999997615814979
 21
-1.732051023458999
  0
LINE
  8
0
  6
CONTINUOUS
 62
3
 10
-2.999996662140960
 20
-1.732045999551255
 11
-2.999997615815242
 21
1.732051977133316
  0
POINT
  8
0
  6
CONTINUOUS
 62
3
 10
0.000000000000000
 20
0.000000000000000
  0
CIRCLE
  8
0
  6
CONTINUOUS
 62
3
 10
0.000000000000000
 20
0.000000000000000
 40
6.500000000000000
  0
CIRCLE
  8
0
  6
CONTINUOUS
 62
3
 10
0.000000000000000
 20
0.000000000000000
 40
5.633955001831055
  0
ENDBLK
  8
0
  0
BLOCK
  8
0
  2
SYM21
 70
64
 10
0.000000000000000
 20
0.000000000000000
  0
POINT
  8
0
  6
CONTINUOUS
 62
3
 10
0.000000000000000
 20
5.633955001831055
  0
POINT
  8
0
  6
CONTINUOUS
 62
3
 10
0.500000119209290
 20
6.500000000000000
  0
LINE
  8
0
  6
CONTINUOUS
 62
3
 10
-0.000004704988612
 20
-3.464098175748802
 11
-2.999997577100373
 21
-1.732046218032735
  0
LINE
  8
0
  6
CONTINUOUS
 62
3
 10
0.000006618601731
 20
3.464096896385627
 11
2.999997425948948
 21
1.732046782136365
  0
LINE
  8
0
  6
CONTINUOUS
 62
3
 10
2.999998112093635
 20
-1.732051392778772
 11
-0.000004464412200
 21
-3.464098365415111
  0
LINE
  8
0
  6
CONTINUOUS
 62
3
 10
0.000006701720849
 20
3.464096999935236
 11
-2.999997939551520
 21
1.732051821705568
  0
LINE
  8
0
  6
CONTINUOUS
 62
3
 10
2.999996662140697
 20
1.732046953225571
 11
2.999997615814979
 21
-1.732051023458999
  0
LINE
  8
0
  6
CONTINUOUS
 62
3
 10
-2.999996662140960
 20
-1.732045999551255
 11
-2.999997615815242
 21
1.732051977133316
  0
POINT
  8
0
  6
CONTINUOUS
 62
3
 10
0.000000000000000
 20
0.000000000000000
  0
CIRCLE
  8
0
  6
CONTINUOUS
 62
3
 10
0.000000000000000
 20
0.000000000000000
 40
6.500000000000000
  0
CIRCLE
  8
0
  6
CONTINUOUS
 62
3
 10
0.000000000000000
 20
0.000000000000000
 40
5.633955001831055
  0
ENDBLK
  8
0
  0
ENDSEC
  0
SECTION
  2
ENTITIES
  0
LINE
  8
0
  6
CONTINUOUS
 62
4
 10
-434.817872413387420
 20
-52.496085289454101
 11
-452.199050595018780
 21
-35.114907107822773
  0
ARC
  8
0
  6
CONTINUOUS
 62
4
 10
-345.996567285077390
 20
-141.317390417764160
 40
139.999999999999970
 50
128.521245879169580
 51
141.465185782322580
  0
CIRCLE
  8
0
  6
CONTINUOUS
 62
3
 10
-444.991509694567300
 20
-42.322440127408072
 40
7.500000000000000
  0
LINE
  8
0
  6
CONTINUOUS
 62
4
 10
-434.817872413387420
 20
-230.138695546074220
 11
-452.199050595018780
 21
-247.519873727705540
  0
ARC
  8
0
  6
CONTINUOUS
 62
4
 10
-345.996567285077390
 20
-141.317390417764160
 40
139.999999999999940
 50
218.534814217677420
 51
231.478754120830420
  0
CIRCLE
  8
0
  6
CONTINUOUS
 62
3
 10
-444.991509694567300
 20
-240.312340708120250
 40
7.500000000000000
  0
LINE
  8
0
  6
CONTINUOUS
 62
4
 10
-257.175262156767360
 20
-230.138695546074220
 11
-239.794083975136000
 21
-247.519873727705540
  0
ARC
  8
0
  6
CONTINUOUS
 62
4
 10
-345.996567285077390
 20
-141.317390417764160
 40
140.000000000000000
 50
308.521245879169610
 51
321.465185782322580
  0
CIRCLE
  8
0
  6
CONTINUOUS
 62
3
 10
-247.001624875587480
 20
-240.312340708120250
 40
7.500000000000000
  0
ARC
  8
0
  6
CONTINUOUS
 62
4
 10
-345.996567285077390
 20
-141.317390417764160
 40
140.000000000000000
 50
38.534814217677393
 51
51.478754120830395
  0
CIRCLE
  8
0
  6
CONTINUOUS
 62
3
 10
-247.001624875587480
 20
-42.322440127408058
 40
7.500000000000000
  0
LINE
  8
0
  6
CONTINUOUS
 62
4
 10
-257.175262156767360
 20
-52.496085289454101
 11
-239.794083975136000
 21
-35.114907107822766
  0
LINE
  8
0
  6
CONTINUOUS
 62
3
 10
-295.579853921346630
 20
-190.587300308081210
 11
-295.093050529641000
 21
-191.074103699786830
  0
LINE
  8
0
  6
CONTINUOUS
 62
3
 10
-302.226657394760310
 20
-197.234103781494950
 11
-301.739854003054690
 21
-197.720907173200540
  0
LINE
  8
0
  6
CONTINUOUS
 62
3
 10
-295.266715312377810
 20
-190.839847258931600
 11
-301.943814614850740
 21
-197.516946561404520
  0
LINE
  8
0
  6
CONTINUOUS
 62
3
 10
-295.579853921346630
 20
-190.587300308081210
 11
-302.226657394760310
 21
-197.234103781494950
  0
POINT
  8
0
  6
CONTINUOUS
 62
3
 10
-298.903255658053470
 20
-193.910702044788080
  0
ARC
  8
0
  6
CONTINUOUS
 62
3
 10
-301.165997222980480
 20
-191.647960479861040
 40
6.099999427795406
 50
264.601927898108500
 51
5.398089404735109
  0
LINE
  8
0
  6
CONTINUOUS
 62
3
 10
-396.413280648808150
 20
-190.587300308081210
 11
-396.900084040513780
 21
-191.074103699786830
  0
LINE
  8
0
  6
CONTINUOUS
 62
3
 10
-389.766477175394470
 20
-197.234103781494950
 11
-390.253280567100090
 21
-197.720907173200540
  0
LINE
  8
0
  6
CONTINUOUS
 62
3
 10
-396.726419257776970
 20
-190.839847258931600
 11
-390.049319955304040
 21
-197.516946561404520
  0
LINE
  8
0
  6
CONTINUOUS
 62
3
 10
-396.413280648808150
 20
-190.587300308081210
 11
-389.766477175394470
 21
-197.234103781494950
  0
POINT
  8
0
  6
CONTINUOUS
 62
3
 10
-393.089878912101310
 20
-193.910702044788080
  0
ARC
  8
0
  6
CONTINUOUS
 62
3
 10
-390.827137347174300
 20
-191.647960479861040
 40
6.099999427795398
 50
174.601910595264880
 51
275.398072101891500
  0
LINE
  8
0
  6
CONTINUOUS
 62
3
 10
-396.413280648808150
 20
-103.047480527446850
 11
-396.900084040513780
 21
-102.560677135741230
  0
LINE
  8
0
  6
CONTINUOUS
 62
3
 10
-389.766477175394470
 20
-96.400677054033139
 11
-390.253280567100090
 21
-95.913873662327518
  0
LINE
  8
0
  6
CONTINUOUS
 62
3
 10
-396.726419257776970
 20
-102.794933576596470
 11
-390.049319955304040
 21
-96.117834274123567
  0
LINE
  8
0
  6
CONTINUOUS
 62
3
 10
-396.413280648808150
 20
-103.047480527446850
 11
-389.766477175394470
 21
-96.400677054033139
  0
POINT
  8
0
  6
CONTINUOUS
 62
3
 10
-393.089878912101310
 20
-99.724078790739995
  0
ARC
  8
0
  6
CONTINUOUS
 62
3
 10
-390.827137347174300
 20
-101.986820355667030
 40
6.099999427795419
 50
84.601927898108485
 51
185.398089404735120
  0
LINE
  8
0
  6
CONTINUOUS
 62
3
 10
-295.579853921346630
 20
-103.047480527446850
 11
-295.093050529641000
 21
-102.560677135741230
  0
LINE
  8
0
  6
CONTINUOUS
 62
3
 10
-302.226657394760310
 20
-96.400677054033139
 11
-301.739854003054690
 21
-95.913873662327518
  0
LINE
  8
0
  6
CONTINUOUS
 62
3
 10
-295.266715312377810
 20
-102.794933576596470
 11
-301.943814614850740
 21
-96.117834274123567
  0
LINE
  8
0
  6
CONTINUOUS
 62
3
 10
-295.579853921346630
 20
-103.047480527446850
 11
-302.226657394760310
 21
-96.400677054033139
  0
POINT
  8
0
  6
CONTINUOUS
 62
3
 10
-298.903255658053470
 20
-99.724078790739995
  0
ARC
  8
0
  6
CONTINUOUS
 62
3
 10
-301.165997222980480
 20
-101.986820355667030
 40
6.099999427795398
 50
354.601910595264880
 51
95.398072101891515
  0
INSERT
  8
0
  2
SYM1
 10
30.925344663830174
 20
-254.317390417767510
  0
INSERT
  8
0
  2
SYM2
 10
15.425344663833812
 20
-80.317390417767442
  0
INSERT
  8
0
  2
SYM3
 10
30.925344663830174
 20
-90.317390417767442
  0
INSERT
  8
0
  2
SYM4
 10
30.925344663830174
 20
-166.317390417767460
  0
INSERT
  8
0
  2
SYM5
 10
2.425344663831538
 20
-127.123216593607120
  0
INSERT
  8
0
  2
SYM6
 10
2.425344663831538
 20
-215.511564241925040
  0
LINE
  8
0
  6
CONTINUOUS
 62
3
 10
43.425344663832902
 20
-71.317390417767442
 11
115.083196162186820
 21
-68.815043103320008
  0
LINE
  8
0
  6
CONTINUOUS
 62
3
 10
43.425344663832902
 20
-264.317390417767510
 11
129.340073301175610
 21
-266.760399479395860
  0
LINE
  8
0
  6
CONTINUOUS
 62
3
 10
43.425344663832902
 20
-264.317390417767510
 11
43.425344663832902
 21
-71.317390417767442
  0
LINE
  8
0
  6
CONTINUOUS
 62
3
 10
15.425344663836540
 20
-36.317390417767442
 11
19.925344663836540
 21
-36.317390417767442
  0
LINE
  8
0
  6
DASHDOT
 62
4
 10
0.931301012002905
 20
-80.317390417767442
 11
25.068916480108555
 21
-80.317390417767442
  0
LINE
  8
0
  6
DASHDOT
 62
4
 10
9.695097263019989
 20
-56.317390417767442
 11
27.794363278311494
 21
-56.317390417767442
  0
LINE
  8
0
  6
CONTINUOUS
 62
3
 10
19.925344663836540
 20
-36.317390417767442
 11
19.925344663836540
 21
-90.317390417767442
  0
LINE
  8
0
  6
CONTINUOUS
 62
3
 10
15.425344663832902
 20
-90.317390417767442
 11
15.425344663836540
 21
-36.317390417767442
  0
LINE
  8
0
  6
CONTINUOUS
 62
3
 10
15.425344663832902
 20
-90.317390417767442
 11
19.925344663832902
 21
-90.317390417767442
  0
LINE
  8
0
  6
CONTINUOUS
 62
3
 10
22.925344663834721
 20
-109.210583918017600
 11
22.925344663836654
 21
-95.951460814190781
  0
ARC
  8
0
  6
CONTINUOUS
 62
3
 10
22.925344663835631
 20
-89.317390417767442
 40
3.000000000000000
 50
180.000000000000000
 51
270.000000000000000
  0
LINE
  8
0
  6
CONTINUOUS
 62
3
 10
8.425344663831993
 20
-191.317390417767460
 11
30.925344663830174
 21
-191.317390417767460
  0
LINE
  8
0
  6
CONTINUOUS
 62
3
 10
8.425344663831993
 20
-151.317390417767460
 11
28.925344663830174
 21
-151.317390417767460
  0
ARC
  8
0
  6
CONTINUOUS
 62
3
 10
28.925344663830174
 20
-136.853288802629780
 40
1.999999999999770
 50
300.000000000003810
 51
0.000000000000000
  0
ARC
  8
0
  6
CONTINUOUS
 62
3
 10
30.925344663830174
 20
-140.317390417767460
 40
2.000000000000164
 50
119.999999999997270
 51
180.000000000000000
  0
ARC
  8
0
  6
CONTINUOUS
 62
3
 10
28.925344663830174
 20
-155.781492032905130
 40
2.000000000000000
 50
0.000000000000000
 51
59.999999999996206
  0
ARC
  8
0
  6
CONTINUOUS
 62
3
 10
30.925344663830174
 20
-152.317390417767460
 40
2.000000000000000
 50
180.000000000000000
 51
240.000000000002730
  0
LINE
  8
0
  6
CONTINUOUS
 62
3
 10
28.925344663830174
 20
-140.317390417767460
 11
28.925344663830174
 21
-152.317390417767460
  0
ARC
  8
0
  6
CONTINUOUS
 62
3
 10
27.925344663834721
 20
-108.791321683753250
 40
2.999999999999901
 50
272.999999999988290
 51
0.000000000000000
  0
LINE
  8
0
  6
CONTINUOUS
 62
3
 10
30.925344663830174
 20
-74.317390417766532
 11
30.925344663830174
 21
-136.853288802629780
  0
LINE
  8
0
  6
CONTINUOUS
 62
3
 10
42.925344663831993
 20
-171.317390417767460
 11
42.925344663836540
 21
-71.317390417767442
  0
LINE
  8
0
  6
CONTINUOUS
 62
3
 10
42.925344663830174
 20
-171.317390417767460
 11
42.925344663830174
 21
-264.317390417767510
  0
LINE
  8
0
  6
CONTINUOUS
 62
3
 10
8.425344663831993
 20
-171.317390417766090
 11
8.425344663831993
 21
-232.810284664851680
  0
LINE
  8
0
  6
CONTINUOUS
 62
3
 10
8.425344663831993
 20
-171.317390417766090
 11
8.425344663831993
 21
-112.817390417766070
  0
LINE
  8
0
  6
CONTINUOUS
 62
3
 10
28.082352532563846
 20
-111.787210288016900
 11
8.425344663831993
 21
-112.817390417766530
  0
ARC
  8
0
  6
CONTINUOUS
 62
3
 10
32.925344663830174
 20
-262.317390417767510
 40
2.000000000000000
 50
180.000000000000000
 51
270.000000000000000
  0
ARC
  8
0
  6
CONTINUOUS
 62
3
 10
27.925344663830174
 20
-236.836353398864500
 40
3.000000000000000
 50
0.000000000000000
 51
86.999999999994344
  0
ARC
  8
0
  6
CONTINUOUS
 62
3
 10
19.925344663834721
 20
-109.210583918017600
 40
2.999999999999901
 50
272.999999999988290
 51
0.000000000000000
  0
ARC
  8
0
  6
CONTINUOUS
 62
3
 10
22.925344663836540
 20
-74.317390417766077
 40
3.000000000000000
 50
90.000000000000000
 51
179.999999999991330
  0
ARC
  8
0
  6
CONTINUOUS
 62
3
 10
33.925344663836540
 20
-74.317390417766532
 40
3.000000000000000
 50
90.000000000000000
 51
180.000000000000000
  0
LINE
  8
0
  6
CONTINUOUS
 62
3
 10
8.425344663831993
 20
-232.810284664851680
 11
28.082352532559298
 21
-233.840464794600850
  0
LINE
  8
0
  6
CONTINUOUS
 62
3
 10
43.425344663832902
 20
-264.317390417767510
 11
32.925344663830174
 21
-264.317390417767510
  0
LINE
  8
0
  6
CONTINUOUS
 62
3
 10
43.425344663832902
 20
-71.317390417767442
 11
22.925344663836540
 21
-71.317390417766077
  0
LINE
  8
0
  6
CONTINUOUS
 62
3
 10
19.925344663835631
 20
-89.317390417767442
 11
19.925344663836540
 21
-74.317390417765623
  0
LINE
  8
0
  6
CONTINUOUS
 62
3
 10
30.925344663830174
 20
-155.781492032905130
 11
30.925344663830174
 21
-262.317390417767510
  0
LINE
  8
0
  6
CONTINUOUS
 62
3
 10
8.425344663831538
 20
-227.617390417763890
 11
8.425344663831538
 21
-229.817390417766090
  0
LINE
  8
0
  6
CONTINUOUS
 62
3
 10
8.425344663831538
 20
-227.617390417763890
 11
8.425344663831538
 21
-112.817390417765960
  0
ARC
  8
0
  6
CONTINUOUS
 62
3
 10
-89.074655336172782
 20
-117.317390417764140
 40
2.000000000000000
 50
0.000000000000000
 51
90.000000000000000
  0
ARC
  8
0
  6
CONTINUOUS
 62
3
 10
-89.074655336172782
 20
-117.817390417764140
 40
1.000000000000000
 50
0.000000000000000
 51
90.000000000000000
  0
LINE
  8
0
  6
CONTINUOUS
 62
3
 10
-89.074655336172782
 20
-115.317390417764140
 11
-160.074655336172780
 21
-115.317390417764140
  0
ARC
  8
0
  6
CONTINUOUS
 62
3
 10
-89.074655336172782
 20
-176.317390417764160
 40
2.000000000000000
 50
270.000000000000000
 51
0.000000000000000
  0
ARC
  8
0
  6
CONTINUOUS
 62
3
 10
-89.074655336172782
 20
-175.817390417764160
 40
1.000000000000000
 50
270.000000000000000
 51
0.000000000000000
  0
LINE
  8
0
  6
CONTINUOUS
 62
3
 10
-87.074655336172782
 20
-146.817390417764160
 11
-87.074655336172782
 21
-117.317390417764140
  0
LINE
  8
0
  6
CONTINUOUS
 62
3
 10
-88.074655336172782
 20
-117.817390417764140
 11
-88.074655336172782
 21
-146.817390417764160
  0
LINE
  8
0
  6
CONTINUOUS
 62
3
 10
-87.074655336172782
 20
-146.817390417764160
 11
-87.074655336172782
 21
-176.317390417764160
  0
LINE
  8
0
  6
CONTINUOUS
 62
3
 10
-88.074655336172782
 20
-175.817390417764160
 11
-88.074655336172782
 21
-146.817390417764160
  0
ARC
  8
0
  6
CONTINUOUS
 62
3
 10
-160.074655336172780
 20
-175.817390417764160
 40
1.000000000000000
 50
180.000000000000000
 51
270.000000000000000
  0
LINE
  8
0
  6
CONTINUOUS
 62
3
 10
-89.074655336172782
 20
-178.317390417764160
 11
-160.074655336172780
 21
-178.317390417764160
  0
LINE
  8
0
  6
CONTINUOUS
 62
3
 10
-89.074655336172782
 20
-176.817390417764160
 11
-160.074655336172780
 21
-176.817390417764160
  0
ARC
  8
0
  6
CONTINUOUS
 62
3
 10
-160.074655336172780
 20
-176.317390417764160
 40
2.000000000000000
 50
180.000000000000000
 51
270.000000000000000
  0
LINE
  8
0
  6
CONTINUOUS
 62
3
 10
-162.074655336172780
 20
-146.817390417764160
 11
-162.074655336172780
 21
-176.317390417764160
  0
LINE
  8
0
  6
CONTINUOUS
 62
3
 10
-161.074655336172780
 20
-146.817390417764160
 11
-161.074655336172780
 21
-175.817390417764160
  0
LINE
  8
0
  6
CONTINUOUS
 62
3
 10
-162.074655336172780
 20
-146.817390417764160
 11
-162.074655336172780
 21
-117.317390417764140
  0
ARC
  8
0
  6
CONTINUOUS
 62
3
 10
-160.074655336172780
 20
-117.317390417764140
 40
2.000000000000000
 50
90.000000000000000
 51
180.000000000000000
  0
LINE
  8
0
  6
CONTINUOUS
 62
3
 10
-89.074655336172782
 20
-116.817390417764140
 11
-160.074655336172780
 21
-116.817390417764140
  0
LINE
  8
0
  6
CONTINUOUS
 62
3
 10
-161.074655336172780
 20
-146.817390417764160
 11
-161.074655336172780
 21
-117.817390417764140
  0
ARC
  8
0
  6
CONTINUOUS
 62
3
 10
-160.074655336172780
 20
-117.817390417764140
 40
1.000000000000000
 50
90.000000000000000
 51
180.000000000000000
  0
LINE
  8
0
  6
CONTINUOUS
 62
4
 10
-87.074655336172782
 20
-118.060994867127060
 11
-33.574655336173009
 21
-118.060994867127060
  0
LINE
  8
0
  6
CONTINUOUS
 62
4
 10
-87.074655336172782
 20
-119.540018020604160
 11
-33.574655336173009
 21
-119.540018020604160
  0
LINE
  8
0
  6
CONTINUOUS
 62
4
 10
-87.074655336172782
 20
-122.632749012269400
 11
-33.574655336173009
 21
-122.632749012269400
  0
LINE
  8
0
  6
CONTINUOUS
 62
4
 10
-87.074655336172782
 20
-123.979150737767990
 11
-33.574655336173009
 21
-123.979150737767990
  0
LINE
  8
0
  6
CONTINUOUS
 62
4
 10
-87.074655336172782
 20
-126.817390417764140
 11
-33.574655336173009
 21
-126.817390417764140
  0
LINE
  8
0
  6
CONTINUOUS
 62
4
 10
-154.232255682565210
 20
-106.776955011239670
 11
-33.574655336173009
 21
-106.776955011239670
  0
LINE
  8
0
  6
CONTINUOUS
 62
4
 10
-154.074655336193930
 20
-102.312734890659250
 11
-33.574655336173009
 21
-102.312734890659250
  0
LINE
  8
0
  6
CONTINUOUS
 62
4
 10
-164.074655336193930
 20
-123.979150737767990
 11
-162.074655336172780
 21
-123.979150737767990
  0
LINE
  8
0
  6
CONTINUOUS
 62
4
 10
-164.074655336193930
 20
-122.632749012269400
 11
-162.074655336172780
 21
-122.632749012269400
  0
LINE
  8
0
  6
CONTINUOUS
 62
4
 10
-164.074655336193930
 20
-119.540018020604160
 11
-162.074655336172780
 21
-119.540018020604160
  0
LINE
  8
0
  6
CONTINUOUS
 62
4
 10
-164.074655336193930
 20
-118.060994867127060
 11
-162.074655336172780
 21
-118.060994867127060
  0
LINE
  8
0
  6
CONTINUOUS
 62
4
 10
-164.074655336193930
 20
-115.102999258994130
 11
-33.574655336173009
 21
-115.102999258994130
  0
LINE
  8
0
  6
CONTINUOUS
 62
4
 10
-164.074655336193930
 20
-113.513789466255370
 11
-33.574655336173009
 21
-113.513789466255370
  0
LINE
  8
0
  6
CONTINUOUS
 62
4
 10
-164.074655336193930
 20
-126.817390417764140
 11
-162.074655336172780
 21
-126.817390417764140
  0
LINE
  8
0
  6
CONTINUOUS
 62
4
 10
-154.074655336193930
 20
-105.775476647424380
 11
-33.574655336173009
 21
-105.775476647424380
  0
LINE
  8
0
  6
CONTINUOUS
 62
4
 10
-154.074655336193930
 20
-100.684307822881450
 11
-33.574655336173009
 21
-100.684307822881450
  0
LINE
  8
0
  6
CONTINUOUS
 62
4
 10
-154.074655336193930
 20
-95.817390417764031
 11
-33.574655336173009
 21
-95.817390417764031
  0
LINE
  8
0
  6
CONTINUOUS
 62
4
 10
-154.074655336193930
 20
-96.317390417764145
 11
-33.574655336173009
 21
-96.317390417764145
  0
LINE
  8
0
  6
CONTINUOUS
 62
3
 10
-33.574655336173009
 20
-94.317390417764145
 11
-154.074655336193930
 21
-94.317390417764145
  0
LINE
  8
0
  6
CONTINUOUS
 62
3
 10
-154.074655336193930
 20
-92.817390417763917
 11
-183.579500285286940
 21
-92.817390417763917
  0
LINE
  8
0
  6
CONTINUOUS
 62
3
 10
-195.395174874118310
 20
-96.542858305410604
 11
-202.965954070707080
 21
-101.843974968983140
  0
LINE
  8
0
  6
CONTINUOUS
 62
3
 10
-204.074655336194160
 20
-103.973770284134600
 11
-204.074655336194160
 21
-146.817390417764160
  0
ARC
  8
0
  6
CONTINUOUS
 62
3
 10
-201.474655336194250
 20
-103.973770284134600
 40
2.600000000000131
 50
125.000000000001180
 51
180.000000000000000
  0
ARC
  8
0
  6
CONTINUOUS
 62
3
 10
-183.579500285286940
 20
-113.417390417763940
 40
20.600000000000023
 50
90.000000000000000
 51
124.999999999999600
  0
LINE
  8
0
  6
CONTINUOUS
 62
3
 10
-165.074655336194160
 20
-97.673469395038964
 11
-167.074655336193930
 21
-99.326111034162395
  0
LINE
  8
0
  6
CONTINUOUS
 62
3
 10
-163.074655336193930
 20
-96.497683909416182
 11
-165.074655336194160
 21
-97.673469395038964
  0
LINE
  8
0
  6
CONTINUOUS
 62
3
 10
-165.074655336194160
 20
-97.673469395038964
 11
-163.074655336193930
 21
-99.326111034162395
  0
LINE
  8
0
  6
CONTINUOUS
 62
3
 10
-167.074655336193930
 20
-96.497683909416182
 11
-165.074655336194160
 21
-97.673469395038964
  0
POLYLINE
  8
0
  6
CONTINUOUS
 62
3
 66
1
 70
1
  0
VERTEX
  8
0
  6
CONTINUOUS
 62
3
 10
-160.374655336193710
 20
-99.490059463416500
  0
VERTEX
  8
0
  6
CONTINUOUS
 62
3
 10
-160.464964518298530
 20
-98.787102497216139
  0
VERTEX
  8
0
  6
CONTINUOUS
 62
3
 10
-160.732421533390660
 20
-98.111159773004047
  0
VERTEX
  8
0
  6
CONTINUOUS
 62
3
 10
-161.166748158371750
 20
-97.488207390598646
  0
VERTEX
  8
0
  6
CONTINUOUS
 62
3
 10
-161.751253464616920
 20
-96.942185060700069
  0
VERTEX
  8
0
  6
CONTINUOUS
 62
3
 10
-162.463475241001590
 20
-96.494076115233455
  0
VERTEX
  8
0
  6
CONTINUOUS
 62
3
 10
-163.276043204077780
 20
-96.161101129670683
  0
VERTEX
  8
0
  6
CONTINUOUS
 62
3
 10
-164.157730822717890
 20
-95.956056145972440
  0
VERTEX
  8
0
  6
CONTINUOUS
 62
3
 10
-165.074655336193700
 20
-95.886820927871668
  0
VERTEX
  8
0
  6
CONTINUOUS
 62
3
 10
-165.991579849669510
 20
-95.956056145972440
  0
VERTEX
  8
0
  6
CONTINUOUS
 62
3
 10
-166.873267468309620
 20
-96.161101129670683
  0
VERTEX
  8
0
  6
CONTINUOUS
 62
3
 10
-167.685835431385810
 20
-96.494076115233455
  0
VERTEX
  8
0
  6
CONTINUOUS
 62
3
 10
-168.398057207770480
 20
-96.942185060700069
  0
VERTEX
  8
0
  6
CONTINUOUS
 62
3
 10
-168.982562514015650
 20
-97.488207390598646
  0
VERTEX
  8
0
  6
CONTINUOUS
 62
3
 10
-169.416889138996740
 20
-98.111159773004047
  0
VERTEX
  8
0
  6
CONTINUOUS
 62
3
 10
-169.684346154088870
 20
-98.787102497216139
  0
VERTEX
  8
0
  6
CONTINUOUS
 62
3
 10
-169.774655336193690
 20
-99.490059463416500
  0
VERTEX
  8
0
  6
CONTINUOUS
 62
3
 10
-169.684346154088870
 20
-100.193016429616860
  0
VERTEX
  8
0
  6
CONTINUOUS
 62
3
 10
-169.416889138996740
 20
-100.868959153828950
  0
VERTEX
  8
0
  6
CONTINUOUS
 62
3
 10
-168.982562514015650
 20
-101.491911536234350
  0
VERTEX
  8
0
  6
CONTINUOUS
 62
3
 10
-168.398057207770450
 20
-102.037933866132930
  0
VERTEX
  8
0
  6
CONTINUOUS
 62
3
 10
-167.685835431385810
 20
-102.486042811599540
  0
VERTEX
  8
0
  6
CONTINUOUS
 62
3
 10
-166.873267468309620
 20
-102.819017797162310
  0
VERTEX
  8
0
  6
CONTINUOUS
 62
3
 10
-165.991579849669510
 20
-103.024062780860560
  0
VERTEX
  8
0
  6
CONTINUOUS
 62
3
 10
-165.074655336193700
 20
-103.093297998961330
  0
VERTEX
  8
0
  6
CONTINUOUS
 62
3
 10
-164.157730822717890
 20
-103.024062780860560
  0
VERTEX
  8
0
  6
CONTINUOUS
 62
3
 10
-163.276043204077780
 20
-102.819017797162310
  0
VERTEX
  8
0
  6
CONTINUOUS
 62
3
 10
-162.463475241001590
 20
-102.486042811599540
  0
VERTEX
  8
0
  6
CONTINUOUS
 62
3
 10
-161.751253464616950
 20
-102.037933866132930
  0
VERTEX
  8
0
  6
CONTINUOUS
 62
3
 10
-161.166748158371750
 20
-101.491911536234350
  0
VERTEX
  8
0
  6
CONTINUOUS
 62
3
 10
-160.732421533390660
 20
-100.868959153828950
  0
VERTEX
  8
0
  6
CONTINUOUS
 62
3
 10
-160.464964518298530
 20
-100.193016429616860
  0
SEQEND
  8
0
  6
CONTINUOUS
 62
3
  0
ARC
  8
0
  6
CONTINUOUS
 62
3
 10
-157.074655336193930
 20
-105.817390417764140
 40
3.000000000000000
 50
270.000000000000000
 51
0.000000000000000
  0
LINE
  8
0
  6
CONTINUOUS
 62
3
 10
-154.074655336193930
 20
-92.817390417763917
 11
-154.074655336193930
 21
-105.817390417764140
  0
ARC
  8
0
  6
CONTINUOUS
 62
3
 10
-161.074655336193930
 20
-111.817390417764140
 40
3.000000000000000
 50
90.000000000000000
 51
180.000000000000000
  0
LINE
  8
0
  6
CONTINUOUS
 62
3
 10
-157.074655336193930
 20
-108.817390417764140
 11
-161.074655336193930
 21
-108.817390417764140
  0
LINE
  8
0
  6
CONTINUOUS
 62
3
 10
-164.074655336193930
 20
-146.817390417764160
 11
-164.074655336193930
 21
-111.817390417764140
  0
LINE
  8
0
  6
CONTINUOUS
 62
3
 10
-195.395174874118310
 20
-197.091922530117590
 11
-202.965954070707080
 21
-191.790805866545040
  0
LINE
  8
0
  6
CONTINUOUS
 62
3
 10
-204.074655336194160
 20
-189.661010551393700
 11
-204.074655336194160
 21
-146.817390417764160
  0
ARC
  8
0
  6
CONTINUOUS
 62
3
 10
-201.474655336194250
 20
-189.661010551393700
 40
2.599999999999909
 50
180.000000000000000
 51
234.999999999997390
  0
ARC
  8
0
  6
CONTINUOUS
 62
3
 10
-183.579500285286940
 20
-180.217390417764360
 40
20.599999999999891
 50
235.000000000000400
 51
270.000000000000000
  0
LINE
  8
0
  6
CONTINUOUS
 62
3
 10
-154.074655336193930
 20
-200.817390417764390
 11
-183.579500285286940
 21
-200.817390417764390
  0
LINE
  8
0
  6
CONTINUOUS
 62
4
 10
-164.074655336193930
 20
-166.817390417764160
 11
-162.074655336172780
 21
-166.817390417764160
  0
LINE
  8
0
  6
CONTINUOUS
 62
4
 10
-164.074655336193930
 20
-169.655630097760310
 11
-162.074655336172780
 21
-169.655630097760310
  0
LINE
  8
0
  6
CONTINUOUS
 62
4
 10
-164.074655336193930
 20
-171.002031823258900
 11
-162.074655336172780
 21
-171.002031823258900
  0
LINE
  8
0
  6
CONTINUOUS
 62
4
 10
-164.074655336193930
 20
-174.094762814924140
 11
-162.074655336172780
 21
-174.094762814924140
  0
LINE
  8
0
  6
CONTINUOUS
 62
4
 10
-164.074655336193930
 20
-175.573785968401240
 11
-162.074655336172780
 21
-175.573785968401240
  0
LINE
  8
0
  6
CONTINUOUS
 62
4
 10
-164.074655336193930
 20
-178.531781576534170
 11
-33.574655336173009
 21
-178.531781576534170
  0
LINE
  8
0
  6
CONTINUOUS
 62
4
 10
-164.074655336193930
 20
-180.120991369272820
 11
-33.574655336173009
 21
-180.120991369272820
  0
LINE
  8
0
  6
CONTINUOUS
 62
4
 10
-154.232255682565210
 20
-186.857825824288510
 11
-33.574655336173009
 21
-186.857825824288510
  0
LINE
  8
0
  6
CONTINUOUS
 62
4
 10
-154.074655336193930
 20
-187.859304188103810
 11
-33.574655336173009
 21
-187.859304188103810
  0
LINE
  8
0
  6
CONTINUOUS
 62
4
 10
-154.074655336193930
 20
-191.322045944869050
 11
-33.574655336173009
 21
-191.322045944869050
  0
LINE
  8
0
  6
CONTINUOUS
 62
4
 10
-154.074655336193930
 20
-192.950473012646850
 11
-33.574655336173009
 21
-192.950473012646850
  0
LINE
  8
0
  6
CONTINUOUS
 62
4
 10
-154.074655336193930
 20
-197.817390417764160
 11
-33.574655336173009
 21
-197.817390417764160
  0
LINE
  8
0
  6
CONTINUOUS
 62
4
 10
-154.074655336193930
 20
-197.317390417764160
 11
-33.574655336173009
 21
-197.317390417764160
  0
LINE
  8
0
  6
CONTINUOUS
 62
3
 10
-33.574655336173009
 20
-199.317390417764160
 11
-154.074655336193930
 21
-199.317390417764160
  0
LINE
  8
0
  6
CONTINUOUS
 62
3
 10
-165.074655336194160
 20
-195.961311440489230
 11
-167.074655336193930
 21
-194.308669801365910
  0
LINE
  8
0
  6
CONTINUOUS
 62
3
 10
-163.074655336193930
 20
-197.137096926112120
 11
-165.074655336194160
 21
-195.961311440489230
  0
LINE
  8
0
  6
CONTINUOUS
 62
3
 10
-165.074655336194160
 20
-195.961311440489230
 11
-163.074655336193930
 21
-194.308669801365910
  0
LINE
  8
0
  6
CONTINUOUS
 62
3
 10
-167.074655336193930
 20
-197.137096926112120
 11
-165.074655336194160
 21
-195.961311440489230
  0
POLYLINE
  8
0
  6
CONTINUOUS
 62
3
 66
1
 70
1
  0
VERTEX
  8
0
  6
CONTINUOUS
 62
3
 10
-160.374655336193710
 20
-194.144721372111690
  0
VERTEX
  8
0
  6
CONTINUOUS
 62
3
 10
-160.464964518298530
 20
-193.441764405911330
  0
VERTEX
  8
0
  6
CONTINUOUS
 62
3
 10
-160.732421533390660
 20
-192.765821681699240
  0
VERTEX
  8
0
  6
CONTINUOUS
 62
3
 10
-161.166748158371750
 20
-192.142869299293840
  0
VERTEX
  8
0
  6
CONTINUOUS
 62
3
 10
-161.751253464616920
 20
-191.596846969395240
  0
VERTEX
  8
0
  6
CONTINUOUS
 62
3
 10
-162.463475241001590
 20
-191.148738023928620
  0
VERTEX
  8
0
  6
CONTINUOUS
 62
3
 10
-163.276043204077780
 20
-190.815763038365870
  0
VERTEX
  8
0
  6
CONTINUOUS
 62
3
 10
-164.157730822717890
 20
-190.610718054667610
  0
VERTEX
  8
0
  6
CONTINUOUS
 62
3
 10
-165.074655336193700
 20
-190.541482836566840
  0
VERTEX
  8
0
  6
CONTINUOUS
 62
3
 10
-165.991579849669510
 20
-190.610718054667610
  0
VERTEX
  8
0
  6
CONTINUOUS
 62
3
 10
-166.873267468309620
 20
-190.815763038365870
  0
VERTEX
  8
0
  6
CONTINUOUS
 62
3
 10
-167.685835431385810
 20
-191.148738023928620
  0
VERTEX
  8
0
  6
CONTINUOUS
 62
3
 10
-168.398057207770480
 20
-191.596846969395240
  0
VERTEX
  8
0
  6
CONTINUOUS
 62
3
 10
-168.982562514015650
 20
-192.142869299293840
  0
VERTEX
  8
0
  6
CONTINUOUS
 62
3
 10
-169.416889138996740
 20
-192.765821681699240
  0
VERTEX
  8
0
  6
CONTINUOUS
 62
3
 10
-169.684346154088870
 20
-193.441764405911330
  0
VERTEX
  8
0
  6
CONTINUOUS
 62
3
 10
-169.774655336193690
 20
-194.144721372111690
  0
VERTEX
  8
0
  6
CONTINUOUS
 62
3
 10
-169.684346154088870
 20
-194.847678338312050
  0
VERTEX
  8
0
  6
CONTINUOUS
 62
3
 10
-169.416889138996740
 20
-195.523621062524140
  0
VERTEX
  8
0
  6
CONTINUOUS
 62
3
 10
-168.982562514015650
 20
-196.146573444929540
  0
VERTEX
  8
0
  6
CONTINUOUS
 62
3
 10
-168.398057207770450
 20
-196.692595774828130
  0
VERTEX
  8
0
  6
CONTINUOUS
 62
3
 10
-167.685835431385810
 20
-197.140704720294760
  0
VERTEX
  8
0
  6
CONTINUOUS
 62
3
 10
-166.873267468309620
 20
-197.473679705857510
  0
VERTEX
  8
0
  6
CONTINUOUS
 62
3
 10
-165.991579849669510
 20
-197.678724689555760
  0
VERTEX
  8
0
  6
CONTINUOUS
 62
3
 10
-165.074655336193700
 20
-197.747959907656540
  0
VERTEX
  8
0
  6
CONTINUOUS
 62
3
 10
-164.157730822717890
 20
-197.678724689555760
  0
VERTEX
  8
0
  6
CONTINUOUS
 62
3
 10
-163.276043204077780
 20
-197.473679705857510
  0
VERTEX
  8
0
  6
CONTINUOUS
 62
3
 10
-162.463475241001590
 20
-197.140704720294760
  0
VERTEX
  8
0
  6
CONTINUOUS
 62
3
 10
-161.751253464616950
 20
-196.692595774828130
  0
VERTEX
  8
0
  6
CONTINUOUS
 62
3
 10
-161.166748158371750
 20
-196.146573444929540
  0
VERTEX
  8
0
  6
CONTINUOUS
 62
3
 10
-160.732421533390660
 20
-195.523621062524140
  0
VERTEX
  8
0
  6
CONTINUOUS
 62
3
 10
-160.464964518298530
 20
-194.847678338312050
  0
SEQEND
  8
0
  6
CONTINUOUS
 62
3
  0
ARC
  8
0
  6
CONTINUOUS
 62
3
 10
-157.074655336193930
 20
-187.817390417764160
 40
3.000000000000000
 50
0.000000000000000
 51
90.000000000000000
  0
LINE
  8
0
  6
CONTINUOUS
 62
3
 10
-154.074655336193930
 20
-200.817390417764390
 11
-154.074655336193930
 21
-187.817390417764160
  0
ARC
  8
0
  6
CONTINUOUS
 62
3
 10
-161.074655336193930
 20
-181.817390417764160
 40
3.000000000000000
 50
180.000000000000000
 51
270.000000000000000
  0
LINE
  8
0
  6
CONTINUOUS
 62
3
 10
-157.074655336193930
 20
-184.817390417764160
 11
-161.074655336193930
 21
-184.817390417764160
  0
LINE
  8
0
  6
CONTINUOUS
 62
3
 10
-164.074655336193930
 20
-146.817390417764160
 11
-164.074655336193930
 21
-181.817390417764160
  0
LINE
  8
0
  6
CONTINUOUS
 62
4
 10
-87.074655336172782
 20
-175.573785968401240
 11
-33.574655336173009
 21
-175.573785968401240
  0
LINE
  8
0
  6
CONTINUOUS
 62
4
 10
-87.074655336172782
 20
-174.094762814924140
 11
-33.574655336173009
 21
-174.094762814924140
  0
LINE
  8
0
  6
CONTINUOUS
 62
4
 10
-87.074655336172782
 20
-171.002031823258900
 11
-33.574655336173009
 21
-171.002031823258900
  0
LINE
  8
0
  6
CONTINUOUS
 62
4
 10
-87.074655336172782
 20
-169.655630097760310
 11
-33.574655336173009
 21
-169.655630097760310
  0
LINE
  8
0
  6
CONTINUOUS
 62
4
 10
-87.074655336172782
 20
-166.817390417764160
 11
-33.574655336173009
 21
-166.817390417764160
  0
ARC
  8
0
  6
CONTINUOUS
 62
3
 10
3.425360017961111
 20
-98.611288058033495
 40
3.000000000000000
 50
0.000000000000000
 51
88.000000000000682
  0
ARC
  8
0
  6
CONTINUOUS
 62
3
 10
-23.574624627941830
 20
-99.722026988413347
 40
5.000000000000000
 50
359.999999999998690
 51
88.000000000000256
  0
LINE
  8
0
  6
CONTINUOUS
 62
3
 10
6.425360017961111
 20
-109.317390417766030
 11
6.425360017961111
 21
-98.611288058033495
  0
LINE
  8
0
  6
CONTINUOUS
 62
3
 10
3.530058508068578
 20
-95.613115576976213
 11
-33.574655336173009
 21
-94.317390417764159
  0
LINE
  8
0
  6
CONTINUOUS
 62
3
 10
-18.574639982073677
 20
-112.903526930943940
 11
-18.574639982073450
 21
-99.722026988413461
  0
LINE
  8
0
  6
CONTINUOUS
 62
3
 10
-33.574639982041390
 20
-94.317390417764159
 11
-33.574639982046619
 21
-199.326117682220850
  0
LINE
  8
0
  6
CONTINUOUS
 62
3
 10
-19.574639982073904
 20
-126.817390417765970
 11
-33.574639982042982
 21
-126.817390417765970
  0
ARC
  8
0
  6
CONTINUOUS
 62
3
 10
-13.574639982073677
 20
-105.157557543547680
 40
5.000000000000000
 50
179.999999999999350
 51
267.000000000000910
  0
LINE
  8
0
  6
CONTINUOUS
 62
3
 10
8.425360017961111
 20
-111.317390417766030
 11
-13.836319763288316
 21
-110.150705217320530
  0
LINE
  8
0
  6
CONTINUOUS
 62
3
 10
-18.574639982075041
 20
-199.587943656143520
 11
-18.574639982074018
 21
-132.855267401175920
  0
LINE
  8
0
  6
CONTINUOUS
 62
3
 10
-18.074668279790217
 20
-109.817390417764610
 11
-18.074669736640658
 21
-109.817390417764610
  0
LINE
  8
0
  6
CONTINUOUS
 62
3
 10
-14.765213240176308
 20
-122.531506188821310
 11
-4.088628479761610
 21
-122.531506188821310
  0
ARC
  8
0
  6
CONTINUOUS
 62
3
 10
-18.574639982073904
 20
-131.123216593607030
 40
1.000000000000000
 50
180.000000000000000
 51
239.999999999995450
  0
ARC
  8
0
  6
CONTINUOUS
 62
3
 10
-19.574639982073677
 20
-112.903526930943940
 40
1.000000000000033
 50
299.999999999998920
 51
0.000000000000000
  0
ARC
  8
0
  6
CONTINUOUS
 62
3
 10
-18.574639982073677
 20
-114.635577738512830
 40
0.999999999999984
 50
120.000000000000520
 51
180.000000000000000
  0
LINE
  8
0
  6
CONTINUOUS
 62
3
 10
-19.574639982073904
 20
-131.123216593607030
 11
-19.574639982073677
 21
-114.635577738512830
  0
ARC
  8
0
  6
CONTINUOUS
 62
3
 10
-19.574639982074018
 20
-132.855267401175920
 40
1.000000000000000
 50
0.000000000000000
 51
59.999999999999460
  0
LINE
  8
0
  6
CONTINUOUS
 62
3
 10
-14.977572993617287
 20
-136.317390417766030
 11
-4.256617420456678
 21
-136.317390417766030
  0
LINE
  8
0
  6
CONTINUOUS
 62
3
 10
-15.448760559580478
 20
-182.363448365025930
 11
-3.957801789756559
 21
-182.363448365025930
  0
LINE
  8
0
  6
CONTINUOUS
 62
3
 10
-15.539958645056686
 20
-179.317390417765980
 11
-4.140197960705336
 21
-179.317390417765980
  0
LINE
  8
0
  6
CONTINUOUS
 62
3
 10
-18.574639982074586
 20
-166.817390417765980
 11
-33.574639982045028
 21
-166.817390417765980
  0
ARC
  8
0
  6
CONTINUOUS
 62
3
 10
-30.676548832673461
 20
-204.377465691620560
 40
5.000000000000026
 50
45.102043218056203
 51
89.000000000000824
  0
LINE
  8
0
  6
CONTINUOUS
 62
3
 10
-3.032145183570947
 20
-224.865067596714140
 11
-27.147317281642472
 21
-200.835640645234490
  0
LINE
  8
0
  6
CONTINUOUS
 62
3
 10
-4.522267408595098
 20
-199.833228731809130
 11
-33.574624627906815
 21
-199.326117950228370
  0
LINE
  8
0
  6
CONTINUOUS
 62
3
 10
8.425360017961111
 20
-231.317390417766030
 11
8.425360017961111
 21
-111.317390417766030
  0
LINE
  8
0
  6
CONTINUOUS
 62
3
 10
8.425360017961111
 20
-151.332325485284570
 11
-1.574639982038548
 21
-151.332325485284570
  0
LINE
  8
0
  6
CONTINUOUS
 62
3
 10
-1.574639982038548
 20
-227.946418924790980
 11
-1.574639982038548
 21
-114.817390417766090
  0
ARC
  8
0
  6
CONTINUOUS
 62
3
 10
8.425360017961111
 20
-109.317390417766030
 40
2.000000000000000
 50
180.000000000000000
 51
270.000000000000000
  0
LINE
  8
0
  6
CONTINUOUS
 62
3
 10
2.425360017961111
 20
-134.317390417766030
 11
2.425360017961111
 21
-113.110503992629730
  0
ARC
  8
0
  6
CONTINUOUS
 62
3
 10
4.425360017961111
 20
-113.110503992629730
 40
2.000000000000048
 50
87.000000000000995
 51
180.000000000000000
  0
ARC
  8
0
  6
CONTINUOUS
 62
3
 10
0.425360017961452
 20
-138.317390417766030
 40
2.000000000000000
 50
90.000000000000000
 51
180.000000000000000
  0
ARC
  8
0
  6
CONTINUOUS
 62
3
 10
0.425360017961111
 20
-134.317390417766030
 40
2.000000000000000
 50
270.000000000000000
 51
0.000000000000000
  0
LINE
  8
0
  6
CONTINUOUS
 62
3
 10
8.425360017961111
 20
-191.302455350247500
 11
-1.574639982038548
 21
-191.302455350247500
  0
ARC
  8
0
  6
CONTINUOUS
 62
3
 10
-4.574639982038548
 20
-202.832771817278230
 40
3.000000000000000
 50
0.000000000000000
 51
89.000000000000369
  0
ARC
  8
0
  6
CONTINUOUS
 62
3
 10
0.425360017961452
 20
-204.317390417766030
 40
2.000000000000000
 50
180.000000000000000
 51
270.000000000000000
  0
ARC
  8
0
  6
CONTINUOUS
 62
3
 10
0.425360017961111
 20
-208.317390417766030
 40
2.000000000000000
 50
0.000000000000000
 51
90.000000000000000
  0
LINE
  8
0
  6
CONTINUOUS
 62
3
 10
2.425360017961111
 20
-229.105014608637990
 11
2.425360017961111
 21
-208.317390417766030
  0
ARC
  8
0
  6
CONTINUOUS
 62
3
 10
-6.561376734601936
 20
-228.406892643100210
 40
5.000000000000025
 50
3.299723825005552
 51
45.102043218056203
  0
ARC
  8
0
  6
CONTINUOUS
 62
3
 10
1.425360017961452
 20
-227.946418924790980
 40
3.000000000000000
 50
180.000000000000000
 51
267.000000000000970
  0
LINE
  8
0
  6
CONTINUOUS
 62
3
 10
8.425360017961111
 20
-231.317390417766030
 11
1.268352149232669
 21
-230.942307529054740
  0
ARC
  8
0
  6
CONTINUOUS
 62
3
 10
4.425360017961111
 20
-229.105014608637990
 40
2.000000000000000
 50
180.000000000000000
 51
267.000000000000910
  0
LINE
  8
0
  6
DASHDOT
 62
4
 10
-7.574639982038889
 20
-116.384741146770800
 11
-7.574639982038889
 21
-90.672589987170795
  0
LINE
  8
0
  6
DASHDOT
 62
4
 10
-9.326693893974152
 20
-146.817390417764160
 11
-216.370730512622690
 21
-146.817390417764160
  0
INSERT
  8
0
  2
SYM7
 10
2.425336802517677
 20
89.492816659035270
  0
INSERT
  8
0
  2
SYM8
 10
2.425336802517677
 20
177.881164307354030
 41
-1.000000000000000
 50
180.000000000000000
  0
INSERT
  8
0
  2
SYM9
 10
15.425344663839269
 20
144.186990483195070
 41
-1.000000000000000
 50
179.999999999996310
  0
INSERT
  8
0
  2
SYM10
 10
30.925344663836540
 20
183.686990483194170
 41
-1.000000000000000
 50
179.999999999996310
  0
INSERT
  8
0
  2
SYM11
 10
15.425344663838359
 20
123.186990483195580
  0
INSERT
  8
0
  2
SYM12
 10
30.925344663832902
 20
83.686990483195586
  0
ARC
  8
0
  6
DASHED
 62
4
 10
-149.574655336169140
 20
61.686990483194677
 40
7.000000000000000
 50
180.000000000000000
 51
0.000000000000000
  0
LINE
  8
0
  6
DASHDOT
 62
4
 10
-149.574655336169140
 20
52.742833225518552
 11
-149.574655336169140
 21
74.291322206050609
  0
LINE
  8
0
  6
DASHED
 62
4
 10
-142.574655336169140
 20
61.686990483194677
 11
-142.574655336169140
 21
76.186990483194677
  0
LINE
  8
0
  6
DASHED
 62
4
 10
-156.574655336169140
 20
61.686990483194677
 11
-156.574655336169140
 21
76.186990483194677
  0
LINE
  8
0
  6
DASHDOT
 62
4
 10
-158.660344442752720
 20
61.686990483194677
 11
-138.173756209043400
 21
61.686990483194677
  0
LINE
  8
0
  6
DASHED
 62
4
 10
-106.574655336169140
 20
61.686990483194677
 11
-106.574655336169140
 21
76.186990483194677
  0
CIRCLE
  8
0
  6
DASHED
 62
4
 10
-99.574655336169144
 20
61.686990483194677
 40
6.000000000000000
  0
LINE
  8
0
  6
DASHED
 62
4
 10
-92.574655336169144
 20
61.686990483194677
 11
-92.574655336169144
 21
76.186990483194677
  0
ARC
  8
0
  6
DASHED
 62
4
 10
-99.574655336169144
 20
61.686990483194677
 40
7.000000000000000
 50
180.000000000000000
 51
0.000000000000000
  0
LINE
  8
0
  6
DASHDOT
 62
4
 10
-110.858184751895800
 20
61.686990483194677
 11
-89.091207343367500
 21
61.686990483194677
  0
LINE
  8
0
  6
DASHDOT
 62
4
 10
-99.574655336169144
 20
52.742833225518552
 11
-99.574655336169144
 21
74.722335358053897
  0
LINE
  8
0
  6
CONTINUOUS
 62
3
 10
-33.574655336169371
 20
80.186990483194677
 11
-33.574655336169371
 21
133.686990483194680
  0
LINE
  8
0
  6
CONTINUOUS
 62
3
 10
-162.074655336169140
 20
76.186990483194677
 11
-87.074655336169144
 21
76.186990483194677
  0
LINE
  8
0
  6
CONTINUOUS
 62
3
 10
-87.074655336169144
 20
76.186990483194677
 11
-87.074655336169144
 21
81.186990483194791
  0
LINE
  8
0
  6
CONTINUOUS
 62
3
 10
-88.074655336169144
 20
47.686990483194677
 11
-88.074655336169144
 21
76.186990483194677
  0
LINE
  8
0
  6
CONTINUOUS
 62
3
 10
-161.074655336169140
 20
47.686990483194677
 11
-161.074655336169140
 21
76.186990483194677
  0
ARC
  8
0
  6
CONTINUOUS
 62
3
 10
-160.074655336169140
 20
47.686990483194677
 40
1.000000000000000
 50
180.000000000000000
 51
270.000000000000000
  0
ARC
  8
0
  6
CONTINUOUS
 62
3
 10
-89.074655336169144
 20
47.686990483194677
 40
1.000000000000000
 50
270.000000000000000
 51
0.000000000000000
  0
LINE
  8
0
  6
CONTINUOUS
 62
3
 10
-33.574655336169371
 20
80.186990483194677
 11
-87.074655336169144
 21
80.186990483194677
  0
LINE
  8
0
  6
CONTINUOUS
 62
3
 10
-33.574655336169371
 20
187.186990483194680
 11
-33.574655336169371
 21
133.686990483194680
  0
LINE
  8
0
  6
CONTINUOUS
 62
3
 10
-95.074655336169144
 20
46.186990483194677
 11
-95.074655336169144
 21
46.686990483194677
  0
LINE
  8
0
  6
CONTINUOUS
 62
3
 10
-103.074655336169140
 20
46.186990483194677
 11
-95.074655336169144
 21
46.186990483194677
  0
LINE
  8
0
  6
CONTINUOUS
 62
3
 10
-103.074655336169140
 20
46.186990483194677
 11
-103.074655336169140
 21
46.686990483194677
  0
LINE
  8
0
  6
CONTINUOUS
 62
3
 10
-89.074655336169144
 20
46.686990483194677
 11
-160.074655336169140
 21
46.686990483194677
  0
LINE
  8
0
  6
CONTINUOUS
 62
3
 10
-154.074655336190520
 20
82.347294122385733
 11
-154.074655336190290
 21
133.686990483194680
  0
ARC
  8
0
  6
CONTINUOUS
 62
3
 10
-157.074655336190520
 20
82.347294122385733
 40
3.000000000000000
 50
270.000000000000000
 51
0.000000000000000
  0
LINE
  8
0
  6
CONTINUOUS
 62
3
 10
-161.074655336190520
 20
79.347294122385733
 11
-157.074655336190520
 21
79.347294122385733
  0
POLYLINE
  8
0
  6
CONTINUOUS
 62
3
 66
1
 70
1
  0
VERTEX
  8
0
  6
CONTINUOUS
 62
3
 10
-160.374655336190300
 20
86.359659528847146
  0
VERTEX
  8
0
  6
CONTINUOUS
 62
3
 10
-160.464964518295120
 20
87.062616495047507
  0
VERTEX
  8
0
  6
CONTINUOUS
 62
3
 10
-160.732421533387250
 20
87.738559219259599
  0
VERTEX
  8
0
  6
CONTINUOUS
 62
3
 10
-161.166748158368340
 20
88.361511601665001
  0
VERTEX
  8
0
  6
CONTINUOUS
 62
3
 10
-161.751253464613510
 20
88.907533931563577
  0
VERTEX
  8
0
  6
CONTINUOUS
 62
3
 10
-162.463475240998180
 20
89.355642877030192
  0
VERTEX
  8
0
  6
CONTINUOUS
 62
3
 10
-163.276043204074370
 20
89.688617862592963
  0
VERTEX
  8
0
  6
CONTINUOUS
 62
3
 10
-164.157730822714480
 20
89.893662846291207
  0
VERTEX
  8
0
  6
CONTINUOUS
 62
3
 10
-165.074655336190290
 20
89.962898064391979
  0
VERTEX
  8
0
  6
CONTINUOUS
 62
3
 10
-165.991579849666100
 20
89.893662846291207
  0
VERTEX
  8
0
  6
CONTINUOUS
 62
3
 10
-166.873267468306210
 20
89.688617862592963
  0
VERTEX
  8
0
  6
CONTINUOUS
 62
3
 10
-167.685835431382400
 20
89.355642877030192
  0
VERTEX
  8
0
  6
CONTINUOUS
 62
3
 10
-168.398057207767070
 20
88.907533931563577
  0
VERTEX
  8
0
  6
CONTINUOUS
 62
3
 10
-168.982562514012240
 20
88.361511601665001
  0
VERTEX
  8
0
  6
CONTINUOUS
 62
3
 10
-169.416889138993330
 20
87.738559219259599
  0
VERTEX
  8
0
  6
CONTINUOUS
 62
3
 10
-169.684346154085460
 20
87.062616495047507
  0
VERTEX
  8
0
  6
CONTINUOUS
 62
3
 10
-169.774655336190280
 20
86.359659528847146
  0
VERTEX
  8
0
  6
CONTINUOUS
 62
3
 10
-169.684346154085460
 20
85.656702562646785
  0
VERTEX
  8
0
  6
CONTINUOUS
 62
3
 10
-169.416889138993330
 20
84.980759838434693
  0
VERTEX
  8
0
  6
CONTINUOUS
 62
3
 10
-168.982562514012240
 20
84.357807456029292
  0
VERTEX
  8
0
  6
CONTINUOUS
 62
3
 10
-168.398057207767040
 20
83.811785126130715
  0
VERTEX
  8
0
  6
CONTINUOUS
 62
3
 10
-167.685835431382400
 20
83.363676180664100
  0
VERTEX
  8
0
  6
CONTINUOUS
 62
3
 10
-166.873267468306210
 20
83.030701195101329
  0
VERTEX
  8
0
  6
CONTINUOUS
 62
3
 10
-165.991579849666100
 20
82.825656211403086
  0
VERTEX
  8
0
  6
CONTINUOUS
 62
3
 10
-165.074655336190290
 20
82.756420993302314
  0
VERTEX
  8
0
  6
CONTINUOUS
 62
3
 10
-164.157730822714480
 20
82.825656211403086
  0
VERTEX
  8
0
  6
CONTINUOUS
 62
3
 10
-163.276043204074370
 20
83.030701195101329
  0
VERTEX
  8
0
  6
CONTINUOUS
 62
3
 10
-162.463475240998180
 20
83.363676180664100
  0
VERTEX
  8
0
  6
CONTINUOUS
 62
3
 10
-161.751253464613540
 20
83.811785126130715
  0
VERTEX
  8
0
  6
CONTINUOUS
 62
3
 10
-161.166748158368340
 20
84.357807456029292
  0
VERTEX
  8
0
  6
CONTINUOUS
 62
3
 10
-160.732421533387250
 20
84.980759838434693
  0
VERTEX
  8
0
  6
CONTINUOUS
 62
3
 10
-160.464964518295120
 20
85.656702562646785
  0
SEQEND
  8
0
  6
CONTINUOUS
 62
3
  0
LINE
  8
0
  6
CONTINUOUS
 62
3
 10
-167.074655336190520
 20
83.367283974846714
 11
-165.074655336190520
 21
84.543069460469610
  0
LINE
  8
0
  6
CONTINUOUS
 62
3
 10
-165.074655336190520
 20
84.543069460469610
 11
-163.074655336190520
 21
86.195711099592927
  0
LINE
  8
0
  6
CONTINUOUS
 62
3
 10
-163.074655336190520
 20
83.367283974846714
 11
-165.074655336190520
 21
84.543069460469610
  0
LINE
  8
0
  6
CONTINUOUS
 62
3
 10
-165.074655336190520
 20
84.543069460469610
 11
-167.074655336190520
 21
86.195711099592927
  0
ARC
  8
0
  6
CONTINUOUS
 62
3
 10
-161.074655336190520
 20
76.347294122385733
 40
3.000000000000000
 50
90.000000000000000
 51
180.000000000000000
  0
LINE
  8
0
  6
CONTINUOUS
 62
3
 10
-164.074655336190520
 20
74.686990483194677
 11
-164.074655336190520
 21
76.347294122385733
  0
LINE
  8
0
  6
CONTINUOUS
 62
3
 10
-154.074655336190520
 20
192.686990483194680
 11
-154.074655336190290
 21
133.686990483194680
  0
POLYLINE
  8
0
  6
CONTINUOUS
 62
3
 66
1
 70
1
  0
VERTEX
  8
0
  6
CONTINUOUS
 62
3
 10
-160.374655336190300
 20
181.014321437542210
  0
VERTEX
  8
0
  6
CONTINUOUS
 62
3
 10
-160.464964518295120
 20
181.717278403742570
  0
VERTEX
  8
0
  6
CONTINUOUS
 62
3
 10
-160.732421533387250
 20
182.393221127954660
  0
VERTEX
  8
0
  6
CONTINUOUS
 62
3
 10
-161.166748158368340
 20
183.016173510360060
  0
VERTEX
  8
0
  6
CONTINUOUS
 62
3
 10
-161.751253464613510
 20
183.562195840258650
  0
VERTEX
  8
0
  6
CONTINUOUS
 62
3
 10
-162.463475240998180
 20
184.010304785725280
  0
VERTEX
  8
0
  6
CONTINUOUS
 62
3
 10
-163.276043204074370
 20
184.343279771288020
  0
VERTEX
  8
0
  6
CONTINUOUS
 62
3
 10
-164.157730822714480
 20
184.548324754986280
  0
VERTEX
  8
0
  6
CONTINUOUS
 62
3
 10
-165.074655336190290
 20
184.617559973087050
  0
VERTEX
  8
0
  6
CONTINUOUS
 62
3
 10
-165.991579849666100
 20
184.548324754986280
  0
VERTEX
  8
0
  6
CONTINUOUS
 62
3
 10
-166.873267468306210
 20
184.343279771288020
  0
VERTEX
  8
0
  6
CONTINUOUS
 62
3
 10
-167.685835431382400
 20
184.010304785725280
  0
VERTEX
  8
0
  6
CONTINUOUS
 62
3
 10
-168.398057207767070
 20
183.562195840258650
  0
VERTEX
  8
0
  6
CONTINUOUS
 62
3
 10
-168.982562514012240
 20
183.016173510360060
  0
VERTEX
  8
0
  6
CONTINUOUS
 62
3
 10
-169.416889138993330
 20
182.393221127954660
  0
VERTEX
  8
0
  6
CONTINUOUS
 62
3
 10
-169.684346154085460
 20
181.717278403742570
  0
VERTEX
  8
0
  6
CONTINUOUS
 62
3
 10
-169.774655336190280
 20
181.014321437542210
  0
VERTEX
  8
0
  6
CONTINUOUS
 62
3
 10
-169.684346154085460
 20
180.311364471341850
  0
VERTEX
  8
0
  6
CONTINUOUS
 62
3
 10
-169.416889138993330
 20
179.635421747129750
  0
VERTEX
  8
0
  6
CONTINUOUS
 62
3
 10
-168.982562514012240
 20
179.012469364724350
  0
VERTEX
  8
0
  6
CONTINUOUS
 62
3
 10
-168.398057207767040
 20
178.466447034825760
  0
VERTEX
  8
0
  6
CONTINUOUS
 62
3
 10
-167.685835431382400
 20
178.018338089359130
  0
VERTEX
  8
0
  6
CONTINUOUS
 62
3
 10
-166.873267468306210
 20
177.685363103796390
  0
VERTEX
  8
0
  6
CONTINUOUS
 62
3
 10
-165.991579849666100
 20
177.480318120098130
  0
VERTEX
  8
0
  6
CONTINUOUS
 62
3
 10
-165.074655336190290
 20
177.411082901997360
  0
VERTEX
  8
0
  6
CONTINUOUS
 62
3
 10
-164.157730822714480
 20
177.480318120098130
  0
VERTEX
  8
0
  6
CONTINUOUS
 62
3
 10
-163.276043204074370
 20
177.685363103796390
  0
VERTEX
  8
0
  6
CONTINUOUS
 62
3
 10
-162.463475240998180
 20
178.018338089359130
  0
VERTEX
  8
0
  6
CONTINUOUS
 62
3
 10
-161.751253464613540
 20
178.466447034825760
  0
VERTEX
  8
0
  6
CONTINUOUS
 62
3
 10
-161.166748158368340
 20
179.012469364724350
  0
VERTEX
  8
0
  6
CONTINUOUS
 62
3
 10
-160.732421533387250
 20
179.635421747129750
  0
VERTEX
  8
0
  6
CONTINUOUS
 62
3
 10
-160.464964518295120
 20
180.311364471341850
  0
SEQEND
  8
0
  6
CONTINUOUS
 62
3
  0
LINE
  8
0
  6
CONTINUOUS
 62
3
 10
-167.074655336190520
 20
184.006696991542640
 11
-165.074655336190520
 21
182.830911505919860
  0
LINE
  8
0
  6
CONTINUOUS
 62
3
 10
-165.074655336190520
 20
182.830911505919860
 11
-163.074655336190520
 21
181.178269866796430
  0
LINE
  8
0
  6
CONTINUOUS
 62
3
 10
-163.074655336190520
 20
184.006696991542640
 11
-165.074655336190520
 21
182.830911505919860
  0
LINE
  8
0
  6
CONTINUOUS
 62
3
 10
-165.074655336190520
 20
182.830911505919860
 11
-167.074655336190520
 21
181.178269866796430
  0
LINE
  8
0
  6
CONTINUOUS
 62
3
 10
-33.574655336169371
 20
187.186990483194680
 11
-154.074655336190290
 21
187.186990483194680
  0
LINE
  8
0
  6
CONTINUOUS
 62
4
 10
-154.074655336190290
 20
184.686990483194680
 11
-33.574655336169371
 21
184.686990483194680
  0
LINE
  8
0
  6
CONTINUOUS
 62
4
 10
-154.074655336190290
 20
184.186990483194680
 11
-33.574655336169371
 21
184.186990483194680
  0
LINE
  8
0
  6
CONTINUOUS
 62
4
 10
-154.074655336190290
 20
179.820073078077370
 11
-33.574655336169371
 21
179.820073078077370
  0
LINE
  8
0
  6
CONTINUOUS
 62
4
 10
-154.074655336190290
 20
174.728904253534440
 11
-33.574655336169371
 21
174.728904253534440
  0
LINE
  8
0
  6
CONTINUOUS
 62
4
 10
-154.074655336190290
 20
166.990591434703450
 11
-33.574655336169371
 21
166.990591434703450
  0
LINE
  8
0
  6
CONTINUOUS
 62
4
 10
-154.074655336190290
 20
165.401381641964690
 11
-33.574655336169371
 21
165.401381641964690
  0
LINE
  8
0
  6
CONTINUOUS
 62
4
 10
-154.074655336190290
 20
162.443386033831760
 11
-33.574655336169371
 21
162.443386033831760
  0
LINE
  8
0
  6
CONTINUOUS
 62
4
 10
-154.074655336190290
 20
160.964362880354770
 11
-33.574655336169371
 21
160.964362880354770
  0
LINE
  8
0
  6
CONTINUOUS
 62
4
 10
-154.074655336190290
 20
157.871631888689420
 11
-33.574655336169371
 21
157.871631888689420
  0
LINE
  8
0
  6
CONTINUOUS
 62
4
 10
-154.074655336190290
 20
156.525230163190830
 11
-33.574655336169371
 21
156.525230163190830
  0
LINE
  8
0
  6
CONTINUOUS
 62
4
 10
-154.074655336190290
 20
153.315025139832530
 11
-33.574655336169371
 21
153.315025139832530
  0
LINE
  8
0
  6
CONTINUOUS
 62
4
 10
-154.074655336190290
 20
152.073105274944620
 11
-33.574655336169371
 21
152.073105274944620
  0
LINE
  8
0
  6
CONTINUOUS
 62
4
 10
-154.074655336190290
 20
147.686990483194680
 11
-33.574655336169371
 21
147.686990483194680
  0
LINE
  8
0
  6
CONTINUOUS
 62
4
 10
-154.074655336190060
 20
119.686990483194670
 11
-33.574655336169371
 21
119.686990483194670
  0
LINE
  8
0
  6
CONTINUOUS
 62
4
 10
-154.074655336190060
 20
115.300875691444730
 11
-33.574655336169371
 21
115.300875691444730
  0
LINE
  8
0
  6
CONTINUOUS
 62
4
 10
-154.074655336190060
 20
114.058955826556820
 11
-33.574655336169371
 21
114.058955826556820
  0
LINE
  8
0
  6
CONTINUOUS
 62
4
 10
-154.074655336190060
 20
110.848750803198520
 11
-33.574655336169371
 21
110.848750803198520
  0
LINE
  8
0
  6
CONTINUOUS
 62
4
 10
-154.074655336190060
 20
109.502349077699930
 11
-33.574655336169371
 21
109.502349077699930
  0
LINE
  8
0
  6
CONTINUOUS
 62
4
 10
-154.074655336190060
 20
106.409618086034690
 11
-33.574655336169371
 21
106.409618086034690
  0
LINE
  8
0
  6
CONTINUOUS
 62
4
 10
-154.074655336190060
 20
104.930594932557590
 11
-33.574655336169371
 21
104.930594932557590
  0
LINE
  8
0
  6
CONTINUOUS
 62
4
 10
-154.074655336190060
 20
100.383389531686020
 11
-33.574655336169371
 21
100.383389531686020
  0
LINE
  8
0
  6
CONTINUOUS
 62
4
 10
-154.074655336190060
 20
101.972599324424660
 11
-33.574655336169371
 21
101.972599324424660
  0
LINE
  8
0
  6
CONTINUOUS
 62
4
 10
-154.074655336190060
 20
92.645076712854916
 11
-33.574655336169371
 21
92.645076712854916
  0
LINE
  8
0
  6
CONTINUOUS
 62
4
 10
-154.074655336190060
 20
87.553907888311983
 11
-33.574655336169371
 21
87.553907888312096
  0
LINE
  8
0
  6
CONTINUOUS
 62
4
 10
-154.074655336190060
 20
83.186990483194677
 11
-33.574655336169371
 21
83.186990483194677
  0
LINE
  8
0
  6
CONTINUOUS
 62
4
 10
-154.074655336190060
 20
82.686990483194677
 11
-33.574655336169371
 21
82.686990483194677
  0
LINE
  8
0
  6
CONTINUOUS
 62
3
 10
-87.074655336169144
 20
81.186990483194791
 11
-154.308124030587810
 21
81.186990483194791
  0
LINE
  8
0
  6
CONTINUOUS
 62
3
 10
-162.074655336169140
 20
76.186990483194677
 11
-162.074655336169140
 21
79.175721247139336
  0
LINE
  8
0
  6
CONTINUOUS
 62
3
 10
-164.074655336190520
 20
74.686990483194677
 11
-183.579500285283300
 21
74.686990483194677
  0
LINE
  8
0
  6
CONTINUOUS
 62
3
 10
-154.074655336190520
 20
192.686990483194680
 11
-183.579500285283300
 21
192.686990483194680
  0
ARC
  8
0
  6
CONTINUOUS
 62
3
 10
-183.579500285283300
 20
95.286990483194700
 40
20.599999999999891
 50
235.000000000000400
 51
270.000000000000000
  0
ARC
  8
0
  6
CONTINUOUS
 62
3
 10
-201.474655336190610
 20
85.843370349565362
 40
2.600000000000136
 50
180.000000000000000
 51
234.999999999997390
  0
LINE
  8
0
  6
CONTINUOUS
 62
3
 10
-195.395174874114670
 20
78.412458370841478
 11
-202.965954070703450
 21
83.713575034414021
  0
LINE
  8
0
  6
CONTINUOUS
 62
3
 10
-204.074655336190740
 20
85.843370349565362
 11
-204.074655336190740
 21
133.686990483194680
  0
ARC
  8
0
  6
CONTINUOUS
 62
3
 10
-183.579500285283300
 20
172.086990483194650
 40
20.600000000000023
 50
90.000000000000000
 51
124.999999999999600
  0
ARC
  8
0
  6
CONTINUOUS
 62
3
 10
-201.474655336190610
 20
181.530610616823990
 40
2.600000000000131
 50
125.000000000001180
 51
180.000000000000000
  0
LINE
  8
0
  6
CONTINUOUS
 62
3
 10
-195.395174874114670
 20
188.961522595547990
 11
-202.965954070703450
 21
183.660405931975330
  0
LINE
  8
0
  6
CONTINUOUS
 62
3
 10
-204.074655336190740
 20
181.530610616823990
 11
-204.074655336190520
 21
133.686990483194680
  0
ARC
  8
0
  6
CONTINUOUS
 62
3
 10
28.925344663837905
 20
58.419041290764198
 40
2.000000000000164
 50
299.999999999997270
 51
0.000000000000000
  0
ARC
  8
0
  6
CONTINUOUS
 62
3
 10
30.925344663838359
 20
54.954939675626065
 40
2.000000000000391
 50
120.000000000008560
 51
180.000000000000000
  0
LINE
  8
0
  6
DASHDOT
 62
4
 10
-7.574655336165733
 20
123.986211124266900
 11
-7.574655336165733
 21
144.846480426972850
  0
LINE
  8
0
  6
CONTINUOUS
 62
3
 10
8.425344663834267
 20
76.386990483196882
 11
8.425344663834267
 21
74.186990483194677
  0
LINE
  8
0
  6
CONTINUOUS
 62
3
 10
8.425344663834267
 20
190.986990483192530
 11
8.425344663834267
 21
193.186990483194620
  0
LINE
  8
0
  6
DASHDOT
 62
4
 10
-232.943504896083140
 20
133.686990483194680
 11
224.585170750741550
 21
133.686990483194680
  0
LINE
  8
0
  6
CONTINUOUS
 62
3
 10
8.425344663835631
 20
150.686990483195530
 11
8.425344663838359
 21
193.186990483195530
  0
LINE
  8
0
  6
CONTINUOUS
 62
3
 10
8.425344663838359
 20
193.186990483195530
 11
28.082352532566119
 21
194.217170612943790
  0
ARC
  8
0
  6
CONTINUOUS
 62
3
 10
27.925344663837450
 20
197.213059217207440
 40
2.999999999999925
 50
272.999999999996990
 51
359.999999999991300
  0
LINE
  8
0
  6
CONTINUOUS
 62
3
 10
30.925344663834721
 20
157.186990483194620
 11
30.925344663839269
 21
225.686990483194170
  0
LINE
  8
0
  6
CONTINUOUS
 62
3
 10
28.925344663838132
 20
212.419041290763460
 11
28.925344663839269
 21
225.686990483194170
  0
LINE
  8
0
  6
CONTINUOUS
 62
3
 10
23.425345617512676
 20
211.186990483194620
 11
23.425345617513130
 21
224.186990483194620
  0
LINE
  8
0
  6
CONTINUOUS
 62
3
 10
23.425346881998166
 20
224.186990460493630
 11
22.925345931804941
 21
223.321060889425500
  0
LINE
  8
0
  6
CONTINUOUS
 62
3
 10
23.425346255370414
 20
211.186990459126660
 11
22.925346229223351
 21
212.053114599260820
  0
LINE
  8
0
  6
CONTINUOUS
 62
3
 10
28.925344663839041
 20
224.186990483194390
 11
23.425346571187447
 21
224.186990483194620
  0
LINE
  8
0
  6
CONTINUOUS
 62
3
 10
29.349892091537640
 20
211.186990483194280
 11
23.425345617512676
 21
211.186990483194620
  0
LINE
  8
0
  6
CONTINUOUS
 62
3
 10
22.925345617512676
 20
212.053114636332280
 11
22.925345617513130
 21
223.321060879618410
  0
ARC
  8
0
  6
CONTINUOUS
 62
3
 10
30.925344663839269
 20
225.686990483194170
 40
2.000000000000000
 50
90.000000000000000
 51
180.000000000000000
  0
LINE
  8
0
  6
CONTINUOUS
 62
3
 10
43.425344663832902
 20
227.686990483193260
 11
30.925344663839269
 21
227.686990483194170
  0
ARC
  8
0
  6
CONTINUOUS
 62
3
 10
30.925344663838359
 20
212.419041290763230
 40
2.000000000000000
 50
180.000000000000000
 51
239.999999999991450
  0
ARC
  8
0
  6
CONTINUOUS
 62
3
 10
28.925344663837905
 20
208.954939675625100
 40
2.000000000000000
 50
0.000000000000000
 51
60.000000000002721
  0
LINE
  8
0
  6
CONTINUOUS
 62
3
 10
8.425344663834721
 20
133.686990483195590
 11
8.425344663835176
 21
137.686990483195590
  0
LINE
  8
0
  6
CONTINUOUS
 62
3
 10
19.925344663840178
 20
154.186990483195070
 11
15.425344663839269
 21
154.186990483195070
  0
LINE
  8
0
  6
CONTINUOUS
 62
3
 10
19.925344663839269
 20
133.686990483195590
 11
19.925344663840178
 21
154.186990483195070
  0
LINE
  8
0
  6
CONTINUOUS
 62
3
 10
15.425344663838359
 20
133.686990483195130
 11
15.425344663839269
 21
154.186990483195070
  0
ARC
  8
0
  6
CONTINUOUS
 62
3
 10
27.925344663834721
 20
157.186990483194620
 40
3.000000000000000
 50
270.000000000000000
 51
359.999999999991300
  0
LINE
  8
0
  6
CONTINUOUS
 62
3
 10
27.925344663834267
 20
154.186990483194620
 11
22.925344663840178
 21
154.186990483194620
  0
ARC
  8
0
  6
CONTINUOUS
 62
3
 10
22.925344663840178
 20
151.186990483194620
 40
3.000000000000000
 50
90.000000000000000
 51
179.999999999991330
  0
ARC
  8
0
  6
CONTINUOUS
 62
3
 10
32.925344663839269
 20
225.686990483194170
 40
2.000000000000000
 50
90.000000000000000
 51
180.000000000000000
  0
LINE
  8
0
  6
CONTINUOUS
 62
3
 10
42.925344663832902
 20
133.686990483194680
 11
42.925344663839269
 21
227.686990483193260
  0
LINE
  8
0
  6
CONTINUOUS
 62
3
 10
8.425344663834721
 20
116.686990483195580
 11
8.425344663834721
 21
74.186990483195586
  0
LINE
  8
0
  6
CONTINUOUS
 62
3
 10
8.425344663834721
 20
74.186990483195586
 11
28.082352532562027
 21
73.156810353446417
  0
ARC
  8
0
  6
CONTINUOUS
 62
3
 10
27.925344663832902
 20
70.160921749182762
 40
3.000000000000000
 50
0.000000000000000
 51
86.999999999994344
  0
LINE
  8
0
  6
CONTINUOUS
 62
3
 10
30.925344663832902
 20
110.186990483195580
 11
30.925344663832902
 21
41.686990483195586
  0
LINE
  8
0
  6
CONTINUOUS
 62
3
 10
28.925344663832902
 20
54.954939675626065
 11
28.925344663832902
 21
41.686990483195586
  0
LINE
  8
0
  6
CONTINUOUS
 62
3
 10
23.425345617507219
 20
56.186990483195586
 11
23.425345617507219
 21
43.186990483195586
  0
LINE
  8
0
  6
CONTINUOUS
 62
3
 10
23.425346881992255
 20
43.186990505896574
 11
22.925345931799484
 21
44.052920076965165
  0
LINE
  8
0
  6
CONTINUOUS
 62
3
 10
23.425346255364957
 20
56.186990507263545
 11
22.925346229217894
 21
55.320866367129838
  0
LINE
  8
0
  6
CONTINUOUS
 62
3
 10
28.925344663832902
 20
43.186990483195586
 11
23.425346571181535
 21
43.186990483195586
  0
LINE
  8
0
  6
CONTINUOUS
 62
3
 10
29.349892091538095
 20
56.186990483195586
 11
23.425345617507219
 21
56.186990483195586
  0
LINE
  8
0
  6
CONTINUOUS
 62
3
 10
22.925345617507219
 20
55.320866330058379
 11
22.925345617507219
 21
44.052920086772247
  0
ARC
  8
0
  6
CONTINUOUS
 62
3
 10
30.925344663832902
 20
41.686990483195586
 40
2.000000000000000
 50
180.000000000000000
 51
270.000000000000000
  0
LINE
  8
0
  6
CONTINUOUS
 62
3
 10
43.425344663832902
 20
39.686990483195586
 11
30.925344663832902
 21
39.686990483195586
  0
LINE
  8
0
  6
CONTINUOUS
 62
3
 10
8.425344663834721
 20
133.686990483195590
 11
8.425344663834721
 21
129.686990483195590
  0
LINE
  8
0
  6
CONTINUOUS
 62
3
 10
19.925344663839269
 20
113.186990483195580
 11
15.425344663838359
 21
113.186990483195580
  0
LINE
  8
0
  6
CONTINUOUS
 62
3
 10
19.925344663839269
 20
133.686990483195130
 11
19.925344663839269
 21
113.186990483195580
  0
LINE
  8
0
  6
CONTINUOUS
 62
3
 10
15.425344663838359
 20
133.686990483195590
 11
15.425344663838359
 21
113.186990483195580
  0
ARC
  8
0
  6
CONTINUOUS
 62
3
 10
27.925344663832902
 20
110.186990483195580
 40
3.000000000000000
 50
0.000000000000000
 51
90.000000000000000
  0
LINE
  8
0
  6
CONTINUOUS
 62
3
 10
27.925344663832902
 20
113.186990483195580
 11
22.925344663839269
 21
113.186990483195580
  0
ARC
  8
0
  6
CONTINUOUS
 62
3
 10
22.925344663839269
 20
116.186990483195580
 40
3.000000000000000
 50
180.000000000000000
 51
270.000000000000000
  0
ARC
  8
0
  6
CONTINUOUS
 62
3
 10
32.925344663832902
 20
41.686990483195586
 40
2.000000000000000
 50
180.000000000000000
 51
270.000000000000000
  0
LINE
  8
0
  6
CONTINUOUS
 62
3
 10
42.925344663832902
 20
133.686990483194220
 11
42.925344663832902
 21
39.686990483195586
  0
LINE
  8
0
  6
CONTINUOUS
 62
3
 10
43.425344663832902
 20
227.686990483193710
 11
124.530043153940590
 21
230.519228963863900
  0
LINE
  8
0
  6
CONTINUOUS
 62
3
 10
43.425344663832902
 20
39.686990483195586
 11
124.530043153940590
 21
36.854752002525402
  0
LINE
  8
0
  6
CONTINUOUS
 62
3
 10
43.425344663832902
 20
39.686990483195586
 11
43.425344663832902
 21
227.686990483194170
  0
LINE
  8
0
  6
CONTINUOUS
 62
3
 10
-1.574655336168007
 20
164.117567406477350
 11
-15.574655336203023
 21
164.117567406477350
  0
ARC
  8
0
  6
CONTINUOUS
 62
3
 10
-15.574655336203023
 20
167.117567406477350
 40
3.000000000000000
 50
180.000000000000000
 51
270.000000000000000
  0
ARC
  8
0
  6
CONTINUOUS
 62
3
 10
-23.574655336203023
 20
179.686990483194620
 40
5.000000000000000
 50
0.000000000000000
 51
90.000000000000000
  0
LINE
  8
0
  6
CONTINUOUS
 62
3
 10
-33.574655336171872
 20
184.686990483194620
 11
-23.574655336203023
 21
184.686990483194620
  0
ARC
  8
0
  6
CONTINUOUS
 62
3
 10
-23.574655336203023
 20
182.186990483194620
 40
5.000000000000000
 50
0.000000000000000
 51
90.000000000000000
  0
LINE
  8
0
  6
CONTINUOUS
 62
3
 10
-33.574655336171986
 20
187.186990483194620
 11
-4.574655336168007
 21
187.186990483194620
  0
LINE
  8
0
  6
CONTINUOUS
 62
3
 10
-18.574655336203023
 20
182.186990483194620
 11
-18.574655336203023
 21
149.686990483194620
  0
LINE
  8
0
  6
CONTINUOUS
 62
3
 10
-33.574655336169371
 20
187.186990483194620
 11
-33.574655336169371
 21
133.686990483194620
  0
LINE
  8
0
  6
CONTINUOUS
 62
3
 10
-33.574655336169371
 20
80.186990483194620
 11
-33.574655336169371
 21
133.686990483194620
  0
LINE
  8
0
  6
CONTINUOUS
 62
3
 10
-1.574655336168007
 20
103.256413559911890
 11
-15.574655336203023
 21
103.256413559911890
  0
ARC
  8
0
  6
CONTINUOUS
 62
3
 10
-15.574655336203023
 20
100.256413559911890
 40
3.000000000000000
 50
90.000000000000000
 51
180.000000000000000
  0
ARC
  8
0
  6
CONTINUOUS
 62
3
 10
-15.574655336203023
 20
117.686990483194620
 40
3.000000000000000
 50
90.000000000000000
 51
180.000000000000000
  0
LINE
  8
0
  6
CONTINUOUS
 62
3
 10
-33.574655336170053
 20
120.686990483194620
 11
3.425344663831766
 21
120.686990483194620
  0
LINE
  8
0
  6
CONTINUOUS
 62
3
 10
-18.574655336203023
 20
85.186990483194620
 11
-18.574655336203023
 21
117.686990483194620
  0
ARC
  8
0
  6
CONTINUOUS
 62
3
 10
-23.574655336203023
 20
87.686990483194620
 40
5.000000000000000
 50
270.000000000000000
 51
0.000000000000000
  0
LINE
  8
0
  6
CONTINUOUS
 62
3
 10
-33.574655336171872
 20
82.686990483194620
 11
-23.574655336203023
 21
82.686990483194620
  0
ARC
  8
0
  6
CONTINUOUS
 62
3
 10
-23.574655336203023
 20
85.186990483194620
 40
5.000000000000000
 50
270.000000000000000
 51
0.000000000000000
  0
LINE
  8
0
  6
CONTINUOUS
 62
3
 10
-33.574655336171986
 20
80.186990483194620
 11
-4.574655336168007
 21
80.186990483194620
  0
ARC
  8
0
  6
CONTINUOUS
 62
3
 10
-15.574655336203023
 20
149.686990483194620
 40
3.000000000000000
 50
180.000000000000000
 51
270.000000000000000
  0
LINE
  8
0
  6
CONTINUOUS
 62
3
 10
-33.574655336170053
 20
146.686990483194620
 11
3.425344663831766
 21
146.686990483194620
  0
CIRCLE
  8
0
  6
CONTINUOUS
 62
3
 10
-7.574655336168234
 20
133.686990483194620
 40
8.349999999999909
  0
LINE
  8
0
  6
DASHDOT
 62
4
 10
-7.574655336168234
 20
123.986211124266840
 11
-7.574655336168234
 21
144.846480426972850
  0
LINE
  8
0
  6
CONTINUOUS
 62
3
 10
-1.574655336168007
 20
189.816018990219670
 11
-1.574655336168007
 21
146.686990483194620
  0
ARC
  8
0
  6
CONTINUOUS
 62
3
 10
0.425344663831993
 20
162.117567406477350
 40
2.000000000000000
 50
90.000000000000000
 51
180.000000000000000
  0
ARC
  8
0
  6
CONTINUOUS
 62
3
 10
0.425344663831766
 20
166.117567406477350
 40
2.000000000000000
 50
270.000000000000000
 51
0.000000000000000
  0
LINE
  8
0
  6
CONTINUOUS
 62
3
 10
2.425344663831766
 20
190.974614674066690
 11
2.425344663831766
 21
166.117567406477350
  0
ARC
  8
0
  6
CONTINUOUS
 62
3
 10
-4.574655336168007
 20
190.186990483194620
 40
3.000000000000000
 50
270.000000000000000
 51
0.000000000000000
  0
ARC
  8
0
  6
CONTINUOUS
 62
3
 10
1.425344663831993
 20
189.816018990219670
 40
2.999999999999925
 50
92.999999999996973
 51
180.000000000000000
  0
LINE
  8
0
  6
CONTINUOUS
 62
3
 10
8.425344663831766
 20
193.186990483194620
 11
1.268336795103210
 21
192.811907594483440
  0
ARC
  8
0
  6
CONTINUOUS
 62
3
 10
4.425344663831766
 20
190.974614674066690
 40
1.999999999999992
 50
92.999999999999091
 51
180.000000000000000
  0
LINE
  8
0
  6
CONTINUOUS
 62
3
 10
-1.574655336168007
 20
77.186990483194620
 11
-1.574655336168007
 21
120.686990483194620
  0
ARC
  8
0
  6
CONTINUOUS
 62
3
 10
0.425344663831993
 20
105.256413559911890
 40
2.000000000000000
 50
180.000000000000000
 51
270.000000000000000
  0
ARC
  8
0
  6
CONTINUOUS
 62
3
 10
0.425344663831766
 20
101.256413559911890
 40
2.000000000000000
 50
0.000000000000000
 51
90.000000000000000
  0
LINE
  8
0
  6
CONTINUOUS
 62
3
 10
2.425344663831766
 20
76.399366292322554
 11
2.425344663831766
 21
101.256413559911890
  0
ARC
  8
0
  6
CONTINUOUS
 62
3
 10
-4.574655336168007
 20
77.186990483194620
 40
3.000000000000000
 50
0.000000000000000
 51
90.000000000000000
  0
ARC
  8
0
  6
CONTINUOUS
 62
3
 10
1.425344663831993
 20
77.557961976169565
 40
3.000000000000000
 50
180.000000000000000
 51
267.000000000003010
  0
LINE
  8
0
  6
CONTINUOUS
 62
3
 10
8.425344663831766
 20
74.186990483194620
 11
1.268336795103210
 21
74.562073371905797
  0
ARC
  8
0
  6
CONTINUOUS
 62
3
 10
4.425344663831766
 20
76.399366292322554
 40
2.000000000000000
 50
180.000000000000000
 51
267.000000000000910
  0
ARC
  8
0
  6
CONTINUOUS
 62
3
 10
3.425344663831766
 20
143.686990483194620
 40
3.000000000000000
 50
0.000000000000000
 51
90.000000000000000
  0
LINE
  8
0
  6
CONTINUOUS
 62
3
 10
6.425344663831766
 20
143.686990483194620
 11
6.425344663831766
 21
133.686990483194620
  0
ARC
  8
0
  6
CONTINUOUS
 62
3
 10
3.425344663831766
 20
123.686990483194620
 40
3.000000000000000
 50
270.000000000000000
 51
0.000000000000000
  0
LINE
  8
0
  6
CONTINUOUS
 62
3
 10
6.425344663831766
 20
123.686990483194620
 11
6.425344663831766
 21
133.686990483194620
  0
LINE
  8
0
  6
CONTINUOUS
 62
3
 10
8.425344663831766
 20
190.986990483192410
 11
8.425344663831766
 21
193.186990483194620
  0
LINE
  8
0
  6
CONTINUOUS
 62
3
 10
8.425344663831766
 20
76.386990483196826
 11
8.425344663831766
 21
74.186990483194620
  0
INSERT
  8
0
  2
SYM13
 10
-335.496567285077390
 20
-80.317390417765566
  0
INSERT
  8
0
  2
SYM14
 10
-356.496567285076940
 20
-80.317390417765566
 41
-1.000000000000000
  0
INSERT
  8
0
  2
SYM15
 10
-301.802393460917760
 20
-215.511564241923110
 41
-1.000000000000000
  0
INSERT
  8
0
  2
SYM16
 10
-390.190741109236340
 20
-215.511564241923110
  0
INSERT
  8
0
  2
SYM17
 10
-397.996567285076940
 20
-254.317390417764160
 41
-1.000000000000000
  0
INSERT
  8
0
  2
SYM18
 10
-429.996567285076480
 20
-166.317390417764160
 41
-1.000000000000000
  0
INSERT
  8
0
  2
SYM19
 10
-395.996567285076940
 20
-90.317390417764145
 41
-1.000000000000000
  0
INSERT
  8
0
  2
SYM20
 10
-293.996567285077160
 20
-254.317390417764160
  0
INSERT
  8
0
  2
SYM21
 10
-295.996567285077160
 20
-90.317390417764145
  0
ARC
  8
0
  6
CONTINUOUS
 62
3
 10
-361.496567285077390
 20
-89.317390417764202
 40
5.000000000000000
 50
180.000000000000000
 51
231.841677908120540
  0
ARC
  8
0
  6
CONTINUOUS
 62
3
 10
-330.496567285077390
 20
-89.317390417764202
 40
5.000000000000165
 50
308.158322091879430
 51
0.000000000000000
  0
LINE
  8
0
  6
CONTINUOUS
 62
3
 10
-348.996567285077390
 20
-46.777998403594651
 11
-348.996567285077390
 21
-65.856782431933638
  0
LINE
  8
0
  6
CONTINUOUS
 62
3
 10
-342.996567285077390
 20
-46.777998403594651
 11
-342.996567285077390
 21
-65.856782431933638
  0
ARC
  8
0
  6
CONTINUOUS
 62
3
 10
-330.349116441319210
 20
-214.817390417764160
 40
15.000000000000000
 50
270.000000000000000
 51
280.304846468766810
  0
LINE
  8
0
  6
CONTINUOUS
 62
3
 10
-309.211793425082990
 20
-226.220158806855920
 11
-327.665834868319280
 21
-229.575439069262640
  0
ARC
  8
0
  6
CONTINUOUS
 62
3
 10
-311.895074998082690
 20
-211.462110155357440
 40
14.999999999999867
 50
280.304846468765960
 51
315.000000000000000
  0
LINE
  8
0
  6
CONTINUOUS
 62
3
 10
-295.078422924900450
 20
-215.858661517771790
 11
-301.288473280284510
 21
-222.068711873155620
  0
ARC
  8
0
  6
CONTINUOUS
 62
3
 10
-305.685024642698640
 20
-205.252059799973610
 40
14.999999999999961
 50
315.000000000000000
 51
350.000000000000000
  0
LINE
  8
0
  6
CONTINUOUS
 62
3
 10
-286.496567285076940
 20
-176.817390417764160
 11
-286.496567285076940
 21
-190.317390417764160
  0
LINE
  8
0
  6
CONTINUOUS
 62
3
 10
-288.137008496187260
 20
-192.113872105060070
 11
-290.912908347515670
 21
-207.856782464977530
  0
ARC
  8
0
  6
CONTINUOUS
 62
3
 10
-287.496567285076940
 20
-190.317390417764160
 40
1.000000000000028
 50
279.914783369142580
 51
0.000000000000000
  0
ARC
  8
0
  6
CONTINUOUS
 62
3
 10
-287.152200743175170
 20
-192.287520282727090
 40
1.000000000000028
 50
99.914783369142555
 51
169.999999999993860
  0
ARC
  8
0
  6
CONTINUOUS
 62
3
 10
-361.644018128834660
 20
-214.817390417764160
 40
14.999999999999908
 50
259.695153531233190
 51
270.000000000000000
  0
LINE
  8
0
  6
CONTINUOUS
 62
3
 10
-382.781341145070880
 20
-226.220158806855920
 11
-364.327299701834590
 21
-229.575439069262640
  0
ARC
  8
0
  6
CONTINUOUS
 62
3
 10
-380.098059572070950
 20
-211.462110155357440
 40
14.999999999999961
 50
225.000000000000000
 51
259.695153531233190
  0
LINE
  8
0
  6
CONTINUOUS
 62
3
 10
-396.914711645253420
 20
-215.858661517771790
 11
-390.704661289869140
 21
-222.068711873155620
  0
ARC
  8
0
  6
CONTINUOUS
 62
3
 10
-386.308109927455230
 20
-205.252059799973610
 40
14.999999999999844
 50
189.999999999999970
 51
225.000000000000000
  0
LINE
  8
0
  6
CONTINUOUS
 62
3
 10
-405.496567285076940
 20
-171.317390417764160
 11
-405.496567285076940
 21
-190.317390417764160
  0
LINE
  8
0
  6
CONTINUOUS
 62
3
 10
-403.856126073966830
 20
-192.113872105060070
 11
-401.080226222638200
 21
-207.856782464977530
  0
ARC
  8
0
  6
CONTINUOUS
 62
3
 10
-404.496567285076940
 20
-190.317390417764160
 40
1.000000000000000
 50
180.000000000000000
 51
260.085216630857420
  0
ARC
  8
0
  6
CONTINUOUS
 62
3
 10
-404.840933826978700
 20
-192.287520282727090
 40
0.999999999999677
 50
10.000000000008416
 51
80.085216630857445
  0
LINE
  8
0
  6
CONTINUOUS
 62
3
 10
-405.496567285076940
 20
-171.317390417764160
 11
-405.496567285076940
 21
-152.317390417764160
  0
ARC
  8
0
  6
CONTINUOUS
 62
3
 10
-404.496567285076940
 20
-152.317390417764160
 40
0.999999999999490
 50
117.683035930785150
 51
180.000000000000000
  0
LINE
  8
0
  6
CONTINUOUS
 62
3
 10
-327.496567285076940
 20
-201.144449689845600
 11
-327.496567285076940
 21
-225.817390417764160
  0
LINE
  8
0
  6
CONTINUOUS
 62
3
 10
-364.496567285076940
 20
-201.144449689845830
 11
-364.496567285076940
 21
-225.817390417764160
  0
LINE
  8
0
  6
CONTINUOUS
 62
3
 10
-323.496567285076940
 20
-200.817390417764160
 11
-323.496567285076940
 21
-228.817390417764160
  0
LINE
  8
0
  6
CONTINUOUS
 62
3
 10
-368.496567285076940
 20
-200.817390417764160
 11
-368.496567285076940
 21
-228.817390417764160
  0
ARC
  8
0
  6
CONTINUOUS
 62
3
 10
-294.836970151590320
 20
-201.317390417764160
 40
5.000000000000000
 50
270.000000000000000
 51
350.000000000000340
  0
LINE
  8
0
  6
CONTINUOUS
 62
3
 10
-294.836970151590320
 20
-206.317390417764160
 11
-299.611628996878380
 21
-206.317390417764160
  0
ARC
  8
0
  6
CONTINUOUS
 62
3
 10
-299.611628996878380
 20
-211.317390417764160
 40
5.000000000000000
 50
90.000000000000000
 51
139.227195305956340
  0
ARC
  8
0
  6
CONTINUOUS
 62
3
 10
-345.996567285076940
 20
-171.317390417764160
 40
56.250000000000128
 50
296.678234450809610
 51
319.227195305957140
  0
ARC
  8
0
  6
CONTINUOUS
 62
3
 10
-318.496567285076940
 20
-226.046838615238240
 40
4.999999999999867
 50
116.678234450809640
 51
180.000000000000000
  0
ARC
  8
0
  6
CONTINUOUS
 62
3
 10
-397.156164418563780
 20
-201.317390417764160
 40
4.999999999999649
 50
190.000000000000570
 51
270.000000000000000
  0
LINE
  8
0
  6
CONTINUOUS
 62
3
 10
-397.156164418563780
 20
-206.317390417764160
 11
-392.381505573275490
 21
-206.317390417764160
  0
ARC
  8
0
  6
CONTINUOUS
 62
3
 10
-392.381505573275490
 20
-211.317390417764160
 40
4.999999999999657
 50
40.772804694045341
 51
90.000000000000000
  0
ARC
  8
0
  6
CONTINUOUS
 62
3
 10
-345.996567285076940
 20
-171.317390417764160
 40
56.250000000000249
 50
220.772804694042720
 51
243.321765549190420
  0
ARC
  8
0
  6
CONTINUOUS
 62
3
 10
-373.496567285076940
 20
-226.046838615238240
 40
5.000000000000000
 50
0.000000000000000
 51
63.321765549190360
  0
ARC
  8
0
  6
CONTINUOUS
 62
3
 10
-330.496567285076940
 20
-201.144449689845600
 40
3.000000000000000
 50
0.000000000000000
 51
14.478806236573739
  0
ARC
  8
0
  6
CONTINUOUS
 62
3
 10
-320.496567285076940
 20
-200.817390417764160
 40
3.000000000000835
 50
167.756347132292660
 51
180.000000000000000
  0
ARC
  8
0
  6
CONTINUOUS
 62
3
 10
-361.496567285076940
 20
-201.144449689845830
 40
3.000000000000101
 50
165.521193763419260
 51
180.000000000000000
  0
ARC
  8
0
  6
CONTINUOUS
 62
3
 10
-371.496567285076940
 20
-200.817390417764160
 40
3.000000000000000
 50
0.000000000000000
 51
12.243652867701085
  0
ARC
  8
0
  6
CONTINUOUS
 62
3
 10
-330.496567285076940
 20
-225.817390417764160
 40
3.000000000000000
 50
270.000000000000000
 51
0.000000000000000
  0
ARC
  8
0
  6
CONTINUOUS
 62
3
 10
-361.496567285076940
 20
-225.817390417764160
 40
3.000000000000000
 50
180.000000000000000
 51
270.000000000000000
  0
ARC
  8
0
  6
CONTINUOUS
 62
3
 10
-345.996567285076940
 20
-171.317390417764160
 40
60.000000000000036
 50
257.161431859015810
 51
282.838568140984190
  0
LINE
  8
0
  6
CONTINUOUS
 62
3
 10
-332.664275659103400
 20
-229.817390417764160
 11
-330.349116441319210
 21
-229.817390417764160
  0
LINE
  8
0
  6
CONTINUOUS
 62
3
 10
-359.328858911050470
 20
-229.817390417764160
 11
-361.644018128834660
 21
-229.817390417764160
  0
LINE
  8
0
  6
CONTINUOUS
 62
3
 10
-325.496567285077160
 20
-46.317390417764145
 11
-325.496567285077160
 21
-89.317390417764202
  0
ARC
  8
0
  6
CONTINUOUS
 62
3
 10
-335.496567285077390
 20
-46.317390417764145
 40
10.000000000000227
 50
0.000000000000000
 51
90.000000000000000
  0
LINE
  8
0
  6
CONTINUOUS
 62
3
 10
-335.496567285077390
 20
-36.317390417764145
 11
-356.496567285077390
 21
-36.317390417764145
  0
ARC
  8
0
  6
CONTINUOUS
 62
3
 10
-356.496567285077390
 20
-46.317390417764145
 40
10.000000000000000
 50
90.000000000000000
 51
180.000000000000000
  0
LINE
  8
0
  6
CONTINUOUS
 62
3
 10
-366.496567285077390
 20
-46.317390417764145
 11
-366.496567285077390
 21
-89.317390417764202
  0
CIRCLE
  8
0
  6
CONTINUOUS
 62
3
 10
-345.996567285077390
 20
-56.317390417764145
 40
10.000000000000000
  0
LINE
  8
0
  6
DASHDOT
 62
4
 10
-322.828654286195610
 20
-56.317390417764145
 11
-369.851168187730540
 21
-56.317390417764145
  0
LINE
  8
0
  6
CONTINUOUS
 62
3
 10
-437.996567285077390
 20
-154.317390417764160
 11
-430.996567285077390
 21
-154.317390417764160
  0
LINE
  8
0
  6
CONTINUOUS
 62
3
 10
-436.494564512208630
 20
-138.317390417764160
 11
-430.996567285077390
 21
-138.317390417764160
  0
LINE
  8
0
  6
CONTINUOUS
 62
3
 10
-255.498570057945700
 20
-138.317390417764160
 11
-259.117008128405360
 21
-138.317390417764160
  0
LINE
  8
0
  6
CONTINUOUS
 62
3
 10
-253.996567285076940
 20
-154.317390417764160
 11
-259.090331938094320
 21
-154.317390417764160
  0
LINE
  8
0
  6
CONTINUOUS
 62
3
 10
-439.996567285077390
 20
-151.550788601945560
 11
-439.996567285077390
 21
-207.303498848657340
  0
LINE
  8
0
  6
CONTINUOUS
 62
3
 10
-397.996567285077390
 20
-264.317390417764160
 11
-345.996567285077390
 21
-264.317390417764160
  0
LINE
  8
0
  6
CONTINUOUS
 62
3
 10
-293.996567285077160
 20
-264.317390417764160
 11
-345.996567285077390
 21
-264.317390417764160
  0
LINE
  8
0
  6
CONTINUOUS
 62
3
 10
-251.996567285076940
 20
-151.550788601945560
 11
-251.996567285076940
 21
-207.303498848657340
  0
LINE
  8
0
  6
CONTINUOUS
 62
4
 10
-345.996567285077390
 20
-171.317390417764160
 11
-345.613162057052020
 21
-170.933985189739020
  0
ARC
  8
0
  6
CONTINUOUS
 62
3
 10
-437.996567285077390
 20
-156.317390417764160
 40
2.000000000000000
 50
90.000000000000000
 51
180.000000000000000
  0
ARC
  8
0
  6
CONTINUOUS
 62
3
 10
-430.996567285077390
 20
-146.317390417764160
 40
8.000000000000000
 50
270.000000000000000
 51
90.000000000000000
  0
ARC
  8
0
  6
CONTINUOUS
 62
3
 10
-436.494564512208630
 20
-136.317390417764160
 40
1.999999999999699
 50
168.737752074358670
 51
270.000000000000000
  0
ARC
  8
0
  6
CONTINUOUS
 62
3
 10
-253.996567285076940
 20
-156.317390417764160
 40
2.000000000000000
 50
0.000000000000000
 51
90.000000000000000
  0
ARC
  8
0
  6
CONTINUOUS
 62
3
 10
-255.498570057945700
 20
-136.317390417764160
 40
2.000000000000000
 50
270.000000000000000
 51
11.262247925640054
  0
ARC
  8
0
  6
CONTINUOUS
 62
3
 10
-331.996567285076940
 20
-151.550788601945560
 40
80.000000000000000
 50
0.000000000000000
 51
85.339580615885353
  0
ARC
  8
0
  6
CONTINUOUS
 62
3
 10
-359.996567285077390
 20
-151.550788601945560
 40
79.999999999999972
 50
94.660419384114789
 51
180.000000000000000
  0
ARC
  8
0
  6
CONTINUOUS
 62
3
 10
-276.005270214866190
 20
-254.877059723174280
 40
7.999999999999901
 50
129.950233661982820
 51
178.218230102087230
  0
ARC
  8
0
  6
CONTINUOUS
 62
3
 10
-293.996567285077160
 20
-254.317390417764160
 40
10.000000000000000
 50
270.000000000000000
 51
358.218230102088230
  0
ARC
  8
0
  6
CONTINUOUS
 62
3
 10
-397.996567285077390
 20
-254.317390417764160
 40
9.999999999999675
 50
181.781769897911860
 51
270.000000000000000
  0
ARC
  8
0
  6
CONTINUOUS
 62
3
 10
-415.987864355288140
 20
-254.877059723174280
 40
8.000000000000107
 50
1.781769897912753
 51
50.049766338017157
  0
ARC
  8
0
  6
CONTINUOUS
 62
3
 10
-256.996567285076940
 20
-207.303498848657340
 40
4.999999999999877
 50
337.984630459601990
 51
0.000000000000000
  0
ARC
  8
0
  6
CONTINUOUS
 62
3
 10
-434.996567285077390
 20
-207.303498848657340
 40
5.000000000000000
 50
180.000000000000000
 51
202.015369540398010
  0
ARC
  8
0
  6
CONTINUOUS
 62
3
 10
-345.996567285077390
 20
-171.317390417764160
 40
101.000000000000310
 50
202.015369540396850
 51
230.049766338017580
  0
ARC
  8
0
  6
CONTINUOUS
 62
3
 10
-345.996567285076940
 20
-171.317390417764160
 40
101.000000000000050
 50
309.950233661982400
 51
337.984630459603070
  0
ARC
  8
0
  6
CONTINUOUS
 62
3
 10
-331.777190565688900
 20
-209.857957425282510
 40
26.999999999999748
 50
232.492357161295270
 51
319.848912341650530
  0
ARC
  8
0
  6
CONTINUOUS
 62
3
 10
-308.846787601349660
 20
-229.202119849461840
 40
2.999999999999886
 50
99.749988138587184
 51
139.848912341650620
  0
ARC
  8
0
  6
CONTINUOUS
 62
3
 10
-384.790839485436440
 20
-199.584057084430580
 40
26.999999999999797
 50
142.203357465588340
 51
275.631713938414800
  0
ARC
  8
0
  6
CONTINUOUS
 62
3
 10
-381.846826813472260
 20
-229.439254109191890
 40
2.999999999999921
 50
79.695153531234737
 51
95.631713938415942
  0
ARC
  8
0
  6
CONTINUOUS
 62
3
 10
-408.496567285077390
 20
-181.198234571164330
 40
3.000000000000168
 50
322.203357465589990
 51
0.000000000000000
  0
LINE
  8
0
  6
CONTINUOUS
 62
3
 10
-260.573356475250650
 20
-60.136820295056836
 11
-283.832688780483980
 21
-83.396152600290051
  0
LINE
  8
0
  6
CONTINUOUS
 62
3
 10
-264.815997162370190
 20
-55.894179607937630
 11
-289.870839489121640
 21
-80.949021934689185
  0
LINE
  8
0
  6
CONTINUOUS
 62
3
 10
-431.419778094904130
 20
-60.136820295056950
 11
-408.160445789670800
 21
-83.396152600290051
  0
LINE
  8
0
  6
CONTINUOUS
 62
3
 10
-427.177137407784580
 20
-55.894179607937630
 11
-402.122295081033140
 21
-80.949021934689185
  0
LINE
  8
0
  6
CONTINUOUS
 62
3
 10
-233.496567285077390
 20
-36.817390417764145
 11
-233.496567285077390
 21
-245.817390417764160
  0
LINE
  8
0
  6
CONTINUOUS
 62
3
 10
-450.496567285077390
 20
-28.817390417764145
 11
-241.496567285077390
 21
-28.817390417764145
  0
LINE
  8
0
  6
CONTINUOUS
 62
3
 10
-458.496567285077390
 20
-36.817390417764145
 11
-458.496567285077390
 21
-245.817390417764160
  0
LINE
  8
0
  6
CONTINUOUS
 62
3
 10
-450.496567285077390
 20
-253.817390417764160
 11
-408.058356113084980
 21
-253.817390417764160
  0
LINE
  8
0
  6
CONTINUOUS
 62
3
 10
-283.934778457069800
 20
-253.817390417764160
 11
-241.496567285077390
 21
-253.817390417764160
  0
ARC
  8
0
  6
CONTINUOUS
 62
3
 10
-291.992159832681640
 20
-78.827701591129525
 40
2.999999999999992
 50
241.185147882957380
 51
315.000000000004600
  0
ARC
  8
0
  6
CONTINUOUS
 62
3
 10
-281.711368436924430
 20
-85.517472943849597
 40
2.999999999999864
 50
135.000000000000000
 51
232.710272620190840
  0
ARC
  8
0
  6
CONTINUOUS
 62
3
 10
-258.452036131691100
 20
-62.258140638616609
 40
2.999999999999944
 50
45.000000000001542
 51
134.999999999996930
  0
ARC
  8
0
  6
CONTINUOUS
 62
3
 10
-266.937317505929740
 20
-53.772859264377971
 40
2.999999999999944
 50
314.999999999998470
 51
45.000000000001542
  0
ARC
  8
0
  6
CONTINUOUS
 62
3
 10
-425.055817064225040
 20
-53.772859264377971
 40
2.999999999999944
 50
134.999999999998470
 51
225.000000000001530
  0
ARC
  8
0
  6
CONTINUOUS
 62
3
 10
-433.541098438463680
 20
-62.258140638616609
 40
2.999999999999944
 50
45.000000000001542
 51
134.999999999998470
  0
ARC
  8
0
  6
CONTINUOUS
 62
3
 10
-410.281766133230350
 20
-85.517472943849597
 40
2.999999999999856
 50
307.289727379802290
 51
45.000000000000000
  0
ARC
  8
0
  6
CONTINUOUS
 62
3
 10
-400.000974737473140
 20
-78.827701591129525
 40
3.000000000000265
 50
224.999999999995400
 51
298.814852117042620
  0
ARC
  8
0
  6
CONTINUOUS
 62
3
 10
-339.996567285077390
 20
-34.317390417764145
 40
3.000000000000000
 50
90.000000000000000
 51
180.000000000000000
  0
ARC
  8
0
  6
CONTINUOUS
 62
3
 10
-351.996567285077390
 20
-34.317390417764145
 40
3.000000000000000
 50
0.000000000000000
 51
90.000000000000000
  0
ARC
  8
0
  6
CONTINUOUS
 62
3
 10
-241.496567285077390
 20
-36.817390417764145
 40
8.000000000000000
 50
0.000000000000000
 51
90.000000000000000
  0
ARC
  8
0
  6
CONTINUOUS
 62
3
 10
-450.496567285077390
 20
-36.817390417764145
 40
8.000000000000000
 50
90.000000000000000
 51
180.000000000000000
  0
ARC
  8
0
  6
CONTINUOUS
 62
3
 10
-450.496567285077390
 20
-245.817390417764160
 40
8.000000000000000
 50
180.000000000000000
 51
270.000000000000000
  0
ARC
  8
0
  6
CONTINUOUS
 62
3
 10
-241.496567285077390
 20
-245.817390417764160
 40
8.000000000000000
 50
270.000000000000000
 51
0.000000000000000
  0
LINE
  8
0
  6
CONTINUOUS
 62
3
 10
-342.996567285077390
 20
-34.317390417764145
 11
-342.996567285077390
 21
-36.317390417764145
  0
LINE
  8
0
  6
CONTINUOUS
 62
3
 10
-348.996567285077390
 20
-34.317390417764145
 11
-348.996567285077390
 21
-36.317390417764145
  0
ARC
  8
0
  6
CONTINUOUS
 62
3
 10
-261.996567285077390
 20
-166.317390417764160
 40
5.633955001830643
 50
290.522594742972050
 51
61.964500161419217
  0
ARC
  8
0
  6
CONTINUOUS
 62
3
 10
-261.996567285077390
 20
-166.317390417764160
 40
6.499999999999959
 50
286.872984417729240
 51
65.530959446320310
  0
LINE
  8
0
  6
CONTINUOUS
 62
3
 10
-258.996570622936700
 20
-164.585343464538540
 11
-258.996569669262390
 21
-168.049441441223110
  0
LINE
  8
0
  6
CONTINUOUS
 62
3
 10
-258.996569172983750
 20
-168.049441810542930
 11
-259.781335525047100
 21
-168.502525482858060
  0
LINE
  8
0
  6
CONTINUOUS
 62
3
 10
-259.505894575677300
 20
-164.291284090069150
 11
-258.996569859128390
 21
-164.585343635627790
  0
ARC
  8
0
  6
CONTINUOUS
 62
3
 10
-342.496567285077390
 20
-129.160946834754550
 40
1.000000000000000
 50
180.000000000000000
 51
258.787728582356010
  0
LINE
  8
0
  6
CONTINUOUS
 62
3
 10
-343.496567285077390
 20
-126.111111176915620
 11
-343.496567285077390
 21
-129.160946834754550
  0
ARC
  8
0
  6
CONTINUOUS
 62
3
 10
-342.496567285077390
 20
-126.111111176915620
 40
1.000000000000268
 50
80.405931773124522
 51
180.000000000000000
  0
ARC
  8
0
  6
CONTINUOUS
 62
3
 10
-342.496567285077390
 20
-120.549539344636840
 40
1.000000000000000
 50
179.999999999986980
 51
262.410457608144040
  0
LINE
  8
0
  6
CONTINUOUS
 62
3
 10
-343.496567285077390
 20
-117.525753386010460
 11
-343.496567285077390
 21
-120.549539344636610
  0
ARC
  8
0
  6
CONTINUOUS
 62
3
 10
-342.496567285077390
 20
-117.525753386010460
 40
1.000000000000077
 50
83.186145655820312
 51
180.000000000000000
  0
ARC
  8
0
  6
CONTINUOUS
 62
3
 10
-342.496567285077390
 20
-111.992830119032400
 40
1.000000000000000
 50
180.000000000000000
 51
264.260829522738280
  0
LINE
  8
0
  6
CONTINUOUS
 62
3
 10
-343.496567285077390
 20
-108.978917932739120
 11
-343.496567285077390
 21
-111.992830119032400
  0
ARC
  8
0
  6
CONTINUOUS
 62
3
 10
-342.496567285077390
 20
-108.978917932739120
 40
1.000000000000042
 50
84.715267045464302
 51
180.000000000000000
  0
ARC
  8
0
  6
CONTINUOUS
 62
3
 10
-322.379265497145520
 20
-129.140482988641790
 40
1.000000000000082
 50
299.999999999997270
 51
36.813854344186687
  0
LINE
  8
0
  6
CONTINUOUS
 62
3
 10
-321.879265497145520
 20
-130.006508392426330
 11
-324.497940952923050
 21
-131.518401371739510
  0
ARC
  8
0
  6
CONTINUOUS
 62
3
 10
-324.997940952923050
 20
-130.652375967954980
 40
0.999999999999834
 50
217.589542391867670
 51
299.999999999997270
  0
ARC
  8
0
  6
CONTINUOUS
 62
3
 10
-314.977488872647200
 20
-124.867065262006100
 40
0.999999999999885
 50
300.000000000003810
 51
35.284732954544943
  0
LINE
  8
0
  6
CONTINUOUS
 62
3
 10
-314.477488872647200
 20
-125.733090665790410
 11
-317.087613390752950
 21
-127.240046758937160
  0
ARC
  8
0
  6
CONTINUOUS
 62
3
 10
-317.587613390752950
 20
-126.374021355152860
 40
0.999999999999940
 50
215.739170477274090
 51
300.000000000003810
  0
ARC
  8
0
  6
CONTINUOUS
 62
3
 10
-340.098038014688200
 20
-139.370421071354600
 40
0.999999999999961
 50
231.618272422159780
 51
299.999999999997270
  0
LINE
  8
0
  6
CONTINUOUS
 62
3
 10
-336.854262439663900
 20
-138.652326908303050
 11
-339.598038014688200
 21
-140.236446475139130
  0
ARC
  8
0
  6
CONTINUOUS
 62
3
 10
-332.455638601704550
 20
-134.958079713013940
 40
0.999999999999673
 50
221.212271417651210
 51
300.000000000003810
  0
LINE
  8
0
  6
CONTINUOUS
 62
3
 10
-329.314403444648410
 20
-134.299187287878680
 11
-331.955638601704550
 21
-135.824105116798250
  0
ARC
  8
0
  6
CONTINUOUS
 62
3
 10
-329.814403444648410
 20
-133.433161884094150
 40
1.000000000000082
 50
299.999999999997270
 51
39.594068226850403
  0
ARC
  8
0
  6
CONTINUOUS
 62
3
 10
-342.496567285077390
 20
-137.985629551436320
 40
1.000000000000000
 50
180.000000000000000
 51
248.381727577838030
  0
ARC
  8
0
  6
CONTINUOUS
 62
3
 10
-345.996567285077390
 20
-146.817390417764160
 40
8.500000000000128
 50
51.618272422158320
 51
68.381727577842284
  0
ARC
  8
0
  6
CONTINUOUS
 62
3
 10
-337.354262439663900
 20
-137.786301504518750
 40
0.999999999999885
 50
300.000000000003810
 51
46.260204708328693
  0
LINE
  8
0
  6
CONTINUOUS
 62
3
 10
-343.496567285077390
 20
-134.817390417764160
 11
-343.496567285077390
 21
-137.985629551436320
  0
ARC
  8
0
  6
CONTINUOUS
 62
3
 10
-342.496567285077390
 20
-134.817390417764160
 40
0.999999999999964
 50
73.739795291702634
 51
180.000000000000000
  0
ARC
  8
0
  6
CONTINUOUS
 62
3
 10
-345.996567285077390
 20
-146.817390417764160
 40
13.499999999999927
 50
46.260204708312145
 51
73.739795291689134
  0
ARC
  8
0
  6
CONTINUOUS
 62
3
 10
-345.996567285077390
 20
-146.817390417764160
 40
17.000000000000114
 50
41.212271417649760
 51
78.787728582349985
  0
ARC
  8
0
  6
CONTINUOUS
 62
3
 10
-345.996567285077390
 20
-146.817390417764160
 40
22.000000000000025
 50
39.594068226860820
 51
80.405931773138803
  0
ARC
  8
0
  6
CONTINUOUS
 62
3
 10
-345.996567285077390
 20
-146.817390417764160
 40
30.499999999999964
 50
36.813854344181067
 51
83.186145655818962
  0
ARC
  8
0
  6
CONTINUOUS
 62
3
 10
-345.996567285077390
 20
-146.817390417764160
 40
25.499999999999890
 50
37.589542391857961
 51
82.410457608141897
  0
ARC
  8
0
  6
CONTINUOUS
 62
3
 10
-345.996567285077390
 20
-146.817390417764160
 40
33.999999999999837
 50
35.739170477266661
 51
84.260829522733076
  0
ARC
  8
0
  6
CONTINUOUS
 62
3
 10
-345.996567285077390
 20
-146.817390417764160
 40
38.999999999999872
 50
35.284732954534810
 51
84.715267045465410
  0
ARC
  8
0
  6
CONTINUOUS
 62
3
 10
-318.879265497145520
 20
-135.202660815132840
 40
0.999999999999730
 50
23.186145655819850
 51
119.999999999997270
  0
LINE
  8
0
  6
CONTINUOUS
 62
3
 10
-319.379265497145520
 20
-134.336635411348310
 11
-321.997940952923050
 21
-135.848528390661500
  0
ARC
  8
0
  6
CONTINUOUS
 62
3
 10
-321.497940952923050
 20
-136.714553794446030
 40
1.000000000000082
 50
119.999999999997270
 51
202.410457608146060
  0
ARC
  8
0
  6
CONTINUOUS
 62
3
 10
-311.477488872647200
 20
-130.929243088497170
 40
1.000000000000248
 50
24.715267045455477
 51
119.999999999997270
  0
LINE
  8
0
  6
CONTINUOUS
 62
3
 10
-311.977488872647200
 20
-130.063217684712640
 11
-314.587613390752950
 21
-131.570173777859400
  0
ARC
  8
0
  6
CONTINUOUS
 62
3
 10
-314.087613390752950
 20
-132.436199181643700
 40
0.999999999999885
 50
120.000000000003780
 51
204.260829522745610
  0
ARC
  8
0
  6
CONTINUOUS
 62
3
 10
-336.598038014688200
 20
-145.432598897845880
 40
1.000000000000082
 50
119.999999999997270
 51
188.381727577832660
  0
LINE
  8
0
  6
CONTINUOUS
 62
3
 10
-334.354262439663900
 20
-142.982453927225270
 11
-337.098038014688200
 21
-144.566573494061340
  0
ARC
  8
0
  6
CONTINUOUS
 62
3
 10
-328.955638601704550
 20
-141.020257539505000
 40
1.000000000000082
 50
119.999999999997270
 51
198.787728582347000
  0
LINE
  8
0
  6
CONTINUOUS
 62
3
 10
-326.814403444647950
 20
-138.629314306801120
 11
-329.455638601704550
 21
-140.154232135720460
  0
ARC
  8
0
  6
CONTINUOUS
 62
3
 10
-326.314403444647950
 20
-139.495339710585430
 40
1.000000000000094
 50
20.405931773138686
 51
120.000000000003780
  0
ARC
  8
0
  6
CONTINUOUS
 62
3
 10
-336.598038014688200
 20
-148.202181937682670
 40
1.000000000000059
 50
171.618272422154460
 51
239.999999999996220
  0
ARC
  8
0
  6
CONTINUOUS
 62
3
 10
-345.996567285077390
 20
-146.817390417764160
 40
8.499999999999972
 50
351.618272422157820
 51
8.381727577842204
  0
ARC
  8
0
  6
CONTINUOUS
 62
3
 10
-333.854262439663900
 20
-143.848479331009570
 40
0.999999999999879
 50
13.739795291686027
 51
120.000000000003780
  0
LINE
  8
0
  6
CONTINUOUS
 62
3
 10
-334.354262439663900
 20
-150.652326908303050
 11
-337.098038014688200
 21
-149.068207341466970
  0
ARC
  8
0
  6
CONTINUOUS
 62
3
 10
-333.854262439663900
 20
-149.786301504518750
 40
0.999999999999885
 50
239.999999999996220
 51
346.260204708314010
  0
ARC
  8
0
  6
CONTINUOUS
 62
3
 10
-345.996567285077390
 20
-146.817390417764160
 40
13.500000000000130
 50
346.260204708311850
 51
13.739795291688171
  0
ARC
  8
0
  6
CONTINUOUS
 62
3
 10
-328.955638601704550
 20
-152.614523296023320
 40
0.999999999999646
 50
161.212271417644620
 51
239.999999999996220
  0
LINE
  8
0
  6
CONTINUOUS
 62
3
 10
-326.814403444647950
 20
-155.005466528727200
 11
-329.455638601704550
 21
-153.480548699807630
  0
ARC
  8
0
  6
CONTINUOUS
 62
3
 10
-345.996567285077390
 20
-146.817390417764160
 40
17.000000000000146
 50
341.212271417650070
 51
18.787728582350418
  0
ARC
  8
0
  6
CONTINUOUS
 62
3
 10
-326.314403444647950
 20
-154.139441124942890
 40
0.999999999999885
 50
239.999999999996220
 51
339.594068226861340
  0
ARC
  8
0
  6
CONTINUOUS
 62
3
 10
-321.497940952923050
 20
-156.920227041082510
 40
0.999999999999701
 50
157.589542391853940
 51
240.000000000002730
  0
ARC
  8
0
  6
CONTINUOUS
 62
3
 10
-314.087613390752950
 20
-161.198581653884390
 40
0.999999999999769
 50
155.739170477266270
 51
240.000000000002730
  0
ARC
  8
0
  6
CONTINUOUS
 62
3
 10
-345.996567285077390
 20
-146.817390417764160
 40
22.000000000000206
 50
339.594068226860770
 51
20.405931773139226
  0
LINE
  8
0
  6
CONTINUOUS
 62
3
 10
-319.379265497145520
 20
-159.298145424180010
 11
-321.997940952923050
 21
-157.786252444867050
  0
ARC
  8
0
  6
CONTINUOUS
 62
3
 10
-318.879265497145520
 20
-158.432120020395470
 40
1.000000000000082
 50
240.000000000002730
 51
336.813854344180130
  0
ARC
  8
0
  6
CONTINUOUS
 62
3
 10
-345.996567285077390
 20
-146.817390417764160
 40
30.499999999999947
 50
336.813854344181150
 51
23.186145655818844
  0
ARC
  8
0
  6
CONTINUOUS
 62
3
 10
-345.996567285077390
 20
-146.817390417764160
 40
25.500000000000085
 50
337.589542391857490
 51
22.410457608142021
  0
ARC
  8
0
  6
CONTINUOUS
 62
3
 10
-345.996567285077390
 20
-146.817390417764160
 40
34.000000000000007
 50
335.739170477266780
 51
24.260829522733218
  0
ARC
  8
0
  6
CONTINUOUS
 62
3
 10
-345.996567285077390
 20
-146.817390417764160
 40
39.000000000000220
 50
335.284732954534830
 51
24.715267045465190
  0
LINE
  8
0
  6
CONTINUOUS
 62
3
 10
-311.977488872647200
 20
-163.571563150815450
 11
-314.587613390752950
 21
-162.064607057668920
  0
ARC
  8
0
  6
CONTINUOUS
 62
3
 10
-311.477488872647200
 20
-162.705537747031140
 40
0.999999999999885
 50
239.999999999996220
 51
335.284732954544490
  0
CIRCLE
  8
0
  6
CONTINUOUS
 62
3
 10
-345.996567285077390
 20
-146.817390417764160
 40
5.000000000000000
  0
ARC
  8
0
  6
CONTINUOUS
 62
3
 10
-314.977488872647200
 20
-168.767715573522420
 40
0.999999999999776
 50
324.715267045465680
 51
60.000000000002721
  0
ARC
  8
0
  6
CONTINUOUS
 62
3
 10
-317.587613390752950
 20
-167.260759480375440
 40
0.999999999999885
 50
59.999999999996206
 51
144.260829522736490
  0
ARC
  8
0
  6
CONTINUOUS
 62
3
 10
-342.496567285077390
 20
-181.641950716495900
 40
0.999999999999973
 50
95.739170477261709
 51
180.000000000000000
  0
ARC
  8
0
  6
CONTINUOUS
 62
3
 10
-342.496567285077390
 20
-184.655862902789180
 40
1.000000000000000
 50
180.000000000000000
 51
275.284732954535740
  0
ARC
  8
0
  6
CONTINUOUS
 62
3
 10
-342.496567285077390
 20
-173.085241490891460
 40
0.999999999999975
 50
97.589542391854238
 51
180.000000000000000
  0
ARC
  8
0
  6
CONTINUOUS
 62
3
 10
-322.379265497145520
 20
-164.494297846886300
 40
0.999999999999911
 50
323.186145655802870
 51
59.999999999996206
  0
ARC
  8
0
  6
CONTINUOUS
 62
3
 10
-324.997940952922590
 20
-162.982404867573340
 40
1.000000000000082
 50
60.000000000002721
 51
142.410457608148220
  0
ARC
  8
0
  6
CONTINUOUS
 62
3
 10
-342.496567285077390
 20
-176.109027449517840
 40
1.000000000000000
 50
180.000000000000000
 51
276.813854344179670
  0
ARC
  8
0
  6
CONTINUOUS
 62
3
 10
-342.496567285077390
 20
-167.523669658612680
 40
1.000000000000000
 50
180.000000000000000
 51
279.594068226875490
  0
ARC
  8
0
  6
CONTINUOUS
 62
3
 10
-342.496567285077390
 20
-164.473834000773760
 40
0.999999999999982
 50
101.212271417644000
 51
180.000000000000000
  0
ARC
  8
0
  6
CONTINUOUS
 62
3
 10
-329.814403444648410
 20
-160.201618951433940
 40
1.000000000000318
 50
320.405931773139570
 51
59.999999999996206
  0
ARC
  8
0
  6
CONTINUOUS
 62
3
 10
-332.455638601704550
 20
-158.676701122514600
 40
1.000000000000082
 50
60.000000000002721
 51
138.787728582338990
  0
ARC
  8
0
  6
CONTINUOUS
 62
3
 10
-337.354262439663900
 20
-155.848479331009570
 40
0.999999999999858
 50
313.739795291671330
 51
59.999999999996206
  0
ARC
  8
0
  6
CONTINUOUS
 62
3
 10
-342.496567285077390
 20
-158.817390417764160
 40
1.000000000000000
 50
180.000000000000000
 51
286.260204708297350
  0
ARC
  8
0
  6
CONTINUOUS
 62
3
 10
-342.496567285077390
 20
-155.649151284092000
 40
1.000000000000090
 50
111.618272422161970
 51
180.000000000000000
  0
ARC
  8
0
  6
CONTINUOUS
 62
3
 10
-340.098038014688200
 20
-154.264359764173490
 40
0.999999999999885
 50
59.999999999996206
 51
128.381727577840220
  0
ARC
  8
0
  6
CONTINUOUS
 62
3
 10
-345.996567285077390
 20
-146.817390417764160
 40
38.999999999999986
 50
275.284732954534600
 51
324.715267045465230
  0
ARC
  8
0
  6
CONTINUOUS
 62
3
 10
-345.996567285077390
 20
-146.817390417764160
 40
30.500000000000135
 50
276.813854344181040
 51
323.186145655818900
  0
ARC
  8
0
  6
CONTINUOUS
 62
3
 10
-345.996567285077390
 20
-146.817390417764160
 40
34.000000000000071
 50
275.739170477266950
 51
324.260829522733050
  0
ARC
  8
0
  6
CONTINUOUS
 62
3
 10
-345.996567285077390
 20
-146.817390417764160
 40
25.499999999999932
 50
277.589542391858170
 51
322.410457608142050
  0
ARC
  8
0
  6
CONTINUOUS
 62
3
 10
-345.996567285077390
 20
-146.817390417764160
 40
22.000000000000131
 50
279.594068226861170
 51
320.405931773139170
  0
ARC
  8
0
  6
CONTINUOUS
 62
3
 10
-345.996567285077390
 20
-146.817390417764160
 40
17.000000000000046
 50
281.212271417650020
 51
318.787728582350210
  0
ARC
  8
0
  6
CONTINUOUS
 62
3
 10
-345.996567285077390
 20
-146.817390417764160
 40
13.499999999999963
 50
286.260204708310820
 51
313.739795291687870
  0
ARC
  8
0
  6
CONTINUOUS
 62
3
 10
-345.996567285077390
 20
-146.817390417764160
 40
8.499999999999904
 50
291.618272422157700
 51
308.381727577842640
  0
LINE
  8
0
  6
CONTINUOUS
 62
3
 10
-321.879265497145520
 20
-163.628272443101990
 11
-324.497940952922590
 21
-162.116379463788800
  0
LINE
  8
0
  6
CONTINUOUS
 62
3
 10
-343.496567285077390
 20
-184.655862902789180
 11
-343.496567285077390
 21
-181.641950716495900
  0
LINE
  8
0
  6
CONTINUOUS
 62
3
 10
-314.477488872647200
 20
-167.901690169737890
 11
-317.087613390752950
 21
-166.394734076591130
  0
LINE
  8
0
  6
CONTINUOUS
 62
3
 10
-329.314403444648410
 20
-159.335593547649640
 11
-331.955638601704550
 21
-157.810675718730070
  0
LINE
  8
0
  6
CONTINUOUS
 62
3
 10
-336.854262439663900
 20
-154.982453927225270
 11
-339.598038014688200
 21
-153.398334360389190
  0
LINE
  8
0
  6
CONTINUOUS
 62
3
 10
-343.496567285077390
 20
-158.817390417764160
 11
-343.496567285077390
 21
-155.649151284092000
  0
LINE
  8
0
  6
CONTINUOUS
 62
3
 10
-343.496567285077390
 20
-167.523669658612680
 11
-343.496567285077390
 21
-164.473834000773760
  0
LINE
  8
0
  6
CONTINUOUS
 62
3
 10
-343.496567285077390
 20
-176.109027449517840
 11
-343.496567285077390
 21
-173.085241490891460
  0
ARC
  8
0
  6
CONTINUOUS
 62
3
 10
-345.996567285077390
 20
-146.817390417764160
 40
39.000000000000220
 50
155.284732954534800
 51
204.715267045465200
  0
ARC
  8
0
  6
CONTINUOUS
 62
3
 10
-345.996567285077390
 20
-146.817390417764160
 40
34.000000000000007
 50
155.739170477266780
 51
204.260829522733220
  0
ARC
  8
0
  6
CONTINUOUS
 62
3
 10
-345.996567285077390
 20
-146.817390417764160
 40
25.500000000000000
 50
157.589542391857980
 51
202.410457608142480
  0
ARC
  8
0
  6
CONTINUOUS
 62
3
 10
-345.996567285077390
 20
-146.817390417764160
 40
30.499999999999947
 50
156.813854344181150
 51
203.186145655818850
  0
ARC
  8
0
  6
CONTINUOUS
 62
3
 10
-345.996567285077390
 20
-146.817390417764160
 40
22.000000000000206
 50
159.594068226860770
 51
200.405931773139230
  0
ARC
  8
0
  6
CONTINUOUS
 62
3
 10
-345.996567285077390
 20
-146.817390417764160
 40
16.999999999999716
 50
161.212271417649560
 51
198.787728582350440
  0
ARC
  8
0
  6
CONTINUOUS
 62
3
 10
-345.996567285077390
 20
-146.817390417764160
 40
13.499999999999687
 50
166.260204708311360
 51
193.739795291688180
  0
ARC
  8
0
  6
CONTINUOUS
 62
3
 10
-358.138872130490880
 20
-143.848479331009570
 40
0.999999999999885
 50
59.999999999996206
 51
166.260204708307780
  0
ARC
  8
0
  6
CONTINUOUS
 62
3
 10
-365.678731125506830
 20
-139.495339710585430
 40
0.999999999999885
 50
59.999999999996206
 51
159.594068226861310
  0
LINE
  8
0
  6
CONTINUOUS
 62
3
 10
-365.178731125506830
 20
-138.629314306801120
 11
-362.537495968450230
 21
-140.154232135720460
  0
ARC
  8
0
  6
CONTINUOUS
 62
3
 10
-363.037495968450230
 20
-141.020257539505000
 40
1.000000000000076
 50
341.212271417652970
 51
60.000000000002721
  0
LINE
  8
0
  6
CONTINUOUS
 62
3
 10
-357.638872130490880
 20
-142.982453927225270
 11
-354.895096555466580
 21
-144.566573494061340
  0
ARC
  8
0
  6
CONTINUOUS
 62
3
 10
-355.395096555466580
 20
-145.432598897845880
 40
1.000000000000026
 50
351.618272422167310
 51
60.000000000002721
  0
ARC
  8
0
  6
CONTINUOUS
 62
3
 10
-377.905521179401830
 20
-132.436199181643700
 40
0.999999999999863
 50
335.739170477254390
 51
59.999999999996206
  0
LINE
  8
0
  6
CONTINUOUS
 62
3
 10
-380.015645697507580
 20
-130.063217684712640
 11
-377.405521179401830
 21
-131.570173777859400
  0
ARC
  8
0
  6
CONTINUOUS
 62
3
 10
-380.515645697507580
 20
-130.929243088497170
 40
1.000000000000082
 50
60.000000000002721
 51
155.284732954544520
  0
ARC
  8
0
  6
CONTINUOUS
 62
3
 10
-370.495193617231730
 20
-136.714553794446030
 40
0.999999999999701
 50
337.589542391853970
 51
60.000000000002721
  0
LINE
  8
0
  6
CONTINUOUS
 62
3
 10
-372.613869073009250
 20
-134.336635411348310
 11
-369.995193617231730
 21
-135.848528390661500
  0
ARC
  8
0
  6
CONTINUOUS
 62
3
 10
-373.113869073009250
 20
-135.202660815132840
 40
1.000000000000082
 50
60.000000000002721
 51
156.813854344180160
  0
ARC
  8
0
  6
CONTINUOUS
 62
3
 10
-345.996567285077390
 20
-146.817390417764160
 40
39.000000000000000
 50
95.284732954534590
 51
144.715267045465170
  0
ARC
  8
0
  6
CONTINUOUS
 62
3
 10
-345.996567285077390
 20
-146.817390417764160
 40
34.000000000000085
 50
95.739170477266924
 51
144.260829522733360
  0
ARC
  8
0
  6
CONTINUOUS
 62
3
 10
-345.996567285077390
 20
-146.817390417764160
 40
25.500000000000174
 50
97.589542391858103
 51
142.410457608142050
  0
ARC
  8
0
  6
CONTINUOUS
 62
3
 10
-345.996567285077390
 20
-146.817390417764160
 40
30.500000000000149
 50
96.813854344181038
 51
143.186145655818930
  0
ARC
  8
0
  6
CONTINUOUS
 62
3
 10
-345.996567285077390
 20
-146.817390417764160
 40
22.000000000000146
 50
99.594068226861197
 51
140.405931773139200
  0
ARC
  8
0
  6
CONTINUOUS
 62
3
 10
-345.996567285077390
 20
-146.817390417764160
 40
17.000000000000046
 50
101.212271417650010
 51
138.787728582350240
  0
ARC
  8
0
  6
CONTINUOUS
 62
3
 10
-345.996567285077390
 20
-146.817390417764160
 40
13.499999999999963
 50
106.260204708310860
 51
133.739795291687870
  0
ARC
  8
0
  6
CONTINUOUS
 62
3
 10
-349.496567285077390
 20
-134.817390417764160
 40
1.000000000000000
 50
0.000000000000000
 51
106.260204708297360
  0
LINE
  8
0
  6
CONTINUOUS
 62
3
 10
-348.496567285077390
 20
-134.817390417764160
 11
-348.496567285077390
 21
-137.985629551436320
  0
ARC
  8
0
  6
CONTINUOUS
 62
3
 10
-354.638872130490880
 20
-137.786301504518750
 40
0.999999999999858
 50
133.739795291671300
 51
239.999999999996220
  0
ARC
  8
0
  6
CONTINUOUS
 62
3
 10
-345.996567285077390
 20
-146.817390417764160
 40
8.499999999999904
 50
111.618272422157710
 51
128.381727577841670
  0
ARC
  8
0
  6
CONTINUOUS
 62
3
 10
-349.496567285077390
 20
-137.985629551436320
 40
1.000000000000090
 50
291.618272422161970
 51
0.000000000000000
  0
ARC
  8
0
  6
CONTINUOUS
 62
3
 10
-362.178731125506370
 20
-133.433161884094150
 40
1.000000000000173
 50
140.405931773149600
 51
240.000000000002730
  0
LINE
  8
0
  6
CONTINUOUS
 62
3
 10
-362.678731125506370
 20
-134.299187287878680
 11
-360.037495968450230
 21
-135.824105116798250
  0
ARC
  8
0
  6
CONTINUOUS
 62
3
 10
-359.537495968450230
 20
-134.958079713013940
 40
0.999999999999885
 50
239.999999999996220
 51
318.787728582348790
  0
LINE
  8
0
  6
CONTINUOUS
 62
3
 10
-355.138872130490880
 20
-138.652326908303050
 11
-352.395096555466580
 21
-140.236446475139130
  0
ARC
  8
0
  6
CONTINUOUS
 62
3
 10
-351.895096555466580
 20
-139.370421071354600
 40
1.000000000000082
 50
240.000000000002730
 51
308.381727577840190
  0
ARC
  8
0
  6
CONTINUOUS
 62
3
 10
-374.405521179401830
 20
-126.374021355152860
 40
0.999999999999885
 50
239.999999999996220
 51
324.260829522725940
  0
LINE
  8
0
  6
CONTINUOUS
 62
3
 10
-377.515645697507580
 20
-125.733090665790410
 11
-374.905521179401830
 21
-127.240046758937160
  0
ARC
  8
0
  6
CONTINUOUS
 62
3
 10
-377.015645697507580
 20
-124.867065262006100
 40
0.999999999999908
 50
144.715267045455050
 51
239.999999999996220
  0
ARC
  8
0
  6
CONTINUOUS
 62
3
 10
-366.995193617231730
 20
-130.652375967954980
 40
1.000000000000082
 50
240.000000000002730
 51
322.410457608132330
  0
LINE
  8
0
  6
CONTINUOUS
 62
3
 10
-370.113869073009250
 20
-130.006508392426330
 11
-367.495193617231730
 21
-131.518401371739510
  0
ARC
  8
0
  6
CONTINUOUS
 62
3
 10
-369.613869073009250
 20
-129.140482988641790
 40
0.999999999999774
 50
143.186145655813330
 51
240.000000000002730
  0
ARC
  8
0
  6
CONTINUOUS
 62
3
 10
-349.496567285077390
 20
-108.978917932739120
 40
1.000000000000000
 50
0.000000000000000
 51
95.284732954535698
  0
LINE
  8
0
  6
CONTINUOUS
 62
3
 10
-348.496567285077390
 20
-108.978917932739120
 11
-348.496567285077390
 21
-111.992830119032400
  0
ARC
  8
0
  6
CONTINUOUS
 62
3
 10
-349.496567285077390
 20
-111.992830119032400
 40
0.999999999999973
 50
275.739170477261670
 51
0.000000000000000
  0
ARC
  8
0
  6
CONTINUOUS
 62
3
 10
-349.496567285077390
 20
-117.525753386010460
 40
1.000000000000000
 50
0.000000000000000
 51
96.813854344179688
  0
LINE
  8
0
  6
CONTINUOUS
 62
3
 10
-348.496567285077390
 20
-117.525753386010460
 11
-348.496567285077390
 21
-120.549539344636610
  0
ARC
  8
0
  6
CONTINUOUS
 62
3
 10
-349.496567285077390
 20
-120.549539344636840
 40
0.999999999999749
 50
277.589542391855960
 51
0.000000000013028
  0
ARC
  8
0
  6
CONTINUOUS
 62
3
 10
-349.496567285077390
 20
-126.111111176915620
 40
1.000000000000000
 50
0.000000000000000
 51
99.594068226875478
  0
LINE
  8
0
  6
CONTINUOUS
 62
3
 10
-348.496567285077390
 20
-126.111111176915620
 11
-348.496567285077390
 21
-129.160946834754550
  0
ARC
  8
0
  6
CONTINUOUS
 62
3
 10
-349.496567285077390
 20
-129.160946834754550
 40
0.999999999999982
 50
281.212271417643990
 51
0.000000000000000
  0
ARC
  8
0
  6
CONTINUOUS
 62
3
 10
-358.138872130490880
 20
-149.786301504518750
 40
0.999999999999879
 50
193.739795291686050
 51
300.000000000003810
  0
LINE
  8
0
  6
CONTINUOUS
 62
3
 10
-357.638872130490880
 20
-150.652326908303050
 11
-354.895096555466580
 21
-149.068207341466970
  0
ARC
  8
0
  6
CONTINUOUS
 62
3
 10
-345.996567285077390
 20
-146.817390417764160
 40
8.499999999999972
 50
171.618272422157790
 51
188.381727577842210
  0
ARC
  8
0
  6
CONTINUOUS
 62
3
 10
-355.395096555466580
 20
-148.202181937682670
 40
0.999999999999885
 50
300.000000000003810
 51
8.381727577845549
  0
LINE
  8
0
  6
CONTINUOUS
 62
3
 10
-348.496567285077390
 20
-176.109027449517840
 11
-348.496567285077390
 21
-173.085241490891460
  0
LINE
  8
0
  6
CONTINUOUS
 62
3
 10
-348.496567285077390
 20
-167.523669658612680
 11
-348.496567285077390
 21
-164.473834000773760
  0
LINE
  8
0
  6
CONTINUOUS
 62
3
 10
-348.496567285077390
 20
-158.817390417764160
 11
-348.496567285077390
 21
-155.649151284092000
  0
LINE
  8
0
  6
CONTINUOUS
 62
3
 10
-355.138872130490880
 20
-154.982453927225270
 11
-352.395096555466580
 21
-153.398334360389190
  0
LINE
  8
0
  6
CONTINUOUS
 62
3
 10
-362.678731125506370
 20
-159.335593547649640
 11
-360.037495968450230
 21
-157.810675718730070
  0
LINE
  8
0
  6
CONTINUOUS
 62
3
 10
-377.515645697507580
 20
-167.901690169737890
 11
-374.905521179401830
 21
-166.394734076591130
  0
LINE
  8
0
  6
CONTINUOUS
 62
3
 10
-370.113869073009250
 20
-163.628272443101990
 11
-367.495193617232190
 21
-162.116379463788800
  0
ARC
  8
0
  6
CONTINUOUS
 62
3
 10
-345.996567285077390
 20
-146.817390417764160
 40
8.499999999999948
 50
231.618272422157330
 51
248.381727577842330
  0
ARC
  8
0
  6
CONTINUOUS
 62
3
 10
-345.996567285077390
 20
-146.817390417764160
 40
13.499999999999927
 50
226.260204708312130
 51
253.739795291689150
  0
ARC
  8
0
  6
CONTINUOUS
 62
3
 10
-345.996567285077390
 20
-146.817390417764160
 40
16.999999999999773
 50
221.212271417650780
 51
258.787728582349980
  0
ARC
  8
0
  6
CONTINUOUS
 62
3
 10
-345.996567285077390
 20
-146.817390417764160
 40
22.000000000000025
 50
219.594068226860800
 51
260.405931773138780
  0
ARC
  8
0
  6
CONTINUOUS
 62
3
 10
-345.996567285077390
 20
-146.817390417764160
 40
25.499999999999890
 50
217.589542391857950
 51
262.410457608141830
  0
ARC
  8
0
  6
CONTINUOUS
 62
3
 10
-345.996567285077390
 20
-146.817390417764160
 40
33.999999999999964
 50
215.739170477266950
 51
264.260829522733050
  0
ARC
  8
0
  6
CONTINUOUS
 62
3
 10
-345.996567285077390
 20
-146.817390417764160
 40
30.499999999999964
 50
216.813854344181070
 51
263.186145655818960
  0
ARC
  8
0
  6
CONTINUOUS
 62
3
 10
-345.996567285077390
 20
-146.817390417764160
 40
38.999999999999865
 50
215.284732954534800
 51
264.715267045465400
  0
ARC
  8
0
  6
CONTINUOUS
 62
3
 10
-351.895096555466580
 20
-154.264359764173490
 40
0.999999999999961
 50
51.618272422159777
 51
120.000000000003780
  0
ARC
  8
0
  6
CONTINUOUS
 62
3
 10
-349.496567285077390
 20
-155.649151284092000
 40
1.000000000000000
 50
0.000000000000000
 51
68.381727577838021
  0
ARC
  8
0
  6
CONTINUOUS
 62
3
 10
-349.496567285077390
 20
-158.817390417764160
 40
0.999999999999964
 50
253.739795291702650
 51
0.000000000000000
  0
ARC
  8
0
  6
CONTINUOUS
 62
3
 10
-354.638872130490880
 20
-155.848479331009570
 40
0.999999999999885
 50
120.000000000003780
 51
226.260204708328700
  0
ARC
  8
0
  6
CONTINUOUS
 62
3
 10
-359.537495968450230
 20
-158.676701122514600
 40
1.000000000000165
 50
41.212271417643841
 51
119.999999999997270
  0
ARC
  8
0
  6
CONTINUOUS
 62
3
 10
-362.178731125506370
 20
-160.201618951433940
 40
0.999999999999885
 50
120.000000000003780
 51
219.594068226860460
  0
ARC
  8
0
  6
CONTINUOUS
 62
3
 10
-349.496567285077390
 20
-164.473834000773760
 40
1.000000000000000
 50
0.000000000000000
 51
78.787728582355996
  0
ARC
  8
0
  6
CONTINUOUS
 62
3
 10
-349.496567285077390
 20
-167.523669658612680
 40
1.000000000000268
 50
260.405931773124510
 51
0.000000000000000
  0
ARC
  8
0
  6
CONTINUOUS
 62
3
 10
-366.995193617232190
 20
-162.982404867573340
 40
1.000000000000194
 50
37.589542391851793
 51
119.999999999997270
  0
ARC
  8
0
  6
CONTINUOUS
 62
3
 10
-369.613869073009250
 20
-164.494297846886300
 40
0.999999999999885
 50
120.000000000003780
 51
216.813854344197100
  0
ARC
  8
0
  6
CONTINUOUS
 62
3
 10
-349.496567285077390
 20
-173.085241490891460
 40
1.000000000000000
 50
0.000000000000000
 51
82.410457608145762
  0
ARC
  8
0
  6
CONTINUOUS
 62
3
 10
-374.405521179401830
 20
-167.260759480375440
 40
0.999999999999807
 50
35.739170477263521
 51
120.000000000003780
  0
ARC
  8
0
  6
CONTINUOUS
 62
3
 10
-377.015645697507580
 20
-168.767715573522420
 40
1.000000000000082
 50
119.999999999997270
 51
215.284732954534320
  0
ARC
  8
0
  6
CONTINUOUS
 62
3
 10
-380.515645697507580
 20
-162.705537747031140
 40
1.000000000000248
 50
204.715267045455480
 51
300.000000000003810
  0
LINE
  8
0
  6
CONTINUOUS
 62
3
 10
-380.015645697507580
 20
-163.571563150815450
 11
-377.405521179401830
 21
-162.064607057668920
  0
ARC
  8
0
  6
CONTINUOUS
 62
3
 10
-373.113869073009250
 20
-158.432120020395470
 40
0.999999999999730
 50
203.186145655819840
 51
299.999999999997270
  0
LINE
  8
0
  6
CONTINUOUS
 62
3
 10
-372.613869073009250
 20
-159.298145424180010
 11
-369.995193617231730
 21
-157.786252444867050
  0
ARC
  8
0
  6
CONTINUOUS
 62
3
 10
-377.905521179401830
 20
-161.198581653884390
 40
1.000000000000082
 50
299.999999999997270
 51
24.260829522733715
  0
ARC
  8
0
  6
CONTINUOUS
 62
3
 10
-370.495193617231730
 20
-156.920227041082510
 40
1.000000000000082
 50
299.999999999997270
 51
22.410457608146043
  0
ARC
  8
0
  6
CONTINUOUS
 62
3
 10
-365.678731125506830
 20
-154.139441124942890
 40
1.000000000000094
 50
200.405931773138690
 51
300.000000000003810
  0
LINE
  8
0
  6
CONTINUOUS
 62
3
 10
-365.178731125506830
 20
-155.005466528727200
 11
-362.537495968450230
 21
-153.480548699807630
  0
ARC
  8
0
  6
CONTINUOUS
 62
3
 10
-363.037495968450230
 20
-152.614523296023320
 40
0.999999999999885
 50
300.000000000003810
 51
18.787728582346993
  0
LINE
  8
0
  6
CONTINUOUS
 62
3
 10
-348.496567285077390
 20
-184.655862902789180
 11
-348.496567285077390
 21
-181.641950716495900
  0
ARC
  8
0
  6
CONTINUOUS
 62
3
 10
-349.496567285077390
 20
-176.109027449517840
 40
1.000000000000077
 50
263.186145655820330
 51
0.000000000000000
  0
ARC
  8
0
  6
CONTINUOUS
 62
3
 10
-349.496567285077390
 20
-184.655862902789180
 40
1.000000000000042
 50
264.715267045464260
 51
0.000000000000000
  0
ARC
  8
0
  6
CONTINUOUS
 62
3
 10
-349.496567285077390
 20
-181.641950716495900
 40
1.000000000000000
 50
0.000000000000000
 51
84.260829522738291
  0
ARC
  8
0
  6
CONTINUOUS
 62
3
 10
-345.996567285077390
 20
-493.417390417764300
 40
400.599999999999910
 50
84.256318189006564
 51
90.000000000000000
  0
ARC
  8
0
  6
CONTINUOUS
 62
3
 10
-306.565700284990040
 20
-101.395443675465780
 40
6.600000000000278
 50
44.999999999997215
 51
84.256318189004901
  0
ARC
  8
0
  6
CONTINUOUS
 62
4
 10
-345.996567285077390
 20
-493.417390417764300
 40
390.797000000000030
 50
84.582036237639471
 51
90.000000000000000
  0
ARC
  8
0
  6
CONTINUOUS
 62
4
 10
-309.380602346059050
 20
-107.352908341797370
 40
3.000000000000346
 50
44.999999999996930
 51
84.582036237634313
  0
ARC
  8
0
  6
CONTINUOUS
 62
4
 10
-309.380602346059050
 20
-186.281872493730930
 40
3.000000000000067
 50
275.417963762365730
 51
315.000000000003070
  0
ARC
  8
0
  6
CONTINUOUS
 62
4
 10
-345.996567285077390
 20
199.782609582235980
 40
390.797000000000030
 50
270.000000000000000
 51
275.417963762360500
  0
ARC
  8
0
  6
CONTINUOUS
 62
4
 10
-318.624676697558020
 20
-170.357188075676160
 40
20.797000000000015
 50
315.000000000000000
 51
354.998349729064670
  0
LINE
  8
0
  6
CONTINUOUS
 62
4
 10
-303.918976969221380
 20
-185.062887804012800
 11
-307.259282002499050
 21
-188.403192837290700
  0
ARC
  8
0
  6
CONTINUOUS
 62
4
 10
-587.596567285077750
 20
-146.817390417764160
 40
290.797000000000140
 50
354.998349729065010
 51
0.000000000000000
  0
ARC
  8
0
  6
CONTINUOUS
 62
4
 10
-382.612532224095730
 20
-186.281872493730930
 40
3.000000000000346
 50
224.999999999996960
 51
264.582036237634270
  0
ARC
  8
0
  6
CONTINUOUS
 62
4
 10
-345.996567285077390
 20
199.782609582235980
 40
390.797000000000030
 50
264.582036237639500
 51
270.000000000000000
  0
ARC
  8
0
  6
CONTINUOUS
 62
4
 10
-373.368457872596760
 20
-170.357188075676160
 40
20.796999999999880
 50
185.001650270935330
 51
225.000000000000000
  0
LINE
  8
0
  6
CONTINUOUS
 62
4
 10
-388.074157600933400
 20
-185.062887804012800
 11
-384.733852567655730
 21
-188.403192837290700
  0
ARC
  8
0
  6
CONTINUOUS
 62
4
 10
-104.396567285077250
 20
-146.817390417764160
 40
290.797000000000250
 50
180.000000000000000
 51
185.001650270934930
  0
ARC
  8
0
  6
CONTINUOUS
 62
4
 10
-382.612532224095730
 20
-107.352908341797370
 40
3.000000000000067
 50
95.417963762365673
 51
135.000000000003040
  0
ARC
  8
0
  6
CONTINUOUS
 62
4
 10
-345.996567285077390
 20
-493.417390417764300
 40
390.797000000000030
 50
90.000000000000000
 51
95.417963762360529
  0
ARC
  8
0
  6
CONTINUOUS
 62
4
 10
-373.368457872596760
 20
-123.277592759852140
 40
20.797000000000015
 50
135.000000000000000
 51
174.998349729064670
  0
LINE
  8
0
  6
CONTINUOUS
 62
4
 10
-388.074157600933400
 20
-108.571893031515500
 11
-384.733852567655730
 21
-105.231587998237600
  0
ARC
  8
0
  6
CONTINUOUS
 62
4
 10
-104.396567285077250
 20
-146.817390417764160
 40
290.796999999999910
 50
174.998349729065040
 51
180.000000000000000
  0
ARC
  8
0
  6
CONTINUOUS
 62
3
 10
-265.057798151095770
 20
-171.817390417764160
 40
5.000000000000000
 50
270.000000000000000
 51
355.138594604201330
  0
ARC
  8
0
  6
CONTINUOUS
 62
3
 10
-265.057798151095770
 20
-121.817390417764140
 40
4.999999999999893
 50
4.861405395798621
 51
90.000000000000000
  0
LINE
  8
0
  6
CONTINUOUS
 62
3
 10
-288.496567285077390
 20
-176.817390417764160
 11
-265.057798151095770
 21
-176.817390417764160
  0
LINE
  8
0
  6
CONTINUOUS
 62
3
 10
-288.496567285077390
 20
-116.817390417764140
 11
-265.057798151095770
 21
-116.817390417764140
  0
ARC
  8
0
  6
CONTINUOUS
 62
3
 10
-558.996567285077390
 20
-146.817390417764160
 40
300.000000000000170
 50
355.138594604201960
 51
4.861405395798038
  0
LINE
  8
0
  6
CONTINUOUS
 62
3
 10
-259.006984132595110
 20
-144.317390417764160
 11
-258.496567285077390
 21
-144.317390417764160
  0
LINE
  8
0
  6
CONTINUOUS
 62
3
 10
-259.006984132595110
 20
-149.317390417764160
 11
-258.496567285077390
 21
-149.317390417764160
  0
LINE
  8
0
  6
CONTINUOUS
 62
3
 10
-258.496567285077390
 20
-149.317390417764160
 11
-258.496567285077390
 21
-144.317390417764160
  0
ARC
  8
0
  6
CONTINUOUS
 62
3
 10
-309.006500046931020
 20
-118.753633786748520
 40
20.599999999999916
 50
5.752282731536487
 51
44.999999999997321
  0
LINE
  8
0
  6
CONTINUOUS
 62
3
 10
-294.440100354487410
 20
-104.187234094306270
 11
-301.898795529158410
 21
-96.728538919634602
  0
ARC
  8
0
  6
CONTINUOUS
 62
3
 10
-587.596567285077750
 20
-146.817390417764160
 40
300.600000000000360
 50
0.000000000000000
 51
5.752282731536607
  0
LINE
  8
0
  6
CONTINUOUS
 62
3
 10
-288.695118225176200
 20
-115.317390417764140
 11
-288.496567285077390
 21
-115.317390417764140
  0
LINE
  8
0
  6
CONTINUOUS
 62
3
 10
-288.496567285077390
 20
-116.824891355502000
 11
-288.496567285077390
 21
-115.317390417764140
  0
ARC
  8
0
  6
CONTINUOUS
 62
4
 10
-309.006500046931020
 20
-118.753633786748520
 40
10.797000000000011
 50
5.752282731536912
 51
44.999999999998295
  0
LINE
  8
0
  6
CONTINUOUS
 62
4
 10
-301.371868130459690
 20
-111.119001870277640
 11
-307.259282002499050
 21
-105.231587998237600
  0
ARC
  8
0
  6
CONTINUOUS
 62
4
 10
-587.596567285077750
 20
-146.817390417764160
 40
290.797000000000480
 50
0.000000000000000
 51
5.752282731536627
  0
ARC
  8
0
  6
CONTINUOUS
 62
3
 10
-587.596567285077750
 20
-146.817390417764160
 40
300.599999999999910
 50
354.247717268463420
 51
0.000000000000000
  0
LINE
  8
0
  6
CONTINUOUS
 62
3
 10
-294.440100354487410
 20
-189.447546741222030
 11
-301.898795529158410
 21
-196.906241915893700
  0
ARC
  8
0
  6
CONTINUOUS
 62
3
 10
-309.006500046931020
 20
-174.881147048779780
 40
20.600000000000069
 50
315.000000000002670
 51
354.247717268463480
  0
ARC
  8
0
  6
CONTINUOUS
 62
3
 10
-345.996567285077390
 20
199.782609582235980
 40
400.599999999999910
 50
270.000000000000000
 51
275.743681810993450
  0
ARC
  8
0
  6
CONTINUOUS
 62
3
 10
-306.565700284990040
 20
-192.239337160062520
 40
6.600000000000009
 50
275.743681810995100
 51
315.000000000002790
  0
ARC
  8
0
  6
CONTINUOUS
 62
3
 10
-104.396567285077020
 20
-146.817390417764160
 40
300.600000000000360
 50
180.000000000000000
 51
185.752282731536610
  0
LINE
  8
0
  6
CONTINUOUS
 62
3
 10
-397.553034215667370
 20
-189.447546741222030
 11
-390.094339040996370
 21
-196.906241915893700
  0
ARC
  8
0
  6
CONTINUOUS
 62
3
 10
-382.986634523223760
 20
-174.881147048779780
 40
20.599999999999916
 50
185.752282731536500
 51
224.999999999997330
  0
ARC
  8
0
  6
CONTINUOUS
 62
3
 10
-345.996567285077390
 20
199.782609582235980
 40
400.599999999999910
 50
264.256318189006550
 51
270.000000000000000
  0
ARC
  8
0
  6
CONTINUOUS
 62
3
 10
-385.427434285164740
 20
-192.239337160062520
 40
6.600000000000278
 50
224.999999999997190
 51
264.256318189004900
  0
ARC
  8
0
  6
CONTINUOUS
 62
3
 10
-104.396567285077020
 20
-146.817390417764160
 40
300.599999999999910
 50
174.247717268463390
 51
180.000000000000000
  0
LINE
  8
0
  6
CONTINUOUS
 62
3
 10
-397.553034215667370
 20
-104.187234094306270
 11
-390.094339040996370
 21
-96.728538919634602
  0
ARC
  8
0
  6
CONTINUOUS
 62
3
 10
-382.986634523223760
 20
-118.753633786748520
 40
20.600000000000069
 50
135.000000000002670
 51
174.247717268463500
  0
ARC
  8
0
  6
CONTINUOUS
 62
3
 10
-345.996567285077390
 20
-493.417390417764300
 40
400.599999999999910
 50
90.000000000000000
 51
95.743681810993436
  0
ARC
  8
0
  6
CONTINUOUS
 62
3
 10
-385.427434285164740
 20
-101.395443675465780
 40
6.600000000000009
 50
95.743681810995099
 51
135.000000000002790
  0
LINE
  8
0
  6
CONTINUOUS
 62
3
 10
-288.496567285077390
 20
-178.317390417764160
 11
-288.496567285077390
 21
-176.805376272194390
  0
LINE
  8
0
  6
CONTINUOUS
 62
3
 10
-288.695118225176200
 20
-178.317390417764160
 11
-288.496567285077390
 21
-178.317390417764160
  0
LINE
  8
0
  6
DASHDOT
 62
4
 10
-226.254670403519410
 20
-146.817390417764160
 11
-471.954509691280690
 21
-146.817390417764160
  0
LINE
  8
0
  6
DASHDOT
 62
4
 10
-369.882996036794790
 20
-141.317390417764160
 11
-322.275318778200020
 21
-141.317390417764160
  0
LINE
  8
0
  6
DASHDOT
 62
4
 10
-345.996567285077390
 20
-18.250173959256259
 11
-345.996567285077390
 21
-273.410524410611290
  0
TEXT
  8
0
  6
CONTINUOUS
 62
3
 10
-382.320770263671880
 20
150.829986572265620
 40
7.919999599456787
  1
Ｓ１４１
 50
0.000002504478167
 41
0.984848598876354
  7
STANDARD1
  0
TEXT
  8
0
  6
CONTINUOUS
 62
3
 10
-382.320770263671880
 20
138.109985351562500
 40
7.919999599456787
  1
三菱ギヤードモートル
 50
0.000002504478167
 41
0.984848598876354
  7
STANDARD1
  0
TEXT
  8
0
  6
CONTINUOUS
 62
3
 10
-382.320770263671880
 20
125.389991760253900
 40
7.919999599456787
  1
ＧＭ－ＳＦＳ
 50
0.000002504478167
 41
0.984848598876354
  7
STANDARD1
  0
TEXT
  8
0
  6
CONTINUOUS
 62
3
 10
-382.320770263671880
 20
112.669990539550780
 40
7.919999599456787
  1
０．１ｋＷ
 50
0.000002504478167
 41
0.984848598876354
  7
STANDARD1
  0
TEXT
  8
0
  6
CONTINUOUS
 62
3
 10
-382.320770263671880
 20
99.949989318847656
 40
7.919999599456787
  1
１／５４０～１／９００
 50
0.000002504478167
 41
0.984848598876354
  7
STANDARD1
  0
TEXT
  8
0
  6
CONTINUOUS
 62
3
 10
-382.320770263671880
 20
87.229988098144531
 40
7.919999599456787
  1
ＳＣＡＬＥ１／１
 50
0.000002504478167
 41
0.984848598876354
  7
STANDARD1
  0
ARC
  8
0
  6
CONTINUOUS
 62
3
 10
-335.496567285077160
 20
-80.317390417767442
 40
10.000000000000000
 50
270.000000000000000
 51
0.000000000000000
  0
LINE
  8
0
  6
CONTINUOUS
 62
3
 10
-356.496567285077330
 20
-90.317390417767442
 11
-335.496567285077160
 21
-90.317390417767442
  0
ARC
  8
0
  6
CONTINUOUS
 62
3
 10
-356.496567285077330
 20
-80.317390417767442
 40
10.000000000000057
 50
180.000000000000000
 51
270.000000000000000
  0
ARC
  8
0
  6
CONTINUOUS
 62
3
 10
254.518980347110760
 20
-30.817390417767456
 40
1.999999999999694
 50
45.000000000000000
 51
90.000000000000000
  0
ARC
  8
0
  6
CONTINUOUS
 62
3
 10
124.425344663832900
 20
33.856579521468120
 40
3.000000000000000
 50
0.000000000000000
 51
87.999999999996348
  0
ARC
  8
0
  6
CONTINUOUS
 62
3
 10
124.425344663832900
 20
233.517401444921180
 40
3.000000000000001
 50
272.000000000003640
 51
0.000000000000000
  0
ARC
  8
0
  6
CONTINUOUS
 62
3
 10
104.134508947246780
 20
76.177600824441015
 40
3.000000000000160
 50
38.406432913586237
 51
90.000000000000000
  0
LINE
  8
0
  6
CONTINUOUS
 62
3
 10
106.485380085331370
 20
78.041308122307782
 11
126.776215801917480
 21
52.446548629584868
  0
ARC
  8
0
  6
CONTINUOUS
 62
3
 10
124.425344663832900
 20
50.582841331718100
 40
3.000000000000000
 50
0.000000000000000
 51
38.406432913586237
  0
ARC
  8
0
  6
CONTINUOUS
 62
3
 10
104.134508947246780
 20
70.692319450202376
 40
3.000000000000160
 50
38.406432913586237
 51
90.000000000000000
  0
LINE
  8
0
  6
CONTINUOUS
 62
3
 10
106.485380085331370
 20
72.556026748069144
 11
126.776215801917480
 21
46.961267255346229
  0
ARC
  8
0
  6
CONTINUOUS
 62
3
 10
124.425344663832900
 20
45.097559957479461
 40
3.000000000000000
 50
0.000000000000000
 51
38.406432913586237
  0
LINE
  8
0
  6
CONTINUOUS
 62
3
 10
124.170043813416440
 20
79.177600824441015
 11
109.187328874328840
 21
79.177600824441015
  0
ARC
  8
0
  6
CONTINUOUS
 62
3
 10
104.134508947246780
 20
196.681661516186920
 40
3.000000000000000
 50
270.000000000000000
 51
321.593567086413770
  0
LINE
  8
0
  6
CONTINUOUS
 62
3
 10
106.485380085331370
 20
194.817954218320150
 11
126.776215801917480
 21
220.412713711043070
  0
ARC
  8
0
  6
CONTINUOUS
 62
3
 10
124.425344663832900
 20
222.276421008909840
 40
3.000000000000160
 50
321.593567086413770
 51
0.000000000000000
  0
ARC
  8
0
  6
CONTINUOUS
 62
3
 10
124.425344663832900
 20
216.791139634671200
 40
3.000000000000160
 50
321.593567086413770
 51
0.000000000000000
  0
ARC
  8
0
  6
CONTINUOUS
 62
3
 10
104.134508947246780
 20
191.196380141948280
 40
3.000000000000000
 50
270.000000000000000
 51
321.593567086413770
  0
LINE
  8
0
  6
CONTINUOUS
 62
3
 10
106.485380085331370
 20
189.332672844081510
 11
126.776215801917480
 21
214.927432336804430
  0
LINE
  8
0
  6
CONTINUOUS
 62
3
 10
124.170043813416440
 20
188.196380141948280
 11
109.187328874328840
 21
188.196380141948280
  0
ARC
  8
0
  6
CONTINUOUS
 62
3
 10
108.584557846642150
 20
139.686990483195070
 40
3.000000000000000
 50
180.000000000000000
 51
270.000000000000000
  0
ARC
  8
0
  6
CONTINUOUS
 62
3
 10
108.584557846642150
 20
127.686990483194670
 40
3.000000000000000
 50
90.000000000000000
 51
180.000000000000000
  0
ARC
  8
0
  6
CONTINUOUS
 62
3
 10
124.425344663832900
 20
127.686990483194670
 40
3.000000000000000
 50
0.000000000000000
 51
90.000000000000000
  0
ARC
  8
0
  6
CONTINUOUS
 62
3
 10
124.425344663832900
 20
139.686990483194620
 40
2.999999999999943
 50
270.000000000000000
 51
0.000000000000000
  0
LINE
  8
0
  6
CONTINUOUS
 62
3
 10
108.584557846642150
 20
130.686990483194680
 11
124.425344663832900
 21
130.686990483194680
  0
LINE
  8
0
  6
CONTINUOUS
 62
3
 10
108.584557846642150
 20
136.686990483194680
 11
124.425344663832900
 21
136.686990483194680
  0
LINE
  8
0
  6
CONTINUOUS
 62
3
 10
203.425344663854730
 20
133.686990483194680
 11
203.425344663854730
 21
114.686990483194670
  0
ARC
  8
0
  6
CONTINUOUS
 62
3
 10
203.025344663854180
 20
149.286990483194070
 40
0.400000000000546
 50
0.000000000000000
 51
90.000000000000000
  0
LINE
  8
0
  6
CONTINUOUS
 62
3
 10
203.425344663854730
 20
114.686990483194670
 11
158.425344663854730
 21
114.686990483194670
  0
LINE
  8
0
  6
CONTINUOUS
 62
3
 10
203.025344663854180
 20
149.686990483194170
 11
155.985152284990140
 21
149.686990483194170
  0
LINE
  8
0
  6
CONTINUOUS
 62
3
 10
158.425344663854730
 20
117.686990483194670
 11
158.425344663854730
 21
114.686990483194670
  0
LINE
  8
0
  6
CONTINUOUS
 62
3
 10
155.425344663854730
 20
149.536990483194070
 11
155.985152284990140
 21
149.686990483194170
  0
LINE
  8
0
  6
CONTINUOUS
 62
3
 10
155.425344663854730
 20
149.536990483194070
 11
154.225344663854910
 21
149.536990483194070
  0
LINE
  8
0
  6
CONTINUOUS
 62
3
 10
151.425344663831990
 20
150.686990483194620
 11
153.225344663854910
 21
150.686990483194170
  0
LINE
  8
0
  6
CONTINUOUS
 62
3
 10
153.425344663854730
 20
150.486990483194350
 11
153.425344663854730
 21
133.686990483194220
  0
ARC
  8
0
  6
CONTINUOUS
 62
3
 10
154.225344663854910
 20
150.336990483194260
 40
0.800000000000237
 50
183.703196634280290
 51
270.000000000000000
  0
LINE
  8
0
  6
CONTINUOUS
 62
3
 10
153.425344663854730
 20
150.486990483194350
 11
153.225344663854910
 21
150.686990483194170
  0
LINE
  8
0
  6
CONTINUOUS
 62
3
 10
155.425344663854730
 20
117.836990483194310
 11
155.985152284990140
 21
117.686990483194220
  0
LINE
  8
0
  6
CONTINUOUS
 62
3
 10
151.425344663831990
 20
116.686990483193760
 11
153.225344663854910
 21
116.686990483194220
  0
LINE
  8
0
  6
CONTINUOUS
 62
3
 10
203.025344663854180
 20
117.686990483194220
 11
155.985152284990140
 21
117.686990483194220
  0
LINE
  8
0
  6
CONTINUOUS
 62
3
 10
155.425344663854730
 20
117.836990483194310
 11
154.225344663854910
 21
117.836990483194310
  0
LINE
  8
0
  6
CONTINUOUS
 62
3
 10
153.425344663854730
 20
116.886990483194490
 11
153.425344663854730
 21
133.686990483194220
  0
ARC
  8
0
  6
CONTINUOUS
 62
3
 10
154.225344663854910
 20
117.036990483194130
 40
0.800000000000182
 50
90.000000000000000
 51
176.296803365719710
  0
LINE
  8
0
  6
CONTINUOUS
 62
3
 10
153.425344663854730
 20
116.886990483194490
 11
153.225344663854910
 21
116.686990483194220
  0
LINE
  8
0
  6
CONTINUOUS
 62
3
 10
203.425344663854730
 20
133.686990483194680
 11
203.425344663854730
 21
149.286990483194530
  0
ARC
  8
0
  6
CONTINUOUS
 62
3
 10
203.025344663854180
 20
118.086990483194310
 40
0.400000000000091
 50
270.000000000000000
 51
0.000000000000000
  0
LINE
  8
0
  6
CONTINUOUS
 62
3
 10
136.379305263647210
 20
21.509559815856846
 11
136.379305263647210
 21
21.186990483194677
  0
LINE
  8
0
  6
CONTINUOUS
 62
3
 10
147.425344663832900
 20
29.686990483194677
 11
146.425344663832900
 21
28.686990483194677
  0
LINE
  8
0
  6
CONTINUOUS
 62
3
 10
146.425344663832900
 20
28.686990483194677
 11
143.425344663832900
 21
28.686990483194677
  0
LINE
  8
0
  6
CONTINUOUS
 62
3
 10
146.425344663832900
 20
238.686990483194620
 11
147.425344663832900
 21
237.686990483194620
  0
LINE
  8
0
  6
CONTINUOUS
 62
3
 10
143.425344663832900
 20
238.686990483194620
 11
146.425344663832900
 21
238.686990483194620
  0
LINE
  8
0
  6
CONTINUOUS
 62
3
 10
150.425344663832900
 20
167.186990483194620
 11
151.425344663832900
 21
167.186990483194620
  0
LINE
  8
0
  6
CONTINUOUS
 62
3
 10
150.425344663832900
 20
100.186990483194670
 11
151.425344663832900
 21
100.186990483194670
  0
LINE
  8
0
  6
CONTINUOUS
 62
3
 10
151.425344663832900
 20
100.186990483194670
 11
151.425344663832900
 21
167.186990483194620
  0
ARC
  8
0
  6
CONTINUOUS
 62
3
 10
146.425327680323560
 20
88.533884183339069
 40
2.999999999999871
 50
300.000187270167030
 51
0.000000000000000
  0
ARC
  8
0
  6
CONTINUOUS
 62
3
 10
150.425344663832900
 20
99.186990483194677
 40
1.000000000000000
 50
90.000000000000000
 51
180.000000000000000
  0
ARC
  8
0
  6
CONTINUOUS
 62
3
 10
150.425344663832900
 20
168.186990483194620
 40
1.000000000000000
 50
180.000000000000000
 51
270.000000000000000
  0
LINE
  8
0
  6
CONTINUOUS
 62
3
 10
129.425344663832900
 20
246.186990483194620
 11
143.425344663832900
 21
246.186990483194620
  0
ARC
  8
0
  6
CONTINUOUS
 62
3
 10
129.425344663832900
 20
244.186990483194620
 40
2.000000000000000
 50
90.000000000000000
 51
180.000000000000000
  0
LINE
  8
0
  6
CONTINUOUS
 62
3
 10
149.425344663832900
 20
133.686990483194680
 11
149.425344663832900
 21
178.840096783049770
  0
LINE
  8
0
  6
CONTINUOUS
 62
3
 10
143.425344663833360
 20
133.686990483194680
 11
143.425344663832900
 21
246.186990483194620
  0
LINE
  8
0
  6
CONTINUOUS
 62
3
 10
149.425344663832900
 20
133.686990483194680
 11
149.425344663832900
 21
88.533884183339069
  0
LINE
  8
0
  6
CONTINUOUS
 62
3
 10
147.425344663832900
 20
133.686990483194680
 11
147.425344663832900
 21
29.686990483194677
  0
LINE
  8
0
  6
CONTINUOUS
 62
3
 10
143.425344663832900
 20
133.686990483194680
 11
143.425344663832900
 21
21.186990483194222
  0
ARC
  8
0
  6
CONTINUOUS
 62
3
 10
149.425344663832900
 20
83.337741566103432
 40
2.999999999999871
 50
120.000187270167010
 51
131.810314895779530
  0
ARC
  8
0
  6
CONTINUOUS
 62
3
 10
146.425344663832900
 20
178.840096783049770
 40
3.000000000000000
 50
0.000000000000000
 51
70.528779365509465
  0
LINE
  8
0
  6
CONTINUOUS
 62
3
 10
147.425344663832900
 20
133.686990483194680
 11
147.425344663832900
 21
237.686990483194620
  0
ARC
  8
0
  6
CONTINUOUS
 62
3
 10
129.425344663832900
 20
23.186990483194677
 40
2.000000000000000
 50
180.000000000000000
 51
270.000000000000000
  0
LINE
  8
0
  6
CONTINUOUS
 62
3
 10
127.425344663832900
 20
23.186990483194677
 11
127.425344663832900
 21
244.186990483194620
  0
LINE
  8
0
  6
CONTINUOUS
 62
3
 10
143.425344663832900
 20
21.186990483194677
 11
129.425344663832900
 21
21.186990483194677
  0
ARC
  8
0
  6
CONTINUOUS
 62
3
 10
139.425344663832900
 20
197.135563802508330
 40
3.000000000000000
 50
90.000000000000000
 51
180.000000000000000
  0
LINE
  8
0
  6
CONTINUOUS
 62
3
 10
136.425344663832900
 20
133.686990483194680
 11
136.425344663832900
 21
221.973787047597800
  0
ARC
  8
0
  6
CONTINUOUS
 62
3
 10
139.425344663832900
 20
221.973787047597800
 40
3.000000000000000
 50
90.000000000000000
 51
180.000000000000000
  0
LINE
  8
0
  6
CONTINUOUS
 62
3
 10
143.425344663833360
 20
224.973787047597800
 11
139.425344663832900
 21
224.973787047597800
  0
LINE
  8
0
  6
CONTINUOUS
 62
3
 10
143.425344663833360
 20
200.135563802508330
 11
139.425344663832900
 21
200.135563802508330
  0
ARC
  8
0
  6
CONTINUOUS
 62
3
 10
139.425344663832900
 20
70.238417163880968
 40
3.000000000000000
 50
180.000000000000000
 51
270.000000000000000
  0
LINE
  8
0
  6
CONTINUOUS
 62
3
 10
136.425344663832900
 20
133.686990483194680
 11
136.425344663832900
 21
45.400193918791501
  0
ARC
  8
0
  6
CONTINUOUS
 62
3
 10
139.425344663832900
 20
45.400193918791501
 40
3.000000000000000
 50
180.000000000000000
 51
270.000000000000000
  0
LINE
  8
0
  6
CONTINUOUS
 62
3
 10
143.425344663833360
 20
42.400193918791501
 11
139.425344663832900
 21
42.400193918791501
  0
LINE
  8
0
  6
CONTINUOUS
 62
3
 10
143.425344663833360
 20
67.238417163880968
 11
139.425344663832900
 21
67.238417163880968
  0
LINE
  8
0
  6
DASHDOT
 62
4
 10
159.061854023674410
 20
34.692041117077679
 11
120.065861834492120
 21
34.692041117077679
  0
LINE
  8
0
  6
DASHDOT
 62
4
 10
159.061854023674410
 20
232.681939849311160
 11
120.065861834492120
 21
232.681939849311160
  0
ARC
  8
0
  6
DASHDOT
 62
4
 10
346.634204036260600
 20
-141.317390417767460
 40
140.000000000000000
 50
219.564062927643480
 51
230.394061368523550
  0
ARC
  8
0
  6
DASHDOT
 62
4
 10
346.634204036260600
 20
-141.317390417767460
 40
140.000000000000030
 50
40.391704612761885
 51
50.554182415261828
  0
LINE
  8
0
  6
CONTINUOUS
 62
3
 10
250.821887500232610
 20
-138.317390417767460
 11
295.988374987858150
 21
-138.317390417767460
  0
LINE
  8
0
  6
CONTINUOUS
 62
3
 10
250.821887500232610
 20
-144.317390417767460
 11
295.988374987858150
 21
-144.317390417767460
  0
LINE
  8
0
  6
CONTINUOUS
 62
3
 10
255.494992047795680
 20
-151.550788601949080
 11
255.494992047795680
 21
-178.947646303243400
  0
LINE
  8
0
  6
CONTINUOUS
 62
3
 10
234.134204036260600
 20
-36.817390417767456
 11
234.134204036260600
 21
-245.817390417767510
  0
LINE
  8
0
  6
CONTINUOUS
 62
3
 10
234.719990473887260
 20
-50.616380290990946
 11
253.036638954973110
 21
-68.933028772076796
  0
LINE
  8
0
  6
DASHDOT
 62
4
 10
471.351936715732340
 20
-141.317390417767460
 11
222.540814687075910
 21
-141.317390417767460
  0
ARC
  8
0
  6
CONTINUOUS
 62
3
 10
346.634204036260600
 20
-141.317390417767460
 40
109.999999999999900
 50
183.563302831523370
 51
212.975300819434210
  0
ARC
  8
0
  6
CONTINUOUS
 62
3
 10
346.634204036260600
 20
-141.317390417767460
 40
109.999999999999980
 50
147.024699180565990
 51
176.212931966134700
  0
ARC
  8
0
  6
CONTINUOUS
 62
3
 10
233.880950694688180
 20
-133.853888499016650
 40
3.000000000000044
 50
296.785437820004520
 51
356.212931966127600
  0
ARC
  8
0
  6
CONTINUOUS
 62
3
 10
236.134204036260600
 20
-138.317390417767910
 40
2.000000000000302
 50
116.785437820020030
 51
180.000000000000000
  0
ARC
  8
0
  6
CONTINUOUS
 62
3
 10
233.852662394376690
 20
-148.340485524629910
 40
3.000000000000222
 50
3.563302831523683
 51
56.843785530303819
  0
ARC
  8
0
  6
CONTINUOUS
 62
3
 10
237.134204036260600
 20
-143.317390417767910
 40
3.000000000000000
 50
180.000000000000000
 51
236.843785530306350
  0
ARC
  8
0
  6
CONTINUOUS
 62
3
 10
260.529572847497550
 20
-149.317390417767460
 40
5.000000000000000
 50
90.000000000000000
 51
178.225864444682000
  0
ARC
  8
0
  6
CONTINUOUS
 62
3
 10
332.634204036260140
 20
-151.550788601949080
 40
77.139211988464439
 50
178.225864444680160
 51
180.000000000000000
  0
ARC
  8
0
  6
CONTINUOUS
 62
3
 10
262.837290802409370
 20
-133.317390417767460
 40
4.999999999999463
 50
165.359522790078730
 51
270.000000000000000
  0
ARC
  8
0
  6
CONTINUOUS
 62
3
 10
332.634204036260140
 20
-151.550788601949080
 40
77.139211988464069
 50
91.910213171709728
 51
165.359522790078270
  0
ARC
  8
0
  6
CONTINUOUS
 62
3
 10
250.821887500232610
 20
-135.317390417767460
 40
3.000000000000075
 50
176.416678301528120
 51
270.000000000000000
  0
ARC
  8
0
  6
CONTINUOUS
 62
3
 10
250.821887500232610
 20
-147.317390417767460
 40
3.000000000000000
 50
90.000000000000000
 51
183.583321698471880
  0
ARC
  8
0
  6
CONTINUOUS
 62
3
 10
295.988374987858150
 20
-147.317390417767460
 40
2.999999999999939
 50
6.756327030581794
 51
90.000000000000000
  0
ARC
  8
0
  6
CONTINUOUS
 62
3
 10
295.988374987858150
 20
-135.317390417767460
 40
3.000000000000000
 50
270.000000000000000
 51
353.243672969409600
  0
ARC
  8
0
  6
CONTINUOUS
 62
3
 10
333.476056934570810
 20
-210.069577036450990
 40
37.999999999999908
 50
128.284839477505610
 51
189.449699705365930
  0
ARC
  8
0
  6
CONTINUOUS
 62
3
 10
306.834488563702510
 20
-176.317142535509960
 40
4.999999999999686
 50
308.284839477501690
 51
41.328301793388754
  0
ARC
  8
0
  6
CONTINUOUS
 62
3
 10
333.476056934570810
 20
-210.069577036450990
 40
31.999999999999872
 50
127.256131004967170
 51
198.872128672720810
  0
ARC
  8
0
  6
CONTINUOUS
 62
3
 10
311.077027949997960
 20
-180.619899609555030
 40
4.999999999999588
 50
307.256131004966900
 51
47.864198486307934
  0
ARC
  8
0
  6
CONTINUOUS
 62
3
 10
260.494992047795680
 20
-178.947646303243400
 40
5.000000000000000
 50
180.000000000000000
 51
203.598301736363200
  0
CIRCLE
  8
0
  6
CONTINUOUS
 62
3
 10
346.634204036260600
 20
-141.317390417767460
 40
33.500000000000000
  0
CIRCLE
  8
0
  6
CONTINUOUS
 62
3
 10
346.634204036260600
 20
-141.317390417767460
 40
105.000000000000000
  0
CIRCLE
  8
0
  6
CONTINUOUS
 62
3
 10
346.634204036260600
 20
-141.317390417767460
 40
99.000000000000000
  0
ARC
  8
0
  6
CONTINUOUS
 62
3
 10
245.965571143107810
 20
-76.004096583942101
 40
9.999999999999902
 50
327.024699180564200
 51
45.000000000000000
  0
CIRCLE
  8
0
  6
CONTINUOUS
 62
3
 10
346.634204036260600
 20
-141.317390417767460
 40
48.000000000000000
  0
LINE
  8
0
  6
DASHDOT
 62
4
 10
384.097823113570480
 20
-146.817390417764610
 11
310.004682642866100
 21
-146.817390417764610
  0
LINE
  8
0
  6
DASHED
 62
3
 10
294.134204036260480
 20
-111.317390417765970
 11
289.134204036260480
 21
-111.317390417765970
  0
ARC
  8
0
  6
DASHED
 62
3
 10
292.834204036260300
 20
-122.517390417766020
 40
0.200000000000045
 50
90.000000000000000
 51
180.000000000000000
  0
LINE
  8
0
  6
DASHED
 62
3
 10
292.634204036260480
 20
-163.117390417765930
 11
292.634204036260480
 21
-122.517390417766020
  0
LINE
  8
0
  6
DASHED
 62
3
 10
294.134204036260480
 20
-122.317390417765970
 11
292.834204036260300
 21
-122.317390417765970
  0
LINE
  8
0
  6
DASHED
 62
3
 10
294.134204036260480
 20
-122.317390417765970
 11
294.134204036260480
 21
-111.317390417765970
  0
LINE
  8
0
  6
DASHED
 62
3
 10
289.134204036260480
 20
-174.317390417765980
 11
289.134204036260480
 21
-111.317390417765970
  0
LINE
  8
0
  6
DASHED
 62
3
 10
289.134204036260480
 20
-112.817390417765970
 11
265.695434902278860
 21
-112.817390417765970
  0
LINE
  8
0
  6
DASHED
 62
3
 10
294.134204036260480
 20
-174.317390417765980
 11
289.134204036260480
 21
-174.317390417765980
  0
LINE
  8
0
  6
DASHED
 62
3
 10
294.134204036260480
 20
-163.317390417765980
 11
294.134204036260480
 21
-174.317390417765980
  0
ARC
  8
0
  6
DASHED
 62
3
 10
292.834204036260300
 20
-163.117390417765930
 40
0.199999999999818
 50
180.000000000000000
 51
270.000000000000000
  0
LINE
  8
0
  6
DASHED
 62
3
 10
294.134204036260480
 20
-163.317390417765980
 11
292.834204036260300
 21
-163.317390417765980
  0
LINE
  8
0
  6
DASHED
 62
3
 10
289.134204036260480
 20
-172.817390417765980
 11
265.695434902278860
 21
-172.817390417765980
  0
ARC
  8
0
  6
DASHED
 62
3
 10
265.695434902278860
 20
-167.817390417765980
 40
4.999999999999893
 50
184.861405395798610
 51
270.000000000000000
  0
LINE
  8
0
  6
DASHED
 62
3
 10
259.644620883778200
 20
-145.317390417765980
 11
259.134204036260480
 21
-145.317390417765980
  0
ARC
  8
0
  6
DASHED
 62
3
 10
559.634204036260480
 20
-142.817390417766030
 40
300.000000000000000
 50
182.603096834018090
 51
184.861405395798040
  0
ARC
  8
0
  6
DASHED
 62
3
 10
559.634204036260480
 20
-142.817390417766030
 40
300.000000000000000
 50
176.589933695865170
 51
182.603096834018090
  0
LINE
  8
0
  6
DASHED
 62
3
 10
259.134204036260480
 20
-145.317390417765980
 11
259.134204036260480
 21
-140.317390417765980
  0
LINE
  8
0
  6
DASHED
 62
3
 10
259.644620883778200
 20
-140.317390417765980
 11
259.134204036260480
 21
-140.317390417765980
  0
ARC
  8
0
  6
DASHED
 62
3
 10
265.695434902278860
 20
-117.817390417765970
 40
4.999999999999973
 50
120.737138633403800
 51
175.138594604201390
  0
ARC
  8
0
  6
DASHED
 62
3
 10
265.695434902278860
 20
-117.817390417765970
 40
5.000000000000000
 50
90.000000000000000
 51
120.737138633403800
  0
ARC
  8
0
  6
DASHED
 62
3
 10
559.634204036260480
 20
-142.817390417766030
 40
300.000000000000170
 50
175.138594604201960
 51
176.589933695865170
  0
LINE
  8
0
  6
DASHDOT
 62
4
 10
455.134204036260600
 20
-32.817390417767456
 11
436.209036053799080
 21
-51.742558400228859
  0
ARC
  8
0
  6
CONTINUOUS
 62
3
 10
236.134204036260310
 20
-49.202166728617556
 40
2.000000000000000
 50
179.999999999999180
 51
224.999999999998860
  0
CIRCLE
  8
0
  6
CONTINUOUS
 62
3
 10
247.639254670143600
 20
-42.322441051650912
 40
7.500000000000000
  0
ARC
  8
0
  6
DASHDOT
 62
4
 10
346.634204036260600
 20
-141.317390417767460
 40
140.000000000000000
 50
129.427904650992760
 51
140.645355621180780
  0
ARC
  8
0
  6
CONTINUOUS
 62
3
 10
281.320910202434790
 20
-40.648757524614666
 40
9.999999999999758
 50
225.000000000003690
 51
302.975300819434380
  0
ARC
  8
0
  6
CONTINUOUS
 62
3
 10
346.634204036260600
 20
-141.317390417767460
 40
110.000000000000000
 50
90.000000000000000
 51
122.975300819434320
  0
ARC
  8
0
  6
CONTINUOUS
 62
3
 10
242.134204036260600
 20
-36.817390417767456
 40
8.000000000000000
 50
90.000000000000000
 51
180.000000000000000
  0
ARC
  8
0
  6
CONTINUOUS
 62
3
 10
457.134204036260600
 20
-49.202166728618067
 40
2.000000000000016
 50
315.000000000009210
 51
0.000000000000000
  0
ARC
  8
0
  6
CONTINUOUS
 62
3
 10
438.749427725409990
 20
-30.817390417767456
 40
2.000000000000000
 50
90.000000000000000
 51
134.999999999990790
  0
CIRCLE
  8
0
  6
CONTINUOUS
 62
3
 10
445.629153402377600
 20
-42.322441051650912
 40
7.500000000000000
  0
ARC
  8
0
  6
CONTINUOUS
 62
3
 10
451.134204036260600
 20
-36.817390417767456
 40
8.000000000000000
 50
0.000000000000000
 51
90.000000000000000
  0
ARC
  8
0
  6
CONTINUOUS
 62
3
 10
411.947497870086410
 20
-40.648757524614666
 40
10.000000000000284
 50
237.024699180565620
 51
314.999999999996310
  0
ARC
  8
0
  6
CONTINUOUS
 62
3
 10
346.634204036260600
 20
-141.317390417767460
 40
109.999999999999850
 50
57.024699180565683
 51
90.000000000000000
  0
ARC
  8
0
  6
CONTINUOUS
 62
3
 10
352.634204036260600
 20
-45.505073881739918
 40
3.000000000000075
 50
86.416678301528108
 51
180.000000000000000
  0
ARC
  8
0
  6
CONTINUOUS
 62
3
 10
340.634204036260600
 20
-45.505073881739918
 40
3.000000000000000
 50
0.000000000000000
 51
93.583321698471892
  0
LINE
  8
0
  6
CONTINUOUS
 62
3
 10
255.933193909483630
 20
-29.403176855394577
 11
274.249842390569940
 21
-47.719825336480426
  0
LINE
  8
0
  6
DASHDOT
 62
4
 10
238.134204036260600
 20
-32.817390417767456
 11
257.059372018721660
 21
-51.742558400228859
  0
LINE
  8
0
  6
CONTINUOUS
 62
3
 10
242.134204036260600
 20
-28.817390417767456
 11
451.134204036260600
 21
-28.817390417767456
  0
LINE
  8
0
  6
CONTINUOUS
 62
3
 10
437.335214163037560
 20
-29.403176855394577
 11
419.018565681951260
 21
-47.719825336480426
  0
LINE
  8
0
  6
DASHDOT
 62
4
 10
346.634204036260600
 20
-16.781715319437353
 11
346.634204036260600
 21
-277.267715678644890
  0
LINE
  8
0
  6
DASHDOT
 62
4
 10
238.134204036260600
 20
-249.817390417767510
 11
257.059372018721660
 21
-230.892222435306000
  0
ARC
  8
0
  6
DASHDOT
 62
4
 10
346.634204036260600
 20
-141.317390417767460
 40
140.000000000000000
 50
309.576128205518610
 51
320.579305127729010
  0
LINE
  8
0
  6
DASHDOT
 62
4
 10
455.134204036260600
 20
-249.817390417767510
 11
436.209036053799080
 21
-230.892222435306000
  0
CIRCLE
  8
0
  6
CONTINUOUS
 62
3
 10
346.634204036260600
 20
-141.317390417767460
 40
23.500000000000000
  0
ARC
  8
0
  6
CONTINUOUS
 62
3
 10
438.749427725409990
 20
-251.817390417767510
 40
1.999999999999695
 50
225.000000000018420
 51
270.000000000000000
  0
CIRCLE
  8
0
  6
CONTINUOUS
 62
3
 10
445.629153402377600
 20
-240.312339783884060
 40
7.500000000000000
  0
ARC
  8
0
  6
CONTINUOUS
 62
3
 10
457.134204036260600
 20
-233.432614106917360
 40
2.000000000000000
 50
0.000000000000000
 51
44.999999999990798
  0
ARC
  8
0
  6
CONTINUOUS
 62
3
 10
411.947497870086410
 20
-241.986023310920300
 40
9.999999999999437
 50
45.000000000001855
 51
122.975300819435740
  0
ARC
  8
0
  6
CONTINUOUS
 62
3
 10
346.634204036260600
 20
-141.317390417767460
 40
110.000000000000050
 50
270.000000000000000
 51
302.975300819434150
  0
ARC
  8
0
  6
CONTINUOUS
 62
3
 10
447.302836929413390
 20
-206.630684251593320
 40
9.999999999999902
 50
147.024699180564230
 51
224.999999999998180
  0
ARC
  8
0
  6
CONTINUOUS
 62
3
 10
254.518980347110760
 20
-251.817390417767510
 40
2.000000000000000
 50
270.000000000000000
 51
314.999999999990790
  0
CIRCLE
  8
0
  6
CONTINUOUS
 62
3
 10
247.639254670143600
 20
-240.312339783884060
 40
7.500000000000000
  0
ARC
  8
0
  6
CONTINUOUS
 62
3
 10
236.134204036260600
 20
-233.432614106917360
 40
2.000000000000016
 50
135.000000000009210
 51
180.000000000000000
  0
ARC
  8
0
  6
CONTINUOUS
 62
3
 10
281.320910202434790
 20
-241.986023310920300
 40
9.999999999999902
 50
57.024699180564248
 51
134.999999999998150
  0
ARC
  8
0
  6
CONTINUOUS
 62
3
 10
346.634204036260600
 20
-141.317390417767460
 40
110.000000000000280
 50
237.024699180565850
 51
270.000000000000000
  0
ARC
  8
0
  6
CONTINUOUS
 62
3
 10
245.965571143107810
 20
-206.630684251593320
 40
9.999999999999758
 50
315.000000000000000
 51
32.975300819435773
  0
ARC
  8
0
  6
CONTINUOUS
 62
3
 10
451.134204036260600
 20
-245.817390417767510
 40
8.000000000000000
 50
270.000000000000000
 51
0.000000000000000
  0
ARC
  8
0
  6
CONTINUOUS
 62
3
 10
242.134204036260600
 20
-245.817390417767510
 40
8.000000000000000
 50
180.000000000000000
 51
270.000000000000000
  0
ARC
  8
0
  6
CONTINUOUS
 62
3
 10
447.302836929413390
 20
-76.004096583942101
 40
10.000000000000082
 50
135.000000000001820
 51
212.975300819435770
  0
ARC
  8
0
  6
CONTINUOUS
 62
3
 10
398.634204036260600
 20
-254.317390417767510
 40
12.566440900597172
 50
270.000000000000000
 51
358.218230102087600
  0
ARC
  8
0
  6
CONTINUOUS
 62
3
 10
294.634204036260600
 20
-254.317390417767510
 40
12.530739605809545
 50
181.781769897913250
 51
270.000000000000000
  0
ARC
  8
0
  6
CONTINUOUS
 62
3
 10
416.625501106471350
 20
-254.877059723177870
 40
5.433559099403096
 50
168.753929484950930
 51
178.218230102085670
  0
ARC
  8
0
  6
CONTINUOUS
 62
3
 10
276.642906966049850
 20
-254.877059723177870
 40
5.469260394190242
 50
1.781769897912350
 51
11.246070515048753
  0
ARC
  8
0
  6
CONTINUOUS
 62
3
 10
432.773416024724610
 20
-178.947646303243400
 40
5.000000000000556
 50
336.401698263640920
 51
0.000000000000000
  0
ARC
  8
0
  6
CONTINUOUS
 62
3
 10
298.465072766391130
 20
-222.037491958252360
 40
4.999999999999471
 50
239.173668330597560
 51
18.872128672723658
  0
ARC
  8
0
  6
CONTINUOUS
 62
3
 10
385.428476236619640
 20
-199.584057084433940
 40
27.000000000000107
 50
353.114296223340200
 51
77.708022749951752
  0
ARC
  8
0
  6
CONTINUOUS
 62
3
 10
392.241070634765490
 20
-168.317644473353600
 40
4.999999999999936
 50
149.373547225007940
 51
257.708022749950660
  0
ARC
  8
0
  6
CONTINUOUS
 62
3
 10
417.197669424110250
 20
-203.420509119308970
 40
4.999999999999885
 50
173.114296223340180
 51
318.648896542797160
  0
ARC
  8
0
  6
CONTINUOUS
 62
3
 10
395.072651841718650
 20
-162.828242892690070
 40
4.999999999999789
 50
156.054647304130040
 51
255.297858639474210
  0
ARC
  8
0
  6
CONTINUOUS
 62
3
 10
385.428476236619640
 20
-199.584057084433940
 40
32.999999999999922
 50
5.724045726881045
 51
75.297858639474498
  0
ARC
  8
0
  6
CONTINUOUS
 62
3
 10
423.239000640738600
 20
-195.794038049451100
 40
5.000000000000169
 50
185.724045726879550
 51
324.581888853420930
  0
ARC
  8
0
  6
CONTINUOUS
 62
3
 10
291.059561874005340
 20
-217.129389128640070
 40
4.999999999999974
 50
233.756397618482510
 51
9.449699705361347
  0
ARC
  8
0
  6
CONTINUOUS
 62
3
 10
432.738835225023650
 20
-149.317390417767460
 40
4.999999999999758
 50
1.774135555318164
 51
90.000000000000000
  0
ARC
  8
0
  6
CONTINUOUS
 62
3
 10
442.446520572288140
 20
-147.317390417767460
 40
3.000000000000075
 50
356.416678301528120
 51
90.000000000000000
  0
ARC
  8
0
  6
CONTINUOUS
 62
3
 10
442.446520572288140
 20
-135.317390417767460
 40
3.000000000000000
 50
270.000000000000000
 51
3.583321698471884
  0
ARC
  8
0
  6
CONTINUOUS
 62
3
 10
397.280033084663050
 20
-135.317390417767460
 40
3.000000000000444
 50
186.756327030589400
 51
270.000000000000000
  0
ARC
  8
0
  6
CONTINUOUS
 62
3
 10
397.280033084663050
 20
-147.317390417767460
 40
3.000000000000000
 50
90.000000000000000
 51
173.243672969419240
  0
ARC
  8
0
  6
CONTINUOUS
 62
3
 10
360.634204036260600
 20
-151.550788601949080
 40
77.139211988464012
 50
0.000000000000000
 51
1.774135555319836
  0
ARC
  8
0
  6
CONTINUOUS
 62
3
 10
340.634204036260600
 20
-90.671561369365008
 40
3.000000000000390
 50
276.756327030580790
 51
0.000000000000000
  0
ARC
  8
0
  6
CONTINUOUS
 62
3
 10
352.634204036260600
 20
-90.671561369365008
 40
3.000000000000000
 50
180.000000000000000
 51
263.243672969410620
  0
ARC
  8
0
  6
CONTINUOUS
 62
3
 10
346.634204036260600
 20
-571.317390417767460
 40
497.139211988464010
 50
90.695721199138291
 51
91.910213171709955
  0
ARC
  8
0
  6
CONTINUOUS
 62
3
 10
340.634204036260600
 20
-77.214606753700082
 40
3.000000000000000
 50
0.000000000000000
 51
90.695721199139356
  0
ARC
  8
0
  6
CONTINUOUS
 62
3
 10
457.134204036260600
 20
-138.317390417767460
 40
2.000000000000000
 50
0.000000000000000
 51
63.214562179985727
  0
ARC
  8
0
  6
CONTINUOUS
 62
3
 10
459.387457377833020
 20
-133.853888499016650
 40
3.000000000000164
 50
183.787068033871800
 51
243.214562179987690
  0
ARC
  8
0
  6
CONTINUOUS
 62
3
 10
456.134204036260600
 20
-143.317390417767460
 40
3.000000000000028
 50
303.156214469688900
 51
0.000000000000000
  0
ARC
  8
0
  6
CONTINUOUS
 62
3
 10
459.415745678144050
 20
-148.340485524629910
 40
3.000000000000028
 50
123.156214469688900
 51
176.436697168475770
  0
ARC
  8
0
  6
CONTINUOUS
 62
3
 10
346.634204036260600
 20
-141.317390417767460
 40
109.999999999999870
 50
3.787068033865315
 51
32.975300819434004
  0
ARC
  8
0
  6
CONTINUOUS
 62
3
 10
346.634204036260600
 20
-141.317390417767460
 40
110.000000000000270
 50
327.024699180565790
 51
356.436697168476600
  0
LINE
  8
0
  6
CONTINUOUS
 62
3
 10
437.335214163037560
 20
-253.231603980140850
 11
419.018565681951260
 21
-234.914955499055000
  0
LINE
  8
0
  6
CONTINUOUS
 62
3
 10
458.548417598633930
 20
-232.018400544544480
 11
440.231769117547630
 21
-213.701752063458630
  0
LINE
  8
0
  6
CONTINUOUS
 62
3
 10
255.933193909483630
 20
-253.231603980140850
 11
274.249842390569940
 21
-234.914955499055000
  0
LINE
  8
0
  6
CONTINUOUS
 62
3
 10
234.719990473887260
 20
-232.018400544544480
 11
253.036638954973110
 21
-213.701752063458630
  0
LINE
  8
0
  6
CONTINUOUS
 62
3
 10
242.134204036260600
 20
-253.817390417767510
 11
451.134204036260600
 21
-253.817390417767510
  0
LINE
  8
0
  6
CONTINUOUS
 62
3
 10
458.548417598633930
 20
-50.616380290990946
 11
440.231769117547630
 21
-68.933028772076796
  0
LINE
  8
0
  6
CONTINUOUS
 62
3
 10
398.634204036260600
 20
-266.817390417767510
 11
346.634204036260600
 21
-266.817390417767510
  0
LINE
  8
0
  6
CONTINUOUS
 62
3
 10
294.634204036260600
 20
-266.817390417767510
 11
346.634204036260600
 21
-266.817390417767510
  0
LINE
  8
0
  6
CONTINUOUS
 62
3
 10
437.773416024724610
 20
-151.550788601949080
 11
437.773416024724610
 21
-178.947646303243400
  0
LINE
  8
0
  6
CONTINUOUS
 62
3
 10
442.446520572288140
 20
-144.317390417767460
 11
397.280033084663050
 21
-144.317390417767460
  0
LINE
  8
0
  6
CONTINUOUS
 62
3
 10
442.446520572288140
 20
-138.317390417767460
 11
397.280033084663050
 21
-138.317390417767460
  0
LINE
  8
0
  6
CONTINUOUS
 62
3
 10
349.634204036260600
 20
-45.505073881739918
 11
349.634204036260600
 21
-90.671561369365008
  0
LINE
  8
0
  6
CONTINUOUS
 62
3
 10
343.634204036260600
 20
-45.505073881739918
 11
343.634204036260600
 21
-90.671561369365008
  0
LINE
  8
0
  6
CONTINUOUS
 62
3
 10
459.134204036260600
 20
-36.817390417767456
 11
459.134204036260600
 21
-136.317390417767460
  0
LINE
  8
0
  6
CONTINUOUS
 62
3
 10
459.134204036260600
 20
-136.317390417767460
 11
459.134204036260600
 21
-146.317390417767460
  0
LINE
  8
0
  6
CONTINUOUS
 62
3
 10
459.134204036260600
 20
-146.317390417767460
 11
459.134204036260600
 21
-245.817390417767510
  0
CIRCLE
  8
0
  6
CONTINUOUS
 62
4
 10
346.634204036260600
 20
-141.317390417767460
 40
4.000000000000000
  0
CIRCLE
  8
0
  6
CONTINUOUS
 62
3
 10
346.634204036260600
 20
-141.317390417767460
 40
3.323500000000024
  0
LINE
  8
0
  6
CONTINUOUS
 62
3
 10
327.634204036259690
 20
-136.317390417767460
 11
335.634204036259690
 21
-136.317390417767460
  0
LINE
  8
0
  6
CONTINUOUS
 62
3
 10
327.634204036259690
 20
-146.317390417767460
 11
327.634204036259690
 21
-136.317390417767460
  0
ARC
  8
0
  6
CONTINUOUS
 62
3
 10
346.634204036259690
 20
-141.317390417767460
 40
16.000000000000192
 50
198.209956864282790
 51
161.790043135717210
  0
LINE
  8
0
  6
CONTINUOUS
 62
3
 10
335.634204036259690
 20
-146.317390417767460
 11
335.634204036259690
 21
-136.317390417767460
  0
LINE
  8
0
  6
CONTINUOUS
 62
3
 10
327.634204036259690
 20
-146.317390417767460
 11
335.634204036259690
 21
-146.317390417767460
  0
ARC
  8
0
  6
CONTINUOUS
 62
3
 10
346.634204036260660
 20
-571.317390417767460
 40
497.139211988463840
 50
88.089786828290059
 51
89.304278800861724
  0
ARC
  8
0
  6
CONTINUOUS
 62
3
 10
352.634204036260600
 20
-77.214606753700082
 40
2.999999999999993
 50
89.304278800860644
 51
180.000000000000000
  0
ARC
  8
0
  6
CONTINUOUS
 62
3
 10
430.431117270111830
 20
-133.317390417767460
 40
4.999999999999972
 50
270.000000000000000
 51
14.640477209921270
  0
ARC
  8
0
  6
CONTINUOUS
 62
3
 10
360.634204036261050
 20
-151.550788601949080
 40
77.139211988464197
 50
14.640477209921752
 51
88.089786828290272
  0
ARC
  8
0
  6
CONTINUOUS
 62
3
 10
150.425344663832900
 20
-106.817390417767440
 40
1.000000000000000
 50
180.000000000000000
 51
270.000000000000000
  0
ARC
  8
0
  6
CONTINUOUS
 62
3
 10
146.425344663832900
 20
-96.164284117912288
 40
3.000000000000000
 50
0.000000000000000
 51
70.528779365509465
  0
ARC
  8
0
  6
CONTINUOUS
 62
3
 10
150.425344663832900
 20
-175.817390417767460
 40
1.000000000000000
 50
90.000000000000000
 51
180.000000000000000
  0
ARC
  8
0
  6
CONTINUOUS
 62
3
 10
129.425344663832900
 20
-30.817390417767442
 40
2.000000000000000
 50
90.000000000000000
 51
180.000000000000000
  0
ARC
  8
0
  6
CONTINUOUS
 62
3
 10
129.425344663832900
 20
-263.761611591813620
 40
2.999999999999897
 50
268.371217566513960
 51
0.000000000000000
  0
ARC
  8
0
  6
CONTINUOUS
 62
3
 10
135.425344663832900
 20
-256.817390417767510
 40
3.000000000000000
 50
90.000000000000000
 51
180.000000000000000
  0
ARC
  8
0
  6
CONTINUOUS
 62
3
 10
103.817945212468430
 20
-66.206605702105193
 40
3.000000000000001
 50
272.000000000003640
 51
329.999999999998350
  0
ARC
  8
0
  6
CONTINUOUS
 62
3
 10
146.425327680323560
 20
-186.470496717623060
 40
2.999999999999871
 50
300.000187270167030
 51
0.000000000000000
  0
ARC
  8
0
  6
CONTINUOUS
 62
3
 10
149.425344663832900
 20
-191.666639334858700
 40
2.999999999999871
 50
120.000187270167010
 51
131.810314895779530
  0
LINE
  8
0
  6
CONTINUOUS
 62
3
 10
143.425344663832900
 20
-141.317390417767460
 11
143.425344663832900
 21
-253.817390417767970
  0
LINE
  8
0
  6
CONTINUOUS
 62
3
 10
149.425344663832900
 20
-141.317390417767460
 11
149.425344663832900
 21
-96.164284117912288
  0
LINE
  8
0
  6
CONTINUOUS
 62
3
 10
149.425344663832900
 20
-141.317390417767460
 11
149.425344663832900
 21
-186.470496717623060
  0
LINE
  8
0
  6
CONTINUOUS
 62
3
 10
143.425344663832900
 20
-253.817390417767510
 11
129.425344663832900
 21
-253.817390417767510
  0
LINE
  8
0
  6
CONTINUOUS
 62
3
 10
143.425344663833360
 20
-141.317390417767460
 11
143.425344663832900
 21
-28.817390417767442
  0
LINE
  8
0
  6
CONTINUOUS
 62
3
 10
151.425344663832900
 20
-174.817390417767460
 11
151.425344663832900
 21
-107.817390417767440
  0
LINE
  8
0
  6
DASHDOT
 62
4
 10
109.120302594702480
 20
-141.317390417767460
 11
217.296721617138250
 21
-141.317390417767460
  0
LINE
  8
0
  6
CONTINUOUS
 62
3
 10
150.425344663832900
 20
-174.817390417767460
 11
151.425344663832900
 21
-174.817390417767460
  0
LINE
  8
0
  6
CONTINUOUS
 62
3
 10
150.425344663832900
 20
-107.817390417767440
 11
151.425344663832900
 21
-107.817390417767440
  0
LINE
  8
0
  6
CONTINUOUS
 62
3
 10
129.425344663832900
 20
-28.817390417767442
 11
143.425344663832900
 21
-28.817390417767442
  0
LINE
  8
0
  6
CONTINUOUS
 62
3
 10
132.425344663832900
 20
-256.817390417767510
 11
132.425344663832900
 21
-263.761611591813620
  0
LINE
  8
0
  6
CONTINUOUS
 62
3
 10
127.425344663832900
 20
-251.817390417767510
 11
127.425344663832900
 21
-30.817390417767442
  0
LINE
  8
0
  6
CONTINUOUS
 62
3
 10
106.416021423821570
 20
-67.706605702105193
 11
127.033787325458200
 21
-31.995587621909621
  0
LINE
  8
0
  6
CONTINUOUS
 62
3
 10
147.425344663832900
 20
-141.317390417767460
 11
147.425344663832900
 21
-37.317390417767442
  0
LINE
  8
0
  6
CONTINUOUS
 62
3
 10
143.425344663832900
 20
-36.317390417767442
 11
146.425344663832900
 21
-36.317390417767442
  0
LINE
  8
0
  6
CONTINUOUS
 62
3
 10
146.425344663832900
 20
-36.317390417767442
 11
147.425344663832900
 21
-37.317390417767442
  0
LINE
  8
0
  6
CONTINUOUS
 62
3
 10
146.425344663832900
 20
-246.317390417767460
 11
143.425344663832900
 21
-246.317390417767460
  0
LINE
  8
0
  6
CONTINUOUS
 62
3
 10
147.425344663832900
 20
-245.317390417767460
 11
146.425344663832900
 21
-246.317390417767460
  0
LINE
  8
0
  6
CONTINUOUS
 62
3
 10
136.379305263647210
 20
-253.494821085105340
 11
136.379305263647210
 21
-253.817390417767510
  0
LINE
  8
0
  6
CONTINUOUS
 62
3
 10
147.425344663832900
 20
-141.317390417767460
 11
147.425344663832900
 21
-245.317390417767460
  0
ARC
  8
0
  6
CONTINUOUS
 62
3
 10
124.435711114104150
 20
-30.495587621909621
 40
3.000000000000640
 50
330.000000000007050
 51
356.309860996867600
  0
ARC
  8
0
  6
CONTINUOUS
 62
3
 10
129.425344663832900
 20
-251.817390417767510
 40
2.000000000000000
 50
180.000000000000000
 51
270.000000000000000
  0
LINE
  8
0
  6
CONTINUOUS
 62
3
 10
136.425344663832900
 20
-133.317390417767460
 11
136.425344663832900
 21
-53.030593853364266
  0
LINE
  8
0
  6
CONTINUOUS
 62
3
 10
143.425344663833360
 20
-50.030593853364266
 11
139.425344663832900
 21
-50.030593853364266
  0
LINE
  8
0
  6
CONTINUOUS
 62
3
 10
143.425344663833360
 20
-74.868817098453732
 11
139.425344663832900
 21
-74.868817098453732
  0
LINE
  8
0
  6
CONTINUOUS
 62
3
 10
139.425344663832900
 20
-136.317390417767460
 11
143.425344663833360
 21
-136.317390417767460
  0
ARC
  8
0
  6
CONTINUOUS
 62
3
 10
139.425344663832900
 20
-133.317390417767460
 40
3.000000000000000
 50
180.000000000000000
 51
270.000000000000000
  0
ARC
  8
0
  6
CONTINUOUS
 62
3
 10
139.425344663832900
 20
-77.868817098453732
 40
3.000000000000000
 50
90.000000000000000
 51
180.000000000000000
  0
ARC
  8
0
  6
CONTINUOUS
 62
3
 10
139.425344663832900
 20
-53.030593853364266
 40
3.000000000000000
 50
90.000000000000000
 51
180.000000000000000
  0
LINE
  8
0
  6
CONTINUOUS
 62
3
 10
139.425344663832900
 20
-146.317390417767460
 11
143.425344663833360
 21
-146.317390417767460
  0
LINE
  8
0
  6
CONTINUOUS
 62
3
 10
143.425344663833360
 20
-207.765963737081170
 11
139.425344663832900
 21
-207.765963737081170
  0
LINE
  8
0
  6
CONTINUOUS
 62
3
 10
143.425344663833360
 20
-232.604186982170630
 11
139.425344663832900
 21
-232.604186982170630
  0
ARC
  8
0
  6
CONTINUOUS
 62
3
 10
139.425344663832900
 20
-229.604186982170630
 40
3.000000000000000
 50
180.000000000000000
 51
270.000000000000000
  0
LINE
  8
0
  6
CONTINUOUS
 62
3
 10
136.425344663832900
 20
-149.317390417767460
 11
136.425344663832900
 21
-229.604186982170630
  0
ARC
  8
0
  6
CONTINUOUS
 62
3
 10
139.425344663832900
 20
-204.765963737081170
 40
3.000000000000000
 50
180.000000000000000
 51
270.000000000000000
  0
ARC
  8
0
  6
CONTINUOUS
 62
3
 10
139.425344663832900
 20
-149.317390417767460
 40
3.000000000000000
 50
90.000000000000000
 51
180.000000000000000
  0
LINE
  8
0
  6
DASHDOT
 62
4
 10
159.061854023674410
 20
-42.322441051650898
 11
120.065861834492120
 21
-42.322441051650898
  0
LINE
  8
0
  6
DASHDOT
 62
4
 10
159.061854023674410
 20
-240.312339783884450
 11
120.065861834492120
 21
-240.312339783884450
  0
ARC
  8
0
  6
CONTINUOUS
 62
3
 10
163.425344663855640
 20
-141.317390417767460
 40
5.000000000000000
 50
90.000000000000000
 51
270.000000000000000
  0
LINE
  8
0
  6
CONTINUOUS
 62
3
 10
203.425344663854730
 20
-146.317390417767460
 11
163.425344663855640
 21
-146.317390417767460
  0
LINE
  8
0
  6
CONTINUOUS
 62
3
 10
203.425344663854730
 20
-136.317390417767460
 11
163.425344663855640
 21
-136.317390417767460
  0
ARC
  8
0
  6
CONTINUOUS
 62
3
 10
203.025344663855090
 20
-156.917390417767360
 40
0.400000000000091
 50
270.000000000000000
 51
0.000000000000000
  0
LINE
  8
0
  6
CONTINUOUS
 62
3
 10
203.425344663854730
 20
-141.317390417767460
 11
203.425344663854730
 21
-156.917390417767360
  0
LINE
  8
0
  6
CONTINUOUS
 62
3
 10
153.425344663854730
 20
-158.117390417767180
 11
153.225344663854910
 21
-158.317390417767460
  0
ARC
  8
0
  6
CONTINUOUS
 62
3
 10
154.225344663854910
 20
-157.967390417767090
 40
0.799999999999727
 50
90.000000000000000
 51
176.296803365752200
  0
LINE
  8
0
  6
CONTINUOUS
 62
3
 10
153.425344663854730
 20
-158.117390417767180
 11
153.425344663854730
 21
-141.317390417767460
  0
LINE
  8
0
  6
CONTINUOUS
 62
3
 10
155.425344663854730
 20
-157.167390417767360
 11
154.225344663854910
 21
-157.167390417767360
  0
LINE
  8
0
  6
CONTINUOUS
 62
3
 10
203.025344663855090
 20
-157.317390417767460
 11
155.985152284990140
 21
-157.317390417767460
  0
LINE
  8
0
  6
CONTINUOUS
 62
3
 10
151.425344663832900
 20
-158.317390417767460
 11
153.225344663854910
 21
-158.317390417767460
  0
LINE
  8
0
  6
CONTINUOUS
 62
3
 10
155.425344663854730
 20
-157.167390417767360
 11
155.985152284990140
 21
-157.317390417767460
  0
LINE
  8
0
  6
CONTINUOUS
 62
3
 10
153.425344663854730
 20
-124.517390417767260
 11
153.225344663854910
 21
-124.317390417767440
  0
ARC
  8
0
  6
CONTINUOUS
 62
3
 10
154.225344663854910
 20
-124.667390417767350
 40
0.800000000000237
 50
183.703196634280290
 51
270.000000000000000
  0
LINE
  8
0
  6
CONTINUOUS
 62
3
 10
153.425344663854730
 20
-124.517390417767260
 11
153.425344663854730
 21
-141.317390417767460
  0
LINE
  8
0
  6
CONTINUOUS
 62
3
 10
151.425344663832900
 20
-124.317390417767440
 11
153.225344663854910
 21
-124.317390417767440
  0
LINE
  8
0
  6
CONTINUOUS
 62
3
 10
155.425344663854730
 20
-125.467390417767070
 11
154.225344663854910
 21
-125.467390417767070
  0
LINE
  8
0
  6
CONTINUOUS
 62
3
 10
155.425344663854730
 20
-125.467390417767070
 11
155.985152284990140
 21
-125.317390417767440
  0
LINE
  8
0
  6
CONTINUOUS
 62
3
 10
203.025344663855090
 20
-125.317390417767440
 11
155.985152284990140
 21
-125.317390417767440
  0
ARC
  8
0
  6
CONTINUOUS
 62
3
 10
203.025344663855090
 20
-125.717390417767070
 40
0.399999999999636
 50
0.000000000000000
 51
90.000000000000000
  0
LINE
  8
0
  6
CONTINUOUS
 62
3
 10
203.425344663854730
 20
-141.317390417767460
 11
203.425344663854730
 21
-125.717390417767070
  0
LINE
  8
0
  6
CONTINUOUS
 62
3
 10
124.444329385524490
 20
-85.876936421817831
 11
107.694890502122460
 21
-85.876936421817831
  0
LINE
  8
0
  6
CONTINUOUS
 62
3
 10
106.484701989436640
 20
-84.779871864893252
 11
126.744576583992730
 21
-60.087837235389529
  0
ARC
  8
0
  6
CONTINUOUS
 62
3
 10
104.165470069276800
 20
-82.876936421817831
 40
3.000000000000000
 50
270.000000000000000
 51
320.631038306637150
  0
ARC
  8
0
  6
CONTINUOUS
 62
3
 10
124.425344663832900
 20
-58.184901792314562
 40
2.999999999999867
 50
320.631038306643860
 51
0.000000000000000
  0
ARC
  8
0
  6
CONTINUOUS
 62
3
 10
124.425344663832900
 20
-52.699620418076378
 40
2.999999999999867
 50
320.631038306643860
 51
0.000000000000000
  0
LINE
  8
0
  6
CONTINUOUS
 62
3
 10
106.484701989436640
 20
-79.294590490655068
 11
126.744576583992730
 21
-54.602555861151345
  0
ARC
  8
0
  6
CONTINUOUS
 62
3
 10
104.165470069276800
 20
-77.391655047579647
 40
3.000000000000000
 50
270.000000000000000
 51
320.631038306637150
  0
ENDSEC
  0
EOF
