  0
SECTION
  2
HEADER
  9
$FILLMODE
 70
1
  9
$TEXTSTYLE
  7
STANDARD1
  9
$ACADVER
  1
AC1009
  9
$DIMASZ
 40
1.931851648807023
  9
$DIMEXE
 40
2.000000000000000
  9
$DIMEXO
 40
1.000000000000000
  9
$DIMLFAC
 40
1.000000000000000
  9
$DIMSCALE
 40
1.000000000000000
  9
$DIMTAD
 70
1
  9
$DIMTFAC
 40
0.714285731315613
  9
$DIMTXT
 40
2.799999952316284
  9
$LUPREC
 70
3
  9
$TEXTSIZE
 40
2.799999952316284
  9
$REGENMODE
 70
1
  0
ENDSEC
  0
SECTION
  2
TABLES
  0
TABLE
  2
LTYPE
 70
4
  0
LTYPE
  2
CONTINUOUS
 70
64
  3
Solid line
 72
65
 73
0
 40
0.0
  0
LTYPE
  2
DASHED
 70
64
  3
-- -- -- -- -- -- -- -- -- -- -- -- -- -- --
 72
65
 73
2
 40
0.75
 49
0.5
 49
-0.25
  0
LTYPE
  2
DASHDOT
 70
64
  3
__ . __ . __ . __ . __ . __ . __ . __ . __ . __
 72
65
 73
4
 40
1.0
 49
0.5
 49
-0.25
 49
0.0
 49
-0.25
  0
LTYPE
  2
DIVIDE
 70
64
  3
__ . . __ . . __ . . __ . . __ . . __ . . __
 72
65
 73
6
 40
1.25
 49
0.5
 49
-0.25
 49
0.0
 49
-0.25
 49
0.0
 49
-0.25
  0
ENDTAB
  0
TABLE
  2
LAYER
 70
1
  0
LAYER
  2
0
 70
64
 62
2
  6
CONTINUOUS
  0
ENDTAB
  0
TABLE
  2
STYLE
 70
4
  0
STYLE
  2
STANDARD1
 70
64
 40
0.0
 41
1.0
 50
0.0
 71
0
 42
2.799999952316284
  3
MONOTXT
  4
BIGFONT
  0
STYLE
  2
STANDARD2
 70
68
 40
0.0
 41
1.0
 50
0.0
 71
0
 42
2.799999952316284
  3
MONOTXT
  4
BIGFONT
  0
STYLE
  2
STANDARD3
 70
64
 40
0.0
 41
1.0
 50
0.0
 71
0
 42
2.799999952316284
  3
MONOTXT
  4

  0
STYLE
  2
STANDARD4
 70
68
 40
0.0
 41
1.0
 50
0.0
 71
0
 42
2.799999952316284
  3
MONOTXT
  4

  0
ENDTAB
  0
TABLE
  2
VIEW
 70
0
  0
ENDTAB
  0
ENDSEC
  0
SECTION
  2
BLOCKS
  0
BLOCK
  8
0
  2
SYM1
 70
64
 10
0.000000000000000
 20
0.000000000000000
  0
POINT
  8
0
  6
CONTINUOUS
 62
3
 10
0.000000000000000
 20
0.000000000000000
  0
LINE
  8
0
  6
CONTINUOUS
 62
3
 10
0.000000000000000
 20
-6.500000000000000
 11
-0.000000000000000
 21
6.500000000000000
  0
LINE
  8
0
  6
CONTINUOUS
 62
3
 10
-7.999999046325684
 20
5.633875846862793
 11
-7.999999046325684
 21
-5.634070396423340
  0
LINE
  8
0
  6
CONTINUOUS
 62
3
 10
0.000000000000000
 20
6.500000000000000
 11
-7.499999046325684
 21
6.500000000000000
  0
LINE
  8
0
  6
CONTINUOUS
 62
3
 10
-0.000000000000000
 20
-6.500000000000000
 11
-7.499998092651367
 21
-6.500000000000000
  0
LINE
  8
0
  6
CONTINUOUS
 62
3
 10
-7.499999203818277
 20
6.499999909101064
 11
-7.999999021366804
 21
5.633876130311293
  0
LINE
  8
0
  6
CONTINUOUS
 62
3
 10
-7.499997911632022
 20
-6.499999445138201
 11
-7.999998623386432
 21
-5.634070287011241
  0
LINE
  8
0
  6
CONTINUOUS
 62
3
 10
-7.499999046325684
 20
6.500000000000000
 11
-7.499999046325684
 21
-6.500000000000000
  0
ENDBLK
  8
0
  0
BLOCK
  8
0
  2
SYM2
 70
64
 10
0.000000000000000
 20
0.000000000000000
  0
POINT
  8
0
  6
CONTINUOUS
 62
3
 10
0.000000000000000
 20
0.000000000000000
  0
LINE
  8
0
  6
CONTINUOUS
 62
3
 10
0.000000000000000
 20
-6.500000000000000
 11
-0.000000000000000
 21
6.500000000000000
  0
LINE
  8
0
  6
CONTINUOUS
 62
3
 10
-7.999999046325684
 20
5.633875846862793
 11
-7.999999046325684
 21
-5.634070396423340
  0
LINE
  8
0
  6
CONTINUOUS
 62
3
 10
0.000000000000000
 20
6.500000000000000
 11
-7.499999046325684
 21
6.500000000000000
  0
LINE
  8
0
  6
CONTINUOUS
 62
3
 10
-0.000000000000000
 20
-6.500000000000000
 11
-7.499998092651367
 21
-6.500000000000000
  0
LINE
  8
0
  6
CONTINUOUS
 62
3
 10
-7.499999203818277
 20
6.499999909101064
 11
-7.999999021366804
 21
5.633876130311293
  0
LINE
  8
0
  6
CONTINUOUS
 62
3
 10
-7.499997911632022
 20
-6.499999445138201
 11
-7.999998623386432
 21
-5.634070287011241
  0
LINE
  8
0
  6
CONTINUOUS
 62
3
 10
-7.499999046325684
 20
6.500000000000000
 11
-7.499999046325684
 21
-6.500000000000000
  0
ENDBLK
  8
0
  0
BLOCK
  8
0
  2
SYM3
 70
64
 10
0.000000000000000
 20
0.000000000000000
  0
POINT
  8
0
  6
CONTINUOUS
 62
3
 10
0.000000000000000
 20
0.000000000000000
  0
LINE
  8
0
  6
CONTINUOUS
 62
3
 10
0.000000000000000
 20
-6.500000000000000
 11
-0.000000000000000
 21
6.500000000000000
  0
LINE
  8
0
  6
CONTINUOUS
 62
3
 10
-7.999999046325684
 20
5.633875846862793
 11
-7.999999046325684
 21
-5.634070396423340
  0
LINE
  8
0
  6
CONTINUOUS
 62
3
 10
0.000000000000000
 20
6.500000000000000
 11
-7.499999046325684
 21
6.500000000000000
  0
LINE
  8
0
  6
CONTINUOUS
 62
3
 10
-0.000000000000000
 20
-6.500000000000000
 11
-7.499998092651367
 21
-6.500000000000000
  0
LINE
  8
0
  6
CONTINUOUS
 62
3
 10
-7.499999203818277
 20
6.499999909101064
 11
-7.999999021366804
 21
5.633876130311293
  0
LINE
  8
0
  6
CONTINUOUS
 62
3
 10
-7.499997911632022
 20
-6.499999445138201
 11
-7.999998623386432
 21
-5.634070287011241
  0
LINE
  8
0
  6
CONTINUOUS
 62
3
 10
-7.499999046325684
 20
6.500000000000000
 11
-7.499999046325684
 21
-6.500000000000000
  0
ENDBLK
  8
0
  0
BLOCK
  8
0
  2
SYM4
 70
64
 10
0.000000000000000
 20
0.000000000000000
  0
ARC
  8
0
  6
CONTINUOUS
 62
3
 10
2.040000915527344
 20
-0.000008403939319
 40
5.539999008178711
 50
155.470186567177590
 51
204.529249714844780
  0
ARC
  8
0
  6
CONTINUOUS
 62
3
 10
-1.929986000061035
 20
3.450007438659668
 40
1.569999694824219
 50
179.999745461767870
 51
227.099746430935310
  0
ARC
  8
0
  6
CONTINUOUS
 62
3
 10
-1.930013656616211
 20
-3.449991226196289
 40
1.569999694824219
 50
132.899744492600430
 51
179.999745461767870
  0
LINE
  8
0
  6
CONTINUOUS
 62
3
 10
-2.999989096318101
 20
2.300010681148706
 11
0.000009475023974
 21
2.300000190729854
  0
LINE
  8
0
  6
CONTINUOUS
 62
3
 10
-3.000007597599688
 20
-2.299985885626180
 11
-0.000008155921205
 21
-2.299998283391806
  0
LINE
  8
0
  6
CONTINUOUS
 62
3
 10
0.000018950048186
 20
4.600000381469727
 11
-0.000018950048186
 21
-4.600000381469727
  0
LINE
  8
0
  6
CONTINUOUS
 62
3
 10
-2.999979146307184
 20
4.600011825551216
 11
0.000019104623546
 21
4.600001335133485
  0
LINE
  8
0
  6
CONTINUOUS
 62
3
 10
-3.499965125831864
 20
3.900000017678906
 11
-2.999963510759926
 21
4.599997551336457
  0
LINE
  8
0
  6
CONTINUOUS
 62
3
 10
-3.500011920918244
 20
-3.899979774771439
 11
-3.499980449679529
 21
3.900009925545944
  0
LINE
  8
0
  6
CONTINUOUS
 62
3
 10
-2.999996095884057
 20
-4.599969847145871
 11
-3.499991138206155
 21
-3.899966512616629
  0
LINE
  8
0
  6
CONTINUOUS
 62
3
 10
-0.000017659877873
 20
-4.599998474126673
 11
-3.000017102555891
 21
-4.599986076361044
  0
POINT
  8
0
  6
CONTINUOUS
 62
3
 10
0.000000000000000
 20
0.000000000000000
  0
ENDBLK
  8
0
  0
BLOCK
  8
0
  2
SYM5
 70
64
 10
0.000000000000000
 20
0.000000000000000
  0
ARC
  8
0
  6
CONTINUOUS
 62
3
 10
2.040000915527344
 20
-0.000008403939319
 40
5.539999008178711
 50
155.470186567177590
 51
204.529249714844780
  0
ARC
  8
0
  6
CONTINUOUS
 62
3
 10
-1.929986000061035
 20
3.450007438659668
 40
1.569999694824219
 50
179.999745461767870
 51
227.099746430935310
  0
ARC
  8
0
  6
CONTINUOUS
 62
3
 10
-1.930013656616211
 20
-3.449991226196289
 40
1.569999694824219
 50
132.899744492600430
 51
179.999745461767870
  0
LINE
  8
0
  6
CONTINUOUS
 62
3
 10
-2.999989096318101
 20
2.300010681148706
 11
0.000009475023974
 21
2.300000190729854
  0
LINE
  8
0
  6
CONTINUOUS
 62
3
 10
-3.000007597599688
 20
-2.299985885626180
 11
-0.000008155921205
 21
-2.299998283391806
  0
LINE
  8
0
  6
CONTINUOUS
 62
3
 10
0.000018950048186
 20
4.600000381469727
 11
-0.000018950048186
 21
-4.600000381469727
  0
LINE
  8
0
  6
CONTINUOUS
 62
3
 10
-2.999979146307184
 20
4.600011825551216
 11
0.000019104623546
 21
4.600001335133485
  0
LINE
  8
0
  6
CONTINUOUS
 62
3
 10
-3.499965125831864
 20
3.900000017678906
 11
-2.999963510759926
 21
4.599997551336457
  0
LINE
  8
0
  6
CONTINUOUS
 62
3
 10
-3.500011920918244
 20
-3.899979774771439
 11
-3.499980449679529
 21
3.900009925545944
  0
LINE
  8
0
  6
CONTINUOUS
 62
3
 10
-2.999996095884057
 20
-4.599969847145871
 11
-3.499991138206155
 21
-3.899966512616629
  0
LINE
  8
0
  6
CONTINUOUS
 62
3
 10
-0.000017659877873
 20
-4.599998474126673
 11
-3.000017102555891
 21
-4.599986076361044
  0
POINT
  8
0
  6
CONTINUOUS
 62
3
 10
0.000000000000000
 20
0.000000000000000
  0
ENDBLK
  8
0
  0
BLOCK
  8
0
  2
SYM6
 70
64
 10
0.000000000000000
 20
0.000000000000000
  0
LINE
  8
0
  6
CONTINUOUS
 62
3
 10
-7.499999046325684
 20
6.500000000000000
 11
-7.499999046325684
 21
-6.500000000000000
  0
LINE
  8
0
  6
CONTINUOUS
 62
3
 10
-7.499997911632022
 20
-6.499999445138201
 11
-7.999998623386432
 21
-5.634070287011241
  0
LINE
  8
0
  6
CONTINUOUS
 62
3
 10
-7.499999203818277
 20
6.499999909101064
 11
-7.999999021366804
 21
5.633876130311293
  0
LINE
  8
0
  6
CONTINUOUS
 62
3
 10
-0.000000000000000
 20
-6.500000000000000
 11
-7.499998092651367
 21
-6.500000000000000
  0
LINE
  8
0
  6
CONTINUOUS
 62
3
 10
0.000000000000000
 20
6.500000000000000
 11
-7.499999046325684
 21
6.500000000000000
  0
LINE
  8
0
  6
CONTINUOUS
 62
3
 10
-7.999999046325684
 20
5.633875846862793
 11
-7.999999046325684
 21
-5.634070396423340
  0
LINE
  8
0
  6
CONTINUOUS
 62
3
 10
0.000000000000000
 20
-6.500000000000000
 11
-0.000000000000000
 21
6.500000000000000
  0
POINT
  8
0
  6
CONTINUOUS
 62
3
 10
0.000000000000000
 20
0.000000000000000
  0
ENDBLK
  8
0
  0
BLOCK
  8
0
  2
SYM7
 70
64
 10
0.000000000000000
 20
0.000000000000000
  0
LINE
  8
0
  6
CONTINUOUS
 62
3
 10
-7.499999046325684
 20
6.500000000000000
 11
-7.499999046325684
 21
-6.500000000000000
  0
LINE
  8
0
  6
CONTINUOUS
 62
3
 10
-7.499997911632022
 20
-6.499999445138201
 11
-7.999998623386432
 21
-5.634070287011241
  0
LINE
  8
0
  6
CONTINUOUS
 62
3
 10
-7.499999203818277
 20
6.499999909101064
 11
-7.999999021366804
 21
5.633876130311293
  0
LINE
  8
0
  6
CONTINUOUS
 62
3
 10
-0.000000000000000
 20
-6.500000000000000
 11
-7.499998092651367
 21
-6.500000000000000
  0
LINE
  8
0
  6
CONTINUOUS
 62
3
 10
0.000000000000000
 20
6.500000000000000
 11
-7.499999046325684
 21
6.500000000000000
  0
LINE
  8
0
  6
CONTINUOUS
 62
3
 10
-7.999999046325684
 20
5.633875846862793
 11
-7.999999046325684
 21
-5.634070396423340
  0
LINE
  8
0
  6
CONTINUOUS
 62
3
 10
0.000000000000000
 20
-6.500000000000000
 11
-0.000000000000000
 21
6.500000000000000
  0
POINT
  8
0
  6
CONTINUOUS
 62
3
 10
0.000000000000000
 20
0.000000000000000
  0
ENDBLK
  8
0
  0
BLOCK
  8
0
  2
SYM8
 70
64
 10
0.000000000000000
 20
0.000000000000000
  0
LINE
  8
0
  6
CONTINUOUS
 62
3
 10
-7.499999046325684
 20
6.500000000000000
 11
-7.499999046325684
 21
-6.500000000000000
  0
LINE
  8
0
  6
CONTINUOUS
 62
3
 10
-7.499997911632022
 20
-6.499999445138201
 11
-7.999998623386432
 21
-5.634070287011241
  0
LINE
  8
0
  6
CONTINUOUS
 62
3
 10
-7.499999203818277
 20
6.499999909101064
 11
-7.999999021366804
 21
5.633876130311293
  0
LINE
  8
0
  6
CONTINUOUS
 62
3
 10
-0.000000000000000
 20
-6.500000000000000
 11
-7.499998092651367
 21
-6.500000000000000
  0
LINE
  8
0
  6
CONTINUOUS
 62
3
 10
0.000000000000000
 20
6.500000000000000
 11
-7.499999046325684
 21
6.500000000000000
  0
LINE
  8
0
  6
CONTINUOUS
 62
3
 10
-7.999999046325684
 20
5.633875846862793
 11
-7.999999046325684
 21
-5.634070396423340
  0
LINE
  8
0
  6
CONTINUOUS
 62
3
 10
0.000000000000000
 20
-6.500000000000000
 11
-0.000000000000000
 21
6.500000000000000
  0
POINT
  8
0
  6
CONTINUOUS
 62
3
 10
0.000000000000000
 20
0.000000000000000
  0
ENDBLK
  8
0
  0
BLOCK
  8
0
  2
SYM9
 70
64
 10
0.000000000000000
 20
0.000000000000000
  0
LINE
  8
0
  6
CONTINUOUS
 62
3
 10
-7.499999046325684
 20
6.500000000000000
 11
-7.499999046325684
 21
-6.500000000000000
  0
LINE
  8
0
  6
CONTINUOUS
 62
3
 10
-7.499997911632022
 20
-6.499999445138201
 11
-7.999998623386432
 21
-5.634070287011241
  0
LINE
  8
0
  6
CONTINUOUS
 62
3
 10
-7.499999203818277
 20
6.499999909101064
 11
-7.999999021366804
 21
5.633876130311293
  0
LINE
  8
0
  6
CONTINUOUS
 62
3
 10
-0.000000000000000
 20
-6.500000000000000
 11
-7.499998092651367
 21
-6.500000000000000
  0
LINE
  8
0
  6
CONTINUOUS
 62
3
 10
0.000000000000000
 20
6.500000000000000
 11
-7.499999046325684
 21
6.500000000000000
  0
LINE
  8
0
  6
CONTINUOUS
 62
3
 10
-7.999999046325684
 20
5.633875846862793
 11
-7.999999046325684
 21
-5.634070396423340
  0
LINE
  8
0
  6
CONTINUOUS
 62
3
 10
0.000000000000000
 20
-6.500000000000000
 11
-0.000000000000000
 21
6.500000000000000
  0
POINT
  8
0
  6
CONTINUOUS
 62
3
 10
0.000000000000000
 20
0.000000000000000
  0
ENDBLK
  8
0
  0
BLOCK
  8
0
  2
SYM10
 70
64
 10
0.000000000000000
 20
0.000000000000000
  0
LINE
  8
0
  6
CONTINUOUS
 62
3
 10
-7.499999046325684
 20
6.500000000000000
 11
-7.499999046325684
 21
-6.500000000000000
  0
LINE
  8
0
  6
CONTINUOUS
 62
3
 10
-7.499997911632022
 20
-6.499999445138201
 11
-7.999998623386432
 21
-5.634070287011241
  0
LINE
  8
0
  6
CONTINUOUS
 62
3
 10
-7.499999203818277
 20
6.499999909101064
 11
-7.999999021366804
 21
5.633876130311293
  0
LINE
  8
0
  6
CONTINUOUS
 62
3
 10
-0.000000000000000
 20
-6.500000000000000
 11
-7.499998092651367
 21
-6.500000000000000
  0
LINE
  8
0
  6
CONTINUOUS
 62
3
 10
0.000000000000000
 20
6.500000000000000
 11
-7.499999046325684
 21
6.500000000000000
  0
LINE
  8
0
  6
CONTINUOUS
 62
3
 10
-7.999999046325684
 20
5.633875846862793
 11
-7.999999046325684
 21
-5.634070396423340
  0
LINE
  8
0
  6
CONTINUOUS
 62
3
 10
0.000000000000000
 20
-6.500000000000000
 11
-0.000000000000000
 21
6.500000000000000
  0
POINT
  8
0
  6
CONTINUOUS
 62
3
 10
0.000000000000000
 20
0.000000000000000
  0
ENDBLK
  8
0
  0
BLOCK
  8
0
  2
SYM11
 70
64
 10
0.000000000000000
 20
0.000000000000000
  0
POINT
  8
0
  6
CONTINUOUS
 62
3
 10
0.000000000000000
 20
5.633955001831055
  0
POINT
  8
0
  6
CONTINUOUS
 62
3
 10
0.500000119209290
 20
6.500000000000000
  0
LINE
  8
0
  6
CONTINUOUS
 62
3
 10
-0.000004704988612
 20
-3.464098175748802
 11
-2.999997577100373
 21
-1.732046218032735
  0
LINE
  8
0
  6
CONTINUOUS
 62
3
 10
0.000006618601731
 20
3.464096896385627
 11
2.999997425948948
 21
1.732046782136365
  0
LINE
  8
0
  6
CONTINUOUS
 62
3
 10
2.999998112093635
 20
-1.732051392778772
 11
-0.000004464412200
 21
-3.464098365415111
  0
LINE
  8
0
  6
CONTINUOUS
 62
3
 10
0.000006701720849
 20
3.464096999935236
 11
-2.999997939551520
 21
1.732051821705568
  0
LINE
  8
0
  6
CONTINUOUS
 62
3
 10
2.999996662140697
 20
1.732046953225571
 11
2.999997615814979
 21
-1.732051023458999
  0
LINE
  8
0
  6
CONTINUOUS
 62
3
 10
-2.999996662140960
 20
-1.732045999551255
 11
-2.999997615815242
 21
1.732051977133316
  0
POINT
  8
0
  6
CONTINUOUS
 62
3
 10
0.000000000000000
 20
0.000000000000000
  0
CIRCLE
  8
0
  6
CONTINUOUS
 62
3
 10
0.000000000000000
 20
0.000000000000000
 40
6.500000000000000
  0
CIRCLE
  8
0
  6
CONTINUOUS
 62
3
 10
0.000000000000000
 20
0.000000000000000
 40
5.633955001831055
  0
ENDBLK
  8
0
  0
BLOCK
  8
0
  2
SYM12
 70
64
 10
0.000000000000000
 20
0.000000000000000
  0
POINT
  8
0
  6
CONTINUOUS
 62
3
 10
0.000000000000000
 20
5.633955001831055
  0
POINT
  8
0
  6
CONTINUOUS
 62
3
 10
0.500000119209290
 20
6.500000000000000
  0
LINE
  8
0
  6
CONTINUOUS
 62
3
 10
-0.000004704988612
 20
-3.464098175748802
 11
-2.999997577100373
 21
-1.732046218032735
  0
LINE
  8
0
  6
CONTINUOUS
 62
3
 10
0.000006618601731
 20
3.464096896385627
 11
2.999997425948948
 21
1.732046782136365
  0
LINE
  8
0
  6
CONTINUOUS
 62
3
 10
2.999998112093635
 20
-1.732051392778772
 11
-0.000004464412200
 21
-3.464098365415111
  0
LINE
  8
0
  6
CONTINUOUS
 62
3
 10
0.000006701720849
 20
3.464096999935236
 11
-2.999997939551520
 21
1.732051821705568
  0
LINE
  8
0
  6
CONTINUOUS
 62
3
 10
2.999996662140697
 20
1.732046953225571
 11
2.999997615814979
 21
-1.732051023458999
  0
LINE
  8
0
  6
CONTINUOUS
 62
3
 10
-2.999996662140960
 20
-1.732045999551255
 11
-2.999997615815242
 21
1.732051977133316
  0
POINT
  8
0
  6
CONTINUOUS
 62
3
 10
0.000000000000000
 20
0.000000000000000
  0
CIRCLE
  8
0
  6
CONTINUOUS
 62
3
 10
0.000000000000000
 20
0.000000000000000
 40
6.500000000000000
  0
CIRCLE
  8
0
  6
CONTINUOUS
 62
3
 10
0.000000000000000
 20
0.000000000000000
 40
5.633955001831055
  0
ENDBLK
  8
0
  0
BLOCK
  8
0
  2
SYM13
 70
64
 10
0.000000000000000
 20
0.000000000000000
  0
POINT
  8
0
  6
CONTINUOUS
 62
3
 10
0.000000000000000
 20
5.633955001831055
  0
POINT
  8
0
  6
CONTINUOUS
 62
3
 10
0.500000119209290
 20
6.500000000000000
  0
LINE
  8
0
  6
CONTINUOUS
 62
3
 10
-0.000004704988612
 20
-3.464098175748802
 11
-2.999997577100373
 21
-1.732046218032735
  0
LINE
  8
0
  6
CONTINUOUS
 62
3
 10
0.000006618601731
 20
3.464096896385627
 11
2.999997425948948
 21
1.732046782136365
  0
LINE
  8
0
  6
CONTINUOUS
 62
3
 10
2.999998112093635
 20
-1.732051392778772
 11
-0.000004464412200
 21
-3.464098365415111
  0
LINE
  8
0
  6
CONTINUOUS
 62
3
 10
0.000006701720849
 20
3.464096999935236
 11
-2.999997939551520
 21
1.732051821705568
  0
LINE
  8
0
  6
CONTINUOUS
 62
3
 10
2.999996662140697
 20
1.732046953225571
 11
2.999997615814979
 21
-1.732051023458999
  0
LINE
  8
0
  6
CONTINUOUS
 62
3
 10
-2.999996662140960
 20
-1.732045999551255
 11
-2.999997615815242
 21
1.732051977133316
  0
POINT
  8
0
  6
CONTINUOUS
 62
3
 10
0.000000000000000
 20
0.000000000000000
  0
CIRCLE
  8
0
  6
CONTINUOUS
 62
3
 10
0.000000000000000
 20
0.000000000000000
 40
6.500000000000000
  0
CIRCLE
  8
0
  6
CONTINUOUS
 62
3
 10
0.000000000000000
 20
0.000000000000000
 40
5.633955001831055
  0
ENDBLK
  8
0
  0
BLOCK
  8
0
  2
SYM14
 70
64
 10
0.000000000000000
 20
0.000000000000000
  0
CIRCLE
  8
0
  6
CONTINUOUS
 62
3
 10
0.000000000000000
 20
0.000000000000000
 40
4.000000000000000
  0
LINE
  8
0
  6
CONTINUOUS
 62
3
 10
4.000000476834402
 20
2.299992229627764
 11
3.999995708466355
 21
-2.300002429796065
  0
LINE
  8
0
  6
CONTINUOUS
 62
3
 10
0.000007291900715
 20
4.600000131531601
 11
4.000000535118602
 21
2.299995435993480
  0
LINE
  8
0
  6
CONTINUOUS
 62
3
 10
-3.999993333512748
 20
2.300001902428903
 11
0.000004858421221
 21
4.599995671750889
  0
LINE
  8
0
  6
CONTINUOUS
 62
3
 10
-4.000000476834402
 20
-2.299992229627764
 11
-3.999995708466355
 21
2.300002429796065
  0
LINE
  8
0
  6
CONTINUOUS
 62
3
 10
-0.000007291900715
 20
-4.600000131531601
 11
-4.000000535118602
 21
-2.299995435993480
  0
LINE
  8
0
  6
CONTINUOUS
 62
3
 10
3.999993333512748
 20
-2.300001902428903
 11
-0.000004858421221
 21
-4.599995671750889
  0
POINT
  8
0
  6
CONTINUOUS
 62
3
 10
0.000000000000000
 20
0.000000000000000
  0
ENDBLK
  8
0
  0
BLOCK
  8
0
  2
SYM15
 70
64
 10
0.000000000000000
 20
0.000000000000000
  0
CIRCLE
  8
0
  6
CONTINUOUS
 62
3
 10
0.000000000000000
 20
0.000000000000000
 40
4.000000000000000
  0
LINE
  8
0
  6
CONTINUOUS
 62
3
 10
4.000000476834402
 20
2.299992229627764
 11
3.999995708466355
 21
-2.300002429796065
  0
LINE
  8
0
  6
CONTINUOUS
 62
3
 10
0.000007291900715
 20
4.600000131531601
 11
4.000000535118602
 21
2.299995435993480
  0
LINE
  8
0
  6
CONTINUOUS
 62
3
 10
-3.999993333512748
 20
2.300001902428903
 11
0.000004858421221
 21
4.599995671750889
  0
LINE
  8
0
  6
CONTINUOUS
 62
3
 10
-4.000000476834402
 20
-2.299992229627764
 11
-3.999995708466355
 21
2.300002429796065
  0
LINE
  8
0
  6
CONTINUOUS
 62
3
 10
-0.000007291900715
 20
-4.600000131531601
 11
-4.000000535118602
 21
-2.299995435993480
  0
LINE
  8
0
  6
CONTINUOUS
 62
3
 10
3.999993333512748
 20
-2.300001902428903
 11
-0.000004858421221
 21
-4.599995671750889
  0
POINT
  8
0
  6
CONTINUOUS
 62
3
 10
0.000000000000000
 20
0.000000000000000
  0
ENDBLK
  8
0
  0
ENDSEC
  0
SECTION
  2
ENTITIES
  0
ARC
  8
0
  6
CONTINUOUS
 62
3
 10
-392.443883055870340
 20
-174.031103602859930
 40
6.099999427795398
 50
174.601910595264880
 51
275.398072101891500
  0
POINT
  8
0
  6
CONTINUOUS
 62
3
 10
-394.706624620797360
 20
-176.293845167786970
  0
LINE
  8
0
  6
CONTINUOUS
 62
3
 10
-398.030026357504200
 20
-172.970443431080100
 11
-391.383222884090510
 21
-179.617246904493840
  0
LINE
  8
0
  6
CONTINUOUS
 62
3
 10
-398.343164966473010
 20
-173.222990381930490
 11
-391.666065664000090
 21
-179.900089684403410
  0
LINE
  8
0
  6
CONTINUOUS
 62
3
 10
-391.383222884090510
 20
-179.617246904493840
 11
-391.870026275796140
 21
-180.104050296199430
  0
LINE
  8
0
  6
CONTINUOUS
 62
3
 10
-398.030026357504200
 20
-172.970443431080100
 11
-398.516829749209820
 21
-173.457246822785720
  0
ARC
  8
0
  6
CONTINUOUS
 62
3
 10
-302.782742931676520
 20
-174.031103602859930
 40
6.099999427795406
 50
264.601927898108500
 51
5.398089404735109
  0
POINT
  8
0
  6
CONTINUOUS
 62
3
 10
-300.520001366749510
 20
-176.293845167786970
  0
LINE
  8
0
  6
CONTINUOUS
 62
3
 10
-297.196599630042670
 20
-172.970443431080100
 11
-303.843403103456350
 21
-179.617246904493840
  0
LINE
  8
0
  6
CONTINUOUS
 62
3
 10
-296.883461021073860
 20
-173.222990381930490
 11
-303.560560323546780
 21
-179.900089684403410
  0
LINE
  8
0
  6
CONTINUOUS
 62
3
 10
-303.843403103456350
 20
-179.617246904493840
 11
-303.356599711750730
 21
-180.104050296199430
  0
LINE
  8
0
  6
CONTINUOUS
 62
3
 10
-297.196599630042670
 20
-172.970443431080100
 11
-296.709796238337050
 21
-173.457246822785720
  0
ARC
  8
0
  6
CONTINUOUS
 62
3
 10
-333.613312993772980
 20
-140.433931724944500
 40
79.999999999999972
 50
30.738481478503829
 51
85.339580615885538
  0
ARC
  8
0
  6
CONTINUOUS
 62
3
 10
-337.113312993773430
 20
-69.200533540766571
 40
9.999999999999693
 50
320.115404689053550
 51
0.000000000000000
  0
ARC
  8
0
  6
CONTINUOUS
 62
3
 10
-358.113312993773430
 20
-69.200533540766571
 40
10.000000000000000
 50
180.000000000000000
 51
219.884595310946620
  0
INSERT
  8
0
  2
SYM1
 10
16.618739695721331
 20
-69.200533540766571
  0
INSERT
  8
0
  2
SYM2
 10
32.118739695717693
 20
-79.200533540766571
  0
INSERT
  8
0
  2
SYM3
 10
32.118739695717693
 20
-155.200533540766570
  0
INSERT
  8
0
  2
SYM4
 10
3.618739695719057
 20
-116.006359716606250
  0
INSERT
  8
0
  2
SYM5
 10
3.618739695719057
 20
-204.394707364924160
  0
INSERT
  8
0
  2
SYM6
 10
32.118739695717238
 20
-243.200533540766630
  0
LINE
  8
0
  6
CONTINUOUS
 62
3
 10
44.618739695720421
 20
-60.200533540766571
 11
24.118739695723605
 21
-60.200533540765207
  0
ARC
  8
0
  6
CONTINUOUS
 62
3
 10
35.118739695723605
 20
-63.200533540765662
 40
3.000000000000000
 50
90.000000000000000
 51
180.000000000000000
  0
LINE
  8
0
  6
CONTINUOUS
 62
3
 10
32.118739695717238
 20
-63.200533540765662
 11
32.118739695717238
 21
-125.736431925628890
  0
LINE
  8
0
  6
CONTINUOUS
 62
3
 10
9.618739695718830
 20
-221.693427787850850
 11
9.618739695718830
 21
-101.700533540765090
  0
LINE
  8
0
  6
CONTINUOUS
 62
3
 10
32.118739695717238
 20
-144.664635155904250
 11
32.118739695717238
 21
-251.200533540766630
  0
LINE
  8
0
  6
CONTINUOUS
 62
3
 10
21.118739695722695
 20
-78.200533540766571
 11
21.118739695723605
 21
-63.200533540764752
  0
LINE
  8
0
  6
CONTINUOUS
 62
3
 10
9.618739695718830
 20
-221.693427787850850
 11
29.275747564446363
 21
-222.723607917599960
  0
ARC
  8
0
  6
CONTINUOUS
 62
3
 10
24.118739695723605
 20
-63.200533540765207
 40
3.000000000000000
 50
90.000000000000000
 51
179.999999999991330
  0
ARC
  8
0
  6
CONTINUOUS
 62
3
 10
21.118739695721786
 20
-98.093727041016734
 40
2.999999999999901
 50
272.999999999988290
 51
0.000000000000000
  0
ARC
  8
0
  6
CONTINUOUS
 62
3
 10
29.118739695717238
 20
-225.719496521863620
 40
3.000000000000000
 50
0.000000000000000
 51
86.999999999994344
  0
LINE
  8
0
  6
CONTINUOUS
 62
3
 10
29.275747564450910
 20
-100.670353411016030
 11
9.618739695719057
 21
-101.700533540765660
  0
LINE
  8
0
  6
CONTINUOUS
 62
3
 10
44.118739695717238
 20
-160.200533540766570
 11
44.118739695717238
 21
-253.200533540766630
  0
LINE
  8
0
  6
CONTINUOUS
 62
3
 10
44.118739695719057
 20
-160.200533540766570
 11
44.118739695723605
 21
-60.200533540766571
  0
ARC
  8
0
  6
CONTINUOUS
 62
3
 10
29.118739695721786
 20
-97.674464806752383
 40
2.999999999999901
 50
272.999999999988290
 51
0.000000000000000
  0
LINE
  8
0
  6
CONTINUOUS
 62
3
 10
30.118739695717238
 20
-129.200533540766570
 11
30.118739695717238
 21
-141.200533540766570
  0
ARC
  8
0
  6
CONTINUOUS
 62
3
 10
32.118739695717238
 20
-141.200533540766570
 40
2.000000000000000
 50
180.000000000000000
 51
240.000000000002730
  0
ARC
  8
0
  6
CONTINUOUS
 62
3
 10
30.118739695717238
 20
-144.664635155904250
 40
2.000000000000000
 50
0.000000000000000
 51
59.999999999996206
  0
ARC
  8
0
  6
CONTINUOUS
 62
3
 10
32.118739695717238
 20
-129.200533540766570
 40
2.000000000000164
 50
119.999999999997270
 51
180.000000000000000
  0
ARC
  8
0
  6
CONTINUOUS
 62
3
 10
30.118739695717238
 20
-125.736431925628890
 40
1.999999999999770
 50
300.000000000003810
 51
0.000000000000000
  0
LINE
  8
0
  6
CONTINUOUS
 62
3
 10
9.618739695719057
 20
-140.200533540766570
 11
30.118739695717238
 21
-140.200533540766570
  0
LINE
  8
0
  6
CONTINUOUS
 62
3
 10
9.618739695719057
 20
-180.200533540766570
 11
32.118739695717238
 21
-180.200533540766570
  0
ARC
  8
0
  6
CONTINUOUS
 62
3
 10
24.118739695722695
 20
-78.200533540766571
 40
3.000000000000000
 50
180.000000000000000
 51
270.000000000000000
  0
LINE
  8
0
  6
CONTINUOUS
 62
3
 10
24.118739695721786
 20
-98.093727041016734
 11
24.118739695723718
 21
-84.834603937189911
  0
LINE
  8
0
  6
CONTINUOUS
 62
3
 10
16.618739695719967
 20
-79.200533540766571
 11
21.118739695719967
 21
-79.200533540766571
  0
LINE
  8
0
  6
CONTINUOUS
 62
3
 10
16.618739695719967
 20
-79.200533540766571
 11
16.618739695723605
 21
-25.200533540766571
  0
LINE
  8
0
  6
CONTINUOUS
 62
3
 10
21.118739695723605
 20
-25.200533540766571
 11
21.118739695723605
 21
-79.200533540766571
  0
LINE
  8
0
  6
DASHDOT
 62
4
 10
10.888492294907053
 20
-45.200533540766571
 11
28.987758310198558
 21
-45.200533540766571
  0
LINE
  8
0
  6
DASHDOT
 62
4
 10
2.124696043889969
 20
-69.200533540766571
 11
26.262311511995620
 21
-69.200533540766571
  0
LINE
  8
0
  6
CONTINUOUS
 62
3
 10
16.618739695723605
 20
-25.200533540766571
 11
21.118739695723605
 21
-25.200533540766571
  0
LINE
  8
0
  6
CONTINUOUS
 62
3
 10
44.618739695720421
 20
-253.200533540766630
 11
44.618739695720421
 21
-60.200533540766571
  0
LINE
  8
0
  6
CONTINUOUS
 62
3
 10
44.618739695720421
 20
-60.200533540766571
 11
116.276591194073880
 21
-57.698186226319137
  0
LINE
  8
0
  6
CONTINUOUS
 62
3
 10
9.618739695718830
 20
-218.700533540765040
 11
9.618739695718830
 21
-101.700533540765030
  0
LINE
  8
0
  6
CONTINUOUS
 62
3
 10
44.618739695720421
 20
-253.200533540766630
 11
34.118739695717238
 21
-253.200533540766630
  0
ARC
  8
0
  6
CONTINUOUS
 62
3
 10
34.118739695717238
 20
-251.200533540766630
 40
2.000000000000000
 50
180.000000000000000
 51
270.000000000000000
  0
LINE
  8
0
  6
CONTINUOUS
 62
3
 10
44.618739695720421
 20
-253.200533540766630
 11
130.533468333062900
 21
-255.643542602394970
  0
LINE
  8
0
  6
CONTINUOUS
 62
3
 10
-85.881260304280943
 20
-129.200533540763100
 11
-85.881260304280943
 21
-99.700533540763104
  0
ARC
  8
0
  6
CONTINUOUS
 62
3
 10
-87.881260304280943
 20
-99.700533540763104
 40
2.000000000000000
 50
0.000000000000000
 51
90.000000000000000
  0
LINE
  8
0
  6
CONTINUOUS
 62
3
 10
-86.881260304280943
 20
-100.200533540763100
 11
-86.881260304280943
 21
-129.200533540763100
  0
ARC
  8
0
  6
CONTINUOUS
 62
3
 10
-87.881260304280943
 20
-100.200533540763100
 40
1.000000000000000
 50
0.000000000000000
 51
90.000000000000000
  0
LINE
  8
0
  6
CONTINUOUS
 62
3
 10
-87.881260304280943
 20
-99.200533540763104
 11
-158.881260304280890
 21
-99.200533540763104
  0
ARC
  8
0
  6
CONTINUOUS
 62
3
 10
-87.881260304280943
 20
-158.700533540763100
 40
2.000000000000000
 50
270.000000000000000
 51
0.000000000000000
  0
ARC
  8
0
  6
CONTINUOUS
 62
3
 10
-87.881260304280943
 20
-158.200533540763100
 40
1.000000000000000
 50
270.000000000000000
 51
0.000000000000000
  0
LINE
  8
0
  6
CONTINUOUS
 62
3
 10
-87.881260304280943
 20
-159.200533540763100
 11
-158.881260304280890
 21
-159.200533540763100
  0
LINE
  8
0
  6
CONTINUOUS
 62
3
 10
-86.881260304280943
 20
-158.200533540763100
 11
-86.881260304280943
 21
-129.200533540763100
  0
LINE
  8
0
  6
CONTINUOUS
 62
3
 10
-85.881260304280943
 20
-129.200533540763100
 11
-85.881260304280943
 21
-158.700533540763100
  0
LINE
  8
0
  6
CONTINUOUS
 62
3
 10
-87.881260304280943
 20
-160.700533540763100
 11
-158.881260304280890
 21
-160.700533540763100
  0
LINE
  8
0
  6
CONTINUOUS
 62
3
 10
-159.881260304280890
 20
-129.200533540763100
 11
-159.881260304280890
 21
-158.200533540763100
  0
LINE
  8
0
  6
CONTINUOUS
 62
3
 10
-160.881260304280890
 20
-129.200533540763100
 11
-160.881260304280890
 21
-158.700533540763100
  0
ARC
  8
0
  6
CONTINUOUS
 62
3
 10
-158.881260304280890
 20
-158.700533540763100
 40
2.000000000000000
 50
180.000000000000000
 51
270.000000000000000
  0
ARC
  8
0
  6
CONTINUOUS
 62
3
 10
-158.881260304280890
 20
-158.200533540763100
 40
1.000000000000000
 50
180.000000000000000
 51
270.000000000000000
  0
LINE
  8
0
  6
CONTINUOUS
 62
3
 10
-160.881260304280890
 20
-129.200533540763100
 11
-160.881260304280890
 21
-99.700533540763104
  0
LINE
  8
0
  6
CONTINUOUS
 62
3
 10
-159.881260304280890
 20
-129.200533540763100
 11
-159.881260304280890
 21
-100.200533540763100
  0
LINE
  8
0
  6
CONTINUOUS
 62
3
 10
-87.881260304280943
 20
-97.700533540763104
 11
-158.881260304280890
 21
-97.700533540763104
  0
ARC
  8
0
  6
CONTINUOUS
 62
3
 10
-158.881260304280890
 20
-99.700533540763104
 40
2.000000000000000
 50
90.000000000000000
 51
180.000000000000000
  0
ARC
  8
0
  6
CONTINUOUS
 62
3
 10
-158.881260304280890
 20
-100.200533540763100
 40
1.000000000000000
 50
90.000000000000000
 51
180.000000000000000
  0
LINE
  8
0
  6
CONTINUOUS
 62
4
 10
-85.881260304280943
 20
-100.444137990126020
 11
-32.381260304281170
 21
-100.444137990126020
  0
LINE
  8
0
  6
CONTINUOUS
 62
4
 10
-85.881260304280943
 20
-101.923161143603120
 11
-32.381260304281170
 21
-101.923161143603120
  0
LINE
  8
0
  6
CONTINUOUS
 62
4
 10
-85.881260304280943
 20
-105.015892135268350
 11
-32.381260304281170
 21
-105.015892135268350
  0
LINE
  8
0
  6
CONTINUOUS
 62
4
 10
-85.881260304280943
 20
-106.362293860766950
 11
-32.381260304281170
 21
-106.362293860766950
  0
LINE
  8
0
  6
CONTINUOUS
 62
4
 10
-85.881260304280943
 20
-109.200533540763100
 11
-32.381260304281170
 21
-109.200533540763100
  0
LINE
  8
0
  6
CONTINUOUS
 62
4
 10
-153.038860650673310
 20
-89.160098134238638
 11
-32.381260304281170
 21
-89.160098134238638
  0
LINE
  8
0
  6
CONTINUOUS
 62
4
 10
-152.881260304302030
 20
-84.695878013658216
 11
-32.381260304281170
 21
-84.695878013658216
  0
LINE
  8
0
  6
CONTINUOUS
 62
4
 10
-162.881260304302030
 20
-106.362293860766950
 11
-160.881260304280890
 21
-106.362293860766950
  0
LINE
  8
0
  6
CONTINUOUS
 62
4
 10
-162.881260304302030
 20
-105.015892135268350
 11
-160.881260304280890
 21
-105.015892135268350
  0
LINE
  8
0
  6
CONTINUOUS
 62
4
 10
-162.881260304302030
 20
-101.923161143603120
 11
-160.881260304280890
 21
-101.923161143603120
  0
LINE
  8
0
  6
CONTINUOUS
 62
4
 10
-162.881260304302030
 20
-100.444137990126020
 11
-160.881260304280890
 21
-100.444137990126020
  0
LINE
  8
0
  6
CONTINUOUS
 62
4
 10
-162.881260304302030
 20
-97.486142381993091
 11
-32.381260304281170
 21
-97.486142381993091
  0
LINE
  8
0
  6
CONTINUOUS
 62
4
 10
-162.881260304302030
 20
-95.896932589254334
 11
-32.381260304281170
 21
-95.896932589254334
  0
LINE
  8
0
  6
CONTINUOUS
 62
4
 10
-162.881260304302030
 20
-109.200533540763100
 11
-160.881260304280890
 21
-109.200533540763100
  0
LINE
  8
0
  6
CONTINUOUS
 62
4
 10
-152.881260304302030
 20
-88.158619770423343
 11
-32.381260304281170
 21
-88.158619770423343
  0
LINE
  8
0
  6
CONTINUOUS
 62
4
 10
-152.881260304302030
 20
-83.067450945880410
 11
-32.381260304281170
 21
-83.067450945880410
  0
LINE
  8
0
  6
CONTINUOUS
 62
4
 10
-152.881260304302030
 20
-78.200533540762990
 11
-32.381260304281170
 21
-78.200533540762990
  0
LINE
  8
0
  6
CONTINUOUS
 62
4
 10
-152.881260304302030
 20
-78.700533540763104
 11
-32.381260304281170
 21
-78.700533540763104
  0
LINE
  8
0
  6
CONTINUOUS
 62
3
 10
-32.381260304281170
 20
-76.700533540763104
 11
-152.881260304302030
 21
-76.700533540763104
  0
LINE
  8
0
  6
CONTINUOUS
 62
3
 10
-152.881260304302030
 20
-75.200533540762876
 11
-182.386105253395040
 21
-75.200533540762876
  0
LINE
  8
0
  6
CONTINUOUS
 62
3
 10
-194.201779842226410
 20
-78.926001428409563
 11
-201.772559038815190
 21
-84.227118091982106
  0
LINE
  8
0
  6
CONTINUOUS
 62
3
 10
-202.881260304302260
 20
-86.356913407133561
 11
-202.881260304302260
 21
-129.200533540763100
  0
ARC
  8
0
  6
CONTINUOUS
 62
3
 10
-200.281260304302350
 20
-86.356913407133561
 40
2.600000000000131
 50
125.000000000001180
 51
180.000000000000000
  0
ARC
  8
0
  6
CONTINUOUS
 62
3
 10
-182.386105253395040
 20
-95.800533540762899
 40
20.600000000000023
 50
90.000000000000000
 51
124.999999999999600
  0
LINE
  8
0
  6
CONTINUOUS
 62
3
 10
-163.881260304302260
 20
-80.056612518037923
 11
-165.881260304302030
 21
-81.709254157161354
  0
LINE
  8
0
  6
CONTINUOUS
 62
3
 10
-161.881260304302030
 20
-78.880827032415141
 11
-163.881260304302260
 21
-80.056612518037923
  0
LINE
  8
0
  6
CONTINUOUS
 62
3
 10
-163.881260304302260
 20
-80.056612518037923
 11
-161.881260304302030
 21
-81.709254157161354
  0
LINE
  8
0
  6
CONTINUOUS
 62
3
 10
-165.881260304302030
 20
-78.880827032415141
 11
-163.881260304302260
 21
-80.056612518037923
  0
POLYLINE
  8
0
  6
CONTINUOUS
 62
3
 66
1
 70
1
  0
VERTEX
  8
0
  6
CONTINUOUS
 62
3
 10
-159.181260304301820
 20
-81.873202586415459
  0
VERTEX
  8
0
  6
CONTINUOUS
 62
3
 10
-159.271569486406630
 20
-81.170245620215098
  0
VERTEX
  8
0
  6
CONTINUOUS
 62
3
 10
-159.539026501498770
 20
-80.494302896003006
  0
VERTEX
  8
0
  6
CONTINUOUS
 62
3
 10
-159.973353126479850
 20
-79.871350513597605
  0
VERTEX
  8
0
  6
CONTINUOUS
 62
3
 10
-160.557858432725030
 20
-79.325328183699028
  0
VERTEX
  8
0
  6
CONTINUOUS
 62
3
 10
-161.270080209109690
 20
-78.877219238232414
  0
VERTEX
  8
0
  6
CONTINUOUS
 62
3
 10
-162.082648172185880
 20
-78.544244252669642
  0
VERTEX
  8
0
  6
CONTINUOUS
 62
3
 10
-162.964335790826000
 20
-78.339199268971399
  0
VERTEX
  8
0
  6
CONTINUOUS
 62
3
 10
-163.881260304301800
 20
-78.269964050870627
  0
VERTEX
  8
0
  6
CONTINUOUS
 62
3
 10
-164.798184817777610
 20
-78.339199268971399
  0
VERTEX
  8
0
  6
CONTINUOUS
 62
3
 10
-165.679872436417720
 20
-78.544244252669642
  0
VERTEX
  8
0
  6
CONTINUOUS
 62
3
 10
-166.492440399493920
 20
-78.877219238232414
  0
VERTEX
  8
0
  6
CONTINUOUS
 62
3
 10
-167.204662175878580
 20
-79.325328183699028
  0
VERTEX
  8
0
  6
CONTINUOUS
 62
3
 10
-167.789167482123760
 20
-79.871350513597605
  0
VERTEX
  8
0
  6
CONTINUOUS
 62
3
 10
-168.223494107104840
 20
-80.494302896003006
  0
VERTEX
  8
0
  6
CONTINUOUS
 62
3
 10
-168.490951122196980
 20
-81.170245620215098
  0
VERTEX
  8
0
  6
CONTINUOUS
 62
3
 10
-168.581260304301790
 20
-81.873202586415459
  0
VERTEX
  8
0
  6
CONTINUOUS
 62
3
 10
-168.490951122196980
 20
-82.576159552615820
  0
VERTEX
  8
0
  6
CONTINUOUS
 62
3
 10
-168.223494107104840
 20
-83.252102276827912
  0
VERTEX
  8
0
  6
CONTINUOUS
 62
3
 10
-167.789167482123760
 20
-83.875054659233314
  0
VERTEX
  8
0
  6
CONTINUOUS
 62
3
 10
-167.204662175878550
 20
-84.421076989131890
  0
VERTEX
  8
0
  6
CONTINUOUS
 62
3
 10
-166.492440399493920
 20
-84.869185934598505
  0
VERTEX
  8
0
  6
CONTINUOUS
 62
3
 10
-165.679872436417720
 20
-85.202160920161276
  0
VERTEX
  8
0
  6
CONTINUOUS
 62
3
 10
-164.798184817777610
 20
-85.407205903859520
  0
VERTEX
  8
0
  6
CONTINUOUS
 62
3
 10
-163.881260304301800
 20
-85.476441121960292
  0
VERTEX
  8
0
  6
CONTINUOUS
 62
3
 10
-162.964335790826000
 20
-85.407205903859520
  0
VERTEX
  8
0
  6
CONTINUOUS
 62
3
 10
-162.082648172185880
 20
-85.202160920161276
  0
VERTEX
  8
0
  6
CONTINUOUS
 62
3
 10
-161.270080209109690
 20
-84.869185934598505
  0
VERTEX
  8
0
  6
CONTINUOUS
 62
3
 10
-160.557858432725060
 20
-84.421076989131890
  0
VERTEX
  8
0
  6
CONTINUOUS
 62
3
 10
-159.973353126479850
 20
-83.875054659233314
  0
VERTEX
  8
0
  6
CONTINUOUS
 62
3
 10
-159.539026501498770
 20
-83.252102276827912
  0
VERTEX
  8
0
  6
CONTINUOUS
 62
3
 10
-159.271569486406630
 20
-82.576159552615820
  0
SEQEND
  8
0
  6
CONTINUOUS
 62
3
  0
ARC
  8
0
  6
CONTINUOUS
 62
3
 10
-155.881260304302030
 20
-88.200533540763104
 40
3.000000000000000
 50
270.000000000000000
 51
0.000000000000000
  0
LINE
  8
0
  6
CONTINUOUS
 62
3
 10
-152.881260304302030
 20
-75.200533540762876
 11
-152.881260304302030
 21
-88.200533540763104
  0
ARC
  8
0
  6
CONTINUOUS
 62
3
 10
-159.881260304302030
 20
-94.200533540763104
 40
3.000000000000000
 50
90.000000000000000
 51
180.000000000000000
  0
LINE
  8
0
  6
CONTINUOUS
 62
3
 10
-155.881260304302030
 20
-91.200533540763104
 11
-159.881260304302030
 21
-91.200533540763104
  0
LINE
  8
0
  6
CONTINUOUS
 62
3
 10
-162.881260304302030
 20
-129.200533540763100
 11
-162.881260304302030
 21
-94.200533540763104
  0
LINE
  8
0
  6
CONTINUOUS
 62
3
 10
-194.201779842226410
 20
-179.475065653116530
 11
-201.772559038815190
 21
-174.173948989543990
  0
LINE
  8
0
  6
CONTINUOUS
 62
3
 10
-202.881260304302260
 20
-172.044153674392650
 11
-202.881260304302260
 21
-129.200533540763100
  0
ARC
  8
0
  6
CONTINUOUS
 62
3
 10
-200.281260304302350
 20
-172.044153674392650
 40
2.599999999999909
 50
180.000000000000000
 51
234.999999999997390
  0
ARC
  8
0
  6
CONTINUOUS
 62
3
 10
-182.386105253395040
 20
-162.600533540763310
 40
20.599999999999891
 50
235.000000000000400
 51
270.000000000000000
  0
LINE
  8
0
  6
CONTINUOUS
 62
3
 10
-152.881260304302030
 20
-183.200533540763330
 11
-182.386105253395040
 21
-183.200533540763330
  0
LINE
  8
0
  6
CONTINUOUS
 62
4
 10
-162.881260304302030
 20
-149.200533540763100
 11
-160.881260304280890
 21
-149.200533540763100
  0
LINE
  8
0
  6
CONTINUOUS
 62
4
 10
-162.881260304302030
 20
-152.038773220759250
 11
-160.881260304280890
 21
-152.038773220759250
  0
LINE
  8
0
  6
CONTINUOUS
 62
4
 10
-162.881260304302030
 20
-153.385174946257850
 11
-160.881260304280890
 21
-153.385174946257850
  0
LINE
  8
0
  6
CONTINUOUS
 62
4
 10
-162.881260304302030
 20
-156.477905937923080
 11
-160.881260304280890
 21
-156.477905937923080
  0
LINE
  8
0
  6
CONTINUOUS
 62
4
 10
-162.881260304302030
 20
-157.956929091400180
 11
-160.881260304280890
 21
-157.956929091400180
  0
LINE
  8
0
  6
CONTINUOUS
 62
4
 10
-162.881260304302030
 20
-160.914924699533120
 11
-32.381260304281170
 21
-160.914924699533120
  0
LINE
  8
0
  6
CONTINUOUS
 62
4
 10
-162.881260304302030
 20
-162.504134492271760
 11
-32.381260304281170
 21
-162.504134492271760
  0
LINE
  8
0
  6
CONTINUOUS
 62
4
 10
-153.038860650673310
 20
-169.240968947287460
 11
-32.381260304281170
 21
-169.240968947287460
  0
LINE
  8
0
  6
CONTINUOUS
 62
4
 10
-152.881260304302030
 20
-170.242447311102750
 11
-32.381260304281170
 21
-170.242447311102750
  0
LINE
  8
0
  6
CONTINUOUS
 62
4
 10
-152.881260304302030
 20
-173.705189067867990
 11
-32.381260304281170
 21
-173.705189067867990
  0
LINE
  8
0
  6
CONTINUOUS
 62
4
 10
-152.881260304302030
 20
-175.333616135645800
 11
-32.381260304281170
 21
-175.333616135645800
  0
LINE
  8
0
  6
CONTINUOUS
 62
4
 10
-152.881260304302030
 20
-180.200533540763100
 11
-32.381260304281170
 21
-180.200533540763100
  0
LINE
  8
0
  6
CONTINUOUS
 62
4
 10
-152.881260304302030
 20
-179.700533540763100
 11
-32.381260304281170
 21
-179.700533540763100
  0
LINE
  8
0
  6
CONTINUOUS
 62
3
 10
-32.381260304281170
 20
-181.700533540763100
 11
-152.881260304302030
 21
-181.700533540763100
  0
LINE
  8
0
  6
CONTINUOUS
 62
3
 10
-163.881260304302260
 20
-178.344454563488170
 11
-165.881260304302030
 21
-176.691812924364850
  0
LINE
  8
0
  6
CONTINUOUS
 62
3
 10
-161.881260304302030
 20
-179.520240049111070
 11
-163.881260304302260
 21
-178.344454563488170
  0
LINE
  8
0
  6
CONTINUOUS
 62
3
 10
-163.881260304302260
 20
-178.344454563488170
 11
-161.881260304302030
 21
-176.691812924364850
  0
LINE
  8
0
  6
CONTINUOUS
 62
3
 10
-165.881260304302030
 20
-179.520240049111070
 11
-163.881260304302260
 21
-178.344454563488170
  0
POLYLINE
  8
0
  6
CONTINUOUS
 62
3
 66
1
 70
1
  0
VERTEX
  8
0
  6
CONTINUOUS
 62
3
 10
-159.181260304301820
 20
-176.527864495110630
  0
VERTEX
  8
0
  6
CONTINUOUS
 62
3
 10
-159.271569486406630
 20
-175.824907528910270
  0
VERTEX
  8
0
  6
CONTINUOUS
 62
3
 10
-159.539026501498770
 20
-175.148964804698180
  0
VERTEX
  8
0
  6
CONTINUOUS
 62
3
 10
-159.973353126479850
 20
-174.526012422292780
  0
VERTEX
  8
0
  6
CONTINUOUS
 62
3
 10
-160.557858432725030
 20
-173.979990092394190
  0
VERTEX
  8
0
  6
CONTINUOUS
 62
3
 10
-161.270080209109690
 20
-173.531881146927560
  0
VERTEX
  8
0
  6
CONTINUOUS
 62
3
 10
-162.082648172185880
 20
-173.198906161364820
  0
VERTEX
  8
0
  6
CONTINUOUS
 62
3
 10
-162.964335790826000
 20
-172.993861177666560
  0
VERTEX
  8
0
  6
CONTINUOUS
 62
3
 10
-163.881260304301800
 20
-172.924625959565790
  0
VERTEX
  8
0
  6
CONTINUOUS
 62
3
 10
-164.798184817777610
 20
-172.993861177666560
  0
VERTEX
  8
0
  6
CONTINUOUS
 62
3
 10
-165.679872436417720
 20
-173.198906161364820
  0
VERTEX
  8
0
  6
CONTINUOUS
 62
3
 10
-166.492440399493920
 20
-173.531881146927560
  0
VERTEX
  8
0
  6
CONTINUOUS
 62
3
 10
-167.204662175878580
 20
-173.979990092394190
  0
VERTEX
  8
0
  6
CONTINUOUS
 62
3
 10
-167.789167482123760
 20
-174.526012422292780
  0
VERTEX
  8
0
  6
CONTINUOUS
 62
3
 10
-168.223494107104840
 20
-175.148964804698180
  0
VERTEX
  8
0
  6
CONTINUOUS
 62
3
 10
-168.490951122196980
 20
-175.824907528910270
  0
VERTEX
  8
0
  6
CONTINUOUS
 62
3
 10
-168.581260304301790
 20
-176.527864495110630
  0
VERTEX
  8
0
  6
CONTINUOUS
 62
3
 10
-168.490951122196980
 20
-177.230821461311000
  0
VERTEX
  8
0
  6
CONTINUOUS
 62
3
 10
-168.223494107104840
 20
-177.906764185523090
  0
VERTEX
  8
0
  6
CONTINUOUS
 62
3
 10
-167.789167482123760
 20
-178.529716567928490
  0
VERTEX
  8
0
  6
CONTINUOUS
 62
3
 10
-167.204662175878550
 20
-179.075738897827080
  0
VERTEX
  8
0
  6
CONTINUOUS
 62
3
 10
-166.492440399493920
 20
-179.523847843293710
  0
VERTEX
  8
0
  6
CONTINUOUS
 62
3
 10
-165.679872436417720
 20
-179.856822828856450
  0
VERTEX
  8
0
  6
CONTINUOUS
 62
3
 10
-164.798184817777610
 20
-180.061867812554710
  0
VERTEX
  8
0
  6
CONTINUOUS
 62
3
 10
-163.881260304301800
 20
-180.131103030655480
  0
VERTEX
  8
0
  6
CONTINUOUS
 62
3
 10
-162.964335790826000
 20
-180.061867812554710
  0
VERTEX
  8
0
  6
CONTINUOUS
 62
3
 10
-162.082648172185880
 20
-179.856822828856450
  0
VERTEX
  8
0
  6
CONTINUOUS
 62
3
 10
-161.270080209109690
 20
-179.523847843293710
  0
VERTEX
  8
0
  6
CONTINUOUS
 62
3
 10
-160.557858432725060
 20
-179.075738897827080
  0
VERTEX
  8
0
  6
CONTINUOUS
 62
3
 10
-159.973353126479850
 20
-178.529716567928490
  0
VERTEX
  8
0
  6
CONTINUOUS
 62
3
 10
-159.539026501498770
 20
-177.906764185523090
  0
VERTEX
  8
0
  6
CONTINUOUS
 62
3
 10
-159.271569486406630
 20
-177.230821461311000
  0
SEQEND
  8
0
  6
CONTINUOUS
 62
3
  0
ARC
  8
0
  6
CONTINUOUS
 62
3
 10
-155.881260304302030
 20
-170.200533540763100
 40
3.000000000000000
 50
0.000000000000000
 51
90.000000000000000
  0
LINE
  8
0
  6
CONTINUOUS
 62
3
 10
-152.881260304302030
 20
-183.200533540763330
 11
-152.881260304302030
 21
-170.200533540763100
  0
ARC
  8
0
  6
CONTINUOUS
 62
3
 10
-159.881260304302030
 20
-164.200533540763100
 40
3.000000000000000
 50
180.000000000000000
 51
270.000000000000000
  0
LINE
  8
0
  6
CONTINUOUS
 62
3
 10
-155.881260304302030
 20
-167.200533540763100
 11
-159.881260304302030
 21
-167.200533540763100
  0
LINE
  8
0
  6
CONTINUOUS
 62
3
 10
-162.881260304302030
 20
-129.200533540763100
 11
-162.881260304302030
 21
-164.200533540763100
  0
LINE
  8
0
  6
CONTINUOUS
 62
4
 10
-85.881260304280943
 20
-157.956929091400180
 11
-32.381260304281170
 21
-157.956929091400180
  0
LINE
  8
0
  6
CONTINUOUS
 62
4
 10
-85.881260304280943
 20
-156.477905937923080
 11
-32.381260304281170
 21
-156.477905937923080
  0
LINE
  8
0
  6
CONTINUOUS
 62
4
 10
-85.881260304280943
 20
-153.385174946257850
 11
-32.381260304281170
 21
-153.385174946257850
  0
LINE
  8
0
  6
CONTINUOUS
 62
4
 10
-85.881260304280943
 20
-152.038773220759250
 11
-32.381260304281170
 21
-152.038773220759250
  0
LINE
  8
0
  6
CONTINUOUS
 62
4
 10
-85.881260304280943
 20
-149.200533540763100
 11
-32.381260304281170
 21
-149.200533540763100
  0
LINE
  8
0
  6
CONTINUOUS
 62
3
 10
-22.555757787793652
 20
-76.357419432244285
 11
-32.381275658415291
 21
-76.700534076941267
  0
LINE
  8
0
  6
CONTINUOUS
 62
3
 10
4.775747564447727
 20
-87.051539172822572
 11
-14.538268173010067
 21
-86.039334498984488
  0
LINE
  8
0
  6
CONTINUOUS
 62
3
 10
-16.881288602032498
 20
-98.700534076941722
 11
-16.881290058882939
 21
-98.700534076941722
  0
LINE
  8
0
  6
CONTINUOUS
 62
3
 10
-17.381260304281170
 20
-176.883050618468080
 11
-17.381260304281170
 21
-83.043445894720776
  0
ARC
  8
0
  6
CONTINUOUS
 62
3
 10
-22.381260304281170
 20
-81.354373567339735
 40
5.000000000000000
 50
0.000000000000000
 51
91.999999999999744
  0
ARC
  8
0
  6
CONTINUOUS
 62
3
 10
-12.381260304281170
 20
-94.040701202726609
 40
5.000000000000000
 50
180.000000000000000
 51
266.999999999999600
  0
LINE
  8
0
  6
CONTINUOUS
 62
3
 10
-17.381260304281170
 20
-83.043445894720776
 11
-17.381260304281170
 21
-81.354373567339735
  0
ARC
  8
0
  6
CONTINUOUS
 62
3
 10
-14.381260304281170
 20
-83.043445894720776
 40
3.000000000000000
 50
180.000000000000000
 51
266.999999999998750
  0
LINE
  8
0
  6
CONTINUOUS
 62
3
 10
-32.381260304281170
 20
-181.709261609405470
 11
-32.381260304281170
 21
-76.700533540763104
  0
LINE
  8
0
  6
CONTINUOUS
 62
3
 10
-32.381260304281170
 20
-109.200534076943080
 11
-17.381260304281170
 21
-109.200534076943080
  0
LINE
  8
0
  6
CONTINUOUS
 62
3
 10
9.618739695718830
 20
-100.200534076943080
 11
-12.642940085495923
 21
-99.033848876499462
  0
ARC
  8
0
  6
CONTINUOUS
 62
3
 10
4.618739695718830
 20
-90.047427777086284
 40
3.000000000000000
 50
0.000000000000000
 51
86.999999999998735
  0
LINE
  8
0
  6
CONTINUOUS
 62
3
 10
7.618739695718830
 20
-98.200534076943086
 11
7.618739695718830
 21
-90.047427777086284
  0
ARC
  8
0
  6
CONTINUOUS
 62
3
 10
9.618739695718830
 20
-98.200534076943086
 40
2.000000000000000
 50
180.000000000000000
 51
270.000000000000000
  0
LINE
  8
0
  6
DASHDOT
 62
4
 10
-6.381260304281170
 20
-108.727685482996320
 11
-6.381260304281170
 21
-82.476585630407499
  0
ARC
  8
0
  6
CONTINUOUS
 62
3
 10
5.618739695718830
 20
-101.993647651806780
 40
1.999999999999998
 50
86.999999999997655
 51
180.000000000000000
  0
LINE
  8
0
  6
CONTINUOUS
 62
3
 10
3.618739695718830
 20
-124.200534076943080
 11
3.618739695718830
 21
-101.993647651806780
  0
LINE
  8
0
  6
CONTINUOUS
 62
3
 10
9.618739695718830
 20
-220.200534076943090
 11
9.618739695718830
 21
-100.200534076943080
  0
LINE
  8
0
  6
CONTINUOUS
 62
3
 10
-0.381260304281170
 20
-217.778527150682980
 11
-0.381260304281170
 21
-103.700534076943080
  0
ARC
  8
0
  6
CONTINUOUS
 62
3
 10
2.618739695718830
 20
-124.200534076943080
 40
1.000000000000000
 50
270.000000000000000
 51
0.000000000000000
  0
LINE
  8
0
  6
CONTINUOUS
 62
3
 10
0.618739695718830
 20
-125.200534076943080
 11
2.618739695718830
 21
-125.200534076943080
  0
ARC
  8
0
  6
CONTINUOUS
 62
3
 10
0.618739695718830
 20
-126.200534076943080
 40
1.000000000000000
 50
90.000000000000000
 51
180.000000000000000
  0
LINE
  8
0
  6
CONTINUOUS
 62
3
 10
-14.430424751771454
 20
-111.414649847998300
 11
-4.103381483156511
 21
-111.414649847998300
  0
LINE
  8
0
  6
CONTINUOUS
 62
3
 10
-14.430424751771454
 20
-125.200534076943080
 11
-3.878880542527725
 21
-125.200534076943080
  0
LINE
  8
0
  6
CONTINUOUS
 62
3
 10
-32.381260304281170
 20
-149.200534076943090
 11
-17.381260304281170
 21
-149.200534076943090
  0
LINE
  8
0
  6
CONTINUOUS
 62
3
 10
-17.793998272094370
 20
-181.963883215302130
 11
-32.381260304280715
 21
-181.709261609405470
  0
ARC
  8
0
  6
CONTINUOUS
 62
3
 10
-22.381260304281170
 20
-176.883050618468080
 40
4.999999999999950
 50
269.000000000000850
 51
0.000000000000000
  0
LINE
  8
0
  6
CONTINUOUS
 62
3
 10
-15.103927573635985
 20
-162.200534076943090
 11
-3.382713496622557
 21
-162.200534076943090
  0
LINE
  8
0
  6
CONTINUOUS
 62
3
 10
-15.051522238328573
 20
-165.082086168189730
 11
-3.420070715022405
 21
-165.082086168189730
  0
LINE
  8
0
  6
CONTINUOUS
 62
3
 10
9.618739695718830
 20
-218.700533540764920
 11
9.618739695718830
 21
-101.700533540764860
  0
LINE
  8
0
  6
CONTINUOUS
 62
3
 10
9.618739695718830
 20
-140.215469144461740
 11
-0.381260304281170
 21
-140.215469144461680
  0
LINE
  8
0
  6
CONTINUOUS
 62
3
 10
9.618739695718830
 20
-180.185599009424490
 11
-0.381260304281170
 21
-180.185599009424490
  0
ARC
  8
0
  6
CONTINUOUS
 62
3
 10
-9.881260304280829
 20
-191.198543135760470
 40
3.000000000000000
 50
180.000000000000000
 51
267.000000000000970
  0
LINE
  8
0
  6
CONTINUOUS
 62
3
 10
-10.038268173009612
 20
-194.194431740024240
 11
-7.978826329983065
 21
-194.302362513579850
  0
LINE
  8
0
  6
CONTINUOUS
 62
3
 10
-12.881260304280829
 20
-191.198543135760470
 11
-12.881260304280829
 21
-186.963121691084100
  0
ARC
  8
0
  6
CONTINUOUS
 62
3
 10
-17.881260304280715
 20
-186.963121691084100
 40
4.999999999999886
 50
0.000000000000000
 51
89.000000000000838
  0
POINT
  8
0
  6
CONTINUOUS
 62
3
 10
-9.881260304280829
 20
-194.700534076943090
  0
LINE
  8
0
  6
CONTINUOUS
 62
3
 10
-0.381260304281170
 20
-217.200534076943090
 11
-9.199331850784063
 21
-190.623902238961760
  0
ARC
  8
0
  6
CONTINUOUS
 62
3
 10
-12.046690574604270
 20
-191.568649981951640
 40
2.999999999999917
 50
18.355737695026583
 51
90.000000000000000
  0
LINE
  8
0
  6
CONTINUOUS
 62
3
 10
-8.709592221886226
 20
-188.568649981951640
 11
-1.658075620310512
 21
-188.568649981951640
  0
POINT
  8
0
  6
CONTINUOUS
 62
3
 10
-0.381260304281170
 20
-194.700534076943090
  0
ARC
  8
0
  6
CONTINUOUS
 62
3
 10
0.618739695718830
 20
-194.200534076943090
 40
1.000000000000000
 50
180.000000000000000
 51
270.000000000000000
  0
LINE
  8
0
  6
CONTINUOUS
 62
3
 10
3.618739695718830
 20
-217.988158267815150
 11
3.618739695718830
 21
-196.200534076943090
  0
LINE
  8
0
  6
CONTINUOUS
 62
3
 10
2.618739695718830
 20
-195.200534076943090
 11
0.618739695718830
 21
-195.200534076943090
  0
ARC
  8
0
  6
CONTINUOUS
 62
3
 10
2.618739695718830
 20
-196.200534076943090
 40
1.000000000000000
 50
0.000000000000000
 51
90.000000000000000
  0
LINE
  8
0
  6
CONTINUOUS
 62
3
 10
9.618739695718830
 20
-220.200534076943090
 11
1.514067783232974
 21
-219.775786220192120
  0
ARC
  8
0
  6
CONTINUOUS
 62
3
 10
1.618739695718830
 20
-217.778527150682980
 40
2.000000000000000
 50
180.000000000000000
 51
267.000000000000910
  0
ARC
  8
0
  6
CONTINUOUS
 62
3
 10
-3.381230342105766
 20
-217.795836710357780
 40
3.000000000000012
 50
0.198353339126269
 51
22.444622314741064
  0
POINT
  8
0
  6
CONTINUOUS
 62
3
 10
-0.381260304281170
 20
-217.200534076943090
  0
ARC
  8
0
  6
CONTINUOUS
 62
3
 10
5.618739695718830
 20
-217.988158267815150
 40
2.000000000000000
 50
180.000000000000000
 51
267.000000000000910
  0
LINE
  8
0
  6
DASHDOT
 62
4
 10
-7.795704887597822
 20
-129.200533540763100
 11
-218.183778922408240
 21
-129.200533540763100
  0
INSERT
  8
0
  2
SYM7
 10
32.118739695720876
 20
89.407155403186152
  0
INSERT
  8
0
  2
SYM8
 10
16.618739695726333
 20
128.907155403186150
  0
INSERT
  8
0
  2
SYM9
 10
32.118739695724059
 20
189.407155403184790
 41
-1.000000000000000
 50
179.999999999996310
  0
INSERT
  8
0
  2
SYM10
 10
16.618739695727015
 20
149.907155403185700
 41
-1.000000000000000
 50
179.999999999996310
  0
ARC
  8
0
  6
DASHED
 62
4
 10
-148.381260304278440
 20
67.407155403185243
 40
7.000000000000000
 50
180.000000000000000
 51
0.000000000000000
  0
LINE
  8
0
  6
DASHDOT
 62
4
 10
-148.381260304278440
 20
58.462998145509118
 11
-148.381260304278440
 21
80.011487126041175
  0
LINE
  8
0
  6
DASHED
 62
4
 10
-141.381260304278440
 20
67.407155403185243
 11
-141.381260304278440
 21
81.907155403185243
  0
LINE
  8
0
  6
DASHED
 62
4
 10
-155.381260304278440
 20
67.407155403185243
 11
-155.381260304278440
 21
81.907155403185243
  0
LINE
  8
0
  6
DASHDOT
 62
4
 10
-157.466949410862010
 20
67.407155403185243
 11
-136.980361177152700
 21
67.407155403185243
  0
LINE
  8
0
  6
DASHED
 62
4
 10
-105.381260304278440
 20
67.407155403185243
 11
-105.381260304278440
 21
81.907155403185243
  0
CIRCLE
  8
0
  6
DASHED
 62
4
 10
-98.381260304278442
 20
67.407155403185243
 40
6.000000000000000
  0
LINE
  8
0
  6
DASHED
 62
4
 10
-91.381260304278442
 20
67.407155403185243
 11
-91.381260304278442
 21
81.907155403185243
  0
ARC
  8
0
  6
DASHED
 62
4
 10
-98.381260304278442
 20
67.407155403185243
 40
7.000000000000000
 50
180.000000000000000
 51
0.000000000000000
  0
LINE
  8
0
  6
DASHDOT
 62
4
 10
-109.664789720005100
 20
67.407155403185243
 11
-87.897812311476798
 21
67.407155403185243
  0
LINE
  8
0
  6
DASHDOT
 62
4
 10
-98.381260304278442
 20
58.462998145509118
 11
-98.381260304278442
 21
80.442500278044463
  0
LINE
  8
0
  6
CONTINUOUS
 62
3
 10
-32.381260304278669
 20
85.907155403185243
 11
-32.381260304278669
 21
139.407155403185240
  0
LINE
  8
0
  6
CONTINUOUS
 62
3
 10
-160.881260304278440
 20
81.907155403185243
 11
-85.881260304278442
 21
81.907155403185243
  0
LINE
  8
0
  6
CONTINUOUS
 62
3
 10
-85.881260304278442
 20
81.907155403185243
 11
-85.881260304278442
 21
86.907155403185357
  0
LINE
  8
0
  6
CONTINUOUS
 62
3
 10
-86.881260304278442
 20
53.407155403185243
 11
-86.881260304278442
 21
81.907155403185243
  0
LINE
  8
0
  6
CONTINUOUS
 62
3
 10
-159.881260304278440
 20
53.407155403185243
 11
-159.881260304278440
 21
81.907155403185243
  0
ARC
  8
0
  6
CONTINUOUS
 62
3
 10
-158.881260304278440
 20
53.407155403185243
 40
1.000000000000000
 50
180.000000000000000
 51
270.000000000000000
  0
ARC
  8
0
  6
CONTINUOUS
 62
3
 10
-87.881260304278442
 20
53.407155403185243
 40
1.000000000000000
 50
270.000000000000000
 51
0.000000000000000
  0
LINE
  8
0
  6
CONTINUOUS
 62
3
 10
-32.381260304278669
 20
85.907155403185243
 11
-85.881260304278442
 21
85.907155403185243
  0
LINE
  8
0
  6
CONTINUOUS
 62
3
 10
-32.381260304278669
 20
192.907155403185240
 11
-32.381260304278669
 21
139.407155403185240
  0
LINE
  8
0
  6
CONTINUOUS
 62
3
 10
-93.881260304278442
 20
51.907155403185243
 11
-93.881260304278442
 21
52.407155403185243
  0
LINE
  8
0
  6
CONTINUOUS
 62
3
 10
-101.881260304278440
 20
51.907155403185243
 11
-93.881260304278442
 21
51.907155403185243
  0
LINE
  8
0
  6
CONTINUOUS
 62
3
 10
-101.881260304278440
 20
51.907155403185243
 11
-101.881260304278440
 21
52.407155403185243
  0
LINE
  8
0
  6
CONTINUOUS
 62
3
 10
-87.881260304278442
 20
52.407155403185243
 11
-158.881260304278440
 21
52.407155403185243
  0
LINE
  8
0
  6
CONTINUOUS
 62
3
 10
-152.881260304299810
 20
88.067459042376299
 11
-152.881260304299590
 21
139.407155403185240
  0
ARC
  8
0
  6
CONTINUOUS
 62
3
 10
-155.881260304299810
 20
88.067459042376299
 40
3.000000000000000
 50
270.000000000000000
 51
0.000000000000000
  0
LINE
  8
0
  6
CONTINUOUS
 62
3
 10
-159.881260304299810
 20
85.067459042376299
 11
-155.881260304299810
 21
85.067459042376299
  0
POLYLINE
  8
0
  6
CONTINUOUS
 62
3
 66
1
 70
1
  0
VERTEX
  8
0
  6
CONTINUOUS
 62
3
 10
-159.181260304299600
 20
92.079824448837712
  0
VERTEX
  8
0
  6
CONTINUOUS
 62
3
 10
-159.271569486404420
 20
92.782781415038073
  0
VERTEX
  8
0
  6
CONTINUOUS
 62
3
 10
-159.539026501496550
 20
93.458724139250165
  0
VERTEX
  8
0
  6
CONTINUOUS
 62
3
 10
-159.973353126477630
 20
94.081676521655567
  0
VERTEX
  8
0
  6
CONTINUOUS
 62
3
 10
-160.557858432722810
 20
94.627698851554143
  0
VERTEX
  8
0
  6
CONTINUOUS
 62
3
 10
-161.270080209107480
 20
95.075807797020758
  0
VERTEX
  8
0
  6
CONTINUOUS
 62
3
 10
-162.082648172183670
 20
95.408782782583529
  0
VERTEX
  8
0
  6
CONTINUOUS
 62
3
 10
-162.964335790823780
 20
95.613827766281773
  0
VERTEX
  8
0
  6
CONTINUOUS
 62
3
 10
-163.881260304299590
 20
95.683062984382545
  0
VERTEX
  8
0
  6
CONTINUOUS
 62
3
 10
-164.798184817775390
 20
95.613827766281773
  0
VERTEX
  8
0
  6
CONTINUOUS
 62
3
 10
-165.679872436415510
 20
95.408782782583529
  0
VERTEX
  8
0
  6
CONTINUOUS
 62
3
 10
-166.492440399491700
 20
95.075807797020758
  0
VERTEX
  8
0
  6
CONTINUOUS
 62
3
 10
-167.204662175876360
 20
94.627698851554143
  0
VERTEX
  8
0
  6
CONTINUOUS
 62
3
 10
-167.789167482121540
 20
94.081676521655567
  0
VERTEX
  8
0
  6
CONTINUOUS
 62
3
 10
-168.223494107102620
 20
93.458724139250165
  0
VERTEX
  8
0
  6
CONTINUOUS
 62
3
 10
-168.490951122194760
 20
92.782781415038073
  0
VERTEX
  8
0
  6
CONTINUOUS
 62
3
 10
-168.581260304299580
 20
92.079824448837712
  0
VERTEX
  8
0
  6
CONTINUOUS
 62
3
 10
-168.490951122194760
 20
91.376867482637351
  0
VERTEX
  8
0
  6
CONTINUOUS
 62
3
 10
-168.223494107102620
 20
90.700924758425259
  0
VERTEX
  8
0
  6
CONTINUOUS
 62
3
 10
-167.789167482121540
 20
90.077972376019858
  0
VERTEX
  8
0
  6
CONTINUOUS
 62
3
 10
-167.204662175876340
 20
89.531950046121281
  0
VERTEX
  8
0
  6
CONTINUOUS
 62
3
 10
-166.492440399491700
 20
89.083841100654666
  0
VERTEX
  8
0
  6
CONTINUOUS
 62
3
 10
-165.679872436415510
 20
88.750866115091895
  0
VERTEX
  8
0
  6
CONTINUOUS
 62
3
 10
-164.798184817775390
 20
88.545821131393652
  0
VERTEX
  8
0
  6
CONTINUOUS
 62
3
 10
-163.881260304299590
 20
88.476585913292880
  0
VERTEX
  8
0
  6
CONTINUOUS
 62
3
 10
-162.964335790823780
 20
88.545821131393652
  0
VERTEX
  8
0
  6
CONTINUOUS
 62
3
 10
-162.082648172183670
 20
88.750866115091895
  0
VERTEX
  8
0
  6
CONTINUOUS
 62
3
 10
-161.270080209107480
 20
89.083841100654666
  0
VERTEX
  8
0
  6
CONTINUOUS
 62
3
 10
-160.557858432722840
 20
89.531950046121281
  0
VERTEX
  8
0
  6
CONTINUOUS
 62
3
 10
-159.973353126477630
 20
90.077972376019858
  0
VERTEX
  8
0
  6
CONTINUOUS
 62
3
 10
-159.539026501496550
 20
90.700924758425259
  0
VERTEX
  8
0
  6
CONTINUOUS
 62
3
 10
-159.271569486404420
 20
91.376867482637351
  0
SEQEND
  8
0
  6
CONTINUOUS
 62
3
  0
LINE
  8
0
  6
CONTINUOUS
 62
3
 10
-165.881260304299810
 20
89.087448894837280
 11
-163.881260304299810
 21
90.263234380460176
  0
LINE
  8
0
  6
CONTINUOUS
 62
3
 10
-163.881260304299810
 20
90.263234380460176
 11
-161.881260304299810
 21
91.915876019583493
  0
LINE
  8
0
  6
CONTINUOUS
 62
3
 10
-161.881260304299810
 20
89.087448894837280
 11
-163.881260304299810
 21
90.263234380460176
  0
LINE
  8
0
  6
CONTINUOUS
 62
3
 10
-163.881260304299810
 20
90.263234380460176
 11
-165.881260304299810
 21
91.915876019583493
  0
ARC
  8
0
  6
CONTINUOUS
 62
3
 10
-159.881260304299810
 20
82.067459042376299
 40
3.000000000000000
 50
90.000000000000000
 51
180.000000000000000
  0
LINE
  8
0
  6
CONTINUOUS
 62
3
 10
-162.881260304299810
 20
80.407155403185243
 11
-162.881260304299810
 21
82.067459042376299
  0
LINE
  8
0
  6
CONTINUOUS
 62
3
 10
-152.881260304299810
 20
198.407155403185240
 11
-152.881260304299590
 21
139.407155403185240
  0
POLYLINE
  8
0
  6
CONTINUOUS
 62
3
 66
1
 70
1
  0
VERTEX
  8
0
  6
CONTINUOUS
 62
3
 10
-159.181260304299600
 20
186.734486357532770
  0
VERTEX
  8
0
  6
CONTINUOUS
 62
3
 10
-159.271569486404420
 20
187.437443323733130
  0
VERTEX
  8
0
  6
CONTINUOUS
 62
3
 10
-159.539026501496550
 20
188.113386047945230
  0
VERTEX
  8
0
  6
CONTINUOUS
 62
3
 10
-159.973353126477630
 20
188.736338430350630
  0
VERTEX
  8
0
  6
CONTINUOUS
 62
3
 10
-160.557858432722810
 20
189.282360760249220
  0
VERTEX
  8
0
  6
CONTINUOUS
 62
3
 10
-161.270080209107480
 20
189.730469705715850
  0
VERTEX
  8
0
  6
CONTINUOUS
 62
3
 10
-162.082648172183670
 20
190.063444691278590
  0
VERTEX
  8
0
  6
CONTINUOUS
 62
3
 10
-162.964335790823780
 20
190.268489674976850
  0
VERTEX
  8
0
  6
CONTINUOUS
 62
3
 10
-163.881260304299590
 20
190.337724893077620
  0
VERTEX
  8
0
  6
CONTINUOUS
 62
3
 10
-164.798184817775390
 20
190.268489674976850
  0
VERTEX
  8
0
  6
CONTINUOUS
 62
3
 10
-165.679872436415510
 20
190.063444691278590
  0
VERTEX
  8
0
  6
CONTINUOUS
 62
3
 10
-166.492440399491700
 20
189.730469705715850
  0
VERTEX
  8
0
  6
CONTINUOUS
 62
3
 10
-167.204662175876360
 20
189.282360760249220
  0
VERTEX
  8
0
  6
CONTINUOUS
 62
3
 10
-167.789167482121540
 20
188.736338430350630
  0
VERTEX
  8
0
  6
CONTINUOUS
 62
3
 10
-168.223494107102620
 20
188.113386047945230
  0
VERTEX
  8
0
  6
CONTINUOUS
 62
3
 10
-168.490951122194760
 20
187.437443323733130
  0
VERTEX
  8
0
  6
CONTINUOUS
 62
3
 10
-168.581260304299580
 20
186.734486357532770
  0
VERTEX
  8
0
  6
CONTINUOUS
 62
3
 10
-168.490951122194760
 20
186.031529391332410
  0
VERTEX
  8
0
  6
CONTINUOUS
 62
3
 10
-168.223494107102620
 20
185.355586667120320
  0
VERTEX
  8
0
  6
CONTINUOUS
 62
3
 10
-167.789167482121540
 20
184.732634284714920
  0
VERTEX
  8
0
  6
CONTINUOUS
 62
3
 10
-167.204662175876340
 20
184.186611954816330
  0
VERTEX
  8
0
  6
CONTINUOUS
 62
3
 10
-166.492440399491700
 20
183.738503009349700
  0
VERTEX
  8
0
  6
CONTINUOUS
 62
3
 10
-165.679872436415510
 20
183.405528023786960
  0
VERTEX
  8
0
  6
CONTINUOUS
 62
3
 10
-164.798184817775390
 20
183.200483040088700
  0
VERTEX
  8
0
  6
CONTINUOUS
 62
3
 10
-163.881260304299590
 20
183.131247821987930
  0
VERTEX
  8
0
  6
CONTINUOUS
 62
3
 10
-162.964335790823780
 20
183.200483040088700
  0
VERTEX
  8
0
  6
CONTINUOUS
 62
3
 10
-162.082648172183670
 20
183.405528023786960
  0
VERTEX
  8
0
  6
CONTINUOUS
 62
3
 10
-161.270080209107480
 20
183.738503009349700
  0
VERTEX
  8
0
  6
CONTINUOUS
 62
3
 10
-160.557858432722840
 20
184.186611954816330
  0
VERTEX
  8
0
  6
CONTINUOUS
 62
3
 10
-159.973353126477630
 20
184.732634284714920
  0
VERTEX
  8
0
  6
CONTINUOUS
 62
3
 10
-159.539026501496550
 20
185.355586667120320
  0
VERTEX
  8
0
  6
CONTINUOUS
 62
3
 10
-159.271569486404420
 20
186.031529391332410
  0
SEQEND
  8
0
  6
CONTINUOUS
 62
3
  0
LINE
  8
0
  6
CONTINUOUS
 62
3
 10
-165.881260304299810
 20
189.726861911533210
 11
-163.881260304299810
 21
188.551076425910420
  0
LINE
  8
0
  6
CONTINUOUS
 62
3
 10
-163.881260304299810
 20
188.551076425910420
 11
-161.881260304299810
 21
186.898434786786990
  0
LINE
  8
0
  6
CONTINUOUS
 62
3
 10
-161.881260304299810
 20
189.726861911533210
 11
-163.881260304299810
 21
188.551076425910420
  0
LINE
  8
0
  6
CONTINUOUS
 62
3
 10
-163.881260304299810
 20
188.551076425910420
 11
-165.881260304299810
 21
186.898434786786990
  0
LINE
  8
0
  6
CONTINUOUS
 62
3
 10
-32.381260304278669
 20
192.907155403185240
 11
-152.881260304299590
 21
192.907155403185240
  0
LINE
  8
0
  6
CONTINUOUS
 62
4
 10
-152.881260304299590
 20
190.407155403185240
 11
-32.381260304278669
 21
190.407155403185240
  0
LINE
  8
0
  6
CONTINUOUS
 62
4
 10
-152.881260304299590
 20
189.907155403185240
 11
-32.381260304278669
 21
189.907155403185240
  0
LINE
  8
0
  6
CONTINUOUS
 62
4
 10
-152.881260304299590
 20
185.540237998067940
 11
-32.381260304278669
 21
185.540237998067940
  0
LINE
  8
0
  6
CONTINUOUS
 62
4
 10
-152.881260304299590
 20
180.449069173525000
 11
-32.381260304278669
 21
180.449069173525000
  0
LINE
  8
0
  6
CONTINUOUS
 62
4
 10
-152.881260304299590
 20
172.710756354694010
 11
-32.381260304278669
 21
172.710756354694010
  0
LINE
  8
0
  6
CONTINUOUS
 62
4
 10
-152.881260304299590
 20
171.121546561955260
 11
-32.381260304278669
 21
171.121546561955260
  0
LINE
  8
0
  6
CONTINUOUS
 62
4
 10
-152.881260304299590
 20
168.163550953822320
 11
-32.381260304278669
 21
168.163550953822320
  0
LINE
  8
0
  6
CONTINUOUS
 62
4
 10
-152.881260304299590
 20
166.684527800345340
 11
-32.381260304278669
 21
166.684527800345340
  0
LINE
  8
0
  6
CONTINUOUS
 62
4
 10
-152.881260304299590
 20
163.591796808679990
 11
-32.381260304278669
 21
163.591796808679990
  0
LINE
  8
0
  6
CONTINUOUS
 62
4
 10
-152.881260304299590
 20
162.245395083181390
 11
-32.381260304278669
 21
162.245395083181390
  0
LINE
  8
0
  6
CONTINUOUS
 62
4
 10
-152.881260304299590
 20
159.035190059823090
 11
-32.381260304278669
 21
159.035190059823090
  0
LINE
  8
0
  6
CONTINUOUS
 62
4
 10
-152.881260304299590
 20
157.793270194935190
 11
-32.381260304278669
 21
157.793270194935190
  0
LINE
  8
0
  6
CONTINUOUS
 62
4
 10
-152.881260304299590
 20
153.407155403185240
 11
-32.381260304278669
 21
153.407155403185240
  0
LINE
  8
0
  6
CONTINUOUS
 62
4
 10
-152.881260304299360
 20
125.407155403185240
 11
-32.381260304278669
 21
125.407155403185240
  0
LINE
  8
0
  6
CONTINUOUS
 62
4
 10
-152.881260304299360
 20
121.021040611435290
 11
-32.381260304278669
 21
121.021040611435290
  0
LINE
  8
0
  6
CONTINUOUS
 62
4
 10
-152.881260304299360
 20
119.779120746547390
 11
-32.381260304278669
 21
119.779120746547390
  0
LINE
  8
0
  6
CONTINUOUS
 62
4
 10
-152.881260304299360
 20
116.568915723189090
 11
-32.381260304278669
 21
116.568915723189090
  0
LINE
  8
0
  6
CONTINUOUS
 62
4
 10
-152.881260304299360
 20
115.222513997690490
 11
-32.381260304278669
 21
115.222513997690490
  0
LINE
  8
0
  6
CONTINUOUS
 62
4
 10
-152.881260304299360
 20
112.129783006025260
 11
-32.381260304278669
 21
112.129783006025260
  0
LINE
  8
0
  6
CONTINUOUS
 62
4
 10
-152.881260304299360
 20
110.650759852548160
 11
-32.381260304278669
 21
110.650759852548160
  0
LINE
  8
0
  6
CONTINUOUS
 62
4
 10
-152.881260304299360
 20
106.103554451676580
 11
-32.381260304278669
 21
106.103554451676580
  0
LINE
  8
0
  6
CONTINUOUS
 62
4
 10
-152.881260304299360
 20
107.692764244415230
 11
-32.381260304278669
 21
107.692764244415230
  0
LINE
  8
0
  6
CONTINUOUS
 62
4
 10
-152.881260304299360
 20
98.365241632845482
 11
-32.381260304278669
 21
98.365241632845482
  0
LINE
  8
0
  6
CONTINUOUS
 62
4
 10
-152.881260304299360
 20
93.274072808302549
 11
-32.381260304278669
 21
93.274072808302662
  0
LINE
  8
0
  6
CONTINUOUS
 62
4
 10
-152.881260304299360
 20
88.907155403185243
 11
-32.381260304278669
 21
88.907155403185243
  0
LINE
  8
0
  6
CONTINUOUS
 62
4
 10
-152.881260304299360
 20
88.407155403185243
 11
-32.381260304278669
 21
88.407155403185243
  0
LINE
  8
0
  6
CONTINUOUS
 62
3
 10
-85.881260304278442
 20
86.907155403185357
 11
-153.114728998697100
 21
86.907155403185357
  0
LINE
  8
0
  6
CONTINUOUS
 62
3
 10
-160.881260304278440
 20
81.907155403185243
 11
-160.881260304278440
 21
84.895886167129902
  0
LINE
  8
0
  6
CONTINUOUS
 62
3
 10
-162.881260304299810
 20
80.407155403185243
 11
-182.386105253392600
 21
80.407155403185243
  0
LINE
  8
0
  6
CONTINUOUS
 62
3
 10
-152.881260304299810
 20
198.407155403185240
 11
-182.386105253392600
 21
198.407155403185240
  0
ARC
  8
0
  6
CONTINUOUS
 62
3
 10
-182.386105253392600
 20
101.007155403185260
 40
20.599999999999891
 50
235.000000000000400
 51
270.000000000000000
  0
ARC
  8
0
  6
CONTINUOUS
 62
3
 10
-200.281260304299910
 20
91.563535269555928
 40
2.600000000000136
 50
180.000000000000000
 51
234.999999999997390
  0
LINE
  8
0
  6
CONTINUOUS
 62
3
 10
-194.201779842223970
 20
84.132623290832043
 11
-201.772559038812740
 21
89.433739954404587
  0
LINE
  8
0
  6
CONTINUOUS
 62
3
 10
-202.881260304300040
 20
91.563535269555928
 11
-202.881260304300040
 21
139.407155403185240
  0
ARC
  8
0
  6
CONTINUOUS
 62
3
 10
-182.386105253392600
 20
177.807155403185220
 40
20.600000000000023
 50
90.000000000000000
 51
124.999999999999600
  0
ARC
  8
0
  6
CONTINUOUS
 62
3
 10
-200.281260304299910
 20
187.250775536814560
 40
2.600000000000131
 50
125.000000000001180
 51
180.000000000000000
  0
LINE
  8
0
  6
CONTINUOUS
 62
3
 10
-194.201779842223970
 20
194.681687515538560
 11
-201.772559038812740
 21
189.380570851965900
  0
LINE
  8
0
  6
CONTINUOUS
 62
3
 10
-202.881260304300040
 20
187.250775536814560
 11
-202.881260304299810
 21
139.407155403185240
  0
ARC
  8
0
  6
CONTINUOUS
 62
3
 10
30.118739695725651
 20
64.139206210754764
 40
2.000000000000164
 50
299.999999999997270
 51
0.000000000000000
  0
ARC
  8
0
  6
CONTINUOUS
 62
3
 10
32.118739695725878
 20
60.675104595616631
 40
2.000000000000278
 50
120.000000000002910
 51
180.000000000000000
  0
LINE
  8
0
  6
CONTINUOUS
 62
3
 10
-0.381260304277305
 20
99.812995068075907
 11
-0.381260304277305
 21
100.162332569610950
  0
LINE
  8
0
  6
CONTINUOUS
 62
3
 10
-0.381260304277305
 20
179.001315738294580
 11
-0.381260304277305
 21
178.651978236759530
  0
LINE
  8
0
  6
CONTINUOUS
 62
3
 10
44.618739695720876
 20
45.407155403186152
 11
44.618739695720876
 21
233.407155403184790
  0
LINE
  8
0
  6
CONTINUOUS
 62
3
 10
44.618739695720876
 20
45.407155403186152
 11
125.723438185828340
 21
42.574916922515968
  0
LINE
  8
0
  6
CONTINUOUS
 62
3
 10
44.618739695720876
 20
233.407155403184330
 11
125.723438185828340
 21
236.239393883854520
  0
LINE
  8
0
  6
CONTINUOUS
 62
3
 10
44.118739695720876
 20
139.407155403184790
 11
44.118739695720876
 21
45.407155403186152
  0
ARC
  8
0
  6
CONTINUOUS
 62
3
 10
34.118739695720876
 20
47.407155403186152
 40
2.000000000000000
 50
180.000000000000000
 51
270.000000000000000
  0
ARC
  8
0
  6
CONTINUOUS
 62
3
 10
24.118739695726788
 20
121.907155403186150
 40
3.000000000000000
 50
180.000000000000000
 51
270.000000000000000
  0
LINE
  8
0
  6
CONTINUOUS
 62
3
 10
29.118739695720876
 20
118.907155403186150
 11
24.118739695726788
 21
118.907155403186150
  0
ARC
  8
0
  6
CONTINUOUS
 62
3
 10
29.118739695720876
 20
115.907155403186150
 40
3.000000000000000
 50
0.000000000000000
 51
90.000000000000000
  0
LINE
  8
0
  6
CONTINUOUS
 62
3
 10
16.618739695725878
 20
139.407155403186150
 11
16.618739695725878
 21
118.907155403186150
  0
LINE
  8
0
  6
CONTINUOUS
 62
3
 10
21.118739695726788
 20
139.407155403185700
 11
21.118739695726788
 21
118.907155403186150
  0
LINE
  8
0
  6
CONTINUOUS
 62
3
 10
21.118739695726788
 20
118.907155403186150
 11
16.618739695725878
 21
118.907155403186150
  0
LINE
  8
0
  6
CONTINUOUS
 62
3
 10
9.618739695722695
 20
143.407155403186150
 11
9.618739695722695
 21
135.407155403186150
  0
ARC
  8
0
  6
CONTINUOUS
 62
3
 10
32.118739695720876
 20
47.407155403186152
 40
2.000000000000000
 50
180.000000000000000
 51
270.000000000000000
  0
LINE
  8
0
  6
CONTINUOUS
 62
3
 10
24.118740649395193
 20
61.041031250048945
 11
24.118740649395193
 21
49.773085006762813
  0
LINE
  8
0
  6
CONTINUOUS
 62
3
 10
30.543287123425671
 20
61.907155403186152
 11
24.618740649395193
 21
61.907155403186152
  0
LINE
  8
0
  6
CONTINUOUS
 62
3
 10
30.118739695720876
 20
48.907155403186152
 11
24.618741603069509
 21
48.907155403186152
  0
LINE
  8
0
  6
CONTINUOUS
 62
3
 10
24.618741287252931
 20
61.907155427254111
 11
24.118741261105868
 21
61.041031287120404
  0
LINE
  8
0
  6
CONTINUOUS
 62
3
 10
24.618741913880228
 20
48.907155425887140
 11
24.118740963687003
 21
49.773084996955731
  0
LINE
  8
0
  6
CONTINUOUS
 62
3
 10
24.618740649395193
 20
61.907155403186152
 11
24.618740649395193
 21
48.907155403186152
  0
LINE
  8
0
  6
CONTINUOUS
 62
3
 10
30.118739695720876
 20
60.675104595616631
 11
30.118739695720876
 21
47.407155403186152
  0
LINE
  8
0
  6
CONTINUOUS
 62
3
 10
32.118739695720876
 20
115.907155403186150
 11
32.118739695720876
 21
47.407155403186152
  0
ARC
  8
0
  6
CONTINUOUS
 62
3
 10
29.118739695720876
 20
75.881086669173328
 40
3.000000000000000
 50
0.000000000000000
 51
86.999999999994344
  0
LINE
  8
0
  6
CONTINUOUS
 62
3
 10
9.618739695722695
 20
79.907155403186152
 11
29.275747564450000
 21
78.876975273436983
  0
LINE
  8
0
  6
CONTINUOUS
 62
3
 10
44.118739695720876
 20
139.407155403185240
 11
44.118739695726788
 21
233.407155403183880
  0
ARC
  8
0
  6
CONTINUOUS
 62
3
 10
34.118739695726788
 20
231.407155403184790
 40
2.000000000000000
 50
90.000000000000000
 51
180.000000000000000
  0
ARC
  8
0
  6
CONTINUOUS
 62
3
 10
24.118739695727925
 20
156.907155403185240
 40
3.000000000000000
 50
90.000000000000000
 51
179.999999999991330
  0
LINE
  8
0
  6
CONTINUOUS
 62
3
 10
29.118739695722013
 20
159.907155403185240
 11
24.118739695727925
 21
159.907155403185240
  0
ARC
  8
0
  6
CONTINUOUS
 62
3
 10
29.118739695722240
 20
162.907155403185240
 40
3.000000000000000
 50
270.000000000000000
 51
359.999999999991300
  0
LINE
  8
0
  6
CONTINUOUS
 62
3
 10
16.618739695725878
 20
139.407155403185700
 11
16.618739695727015
 21
159.907155403185700
  0
LINE
  8
0
  6
CONTINUOUS
 62
3
 10
21.118739695726788
 20
139.407155403186150
 11
21.118739695727925
 21
159.907155403185700
  0
LINE
  8
0
  6
CONTINUOUS
 62
3
 10
21.118739695727925
 20
159.907155403185700
 11
16.618739695727015
 21
159.907155403185700
  0
ARC
  8
0
  6
CONTINUOUS
 62
3
 10
30.118739695725651
 20
214.675104595615720
 40
2.000000000000000
 50
0.000000000000000
 51
60.000000000002721
  0
ARC
  8
0
  6
CONTINUOUS
 62
3
 10
32.118739695725878
 20
218.139206210753850
 40
2.000000000000000
 50
180.000000000000000
 51
239.999999999997070
  0
ARC
  8
0
  6
CONTINUOUS
 62
3
 10
32.118739695726788
 20
231.407155403184790
 40
2.000000000000000
 50
90.000000000000000
 51
180.000000000000000
  0
LINE
  8
0
  6
CONTINUOUS
 62
3
 10
24.118740649400195
 20
217.773279556322900
 11
24.118740649400877
 21
229.041225799609040
  0
LINE
  8
0
  6
CONTINUOUS
 62
3
 10
30.543287123425273
 20
216.907155403185020
 11
24.618740649400195
 21
216.907155403185240
  0
LINE
  8
0
  6
CONTINUOUS
 62
3
 10
30.118739695726617
 20
229.907155403185020
 11
24.618741603075193
 21
229.907155403185240
  0
LINE
  8
0
  6
CONTINUOUS
 62
3
 10
24.618741287257933
 20
216.907155379117280
 11
24.118741261110870
 21
217.773279519251450
  0
LINE
  8
0
  6
CONTINUOUS
 62
3
 10
24.618741913885913
 20
229.907155380484260
 11
24.118740963692687
 21
229.041225809416120
  0
LINE
  8
0
  6
CONTINUOUS
 62
3
 10
24.618740649400195
 20
216.907155403185240
 11
24.618740649400877
 21
229.907155403185240
  0
LINE
  8
0
  6
CONTINUOUS
 62
3
 10
30.118739695725822
 20
218.139206210754080
 11
30.118739695726788
 21
231.407155403184790
  0
LINE
  8
0
  6
CONTINUOUS
 62
3
 10
32.118739695722240
 20
162.907155403185240
 11
32.118739695726788
 21
231.407155403184790
  0
ARC
  8
0
  6
CONTINUOUS
 62
3
 10
29.118739695724969
 20
202.933224137198070
 40
2.999999999999937
 50
273.000000000001360
 51
359.999999999991300
  0
LINE
  8
0
  6
CONTINUOUS
 62
3
 10
9.618739695726333
 20
198.907155403186150
 11
29.275747564453866
 21
199.937335532934410
  0
LINE
  8
0
  6
DASHDOT
 62
4
 10
-218.120159311882450
 20
139.407155403185240
 11
225.778565782629530
 21
139.407155403185240
  0
LINE
  8
0
  6
CONTINUOUS
 62
3
 10
44.618739695720876
 20
233.407155403183880
 11
32.118739695726788
 21
233.407155403184790
  0
LINE
  8
0
  6
CONTINUOUS
 62
3
 10
44.618739695720876
 20
45.407155403186152
 11
32.118739695720876
 21
45.407155403186152
  0
POINT
  8
0
  6
CONTINUOUS
 62
3
 10
3.618739695722695
 20
95.212981579026291
  0
LINE
  8
0
  6
CONTINUOUS
 62
3
 10
3.618721862035784
 20
90.612993063046815
 11
0.618724955901143
 21
90.613005039431670
  0
LINE
  8
0
  6
CONTINUOUS
 62
3
 10
0.618743902456345
 20
90.613019773490805
 11
0.118750184932367
 21
91.313022647935867
  0
LINE
  8
0
  6
CONTINUOUS
 62
3
 10
0.118729491415280
 20
91.313008956823040
 11
0.118760962656040
 21
99.112993888768841
  0
LINE
  8
0
  6
CONTINUOUS
 62
3
 10
0.118777407145899
 20
99.112982773237434
 11
0.618777921907849
 21
99.812980089327993
  0
LINE
  8
0
  6
CONTINUOUS
 62
3
 10
0.618761683484252
 20
99.812996265627959
 11
3.618759055303400
 21
99.812984289241228
  0
LINE
  8
0
  6
CONTINUOUS
 62
3
 10
0.618733814740722
 20
92.913002019433435
 11
3.618732861066405
 21
92.912989621669453
  0
LINE
  8
0
  6
CONTINUOUS
 62
3
 10
0.618752538540917
 20
97.512995439081948
 11
3.618749677517968
 21
97.512985902343331
  0
ARC
  8
0
  6
CONTINUOUS
 62
3
 10
1.688725848371632
 20
91.762996074875900
 40
1.569999694824211
 50
132.899744492600690
 51
179.999745461768300
  0
ARC
  8
0
  6
CONTINUOUS
 62
3
 10
1.688753504926808
 20
98.662993786057541
 40
1.569999694824222
 50
179.999745461768300
 51
227.099746430934860
  0
ARC
  8
0
  6
CONTINUOUS
 62
3
 10
5.658740420515187
 20
95.212978530536475
 40
5.539999008178717
 50
155.470186567177480
 51
204.529249714844700
  0
LINE
  8
0
  6
CONTINUOUS
 62
3
 10
3.618721862016798
 20
90.612988360477544
 11
3.618759055307521
 21
99.812985308719732
  0
POINT
  8
0
  6
CONTINUOUS
 62
3
 10
3.618739695722695
 20
183.601329227344190
  0
LINE
  8
0
  6
CONTINUOUS
 62
3
 10
3.618721862035784
 20
188.201317743323730
 11
0.618724955901143
 21
188.201305766938840
  0
LINE
  8
0
  6
CONTINUOUS
 62
3
 10
0.618743902456345
 20
188.201291032879680
 11
0.118750184932367
 21
187.501288158434650
  0
LINE
  8
0
  6
CONTINUOUS
 62
3
 10
0.118729491415280
 20
187.501301849547470
 11
0.118760962656040
 21
179.701316917601670
  0
LINE
  8
0
  6
CONTINUOUS
 62
3
 10
0.118777407145899
 20
179.701328033133050
 11
0.618777921907849
 21
179.001330717042490
  0
LINE
  8
0
  6
CONTINUOUS
 62
3
 10
0.618761683484252
 20
179.001314540742560
 11
3.618759055303400
 21
179.001326517129370
  0
LINE
  8
0
  6
CONTINUOUS
 62
3
 10
0.618733814740722
 20
185.901308786937020
 11
3.618732861066405
 21
185.901321184701030
  0
LINE
  8
0
  6
CONTINUOUS
 62
3
 10
0.618752538540917
 20
181.301315367288510
 11
3.618749677517968
 21
181.301324904027130
  0
ARC
  8
0
  6
CONTINUOUS
 62
3
 10
1.688725848371632
 20
187.051314731494590
 40
1.569999694824222
 50
180.000254538232720
 51
227.100255507399310
  0
ARC
  8
0
  6
CONTINUOUS
 62
3
 10
1.688753504926808
 20
180.151317020312940
 40
1.569999694824235
 50
132.900253569064430
 51
180.000254538232720
  0
ARC
  8
0
  6
CONTINUOUS
 62
3
 10
5.658740420515187
 20
183.601332275834010
 40
5.539999008178714
 50
155.470750285155300
 51
204.529813432822240
  0
LINE
  8
0
  6
CONTINUOUS
 62
3
 10
3.618721862016798
 20
188.201322445892910
 11
3.618759055307521
 21
179.001325497650730
  0
ARC
  8
0
  6
CONTINUOUS
 62
3
 10
-14.381260304282762
 20
155.398428406899030
 40
3.000000000000000
 50
180.000000000000000
 51
270.000000000000000
  0
LINE
  8
0
  6
CONTINUOUS
 62
3
 10
-17.381260304282762
 20
187.898428406899030
 11
-17.381260304282762
 21
139.398428406899030
  0
ARC
  8
0
  6
CONTINUOUS
 62
3
 10
-22.381260304282762
 20
187.898428406899030
 40
5.000000000000000
 50
0.000000000000000
 51
90.000000000000000
  0
ARC
  8
0
  6
CONTINUOUS
 62
3
 10
-14.381260304317323
 20
172.829005330181870
 40
3.000000000000000
 50
180.000000000000000
 51
270.000000000000000
  0
LINE
  8
0
  6
CONTINUOUS
 62
3
 10
-0.381260304282307
 20
169.829005330181870
 11
-14.381260304317323
 21
169.829005330181870
  0
LINE
  8
0
  6
CONTINUOUS
 62
3
 10
-32.381260304286400
 20
192.898428406899030
 11
-3.381260304282307
 21
192.898428406899030
  0
LINE
  8
0
  6
CONTINUOUS
 62
3
 10
-14.381260304282762
 20
126.398428406899020
 11
4.618739695717238
 21
126.398428406899020
  0
LINE
  8
0
  6
CONTINUOUS
 62
3
 10
-14.381260304282762
 20
152.398428406899030
 11
4.618739695717238
 21
152.398428406899030
  0
LINE
  8
0
  6
CONTINUOUS
 62
3
 10
-32.381260304278669
 20
152.398428406899030
 11
-17.381260304282762
 21
152.398428406899030
  0
ARC
  8
0
  6
CONTINUOUS
 62
3
 10
4.618739695717238
 20
149.398428406899030
 40
3.000000000000000
 50
0.000000000000000
 51
90.000000000000000
  0
LINE
  8
0
  6
DASHDOT
 62
4
 10
-6.381260304282762
 20
127.978275307268400
 11
-6.381260304282762
 21
152.021389680867060
  0
CIRCLE
  8
0
  6
CONTINUOUS
 62
3
 10
-6.381260304282762
 20
139.398428406899030
 40
8.462876856846833
  0
ARC
  8
0
  6
CONTINUOUS
 62
3
 10
-14.381260304282762
 20
123.398428406899020
 40
3.000000000000000
 50
90.000000000000000
 51
180.000000000000000
  0
LINE
  8
0
  6
CONTINUOUS
 62
3
 10
-32.381260304278669
 20
126.398428406899020
 11
-17.381260304282762
 21
126.398428406899020
  0
LINE
  8
0
  6
CONTINUOUS
 62
3
 10
-17.381260304282762
 20
90.898428406899029
 11
-17.381260304282762
 21
139.398428406899030
  0
ARC
  8
0
  6
CONTINUOUS
 62
3
 10
4.618739695717238
 20
129.398428406899030
 40
3.000000000000000
 50
270.000000000000000
 51
0.000000000000000
  0
LINE
  8
0
  6
CONTINUOUS
 62
3
 10
-0.381260304282307
 20
195.898428406899030
 11
-0.381260304282307
 21
152.398428406899030
  0
LINE
  8
0
  6
CONTINUOUS
 62
3
 10
-0.381260304282307
 20
82.898428406899029
 11
-0.381260304282307
 21
126.398428406899020
  0
ARC
  8
0
  6
CONTINUOUS
 62
3
 10
1.618739695717238
 20
171.829005330181870
 40
2.000000000000000
 50
270.000000000000000
 51
0.000000000000000
  0
ARC
  8
0
  6
CONTINUOUS
 62
3
 10
1.618739695717693
 20
167.829005330181870
 40
2.000000000000000
 50
90.000000000000000
 51
180.000000000000000
  0
LINE
  8
0
  6
CONTINUOUS
 62
3
 10
3.618739695717238
 20
196.898428406899030
 11
3.618739695717238
 21
171.829005330181870
  0
ARC
  8
0
  6
CONTINUOUS
 62
3
 10
5.618739695717238
 20
196.898428406899030
 40
2.000000000000000
 50
90.000000000000000
 51
180.000000000000000
  0
ARC
  8
0
  6
CONTINUOUS
 62
3
 10
-3.381260304282307
 20
195.898428406899030
 40
3.000000000000000
 50
270.000000000000000
 51
0.000000000000000
  0
LINE
  8
0
  6
CONTINUOUS
 62
3
 10
2.618739695717693
 20
198.898428406899030
 11
9.618739695717238
 21
198.898428406899030
  0
ARC
  8
0
  6
CONTINUOUS
 62
3
 10
2.618739695717693
 20
195.898428406899030
 40
3.000000000000000
 50
90.000000000000000
 51
180.000000000000000
  0
LINE
  8
0
  6
CONTINUOUS
 62
3
 10
9.618739695718148
 20
156.398428406900390
 11
9.618739695720876
 21
198.898428406900390
  0
LINE
  8
0
  6
CONTINUOUS
 62
3
 10
9.618739695717238
 20
143.398428406900390
 11
9.618739695717238
 21
135.398428406900390
  0
LINE
  8
0
  6
CONTINUOUS
 62
3
 10
9.618739695718148
 20
122.398428406897660
 11
9.618739695720876
 21
79.898428406897665
  0
LINE
  8
0
  6
CONTINUOUS
 62
3
 10
-0.381260304282307
 20
108.967851483616180
 11
-14.381260304317323
 21
108.967851483616180
  0
ARC
  8
0
  6
CONTINUOUS
 62
3
 10
1.618739695717693
 20
110.967851483616180
 40
2.000000000000000
 50
180.000000000000000
 51
270.000000000000000
  0
ARC
  8
0
  6
CONTINUOUS
 62
3
 10
1.618739695717238
 20
106.967851483616180
 40
2.000000000000000
 50
0.000000000000000
 51
90.000000000000000
  0
LINE
  8
0
  6
CONTINUOUS
 62
3
 10
3.618739695717238
 20
81.898428406899029
 11
3.618739695717238
 21
106.967851483616180
  0
ARC
  8
0
  6
CONTINUOUS
 62
3
 10
-22.381260304282762
 20
90.898428406899029
 40
5.000000000000000
 50
270.000000000000000
 51
0.000000000000000
  0
ARC
  8
0
  6
CONTINUOUS
 62
3
 10
-14.381260304317323
 20
105.967851483616180
 40
3.000000000000000
 50
90.000000000000000
 51
180.000000000000000
  0
LINE
  8
0
  6
CONTINUOUS
 62
3
 10
-32.381260304286400
 20
85.898428406899029
 11
-3.381260304282307
 21
85.898428406899029
  0
LINE
  8
0
  6
CONTINUOUS
 62
3
 10
-32.381260304278669
 20
192.898428406899030
 11
-32.381260304278669
 21
85.898428406899029
  0
ARC
  8
0
  6
CONTINUOUS
 62
3
 10
-3.381260304282307
 20
82.898428406899029
 40
3.000000000000000
 50
0.000000000000000
 51
90.000000000000000
  0
ARC
  8
0
  6
CONTINUOUS
 62
3
 10
2.618739695717693
 20
82.898428406899029
 40
3.000000000000000
 50
180.000000000000000
 51
270.000000000000000
  0
ARC
  8
0
  6
CONTINUOUS
 62
3
 10
5.618739695717238
 20
81.898428406899029
 40
2.000000000000000
 50
180.000000000000000
 51
270.000000000000000
  0
LINE
  8
0
  6
CONTINUOUS
 62
3
 10
2.618739695717693
 20
79.898428406899029
 11
9.618739695717238
 21
79.898428406899029
  0
LINE
  8
0
  6
CONTINUOUS
 62
3
 10
7.618739695717238
 20
129.398428406899030
 11
7.618739695717238
 21
149.398428406899030
  0
INSERT
  8
0
  2
SYM11
 10
-295.613312993773490
 20
-243.200533540763220
  0
INSERT
  8
0
  2
SYM12
 10
-399.613312993773430
 20
-243.200533540763220
 41
-1.000000000000000
  0
INSERT
  8
0
  2
SYM13
 10
-431.613312993773430
 20
-155.200533540763220
 41
-1.000000000000000
  0
INSERT
  8
0
  2
SYM14
 10
-303.419139169614080
 20
-204.394707364922170
  0
INSERT
  8
0
  2
SYM15
 10
-391.807486817932840
 20
-204.394707364922170
  0
LINE
  8
0
  6
CONTINUOUS
 62
3
 10
-350.613312993773430
 20
-35.661141526593610
 11
-350.613312993773430
 21
-54.739925554932597
  0
LINE
  8
0
  6
CONTINUOUS
 62
3
 10
-344.613312993773430
 20
-35.661141526593610
 11
-344.613312993773430
 21
-54.739925554932597
  0
LINE
  8
0
  6
CONTINUOUS
 62
3
 10
-439.613312993773430
 20
-143.200533540763100
 11
-432.613312993773430
 21
-143.200533540763100
  0
LINE
  8
0
  6
CONTINUOUS
 62
3
 10
-438.111310220904670
 20
-127.200533540763100
 11
-432.613312993773430
 21
-127.200533540763100
  0
LINE
  8
0
  6
CONTINUOUS
 62
3
 10
-257.115315766641800
 20
-127.200533540763100
 11
-260.113312993773490
 21
-127.200533540763100
  0
LINE
  8
0
  6
CONTINUOUS
 62
3
 10
-255.613312993773040
 20
-143.200533540763100
 11
-260.940157706216780
 21
-143.200533540763100
  0
LINE
  8
0
  6
CONTINUOUS
 62
3
 10
-441.613312993773430
 20
-140.433931724944500
 11
-441.613312993773430
 21
-196.186641971656290
  0
LINE
  8
0
  6
CONTINUOUS
 62
3
 10
-399.613312993773430
 20
-253.200533540763220
 11
-347.613312993773430
 21
-253.200533540763220
  0
LINE
  8
0
  6
CONTINUOUS
 62
3
 10
-295.613312993773490
 20
-253.200533540763220
 11
-347.613312993773430
 21
-253.200533540763220
  0
LINE
  8
0
  6
CONTINUOUS
 62
3
 10
-253.613312993773040
 20
-140.433931724944500
 11
-253.613312993773040
 21
-196.186641971656290
  0
LINE
  8
0
  6
CONTINUOUS
 62
4
 10
-347.613312993773430
 20
-160.200533540763100
 11
-347.229907765748070
 21
-159.817128312737960
  0
ARC
  8
0
  6
CONTINUOUS
 62
3
 10
-439.613312993773430
 20
-145.200533540763100
 40
2.000000000000000
 50
90.000000000000000
 51
180.000000000000000
  0
ARC
  8
0
  6
CONTINUOUS
 62
3
 10
-432.613312993773430
 20
-135.200533540763100
 40
8.000000000000000
 50
270.000000000000000
 51
90.000000000000000
  0
ARC
  8
0
  6
CONTINUOUS
 62
3
 10
-438.111310220904670
 20
-125.200533540763100
 40
2.000000000000167
 50
168.737752074358010
 51
270.000000000000000
  0
ARC
  8
0
  6
CONTINUOUS
 62
3
 10
-255.613312993773040
 20
-145.200533540763100
 40
2.000000000000000
 50
0.000000000000000
 51
90.000000000000000
  0
ARC
  8
0
  6
CONTINUOUS
 62
3
 10
-257.115315766641800
 20
-125.200533540763100
 40
2.000000000000000
 50
270.000000000000000
 51
11.262247925641974
  0
ARC
  8
0
  6
CONTINUOUS
 62
3
 10
-277.622015923562290
 20
-243.760202846173120
 40
7.999999999999727
 50
129.950233661983900
 51
178.218230102088850
  0
ARC
  8
0
  6
CONTINUOUS
 62
3
 10
-295.613312993773490
 20
-243.200533540763220
 40
10.000000000000000
 50
270.000000000000000
 51
358.218230102088230
  0
ARC
  8
0
  6
CONTINUOUS
 62
3
 10
-399.613312993773430
 20
-243.200533540763220
 40
9.999999999999675
 50
181.781769897911860
 51
270.000000000000000
  0
ARC
  8
0
  6
CONTINUOUS
 62
3
 10
-417.604610063984180
 20
-243.760202846173120
 40
8.000000000000099
 50
1.781769897911126
 51
50.049766338016113
  0
ARC
  8
0
  6
CONTINUOUS
 62
3
 10
-258.613312993773040
 20
-196.186641971656290
 40
4.999999999999920
 50
337.984630459600790
 51
0.000000000000000
  0
ARC
  8
0
  6
CONTINUOUS
 62
3
 10
-436.613312993773430
 20
-196.186641971656290
 40
5.000000000000000
 50
180.000000000000000
 51
202.015369540399230
  0
ARC
  8
0
  6
CONTINUOUS
 62
3
 10
-347.613312993773430
 20
-160.200533540763100
 40
101.000000000000340
 50
202.015369540396880
 51
230.049766338017690
  0
ARC
  8
0
  6
CONTINUOUS
 62
3
 10
-347.613312993772980
 20
-160.200533540763100
 40
101.000000000000110
 50
309.950233661982340
 51
337.984630459603010
  0
ARC
  8
0
  6
CONTINUOUS
 62
3
 10
-333.393936274384940
 20
-198.741100548281570
 40
26.999999999999847
 50
232.492357161294190
 51
319.848912341650190
  0
ARC
  8
0
  6
CONTINUOUS
 62
3
 10
-310.463533310045990
 20
-218.085262972460670
 40
2.999999999999886
 50
99.749988138587184
 51
139.848912341653910
  0
ARC
  8
0
  6
CONTINUOUS
 62
3
 10
-386.407585194132480
 20
-188.467200207429530
 40
26.999999999999869
 50
142.203357465588170
 51
275.631713938414800
  0
ARC
  8
0
  6
CONTINUOUS
 62
3
 10
-383.463572522168310
 20
-218.322397232190950
 40
3.000000000000144
 50
79.695153531235519
 51
95.631713938415501
  0
ARC
  8
0
  6
CONTINUOUS
 62
3
 10
-410.113312993773430
 20
-170.081377694163280
 40
3.000000000000099
 50
322.203357465591640
 51
0.000000000000000
  0
ARC
  8
0
  6
CONTINUOUS
 62
3
 10
-337.113312993773430
 20
-35.200533540763104
 40
10.000000000000000
 50
0.000000000000000
 51
90.000000000000000
  0
LINE
  8
0
  6
CONTINUOUS
 62
3
 10
-337.113312993773430
 20
-25.200533540763104
 11
-358.113312993773430
 21
-25.200533540763104
  0
ARC
  8
0
  6
CONTINUOUS
 62
3
 10
-358.113312993773430
 20
-35.200533540763104
 40
10.000000000000000
 50
90.000000000000000
 51
180.000000000000000
  0
LINE
  8
0
  6
CONTINUOUS
 62
3
 10
-368.113312993773430
 20
-35.200533540763104
 11
-368.113312993773430
 21
-75.725403096492755
  0
CIRCLE
  8
0
  6
CONTINUOUS
 62
3
 10
-347.613312993773430
 20
-45.200533540763104
 40
10.000000000000000
  0
LINE
  8
0
  6
DASHDOT
 62
4
 10
-324.445399994891890
 20
-45.200533540763104
 11
-371.467913896426580
 21
-45.200533540763104
  0
ARC
  8
0
  6
CONTINUOUS
 62
3
 10
-333.613312993772980
 20
-140.433931724944500
 40
79.999999999999943
 50
0.000000000000000
 51
25.709472696747316
  0
ARC
  8
0
  6
CONTINUOUS
 62
3
 10
-361.613312993773430
 20
-140.433931724944500
 40
79.999999999999957
 50
94.660419384114789
 51
180.000000000000000
  0
LINE
  8
0
  6
CONTINUOUS
 62
3
 10
-327.113312993773430
 20
-35.200533540763104
 11
-327.113312993773430
 21
-75.725403096492755
  0
LINE
  8
0
  6
CONTINUOUS
 62
3
 10
-288.113312993773490
 20
-160.200533540763100
 11
-288.113312993773490
 21
-159.200533540763050
  0
ARC
  8
0
  6
CONTINUOUS
 62
3
 10
-313.511820706779470
 20
-200.345253278356490
 40
14.999999999999908
 50
280.304846468766810
 51
315.000000000000000
  0
LINE
  8
0
  6
CONTINUOUS
 62
3
 10
-296.695168633597010
 20
-204.741804640770850
 11
-302.905218988981290
 21
-210.951854996154680
  0
ARC
  8
0
  6
CONTINUOUS
 62
3
 10
-307.301770351395190
 20
-194.135202922972440
 40
15.000000000000121
 50
314.999999999999370
 51
349.999999999999600
  0
LINE
  8
0
  6
CONTINUOUS
 62
3
 10
-288.113312993773490
 20
-160.200533540763100
 11
-288.113312993773490
 21
-179.200533540763100
  0
LINE
  8
0
  6
CONTINUOUS
 62
3
 10
-289.753754204883590
 20
-180.997015228059010
 11
-292.529654056212220
 21
-196.739925587976470
  0
ARC
  8
0
  6
CONTINUOUS
 62
3
 10
-289.113312993773490
 20
-179.200533540763100
 40
1.000000000000028
 50
279.914783369142580
 51
0.000000000000000
  0
ARC
  8
0
  6
CONTINUOUS
 62
3
 10
-288.768946451871730
 20
-181.170663405725920
 40
0.999999999999916
 50
99.914783369143677
 51
169.999999999998010
  0
ARC
  8
0
  6
CONTINUOUS
 62
3
 10
-381.714805280767450
 20
-200.345253278356490
 40
14.999999999999961
 50
225.000000000000000
 51
259.695153531233190
  0
LINE
  8
0
  6
CONTINUOUS
 62
3
 10
-398.531457353949920
 20
-204.741804640770850
 11
-392.321406998565640
 21
-210.951854996154680
  0
LINE
  8
0
  6
CONTINUOUS
 62
3
 10
-407.113312993773430
 20
-160.200533540763100
 11
-407.113312993773430
 21
-179.200533540763100
  0
ARC
  8
0
  6
CONTINUOUS
 62
3
 10
-406.113312993773430
 20
-179.200533540763100
 40
1.000000000000000
 50
180.000000000000000
 51
260.085216630857420
  0
ARC
  8
0
  6
CONTINUOUS
 62
3
 10
-406.457679535675200
 20
-181.170663405725920
 40
0.999999999999657
 50
10.000000000002000
 51
80.085216630856323
  0
LINE
  8
0
  6
CONTINUOUS
 62
3
 10
-407.113312993773430
 20
-160.200533540763100
 11
-407.113312993773430
 21
-141.200533540763100
  0
ARC
  8
0
  6
CONTINUOUS
 62
3
 10
-406.113312993773430
 20
-141.200533540763100
 40
0.999999999999259
 50
107.278261283154540
 51
180.000000000000000
  0
LINE
  8
0
  6
CONTINUOUS
 62
3
 10
-296.453715860286650
 20
-195.200533540763100
 11
-301.228374705574940
 21
-195.200533540763100
  0
ARC
  8
0
  6
CONTINUOUS
 62
3
 10
-301.228374705574940
 20
-200.200533540763220
 40
5.000000000000114
 50
90.000000000000000
 51
139.227195305957050
  0
ARC
  8
0
  6
CONTINUOUS
 62
3
 10
-347.613312993773430
 20
-160.200533540763100
 40
56.250000000000050
 50
294.602882248819640
 51
319.227195305956910
  0
LINE
  8
0
  6
CONTINUOUS
 62
3
 10
-327.113312993773430
 20
-190.062716984041340
 11
-327.113312993773430
 21
-218.064169904399710
  0
ARC
  8
0
  6
CONTINUOUS
 62
3
 10
-334.113312993773430
 20
-214.700533540763220
 40
3.000000000000000
 50
270.000000000000000
 51
0.000000000000000
  0
LINE
  8
0
  6
CONTINUOUS
 62
3
 10
-331.113312993773430
 20
-195.721654018586040
 11
-331.113312993773430
 21
-214.700533540763220
  0
LINE
  8
0
  6
CONTINUOUS
 62
3
 10
-310.828539133779540
 20
-215.103301929854980
 11
-329.282580577015780
 21
-218.458582192261700
  0
ARC
  8
0
  6
CONTINUOUS
 62
3
 10
-331.965862150015710
 20
-203.700533540763220
 40
15.000000000000000
 50
270.000000000000000
 51
280.304846468766810
  0
LINE
  8
0
  6
CONTINUOUS
 62
3
 10
-334.281021367799890
 20
-218.700533540763220
 11
-331.965862150015710
 21
-218.700533540763220
  0
LINE
  8
0
  6
CONTINUOUS
 62
3
 10
-368.113312993773430
 20
-190.062716984041340
 11
-368.113312993773430
 21
-218.064169904399710
  0
LINE
  8
0
  6
CONTINUOUS
 62
3
 10
-364.113312993773430
 20
-195.721654018586040
 11
-364.113312993773430
 21
-214.700533540763220
  0
ARC
  8
0
  6
CONTINUOUS
 62
3
 10
-361.113312993773430
 20
-214.700533540763220
 40
3.000000000000000
 50
180.000000000000000
 51
270.000000000000000
  0
LINE
  8
0
  6
CONTINUOUS
 62
3
 10
-384.398086853767380
 20
-215.103301929854980
 11
-365.944045410531090
 21
-218.458582192261700
  0
ARC
  8
0
  6
CONTINUOUS
 62
3
 10
-363.260763837531160
 20
-203.700533540763220
 40
14.999999999999908
 50
259.695153531233190
 51
270.000000000000000
  0
LINE
  8
0
  6
CONTINUOUS
 62
3
 10
-360.945604619746970
 20
-218.700533540763220
 11
-363.260763837531160
 21
-218.700533540763220
  0
LINE
  8
0
  6
CONTINUOUS
 62
3
 10
-398.772910127260270
 20
-195.200533540763100
 11
-393.998251281971990
 21
-195.200533540763100
  0
ARC
  8
0
  6
CONTINUOUS
 62
3
 10
-347.613312993773430
 20
-160.200533540763100
 40
56.249999999999901
 50
220.772804694043030
 51
245.397117751180390
  0
LINE
  8
0
  6
CONTINUOUS
 62
3
 10
-405.472871782663330
 20
-180.997015228059010
 11
-402.696971931334700
 21
-196.739925587976470
  0
ARC
  8
0
  6
CONTINUOUS
 62
3
 10
-387.924855636151730
 20
-194.135202922972440
 40
14.999999999999863
 50
190.000000000000400
 51
225.000000000000600
  0
ARC
  8
0
  6
CONTINUOUS
 62
3
 10
-296.453715860286650
 20
-190.200533540763100
 40
5.000000000000000
 50
270.000000000000000
 51
349.999999999998120
  0
ARC
  8
0
  6
CONTINUOUS
 62
3
 10
-322.113312993773490
 20
-215.889962519699790
 40
5.000000000000202
 50
114.602882248817600
 51
180.000000000000000
  0
ARC
  8
0
  6
CONTINUOUS
 62
3
 10
-373.113312993773430
 20
-215.889962519699790
 40
5.000000000000000
 50
0.000000000000000
 51
65.397117751181796
  0
ARC
  8
0
  6
CONTINUOUS
 62
3
 10
-398.772910127260270
 20
-190.200533540763100
 40
4.999999999999669
 50
190.000000000001850
 51
270.000000000000000
  0
ARC
  8
0
  6
CONTINUOUS
 62
3
 10
-393.998251281971990
 20
-200.200533540763220
 40
5.000000000000076
 50
40.772804694042925
 51
90.000000000000000
  0
ARC
  8
0
  6
CONTINUOUS
 62
3
 10
-347.613312993773430
 20
-160.200533540763100
 40
60.000000000000142
 50
257.161431859015810
 51
282.838568140984190
  0
ARC
  8
0
  6
CONTINUOUS
 62
3
 10
-347.613312993773430
 20
-160.200533540763100
 40
35.000000000000000
 50
270.000000000000000
 51
320.890007787242100
  0
ARC
  8
0
  6
CONTINUOUS
 62
3
 10
-347.613312993773430
 20
-160.200533540763100
 40
35.000000000000036
 50
219.109992212757730
 51
270.000000000000000
  0
ARC
  8
0
  6
CONTINUOUS
 62
3
 10
-324.113312993773430
 20
-190.062716984041340
 40
2.999999999999890
 50
128.200922830838580
 51
180.000000000000000
  0
ARC
  8
0
  6
CONTINUOUS
 62
3
 10
-334.113312993773430
 20
-195.721654018586040
 40
3.000000000000000
 50
0.000000000000000
 51
110.809573577674960
  0
ARC
  8
0
  6
CONTINUOUS
 62
3
 10
-361.113312993773430
 20
-195.721654018586040
 40
3.000000000000057
 50
69.190426422325032
 51
180.000000000000000
  0
ARC
  8
0
  6
CONTINUOUS
 62
3
 10
-371.113312993773430
 20
-190.062716984041340
 40
3.000000000000000
 50
0.000000000000000
 51
51.799077169161414
  0
LINE
  8
0
  6
CONTINUOUS
 62
3
 10
-262.190102183946750
 20
-49.019963418055795
 11
-285.449434489180080
 21
-72.279295723289010
  0
LINE
  8
0
  6
CONTINUOUS
 62
3
 10
-266.432742871066300
 20
-44.777322730936589
 11
-291.487585197817740
 21
-69.832165057688144
  0
LINE
  8
0
  6
CONTINUOUS
 62
3
 10
-433.036523803600180
 20
-49.019963418055909
 11
-409.777191498366850
 21
-72.279295723289010
  0
LINE
  8
0
  6
CONTINUOUS
 62
3
 10
-428.793883116480630
 20
-44.777322730936589
 11
-403.739040789729190
 21
-69.832165057688144
  0
LINE
  8
0
  6
CONTINUOUS
 62
3
 10
-235.113312993773490
 20
-25.700533540763104
 11
-235.113312993773490
 21
-234.700533540763220
  0
LINE
  8
0
  6
CONTINUOUS
 62
3
 10
-452.113312993773430
 20
-17.700533540763104
 11
-243.113312993773490
 21
-17.700533540763104
  0
LINE
  8
0
  6
CONTINUOUS
 62
3
 10
-460.113312993773430
 20
-25.700533540763104
 11
-460.113312993773430
 21
-234.700533540763220
  0
LINE
  8
0
  6
CONTINUOUS
 62
3
 10
-452.113312993773430
 20
-242.700533540763220
 11
-409.675101821781030
 21
-242.700533540763220
  0
LINE
  8
0
  6
CONTINUOUS
 62
3
 10
-285.551524165765900
 20
-242.700533540763220
 11
-243.113312993773490
 21
-242.700533540763220
  0
ARC
  8
0
  6
CONTINUOUS
 62
3
 10
-293.608905541377740
 20
-67.710844714128484
 40
2.999999999999992
 50
241.185147882957380
 51
315.000000000004600
  0
ARC
  8
0
  6
CONTINUOUS
 62
3
 10
-283.328114145620530
 20
-74.400616066848556
 40
2.999999999999864
 50
135.000000000000000
 51
232.710272620190840
  0
ARC
  8
0
  6
CONTINUOUS
 62
3
 10
-260.068781840387200
 20
-51.141283761615568
 40
2.999999999999944
 50
45.000000000001542
 51
134.999999999996930
  0
ARC
  8
0
  6
CONTINUOUS
 62
3
 10
-268.554063214625840
 20
-42.656002387376930
 40
2.999999999999944
 50
314.999999999998470
 51
45.000000000001542
  0
ARC
  8
0
  6
CONTINUOUS
 62
3
 10
-426.672562772921080
 20
-42.656002387376930
 40
2.999999999999944
 50
134.999999999998470
 51
225.000000000001530
  0
ARC
  8
0
  6
CONTINUOUS
 62
3
 10
-435.157844147159720
 20
-51.141283761615568
 40
2.999999999999944
 50
45.000000000001542
 51
134.999999999998470
  0
ARC
  8
0
  6
CONTINUOUS
 62
3
 10
-411.898511841926390
 20
-74.400616066848556
 40
2.999999999999856
 50
307.289727379802290
 51
45.000000000000000
  0
ARC
  8
0
  6
CONTINUOUS
 62
3
 10
-401.617720446169190
 20
-67.710844714128484
 40
3.000000000000265
 50
224.999999999995400
 51
298.814852117042620
  0
ARC
  8
0
  6
CONTINUOUS
 62
3
 10
-341.613312993773430
 20
-23.200533540763104
 40
3.000000000000000
 50
90.000000000000000
 51
180.000000000000000
  0
ARC
  8
0
  6
CONTINUOUS
 62
3
 10
-353.613312993773430
 20
-23.200533540763104
 40
3.000000000000000
 50
0.000000000000000
 51
90.000000000000000
  0
CIRCLE
  8
0
  6
CONTINUOUS
 62
3
 10
-248.618363627656950
 20
-31.205584174646447
 40
7.500000000000000
  0
CIRCLE
  8
0
  6
CONTINUOUS
 62
3
 10
-446.608262359889980
 20
-31.205584174646447
 40
7.500000000000000
  0
CIRCLE
  8
0
  6
CONTINUOUS
 62
3
 10
-446.608262359889980
 20
-229.195482906879760
 40
7.500000000000000
  0
CIRCLE
  8
0
  6
CONTINUOUS
 62
3
 10
-248.618363627656950
 20
-229.195482906879760
 40
7.500000000000000
  0
ARC
  8
0
  6
CONTINUOUS
 62
3
 10
-243.113312993773490
 20
-25.700533540763104
 40
8.000000000000000
 50
0.000000000000000
 51
90.000000000000000
  0
ARC
  8
0
  6
CONTINUOUS
 62
3
 10
-452.113312993773430
 20
-25.700533540763104
 40
8.000000000000000
 50
90.000000000000000
 51
180.000000000000000
  0
ARC
  8
0
  6
CONTINUOUS
 62
3
 10
-452.113312993773430
 20
-234.700533540763220
 40
8.000000000000000
 50
180.000000000000000
 51
270.000000000000000
  0
ARC
  8
0
  6
CONTINUOUS
 62
3
 10
-243.113312993773490
 20
-234.700533540763220
 40
8.000000000000000
 50
270.000000000000000
 51
0.000000000000000
  0
LINE
  8
0
  6
CONTINUOUS
 62
3
 10
-344.613312993773430
 20
-23.200533540763104
 11
-344.613312993773430
 21
-25.200533540763104
  0
LINE
  8
0
  6
CONTINUOUS
 62
3
 10
-350.613312993773430
 20
-23.200533540763104
 11
-350.613312993773430
 21
-25.200533540763104
  0
ARC
  8
0
  6
CONTINUOUS
 62
3
 10
-263.613312993773490
 20
-155.200533540763100
 40
5.633955001831045
 50
225.233354927604410
 51
66.185261471733241
  0
ARC
  8
0
  6
CONTINUOUS
 62
3
 10
-263.613312993773490
 20
-155.200533540763100
 40
6.499999999999958
 50
217.979872444851650
 51
68.928606981454294
  0
LINE
  8
0
  6
CONTINUOUS
 62
3
 10
-260.613316331632800
 20
-153.468486587537540
 11
-260.613315377958490
 21
-156.932584564222110
  0
LINE
  8
0
  6
CONTINUOUS
 62
3
 10
-260.613314881679860
 20
-156.932584933541880
 11
-263.613317458185690
 21
-158.664631906178220
  0
LINE
  8
0
  6
CONTINUOUS
 62
3
 10
-261.552946581321350
 20
-152.925989094869440
 11
-260.613315567824490
 21
-153.468486758626740
  0
LINE
  8
0
  6
CONTINUOUS
 62
3
 10
-263.613317698762160
 20
-158.664631716511910
 11
-264.013488699712920
 21
-158.433592179031250
  0
ARC
  8
0
  6
CONTINUOUS
 62
3
 10
-297.613312993773490
 20
-79.200533540763104
 40
5.633955001831058
 50
279.379064865852460
 51
170.620935134145720
  0
ARC
  8
0
  6
CONTINUOUS
 62
3
 10
-297.613312993773490
 20
-79.200533540763104
 40
6.499999999999991
 50
275.771698093013980
 51
174.732859401948530
  0
POINT
  8
0
  6
CONTINUOUS
 62
3
 10
-297.613312993773490
 20
-79.200533540763104
  0
LINE
  8
0
  6
CONTINUOUS
 62
3
 10
-300.613310279145250
 20
-78.668774568865160
 11
-300.613310609588720
 21
-77.468481563629780
  0
LINE
  8
0
  6
CONTINUOUS
 62
3
 10
-294.613316331632800
 20
-77.468486587537541
 11
-294.613315377958490
 21
-80.932584564222111
  0
LINE
  8
0
  6
CONTINUOUS
 62
3
 10
-297.613306292052640
 20
-75.736436540827867
 11
-300.613310933325010
 21
-77.468481719057536
  0
LINE
  8
0
  6
CONTINUOUS
 62
3
 10
-294.613314881679860
 20
-80.932584933541875
 11
-297.033915889878590
 21
-82.330115282697193
  0
LINE
  8
0
  6
CONTINUOUS
 62
3
 10
-297.613306375171760
 20
-75.736436644377477
 11
-294.613315567824540
 21
-77.468486758626739
  0
ARC
  8
0
  6
CONTINUOUS
 62
3
 10
-397.613312993773430
 20
-79.200533540763217
 40
5.633955001831053
 50
9.379064865855705
 51
260.620935134148680
  0
ARC
  8
0
  6
CONTINUOUS
 62
3
 10
-397.613312993773430
 20
-79.200533540763217
 40
6.499999999999852
 50
5.267140598051820
 51
264.228301906986530
  0
POINT
  8
0
  6
CONTINUOUS
 62
3
 10
-397.613312993773430
 20
-79.200533540763217
  0
LINE
  8
0
  6
CONTINUOUS
 62
3
 10
-394.613315708401610
 20
-78.668774568865189
 11
-394.613315377958320
 21
-77.468481563629894
  0
LINE
  8
0
  6
CONTINUOUS
 62
3
 10
-400.613309655914240
 20
-77.468486587537654
 11
-400.613310609588550
 21
-80.932584564222225
  0
LINE
  8
0
  6
CONTINUOUS
 62
3
 10
-397.613319695494280
 20
-75.736436540827981
 11
-394.613315054221860
 21
-77.468481719057650
  0
LINE
  8
0
  6
CONTINUOUS
 62
3
 10
-400.613311105867070
 20
-80.932584933541989
 11
-398.192710097668400
 21
-82.330115282697335
  0
LINE
  8
0
  6
CONTINUOUS
 62
3
 10
-397.613319612375110
 20
-75.736436644377591
 11
-400.613310419722440
 21
-77.468486758626852
  0
CIRCLE
  8
0
  6
CONTINUOUS
 62
3
 10
-337.113312993773430
 20
-69.200533540764582
 40
5.633955001831055
  0
ARC
  8
0
  6
CONTINUOUS
 62
3
 10
-337.113312993773430
 20
-69.200533540764582
 40
6.500000000000164
 50
287.646413450206750
 51
249.395042493611300
  0
POINT
  8
0
  6
CONTINUOUS
 62
3
 10
-337.113312993773430
 20
-69.200533540764582
  0
LINE
  8
0
  6
CONTINUOUS
 62
3
 10
-340.113309655914460
 20
-70.932579540315828
 11
-340.113310609588780
 21
-67.468481563631258
  0
LINE
  8
0
  6
CONTINUOUS
 62
3
 10
-334.113316331632860
 20
-67.468486587539019
 11
-334.113315377958540
 21
-70.932584564223589
  0
LINE
  8
0
  6
CONTINUOUS
 62
3
 10
-337.113306292052580
 20
-65.736436540829345
 11
-340.113310933325010
 21
-67.468481719059014
  0
LINE
  8
0
  6
CONTINUOUS
 62
3
 10
-334.113314881679800
 20
-70.932584933543353
 11
-337.113317458185750
 21
-72.664631906179693
  0
LINE
  8
0
  6
CONTINUOUS
 62
3
 10
-337.113306375171760
 20
-65.736436644378955
 11
-334.113315567824430
 21
-67.468486758628217
  0
LINE
  8
0
  6
CONTINUOUS
 62
3
 10
-337.113317698762100
 20
-72.664631716513384
 11
-340.113310570873860
 21
-70.932579758797317
  0
CIRCLE
  8
0
  6
CONTINUOUS
 62
3
 10
-358.113312993772980
 20
-69.200533540764582
 40
5.633955001831055
  0
ARC
  8
0
  6
CONTINUOUS
 62
3
 10
-358.113312993772980
 20
-69.200533540764582
 40
6.500000000000158
 50
290.604957506388700
 51
252.353586549793250
  0
POINT
  8
0
  6
CONTINUOUS
 62
3
 10
-358.113312993772980
 20
-69.200533540764582
  0
LINE
  8
0
  6
CONTINUOUS
 62
3
 10
-355.113316331631950
 20
-70.932579540315828
 11
-355.113315377957860
 21
-67.468481563631258
  0
LINE
  8
0
  6
CONTINUOUS
 62
3
 10
-361.113309655913780
 20
-67.468486587539019
 11
-361.113310609588100
 21
-70.932584564223589
  0
LINE
  8
0
  6
CONTINUOUS
 62
3
 10
-358.113319695493830
 20
-65.736436540829345
 11
-355.113315054221400
 21
-67.468481719059014
  0
LINE
  8
0
  6
CONTINUOUS
 62
3
 10
-361.113311105866610
 20
-70.932584933543353
 11
-358.113308529360890
 21
-72.664631906179693
  0
LINE
  8
0
  6
CONTINUOUS
 62
3
 10
-358.113319612374650
 20
-65.736436644378955
 11
-361.113310419721980
 21
-67.468486758628217
  0
LINE
  8
0
  6
CONTINUOUS
 62
3
 10
-358.113308288784310
 20
-72.664631716513384
 11
-355.113315416672550
 21
-70.932579758797317
  0
ARC
  8
0
  6
CONTINUOUS
 62
3
 10
-344.113312993773430
 20
-111.544089957753440
 40
1.000000000000000
 50
180.000000000000000
 51
258.787728582356010
  0
LINE
  8
0
  6
CONTINUOUS
 62
3
 10
-345.113312993773430
 20
-108.494254299914530
 11
-345.113312993773430
 21
-111.544089957753440
  0
ARC
  8
0
  6
CONTINUOUS
 62
3
 10
-344.113312993773430
 20
-108.494254299914530
 40
1.000000000000268
 50
80.405931773124522
 51
180.000000000000000
  0
ARC
  8
0
  6
CONTINUOUS
 62
3
 10
-344.113312993773430
 20
-102.932682467635740
 40
1.000000000000000
 50
179.999999999986980
 51
262.410457608144040
  0
LINE
  8
0
  6
CONTINUOUS
 62
3
 10
-345.113312993773430
 20
-99.908896509009367
 11
-345.113312993773430
 21
-102.932682467635510
  0
ARC
  8
0
  6
CONTINUOUS
 62
3
 10
-344.113312993773430
 20
-99.908896509009367
 40
1.000000000000077
 50
83.186145655820312
 51
180.000000000000000
  0
ARC
  8
0
  6
CONTINUOUS
 62
3
 10
-344.113312993773430
 20
-94.375973242031307
 40
1.000000000000000
 50
180.000000000000000
 51
264.260829522738280
  0
LINE
  8
0
  6
CONTINUOUS
 62
3
 10
-345.113312993773430
 20
-91.362061055738025
 11
-345.113312993773430
 21
-94.375973242031307
  0
ARC
  8
0
  6
CONTINUOUS
 62
3
 10
-344.113312993773430
 20
-91.362061055738025
 40
1.000000000000042
 50
84.715267045464302
 51
180.000000000000000
  0
ARC
  8
0
  6
CONTINUOUS
 62
3
 10
-323.996011205841570
 20
-111.523626111640680
 40
1.000000000000082
 50
299.999999999997270
 51
36.813854344186687
  0
LINE
  8
0
  6
CONTINUOUS
 62
3
 10
-323.496011205841570
 20
-112.389651515425210
 11
-326.114686661619090
 21
-113.901544494738400
  0
ARC
  8
0
  6
CONTINUOUS
 62
3
 10
-326.614686661619090
 20
-113.035519090953860
 40
0.999999999999834
 50
217.589542391867670
 51
299.999999999997270
  0
ARC
  8
0
  6
CONTINUOUS
 62
3
 10
-316.594234581343240
 20
-107.250208385005010
 40
0.999999999999885
 50
300.000000000003810
 51
35.284732954544943
  0
LINE
  8
0
  6
CONTINUOUS
 62
3
 10
-316.094234581343240
 20
-108.116233788789310
 11
-318.704359099448990
 21
-109.623189881936070
  0
ARC
  8
0
  6
CONTINUOUS
 62
3
 10
-319.204359099448990
 20
-108.757164478151760
 40
0.999999999999940
 50
215.739170477274090
 51
300.000000000003810
  0
ARC
  8
0
  6
CONTINUOUS
 62
3
 10
-341.714783723384240
 20
-121.753564194353480
 40
0.999999999999961
 50
231.618272422159780
 51
299.999999999997270
  0
LINE
  8
0
  6
CONTINUOUS
 62
3
 10
-338.471008148359940
 20
-121.035470031301940
 11
-341.214783723384240
 21
-122.619589598138020
  0
ARC
  8
0
  6
CONTINUOUS
 62
3
 10
-334.072384310400590
 20
-117.341222836012830
 40
0.999999999999673
 50
221.212271417651210
 51
300.000000000003810
  0
LINE
  8
0
  6
CONTINUOUS
 62
3
 10
-330.931149153344450
 20
-116.682330410877560
 11
-333.572384310400590
 21
-118.207248239797130
  0
ARC
  8
0
  6
CONTINUOUS
 62
3
 10
-331.431149153344450
 20
-115.816305007093030
 40
1.000000000000082
 50
299.999999999997270
 51
39.594068226850403
  0
ARC
  8
0
  6
CONTINUOUS
 62
3
 10
-344.113312993773430
 20
-120.368772674435200
 40
1.000000000000000
 50
180.000000000000000
 51
248.381727577838030
  0
ARC
  8
0
  6
CONTINUOUS
 62
3
 10
-347.613312993773430
 20
-129.200533540763050
 40
8.500000000000128
 50
51.618272422158320
 51
68.381727577842284
  0
ARC
  8
0
  6
CONTINUOUS
 62
3
 10
-338.971008148359940
 20
-120.169444627517630
 40
0.999999999999885
 50
300.000000000003810
 51
46.260204708328693
  0
LINE
  8
0
  6
CONTINUOUS
 62
3
 10
-345.113312993773430
 20
-117.200533540763040
 11
-345.113312993773430
 21
-120.368772674435200
  0
ARC
  8
0
  6
CONTINUOUS
 62
3
 10
-344.113312993773430
 20
-117.200533540763040
 40
0.999999999999964
 50
73.739795291702634
 51
180.000000000000000
  0
ARC
  8
0
  6
CONTINUOUS
 62
3
 10
-347.613312993773430
 20
-129.200533540763050
 40
13.499999999999927
 50
46.260204708312145
 51
73.739795291689134
  0
ARC
  8
0
  6
CONTINUOUS
 62
3
 10
-347.613312993773430
 20
-129.200533540763050
 40
17.000000000000114
 50
41.212271417649760
 51
78.787728582349985
  0
ARC
  8
0
  6
CONTINUOUS
 62
3
 10
-347.613312993773430
 20
-129.200533540763050
 40
22.000000000000025
 50
39.594068226860820
 51
80.405931773138789
  0
ARC
  8
0
  6
CONTINUOUS
 62
3
 10
-347.613312993773430
 20
-129.200533540763050
 40
30.499999999999964
 50
36.813854344181067
 51
83.186145655818962
  0
ARC
  8
0
  6
CONTINUOUS
 62
3
 10
-347.613312993773430
 20
-129.200533540763050
 40
25.499999999999890
 50
37.589542391857961
 51
82.410457608141883
  0
ARC
  8
0
  6
CONTINUOUS
 62
3
 10
-347.613312993773430
 20
-129.200533540763050
 40
33.999999999999829
 50
35.739170477266640
 51
84.260829522733076
  0
ARC
  8
0
  6
CONTINUOUS
 62
3
 10
-347.613312993773430
 20
-129.200533540763050
 40
38.999999999999865
 50
35.284732954534789
 51
84.715267045465410
  0
ARC
  8
0
  6
CONTINUOUS
 62
3
 10
-320.496011205841570
 20
-117.585803938131730
 40
0.999999999999730
 50
23.186145655819850
 51
119.999999999997270
  0
LINE
  8
0
  6
CONTINUOUS
 62
3
 10
-320.996011205841570
 20
-116.719778534347190
 11
-323.614686661619090
 21
-118.231671513660380
  0
ARC
  8
0
  6
CONTINUOUS
 62
3
 10
-323.114686661619090
 20
-119.097696917444920
 40
1.000000000000082
 50
119.999999999997270
 51
202.410457608146060
  0
ARC
  8
0
  6
CONTINUOUS
 62
3
 10
-313.094234581343240
 20
-113.312386211496060
 40
1.000000000000248
 50
24.715267045455477
 51
119.999999999997270
  0
LINE
  8
0
  6
CONTINUOUS
 62
3
 10
-313.594234581343240
 20
-112.446360807711520
 11
-316.204359099448990
 21
-113.953316900858280
  0
ARC
  8
0
  6
CONTINUOUS
 62
3
 10
-315.704359099448990
 20
-114.819342304642580
 40
0.999999999999885
 50
120.000000000003780
 51
204.260829522745610
  0
ARC
  8
0
  6
CONTINUOUS
 62
3
 10
-338.214783723384240
 20
-127.815742020844760
 40
1.000000000000082
 50
119.999999999997270
 51
188.381727577832660
  0
LINE
  8
0
  6
CONTINUOUS
 62
3
 10
-335.971008148359940
 20
-125.365597050224150
 11
-338.714783723384240
 21
-126.949716617060230
  0
ARC
  8
0
  6
CONTINUOUS
 62
3
 10
-330.572384310400590
 20
-123.403400662503880
 40
1.000000000000082
 50
119.999999999997270
 51
198.787728582347000
  0
LINE
  8
0
  6
CONTINUOUS
 62
3
 10
-328.431149153343990
 20
-121.012457429800000
 11
-331.072384310400590
 21
-122.537375258719350
  0
ARC
  8
0
  6
CONTINUOUS
 62
3
 10
-327.931149153343990
 20
-121.878482833584310
 40
1.000000000000094
 50
20.405931773138686
 51
120.000000000003780
  0
ARC
  8
0
  6
CONTINUOUS
 62
3
 10
-338.214783723384240
 20
-130.585325060681550
 40
1.000000000000059
 50
171.618272422154460
 51
239.999999999996220
  0
ARC
  8
0
  6
CONTINUOUS
 62
3
 10
-347.613312993773430
 20
-129.200533540763050
 40
8.499999999999972
 50
351.618272422157820
 51
8.381727577842204
  0
ARC
  8
0
  6
CONTINUOUS
 62
3
 10
-335.471008148359940
 20
-126.231622454008450
 40
0.999999999999879
 50
13.739795291686027
 51
120.000000000003780
  0
LINE
  8
0
  6
CONTINUOUS
 62
3
 10
-335.971008148359940
 20
-133.035470031301940
 11
-338.714783723384240
 21
-131.451350464465860
  0
ARC
  8
0
  6
CONTINUOUS
 62
3
 10
-335.471008148359940
 20
-132.169444627517630
 40
0.999999999999885
 50
239.999999999996220
 51
346.260204708314010
  0
ARC
  8
0
  6
CONTINUOUS
 62
3
 10
-347.613312993773430
 20
-129.200533540763050
 40
13.500000000000130
 50
346.260204708311850
 51
13.739795291688171
  0
ARC
  8
0
  6
CONTINUOUS
 62
3
 10
-330.572384310400590
 20
-134.997666419022210
 40
0.999999999999646
 50
161.212271417644620
 51
239.999999999996220
  0
LINE
  8
0
  6
CONTINUOUS
 62
3
 10
-328.431149153343990
 20
-137.388609651726090
 11
-331.072384310400590
 21
-135.863691822806520
  0
ARC
  8
0
  6
CONTINUOUS
 62
3
 10
-347.613312993773430
 20
-129.200533540763050
 40
17.000000000000146
 50
341.212271417650070
 51
18.787728582350418
  0
ARC
  8
0
  6
CONTINUOUS
 62
3
 10
-327.931149153343990
 20
-136.522584247941780
 40
0.999999999999885
 50
239.999999999996220
 51
339.594068226861340
  0
ARC
  8
0
  6
CONTINUOUS
 62
3
 10
-323.114686661619090
 20
-139.303370164081400
 40
0.999999999999701
 50
157.589542391853940
 51
240.000000000002730
  0
ARC
  8
0
  6
CONTINUOUS
 62
3
 10
-315.704359099448990
 20
-143.581724776883280
 40
0.999999999999769
 50
155.739170477266270
 51
240.000000000002730
  0
ARC
  8
0
  6
CONTINUOUS
 62
3
 10
-347.613312993773430
 20
-129.200533540763050
 40
22.000000000000206
 50
339.594068226860770
 51
20.405931773139226
  0
LINE
  8
0
  6
CONTINUOUS
 62
3
 10
-320.996011205841570
 20
-141.681288547178890
 11
-323.614686661619090
 21
-140.169395567865930
  0
ARC
  8
0
  6
CONTINUOUS
 62
3
 10
-320.496011205841570
 20
-140.815263143394360
 40
1.000000000000082
 50
240.000000000002730
 51
336.813854344180130
  0
ARC
  8
0
  6
CONTINUOUS
 62
3
 10
-347.613312993773430
 20
-129.200533540763050
 40
30.499999999999947
 50
336.813854344181150
 51
23.186145655818844
  0
ARC
  8
0
  6
CONTINUOUS
 62
3
 10
-347.613312993773430
 20
-129.200533540763050
 40
25.500000000000085
 50
337.589542391857490
 51
22.410457608142021
  0
ARC
  8
0
  6
CONTINUOUS
 62
3
 10
-347.613312993773430
 20
-129.200533540763050
 40
34.000000000000007
 50
335.739170477266780
 51
24.260829522733218
  0
ARC
  8
0
  6
CONTINUOUS
 62
3
 10
-347.613312993773430
 20
-129.200533540763050
 40
39.000000000000220
 50
335.284732954534830
 51
24.715267045465190
  0
LINE
  8
0
  6
CONTINUOUS
 62
3
 10
-313.594234581343240
 20
-145.954706273814340
 11
-316.204359099448990
 21
-144.447750180667810
  0
ARC
  8
0
  6
CONTINUOUS
 62
3
 10
-313.094234581343240
 20
-145.088680870030030
 40
0.999999999999885
 50
239.999999999996220
 51
335.284732954544490
  0
CIRCLE
  8
0
  6
CONTINUOUS
 62
3
 10
-347.613312993773430
 20
-129.200533540763050
 40
5.000000000000000
  0
ARC
  8
0
  6
CONTINUOUS
 62
3
 10
-316.594234581343240
 20
-151.150858696521310
 40
0.999999999999776
 50
324.715267045465680
 51
60.000000000002721
  0
ARC
  8
0
  6
CONTINUOUS
 62
3
 10
-319.204359099448990
 20
-149.643902603374330
 40
0.999999999999885
 50
59.999999999996206
 51
144.260829522736490
  0
ARC
  8
0
  6
CONTINUOUS
 62
3
 10
-344.113312993773430
 20
-164.025093839494790
 40
0.999999999999973
 50
95.739170477261709
 51
180.000000000000000
  0
ARC
  8
0
  6
CONTINUOUS
 62
3
 10
-344.113312993773430
 20
-167.039006025788070
 40
1.000000000000000
 50
180.000000000000000
 51
275.284732954535740
  0
ARC
  8
0
  6
CONTINUOUS
 62
3
 10
-344.113312993773430
 20
-155.468384613890350
 40
0.999999999999975
 50
97.589542391854238
 51
180.000000000000000
  0
ARC
  8
0
  6
CONTINUOUS
 62
3
 10
-323.996011205841570
 20
-146.877440969885190
 40
0.999999999999911
 50
323.186145655802870
 51
59.999999999996206
  0
ARC
  8
0
  6
CONTINUOUS
 62
3
 10
-326.614686661618630
 20
-145.365547990572220
 40
1.000000000000082
 50
60.000000000002721
 51
142.410457608148220
  0
ARC
  8
0
  6
CONTINUOUS
 62
3
 10
-344.113312993773430
 20
-158.492170572516730
 40
1.000000000000000
 50
180.000000000000000
 51
276.813854344179670
  0
ARC
  8
0
  6
CONTINUOUS
 62
3
 10
-344.113312993773430
 20
-149.906812781611560
 40
1.000000000000000
 50
180.000000000000000
 51
279.594068226875490
  0
ARC
  8
0
  6
CONTINUOUS
 62
3
 10
-344.113312993773430
 20
-146.856977123772650
 40
0.999999999999982
 50
101.212271417644000
 51
180.000000000000000
  0
ARC
  8
0
  6
CONTINUOUS
 62
3
 10
-331.431149153344450
 20
-142.584762074432830
 40
1.000000000000318
 50
320.405931773139570
 51
59.999999999996206
  0
ARC
  8
0
  6
CONTINUOUS
 62
3
 10
-334.072384310400590
 20
-141.059844245513490
 40
1.000000000000082
 50
60.000000000002721
 51
138.787728582338990
  0
ARC
  8
0
  6
CONTINUOUS
 62
3
 10
-338.971008148359940
 20
-138.231622454008460
 40
0.999999999999858
 50
313.739795291671330
 51
59.999999999996206
  0
ARC
  8
0
  6
CONTINUOUS
 62
3
 10
-344.113312993773430
 20
-141.200533540763050
 40
1.000000000000000
 50
180.000000000000000
 51
286.260204708297350
  0
ARC
  8
0
  6
CONTINUOUS
 62
3
 10
-344.113312993773430
 20
-138.032294407090890
 40
1.000000000000090
 50
111.618272422161970
 51
180.000000000000000
  0
ARC
  8
0
  6
CONTINUOUS
 62
3
 10
-341.714783723384240
 20
-136.647502887172380
 40
0.999999999999885
 50
59.999999999996206
 51
128.381727577840220
  0
ARC
  8
0
  6
CONTINUOUS
 62
3
 10
-347.613312993773430
 20
-129.200533540763050
 40
38.999999999999986
 50
275.284732954534600
 51
324.715267045465230
  0
ARC
  8
0
  6
CONTINUOUS
 62
3
 10
-347.613312993773430
 20
-129.200533540763050
 40
30.500000000000135
 50
276.813854344181040
 51
323.186145655818900
  0
ARC
  8
0
  6
CONTINUOUS
 62
3
 10
-347.613312993773430
 20
-129.200533540763050
 40
34.000000000000071
 50
275.739170477266950
 51
324.260829522733050
  0
ARC
  8
0
  6
CONTINUOUS
 62
3
 10
-347.613312993773430
 20
-129.200533540763050
 40
25.499999999999932
 50
277.589542391858170
 51
322.410457608142050
  0
ARC
  8
0
  6
CONTINUOUS
 62
3
 10
-347.613312993773430
 20
-129.200533540763050
 40
22.000000000000131
 50
279.594068226861170
 51
320.405931773139170
  0
ARC
  8
0
  6
CONTINUOUS
 62
3
 10
-347.613312993773430
 20
-129.200533540763050
 40
17.000000000000046
 50
281.212271417650020
 51
318.787728582350210
  0
ARC
  8
0
  6
CONTINUOUS
 62
3
 10
-347.613312993773430
 20
-129.200533540763050
 40
13.499999999999963
 50
286.260204708310820
 51
313.739795291687870
  0
ARC
  8
0
  6
CONTINUOUS
 62
3
 10
-347.613312993773430
 20
-129.200533540763050
 40
8.499999999999904
 50
291.618272422157700
 51
308.381727577842640
  0
LINE
  8
0
  6
CONTINUOUS
 62
3
 10
-323.496011205841570
 20
-146.011415566100880
 11
-326.114686661618630
 21
-144.499522586787690
  0
LINE
  8
0
  6
CONTINUOUS
 62
3
 10
-345.113312993773430
 20
-167.039006025788070
 11
-345.113312993773430
 21
-164.025093839494790
  0
LINE
  8
0
  6
CONTINUOUS
 62
3
 10
-316.094234581343240
 20
-150.284833292736780
 11
-318.704359099448990
 21
-148.777877199590020
  0
LINE
  8
0
  6
CONTINUOUS
 62
3
 10
-330.931149153344450
 20
-141.718736670648520
 11
-333.572384310400590
 21
-140.193818841728960
  0
LINE
  8
0
  6
CONTINUOUS
 62
3
 10
-338.471008148359940
 20
-137.365597050224150
 11
-341.214783723384240
 21
-135.781477483388070
  0
LINE
  8
0
  6
CONTINUOUS
 62
3
 10
-345.113312993773430
 20
-141.200533540763050
 11
-345.113312993773430
 21
-138.032294407090890
  0
LINE
  8
0
  6
CONTINUOUS
 62
3
 10
-345.113312993773430
 20
-149.906812781611560
 11
-345.113312993773430
 21
-146.856977123772650
  0
LINE
  8
0
  6
CONTINUOUS
 62
3
 10
-345.113312993773430
 20
-158.492170572516730
 11
-345.113312993773430
 21
-155.468384613890350
  0
ARC
  8
0
  6
CONTINUOUS
 62
3
 10
-347.613312993773430
 20
-129.200533540763050
 40
39.000000000000220
 50
155.284732954534800
 51
204.715267045465200
  0
ARC
  8
0
  6
CONTINUOUS
 62
3
 10
-347.613312993773430
 20
-129.200533540763050
 40
34.000000000000007
 50
155.739170477266780
 51
204.260829522733220
  0
ARC
  8
0
  6
CONTINUOUS
 62
3
 10
-347.613312993773430
 20
-129.200533540763050
 40
25.500000000000000
 50
157.589542391857980
 51
202.410457608142480
  0
ARC
  8
0
  6
CONTINUOUS
 62
3
 10
-347.613312993773430
 20
-129.200533540763050
 40
30.499999999999947
 50
156.813854344181150
 51
203.186145655818850
  0
ARC
  8
0
  6
CONTINUOUS
 62
3
 10
-347.613312993773430
 20
-129.200533540763050
 40
22.000000000000206
 50
159.594068226860770
 51
200.405931773139230
  0
ARC
  8
0
  6
CONTINUOUS
 62
3
 10
-347.613312993773430
 20
-129.200533540763050
 40
16.999999999999716
 50
161.212271417649560
 51
198.787728582350440
  0
ARC
  8
0
  6
CONTINUOUS
 62
3
 10
-347.613312993773430
 20
-129.200533540763050
 40
13.499999999999687
 50
166.260204708311360
 51
193.739795291688180
  0
ARC
  8
0
  6
CONTINUOUS
 62
3
 10
-359.755617839186930
 20
-126.231622454008450
 40
0.999999999999885
 50
59.999999999996206
 51
166.260204708307780
  0
ARC
  8
0
  6
CONTINUOUS
 62
3
 10
-367.295476834202870
 20
-121.878482833584310
 40
0.999999999999885
 50
59.999999999996206
 51
159.594068226861310
  0
LINE
  8
0
  6
CONTINUOUS
 62
3
 10
-366.795476834202870
 20
-121.012457429800000
 11
-364.154241677146270
 21
-122.537375258719350
  0
ARC
  8
0
  6
CONTINUOUS
 62
3
 10
-364.654241677146270
 20
-123.403400662503880
 40
1.000000000000076
 50
341.212271417652970
 51
60.000000000002721
  0
LINE
  8
0
  6
CONTINUOUS
 62
3
 10
-359.255617839186930
 20
-125.365597050224150
 11
-356.511842264162620
 21
-126.949716617060230
  0
ARC
  8
0
  6
CONTINUOUS
 62
3
 10
-357.011842264162620
 20
-127.815742020844760
 40
1.000000000000026
 50
351.618272422167310
 51
60.000000000002721
  0
ARC
  8
0
  6
CONTINUOUS
 62
3
 10
-379.522266888097870
 20
-114.819342304642580
 40
0.999999999999863
 50
335.739170477254390
 51
59.999999999996206
  0
LINE
  8
0
  6
CONTINUOUS
 62
3
 10
-381.632391406203620
 20
-112.446360807711520
 11
-379.022266888097870
 21
-113.953316900858280
  0
ARC
  8
0
  6
CONTINUOUS
 62
3
 10
-382.132391406203620
 20
-113.312386211496060
 40
1.000000000000082
 50
60.000000000002721
 51
155.284732954544520
  0
ARC
  8
0
  6
CONTINUOUS
 62
3
 10
-372.111939325927780
 20
-119.097696917444920
 40
0.999999999999701
 50
337.589542391853970
 51
60.000000000002721
  0
LINE
  8
0
  6
CONTINUOUS
 62
3
 10
-374.230614781705300
 20
-116.719778534347190
 11
-371.611939325927780
 21
-118.231671513660380
  0
ARC
  8
0
  6
CONTINUOUS
 62
3
 10
-374.730614781705300
 20
-117.585803938131730
 40
1.000000000000082
 50
60.000000000002721
 51
156.813854344180160
  0
ARC
  8
0
  6
CONTINUOUS
 62
3
 10
-347.613312993773430
 20
-129.200533540763050
 40
38.999999999999986
 50
95.284732954534590
 51
144.715267045465200
  0
ARC
  8
0
  6
CONTINUOUS
 62
3
 10
-347.613312993773430
 20
-129.200533540763050
 40
34.000000000000071
 50
95.739170477266924
 51
144.260829522733360
  0
ARC
  8
0
  6
CONTINUOUS
 62
3
 10
-347.613312993773430
 20
-129.200533540763050
 40
25.500000000000160
 50
97.589542391858117
 51
142.410457608142050
  0
ARC
  8
0
  6
CONTINUOUS
 62
3
 10
-347.613312993773430
 20
-129.200533540763050
 40
30.500000000000135
 50
96.813854344181038
 51
143.186145655818930
  0
ARC
  8
0
  6
CONTINUOUS
 62
3
 10
-347.613312993773430
 20
-129.200533540763050
 40
22.000000000000131
 50
99.594068226861211
 51
140.405931773139200
  0
ARC
  8
0
  6
CONTINUOUS
 62
3
 10
-347.613312993773430
 20
-129.200533540763050
 40
17.000000000000046
 50
101.212271417650010
 51
138.787728582350240
  0
ARC
  8
0
  6
CONTINUOUS
 62
3
 10
-347.613312993773430
 20
-129.200533540763050
 40
13.499999999999963
 50
106.260204708310860
 51
133.739795291687870
  0
ARC
  8
0
  6
CONTINUOUS
 62
3
 10
-351.113312993773430
 20
-117.200533540763040
 40
1.000000000000000
 50
0.000000000000000
 51
106.260204708297360
  0
LINE
  8
0
  6
CONTINUOUS
 62
3
 10
-350.113312993773430
 20
-117.200533540763040
 11
-350.113312993773430
 21
-120.368772674435200
  0
ARC
  8
0
  6
CONTINUOUS
 62
3
 10
-356.255617839186930
 20
-120.169444627517630
 40
0.999999999999858
 50
133.739795291671300
 51
239.999999999996220
  0
ARC
  8
0
  6
CONTINUOUS
 62
3
 10
-347.613312993773430
 20
-129.200533540763050
 40
8.499999999999904
 50
111.618272422157710
 51
128.381727577841670
  0
ARC
  8
0
  6
CONTINUOUS
 62
3
 10
-351.113312993773430
 20
-120.368772674435200
 40
1.000000000000090
 50
291.618272422161970
 51
0.000000000000000
  0
ARC
  8
0
  6
CONTINUOUS
 62
3
 10
-363.795476834202420
 20
-115.816305007093030
 40
1.000000000000173
 50
140.405931773149600
 51
240.000000000002730
  0
LINE
  8
0
  6
CONTINUOUS
 62
3
 10
-364.295476834202420
 20
-116.682330410877560
 11
-361.654241677146270
 21
-118.207248239797130
  0
ARC
  8
0
  6
CONTINUOUS
 62
3
 10
-361.154241677146270
 20
-117.341222836012830
 40
0.999999999999885
 50
239.999999999996220
 51
318.787728582348790
  0
LINE
  8
0
  6
CONTINUOUS
 62
3
 10
-356.755617839186930
 20
-121.035470031301940
 11
-354.011842264162620
 21
-122.619589598138020
  0
ARC
  8
0
  6
CONTINUOUS
 62
3
 10
-353.511842264162620
 20
-121.753564194353480
 40
1.000000000000082
 50
240.000000000002730
 51
308.381727577840190
  0
ARC
  8
0
  6
CONTINUOUS
 62
3
 10
-376.022266888097870
 20
-108.757164478151760
 40
0.999999999999885
 50
239.999999999996220
 51
324.260829522725940
  0
LINE
  8
0
  6
CONTINUOUS
 62
3
 10
-379.132391406203620
 20
-108.116233788789310
 11
-376.522266888097870
 21
-109.623189881936070
  0
ARC
  8
0
  6
CONTINUOUS
 62
3
 10
-378.632391406203620
 20
-107.250208385005010
 40
0.999999999999908
 50
144.715267045455050
 51
239.999999999996220
  0
ARC
  8
0
  6
CONTINUOUS
 62
3
 10
-368.611939325927780
 20
-113.035519090953860
 40
1.000000000000082
 50
240.000000000002730
 51
322.410457608132330
  0
LINE
  8
0
  6
CONTINUOUS
 62
3
 10
-371.730614781705300
 20
-112.389651515425210
 11
-369.111939325927780
 21
-113.901544494738400
  0
ARC
  8
0
  6
CONTINUOUS
 62
3
 10
-371.230614781705300
 20
-111.523626111640680
 40
0.999999999999774
 50
143.186145655813330
 51
240.000000000002730
  0
ARC
  8
0
  6
CONTINUOUS
 62
3
 10
-351.113312993773430
 20
-91.362061055738025
 40
1.000000000000000
 50
0.000000000000000
 51
95.284732954535698
  0
LINE
  8
0
  6
CONTINUOUS
 62
3
 10
-350.113312993773430
 20
-91.362061055738025
 11
-350.113312993773430
 21
-94.375973242031307
  0
ARC
  8
0
  6
CONTINUOUS
 62
3
 10
-351.113312993773430
 20
-94.375973242031307
 40
0.999999999999973
 50
275.739170477261670
 51
0.000000000000000
  0
ARC
  8
0
  6
CONTINUOUS
 62
3
 10
-351.113312993773430
 20
-99.908896509009367
 40
1.000000000000000
 50
0.000000000000000
 51
96.813854344179688
  0
LINE
  8
0
  6
CONTINUOUS
 62
3
 10
-350.113312993773430
 20
-99.908896509009367
 11
-350.113312993773430
 21
-102.932682467635510
  0
ARC
  8
0
  6
CONTINUOUS
 62
3
 10
-351.113312993773430
 20
-102.932682467635740
 40
0.999999999999749
 50
277.589542391855960
 51
0.000000000013028
  0
ARC
  8
0
  6
CONTINUOUS
 62
3
 10
-351.113312993773430
 20
-108.494254299914530
 40
1.000000000000000
 50
0.000000000000000
 51
99.594068226875478
  0
LINE
  8
0
  6
CONTINUOUS
 62
3
 10
-350.113312993773430
 20
-108.494254299914530
 11
-350.113312993773430
 21
-111.544089957753440
  0
ARC
  8
0
  6
CONTINUOUS
 62
3
 10
-351.113312993773430
 20
-111.544089957753440
 40
0.999999999999982
 50
281.212271417643990
 51
0.000000000000000
  0
ARC
  8
0
  6
CONTINUOUS
 62
3
 10
-359.755617839186930
 20
-132.169444627517630
 40
0.999999999999879
 50
193.739795291686050
 51
300.000000000003810
  0
LINE
  8
0
  6
CONTINUOUS
 62
3
 10
-359.255617839186930
 20
-133.035470031301940
 11
-356.511842264162620
 21
-131.451350464465860
  0
ARC
  8
0
  6
CONTINUOUS
 62
3
 10
-347.613312993773430
 20
-129.200533540763050
 40
8.499999999999972
 50
171.618272422157790
 51
188.381727577842210
  0
ARC
  8
0
  6
CONTINUOUS
 62
3
 10
-357.011842264162620
 20
-130.585325060681550
 40
0.999999999999885
 50
300.000000000003810
 51
8.381727577845549
  0
LINE
  8
0
  6
CONTINUOUS
 62
3
 10
-350.113312993773430
 20
-158.492170572516730
 11
-350.113312993773430
 21
-155.468384613890350
  0
LINE
  8
0
  6
CONTINUOUS
 62
3
 10
-350.113312993773430
 20
-149.906812781611560
 11
-350.113312993773430
 21
-146.856977123772650
  0
LINE
  8
0
  6
CONTINUOUS
 62
3
 10
-350.113312993773430
 20
-141.200533540763050
 11
-350.113312993773430
 21
-138.032294407090890
  0
LINE
  8
0
  6
CONTINUOUS
 62
3
 10
-356.755617839186930
 20
-137.365597050224150
 11
-354.011842264162620
 21
-135.781477483388070
  0
LINE
  8
0
  6
CONTINUOUS
 62
3
 10
-364.295476834202420
 20
-141.718736670648520
 11
-361.654241677146270
 21
-140.193818841728960
  0
LINE
  8
0
  6
CONTINUOUS
 62
3
 10
-379.132391406203620
 20
-150.284833292736780
 11
-376.522266888097870
 21
-148.777877199590020
  0
LINE
  8
0
  6
CONTINUOUS
 62
3
 10
-371.730614781705300
 20
-146.011415566100880
 11
-369.111939325928230
 21
-144.499522586787690
  0
ARC
  8
0
  6
CONTINUOUS
 62
3
 10
-347.613312993773430
 20
-129.200533540763050
 40
8.499999999999948
 50
231.618272422157330
 51
248.381727577842330
  0
ARC
  8
0
  6
CONTINUOUS
 62
3
 10
-347.613312993773430
 20
-129.200533540763050
 40
13.499999999999927
 50
226.260204708312130
 51
253.739795291689150
  0
ARC
  8
0
  6
CONTINUOUS
 62
3
 10
-347.613312993773430
 20
-129.200533540763050
 40
16.999999999999773
 50
221.212271417650780
 51
258.787728582349980
  0
ARC
  8
0
  6
CONTINUOUS
 62
3
 10
-347.613312993773430
 20
-129.200533540763050
 40
22.000000000000025
 50
219.594068226860800
 51
260.405931773138780
  0
ARC
  8
0
  6
CONTINUOUS
 62
3
 10
-347.613312993773430
 20
-129.200533540763050
 40
25.499999999999890
 50
217.589542391857950
 51
262.410457608141830
  0
ARC
  8
0
  6
CONTINUOUS
 62
3
 10
-347.613312993773430
 20
-129.200533540763050
 40
33.999999999999964
 50
215.739170477266950
 51
264.260829522733050
  0
ARC
  8
0
  6
CONTINUOUS
 62
3
 10
-347.613312993773430
 20
-129.200533540763050
 40
30.499999999999964
 50
216.813854344181070
 51
263.186145655818960
  0
ARC
  8
0
  6
CONTINUOUS
 62
3
 10
-347.613312993773430
 20
-129.200533540763050
 40
38.999999999999865
 50
215.284732954534800
 51
264.715267045465400
  0
ARC
  8
0
  6
CONTINUOUS
 62
3
 10
-353.511842264162620
 20
-136.647502887172380
 40
0.999999999999961
 50
51.618272422159777
 51
120.000000000003780
  0
ARC
  8
0
  6
CONTINUOUS
 62
3
 10
-351.113312993773430
 20
-138.032294407090890
 40
1.000000000000000
 50
0.000000000000000
 51
68.381727577838021
  0
ARC
  8
0
  6
CONTINUOUS
 62
3
 10
-351.113312993773430
 20
-141.200533540763050
 40
0.999999999999964
 50
253.739795291702650
 51
0.000000000000000
  0
ARC
  8
0
  6
CONTINUOUS
 62
3
 10
-356.255617839186930
 20
-138.231622454008460
 40
0.999999999999885
 50
120.000000000003780
 51
226.260204708328700
  0
ARC
  8
0
  6
CONTINUOUS
 62
3
 10
-361.154241677146270
 20
-141.059844245513490
 40
1.000000000000165
 50
41.212271417643841
 51
119.999999999997270
  0
ARC
  8
0
  6
CONTINUOUS
 62
3
 10
-363.795476834202420
 20
-142.584762074432830
 40
0.999999999999885
 50
120.000000000003780
 51
219.594068226860460
  0
ARC
  8
0
  6
CONTINUOUS
 62
3
 10
-351.113312993773430
 20
-146.856977123772650
 40
1.000000000000000
 50
0.000000000000000
 51
78.787728582355996
  0
ARC
  8
0
  6
CONTINUOUS
 62
3
 10
-351.113312993773430
 20
-149.906812781611560
 40
1.000000000000268
 50
260.405931773124510
 51
0.000000000000000
  0
ARC
  8
0
  6
CONTINUOUS
 62
3
 10
-368.611939325928230
 20
-145.365547990572220
 40
1.000000000000194
 50
37.589542391851793
 51
119.999999999997270
  0
ARC
  8
0
  6
CONTINUOUS
 62
3
 10
-371.230614781705300
 20
-146.877440969885190
 40
0.999999999999885
 50
120.000000000003780
 51
216.813854344197100
  0
ARC
  8
0
  6
CONTINUOUS
 62
3
 10
-351.113312993773430
 20
-155.468384613890350
 40
1.000000000000000
 50
0.000000000000000
 51
82.410457608145762
  0
ARC
  8
0
  6
CONTINUOUS
 62
3
 10
-376.022266888097870
 20
-149.643902603374330
 40
0.999999999999807
 50
35.739170477263521
 51
120.000000000003780
  0
ARC
  8
0
  6
CONTINUOUS
 62
3
 10
-378.632391406203620
 20
-151.150858696521310
 40
1.000000000000082
 50
119.999999999997270
 51
215.284732954534320
  0
ARC
  8
0
  6
CONTINUOUS
 62
3
 10
-382.132391406203620
 20
-145.088680870030030
 40
1.000000000000248
 50
204.715267045455480
 51
300.000000000003810
  0
LINE
  8
0
  6
CONTINUOUS
 62
3
 10
-381.632391406203620
 20
-145.954706273814340
 11
-379.022266888097870
 21
-144.447750180667810
  0
ARC
  8
0
  6
CONTINUOUS
 62
3
 10
-374.730614781705300
 20
-140.815263143394360
 40
0.999999999999730
 50
203.186145655819840
 51
299.999999999997270
  0
LINE
  8
0
  6
CONTINUOUS
 62
3
 10
-374.230614781705300
 20
-141.681288547178890
 11
-371.611939325927780
 21
-140.169395567865930
  0
ARC
  8
0
  6
CONTINUOUS
 62
3
 10
-379.522266888097870
 20
-143.581724776883280
 40
1.000000000000082
 50
299.999999999997270
 51
24.260829522733715
  0
ARC
  8
0
  6
CONTINUOUS
 62
3
 10
-372.111939325927780
 20
-139.303370164081400
 40
1.000000000000082
 50
299.999999999997270
 51
22.410457608146043
  0
ARC
  8
0
  6
CONTINUOUS
 62
3
 10
-367.295476834202870
 20
-136.522584247941780
 40
1.000000000000094
 50
200.405931773138690
 51
300.000000000003810
  0
LINE
  8
0
  6
CONTINUOUS
 62
3
 10
-366.795476834202870
 20
-137.388609651726090
 11
-364.154241677146270
 21
-135.863691822806520
  0
ARC
  8
0
  6
CONTINUOUS
 62
3
 10
-364.654241677146270
 20
-134.997666419022210
 40
0.999999999999885
 50
300.000000000003810
 51
18.787728582346993
  0
LINE
  8
0
  6
CONTINUOUS
 62
3
 10
-350.113312993773430
 20
-167.039006025788070
 11
-350.113312993773430
 21
-164.025093839494790
  0
ARC
  8
0
  6
CONTINUOUS
 62
3
 10
-351.113312993773430
 20
-158.492170572516730
 40
1.000000000000077
 50
263.186145655820330
 51
0.000000000000000
  0
ARC
  8
0
  6
CONTINUOUS
 62
3
 10
-351.113312993773430
 20
-167.039006025788070
 40
1.000000000000042
 50
264.715267045464260
 51
0.000000000000000
  0
ARC
  8
0
  6
CONTINUOUS
 62
3
 10
-351.113312993773430
 20
-164.025093839494790
 40
1.000000000000000
 50
0.000000000000000
 51
84.260829522738291
  0
ARC
  8
0
  6
CONTINUOUS
 62
3
 10
-347.613312993773430
 20
-475.800533540763180
 40
400.599999999999910
 50
84.256318189006564
 51
90.000000000000000
  0
ARC
  8
0
  6
CONTINUOUS
 62
3
 10
-308.182445993686090
 20
-83.778586798464687
 40
6.600000000000278
 50
44.999999999997215
 51
84.256318189004901
  0
ARC
  8
0
  6
CONTINUOUS
 62
4
 10
-347.613312993773430
 20
-475.800533540763180
 40
390.797000000000030
 50
84.582036237639471
 51
90.000000000000000
  0
ARC
  8
0
  6
CONTINUOUS
 62
4
 10
-310.997348054755090
 20
-89.736051464796276
 40
3.000000000000346
 50
44.999999999996930
 51
84.582036237634313
  0
ARC
  8
0
  6
CONTINUOUS
 62
4
 10
-310.997348054755090
 20
-168.665015616729820
 40
3.000000000000067
 50
275.417963762365730
 51
315.000000000003070
  0
ARC
  8
0
  6
CONTINUOUS
 62
4
 10
-347.613312993773430
 20
217.399466459237150
 40
390.797000000000080
 50
270.000000000000000
 51
275.417963762360500
  0
ARC
  8
0
  6
CONTINUOUS
 62
4
 10
-320.241422406254060
 20
-152.740331198675050
 40
20.797000000000015
 50
315.000000000000000
 51
354.998349729064670
  0
LINE
  8
0
  6
CONTINUOUS
 62
4
 10
-305.535722677917420
 20
-167.446030927011690
 11
-308.876027711195090
 21
-170.786335960289590
  0
ARC
  8
0
  6
CONTINUOUS
 62
4
 10
-589.213312993773800
 20
-129.200533540763050
 40
290.797000000000140
 50
354.998349729065010
 51
0.000000000000000
  0
ARC
  8
0
  6
CONTINUOUS
 62
4
 10
-384.229277932791770
 20
-168.665015616729820
 40
3.000000000000346
 50
224.999999999996960
 51
264.582036237634270
  0
ARC
  8
0
  6
CONTINUOUS
 62
4
 10
-347.613312993773430
 20
217.399466459237150
 40
390.797000000000140
 50
264.582036237639500
 51
270.000000000000000
  0
ARC
  8
0
  6
CONTINUOUS
 62
4
 10
-374.985203581292810
 20
-152.740331198675050
 40
20.796999999999880
 50
185.001650270935330
 51
225.000000000000000
  0
LINE
  8
0
  6
CONTINUOUS
 62
4
 10
-389.690903309629450
 20
-167.446030927011690
 11
-386.350598276351770
 21
-170.786335960289590
  0
ARC
  8
0
  6
CONTINUOUS
 62
4
 10
-106.013312993773350
 20
-129.200533540763050
 40
290.797000000000200
 50
180.000000000000000
 51
185.001650270934930
  0
ARC
  8
0
  6
CONTINUOUS
 62
4
 10
-384.229277932791770
 20
-89.736051464796276
 40
3.000000000000067
 50
95.417963762365673
 51
135.000000000003040
  0
ARC
  8
0
  6
CONTINUOUS
 62
4
 10
-347.613312993773430
 20
-475.800533540763180
 40
390.797000000000030
 50
90.000000000000000
 51
95.417963762360529
  0
ARC
  8
0
  6
CONTINUOUS
 62
4
 10
-374.985203581292810
 20
-105.660735882851040
 40
20.797000000000015
 50
135.000000000000000
 51
174.998349729064670
  0
LINE
  8
0
  6
CONTINUOUS
 62
4
 10
-389.690903309629450
 20
-90.955036154514403
 11
-386.350598276351770
 21
-87.614731121236503
  0
ARC
  8
0
  6
CONTINUOUS
 62
4
 10
-106.013312993773350
 20
-129.200533540763050
 40
290.796999999999850
 50
174.998349729065040
 51
180.000000000000000
  0
ARC
  8
0
  6
CONTINUOUS
 62
3
 10
-266.674543859791870
 20
-154.200533540763050
 40
5.000000000000000
 50
270.000000000000000
 51
302.154967433196760
  0
ARC
  8
0
  6
CONTINUOUS
 62
3
 10
-266.674543859791870
 20
-104.200533540763040
 40
4.999999999999893
 50
4.861405395798621
 51
90.000000000000000
  0
LINE
  8
0
  6
CONTINUOUS
 62
3
 10
-290.113312993773430
 20
-159.200533540763050
 11
-266.674543859791870
 21
-159.200533540763050
  0
LINE
  8
0
  6
CONTINUOUS
 62
3
 10
-290.113312993773430
 20
-99.200533540763047
 11
-266.674543859791870
 21
-99.200533540763047
  0
ARC
  8
0
  6
CONTINUOUS
 62
3
 10
-560.613312993773430
 20
-129.200533540763050
 40
300.000000000000110
 50
355.138594604201960
 51
4.861405395798037
  0
LINE
  8
0
  6
CONTINUOUS
 62
3
 10
-260.623729841291210
 20
-126.700533540763040
 11
-260.113312993773490
 21
-126.700533540763040
  0
LINE
  8
0
  6
CONTINUOUS
 62
3
 10
-260.623729841291210
 20
-131.700533540763050
 11
-260.113312993773490
 21
-131.700533540763050
  0
LINE
  8
0
  6
CONTINUOUS
 62
3
 10
-260.113312993773490
 20
-131.700533540763050
 11
-260.113312993773490
 21
-126.700533540763040
  0
ARC
  8
0
  6
CONTINUOUS
 62
3
 10
-310.623245755627070
 20
-101.136776909747420
 40
20.599999999999916
 50
5.752282731536487
 51
44.999999999997321
  0
LINE
  8
0
  6
CONTINUOUS
 62
3
 10
-296.056846063183460
 20
-86.570377217305179
 11
-303.515541237854450
 21
-79.111682042633504
  0
ARC
  8
0
  6
CONTINUOUS
 62
3
 10
-589.213312993773800
 20
-129.200533540763050
 40
300.600000000000360
 50
0.000000000000000
 51
5.752282731536604
  0
LINE
  8
0
  6
CONTINUOUS
 62
3
 10
-290.311863933872250
 20
-97.700533540763047
 11
-290.113312993773430
 21
-97.700533540763047
  0
LINE
  8
0
  6
CONTINUOUS
 62
3
 10
-290.113312993773430
 20
-99.208034478500906
 11
-290.113312993773430
 21
-97.700533540763047
  0
ARC
  8
0
  6
CONTINUOUS
 62
4
 10
-310.623245755627070
 20
-101.136776909747420
 40
10.797000000000011
 50
5.752282731536912
 51
44.999999999998295
  0
LINE
  8
0
  6
CONTINUOUS
 62
4
 10
-302.988613839155730
 20
-93.502144993276545
 11
-308.876027711195090
 21
-87.614731121236503
  0
ARC
  8
0
  6
CONTINUOUS
 62
4
 10
-589.213312993773800
 20
-129.200533540763050
 40
290.797000000000480
 50
0.000000000000000
 51
5.752282731536624
  0
ARC
  8
0
  6
CONTINUOUS
 62
3
 10
-589.213312993773800
 20
-129.200533540763050
 40
300.599999999999910
 50
354.247717268463420
 51
0.000000000000000
  0
LINE
  8
0
  6
CONTINUOUS
 62
3
 10
-296.056846063183460
 20
-171.830689864220910
 11
-303.515541237854450
 21
-179.289385038892590
  0
ARC
  8
0
  6
CONTINUOUS
 62
3
 10
-310.623245755627070
 20
-157.264290171778670
 40
20.600000000000069
 50
315.000000000002670
 51
354.247717268463480
  0
ARC
  8
0
  6
CONTINUOUS
 62
3
 10
-347.613312993773430
 20
217.399466459237150
 40
400.599999999999970
 50
270.000000000000000
 51
275.743681810993450
  0
ARC
  8
0
  6
CONTINUOUS
 62
3
 10
-308.182445993686090
 20
-174.622480283061410
 40
6.600000000000009
 50
275.743681810995100
 51
315.000000000002790
  0
ARC
  8
0
  6
CONTINUOUS
 62
3
 10
-106.013312993773120
 20
-129.200533540763050
 40
300.600000000000310
 50
180.000000000000000
 51
185.752282731536610
  0
LINE
  8
0
  6
CONTINUOUS
 62
3
 10
-399.169779924363410
 20
-171.830689864220910
 11
-391.711084749692420
 21
-179.289385038892590
  0
ARC
  8
0
  6
CONTINUOUS
 62
3
 10
-384.603380231919800
 20
-157.264290171778670
 40
20.599999999999916
 50
185.752282731536500
 51
224.999999999997330
  0
ARC
  8
0
  6
CONTINUOUS
 62
3
 10
-347.613312993773430
 20
217.399466459237150
 40
400.599999999999970
 50
264.256318189006550
 51
270.000000000000000
  0
ARC
  8
0
  6
CONTINUOUS
 62
3
 10
-387.044179993860780
 20
-174.622480283061410
 40
6.600000000000278
 50
224.999999999997190
 51
264.256318189004900
  0
ARC
  8
0
  6
CONTINUOUS
 62
3
 10
-106.013312993773120
 20
-129.200533540763050
 40
300.599999999999850
 50
174.247717268463390
 51
180.000000000000000
  0
LINE
  8
0
  6
CONTINUOUS
 62
3
 10
-399.169779924363410
 20
-86.570377217305179
 11
-391.711084749692420
 21
-79.111682042633504
  0
ARC
  8
0
  6
CONTINUOUS
 62
3
 10
-384.603380231919800
 20
-101.136776909747420
 40
20.600000000000069
 50
135.000000000002670
 51
174.247717268463500
  0
ARC
  8
0
  6
CONTINUOUS
 62
3
 10
-347.613312993773430
 20
-475.800533540763180
 40
400.599999999999910
 50
90.000000000000000
 51
95.743681810993436
  0
ARC
  8
0
  6
CONTINUOUS
 62
3
 10
-387.044179993860780
 20
-83.778586798464687
 40
6.600000000000009
 50
95.743681810995099
 51
135.000000000002790
  0
LINE
  8
0
  6
CONTINUOUS
 62
3
 10
-290.113312993773430
 20
-160.700533540763050
 11
-290.113312993773430
 21
-159.188519395193280
  0
LINE
  8
0
  6
CONTINUOUS
 62
3
 10
-290.311863933872250
 20
-160.700533540763050
 11
-290.113312993773430
 21
-160.700533540763050
  0
ARC
  8
0
  6
CONTINUOUS
 62
3
 10
-266.674543859791870
 20
-154.200533540763050
 40
4.999999999999984
 50
302.154967433196760
 51
355.138594604201330
  0
LINE
  8
0
  6
CONTINUOUS
 62
3
 10
-297.196599630042670
 20
-85.430623650445767
 11
-296.709796238337050
 21
-84.943820258740146
  0
LINE
  8
0
  6
CONTINUOUS
 62
3
 10
-303.843403103456350
 20
-78.783820177032027
 11
-303.356599711750730
 21
-78.297016785326434
  0
LINE
  8
0
  6
CONTINUOUS
 62
3
 10
-296.883461021073860
 20
-85.178076699595380
 11
-303.560560323546780
 21
-78.500977397122455
  0
LINE
  8
0
  6
CONTINUOUS
 62
3
 10
-297.196599630042670
 20
-85.430623650445767
 11
-303.843403103456350
 21
-78.783820177032027
  0
POINT
  8
0
  6
CONTINUOUS
 62
3
 10
-300.520001366749510
 20
-82.107221913738897
  0
ARC
  8
0
  6
CONTINUOUS
 62
3
 10
-302.782742931676520
 20
-84.369963478665937
 40
6.099999427795398
 50
354.601910595264880
 51
95.398072101891529
  0
LINE
  8
0
  6
CONTINUOUS
 62
3
 10
-398.030026357504080
 20
-85.430623650445767
 11
-398.516829749209820
 21
-84.943820258740146
  0
LINE
  8
0
  6
CONTINUOUS
 62
3
 10
-391.383222884090400
 20
-78.783820177032027
 11
-391.870026275796140
 21
-78.297016785326434
  0
LINE
  8
0
  6
CONTINUOUS
 62
3
 10
-398.343164966473070
 20
-85.178076699595380
 11
-391.666065664000140
 21
-78.500977397122455
  0
LINE
  8
0
  6
CONTINUOUS
 62
3
 10
-398.030026357504080
 20
-85.430623650445767
 11
-391.383222884090400
 21
-78.783820177032027
  0
POINT
  8
0
  6
CONTINUOUS
 62
3
 10
-394.706624620797360
 20
-82.107221913738897
  0
ARC
  8
0
  6
CONTINUOUS
 62
3
 10
-392.443883055870400
 20
-84.369963478665937
 40
6.099999427795406
 50
84.601927898108471
 51
185.398089404735120
  0
LINE
  8
0
  6
DASHDOT
 62
4
 10
-323.334084323450950
 20
-130.200533540763100
 11
-371.689501677807130
 21
-130.200533540763100
  0
LINE
  8
0
  6
DASHDOT
 62
4
 10
-472.626391680452800
 20
-129.200533540762480
 11
-224.315675349687810
 21
-129.200533540763620
  0
LINE
  8
0
  6
DASHDOT
 62
4
 10
-260.038029450211980
 20
-42.625249997201507
 11
-239.101741682601640
 21
-21.688962229591169
  0
ARC
  8
0
  6
DASHDOT
 62
4
 10
-347.613312993773430
 20
-130.200533540762990
 40
139.999999999999860
 50
38.871260013313247
 51
51.111062693942856
  0
ARC
  8
0
  6
DASHDOT
 62
4
 10
-347.613312993773430
 20
-130.200533540762990
 40
139.999999999999860
 50
128.978986442835950
 51
141.160884140918600
  0
LINE
  8
0
  6
DASHDOT
 62
4
 10
-436.400315867300380
 20
-41.413530667236046
 11
-455.994268573545920
 21
-21.819577960990493
  0
LINE
  8
0
  6
DASHDOT
 62
4
 10
-435.006559479981550
 20
-217.593780026971330
 11
-456.275730516701400
 21
-238.862951063691180
  0
ARC
  8
0
  6
DASHDOT
 62
4
 10
-347.613312993773430
 20
-130.200533540762990
 40
140.000000000000000
 50
218.034983448953510
 51
231.299268738859980
  0
ARC
  8
0
  6
DASHDOT
 62
4
 10
-347.613312993773430
 20
-130.200533540762990
 40
140.000000000000000
 50
308.431565162941470
 51
321.758396018283180
  0
LINE
  8
0
  6
DASHDOT
 62
4
 10
-260.415568808435750
 20
-217.398277726100930
 11
-239.162109068720500
 21
-238.651737465816180
  0
TEXT
  8
0
  6
CONTINUOUS
 62
3
 10
-375.061431884765620
 20
155.050292968750000
 40
7.919999599456787
  1
Ｓ１４２
 50
0.000002504478167
 41
0.984848598876354
  7
STANDARD1
  0
TEXT
  8
0
  6
CONTINUOUS
 62
3
 10
-375.061431884765620
 20
142.330291748046880
 40
7.919999599456787
  1
三菱ギヤードモートル
 50
0.000002504478167
 41
0.984848598876354
  7
STANDARD1
  0
TEXT
  8
0
  6
CONTINUOUS
 62
3
 10
-375.061431884765620
 20
129.610290527343750
 40
7.919999599456787
  1
ＧＭ－ＳＦＳ
 50
0.000002504478167
 41
0.984848598876354
  7
STANDARD1
  0
TEXT
  8
0
  6
CONTINUOUS
 62
3
 10
-375.061431884765620
 20
116.890289306640620
 40
7.919999599456787
  1
０．１ｋＷ
 50
0.000002504478167
 41
0.984848598876354
  7
STANDARD1
  0
TEXT
  8
0
  6
CONTINUOUS
 62
3
 10
-375.061431884765620
 20
104.170288085937500
 40
7.919999599456787
  1
１／１２００
 50
0.000002504478167
 41
0.984848598876354
  7
STANDARD1
  0
TEXT
  8
0
  6
CONTINUOUS
 62
3
 10
-375.061431884765620
 20
91.450286865234375
 40
7.919999599456787
  1
ＳＣＡＬＥ１／１
 50
0.000002504478167
 41
0.984848598876354
  7
STANDARD1
  0
LINE
  8
0
  6
DASHDOT
 62
4
 10
-347.613312993773430
 20
-7.363831143138668
 11
-347.613312993773430
 21
-265.871237901745190
  0
LINE
  8
0
  6
DASHDOT
 62
4
 10
160.255249055562390
 20
238.402104769301790
 11
121.259256866380090
 21
238.402104769301790
  0
LINE
  8
0
  6
DASHDOT
 62
4
 10
160.255249055562390
 20
40.412206037068245
 11
121.259256866380090
 21
40.412206037068245
  0
LINE
  8
0
  6
CONTINUOUS
 62
3
 10
144.618739695721100
 20
72.958582083871534
 11
140.618739695720880
 21
72.958582083871534
  0
LINE
  8
0
  6
CONTINUOUS
 62
3
 10
144.618739695721100
 20
48.120358838782067
 11
140.618739695720880
 21
48.120358838782067
  0
ARC
  8
0
  6
CONTINUOUS
 62
3
 10
140.618739695720880
 20
51.120358838782067
 40
3.000000000000000
 50
180.000000000000000
 51
270.000000000000000
  0
LINE
  8
0
  6
CONTINUOUS
 62
3
 10
137.618739695720880
 20
139.407155403185240
 11
137.618739695720880
 21
51.120358838782067
  0
ARC
  8
0
  6
CONTINUOUS
 62
3
 10
140.618739695720880
 20
75.958582083871534
 40
3.000000000000000
 50
180.000000000000000
 51
270.000000000000000
  0
LINE
  8
0
  6
CONTINUOUS
 62
3
 10
144.618739695721100
 20
205.855728722498950
 11
140.618739695720880
 21
205.855728722498950
  0
LINE
  8
0
  6
CONTINUOUS
 62
3
 10
144.618739695721100
 20
230.693951967588420
 11
140.618739695720880
 21
230.693951967588420
  0
ARC
  8
0
  6
CONTINUOUS
 62
3
 10
140.618739695720880
 20
227.693951967588420
 40
3.000000000000000
 50
90.000000000000000
 51
180.000000000000000
  0
LINE
  8
0
  6
CONTINUOUS
 62
3
 10
137.618739695720880
 20
139.407155403185240
 11
137.618739695720880
 21
227.693951967588420
  0
ARC
  8
0
  6
CONTINUOUS
 62
3
 10
140.618739695720880
 20
202.855728722498950
 40
3.000000000000000
 50
90.000000000000000
 51
180.000000000000000
  0
LINE
  8
0
  6
CONTINUOUS
 62
3
 10
144.618739695720880
 20
26.907155403185243
 11
130.618739695720880
 21
26.907155403185243
  0
LINE
  8
0
  6
CONTINUOUS
 62
3
 10
128.618739695720880
 20
28.907155403185243
 11
128.618739695720880
 21
249.907155403185240
  0
ARC
  8
0
  6
CONTINUOUS
 62
3
 10
130.618739695720880
 20
28.907155403185243
 40
2.000000000000000
 50
180.000000000000000
 51
270.000000000000000
  0
LINE
  8
0
  6
CONTINUOUS
 62
3
 10
148.618739695720880
 20
139.407155403185240
 11
148.618739695720880
 21
243.407155403185240
  0
ARC
  8
0
  6
CONTINUOUS
 62
3
 10
147.618739695720880
 20
184.560261703040400
 40
3.000000000000000
 50
0.000000000000000
 51
70.528779365509465
  0
ARC
  8
0
  6
CONTINUOUS
 62
3
 10
150.618739695720880
 20
89.057906486093998
 40
2.999999999999984
 50
120.000187270170780
 51
131.810314895779530
  0
LINE
  8
0
  6
CONTINUOUS
 62
3
 10
144.618739695720880
 20
139.407155403185240
 11
144.618739695720880
 21
26.907155403184788
  0
LINE
  8
0
  6
CONTINUOUS
 62
3
 10
148.618739695720880
 20
139.407155403185240
 11
148.618739695720880
 21
35.407155403185243
  0
LINE
  8
0
  6
CONTINUOUS
 62
3
 10
150.618739695720880
 20
139.407155403185240
 11
150.618739695720880
 21
94.254049103329635
  0
LINE
  8
0
  6
CONTINUOUS
 62
3
 10
144.618739695721100
 20
139.407155403185240
 11
144.618739695720880
 21
251.907155403185240
  0
LINE
  8
0
  6
CONTINUOUS
 62
3
 10
150.618739695720880
 20
139.407155403185240
 11
150.618739695720880
 21
184.560261703040400
  0
ARC
  8
0
  6
CONTINUOUS
 62
3
 10
130.618739695720880
 20
249.907155403185240
 40
2.000000000000000
 50
90.000000000000000
 51
180.000000000000000
  0
LINE
  8
0
  6
CONTINUOUS
 62
3
 10
130.618739695720880
 20
251.907155403185240
 11
144.618739695720880
 21
251.907155403185240
  0
ARC
  8
0
  6
CONTINUOUS
 62
3
 10
151.618739695720880
 20
173.907155403185240
 40
1.000000000000000
 50
180.000000000000000
 51
270.000000000000000
  0
ARC
  8
0
  6
CONTINUOUS
 62
3
 10
151.618739695720880
 20
104.907155403185240
 40
1.000000000000000
 50
90.000000000000000
 51
180.000000000000000
  0
ARC
  8
0
  6
CONTINUOUS
 62
3
 10
147.618722712211310
 20
94.254049103329635
 40
2.999999999999871
 50
300.000187270167030
 51
0.000000000000000
  0
LINE
  8
0
  6
CONTINUOUS
 62
3
 10
152.618739695720880
 20
105.907155403185240
 11
152.618739695720880
 21
172.907155403185240
  0
LINE
  8
0
  6
CONTINUOUS
 62
3
 10
151.618739695720880
 20
105.907155403185240
 11
152.618739695720880
 21
105.907155403185240
  0
LINE
  8
0
  6
CONTINUOUS
 62
3
 10
151.618739695720880
 20
172.907155403185240
 11
152.618739695720880
 21
172.907155403185240
  0
LINE
  8
0
  6
CONTINUOUS
 62
3
 10
144.618739695720880
 20
244.407155403185240
 11
147.618739695720880
 21
244.407155403185240
  0
LINE
  8
0
  6
CONTINUOUS
 62
3
 10
147.618739695720880
 20
244.407155403185240
 11
148.618739695720880
 21
243.407155403185240
  0
LINE
  8
0
  6
CONTINUOUS
 62
3
 10
147.618739695720880
 20
34.407155403185243
 11
144.618739695720880
 21
34.407155403185243
  0
LINE
  8
0
  6
CONTINUOUS
 62
3
 10
148.618739695720880
 20
35.407155403185243
 11
147.618739695720880
 21
34.407155403185243
  0
LINE
  8
0
  6
CONTINUOUS
 62
3
 10
137.572700295534730
 20
27.229724735847412
 11
137.572700295534730
 21
26.907155403185243
  0
ARC
  8
0
  6
CONTINUOUS
 62
3
 10
204.218739695742160
 20
123.807155403184870
 40
0.400000000000091
 50
270.000000000000000
 51
0.000000000000000
  0
LINE
  8
0
  6
CONTINUOUS
 62
3
 10
204.618739695742250
 20
139.407155403185240
 11
204.618739695742250
 21
155.007155403185150
  0
LINE
  8
0
  6
CONTINUOUS
 62
3
 10
154.618739695742250
 20
122.607155403185060
 11
154.418739695742430
 21
122.407155403184780
  0
ARC
  8
0
  6
CONTINUOUS
 62
3
 10
155.418739695742430
 20
122.757155403184690
 40
0.800000000000182
 50
90.000000000000000
 51
176.296803365719710
  0
LINE
  8
0
  6
CONTINUOUS
 62
3
 10
154.618739695742250
 20
122.607155403185060
 11
154.618739695742250
 21
139.407155403184790
  0
LINE
  8
0
  6
CONTINUOUS
 62
3
 10
156.618739695742250
 20
123.557155403184870
 11
155.418739695742430
 21
123.557155403184870
  0
LINE
  8
0
  6
CONTINUOUS
 62
3
 10
204.218739695742160
 20
123.407155403184780
 11
157.178547316877650
 21
123.407155403184780
  0
LINE
  8
0
  6
CONTINUOUS
 62
3
 10
152.618739695719970
 20
122.407155403184330
 11
154.418739695742430
 21
122.407155403184780
  0
LINE
  8
0
  6
CONTINUOUS
 62
3
 10
156.618739695742250
 20
123.557155403184870
 11
157.178547316877650
 21
123.407155403184780
  0
LINE
  8
0
  6
CONTINUOUS
 62
3
 10
154.618739695742250
 20
156.207155403184970
 11
154.418739695742430
 21
156.407155403184790
  0
ARC
  8
0
  6
CONTINUOUS
 62
3
 10
155.418739695742430
 20
156.057155403184880
 40
0.800000000000237
 50
183.703196634280290
 51
270.000000000000000
  0
LINE
  8
0
  6
CONTINUOUS
 62
3
 10
154.618739695742250
 20
156.207155403184970
 11
154.618739695742250
 21
139.407155403184790
  0
LINE
  8
0
  6
CONTINUOUS
 62
3
 10
152.618739695719970
 20
156.407155403185240
 11
154.418739695742430
 21
156.407155403184790
  0
LINE
  8
0
  6
CONTINUOUS
 62
3
 10
156.618739695742250
 20
155.257155403184700
 11
155.418739695742430
 21
155.257155403184700
  0
LINE
  8
0
  6
CONTINUOUS
 62
3
 10
156.618739695742250
 20
155.257155403184700
 11
157.178547316877650
 21
155.407155403184790
  0
LINE
  8
0
  6
CONTINUOUS
 62
3
 10
159.618739695742250
 20
123.407155403185240
 11
159.618739695742250
 21
120.407155403185240
  0
LINE
  8
0
  6
CONTINUOUS
 62
3
 10
204.218739695742160
 20
155.407155403184790
 11
157.178547316877650
 21
155.407155403184790
  0
LINE
  8
0
  6
CONTINUOUS
 62
3
 10
204.618739695742250
 20
120.407155403185240
 11
159.618739695742250
 21
120.407155403185240
  0
ARC
  8
0
  6
CONTINUOUS
 62
3
 10
204.218739695742160
 20
155.007155403184700
 40
0.400000000000091
 50
0.000000000000000
 51
90.000000000000000
  0
LINE
  8
0
  6
CONTINUOUS
 62
3
 10
204.618739695742250
 20
139.407155403185240
 11
204.618739695742250
 21
120.407155403185240
  0
LINE
  8
0
  6
CONTINUOUS
 62
3
 10
109.777952878530130
 20
142.407155403185240
 11
125.618739695720870
 21
142.407155403185240
  0
LINE
  8
0
  6
CONTINUOUS
 62
3
 10
109.777952878530130
 20
136.407155403185240
 11
125.618739695720870
 21
136.407155403185240
  0
ARC
  8
0
  6
CONTINUOUS
 62
3
 10
125.618739695720870
 20
145.407155403185240
 40
3.000000000000000
 50
270.000000000000000
 51
0.000000000000000
  0
ARC
  8
0
  6
CONTINUOUS
 62
3
 10
125.618739695720870
 20
133.407155403185240
 40
3.000000000000000
 50
0.000000000000000
 51
90.000000000000000
  0
ARC
  8
0
  6
CONTINUOUS
 62
3
 10
109.777952878530130
 20
133.407155403185240
 40
3.000000000000000
 50
90.000000000000000
 51
180.000000000000000
  0
ARC
  8
0
  6
CONTINUOUS
 62
3
 10
109.777952878530130
 20
145.407155403185700
 40
3.000000000000000
 50
180.000000000000000
 51
270.000000000000000
  0
LINE
  8
0
  6
CONTINUOUS
 62
3
 10
125.363438845304410
 20
193.916545061938900
 11
110.380723906216810
 21
193.916545061938900
  0
LINE
  8
0
  6
CONTINUOUS
 62
3
 10
107.678775117219110
 20
195.052837764072140
 11
127.969610833805000
 21
220.647597256795050
  0
ARC
  8
0
  6
CONTINUOUS
 62
3
 10
105.327903979134760
 20
196.916545061938900
 40
3.000000000000000
 50
270.000000000000000
 51
321.593567086411040
  0
ARC
  8
0
  6
CONTINUOUS
 62
3
 10
125.618739695720870
 20
222.511304554661820
 40
2.999999999999804
 50
321.593567086408370
 51
0.000000000000000
  0
ARC
  8
0
  6
CONTINUOUS
 62
3
 10
125.618739695720870
 20
227.996585928900460
 40
2.999999999999804
 50
321.593567086408370
 51
0.000000000000000
  0
LINE
  8
0
  6
CONTINUOUS
 62
3
 10
107.678775117219110
 20
200.538119138310780
 11
127.969610833805000
 21
226.132878631033690
  0
ARC
  8
0
  6
CONTINUOUS
 62
3
 10
105.327903979134760
 20
202.401826436177540
 40
3.000000000000000
 50
270.000000000000000
 51
321.593567086411040
  0
LINE
  8
0
  6
CONTINUOUS
 62
3
 10
125.363438845304410
 20
84.897765744431581
 11
110.380723906216810
 21
84.897765744431581
  0
ARC
  8
0
  6
CONTINUOUS
 62
3
 10
125.618739695720870
 20
50.817724877470027
 40
3.000000000000000
 50
0.000000000000000
 51
38.406432913591630
  0
LINE
  8
0
  6
CONTINUOUS
 62
3
 10
107.678775117219110
 20
78.276191668059710
 11
127.969610833805000
 21
52.681432175336795
  0
ARC
  8
0
  6
CONTINUOUS
 62
3
 10
105.327903979134760
 20
76.412484370192942
 40
2.999999999999982
 50
38.406432913588930
 51
90.000000000000000
  0
ARC
  8
0
  6
CONTINUOUS
 62
3
 10
125.618739695720870
 20
56.303006251708666
 40
3.000000000000000
 50
0.000000000000000
 51
38.406432913591630
  0
LINE
  8
0
  6
CONTINUOUS
 62
3
 10
107.678775117219110
 20
83.761473042298348
 11
127.969610833805000
 21
58.166713549575434
  0
ARC
  8
0
  6
CONTINUOUS
 62
3
 10
105.327903979134760
 20
81.897765744431581
 40
2.999999999999982
 50
38.406432913588930
 51
90.000000000000000
  0
ARC
  8
0
  6
CONTINUOUS
 62
3
 10
125.618739695720870
 20
239.237566364911800
 40
2.999999999999993
 50
271.999999999999320
 51
0.000000000000000
  0
ARC
  8
0
  6
CONTINUOUS
 62
3
 10
125.618739695720870
 20
39.576744441458686
 40
3.000000000000000
 50
0.000000000000000
 51
88.000000000000682
  0
LINE
  8
0
  6
DASHDOT
 62
4
 10
472.545331747625370
 20
-130.200533540766570
 11
222.830090615087100
 21
-130.200533540766570
  0
CIRCLE
  8
0
  6
CONTINUOUS
 62
3
 10
347.827599068153180
 20
-130.200533540766570
 40
48.000000000000000
  0
CIRCLE
  8
0
  6
CONTINUOUS
 62
3
 10
347.827599068153180
 20
-130.200533540766570
 40
99.000000000000000
  0
CIRCLE
  8
0
  6
CONTINUOUS
 62
3
 10
347.827599068153180
 20
-130.200533540766570
 40
105.000000000000000
  0
ARC
  8
0
  6
CONTINUOUS
 62
3
 10
261.688387079688710
 20
-167.830789426242460
 40
5.000000000000000
 50
180.000000000000000
 51
203.598301736362150
  0
ARC
  8
0
  6
CONTINUOUS
 62
3
 10
334.669451966463840
 20
-198.952720159450050
 40
31.999999999999872
 50
127.256131004967170
 51
198.872128672720690
  0
ARC
  8
0
  6
CONTINUOUS
 62
3
 10
308.027883595595090
 20
-165.200285658509020
 40
4.999999999999969
 50
308.284839477505780
 51
41.328301793388754
  0
ARC
  8
0
  6
CONTINUOUS
 62
3
 10
334.669451966463840
 20
-198.952720159450050
 40
37.999999999999908
 50
128.284839477505610
 51
189.449699705365900
  0
ARC
  8
0
  6
CONTINUOUS
 62
3
 10
297.181770019750960
 20
-124.200533540766570
 40
3.000000000000000
 50
270.000000000000000
 51
353.243672969409600
  0
ARC
  8
0
  6
CONTINUOUS
 62
3
 10
297.181770019750960
 20
-136.200533540766570
 40
2.999999999999939
 50
6.756327030581794
 51
90.000000000000000
  0
ARC
  8
0
  6
CONTINUOUS
 62
3
 10
252.015282532125410
 20
-136.200533540766570
 40
3.000000000000000
 50
90.000000000000000
 51
183.583321698471880
  0
ARC
  8
0
  6
CONTINUOUS
 62
3
 10
252.015282532125410
 20
-124.200533540766570
 40
3.000000000000075
 50
176.416678301528120
 51
270.000000000000000
  0
ARC
  8
0
  6
CONTINUOUS
 62
3
 10
333.827599068152950
 20
-140.433931724948200
 40
77.139211988464083
 50
91.910213171709884
 51
165.359522790078330
  0
ARC
  8
0
  6
CONTINUOUS
 62
3
 10
264.030685834302400
 20
-122.200533540766570
 40
4.999999999999902
 50
165.359522790080040
 51
270.000000000000000
  0
ARC
  8
0
  6
CONTINUOUS
 62
3
 10
333.827599068152950
 20
-140.433931724948200
 40
77.139211988464211
 50
178.225864444680160
 51
180.000000000000000
  0
ARC
  8
0
  6
CONTINUOUS
 62
3
 10
261.722967879390350
 20
-138.200533540766570
 40
5.000000000000000
 50
90.000000000000000
 51
178.225864444681920
  0
ARC
  8
0
  6
CONTINUOUS
 62
3
 10
238.327599068153180
 20
-132.200533540767030
 40
3.000000000000000
 50
180.000000000000000
 51
236.843785530306350
  0
ARC
  8
0
  6
CONTINUOUS
 62
3
 10
235.046057426269500
 20
-137.223628647629030
 40
2.999999999999995
 50
3.563302831523953
 51
56.843785530307450
  0
ARC
  8
0
  6
CONTINUOUS
 62
3
 10
237.327599068153180
 20
-127.200533540767020
 40
2.000000000000098
 50
116.785437820008410
 51
180.000000000000000
  0
ARC
  8
0
  6
CONTINUOUS
 62
3
 10
235.074345726580990
 20
-122.737031622015760
 40
3.000000000000147
 50
296.785437820008440
 51
356.212931966127880
  0
ARC
  8
0
  6
CONTINUOUS
 62
3
 10
347.827599068153180
 20
-130.200533540766570
 40
109.999999999999600
 50
147.024699180565850
 51
176.212931966134700
  0
ARC
  8
0
  6
CONTINUOUS
 62
3
 10
347.827599068153180
 20
-130.200533540766570
 40
109.999999999999900
 50
183.563302831523370
 51
212.975300819434320
  0
LINE
  8
0
  6
CONTINUOUS
 62
3
 10
235.327599068153180
 20
-25.700533540766571
 11
235.327599068153180
 21
-234.700533540766570
  0
LINE
  8
0
  6
CONTINUOUS
 62
3
 10
256.688387079688710
 20
-140.433931724948200
 11
256.688387079688710
 21
-167.830789426242460
  0
LINE
  8
0
  6
CONTINUOUS
 62
3
 10
252.015282532125410
 20
-133.200533540766570
 11
297.181770019750960
 21
-133.200533540766570
  0
LINE
  8
0
  6
CONTINUOUS
 62
3
 10
252.015282532125410
 20
-127.200533540766570
 11
297.181770019750960
 21
-127.200533540766570
  0
LINE
  8
0
  6
DASHDOT
 62
4
 10
388.090217888715420
 20
-129.200533540766570
 11
307.347516365662160
 21
-129.200533540766570
  0
LINE
  8
0
  6
DASHED
 62
3
 10
290.327599068153060
 20
-159.200533540761510
 11
266.888829934171440
 21
-159.200533540761510
  0
LINE
  8
0
  6
DASHED
 62
3
 10
290.327599068153060
 20
-160.700533540761510
 11
290.327599068153060
 21
-97.700533540761512
  0
LINE
  8
0
  6
DASHED
 62
3
 10
295.327599068153060
 20
-149.700533540761510
 11
294.027599068152880
 21
-149.700533540761510
  0
ARC
  8
0
  6
DASHED
 62
3
 10
294.027599068152880
 20
-149.500533540761470
 40
0.199999999999818
 50
180.000000000000000
 51
270.000000000000000
  0
LINE
  8
0
  6
DASHED
 62
3
 10
293.827599068153060
 20
-149.500533540761470
 11
293.827599068153060
 21
-108.900533540761550
  0
LINE
  8
0
  6
DASHED
 62
3
 10
295.327599068153060
 20
-149.700533540761510
 11
295.327599068153060
 21
-160.700533540761510
  0
LINE
  8
0
  6
DASHED
 62
3
 10
295.327599068153060
 20
-160.700533540761510
 11
290.327599068153060
 21
-160.700533540761510
  0
ARC
  8
0
  6
DASHED
 62
3
 10
266.888829934171440
 20
-154.200533540761510
 40
4.999999999999893
 50
184.861405395798610
 51
270.000000000000000
  0
ARC
  8
0
  6
DASHED
 62
3
 10
266.888829934171440
 20
-104.200533540761510
 40
5.000000000000000
 50
90.000000000000000
 51
120.737138633403800
  0
LINE
  8
0
  6
DASHED
 62
3
 10
290.327599068153060
 20
-99.200533540761512
 11
266.888829934171440
 21
-99.200533540761512
  0
LINE
  8
0
  6
DASHED
 62
3
 10
295.327599068153060
 20
-108.700533540761510
 11
295.327599068153060
 21
-97.700533540761512
  0
LINE
  8
0
  6
DASHED
 62
3
 10
295.327599068153060
 20
-108.700533540761510
 11
294.027599068152880
 21
-108.700533540761510
  0
ARC
  8
0
  6
DASHED
 62
3
 10
294.027599068152880
 20
-108.900533540761550
 40
0.200000000000045
 50
90.000000000000000
 51
180.000000000000000
  0
LINE
  8
0
  6
DASHED
 62
3
 10
295.327599068153060
 20
-97.700533540761512
 11
290.327599068153060
 21
-97.700533540761512
  0
ARC
  8
0
  6
DASHED
 62
3
 10
266.888829934171440
 20
-104.200533540761510
 40
4.999999999999973
 50
120.737138633403800
 51
175.138594604201390
  0
ARC
  8
0
  6
DASHED
 62
3
 10
560.827599068153060
 20
-129.200533540761570
 40
300.000000000000060
 50
175.138594604201960
 51
184.861405395798020
  0
LINE
  8
0
  6
DASHED
 62
3
 10
260.327599068153060
 20
-131.700533540761510
 11
260.327599068153060
 21
-126.700533540761510
  0
LINE
  8
0
  6
DASHED
 62
3
 10
260.838015915670780
 20
-126.700533540761510
 11
260.327599068153060
 21
-126.700533540761510
  0
LINE
  8
0
  6
DASHED
 62
3
 10
260.838015915670780
 20
-131.700533540761510
 11
260.327599068153060
 21
-131.700533540761510
  0
LINE
  8
0
  6
CONTINUOUS
 62
3
 10
133.618739695720420
 20
-245.700533540766630
 11
133.618739695720420
 21
-252.644754714812730
  0
ARC
  8
0
  6
CONTINUOUS
 62
3
 10
130.618739695720420
 20
-252.644754714812730
 40
2.999999999999903
 50
268.371217566509590
 51
0.000000000000000
  0
ARC
  8
0
  6
CONTINUOUS
 62
3
 10
105.358865101164320
 20
-66.274798170578777
 40
3.000000000000000
 50
270.000000000000000
 51
320.631038306637150
  0
LINE
  8
0
  6
CONTINUOUS
 62
3
 10
107.678097021324160
 20
-68.177733613654198
 11
127.937971615879800
 21
-43.485698984150474
  0
ARC
  8
0
  6
CONTINUOUS
 62
3
 10
125.618739695720420
 20
-41.582763541075508
 40
2.999999999999515
 50
320.631038306638350
 51
0.000000000000000
  0
ARC
  8
0
  6
CONTINUOUS
 62
3
 10
125.618739695720420
 20
-47.068044915313692
 40
2.999999999999515
 50
320.631038306638350
 51
0.000000000000000
  0
ARC
  8
0
  6
CONTINUOUS
 62
3
 10
105.358865101164320
 20
-71.760079544816961
 40
3.000000000000000
 50
270.000000000000000
 51
320.631038306637150
  0
LINE
  8
0
  6
CONTINUOUS
 62
3
 10
107.678097021324160
 20
-73.663014987892382
 11
127.937971615879800
 21
-48.970980358388658
  0
LINE
  8
0
  6
CONTINUOUS
 62
3
 10
125.637724417412010
 20
-74.760079544816961
 11
108.888285534009980
 21
-74.760079544816961
  0
LINE
  8
0
  6
CONTINUOUS
 62
3
 10
204.618739695742250
 20
-130.200533540766570
 11
204.618739695742250
 21
-114.600533540766200
  0
ARC
  8
0
  6
CONTINUOUS
 62
3
 10
204.218739695742160
 20
-114.600533540766200
 40
0.400000000000091
 50
0.000000000000000
 51
90.000000000000000
  0
LINE
  8
0
  6
CONTINUOUS
 62
3
 10
204.218739695742160
 20
-114.200533540766570
 11
157.178547316877650
 21
-114.200533540766570
  0
LINE
  8
0
  6
CONTINUOUS
 62
3
 10
156.618739695742250
 20
-114.350533540766200
 11
157.178547316877650
 21
-114.200533540766570
  0
LINE
  8
0
  6
CONTINUOUS
 62
3
 10
156.618739695742250
 20
-114.350533540766200
 11
155.418739695742430
 21
-114.350533540766200
  0
LINE
  8
0
  6
CONTINUOUS
 62
3
 10
152.618739695720420
 20
-113.200533540766570
 11
154.418739695742430
 21
-113.200533540766570
  0
LINE
  8
0
  6
CONTINUOUS
 62
3
 10
154.618739695742250
 20
-113.400533540766380
 11
154.618739695742250
 21
-130.200533540766570
  0
ARC
  8
0
  6
CONTINUOUS
 62
3
 10
155.418739695742430
 20
-113.550533540766480
 40
0.800000000000237
 50
183.703196634280290
 51
270.000000000000000
  0
LINE
  8
0
  6
CONTINUOUS
 62
3
 10
154.618739695742250
 20
-113.400533540766380
 11
154.418739695742430
 21
-113.200533540766570
  0
LINE
  8
0
  6
CONTINUOUS
 62
3
 10
156.618739695742250
 20
-146.050533540766480
 11
157.178547316877650
 21
-146.200533540766570
  0
LINE
  8
0
  6
CONTINUOUS
 62
3
 10
152.618739695720420
 20
-147.200533540766570
 11
154.418739695742430
 21
-147.200533540766570
  0
LINE
  8
0
  6
CONTINUOUS
 62
3
 10
204.218739695742160
 20
-146.200533540766570
 11
157.178547316877650
 21
-146.200533540766570
  0
LINE
  8
0
  6
CONTINUOUS
 62
3
 10
156.618739695742250
 20
-146.050533540766480
 11
155.418739695742430
 21
-146.050533540766480
  0
LINE
  8
0
  6
CONTINUOUS
 62
3
 10
154.618739695742250
 20
-147.000533540766300
 11
154.618739695742250
 21
-130.200533540766570
  0
ARC
  8
0
  6
CONTINUOUS
 62
3
 10
155.418739695742430
 20
-146.850533540766210
 40
0.799999999999727
 50
90.000000000000000
 51
176.296803365752200
  0
LINE
  8
0
  6
CONTINUOUS
 62
3
 10
154.618739695742250
 20
-147.000533540766300
 11
154.418739695742430
 21
-147.200533540766570
  0
LINE
  8
0
  6
CONTINUOUS
 62
3
 10
204.618739695742250
 20
-130.200533540766570
 11
204.618739695742250
 21
-145.800533540766480
  0
ARC
  8
0
  6
CONTINUOUS
 62
3
 10
204.218739695742160
 20
-145.800533540766480
 40
0.400000000000091
 50
270.000000000000000
 51
0.000000000000000
  0
LINE
  8
0
  6
CONTINUOUS
 62
3
 10
204.618739695742250
 20
-125.200533540766570
 11
164.618739695743160
 21
-125.200533540766570
  0
LINE
  8
0
  6
CONTINUOUS
 62
3
 10
204.618739695742250
 20
-135.200533540766570
 11
164.618739695743160
 21
-135.200533540766570
  0
ARC
  8
0
  6
CONTINUOUS
 62
3
 10
164.618739695743160
 20
-130.200533540766570
 40
5.000000000000000
 50
90.000000000000000
 51
270.000000000000000
  0
LINE
  8
0
  6
DASHDOT
 62
4
 10
160.255249055561930
 20
-229.195482906883570
 11
121.259256866379640
 21
-229.195482906883570
  0
LINE
  8
0
  6
DASHDOT
 62
4
 10
160.255249055561930
 20
-31.205584174650028
 11
121.259256866379640
 21
-31.205584174650028
  0
ARC
  8
0
  6
CONTINUOUS
 62
3
 10
140.618739695720420
 20
-138.200533540766570
 40
3.000000000000000
 50
90.000000000000000
 51
180.000000000000000
  0
ARC
  8
0
  6
CONTINUOUS
 62
3
 10
140.618739695720420
 20
-193.649106860080280
 40
3.000000000000000
 50
180.000000000000000
 51
270.000000000000000
  0
LINE
  8
0
  6
CONTINUOUS
 62
3
 10
137.618739695720420
 20
-138.200533540766570
 11
137.618739695720420
 21
-218.487330105169750
  0
ARC
  8
0
  6
CONTINUOUS
 62
3
 10
140.618739695720420
 20
-218.487330105169750
 40
3.000000000000000
 50
180.000000000000000
 51
270.000000000000000
  0
LINE
  8
0
  6
CONTINUOUS
 62
3
 10
144.618739695720650
 20
-221.487330105169750
 11
140.618739695720420
 21
-221.487330105169750
  0
LINE
  8
0
  6
CONTINUOUS
 62
3
 10
144.618739695720650
 20
-196.649106860080280
 11
140.618739695720420
 21
-196.649106860080280
  0
LINE
  8
0
  6
CONTINUOUS
 62
3
 10
140.618739695720420
 20
-135.200533540766570
 11
144.618739695720650
 21
-135.200533540766570
  0
ARC
  8
0
  6
CONTINUOUS
 62
3
 10
140.618739695720420
 20
-41.913736976363396
 40
3.000000000000000
 50
90.000000000000000
 51
180.000000000000000
  0
ARC
  8
0
  6
CONTINUOUS
 62
3
 10
140.618739695720420
 20
-66.751960221452862
 40
3.000000000000000
 50
90.000000000000000
 51
180.000000000000000
  0
ARC
  8
0
  6
CONTINUOUS
 62
3
 10
140.618739695720420
 20
-122.200533540766570
 40
3.000000000000000
 50
180.000000000000000
 51
270.000000000000000
  0
LINE
  8
0
  6
CONTINUOUS
 62
3
 10
140.618739695720420
 20
-125.200533540766570
 11
144.618739695720650
 21
-125.200533540766570
  0
LINE
  8
0
  6
CONTINUOUS
 62
3
 10
144.618739695720650
 20
-63.751960221452862
 11
140.618739695720420
 21
-63.751960221452862
  0
LINE
  8
0
  6
CONTINUOUS
 62
3
 10
144.618739695720650
 20
-38.913736976363396
 11
140.618739695720420
 21
-38.913736976363396
  0
LINE
  8
0
  6
CONTINUOUS
 62
3
 10
137.618739695720420
 20
-122.200533540766570
 11
137.618739695720420
 21
-41.913736976363396
  0
ARC
  8
0
  6
CONTINUOUS
 62
3
 10
130.618739695720420
 20
-240.700533540766630
 40
2.000000000000000
 50
180.000000000000000
 51
270.000000000000000
  0
ARC
  8
0
  6
CONTINUOUS
 62
3
 10
125.629106145991670
 20
-19.378730744908751
 40
3.000000000000246
 50
330.000000000002730
 51
356.309860996867310
  0
LINE
  8
0
  6
CONTINUOUS
 62
3
 10
148.618739695720420
 20
-130.200533540766570
 11
148.618739695720420
 21
-234.200533540766570
  0
LINE
  8
0
  6
CONTINUOUS
 62
3
 10
137.572700295534280
 20
-242.377964208104460
 11
137.572700295534280
 21
-242.700533540766630
  0
LINE
  8
0
  6
CONTINUOUS
 62
3
 10
148.618739695720420
 20
-234.200533540766570
 11
147.618739695720420
 21
-235.200533540766570
  0
LINE
  8
0
  6
CONTINUOUS
 62
3
 10
147.618739695720420
 20
-235.200533540766570
 11
144.618739695720420
 21
-235.200533540766570
  0
LINE
  8
0
  6
CONTINUOUS
 62
3
 10
147.618739695720420
 20
-25.200533540766571
 11
148.618739695720420
 21
-26.200533540766571
  0
LINE
  8
0
  6
CONTINUOUS
 62
3
 10
144.618739695720420
 20
-25.200533540766571
 11
147.618739695720420
 21
-25.200533540766571
  0
LINE
  8
0
  6
CONTINUOUS
 62
3
 10
148.618739695720420
 20
-130.200533540766570
 11
148.618739695720420
 21
-26.200533540766571
  0
LINE
  8
0
  6
CONTINUOUS
 62
3
 10
107.609416455708860
 20
-56.589748825104323
 11
128.227182357345270
 21
-20.878730744908751
  0
LINE
  8
0
  6
CONTINUOUS
 62
3
 10
128.618739695720420
 20
-240.700533540766630
 11
128.618739695720420
 21
-19.700533540766571
  0
LINE
  8
0
  6
CONTINUOUS
 62
3
 10
130.618739695720420
 20
-17.700533540766571
 11
144.618739695720420
 21
-17.700533540766571
  0
LINE
  8
0
  6
CONTINUOUS
 62
3
 10
151.618739695720420
 20
-96.700533540766571
 11
152.618739695720420
 21
-96.700533540766571
  0
LINE
  8
0
  6
CONTINUOUS
 62
3
 10
151.618739695720420
 20
-163.700533540766570
 11
152.618739695720420
 21
-163.700533540766570
  0
LINE
  8
0
  6
DASHDOT
 62
4
 10
99.960242643188394
 20
-130.200533540766570
 11
216.105186364442490
 21
-130.200533540766570
  0
LINE
  8
0
  6
CONTINUOUS
 62
3
 10
152.618739695720420
 20
-163.700533540766570
 11
152.618739695720420
 21
-96.700533540766571
  0
LINE
  8
0
  6
CONTINUOUS
 62
3
 10
144.618739695720650
 20
-130.200533540766570
 11
144.618739695720420
 21
-17.700533540766571
  0
LINE
  8
0
  6
CONTINUOUS
 62
3
 10
144.618739695720420
 20
-242.700533540766630
 11
130.618739695720420
 21
-242.700533540766630
  0
LINE
  8
0
  6
CONTINUOUS
 62
3
 10
150.618739695720420
 20
-130.200533540766570
 11
150.618739695720420
 21
-175.353639840622180
  0
LINE
  8
0
  6
CONTINUOUS
 62
3
 10
150.618739695720420
 20
-130.200533540766570
 11
150.618739695720420
 21
-85.047427240911418
  0
LINE
  8
0
  6
CONTINUOUS
 62
3
 10
144.618739695720420
 20
-130.200533540766570
 11
144.618739695720420
 21
-242.700533540767080
  0
ARC
  8
0
  6
CONTINUOUS
 62
3
 10
150.618739695720420
 20
-180.549782457857820
 40
2.999999999999984
 50
120.000187270170780
 51
131.810314895779530
  0
ARC
  8
0
  6
CONTINUOUS
 62
3
 10
147.618722712210850
 20
-175.353639840622180
 40
2.999999999999871
 50
300.000187270167030
 51
0.000000000000000
  0
ARC
  8
0
  6
CONTINUOUS
 62
3
 10
105.011340244355490
 20
-55.089748825104323
 40
3.000000000000001
 50
272.000000000003640
 51
330.000000000000570
  0
ARC
  8
0
  6
CONTINUOUS
 62
3
 10
136.618739695720420
 20
-245.700533540766630
 40
3.000000000000000
 50
90.000000000000000
 51
180.000000000000000
  0
ARC
  8
0
  6
CONTINUOUS
 62
3
 10
130.618739695720420
 20
-19.700533540766571
 40
2.000000000000000
 50
90.000000000000000
 51
180.000000000000000
  0
ARC
  8
0
  6
CONTINUOUS
 62
3
 10
151.618739695720420
 20
-164.700533540766570
 40
1.000000000000000
 50
90.000000000000000
 51
180.000000000000000
  0
ARC
  8
0
  6
CONTINUOUS
 62
3
 10
147.618739695720420
 20
-85.047427240911418
 40
3.000000000000000
 50
0.000000000000000
 51
70.528779365509465
  0
ARC
  8
0
  6
CONTINUOUS
 62
3
 10
151.618739695720420
 20
-95.700533540766571
 40
1.000000000000000
 50
180.000000000000000
 51
270.000000000000000
  0
LINE
  8
0
  6
DASHDOT
 62
4
 10
347.827599068153180
 20
-8.058984367329685
 11
347.827599068153180
 21
-265.172206804461890
  0
LINE
  8
0
  6
CONTINUOUS
 62
3
 10
328.827599068152720
 20
-135.200533540766570
 11
336.827599068152720
 21
-135.200533540766570
  0
LINE
  8
0
  6
CONTINUOUS
 62
3
 10
336.827599068152720
 20
-135.200533540766570
 11
336.827599068152720
 21
-125.200533540766570
  0
ARC
  8
0
  6
CONTINUOUS
 62
3
 10
347.827599068152720
 20
-130.200533540766570
 40
16.000000000000192
 50
198.209956864282790
 51
161.790043135717210
  0
LINE
  8
0
  6
CONTINUOUS
 62
3
 10
328.827599068152720
 20
-135.200533540766570
 11
328.827599068152720
 21
-125.200533540766570
  0
LINE
  8
0
  6
CONTINUOUS
 62
3
 10
328.827599068152720
 20
-125.200533540766570
 11
336.827599068152720
 21
-125.200533540766570
  0
CIRCLE
  8
0
  6
CONTINUOUS
 62
3
 10
347.827599068153630
 20
-130.200533540766570
 40
3.323500000000024
  0
CIRCLE
  8
0
  6
CONTINUOUS
 62
4
 10
347.827599068153630
 20
-130.200533540766570
 40
4.000000000000000
  0
LINE
  8
0
  6
CONTINUOUS
 62
3
 10
460.327599068153180
 20
-135.200533540766570
 11
460.327599068153180
 21
-234.700533540766570
  0
LINE
  8
0
  6
CONTINUOUS
 62
3
 10
460.327599068153180
 20
-125.200533540766570
 11
460.327599068153180
 21
-135.200533540766570
  0
LINE
  8
0
  6
CONTINUOUS
 62
3
 10
460.327599068153180
 20
-25.700533540766571
 11
460.327599068153180
 21
-125.200533540766570
  0
LINE
  8
0
  6
CONTINUOUS
 62
3
 10
344.827599068153400
 20
-34.388217004739033
 11
344.827599068153180
 21
-79.554704492364124
  0
LINE
  8
0
  6
CONTINUOUS
 62
3
 10
350.827599068153400
 20
-34.388217004739033
 11
350.827599068153180
 21
-79.554704492364124
  0
LINE
  8
0
  6
CONTINUOUS
 62
3
 10
443.639915604181170
 20
-127.200533540766570
 11
398.473428116555620
 21
-127.200533540766570
  0
LINE
  8
0
  6
CONTINUOUS
 62
3
 10
443.639915604181170
 20
-133.200533540766570
 11
398.473428116555620
 21
-133.200533540766570
  0
LINE
  8
0
  6
CONTINUOUS
 62
3
 10
438.966811056617640
 20
-140.433931724948200
 11
438.966811056617640
 21
-167.830789426242460
  0
LINE
  8
0
  6
CONTINUOUS
 62
3
 10
295.827599068153630
 20
-255.700533540766630
 11
347.827599068153630
 21
-255.700533540766630
  0
LINE
  8
0
  6
CONTINUOUS
 62
3
 10
399.827599068153180
 20
-255.700533540766630
 11
347.827599068153630
 21
-255.700533540766630
  0
LINE
  8
0
  6
CONTINUOUS
 62
3
 10
438.528609194930140
 20
-18.286319978393692
 11
420.211960713844290
 21
-36.602968459479541
  0
LINE
  8
0
  6
CONTINUOUS
 62
3
 10
459.741812630526510
 20
-39.499523413990062
 11
441.425164149440660
 21
-57.816171895075911
  0
LINE
  8
0
  6
CONTINUOUS
 62
3
 10
243.327599068153180
 20
-242.700533540766630
 11
452.327599068153180
 21
-242.700533540766630
  0
LINE
  8
0
  6
CONTINUOUS
 62
3
 10
243.327599068153180
 20
-17.700533540766571
 11
452.327599068153180
 21
-17.700533540766571
  0
LINE
  8
0
  6
CONTINUOUS
 62
3
 10
235.913385505780300
 20
-39.499523413990062
 11
254.230033986865920
 21
-57.816171895075911
  0
LINE
  8
0
  6
CONTINUOUS
 62
3
 10
257.126588941376670
 20
-18.286319978393692
 11
275.443237422462520
 21
-36.602968459479541
  0
LINE
  8
0
  6
CONTINUOUS
 62
3
 10
235.913385505780300
 20
-220.901543667543540
 11
254.230033986865920
 21
-202.584895186457690
  0
LINE
  8
0
  6
CONTINUOUS
 62
3
 10
257.126588941376670
 20
-242.114747103139960
 11
275.443237422462520
 21
-223.798098622054060
  0
LINE
  8
0
  6
CONTINUOUS
 62
3
 10
459.741812630526510
 20
-220.901543667543540
 11
441.425164149440660
 21
-202.584895186457690
  0
LINE
  8
0
  6
CONTINUOUS
 62
3
 10
438.528609194930140
 20
-242.114747103139960
 11
420.211960713844290
 21
-223.798098622054060
  0
ARC
  8
0
  6
CONTINUOUS
 62
3
 10
347.827599068153180
 20
-130.200533540766570
 40
110.000000000000220
 50
327.024699180565790
 51
356.436697168476600
  0
ARC
  8
0
  6
CONTINUOUS
 62
3
 10
347.827599068153180
 20
-130.200533540766570
 40
110.000000000000090
 50
3.787068033865307
 51
32.975300819434004
  0
ARC
  8
0
  6
CONTINUOUS
 62
3
 10
460.609140710037080
 20
-137.223628647629030
 40
3.000000000000153
 50
123.156214469692540
 51
176.436697168476060
  0
ARC
  8
0
  6
CONTINUOUS
 62
3
 10
457.327599068153180
 20
-132.200533540766570
 40
3.000000000000153
 50
303.156214469692540
 51
0.000000000000000
  0
ARC
  8
0
  6
CONTINUOUS
 62
3
 10
460.580852409725590
 20
-122.737031622015760
 40
2.999999999999937
 50
183.787068033872120
 51
243.214562179991560
  0
ARC
  8
0
  6
CONTINUOUS
 62
3
 10
458.327599068153180
 20
-127.200533540766570
 40
2.000000000000000
 50
0.000000000000000
 51
63.214562179979900
  0
ARC
  8
0
  6
CONTINUOUS
 62
3
 10
341.827599068153400
 20
-66.097749876699197
 40
2.999999999999773
 50
0.000000000000000
 51
90.695721199139356
  0
ARC
  8
0
  6
CONTINUOUS
 62
3
 10
347.827599068153400
 20
-560.200533540766630
 40
497.139211988464070
 50
90.695721199138291
 51
91.910213171709984
  0
ARC
  8
0
  6
CONTINUOUS
 62
3
 10
353.827599068153400
 20
-66.097749876699197
 40
2.999999999999991
 50
89.304278800864978
 51
180.000000000000000
  0
ARC
  8
0
  6
CONTINUOUS
 62
3
 10
347.827599068153180
 20
-560.200533540766630
 40
497.139211988463900
 50
88.089786828290016
 51
89.304278800861709
  0
ARC
  8
0
  6
CONTINUOUS
 62
3
 10
341.827599068153400
 20
-34.388217004739033
 40
3.000000000000000
 50
0.000000000000000
 51
93.583321698471892
  0
ARC
  8
0
  6
CONTINUOUS
 62
3
 10
353.827599068153400
 20
-34.388217004739033
 40
3.000000000000075
 50
86.416678301528108
 51
180.000000000000000
  0
ARC
  8
0
  6
CONTINUOUS
 62
3
 10
353.827599068153180
 20
-79.554704492364124
 40
3.000000000000000
 50
180.000000000000000
 51
263.243672969414940
  0
ARC
  8
0
  6
CONTINUOUS
 62
3
 10
341.827599068153180
 20
-79.554704492364124
 40
3.000000000000444
 50
276.756327030589380
 51
0.000000000000000
  0
ARC
  8
0
  6
CONTINUOUS
 62
3
 10
361.827599068153630
 20
-140.433931724948200
 40
77.139211988464012
 50
0.000000000000000
 51
1.774135555319842
  0
ARC
  8
0
  6
CONTINUOUS
 62
3
 10
398.473428116555620
 20
-136.200533540766570
 40
3.000000000000000
 50
90.000000000000000
 51
173.243672969418210
  0
ARC
  8
0
  6
CONTINUOUS
 62
3
 10
398.473428116555620
 20
-124.200533540766570
 40
2.999999999999992
 50
186.756327030590430
 51
270.000000000000000
  0
ARC
  8
0
  6
CONTINUOUS
 62
3
 10
443.639915604181170
 20
-124.200533540766570
 40
3.000000000000000
 50
270.000000000000000
 51
3.583321698471884
  0
ARC
  8
0
  6
CONTINUOUS
 62
3
 10
443.639915604181170
 20
-136.200533540766570
 40
3.000000000000075
 50
356.416678301528120
 51
90.000000000000000
  0
ARC
  8
0
  6
CONTINUOUS
 62
3
 10
431.624512302004180
 20
-122.200533540766570
 40
5.000000000000000
 50
270.000000000000000
 51
14.640477209919299
  0
ARC
  8
0
  6
CONTINUOUS
 62
3
 10
433.932230256916230
 20
-138.200533540766570
 40
4.999999999999986
 50
1.774135555318083
 51
90.000000000000000
  0
ARC
  8
0
  6
CONTINUOUS
 62
3
 10
292.252956905898370
 20
-206.012532251639130
 40
4.999999999999974
 50
233.756397618482510
 51
9.449699705361777
  0
ARC
  8
0
  6
CONTINUOUS
 62
3
 10
424.432395672631170
 20
-184.677181172450160
 40
4.999999999999943
 50
185.724045726879840
 51
324.581888853422470
  0
ARC
  8
0
  6
CONTINUOUS
 62
3
 10
386.621871268512220
 20
-188.467200207433000
 40
33.000000000000149
 50
5.724045726881005
 51
75.297858639473745
  0
ARC
  8
0
  6
CONTINUOUS
 62
3
 10
396.266046873611690
 20
-151.711386015689130
 40
4.999999999999789
 50
156.054647304130040
 51
255.297858639474210
  0
ARC
  8
0
  6
CONTINUOUS
 62
3
 10
418.391064456003050
 20
-192.303652242308030
 40
5.000000000000110
 50
173.114296223340490
 51
318.648896542795460
  0
ARC
  8
0
  6
CONTINUOUS
 62
3
 10
393.434465666658300
 20
-157.200787596352650
 40
5.000000000000131
 50
149.373547225009280
 51
257.708022749950660
  0
ARC
  8
0
  6
CONTINUOUS
 62
3
 10
386.621871268512220
 20
-188.467200207433000
 40
27.000000000000107
 50
353.114296223340200
 51
77.708022749951269
  0
ARC
  8
0
  6
CONTINUOUS
 62
3
 10
299.658467798284160
 20
-210.920635081251420
 40
4.999999999999703
 50
239.173668330593100
 51
18.872128672724504
  0
ARC
  8
0
  6
CONTINUOUS
 62
3
 10
312.270422981890760
 20
-169.503042732554090
 40
4.999999999999726
 50
307.256131004969010
 51
47.864198486307934
  0
ARC
  8
0
  6
CONTINUOUS
 62
3
 10
433.966811056617640
 20
-167.830789426242460
 40
5.000000000000139
 50
336.401698263638880
 51
0.000000000000000
  0
CIRCLE
  8
0
  6
CONTINUOUS
 62
3
 10
347.827599068153630
 20
-130.200533540766570
 40
33.500000000000000
  0
ARC
  8
0
  6
CONTINUOUS
 62
3
 10
277.836301997942430
 20
-243.760202846176980
 40
5.469260394190242
 50
1.781769897912350
 51
11.246070515048286
  0
ARC
  8
0
  6
CONTINUOUS
 62
3
 10
417.818896138364380
 20
-243.760202846176980
 40
5.433559099403096
 50
168.753929484950930
 51
178.218230102085810
  0
ARC
  8
0
  6
CONTINUOUS
 62
3
 10
295.827599068153630
 20
-243.200533540766630
 40
12.530739605810000
 50
181.781769897913190
 51
270.000000000000000
  0
ARC
  8
0
  6
CONTINUOUS
 62
3
 10
399.827599068153180
 20
-243.200533540766630
 40
12.566440900597172
 50
270.000000000000000
 51
358.218230102087600
  0
ARC
  8
0
  6
CONTINUOUS
 62
3
 10
347.827599068153180
 20
-130.200533540766570
 40
109.999999999999850
 50
57.024699180565683
 51
90.000000000000000
  0
ARC
  8
0
  6
CONTINUOUS
 62
3
 10
413.140892901978990
 20
-29.531900647613782
 40
10.000000000000284
 50
237.024699180565620
 51
314.999999999998120
  0
ARC
  8
0
  6
CONTINUOUS
 62
3
 10
448.496231961305970
 20
-64.887239706941216
 40
9.999999999999758
 50
135.000000000000000
 51
212.975300819435770
  0
ARC
  8
0
  6
CONTINUOUS
 62
3
 10
452.327599068153180
 20
-25.700533540766571
 40
8.000000000000000
 50
0.000000000000000
 51
90.000000000000000
  0
CIRCLE
  8
0
  6
CONTINUOUS
 62
3
 10
446.822548434270170
 20
-31.205584174650028
 40
7.500000000000000
  0
ARC
  8
0
  6
CONTINUOUS
 62
3
 10
439.942822757303020
 20
-19.700533540766571
 40
2.000000000000000
 50
90.000000000000000
 51
135.000000000000000
  0
ARC
  8
0
  6
CONTINUOUS
 62
3
 10
458.327599068153180
 20
-38.085309851617183
 40
2.000000000000016
 50
315.000000000009210
 51
0.000000000000000
  0
ARC
  8
0
  6
CONTINUOUS
 62
3
 10
243.327599068153180
 20
-234.700533540766570
 40
8.000000000000000
 50
180.000000000000000
 51
270.000000000000000
  0
ARC
  8
0
  6
CONTINUOUS
 62
3
 10
452.327599068153180
 20
-234.700533540766570
 40
8.000000000000057
 50
270.000000000000000
 51
0.000000000000000
  0
ARC
  8
0
  6
CONTINUOUS
 62
3
 10
243.327599068153180
 20
-25.700533540766571
 40
8.000000000000000
 50
90.000000000000000
 51
180.000000000000000
  0
ARC
  8
0
  6
CONTINUOUS
 62
3
 10
247.158966175000390
 20
-64.887239706941216
 40
10.000000000000284
 50
327.024699180565620
 51
44.999999999999083
  0
ARC
  8
0
  6
CONTINUOUS
 62
3
 10
347.827599068153180
 20
-130.200533540766570
 40
110.000000000000000
 50
90.000000000000000
 51
122.975300819434110
  0
ARC
  8
0
  6
CONTINUOUS
 62
3
 10
282.514305234327820
 20
-29.531900647613782
 40
10.000000000000082
 50
225.000000000001850
 51
302.975300819434380
  0
ARC
  8
0
  6
CONTINUOUS
 62
3
 10
237.327599068153180
 20
-38.085309851617183
 40
2.000000000000000
 50
180.000000000000000
 51
225.000000000000000
  0
CIRCLE
  8
0
  6
CONTINUOUS
 62
3
 10
248.832649702036630
 20
-31.205584174650028
 40
7.500000000000000
  0
ARC
  8
0
  6
CONTINUOUS
 62
3
 10
255.712375379003560
 20
-19.700533540766571
 40
1.999999999999855
 50
44.999999999995396
 51
90.000000000000000
  0
ARC
  8
0
  6
CONTINUOUS
 62
3
 10
247.158966175000390
 20
-195.513827374592380
 40
9.999999999999920
 50
315.000000000000910
 51
32.975300819434352
  0
ARC
  8
0
  6
CONTINUOUS
 62
3
 10
347.827599068153180
 20
-130.200533540766570
 40
109.999999999999980
 50
237.024699180566050
 51
270.000000000000000
  0
ARC
  8
0
  6
CONTINUOUS
 62
3
 10
282.514305234327820
 20
-230.869166433919360
 40
9.999999999999902
 50
57.024699180564248
 51
135.000000000000000
  0
ARC
  8
0
  6
CONTINUOUS
 62
3
 10
237.327599068153180
 20
-222.315757229916410
 40
1.999999999999694
 50
135.000000000000000
 51
180.000000000000000
  0
CIRCLE
  8
0
  6
CONTINUOUS
 62
3
 10
248.832649702036630
 20
-229.195482906883110
 40
7.500000000000000
  0
ARC
  8
0
  6
CONTINUOUS
 62
3
 10
255.712375379003560
 20
-240.700533540766630
 40
2.000000000000000
 50
270.000000000000000
 51
314.999999999995400
  0
ARC
  8
0
  6
CONTINUOUS
 62
3
 10
448.496231961305970
 20
-195.513827374592380
 40
9.999999999999902
 50
147.024699180564230
 51
225.000000000000000
  0
ARC
  8
0
  6
CONTINUOUS
 62
3
 10
347.827599068153180
 20
-130.200533540766570
 40
110.000000000000050
 50
270.000000000000000
 51
302.975300819434150
  0
ARC
  8
0
  6
CONTINUOUS
 62
3
 10
413.140892901978990
 20
-230.869166433919360
 40
9.999999999999758
 50
45.000000000000000
 51
122.975300819435740
  0
ARC
  8
0
  6
CONTINUOUS
 62
3
 10
458.327599068153180
 20
-222.315757229916410
 40
2.000000000000000
 50
0.000000000000000
 51
44.999999999990798
  0
CIRCLE
  8
0
  6
CONTINUOUS
 62
3
 10
446.822548434270170
 20
-229.195482906883110
 40
7.500000000000000
  0
ARC
  8
0
  6
CONTINUOUS
 62
3
 10
439.942822757303020
 20
-240.700533540766630
 40
2.000000000000016
 50
225.000000000009210
 51
270.000000000000000
  0
CIRCLE
  8
0
  6
CONTINUOUS
 62
3
 10
347.827599068153630
 20
-130.200533540766570
 40
23.500000000000000
  0
ARC
  8
0
  6
DASHDOT
 62
4
 10
347.827599068153180
 20
-130.200533540766570
 40
140.000000000000030
 50
129.743120178124970
 51
140.222266713663630
  0
LINE
  8
0
  6
DASHDOT
 62
4
 10
239.327599068153180
 20
-21.700533540766571
 11
258.252767050614470
 21
-40.625701523227974
  0
ARC
  8
0
  6
DASHDOT
 62
4
 10
347.827599068153180
 20
-130.200533540766570
 40
140.000000000000030
 50
39.801257087172232
 51
50.229645091007470
  0
LINE
  8
0
  6
DASHDOT
 62
4
 10
456.327599068153180
 20
-21.700533540766571
 11
437.402431085691890
 21
-40.625701523227974
  0
ARC
  8
0
  6
DASHDOT
 62
4
 10
347.827599068153180
 20
-130.200533540766570
 40
139.999999999999970
 50
309.769634308013560
 51
320.358344660006140
  0
LINE
  8
0
  6
DASHDOT
 62
4
 10
456.327599068153180
 20
-238.700533540766630
 11
437.402431085691890
 21
-219.775365558305170
  0
ARC
  8
0
  6
DASHDOT
 62
4
 10
347.827599068153180
 20
-130.200533540766570
 40
140.000000000000000
 50
219.491011342976210
 51
230.244945468658270
  0
LINE
  8
0
  6
DASHDOT
 62
4
 10
239.327599068153180
 20
-238.700533540766630
 11
258.252767050614470
 21
-219.775365558305170
  0
ARC
  8
0
  6
CONTINUOUS
 62
3
 10
361.827599068153630
 20
-140.433931724948200
 40
77.139211988464226
 50
14.640477209921793
 51
88.089786828290116
  0
ENDSEC
  0
EOF
