  0
SECTION
  2
HEADER
  9
$TEXTSIZE
 40
2.5
  9
$ACADVER
  1
AC1009
  9
$DIMASZ
 40
3.863703297614046
  9
$DIMEXE
 40
2.000000000000000
  9
$DIMEXO
 40
1.000000000000000
  9
$DIMLFAC
 40
1.000000000000000
  9
$DIMSCALE
 40
1.000000000000000
  9
$DIMTAD
 70
1
  9
$DIMTFAC
 40
0.625000000000000
  9
$DIMTXT
 40
3.200000047683716
  9
$LUPREC
 70
3
  9
$REGENMODE
 70
1
  9
$TEXTSTYLE
  7
STANDARD1
  0
ENDSEC
  0
SECTION
  2
TABLES
  0
TABLE
  2
LTYPE
 70
4
  0
LTYPE
  2
CONTINUOUS
 70
64
  3
Solid line
 72
65
 73
0
 40
0.0
  0
LTYPE
  2
DASHED
 70
64
  3
-- -- -- -- -- -- -- -- -- -- -- -- -- -- --
 72
65
 73
2
 40
0.75
 49
0.5
 49
-0.25
  0
LTYPE
  2
DASHDOT
 70
64
  3
__ . __ . __ . __ . __ . __ . __ . __ . __ . __
 72
65
 73
4
 40
1.0
 49
0.5
 49
-0.25
 49
0.0
 49
-0.25
  0
LTYPE
  2
DIVIDE
 70
64
  3
__ . . __ . . __ . . __ . . __ . . __ . . __
 72
65
 73
6
 40
1.25
 49
0.5
 49
-0.25
 49
0.0
 49
-0.25
 49
0.0
 49
-0.25
  0
ENDTAB
  0
TABLE
  2
LAYER
 70
1
  0
LAYER
  2
0
 70
64
 62
2
  6
CONTINUOUS
  0
ENDTAB
  0
TABLE
  2
STYLE
 70
4
  0
STYLE
  2
STANDARD1
 70
64
 40
0.0
 41
1.0
 50
0.0
 71
0
 42
3.200000047683716
  3
MONOTXT
  4
BIGFONT
  0
STYLE
  2
STANDARD2
 70
68
 40
0.0
 41
1.0
 50
0.0
 71
0
 42
3.200000047683716
  3
MONOTXT
  4
BIGFONT
  0
STYLE
  2
STANDARD3
 70
64
 40
0.0
 41
1.0
 50
0.0
 71
0
 42
3.200000047683716
  3
MONOTXT
  4

  0
STYLE
  2
STANDARD4
 70
68
 40
0.0
 41
1.0
 50
0.0
 71
0
 42
3.200000047683716
  3
MONOTXT
  4

  0
ENDTAB
  0
TABLE
  2
VIEW
 70
0
  0
ENDTAB
  0
ENDSEC
  0
SECTION
  2
BLOCKS
  0
BLOCK
  8
0
  2
ZU_SYM_1
 70
64
 10
0.000000000000000
 20
0.000000000000000
  0
ARC
  8
0
  6
CONTINUOUS
 62
256
 10
-0.979025304317474
 20
-2.200000762939453
 40
1.299999237060547
 50
196.601531107481040
 51
270.000000000000000
  0
ARC
  8
0
  6
CONTINUOUS
 62
256
 10
-0.979025304317474
 20
2.200000762939453
 40
1.299999237060547
 50
90.000000000000000
 51
163.398451589674950
  0
LINE
  8
0
  6
CONTINUOUS
 62
256
 10
0.000000000000000
 20
-3.500000000000000
 11
-0.979025304317474
 21
-3.500000000000000
  0
LINE
  8
0
  6
CONTINUOUS
 62
256
 10
0.000000000000000
 20
3.500000000000000
 11
-0.979025304317474
 21
3.500000000000000
  0
LINE
  8
0
  6
CONTINUOUS
 62
256
 10
0.000000000000000
 20
-3.500000000000000
 11
0.000000000000000
 21
3.500000000000000
  0
LINE
  8
0
  6
CONTINUOUS
 62
256
 10
0.000000000000000
 20
-3.500000000000000
 11
0.000000000000000
 21
3.500000000000000
  0
POINT
  8
0
  6
CONTINUOUS
 62
256
 10
0.000000000000000
 20
0.000000000000000
  0
ARC
  8
0
  6
CONTINUOUS
 62
256
 10
6.399999618530273
 20
0.000000000000000
 40
9.000000000000000
 50
163.398451589674950
 51
196.601531107481040
  0
ENDBLK
  8
0
  0
ENDSEC
  0
SECTION
  2
ENTITIES
  0
LINE
  8
0
  6
CONTINUOUS
 62
256
 10
55.433310130268183
 20
-81.749719172881896
 11
55.433310130268183
 21
-81.949719172881942
  0
LINE
  8
0
  6
CONTINUOUS
 62
256
 10
55.433310130268183
 20
-146.949719172882170
 11
55.433310130268183
 21
-146.749719172882120
  0
LINE
  8
0
  6
CONTINUOUS
 62
256
 10
54.433310130267955
 20
-166.849719172882030
 11
54.433310130267955
 21
-61.849719172882033
  0
LINE
  8
0
  6
CONTINUOUS
 62
256
 10
207.569068569220240
 20
-144.349719172882600
 11
199.130299435239290
 21
-144.349719172882600
  0
LINE
  8
0
  6
CONTINUOUS
 62
256
 10
207.569068569220240
 20
-84.349719172882601
 11
199.130299435239290
 21
-84.349719172882601
  0
ARC
  8
0
  6
CONTINUOUS
 62
256
 10
199.130299435239290
 20
-139.349719172882600
 40
4.999999999999893
 50
184.861405395798610
 51
270.000000000000000
  0
ARC
  8
0
  6
CONTINUOUS
 62
256
 10
199.130299435239290
 20
-89.349719172882601
 40
5.000000000000000
 50
90.000000000000000
 51
175.138594604201330
  0
ARC
  8
0
  6
CONTINUOUS
 62
256
 10
493.069068569220920
 20
-114.349719172882600
 40
300.000000000000170
 50
175.138594604201960
 51
184.861405395798040
  0
LINE
  8
0
  6
CONTINUOUS
 62
256
 10
193.079485416738630
 20
-111.849719172882600
 11
192.569068569220920
 21
-111.849719172882600
  0
LINE
  8
0
  6
CONTINUOUS
 62
256
 10
193.079485416738630
 20
-116.849719172882600
 11
192.569068569220920
 21
-116.849719172882600
  0
LINE
  8
0
  6
CONTINUOUS
 62
256
 10
192.569068569220920
 20
-116.849719172882600
 11
192.569068569220920
 21
-111.849719172882600
  0
LINE
  8
0
  6
CONTINUOUS
 62
256
 10
81.433310130280006
 20
-57.358446705346978
 11
81.433310130280006
 21
-99.349719172882033
  0
LINE
  8
0
  6
CONTINUOUS
 62
256
 10
81.433310130280006
 20
-169.358446705349710
 11
81.433310130280006
 21
-99.349719172882033
  0
LINE
  8
0
  6
CONTINUOUS
 62
256
 10
127.933310130279760
 20
-99.349719172882033
 11
127.933310130280010
 21
-26.849719172882942
  0
LINE
  8
0
  6
CONTINUOUS
 62
256
 10
130.933310130280010
 20
-99.349719172882033
 11
130.933310130280010
 21
-35.132719172883121
  0
LINE
  8
0
  6
CONTINUOUS
 62
256
 10
130.933310130280010
 20
-99.349719172882033
 11
130.933310130280010
 21
-163.557319172880940
  0
LINE
  8
0
  6
CONTINUOUS
 62
256
 10
127.933310130280010
 20
-99.349719172882033
 11
127.933310130280010
 21
-171.862812133666010
  0
CIRCLE
  8
0
  6
CONTINUOUS
 62
256
 10
280.069068569220690
 20
-99.349719172883965
 40
15.000000000004434
  0
LINE
  8
0
  6
CONTINUOUS
 62
256
 10
132.433310130280010
 20
-127.169475279516500
 11
132.433310130280010
 21
-99.349719172882033
  0
LINE
  8
0
  6
CONTINUOUS
 62
256
 10
132.433310130280010
 20
-71.529963066255732
 11
132.433310130280010
 21
-99.349719172882033
  0
LINE
  8
0
  6
CONTINUOUS
 62
256
 10
132.018558108489290
 20
-128.388896801215200
 11
130.933310130280010
 21
-129.799719172887310
  0
ARC
  8
0
  6
CONTINUOUS
 62
256
 10
130.433310130280010
 20
-127.169475279516500
 40
1.999999999999625
 50
322.431407971190310
 51
0.000000000000000
  0
LINE
  8
0
  6
CONTINUOUS
 62
256
 10
132.018558108489290
 20
-70.310541544556145
 11
130.933310130280010
 21
-68.899719172884033
  0
ARC
  8
0
  6
CONTINUOUS
 62
256
 10
130.433310130280010
 20
-71.529963066255732
 40
2.000000000000000
 50
0.000000000000000
 51
37.568592028830572
  0
ARC
  8
0
  6
CONTINUOUS
 62
256
 10
122.933310130280010
 20
-62.651070435928887
 40
1.999999999999863
 50
91.500000000002828
 51
180.000000000000000
  0
LINE
  8
0
  6
CONTINUOUS
 62
256
 10
122.880956233664390
 20
-60.651755785977912
 11
127.933310130280010
 21
-60.506362282316331
  0
ARC
  8
0
  6
CONTINUOUS
 62
256
 10
122.933310130280010
 20
-45.951897114174244
 40
1.999999999999863
 50
91.500000000002828
 51
180.000000000000000
  0
LINE
  8
0
  6
CONTINUOUS
 62
256
 10
122.880956233664160
 20
-43.952582464223269
 11
127.933310130280010
 21
-43.820281921346577
  0
LINE
  8
0
  6
CONTINUOUS
 62
256
 10
116.907133181972090
 20
-171.966726780246060
 11
120.420221656126150
 21
-172.058720239496320
  0
LINE
  8
0
  6
CONTINUOUS
 62
256
 10
120.933310130280010
 20
-45.951897114174244
 11
120.933310130280010
 21
-92.349719172885671
  0
ARC
  8
0
  6
CONTINUOUS
 62
256
 10
122.933310130280010
 20
-136.048367909835180
 40
2.000000000000000
 50
180.000000000000000
 51
268.499999999997270
  0
LINE
  8
0
  6
CONTINUOUS
 62
256
 10
122.880956233664390
 20
-138.047682559786150
 11
127.933310130280010
 21
-138.193076063447730
  0
ARC
  8
0
  6
CONTINUOUS
 62
256
 10
122.933310130280010
 20
-152.747541231589820
 40
2.000000000000000
 50
180.000000000000000
 51
268.499999999997270
  0
LINE
  8
0
  6
CONTINUOUS
 62
256
 10
122.880956233664160
 20
-154.746855881540800
 11
127.933310130280010
 21
-154.879156424417490
  0
LINE
  8
0
  6
CONTINUOUS
 62
256
 10
115.933310130280010
 20
-99.349719172882033
 11
115.933310130280010
 21
-170.849719172881120
  0
LINE
  8
0
  6
CONTINUOUS
 62
256
 10
115.933310130280010
 20
-99.349719172882033
 11
115.933310130280010
 21
-32.358446705346978
  0
LINE
  8
0
  6
DASHDOT
 62
256
 10
335.382369882429200
 20
-154.663020486083160
 11
349.633260252752390
 21
-168.913910856404410
  0
LINE
  8
0
  6
DASHDOT
 62
256
 10
210.501314774699150
 20
-168.917472967415110
 11
224.454606377601070
 21
-154.964181364511320
  0
LINE
  8
0
  6
DASHDOT
 62
256
 10
210.395579681096190
 20
-29.676230284770838
 11
223.984501668900520
 21
-43.265152272572891
  0
LINE
  8
0
  6
DASHDOT
 62
256
 10
335.760889101846030
 20
-43.657898640248391
 11
349.769666064470240
 21
-29.649121677622247
  0
LINE
  8
0
  6
DASHDOT
 62
256
 10
183.036484504203830
 20
-99.349719172882033
 11
394.084437041732600
 21
-99.349719172883241
  0
ARC
  8
0
  6
DASHDOT
 62
256
 10
280.069068569220010
 20
-99.349719172882146
 40
89.999999999999929
 50
218.364054097356190
 51
231.366607215016130
  0
ARC
  8
0
  6
DASHDOT
 62
256
 10
280.069068569220240
 20
-99.349719172882146
 40
89.999999999999915
 50
38.814296061764630
 51
51.366607215015804
  0
CIRCLE
  8
0
  6
CONTINUOUS
 62
256
 10
280.069068569220920
 20
-99.349719172883056
 40
65.000000000000000
  0
LINE
  8
0
  6
CONTINUOUS
 62
256
 10
130.933310130280010
 20
-163.557319172880940
 11
130.161388225760560
 21
-164.349719172882030
  0
LINE
  8
0
  6
CONTINUOUS
 62
256
 10
130.933310130280010
 20
-35.132719172883121
 11
130.170545300347210
 21
-34.349719172882033
  0
ARC
  8
0
  6
DASHDOT
 62
256
 10
280.069068569221600
 20
-99.349719172882146
 40
89.999999999999602
 50
128.633392784984180
 51
141.366607215004020
  0
ARC
  8
0
  6
DASHDOT
 62
256
 10
280.069068569220010
 20
-99.349719172883056
 40
89.999999999999602
 50
308.633392784996260
 51
321.222539268991450
  0
ARC
  8
0
  6
CONTINUOUS
 62
256
 10
329.400970171858030
 20
-68.847858831787676
 40
2.999999999999885
 50
227.303730022827890
 51
31.728456098873554
  0
ARC
  8
0
  6
CONTINUOUS
 62
256
 10
298.069068569221140
 20
-102.806350880652740
 40
43.204623581089415
 50
47.303730022832184
 51
87.093615629290113
  0
ARC
  8
0
  6
CONTINUOUS
 62
256
 10
230.737166966580160
 20
-68.847858831791314
 40
2.999999999999679
 50
148.271543901143390
 51
312.696269977175230
  0
ARC
  8
0
  6
CONTINUOUS
 62
256
 10
262.069068569221140
 20
-102.806350880652740
 40
43.204623581088974
 50
92.906384370709901
 51
132.696269977174840
  0
ARC
  8
0
  6
CONTINUOUS
 62
256
 10
280.069068569220920
 20
-457.349719172882150
 40
398.204623581088530
 50
90.572674378388442
 51
92.906384370709887
  0
ARC
  8
0
  6
CONTINUOUS
 62
256
 10
280.069068569221140
 20
-457.349719172882150
 40
398.204623581088130
 50
87.093615629290085
 51
89.427325621611587
  0
ARC
  8
0
  6
CONTINUOUS
 62
256
 10
336.426932945479620
 20
-28.849719172882146
 40
2.000000000000000
 50
90.000000000000000
 51
135.000000000014040
  0
ARC
  8
0
  6
CONTINUOUS
 62
256
 10
350.569068569220240
 20
-42.991854796603661
 40
2.000000000000177
 50
314.999999999995400
 51
0.000000000000000
  0
ARC
  8
0
  6
CONTINUOUS
 62
256
 10
344.569068569220240
 20
-34.849719172882146
 40
8.000000000000000
 50
0.000000000000000
 51
90.000000000000000
  0
ARC
  8
0
  6
CONTINUOUS
 62
256
 10
280.069068569220240
 20
-99.349719172882146
 40
67.999999999999289
 50
61.382669854105067
 51
118.617330145903680
  0
ARC
  8
0
  6
CONTINUOUS
 62
256
 10
317.427745604402620
 20
-30.878343765483919
 40
10.000000000000218
 50
241.382669854105530
 51
315.000000000005570
  0
CIRCLE
  8
0
  6
CONTINUOUS
 62
256
 10
280.069068569220240
 20
-99.349719172882146
 40
61.000000000000000
  0
ARC
  8
0
  6
CONTINUOUS
 62
256
 10
242.710391534027170
 20
-30.878343765489376
 40
9.999999999999920
 50
225.000000000002760
 51
298.617330145902660
  0
ARC
  8
0
  6
CONTINUOUS
 62
256
 10
223.711204192941300
 20
-28.849719172882146
 40
1.999999999999534
 50
44.999999999986180
 51
90.000000000000000
  0
ARC
  8
0
  6
CONTINUOUS
 62
256
 10
215.569068569220240
 20
-34.849719172882146
 40
8.000000000000000
 50
90.000000000000000
 51
180.000000000000000
  0
ARC
  8
0
  6
CONTINUOUS
 62
256
 10
209.569068569220010
 20
-42.991854796622761
 40
2.000000000000000
 50
180.000000000000000
 51
225.000000000008920
  0
ARC
  8
0
  6
CONTINUOUS
 62
256
 10
211.597693161821330
 20
-61.991042137699992
 40
10.000000000000236
 50
331.382669854102570
 51
45.000000000002764
  0
ARC
  8
0
  6
CONTINUOUS
 62
256
 10
280.069068569220240
 20
-99.349719172882146
 40
67.999999999999559
 50
151.382669854105840
 51
173.530398389657510
  0
ARC
  8
0
  6
CONTINUOUS
 62
256
 10
223.711204192960620
 20
-169.849719172883060
 40
2.000000000000000
 50
270.000000000000000
 51
315.000000000013810
  0
ARC
  8
0
  6
CONTINUOUS
 62
256
 10
209.569068569220010
 20
-155.707583549161540
 40
2.000000000000177
 50
134.999999999995400
 51
180.000000000000000
  0
ARC
  8
0
  6
CONTINUOUS
 62
256
 10
211.597693161827010
 20
-136.708396208075210
 40
10.000000000000563
 50
315.000000000000910
 51
28.617330145899306
  0
ARC
  8
0
  6
CONTINUOUS
 62
256
 10
215.569068569220240
 20
-163.849719172882150
 40
8.000000000000000
 50
180.000000000000000
 51
270.000000000000000
  0
ARC
  8
0
  6
CONTINUOUS
 62
256
 10
280.069068569220240
 20
-99.349719172882146
 40
68.000000000000185
 50
241.382669854105220
 51
298.617330145903110
  0
ARC
  8
0
  6
CONTINUOUS
 62
256
 10
242.710391534037630
 20
-167.821094580281280
 40
10.000000000000218
 50
61.382669854105508
 51
135.000000000005510
  0
ARC
  8
0
  6
CONTINUOUS
 62
256
 10
336.426932945498950
 20
-169.849719172883060
 40
1.999999999999534
 50
224.999999999986190
 51
270.000000000000000
  0
ARC
  8
0
  6
CONTINUOUS
 62
256
 10
317.427745604413080
 20
-167.821094580275830
 40
9.999999999999920
 50
45.000000000002764
 51
118.617330145902780
  0
ARC
  8
0
  6
CONTINUOUS
 62
256
 10
344.569068569220240
 20
-163.849719172882150
 40
8.000000000000000
 50
270.000000000000000
 51
0.000000000000000
  0
ARC
  8
0
  6
CONTINUOUS
 62
256
 10
350.569068569220240
 20
-155.707583549142440
 40
2.000000000000000
 50
0.000000000000000
 51
45.000000000009209
  0
ARC
  8
0
  6
CONTINUOUS
 62
256
 10
348.540443976618920
 20
-136.708396208065210
 40
10.000000000000236
 50
151.382669854102600
 51
225.000000000002760
  0
ARC
  8
0
  6
CONTINUOUS
 62
256
 10
280.069068569220240
 20
-99.349719172882146
 40
68.000000000000426
 50
331.382669854104510
 51
353.530398389656740
  0
ARC
  8
0
  6
CONTINUOUS
 62
256
 10
348.540443976613230
 20
-61.991042137689988
 40
10.000000000000563
 50
135.000000000000910
 51
208.617330145903740
  0
CIRCLE
  8
0
  6
CONTINUOUS
 62
256
 10
280.069068569220240
 20
-99.349719172883056
 40
28.500000000001705
  0
ARC
  8
0
  6
CONTINUOUS
 62
256
 10
116.933310130280010
 20
-170.967069455270580
 40
1.000000000000000
 50
180.000000000000000
 51
268.499999999997210
  0
ARC
  8
0
  6
CONTINUOUS
 62
256
 10
116.933310130280010
 20
-27.732368890493490
 40
0.999999999999931
 50
91.500000000002828
 51
180.000000000000000
  0
ARC
  8
0
  6
CONTINUOUS
 62
256
 10
113.933310130280010
 20
-169.917313439136710
 40
2.000000000000000
 50
0.000000000000000
 51
88.999999999998224
  0
ARC
  8
0
  6
CONTINUOUS
 62
256
 10
113.933310130280010
 20
-54.782124906627359
 40
2.000000000000027
 50
271.000000000001760
 51
0.000000000000000
  0
ARC
  8
0
  6
CONTINUOUS
 62
256
 10
280.069068569220240
 20
-99.349719172882146
 40
68.000000000000043
 50
6.469601610342491
 51
28.617330145902912
  0
ARC
  8
0
  6
CONTINUOUS
 62
256
 10
280.069068569220240
 20
-99.349719172882146
 40
68.000000000000142
 50
186.469601610343260
 51
208.617330145903570
  0
ARC
  8
0
  6
CONTINUOUS
 62
256
 10
114.091644190473520
 20
-171.928804702905840
 40
2.000000000000208
 50
18.697908624297707
 51
89.000000000004846
  0
ARC
  8
0
  6
CONTINUOUS
 62
256
 10
308.305722786140000
 20
-130.441385839549300
 40
16.999999999999861
 50
178.020519821724410
 51
250.964242295592870
  0
ARC
  8
0
  6
CONTINUOUS
 62
256
 10
264.292855814289400
 20
-135.016385839550030
 40
16.999999999999968
 50
119.601286977159330
 51
197.369633808356040
  0
ARC
  8
0
  6
CONTINUOUS
 62
256
 10
308.305722786140000
 20
-130.441385839549300
 40
16.999999999999893
 50
13.525604501697238
 51
86.469326975567711
  0
ARC
  8
0
  6
CONTINUOUS
 62
256
 10
264.292855814289400
 20
-135.016385839550030
 40
17.000000000000071
 50
294.908479498618020
 51
12.676826329814618
  0
ARC
  8
0
  6
CONTINUOUS
 62
256
 10
309.537380336185830
 20
-110.479346372615620
 40
3.000000000000015
 50
159.309392085947540
 51
266.469326975568260
  0
ARC
  8
0
  6
CONTINUOUS
 62
256
 10
288.317657550579720
 20
-129.750554355764620
 40
3.000000000000167
 50
358.020519821729640
 51
105.180454711340090
  0
ARC
  8
0
  6
CONTINUOUS
 62
256
 10
283.805323463368500
 20
-130.627353344381050
 40
2.999999999999606
 50
96.811961602215632
 51
192.676826329818790
  0
ARC
  8
0
  6
CONTINUOUS
 62
256
 10
254.413627873389260
 20
-117.626709152165970
 40
3.000000000000294
 50
299.601286977152820
 51
35.466151704764755
  0
ARC
  8
0
  6
CONTINUOUS
 62
256
 10
301.130242839409450
 20
-151.238320410155320
 40
4.999999999999915
 50
292.091845782585780
 51
70.964242295592584
  0
ARC
  8
0
  6
CONTINUOUS
 62
256
 10
329.695563798824200
 20
-125.296028567979310
 40
5.000000000000225
 50
193.525604501702190
 51
332.398001014701490
  0
ARC
  8
0
  6
CONTINUOUS
 62
256
 10
273.558596845848110
 20
-154.969983087567130
 40
4.999999999999622
 50
114.908479498619850
 51
263.323785686981860
  0
ARC
  8
0
  6
CONTINUOUS
 62
256
 10
243.296084785474250
 20
-141.584156112901040
 40
4.999999999999889
 50
228.954327619990690
 51
17.369633808356543
  0
CIRCLE
  8
0
  6
CONTINUOUS
 62
256
 10
343.708678876004570
 20
-35.710108866088490
 40
5.300000000000011
  0
CIRCLE
  8
0
  6
CONTINUOUS
 62
256
 10
343.708678876014120
 20
-162.989329479666710
 40
5.300000000000011
  0
CIRCLE
  8
0
  6
CONTINUOUS
 62
256
 10
216.429458262435670
 20
-162.989329479676710
 40
5.300000000000011
  0
CIRCLE
  8
0
  6
CONTINUOUS
 62
256
 10
216.429458262426810
 20
-35.710108866098494
 40
5.300000000000011
  0
ARC
  8
0
  6
CONTINUOUS
 62
256
 10
350.616924667050630
 20
-91.349719172883056
 40
2.999999999999799
 50
186.469601610328770
 51
270.000000000000000
  0
ARC
  8
0
  6
CONTINUOUS
 62
256
 10
350.616924667050630
 20
-107.349719172883060
 40
3.000000000000000
 50
90.000000000000000
 51
173.530398389653950
  0
ARC
  8
0
  6
CONTINUOUS
 62
256
 10
350.569068569221600
 20
-102.349719172883060
 40
2.000000000000000
 50
270.000000000000000
 51
0.000000000000000
  0
ARC
  8
0
  6
CONTINUOUS
 62
256
 10
350.569068569221600
 20
-96.349719172883056
 40
2.000000000000000
 50
0.000000000000000
 51
90.000000000000000
  0
ARC
  8
0
  6
CONTINUOUS
 62
256
 10
209.569068569220240
 20
-96.349719172883056
 40
2.000000000000000
 50
90.000000000000000
 51
180.000000000000000
  0
ARC
  8
0
  6
CONTINUOUS
 62
256
 10
209.521212471391210
 20
-91.349719172883056
 40
3.000000000000000
 50
270.000000000000000
 51
353.530398389671120
  0
ARC
  8
0
  6
CONTINUOUS
 62
256
 10
209.569068569220240
 20
-102.349719172883060
 40
2.000000000000000
 50
180.000000000000000
 51
270.000000000000000
  0
ARC
  8
0
  6
CONTINUOUS
 62
256
 10
209.521212471391210
 20
-107.349719172883060
 40
2.999999999999902
 50
6.469601610346050
 51
90.000000000000000
  0
ARC
  8
0
  6
CONTINUOUS
 62
256
 10
112.933310130280010
 20
-31.554599128053269
 40
3.000000000000049
 50
330.000000000000570
 51
0.000000000000000
  0
ARC
  8
0
  6
CONTINUOUS
 62
256
 10
99.959506473682040
 20
-54.025886228703712
 40
2.999999999999587
 50
271.000000000001930
 51
330.000000000000630
  0
ARC
  8
0
  6
CONTINUOUS
 62
256
 10
284.069068569220920
 20
-40.485468561836683
 40
2.000000000000140
 50
86.112558457846418
 51
180.000000000000000
  0
ARC
  8
0
  6
CONTINUOUS
 62
256
 10
276.069068569220920
 20
-40.485468561836683
 40
2.000000000000000
 50
0.000000000000000
 51
93.887441542153866
  0
ARC
  8
0
  6
CONTINUOUS
 62
256
 10
276.069068569220920
 20
-57.165085865103833
 40
2.000000000000305
 50
270.572674378390390
 51
0.000000000000000
  0
ARC
  8
0
  6
CONTINUOUS
 62
256
 10
284.069068569220920
 20
-57.165085865103833
 40
2.000000000000000
 50
180.000000000000000
 51
269.427325621609500
  0
LINE
  8
0
  6
CONTINUOUS
 62
256
 10
324.498813416268830
 20
-37.949411577348769
 11
335.012719383106510
 21
-27.435505610509722
  0
LINE
  8
0
  6
CONTINUOUS
 62
256
 10
341.469376164747250
 20
-54.919974325824228
 11
351.983282131593340
 21
-44.406068358976995
  0
LINE
  8
0
  6
CONTINUOUS
 62
256
 10
352.569068569220240
 20
-34.849719172882146
 11
352.569068569220240
 21
-163.849719172882150
  0
LINE
  8
0
  6
CONTINUOUS
 62
256
 10
215.569068569220240
 20
-26.849719172882146
 11
344.569068569220240
 21
-26.849719172882146
  0
LINE
  8
0
  6
CONTINUOUS
 62
256
 10
235.639323722162090
 20
-37.949411577355136
 11
225.125417755314400
 21
-27.435505610509722
  0
LINE
  8
0
  6
CONTINUOUS
 62
256
 10
207.569068569220240
 20
-34.849719172882146
 11
207.569068569220240
 21
-163.849719172882150
  0
LINE
  8
0
  6
CONTINUOUS
 62
256
 10
218.668760973686400
 20
-54.919974325834232
 11
208.154855006847130
 21
-44.406068358996095
  0
LINE
  8
0
  6
CONTINUOUS
 62
256
 10
235.639323722171410
 20
-160.750026768416430
 11
225.125417755333730
 21
-171.263932735255480
  0
LINE
  8
0
  6
CONTINUOUS
 62
256
 10
218.668760973693000
 20
-143.779464019940970
 11
208.154855006846900
 21
-154.293369986788210
  0
LINE
  8
0
  6
CONTINUOUS
 62
256
 10
215.569068569220240
 20
-171.849719172882150
 11
344.569068569220240
 21
-171.849719172882150
  0
LINE
  8
0
  6
CONTINUOUS
 62
256
 10
324.498813416278150
 20
-160.750026768410070
 11
335.012719383125840
 21
-171.263932735255480
  0
LINE
  8
0
  6
CONTINUOUS
 62
256
 10
341.469376164753840
 20
-143.779464019930970
 11
351.983282131593110
 21
-154.293369986769110
  0
LINE
  8
0
  6
DASHDOT
 62
256
 10
280.069068569220920
 20
-19.997814518135897
 11
280.069068569220920
 21
-186.070846041615480
  0
LINE
  8
0
  6
DASHDOT
 62
256
 10
296.530255066477370
 20
-114.349719172883060
 11
264.519369923221350
 21
-114.349719172883060
  0
LINE
  8
0
  6
CONTINUOUS
 62
256
 10
115.933310130280010
 20
-169.917313439136710
 11
115.933310130280010
 21
-170.967069455270580
  0
LINE
  8
0
  6
CONTINUOUS
 62
256
 10
127.933310130280010
 20
-171.862812133666010
 11
120.436051530475650
 21
-172.059134759344490
  0
LINE
  8
0
  6
CONTINUOUS
 62
256
 10
115.531386341633360
 20
-33.054599128053269
 11
102.557582685035410
 21
-55.525886228703712
  0
LINE
  8
0
  6
CONTINUOUS
 62
256
 10
116.907133181972090
 20
-26.732711565518002
 11
120.420221656126150
 21
-26.640718106267741
  0
LINE
  8
0
  6
CONTINUOUS
 62
256
 10
127.933310130280010
 20
-26.849719172882942
 11
120.436051530475650
 21
-26.640303586419577
  0
LINE
  8
0
  6
CONTINUOUS
 62
256
 10
81.433310130280006
 20
-169.358446705349710
 11
114.126549003347900
 21
-169.929109312593030
  0
LINE
  8
0
  6
CONTINUOUS
 62
256
 10
81.433310130280006
 20
-57.349719172882033
 11
113.968214943154630
 21
-56.781820296940168
  0
LINE
  8
0
  6
CONTINUOUS
 62
256
 10
81.433310130280006
 20
-167.349719172882030
 11
113.968214943154630
 21
-167.917618048823900
  0
LINE
  8
0
  6
DASHDOT
 62
256
 10
168.684941121831340
 20
-99.349719172882033
 11
76.080965179437044
 21
-99.349719172882033
  0
LINE
  8
0
  6
CONTINUOUS
 62
256
 10
115.933310130280010
 20
-32.358446705346978
 11
115.933310130280010
 21
-27.732368890493490
  0
LINE
  8
0
  6
CONTINUOUS
 62
256
 10
282.069068569220920
 20
-40.485468561836683
 11
282.069068569220920
 21
-57.165085865103833
  0
LINE
  8
0
  6
CONTINUOUS
 62
256
 10
278.069068569220920
 20
-40.485468561836683
 11
278.069068569220920
 21
-57.165085865103833
  0
LINE
  8
0
  6
CONTINUOUS
 62
256
 10
270.069061209213490
 20
-101.849719172883060
 11
275.069061209213490
 21
-101.849719172883060
  0
CIRCLE
  8
0
  6
CONTINUOUS
 62
256
 10
280.069068569220690
 20
-99.349719172883056
 40
2.458500000000015
  0
LINE
  8
0
  6
CONTINUOUS
 62
256
 10
275.069061209213490
 20
-96.849719172883056
 11
275.069061209213490
 21
-101.849719172883060
  0
LINE
  8
0
  6
CONTINUOUS
 62
256
 10
270.069061209213490
 20
-96.849719172883056
 11
270.069061209213490
 21
-101.849719172883060
  0
LINE
  8
0
  6
CONTINUOUS
 62
256
 10
270.069061209213490
 20
-96.849719172883056
 11
275.069061209213490
 21
-96.849719172883056
  0
ARC
  8
0
  6
CONTINUOUS
 62
256
 10
280.069061209213490
 20
-99.349719172883056
 40
8.000000000000096
 50
198.209956864282790
 51
161.789968677645760
  0
CIRCLE
  8
0
  6
CONTINUOUS
 62
256
 10
280.069068569220690
 20
-99.349719172883056
 40
3.000000000000000
  0
LINE
  8
0
  6
CONTINUOUS
 62
256
 10
73.933310130280006
 20
-69.599718219207716
 11
70.933310893219456
 21
-69.599718219207716
  0
LINE
  8
0
  6
CONTINUOUS
 62
256
 10
75.933310893219456
 20
-61.099720126556349
 11
70.933310893219456
 21
-61.099720126556349
  0
LINE
  8
0
  6
CONTINUOUS
 62
256
 10
70.933310893219456
 20
-69.599718219207716
 11
70.933310893219456
 21
-61.099720126556349
  0
ARC
  8
0
  6
CONTINUOUS
 62
256
 10
76.433310130280006
 20
-57.936696895444584
 40
0.499999999999321
 50
90.999999999977078
 51
180.000000000000000
  0
LINE
  8
0
  6
CONTINUOUS
 62
256
 10
75.933310130280006
 20
-57.936696895444584
 11
75.933310130280006
 21
-62.343100887851506
  0
LINE
  8
0
  6
CONTINUOUS
 62
256
 10
80.933310130280006
 20
-57.358072939246085
 11
80.933310130280006
 21
-169.358446705349710
  0
LINE
  8
0
  6
CONTINUOUS
 62
256
 10
74.933310130280006
 20
-62.743100887851142
 11
75.533310130279915
 21
-62.743100887851142
  0
ARC
  8
0
  6
CONTINUOUS
 62
256
 10
75.533310130279915
 20
-62.343100887851506
 40
0.399999999999636
 50
270.000000000000000
 51
0.000000000000000
  0
ARC
  8
0
  6
CONTINUOUS
 62
256
 10
74.933310130280006
 20
-63.743100887851142
 40
1.000000000000000
 50
90.000000000000000
 51
180.000000000000000
  0
LINE
  8
0
  6
CONTINUOUS
 62
256
 10
55.433310130268183
 20
-63.849719172882033
 11
55.433310130268183
 21
-167.402089021598840
  0
LINE
  8
0
  6
CONTINUOUS
 62
256
 10
73.933310130280006
 20
-63.743100887851142
 11
73.933310130280006
 21
-101.099346360456370
  0
LINE
  8
0
  6
CONTINUOUS
 62
256
 10
54.433310130268183
 20
-61.849719172882033
 11
54.433310130267728
 21
-167.375903100029060
  0
ARC
  8
0
  6
CONTINUOUS
 62
256
 10
55.933310130268183
 20
-63.849719172882033
 40
0.500000000000000
 50
90.000000000000000
 51
180.000000000000000
  0
LINE
  8
0
  6
CONTINUOUS
 62
256
 10
55.881045898634511
 20
-63.352458225197552
 11
70.933310893219456
 21
-62.563602443651789
  0
LINE
  8
0
  6
CONTINUOUS
 62
256
 10
73.933310130280006
 20
-57.971607025300727
 11
73.933310130280006
 21
-61.099720126556349
  0
LINE
  8
0
  6
CONTINUOUS
 62
256
 10
70.933310893219456
 20
-61.404558486227785
 11
54.433310130268183
 21
-61.836626212097144
  0
LINE
  8
0
  6
CONTINUOUS
 62
256
 10
74.424583927061576
 20
-57.471683177723207
 11
80.933310130280006
 21
-57.358072939246085
  0
ARC
  8
0
  6
CONTINUOUS
 62
256
 10
72.933310130280006
 20
-60.351843870576886
 40
0.999999999999819
 50
311.593253995591400
 51
0.000000000000000
  0
ARC
  8
0
  6
CONTINUOUS
 62
256
 10
74.433310130280006
 20
-57.971607025300727
 40
0.499999999999321
 50
90.999999999977078
 51
180.000000000000000
  0
LINE
  8
0
  6
CONTINUOUS
 62
256
 10
73.933310130280006
 20
-109.599344453107730
 11
73.933310130280006
 21
-163.491597568751790
  0
LINE
  8
0
  6
CONTINUOUS
 62
256
 10
75.933310130280006
 20
-100.499719172882560
 11
75.933310130280006
 21
-110.199719172882400
  0
LINE
  8
0
  6
CONTINUOUS
 62
256
 10
74.933310130280006
 20
-110.599719172882030
 11
75.533310130279915
 21
-110.599719172882030
  0
ARC
  8
0
  6
CONTINUOUS
 62
256
 10
75.533310130279915
 20
-110.199719172882400
 40
0.399999999999636
 50
270.000000000000000
 51
0.000000000000000
  0
ARC
  8
0
  6
CONTINUOUS
 62
256
 10
74.933310130280006
 20
-111.599719172882030
 40
1.000000000000000
 50
90.000000000000000
 51
180.000000000000000
  0
LINE
  8
0
  6
CONTINUOUS
 62
256
 10
74.933310130280006
 20
-100.099719172882030
 11
75.533310130279915
 21
-100.099719172882030
  0
ARC
  8
0
  6
CONTINUOUS
 62
256
 10
75.533310130279915
 20
-100.499719172882560
 40
0.400000000000091
 50
0.000000000000000
 51
90.000000000000000
  0
ARC
  8
0
  6
CONTINUOUS
 62
256
 10
74.933310130280006
 20
-99.099719172882033
 40
1.000000000000000
 50
180.000000000000000
 51
270.000000000000000
  0
LINE
  8
0
  6
CONTINUOUS
 62
256
 10
71.433310130280006
 20
-98.349719172882033
 11
73.433310130280006
 21
-98.349719172882033
  0
LINE
  8
0
  6
CONTINUOUS
 62
256
 10
70.933310130280006
 20
-97.849719172882033
 11
70.933310130280006
 21
-93.349719172882033
  0
LINE
  8
0
  6
CONTINUOUS
 62
256
 10
71.433310130280006
 20
-88.349719172882033
 11
73.433310130280006
 21
-88.349719172882033
  0
LINE
  8
0
  6
CONTINUOUS
 62
256
 10
70.933310130280006
 20
-88.849719172882033
 11
70.933310130280006
 21
-93.349719172882033
  0
ARC
  8
0
  6
CONTINUOUS
 62
256
 10
71.433310130280006
 20
-97.849719172882033
 40
0.500000000000000
 50
180.000000000000000
 51
270.000000000000000
  0
ARC
  8
0
  6
CONTINUOUS
 62
256
 10
73.433310130280006
 20
-98.849719172882033
 40
0.500000000000000
 50
0.000000000000000
 51
90.000000000000000
  0
ARC
  8
0
  6
CONTINUOUS
 62
256
 10
73.433310130280006
 20
-87.849719172882033
 40
0.500000000000000
 50
270.000000000000000
 51
0.000000000000000
  0
ARC
  8
0
  6
CONTINUOUS
 62
256
 10
71.433310130280006
 20
-88.849719172882033
 40
0.500000000000000
 50
90.000000000000000
 51
180.000000000000000
  0
LINE
  8
0
  6
CONTINUOUS
 62
256
 10
55.433310130268183
 20
-146.949719172882400
 11
55.433310130268183
 21
-146.749719172882580
  0
ARC
  8
0
  6
CONTINUOUS
 62
256
 10
74.807115210246138
 20
-168.804965173028900
 40
0.500000000000166
 50
215.467192086431370
 51
269.500000000000510
  0
LINE
  8
0
  6
CONTINUOUS
 62
256
 10
70.933310893219456
 20
-167.807970825899390
 11
54.433310130267955
 21
-167.375903100029060
  0
LINE
  8
0
  6
CONTINUOUS
 62
256
 10
75.933310130280006
 20
-169.099718219207720
 11
75.933310130280006
 21
-164.891597568752330
  0
LINE
  8
0
  6
CONTINUOUS
 62
256
 10
160.433310130256360
 20
-99.349719172882033
 11
160.433310130256360
 21
-91.749719172881669
  0
LINE
  8
0
  6
CONTINUOUS
 62
256
 10
160.433310130256360
 20
-99.349719172882033
 11
160.433310130256360
 21
-106.949719172882400
  0
LINE
  8
0
  6
CONTINUOUS
 62
256
 10
135.433310130256360
 20
-99.349719172882033
 11
135.433310130256360
 21
-107.549726611543520
  0
LINE
  8
0
  6
CONTINUOUS
 62
256
 10
160.033310130256270
 20
-107.349719172882030
 11
138.552925372526720
 21
-107.349719172882030
  0
ARC
  8
0
  6
CONTINUOUS
 62
256
 10
160.033310130256270
 20
-106.949719172882400
 40
0.399999999999636
 50
270.000000000000000
 51
0.000000000000000
  0
LINE
  8
0
  6
CONTINUOUS
 62
256
 10
137.993117751391310
 20
-107.199719172882400
 11
135.833310130256000
 21
-107.199719172882400
  0
LINE
  8
0
  6
CONTINUOUS
 62
256
 10
137.993117751391310
 20
-107.199719172882400
 11
138.552925372526720
 21
-107.349719172882030
  0
ARC
  8
0
  6
CONTINUOUS
 62
256
 10
135.833310130256000
 20
-107.599719172882030
 40
0.399999999999636
 50
90.000000000000000
 51
172.299196497543190
  0
LINE
  8
0
  6
CONTINUOUS
 62
256
 10
135.133310130256180
 20
-107.849726611543700
 11
135.436917602005450
 21
-107.546119139794410
  0
LINE
  8
0
  6
CONTINUOUS
 62
256
 10
132.433310130280010
 20
-107.849726611543700
 11
135.133310130256180
 21
-107.849726611543700
  0
LINE
  8
0
  6
CONTINUOUS
 62
256
 10
135.433310130256360
 20
-99.349719172882033
 11
135.433310130256360
 21
-91.149711734220546
  0
LINE
  8
0
  6
CONTINUOUS
 62
256
 10
160.033310130256270
 20
-91.349719172882033
 11
138.552925372526720
 21
-91.349719172882033
  0
LINE
  8
0
  6
CONTINUOUS
 62
256
 10
132.433310130280010
 20
-90.849711734220364
 11
135.133310130256180
 21
-90.849711734220364
  0
ARC
  8
0
  6
CONTINUOUS
 62
256
 10
160.033310130256270
 20
-91.749719172881669
 40
0.400000000000091
 50
0.000000000000000
 51
90.000000000000000
  0
LINE
  8
0
  6
CONTINUOUS
 62
256
 10
137.993117751391310
 20
-91.499719172881669
 11
135.833310130256000
 21
-91.499719172881669
  0
LINE
  8
0
  6
CONTINUOUS
 62
256
 10
137.993117751391310
 20
-91.499719172881669
 11
138.552925372526720
 21
-91.349719172882033
  0
ARC
  8
0
  6
CONTINUOUS
 62
256
 10
135.833310130256000
 20
-91.099719172882033
 40
0.399999999999814
 50
187.700803502457570
 51
270.000000000000000
  0
LINE
  8
0
  6
CONTINUOUS
 62
256
 10
135.133310130256180
 20
-90.849711734220364
 11
135.436917602005450
 21
-91.153319205969638
  0
ARC
  8
0
  6
CONTINUOUS
 62
256
 10
138.933310130256360
 20
-99.349719172882033
 40
2.500000000000000
 50
90.000000000000000
 51
270.000000000000000
  0
LINE
  8
0
  6
CONTINUOUS
 62
256
 10
160.433310130256360
 20
-96.849719172882033
 11
138.933310130256360
 21
-96.849719172882033
  0
LINE
  8
0
  6
CONTINUOUS
 62
256
 10
160.433310130256360
 20
-101.849719172882030
 11
138.933310130256360
 21
-101.849719172882030
  0
LINE
  8
0
  6
CONTINUOUS
 62
256
 10
127.933310130279760
 20
-94.349719172885671
 11
122.933310130280010
 21
-94.349719172885671
  0
LINE
  8
0
  6
CONTINUOUS
 62
256
 10
127.933310130279760
 20
-104.349719172885670
 11
122.933310130280010
 21
-104.349719172885670
  0
ARC
  8
0
  6
CONTINUOUS
 62
256
 10
122.933310130280010
 20
-92.349719172885671
 40
2.000000000000000
 50
180.000000000000000
 51
270.000000000000000
  0
ARC
  8
0
  6
CONTINUOUS
 62
256
 10
122.933310130280010
 20
-106.349719172885670
 40
2.000000000000000
 50
90.000000000000000
 51
180.000000000000000
  0
ARC
  8
0
  6
CONTINUOUS
 62
256
 10
74.933310130280006
 20
-163.491597568751790
 40
1.000000000000000
 50
180.000000000000000
 51
270.000000000000000
  0
ARC
  8
0
  6
CONTINUOUS
 62
256
 10
75.533310130279915
 20
-164.891597568752330
 40
0.400000000000091
 50
0.000000000000000
 51
90.000000000000000
  0
LINE
  8
0
  6
CONTINUOUS
 62
256
 10
74.933310130280006
 20
-164.491597568751790
 11
75.533310130279915
 21
-164.491597568751790
  0
ARC
  8
0
  6
CONTINUOUS
 62
256
 10
76.433310130280006
 20
-168.819156761098380
 40
0.500000000000000
 50
180.000000000000000
 51
269.500000000008470
  0
LINE
  8
0
  6
CONTINUOUS
 62
256
 10
80.933310130280006
 20
-169.358446705349710
 11
74.802751942496954
 21
-169.304946134561390
  0
POINT
  8
0
  6
CONTINUOUS
 62
256
 10
75.933310130280006
 20
-164.849719172882030
  0
LINE
  8
0
  6
CONTINUOUS
 62
256
 10
70.933310893219456
 20
-169.099718219207720
 11
70.933310893219456
 21
-160.599720126556350
  0
LINE
  8
0
  6
CONTINUOUS
 62
256
 10
73.933310130280006
 20
-160.599720126556350
 11
70.933310893219456
 21
-160.599720126556350
  0
LINE
  8
0
  6
CONTINUOUS
 62
256
 10
75.933310893219456
 20
-169.099718219207720
 11
70.933310893219456
 21
-169.099718219207720
  0
LINE
  8
0
  6
DASHDOT
 62
256
 10
136.143253820497190
 20
-162.989329479679330
 11
108.135996829671040
 21
-162.989329479679330
  0
LINE
  8
0
  6
DASHDOT
 62
256
 10
137.143253820497190
 20
-35.710108866102019
 11
108.135996829671040
 21
-35.710108866102019
  0
LINE
  8
0
  6
CONTINUOUS
 62
256
 10
55.433310130268183
 20
-68.216636577999338
 11
70.933310893219456
 21
-68.216636577999338
  0
LINE
  8
0
  6
CONTINUOUS
 62
256
 10
55.433310130268183
 20
-69.845063645777145
 11
73.933310130279978
 21
-69.845063645777145
  0
LINE
  8
0
  6
CONTINUOUS
 62
256
 10
55.433310130268183
 20
-73.307805402542272
 11
73.933310130279978
 21
-73.307805402542272
  0
LINE
  8
0
  6
CONTINUOUS
 62
256
 10
55.433310130268183
 20
-74.309283766357566
 11
73.933310130279978
 21
-74.309283766357566
  0
LINE
  8
0
  6
CONTINUOUS
 62
256
 10
55.433310130268183
 20
-81.046118221373263
 11
73.933310130279978
 21
-81.046118221373263
  0
LINE
  8
0
  6
CONTINUOUS
 62
256
 10
55.433310130268183
 20
-82.635328014112019
 11
73.933310130279978
 21
-82.635328014112019
  0
LINE
  8
0
  6
CONTINUOUS
 62
256
 10
55.433310130268183
 20
-85.593323622244952
 11
73.933310130279978
 21
-85.593323622244952
  0
LINE
  8
0
  6
CONTINUOUS
 62
256
 10
55.433310130268183
 20
-87.072346775722053
 11
73.933310130279978
 21
-87.072346775722053
  0
LINE
  8
0
  6
CONTINUOUS
 62
256
 10
55.433310130268183
 20
-90.165077767387288
 11
70.933310130280006
 21
-90.165077767387288
  0
LINE
  8
0
  6
CONTINUOUS
 62
256
 10
55.433310130268183
 20
-91.511479492885883
 11
70.933310130280006
 21
-91.511479492885883
  0
LINE
  8
0
  6
CONTINUOUS
 62
256
 10
55.433310130268183
 20
-94.349719172882033
 11
70.933310130280006
 21
-94.349719172882033
  0
LINE
  8
0
  6
CONTINUOUS
 62
256
 10
55.433310130268183
 20
-134.349719172882030
 11
73.933310130279978
 21
-134.349719172882030
  0
LINE
  8
0
  6
CONTINUOUS
 62
256
 10
55.433310130268183
 20
-137.187958852878180
 11
73.933310130279978
 21
-137.187958852878180
  0
LINE
  8
0
  6
CONTINUOUS
 62
256
 10
55.433310130268183
 20
-138.534360578376780
 11
73.933310130279978
 21
-138.534360578376780
  0
LINE
  8
0
  6
CONTINUOUS
 62
256
 10
55.433310130268183
 20
-141.627091570042010
 11
73.933310130279978
 21
-141.627091570042010
  0
LINE
  8
0
  6
CONTINUOUS
 62
256
 10
55.433310130268183
 20
-143.106114723519110
 11
73.933310130279978
 21
-143.106114723519110
  0
LINE
  8
0
  6
CONTINUOUS
 62
256
 10
55.433310130268183
 20
-146.064110331652050
 11
73.933310130279978
 21
-146.064110331652050
  0
LINE
  8
0
  6
CONTINUOUS
 62
256
 10
55.433310130268183
 20
-147.653320124390690
 11
73.933310130279978
 21
-147.653320124390690
  0
LINE
  8
0
  6
CONTINUOUS
 62
256
 10
55.433310130268183
 20
-158.854374699986920
 11
73.933310130279978
 21
-158.854374699986920
  0
LINE
  8
0
  6
CONTINUOUS
 62
256
 10
55.433310130268183
 20
-160.482801767764730
 11
73.933310130279978
 21
-160.482801767764730
  0
LINE
  8
0
  6
CONTINUOUS
 62
256
 10
55.433310130268183
 20
-164.849719172882030
 11
70.933310893219456
 21
-164.849719172882060
  0
LINE
  8
0
  6
CONTINUOUS
 62
256
 10
55.433310130268183
 20
-165.349719172882030
 11
70.933310893219456
 21
-165.349719172882060
  0
LINE
  8
0
  6
CONTINUOUS
 62
256
 10
55.433310130268183
 20
-155.391632943221680
 11
73.933310130279978
 21
-155.391632943221680
  0
LINE
  8
0
  6
CONTINUOUS
 62
256
 10
55.433310130268183
 20
-154.390154579406380
 11
73.933310130279978
 21
-154.390154579406380
  0
LINE
  8
0
  6
CONTINUOUS
 62
256
 10
-19.066689869731817
 20
-134.349719172882030
 11
54.433310130267955
 21
-134.349719172882030
  0
LINE
  8
0
  6
CONTINUOUS
 62
256
 10
-19.066689869731817
 20
-137.187958852878180
 11
54.433310130267955
 21
-137.187958852878180
  0
LINE
  8
0
  6
CONTINUOUS
 62
256
 10
-19.066689869731817
 20
-138.534360578376780
 11
54.433310130267955
 21
-138.534360578376780
  0
LINE
  8
0
  6
CONTINUOUS
 62
256
 10
-19.066689869731817
 20
-141.627091570042010
 11
54.433310130267955
 21
-141.627091570042010
  0
LINE
  8
0
  6
CONTINUOUS
 62
256
 10
-19.066689869731817
 20
-143.106114723519110
 11
54.433310130267955
 21
-143.106114723519110
  0
LINE
  8
0
  6
CONTINUOUS
 62
256
 10
54.433310130267955
 20
-166.849719172882030
 11
-86.066689869752963
 21
-166.849719172882030
  0
LINE
  8
0
  6
CONTINUOUS
 62
256
 10
-86.066689869752963
 20
-164.849719172882030
 11
54.433310130267955
 21
-164.849719172882030
  0
LINE
  8
0
  6
CONTINUOUS
 62
256
 10
-86.066689869752963
 20
-165.349719172882030
 11
54.433310130267955
 21
-165.349719172882030
  0
LINE
  8
0
  6
CONTINUOUS
 62
256
 10
-86.066689869752963
 20
-160.482801767764730
 11
54.433310130267955
 21
-160.482801767764730
  0
LINE
  8
0
  6
CONTINUOUS
 62
256
 10
-86.066689869752963
 20
-158.854374699986920
 11
54.433310130267955
 21
-158.854374699986920
  0
LINE
  8
0
  6
CONTINUOUS
 62
256
 10
-86.066689869752963
 20
-155.391632943221680
 11
54.433310130267955
 21
-155.391632943221680
  0
LINE
  8
0
  6
CONTINUOUS
 62
256
 10
-86.224290216124245
 20
-154.390154579406380
 11
54.433310130267955
 21
-154.390154579406380
  0
LINE
  8
0
  6
CONTINUOUS
 62
256
 10
-96.066689869752963
 20
-147.653320124390690
 11
54.433310130267955
 21
-147.653320124390690
  0
LINE
  8
0
  6
CONTINUOUS
 62
256
 10
-96.066689869752963
 20
-146.064110331652050
 11
54.433310130267955
 21
-146.064110331652050
  0
LINE
  8
0
  6
CONTINUOUS
 62
256
 10
54.433310130267955
 20
-61.849719172882033
 11
-86.066689869752963
 21
-61.849719172882033
  0
LINE
  8
0
  6
DASHDOT
 62
256
 10
93.033763273811473
 20
-114.349719172882030
 11
-150.469665203265780
 21
-114.349719172882030
  0
LINE
  8
0
  6
CONTINUOUS
 62
256
 10
-86.066689869752963
 20
-63.849719172882033
 11
54.433310130267955
 21
-63.849719172882033
  0
LINE
  8
0
  6
CONTINUOUS
 62
256
 10
-86.066689869752963
 20
-63.349719172881919
 11
54.433310130267955
 21
-63.349719172881919
  0
LINE
  8
0
  6
CONTINUOUS
 62
256
 10
-86.066689869752963
 20
-68.216636577999338
 11
54.433310130267955
 21
-68.216636577999338
  0
LINE
  8
0
  6
CONTINUOUS
 62
256
 10
-86.066689869752963
 20
-73.307805402542272
 11
54.433310130267955
 21
-73.307805402542272
  0
LINE
  8
0
  6
CONTINUOUS
 62
256
 10
-96.066689869752963
 20
-81.046118221373263
 11
54.433310130267955
 21
-81.046118221373263
  0
LINE
  8
0
  6
CONTINUOUS
 62
256
 10
-96.066689869752963
 20
-82.635328014112019
 11
54.433310130267955
 21
-82.635328014112019
  0
LINE
  8
0
  6
CONTINUOUS
 62
256
 10
-86.066689869752963
 20
-69.845063645777145
 11
54.433310130267955
 21
-69.845063645777145
  0
LINE
  8
0
  6
CONTINUOUS
 62
256
 10
-86.224290216124245
 20
-74.309283766357566
 11
54.433310130267955
 21
-74.309283766357566
  0
LINE
  8
0
  6
CONTINUOUS
 62
256
 10
-19.066689869731817
 20
-94.349719172882033
 11
54.433310130267955
 21
-94.349719172882033
  0
LINE
  8
0
  6
CONTINUOUS
 62
256
 10
-19.066689869731817
 20
-91.511479492885883
 11
54.433310130267955
 21
-91.511479492885883
  0
LINE
  8
0
  6
CONTINUOUS
 62
256
 10
-19.066689869731817
 20
-90.165077767387288
 11
54.433310130267955
 21
-90.165077767387288
  0
LINE
  8
0
  6
CONTINUOUS
 62
256
 10
-19.066689869731817
 20
-87.072346775722053
 11
54.433310130267955
 21
-87.072346775722053
  0
LINE
  8
0
  6
CONTINUOUS
 62
256
 10
-19.066689869731817
 20
-85.593323622244952
 11
54.433310130267955
 21
-85.593323622244952
  0
ARC
  8
0
  6
CONTINUOUS
 62
256
 10
-21.066689869731817
 20
-85.349719172882033
 40
1.000000000000000
 50
0.000000000000000
 51
90.000000000000000
  0
ARC
  8
0
  6
CONTINUOUS
 62
256
 10
-92.066689869731817
 20
-85.349719172882033
 40
1.000000000000000
 50
90.000000000000000
 51
180.000000000000000
  0
LINE
  8
0
  6
CONTINUOUS
 62
256
 10
-20.066689869731817
 20
-85.349719172882033
 11
-20.066689869731817
 21
-114.349719172882030
  0
LINE
  8
0
  6
CONTINUOUS
 62
256
 10
-93.066689869731817
 20
-114.349719172882030
 11
-93.066689869731817
 21
-85.349719172882033
  0
LINE
  8
0
  6
CONTINUOUS
 62
256
 10
-21.066689869731817
 20
-84.349719172882033
 11
-92.066689869731817
 21
-84.349719172882033
  0
LINE
  8
0
  6
CONTINUOUS
 62
256
 10
-96.066689869752963
 20
-91.511479492885883
 11
-94.066689869731817
 21
-91.511479492885883
  0
LINE
  8
0
  6
CONTINUOUS
 62
256
 10
-96.066689869752963
 20
-90.165077767387288
 11
-94.066689869731817
 21
-90.165077767387288
  0
LINE
  8
0
  6
CONTINUOUS
 62
256
 10
-96.066689869752963
 20
-87.072346775722053
 11
-94.066689869731817
 21
-87.072346775722053
  0
LINE
  8
0
  6
CONTINUOUS
 62
256
 10
-96.066689869752963
 20
-85.593323622244952
 11
-94.066689869731817
 21
-85.593323622244952
  0
LINE
  8
0
  6
CONTINUOUS
 62
256
 10
-96.066689869752963
 20
-94.349719172882033
 11
-94.066689869731817
 21
-94.349719172882033
  0
ARC
  8
0
  6
CONTINUOUS
 62
256
 10
-92.066689869731817
 20
-84.849719172882033
 40
2.000000000000000
 50
90.000000000000000
 51
180.000000000000000
  0
ARC
  8
0
  6
CONTINUOUS
 62
256
 10
-21.066689869731817
 20
-84.849719172882033
 40
2.000000000000000
 50
0.000000000000000
 51
90.000000000000000
  0
LINE
  8
0
  6
CONTINUOUS
 62
256
 10
-21.066689869731817
 20
-82.849719172882033
 11
-92.066689869731817
 21
-82.849719172882033
  0
LINE
  8
0
  6
CONTINUOUS
 62
256
 10
-19.066689869731817
 20
-114.349719172882030
 11
-19.066689869731817
 21
-84.849719172882033
  0
LINE
  8
0
  6
CONTINUOUS
 62
256
 10
-94.066689869731817
 20
-114.349719172882030
 11
-94.066689869731817
 21
-84.849719172882033
  0
LINE
  8
0
  6
CONTINUOUS
 62
256
 10
-86.066689869752963
 20
-60.349719172881805
 11
-115.571534818845980
 21
-60.349719172881805
  0
LINE
  8
0
  6
CONTINUOUS
 62
256
 10
-127.387209407677350
 20
-64.075187060528492
 11
-134.957988604266120
 21
-69.376303724101035
  0
LINE
  8
0
  6
CONTINUOUS
 62
256
 10
-136.066689869753190
 20
-71.506099039252490
 11
-136.066689869753190
 21
-114.349719172882030
  0
ARC
  8
0
  6
CONTINUOUS
 62
256
 10
-133.466689869753280
 20
-71.506099039252490
 40
2.600000000000131
 50
125.000000000001180
 51
180.000000000000000
  0
ARC
  8
0
  6
CONTINUOUS
 62
256
 10
-115.571534818845980
 20
-80.949719172881828
 40
20.600000000000023
 50
90.000000000000000
 51
124.999999999999600
  0
LINE
  8
0
  6
CONTINUOUS
 62
256
 10
-97.066689869753191
 20
-65.205798150156852
 11
-99.066689869752963
 21
-66.858439789280283
  0
LINE
  8
0
  6
CONTINUOUS
 62
256
 10
-95.066689869752963
 20
-64.030012664534070
 11
-97.066689869753191
 21
-65.205798150156852
  0
LINE
  8
0
  6
CONTINUOUS
 62
256
 10
-97.066689869753191
 20
-65.205798150156852
 11
-95.066689869752963
 21
-66.858439789280283
  0
LINE
  8
0
  6
CONTINUOUS
 62
256
 10
-99.066689869752963
 20
-64.030012664534070
 11
-97.066689869753191
 21
-65.205798150156852
  0
LINE
  8
0
  6
CONTINUOUS
 62
256
 10
-92.456999051857565
 20
-67.725345184734749
 11
-92.366689869752747
 21
-67.022388218534388
  0
LINE
  8
0
  6
CONTINUOUS
 62
256
 10
-92.724456066949699
 20
-68.401287908946841
 11
-92.456999051857565
 21
-67.725345184734749
  0
LINE
  8
0
  6
CONTINUOUS
 62
256
 10
-93.158782691930782
 20
-69.024240291352243
 11
-92.724456066949699
 21
-68.401287908946841
  0
LINE
  8
0
  6
CONTINUOUS
 62
256
 10
-93.743287998175973
 20
-69.570262621250819
 11
-93.158782691930782
 21
-69.024240291352243
  0
LINE
  8
0
  6
CONTINUOUS
 62
256
 10
-94.455509774560610
 20
-70.018371566717434
 11
-93.743287998175973
 21
-69.570262621250819
  0
LINE
  8
0
  6
CONTINUOUS
 62
256
 10
-95.268077737636816
 20
-70.351346552280205
 11
-94.455509774560610
 21
-70.018371566717434
  0
LINE
  8
0
  6
CONTINUOUS
 62
256
 10
-96.149765356276930
 20
-70.556391535978449
 11
-95.268077737636816
 21
-70.351346552280205
  0
LINE
  8
0
  6
CONTINUOUS
 62
256
 10
-97.066689869752736
 20
-70.625626754079221
 11
-96.149765356276930
 21
-70.556391535978449
  0
LINE
  8
0
  6
CONTINUOUS
 62
256
 10
-97.983614383228542
 20
-70.556391535978449
 11
-97.066689869752736
 21
-70.625626754079221
  0
LINE
  8
0
  6
CONTINUOUS
 62
256
 10
-98.865302001868656
 20
-70.351346552280205
 11
-97.983614383228542
 21
-70.556391535978449
  0
LINE
  8
0
  6
CONTINUOUS
 62
256
 10
-99.677869964944861
 20
-70.018371566717434
 11
-98.865302001868656
 21
-70.351346552280205
  0
LINE
  8
0
  6
CONTINUOUS
 62
256
 10
-100.390091741329480
 20
-69.570262621250819
 11
-99.677869964944861
 21
-70.018371566717434
  0
LINE
  8
0
  6
CONTINUOUS
 62
256
 10
-100.974597047574690
 20
-69.024240291352243
 11
-100.390091741329480
 21
-69.570262621250819
  0
LINE
  8
0
  6
CONTINUOUS
 62
256
 10
-101.408923672555770
 20
-68.401287908946841
 11
-100.974597047574690
 21
-69.024240291352243
  0
LINE
  8
0
  6
CONTINUOUS
 62
256
 10
-101.676380687647910
 20
-67.725345184734749
 11
-101.408923672555770
 21
-68.401287908946841
  0
LINE
  8
0
  6
CONTINUOUS
 62
256
 10
-101.766689869752720
 20
-67.022388218534388
 11
-101.676380687647910
 21
-67.725345184734749
  0
LINE
  8
0
  6
CONTINUOUS
 62
256
 10
-101.676380687647910
 20
-66.319431252334027
 11
-101.766689869752720
 21
-67.022388218534388
  0
LINE
  8
0
  6
CONTINUOUS
 62
256
 10
-101.408923672555770
 20
-65.643488528121935
 11
-101.676380687647910
 21
-66.319431252334027
  0
LINE
  8
0
  6
CONTINUOUS
 62
256
 10
-100.974597047574690
 20
-65.020536145716534
 11
-101.408923672555770
 21
-65.643488528121935
  0
LINE
  8
0
  6
CONTINUOUS
 62
256
 10
-100.390091741329480
 20
-64.474513815817957
 11
-100.974597047574690
 21
-65.020536145716534
  0
LINE
  8
0
  6
CONTINUOUS
 62
256
 10
-99.677869964944861
 20
-64.026404870351342
 11
-100.390091741329480
 21
-64.474513815817957
  0
LINE
  8
0
  6
CONTINUOUS
 62
256
 10
-98.865302001868656
 20
-63.693429884788578
 11
-99.677869964944861
 21
-64.026404870351342
  0
LINE
  8
0
  6
CONTINUOUS
 62
256
 10
-97.983614383228542
 20
-63.488384901090328
 11
-98.865302001868656
 21
-63.693429884788578
  0
LINE
  8
0
  6
CONTINUOUS
 62
256
 10
-97.066689869752736
 20
-63.419149682989556
 11
-97.983614383228542
 21
-63.488384901090328
  0
LINE
  8
0
  6
CONTINUOUS
 62
256
 10
-96.149765356276930
 20
-63.488384901090328
 11
-97.066689869752736
 21
-63.419149682989556
  0
LINE
  8
0
  6
CONTINUOUS
 62
256
 10
-95.268077737636816
 20
-63.693429884788578
 11
-96.149765356276930
 21
-63.488384901090328
  0
LINE
  8
0
  6
CONTINUOUS
 62
256
 10
-94.455509774560610
 20
-64.026404870351342
 11
-95.268077737636816
 21
-63.693429884788578
  0
LINE
  8
0
  6
CONTINUOUS
 62
256
 10
-93.743287998175973
 20
-64.474513815817957
 11
-94.455509774560610
 21
-64.026404870351342
  0
LINE
  8
0
  6
CONTINUOUS
 62
256
 10
-93.158782691930782
 20
-65.020536145716534
 11
-93.743287998175973
 21
-64.474513815817957
  0
LINE
  8
0
  6
CONTINUOUS
 62
256
 10
-92.724456066949699
 20
-65.643488528121935
 11
-93.158782691930782
 21
-65.020536145716534
  0
LINE
  8
0
  6
CONTINUOUS
 62
256
 10
-92.456999051857565
 20
-66.319431252334027
 11
-92.724456066949699
 21
-65.643488528121935
  0
LINE
  8
0
  6
CONTINUOUS
 62
256
 10
-92.366689869752747
 20
-67.022388218534388
 11
-92.456999051857565
 21
-66.319431252334027
  0
ARC
  8
0
  6
CONTINUOUS
 62
256
 10
-89.066689869752963
 20
-73.349719172882033
 40
3.000000000000000
 50
270.000000000000000
 51
0.000000000000000
  0
LINE
  8
0
  6
CONTINUOUS
 62
256
 10
-86.066689869752963
 20
-60.349719172881805
 11
-86.066689869752963
 21
-73.349719172882033
  0
ARC
  8
0
  6
CONTINUOUS
 62
256
 10
-93.066689869752963
 20
-79.349719172882033
 40
3.000000000000000
 50
90.000000000000000
 51
180.000000000000000
  0
LINE
  8
0
  6
CONTINUOUS
 62
256
 10
-89.066689869752963
 20
-76.349719172882033
 11
-93.066689869752963
 21
-76.349719172882033
  0
LINE
  8
0
  6
CONTINUOUS
 62
256
 10
-96.066689869752963
 20
-114.349719172882030
 11
-96.066689869752963
 21
-79.349719172882033
  0
LINE
  8
0
  6
CONTINUOUS
 62
256
 10
-20.066689869731817
 20
-143.349719172882030
 11
-20.066689869731817
 21
-114.349719172882030
  0
LINE
  8
0
  6
CONTINUOUS
 62
256
 10
-93.066689869731817
 20
-114.349719172882030
 11
-93.066689869731817
 21
-143.349719172882030
  0
LINE
  8
0
  6
CONTINUOUS
 62
256
 10
-127.387209407677350
 20
-164.624251285235460
 11
-134.957988604266120
 21
-159.323134621662920
  0
LINE
  8
0
  6
CONTINUOUS
 62
256
 10
-136.066689869753190
 20
-157.193339306511580
 11
-136.066689869753190
 21
-114.349719172882030
  0
ARC
  8
0
  6
CONTINUOUS
 62
256
 10
-133.466689869753280
 20
-157.193339306511580
 40
2.599999999999909
 50
180.000000000000000
 51
234.999999999997500
  0
ARC
  8
0
  6
CONTINUOUS
 62
256
 10
-115.571534818845980
 20
-147.749719172882240
 40
20.599999999999891
 50
235.000000000000400
 51
270.000000000000000
  0
LINE
  8
0
  6
CONTINUOUS
 62
256
 10
-86.066689869752963
 20
-168.349719172882260
 11
-115.571534818845980
 21
-168.349719172882260
  0
LINE
  8
0
  6
CONTINUOUS
 62
256
 10
-96.066689869752963
 20
-134.349719172882030
 11
-94.066689869731817
 21
-134.349719172882030
  0
LINE
  8
0
  6
CONTINUOUS
 62
256
 10
-96.066689869752963
 20
-137.187958852878180
 11
-94.066689869731817
 21
-137.187958852878180
  0
LINE
  8
0
  6
CONTINUOUS
 62
256
 10
-96.066689869752963
 20
-138.534360578376780
 11
-94.066689869731817
 21
-138.534360578376780
  0
LINE
  8
0
  6
CONTINUOUS
 62
256
 10
-96.066689869752963
 20
-141.627091570042010
 11
-94.066689869731817
 21
-141.627091570042010
  0
LINE
  8
0
  6
CONTINUOUS
 62
256
 10
-96.066689869752963
 20
-143.106114723519110
 11
-94.066689869731817
 21
-143.106114723519110
  0
LINE
  8
0
  6
CONTINUOUS
 62
256
 10
-97.066689869753191
 20
-163.493640195607100
 11
-99.066689869752963
 21
-161.840998556483780
  0
LINE
  8
0
  6
CONTINUOUS
 62
256
 10
-95.066689869752963
 20
-164.669425681230000
 11
-97.066689869753191
 21
-163.493640195607100
  0
LINE
  8
0
  6
CONTINUOUS
 62
256
 10
-97.066689869753191
 20
-163.493640195607100
 11
-95.066689869752963
 21
-161.840998556483780
  0
LINE
  8
0
  6
CONTINUOUS
 62
256
 10
-99.066689869752963
 20
-164.669425681230000
 11
-97.066689869753191
 21
-163.493640195607100
  0
LINE
  8
0
  6
CONTINUOUS
 62
256
 10
-92.456999051857565
 20
-162.380007093429920
 11
-92.366689869752747
 21
-161.677050127229560
  0
LINE
  8
0
  6
CONTINUOUS
 62
256
 10
-92.724456066949699
 20
-163.055949817642020
 11
-92.456999051857565
 21
-162.380007093429920
  0
LINE
  8
0
  6
CONTINUOUS
 62
256
 10
-93.158782691930782
 20
-163.678902200047420
 11
-92.724456066949699
 21
-163.055949817642020
  0
LINE
  8
0
  6
CONTINUOUS
 62
256
 10
-93.743287998175973
 20
-164.224924529946010
 11
-93.158782691930782
 21
-163.678902200047420
  0
LINE
  8
0
  6
CONTINUOUS
 62
256
 10
-94.455509774560610
 20
-164.673033475412640
 11
-93.743287998175973
 21
-164.224924529946010
  0
LINE
  8
0
  6
CONTINUOUS
 62
256
 10
-95.268077737636816
 20
-165.006008460975380
 11
-94.455509774560610
 21
-164.673033475412640
  0
LINE
  8
0
  6
CONTINUOUS
 62
256
 10
-96.149765356276930
 20
-165.211053444673640
 11
-95.268077737636816
 21
-165.006008460975380
  0
LINE
  8
0
  6
CONTINUOUS
 62
256
 10
-97.066689869752736
 20
-165.280288662774410
 11
-96.149765356276930
 21
-165.211053444673640
  0
LINE
  8
0
  6
CONTINUOUS
 62
256
 10
-97.983614383228542
 20
-165.211053444673640
 11
-97.066689869752736
 21
-165.280288662774410
  0
LINE
  8
0
  6
CONTINUOUS
 62
256
 10
-98.865302001868656
 20
-165.006008460975380
 11
-97.983614383228542
 21
-165.211053444673640
  0
LINE
  8
0
  6
CONTINUOUS
 62
256
 10
-99.677869964944861
 20
-164.673033475412640
 11
-98.865302001868656
 21
-165.006008460975380
  0
LINE
  8
0
  6
CONTINUOUS
 62
256
 10
-100.390091741329480
 20
-164.224924529946010
 11
-99.677869964944861
 21
-164.673033475412640
  0
LINE
  8
0
  6
CONTINUOUS
 62
256
 10
-100.974597047574690
 20
-163.678902200047420
 11
-100.390091741329480
 21
-164.224924529946010
  0
LINE
  8
0
  6
CONTINUOUS
 62
256
 10
-101.408923672555770
 20
-163.055949817642020
 11
-100.974597047574690
 21
-163.678902200047420
  0
LINE
  8
0
  6
CONTINUOUS
 62
256
 10
-101.676380687647910
 20
-162.380007093429920
 11
-101.408923672555770
 21
-163.055949817642020
  0
LINE
  8
0
  6
CONTINUOUS
 62
256
 10
-101.766689869752720
 20
-161.677050127229560
 11
-101.676380687647910
 21
-162.380007093429920
  0
LINE
  8
0
  6
CONTINUOUS
 62
256
 10
-101.676380687647910
 20
-160.974093161029200
 11
-101.766689869752720
 21
-161.677050127229560
  0
LINE
  8
0
  6
CONTINUOUS
 62
256
 10
-101.408923672555770
 20
-160.298150436817110
 11
-101.676380687647910
 21
-160.974093161029200
  0
LINE
  8
0
  6
CONTINUOUS
 62
256
 10
-100.974597047574690
 20
-159.675198054411710
 11
-101.408923672555770
 21
-160.298150436817110
  0
LINE
  8
0
  6
CONTINUOUS
 62
256
 10
-100.390091741329480
 20
-159.129175724513120
 11
-100.974597047574690
 21
-159.675198054411710
  0
LINE
  8
0
  6
CONTINUOUS
 62
256
 10
-99.677869964944861
 20
-158.681066779046490
 11
-100.390091741329480
 21
-159.129175724513120
  0
LINE
  8
0
  6
CONTINUOUS
 62
256
 10
-98.865302001868656
 20
-158.348091793483750
 11
-99.677869964944861
 21
-158.681066779046490
  0
LINE
  8
0
  6
CONTINUOUS
 62
256
 10
-97.983614383228542
 20
-158.143046809785490
 11
-98.865302001868656
 21
-158.348091793483750
  0
LINE
  8
0
  6
CONTINUOUS
 62
256
 10
-97.066689869752736
 20
-158.073811591684720
 11
-97.983614383228542
 21
-158.143046809785490
  0
LINE
  8
0
  6
CONTINUOUS
 62
256
 10
-96.149765356276930
 20
-158.143046809785490
 11
-97.066689869752736
 21
-158.073811591684720
  0
LINE
  8
0
  6
CONTINUOUS
 62
256
 10
-95.268077737636816
 20
-158.348091793483750
 11
-96.149765356276930
 21
-158.143046809785490
  0
LINE
  8
0
  6
CONTINUOUS
 62
256
 10
-94.455509774560610
 20
-158.681066779046490
 11
-95.268077737636816
 21
-158.348091793483750
  0
LINE
  8
0
  6
CONTINUOUS
 62
256
 10
-93.743287998175973
 20
-159.129175724513120
 11
-94.455509774560610
 21
-158.681066779046490
  0
LINE
  8
0
  6
CONTINUOUS
 62
256
 10
-93.158782691930782
 20
-159.675198054411710
 11
-93.743287998175973
 21
-159.129175724513120
  0
LINE
  8
0
  6
CONTINUOUS
 62
256
 10
-92.724456066949699
 20
-160.298150436817110
 11
-93.158782691930782
 21
-159.675198054411710
  0
LINE
  8
0
  6
CONTINUOUS
 62
256
 10
-92.456999051857565
 20
-160.974093161029200
 11
-92.724456066949699
 21
-160.298150436817110
  0
LINE
  8
0
  6
CONTINUOUS
 62
256
 10
-92.366689869752747
 20
-161.677050127229560
 11
-92.456999051857565
 21
-160.974093161029200
  0
ARC
  8
0
  6
CONTINUOUS
 62
256
 10
-89.066689869752963
 20
-155.349719172882030
 40
3.000000000000000
 50
0.000000000000000
 51
90.000000000000000
  0
LINE
  8
0
  6
CONTINUOUS
 62
256
 10
-86.066689869752963
 20
-168.349719172882260
 11
-86.066689869752963
 21
-155.349719172882030
  0
ARC
  8
0
  6
CONTINUOUS
 62
256
 10
-93.066689869752963
 20
-149.349719172882030
 40
3.000000000000000
 50
180.000000000000000
 51
270.000000000000000
  0
LINE
  8
0
  6
CONTINUOUS
 62
256
 10
-89.066689869752963
 20
-152.349719172882030
 11
-93.066689869752963
 21
-152.349719172882030
  0
LINE
  8
0
  6
CONTINUOUS
 62
256
 10
-96.066689869752963
 20
-114.349719172882030
 11
-96.066689869752963
 21
-149.349719172882030
  0
ARC
  8
0
  6
CONTINUOUS
 62
256
 10
-21.066689869731817
 20
-143.349719172882030
 40
1.000000000000000
 50
270.000000000000000
 51
0.000000000000000
  0
ARC
  8
0
  6
CONTINUOUS
 62
256
 10
-92.066689869731817
 20
-143.349719172882030
 40
1.000000000000000
 50
180.000000000000000
 51
270.000000000000000
  0
LINE
  8
0
  6
CONTINUOUS
 62
256
 10
-21.066689869731817
 20
-144.349719172882030
 11
-92.066689869731817
 21
-144.349719172882030
  0
ARC
  8
0
  6
CONTINUOUS
 62
256
 10
-92.066689869731817
 20
-143.849719172882030
 40
2.000000000000000
 50
180.000000000000000
 51
270.000000000000000
  0
ARC
  8
0
  6
CONTINUOUS
 62
256
 10
-21.066689869731817
 20
-143.849719172882030
 40
2.000000000000000
 50
270.000000000000000
 51
0.000000000000000
  0
LINE
  8
0
  6
CONTINUOUS
 62
256
 10
-21.066689869731817
 20
-145.849719172882030
 11
-92.066689869731817
 21
-145.849719172882030
  0
LINE
  8
0
  6
CONTINUOUS
 62
256
 10
-19.066689869731817
 20
-114.349719172882030
 11
-19.066689869731817
 21
-143.849719172882030
  0
LINE
  8
0
  6
CONTINUOUS
 62
256
 10
-94.066689869731817
 20
-114.349719172882030
 11
-94.066689869731817
 21
-143.849719172882030
  0
LINE
  8
0
  6
DASHED
 62
256
 10
-74.566689869719767
 20
30.102571607130926
 11
-74.566689869719767
 21
44.602571607130926
  0
LINE
  8
0
  6
DASHED
 62
256
 10
-88.566689869719767
 20
30.102571607130926
 11
-88.566689869719767
 21
44.602571607130926
  0
ARC
  8
0
  6
DASHED
 62
256
 10
-81.566689869719767
 20
30.102571607130926
 40
7.000000000000000
 50
180.000000000000000
 51
0.000000000000000
  0
LINE
  8
0
  6
DASHED
 62
256
 10
-24.566689869719767
 20
30.102571607130926
 11
-24.566689869719767
 21
44.602571607130926
  0
LINE
  8
0
  6
DASHED
 62
256
 10
-38.566689869719767
 20
30.102571607130926
 11
-38.566689869719767
 21
44.602571607130926
  0
ARC
  8
0
  6
DASHED
 62
256
 10
-31.566689869719767
 20
30.102571607130926
 40
7.000000000000000
 50
180.000000000000000
 51
0.000000000000000
  0
CIRCLE
  8
0
  6
DASHED
 62
256
 10
-31.566689869719767
 20
30.102571607130926
 40
6.000000000000000
  0
LINE
  8
0
  6
DASHDOT
 62
256
 10
-31.566689869719767
 20
21.158414349454802
 11
-31.566689869719767
 21
43.137916481990146
  0
LINE
  8
0
  6
DASHDOT
 62
256
 10
-42.850219285446428
 20
30.102571607130926
 11
-21.083241876918123
 21
30.102571607130926
  0
LINE
  8
0
  6
DASHDOT
 62
256
 10
-81.566689869719767
 20
21.158414349454802
 11
-81.566689869719767
 21
42.706903329986858
  0
LINE
  8
0
  6
DASHDOT
 62
256
 10
-90.652378976303339
 20
30.102571607130926
 11
-70.165790742594027
 21
30.102571607130926
  0
LINE
  8
0
  6
DASHDOT
 62
256
 10
171.976895425665130
 20
102.102571607130810
 11
-155.428824146388480
 21
102.102571607130810
  0
ARC
  8
0
  6
CONTINUOUS
 62
256
 10
39.433310130280006
 20
179.105441227711710
 40
2.000000000000000
 50
270.000000000000000
 51
0.000000000000000
  0
ARC
  8
0
  6
CONTINUOUS
 62
256
 10
39.433310130280006
 20
179.904443098830600
 40
2.000000000000000
 50
270.000000000000000
 51
0.000000000000000
  0
ARC
  8
0
  6
CONTINUOUS
 62
256
 10
39.433310130280006
 20
180.703444969915840
 40
2.000000000000000
 50
270.000000000000000
 51
0.000000000000000
  0
ARC
  8
0
  6
CONTINUOUS
 62
256
 10
39.433310130280006
 20
181.797081898193030
 40
2.000000000000000
 50
0.000000000000000
 51
90.000000000000000
  0
LINE
  8
0
  6
CONTINUOUS
 62
256
 10
38.433310130280006
 20
183.797081898193030
 11
39.433310130280006
 21
183.797081898193030
  0
LINE
  8
0
  6
CONTINUOUS
 62
256
 10
39.433310130280006
 20
177.105441227711710
 11
-86.566689869719994
 21
177.105441227711710
  0
LINE
  8
0
  6
CONTINUOUS
 62
256
 10
39.433310130280006
 20
177.904443098813770
 11
-86.566689869719994
 21
177.904443098813770
  0
LINE
  8
0
  6
CONTINUOUS
 62
256
 10
41.433310130280006
 20
181.797081898193030
 11
41.433310130280006
 21
179.105441227711710
  0
LINE
  8
0
  6
CONTINUOUS
 62
256
 10
38.433310130280006
 20
165.602571607130810
 11
38.433310130280006
 21
176.904443098830600
  0
LINE
  8
0
  6
CONTINUOUS
 62
256
 10
-80.566689869719994
 20
202.202571607130720
 11
33.433310130280006
 21
202.202571607130720
  0
ARC
  8
0
  6
CONTINUOUS
 62
256
 10
33.433310130280006
 20
197.202571607130720
 40
5.000000000000000
 50
0.000000000000000
 51
90.000000000000000
  0
LINE
  8
0
  6
CONTINUOUS
 62
256
 10
-85.566689869719994
 20
165.602571607130810
 11
-85.566689869719994
 21
177.105441227711710
  0
ARC
  8
0
  6
CONTINUOUS
 62
256
 10
-86.566689869719994
 20
179.105441227711710
 40
2.000000000000000
 50
180.000000000000000
 51
270.000000000000000
  0
LINE
  8
0
  6
CONTINUOUS
 62
256
 10
-88.566689869719994
 20
181.797081898193030
 11
-88.566689869719994
 21
179.105441227711710
  0
ARC
  8
0
  6
CONTINUOUS
 62
256
 10
-86.566689869719994
 20
179.904443098830600
 40
2.000000000000000
 50
180.000000000000000
 51
270.000000000000000
  0
ARC
  8
0
  6
CONTINUOUS
 62
256
 10
-86.566689869719994
 20
180.703444969915840
 40
2.000000000000000
 50
180.000000000000000
 51
270.000000000000000
  0
ARC
  8
0
  6
CONTINUOUS
 62
256
 10
-86.566689869719994
 20
181.797081898193030
 40
2.000000000000000
 50
90.000000000000000
 51
180.000000000000000
  0
ARC
  8
0
  6
CONTINUOUS
 62
256
 10
-80.566689869719994
 20
197.202571607130720
 40
5.000000000000000
 50
90.000000000000000
 51
180.000000000000000
  0
ARC
  8
0
  6
CONTINUOUS
 62
256
 10
-80.566689869719994
 20
165.602571607130810
 40
5.000000000000000
 50
180.000000000000000
 51
270.000000000000000
  0
LINE
  8
0
  6
CONTINUOUS
 62
256
 10
39.433310130280006
 20
178.703444969915840
 11
-86.566689869719994
 21
178.703444969915840
  0
LINE
  8
0
  6
CONTINUOUS
 62
256
 10
-85.566689869719994
 20
183.797081898193030
 11
-86.566689869719994
 21
183.797081898193030
  0
LINE
  8
0
  6
CONTINUOUS
 62
256
 10
-85.566689869719994
 20
184.263596666817650
 11
-85.566689869719994
 21
197.202571607130720
  0
ARC
  8
0
  6
CONTINUOUS
 62
256
 10
33.433310130280006
 20
165.602571607130810
 40
5.000000000000000
 50
270.000000000000000
 51
0.000000000000000
  0
LINE
  8
0
  6
CONTINUOUS
 62
256
 10
38.433310130280006
 20
184.263596666817650
 11
38.433310130280006
 21
197.202571607130720
  0
LINE
  8
0
  6
CONTINUOUS
 62
256
 10
-75.133941388308685
 20
178.919034844439610
 11
-75.066689869719994
 21
178.953133054635600
  0
LINE
  8
0
  6
CONTINUOUS
 62
256
 10
-75.333111505930489
 20
178.886247009338970
 11
-75.133941388308685
 21
178.919034844439610
  0
LINE
  8
0
  6
CONTINUOUS
 62
256
 10
-75.656546226661092
 20
178.856029567448960
 11
-75.333111505930489
 21
178.886247009338970
  0
LINE
  8
0
  6
CONTINUOUS
 62
256
 10
-76.091816135567086
 20
178.829543758115250
 11
-75.656546226661092
 21
178.856029567448960
  0
LINE
  8
0
  6
CONTINUOUS
 62
256
 10
-76.622194054151393
 20
178.807807416137170
 11
-76.091816135567086
 21
178.829543758115250
  0
LINE
  8
0
  6
CONTINUOUS
 62
256
 10
-77.227297856442178
 20
178.791655856946990
 11
-76.622194054151393
 21
178.807807416137170
  0
LINE
  8
0
  6
CONTINUOUS
 62
256
 10
-77.883873742663553
 20
178.781709775906530
 11
-77.227297856442178
 21
178.791655856946990
  0
LINE
  8
0
  6
CONTINUOUS
 62
256
 10
-78.566689869719994
 20
178.778351395332380
 11
-77.883873742663553
 21
178.781709775906530
  0
LINE
  8
0
  6
CONTINUOUS
 62
256
 10
-79.249505996776449
 20
178.781709775906530
 11
-78.566689869719994
 21
178.778351395332380
  0
LINE
  8
0
  6
CONTINUOUS
 62
256
 10
-79.906081882997810
 20
178.791655856946990
 11
-79.249505996776449
 21
178.781709775906530
  0
LINE
  8
0
  6
CONTINUOUS
 62
256
 10
-80.511185685288609
 20
178.807807416137170
 11
-79.906081882997810
 21
178.791655856946990
  0
LINE
  8
0
  6
CONTINUOUS
 62
256
 10
-81.041563603872916
 20
178.829543758115250
 11
-80.511185685288609
 21
178.807807416137170
  0
LINE
  8
0
  6
CONTINUOUS
 62
256
 10
-81.476833512778896
 20
178.856029567448960
 11
-81.041563603872916
 21
178.829543758115250
  0
LINE
  8
0
  6
CONTINUOUS
 62
256
 10
-81.800268233509499
 20
178.886247009338970
 11
-81.476833512778896
 21
178.856029567448960
  0
LINE
  8
0
  6
CONTINUOUS
 62
256
 10
-81.999438351131303
 20
178.919034844439610
 11
-81.800268233509499
 21
178.886247009338970
  0
LINE
  8
0
  6
CONTINUOUS
 62
256
 10
-82.066689869719994
 20
178.953133054635600
 11
-81.999438351131303
 21
178.919034844439610
  0
ARC
  8
0
  6
CONTINUOUS
 62
256
 10
-76.366689869720176
 20
179.940142792559980
 40
1.300000000000182
 50
0.000000000000000
 51
73.398450400977964
  0
ARC
  8
0
  6
CONTINUOUS
 62
256
 10
-78.566689869719994
 20
172.561118466810510
 40
9.000000000000123
 50
73.398450400980863
 51
106.601549599019150
  0
ARC
  8
0
  6
CONTINUOUS
 62
256
 10
-80.766689869719812
 20
179.940142792559980
 40
1.300000000000019
 50
106.601549599022380
 51
180.000000000000000
  0
LINE
  8
0
  6
CONTINUOUS
 62
256
 10
-75.066689869719994
 20
179.940142792559980
 11
-75.066689869719994
 21
178.953133054635600
  0
LINE
  8
0
  6
CONTINUOUS
 62
256
 10
-82.066689869719994
 20
179.940142792559980
 11
-82.066689869719994
 21
178.953133054635600
  0
ARC
  8
0
  6
CONTINUOUS
 62
256
 10
-80.566689869719994
 20
184.263596666817650
 40
5.000000000000000
 50
180.000000000000000
 51
252.542396876278100
  0
LINE
  8
0
  6
CONTINUOUS
 62
256
 10
-85.566689869719994
 20
160.602571607130810
 11
38.433310130280006
 21
160.602571607130810
  0
LINE
  8
0
  6
DASHDOT
 62
256
 10
38.433310130280006
 20
155.602571607130810
 11
38.433310130280006
 21
160.602571607130810
  0
LINE
  8
0
  6
DASHDOT
 62
256
 10
38.433310130280006
 20
155.602571607130810
 11
38.433310130280006
 21
160.602571607130810
  0
LINE
  8
0
  6
CONTINUOUS
 62
256
 10
-85.566689869719994
 20
155.602571607130810
 11
-85.566689869719994
 21
160.602571607130810
  0
LINE
  8
0
  6
CONTINUOUS
 62
256
 10
27.933310130280006
 20
179.940142792559980
 11
27.933310130280006
 21
178.953133054635600
  0
LINE
  8
0
  6
CONTINUOUS
 62
256
 10
34.866058611691308
 20
178.919034844439610
 11
34.933310130280006
 21
178.953133054635600
  0
LINE
  8
0
  6
CONTINUOUS
 62
256
 10
34.666888494069511
 20
178.886247009338970
 11
34.866058611691308
 21
178.919034844439610
  0
LINE
  8
0
  6
CONTINUOUS
 62
256
 10
34.343453773338915
 20
178.856029567448960
 11
34.666888494069511
 21
178.886247009338970
  0
LINE
  8
0
  6
CONTINUOUS
 62
256
 10
33.908183864432921
 20
178.829543758115250
 11
34.343453773338915
 21
178.856029567448960
  0
LINE
  8
0
  6
CONTINUOUS
 62
256
 10
33.377805945848614
 20
178.807807416137170
 11
33.908183864432921
 21
178.829543758115250
  0
LINE
  8
0
  6
CONTINUOUS
 62
256
 10
32.772702143557822
 20
178.791655856946990
 11
33.377805945848614
 21
178.807807416137170
  0
LINE
  8
0
  6
CONTINUOUS
 62
256
 10
32.116126257336454
 20
178.781709775906530
 11
32.772702143557822
 21
178.791655856946990
  0
LINE
  8
0
  6
CONTINUOUS
 62
256
 10
31.433310130280006
 20
178.778351395332380
 11
32.116126257336454
 21
178.781709775906530
  0
LINE
  8
0
  6
CONTINUOUS
 62
256
 10
30.750494003223558
 20
178.781709775906530
 11
31.433310130280006
 21
178.778351395332380
  0
LINE
  8
0
  6
CONTINUOUS
 62
256
 10
30.093918117002190
 20
178.791655856946990
 11
30.750494003223558
 21
178.781709775906530
  0
LINE
  8
0
  6
CONTINUOUS
 62
256
 10
29.488814314711398
 20
178.807807416137170
 11
30.093918117002190
 21
178.791655856946990
  0
LINE
  8
0
  6
CONTINUOUS
 62
256
 10
28.958436396127091
 20
178.829543758115250
 11
29.488814314711398
 21
178.807807416137170
  0
LINE
  8
0
  6
CONTINUOUS
 62
256
 10
28.523166487221097
 20
178.856029567448960
 11
28.958436396127091
 21
178.829543758115250
  0
LINE
  8
0
  6
CONTINUOUS
 62
256
 10
28.199731766490501
 20
178.886247009338970
 11
28.523166487221097
 21
178.856029567448960
  0
LINE
  8
0
  6
CONTINUOUS
 62
256
 10
28.000561648868700
 20
178.919034844439610
 11
28.199731766490501
 21
178.886247009338970
  0
LINE
  8
0
  6
CONTINUOUS
 62
256
 10
27.933310130280006
 20
178.953133054635600
 11
28.000561648868700
 21
178.919034844439610
  0
LINE
  8
0
  6
CONTINUOUS
 62
256
 10
34.933310130280006
 20
179.940142792559980
 11
34.933310130280006
 21
178.953133054635600
  0
ARC
  8
0
  6
CONTINUOUS
 62
256
 10
29.233310130280188
 20
179.940142792559980
 40
1.300000000000019
 50
106.601549599022380
 51
180.000000000000000
  0
ARC
  8
0
  6
CONTINUOUS
 62
256
 10
31.433310130280006
 20
172.561118466810510
 40
9.000000000000123
 50
73.398450400980863
 51
106.601549599019120
  0
ARC
  8
0
  6
CONTINUOUS
 62
256
 10
33.633310130279824
 20
179.940142792559980
 40
1.300000000000182
 50
0.000000000000000
 51
73.398450400977680
  0
ARC
  8
0
  6
CONTINUOUS
 62
256
 10
33.433310130280006
 20
184.263596666817650
 40
5.000000000000074
 50
287.457603123721870
 51
0.000000000000000
  0
LINE
  8
0
  6
CONTINUOUS
 62
256
 10
27.933310130280006
 20
179.263596666817650
 11
-75.066689869719994
 21
179.263596666817650
  0
LINE
  8
0
  6
CONTINUOUS
 62
256
 10
-94.066689869719767
 20
44.602571607130812
 11
-19.066689869719767
 21
44.602571607130812
  0
LINE
  8
0
  6
CONTINUOUS
 62
256
 10
-19.066689869719767
 20
44.602571607130812
 11
-19.066689869719767
 21
49.602571607130926
  0
LINE
  8
0
  6
CONTINUOUS
 62
256
 10
-20.066689869719767
 20
16.102571607130812
 11
-20.066689869719767
 21
44.602571607130812
  0
LINE
  8
0
  6
CONTINUOUS
 62
256
 10
-93.066689869719767
 20
16.102571607130812
 11
-93.066689869719767
 21
44.602571607130812
  0
ARC
  8
0
  6
CONTINUOUS
 62
256
 10
-92.066689869719767
 20
16.102571607130812
 40
1.000000000000000
 50
180.000000000000000
 51
270.000000000000000
  0
ARC
  8
0
  6
CONTINUOUS
 62
256
 10
-21.066689869719767
 20
16.102571607130812
 40
1.000000000000000
 50
270.000000000000000
 51
0.000000000000000
  0
LINE
  8
0
  6
CONTINUOUS
 62
256
 10
-27.066689869719767
 20
14.602571607130812
 11
-27.066689869719767
 21
15.102571607130812
  0
LINE
  8
0
  6
CONTINUOUS
 62
256
 10
-35.066689869719767
 20
14.602571607130812
 11
-27.066689869719767
 21
14.602571607130812
  0
LINE
  8
0
  6
CONTINUOUS
 62
256
 10
-35.066689869719767
 20
14.602571607130812
 11
-35.066689869719767
 21
15.102571607130812
  0
LINE
  8
0
  6
CONTINUOUS
 62
256
 10
-21.066689869719767
 20
15.102571607130812
 11
-92.066689869719767
 21
15.102571607130812
  0
LINE
  8
0
  6
CONTINUOUS
 62
256
 10
-86.066689869741140
 20
50.762875246321869
 11
-86.066689869740912
 21
102.102571607130810
  0
ARC
  8
0
  6
CONTINUOUS
 62
256
 10
-89.066689869741140
 20
50.762875246321869
 40
3.000000000000000
 50
270.000000000000000
 51
0.000000000000000
  0
LINE
  8
0
  6
CONTINUOUS
 62
256
 10
-93.066689869741140
 20
47.762875246321869
 11
-89.066689869741140
 21
47.762875246321869
  0
LINE
  8
0
  6
CONTINUOUS
 62
256
 10
-92.456999051845742
 20
54.072283686582921
 11
-92.366689869740924
 21
54.775240652783282
  0
LINE
  8
0
  6
CONTINUOUS
 62
256
 10
-92.724456066937876
 20
53.396340962370829
 11
-92.456999051845742
 21
54.072283686582921
  0
LINE
  8
0
  6
CONTINUOUS
 62
256
 10
-93.158782691918958
 20
52.773388579965427
 11
-92.724456066937876
 21
53.396340962370829
  0
LINE
  8
0
  6
CONTINUOUS
 62
256
 10
-93.743287998164149
 20
52.227366250066851
 11
-93.158782691918958
 21
52.773388579965427
  0
LINE
  8
0
  6
CONTINUOUS
 62
256
 10
-94.455509774548787
 20
51.779257304600229
 11
-93.743287998164149
 21
52.227366250066851
  0
LINE
  8
0
  6
CONTINUOUS
 62
256
 10
-95.268077737624992
 20
51.446282319037472
 11
-94.455509774548787
 21
51.779257304600229
  0
LINE
  8
0
  6
CONTINUOUS
 62
256
 10
-96.149765356265107
 20
51.241237335339221
 11
-95.268077737624992
 21
51.446282319037472
  0
LINE
  8
0
  6
CONTINUOUS
 62
256
 10
-97.066689869740912
 20
51.172002117238449
 11
-96.149765356265107
 21
51.241237335339221
  0
LINE
  8
0
  6
CONTINUOUS
 62
256
 10
-97.983614383216718
 20
51.241237335339221
 11
-97.066689869740912
 21
51.172002117238449
  0
LINE
  8
0
  6
CONTINUOUS
 62
256
 10
-98.865302001856833
 20
51.446282319037472
 11
-97.983614383216718
 21
51.241237335339221
  0
LINE
  8
0
  6
CONTINUOUS
 62
256
 10
-99.677869964933038
 20
51.779257304600229
 11
-98.865302001856833
 21
51.446282319037472
  0
LINE
  8
0
  6
CONTINUOUS
 62
256
 10
-100.390091741317680
 20
52.227366250066851
 11
-99.677869964933038
 21
51.779257304600229
  0
LINE
  8
0
  6
CONTINUOUS
 62
256
 10
-100.974597047562870
 20
52.773388579965427
 11
-100.390091741317680
 21
52.227366250066851
  0
LINE
  8
0
  6
CONTINUOUS
 62
256
 10
-101.408923672543930
 20
53.396340962370829
 11
-100.974597047562870
 21
52.773388579965427
  0
LINE
  8
0
  6
CONTINUOUS
 62
256
 10
-101.676380687636080
 20
54.072283686582921
 11
-101.408923672543930
 21
53.396340962370829
  0
LINE
  8
0
  6
CONTINUOUS
 62
256
 10
-101.766689869740900
 20
54.775240652783282
 11
-101.676380687636080
 21
54.072283686582921
  0
LINE
  8
0
  6
CONTINUOUS
 62
256
 10
-101.676380687636080
 20
55.478197618983643
 11
-101.766689869740900
 21
54.775240652783282
  0
LINE
  8
0
  6
CONTINUOUS
 62
256
 10
-101.408923672543930
 20
56.154140343195735
 11
-101.676380687636080
 21
55.478197618983643
  0
LINE
  8
0
  6
CONTINUOUS
 62
256
 10
-100.974597047562870
 20
56.777092725601136
 11
-101.408923672543930
 21
56.154140343195735
  0
LINE
  8
0
  6
CONTINUOUS
 62
256
 10
-100.390091741317680
 20
57.323115055499720
 11
-100.974597047562870
 21
56.777092725601136
  0
LINE
  8
0
  6
CONTINUOUS
 62
256
 10
-99.677869964933038
 20
57.771224000966335
 11
-100.390091741317680
 21
57.323115055499720
  0
LINE
  8
0
  6
CONTINUOUS
 62
256
 10
-98.865302001856833
 20
58.104198986529092
 11
-99.677869964933038
 21
57.771224000966335
  0
LINE
  8
0
  6
CONTINUOUS
 62
256
 10
-97.983614383216718
 20
58.309243970227342
 11
-98.865302001856833
 21
58.104198986529092
  0
LINE
  8
0
  6
CONTINUOUS
 62
256
 10
-97.066689869740912
 20
58.378479188328114
 11
-97.983614383216718
 21
58.309243970227342
  0
LINE
  8
0
  6
CONTINUOUS
 62
256
 10
-96.149765356265107
 20
58.309243970227342
 11
-97.066689869740912
 21
58.378479188328114
  0
LINE
  8
0
  6
CONTINUOUS
 62
256
 10
-95.268077737624992
 20
58.104198986529092
 11
-96.149765356265107
 21
58.309243970227342
  0
LINE
  8
0
  6
CONTINUOUS
 62
256
 10
-94.455509774548787
 20
57.771224000966335
 11
-95.268077737624992
 21
58.104198986529092
  0
LINE
  8
0
  6
CONTINUOUS
 62
256
 10
-93.743287998164149
 20
57.323115055499720
 11
-94.455509774548787
 21
57.771224000966335
  0
LINE
  8
0
  6
CONTINUOUS
 62
256
 10
-93.158782691918958
 20
56.777092725601136
 11
-93.743287998164149
 21
57.323115055499720
  0
LINE
  8
0
  6
CONTINUOUS
 62
256
 10
-92.724456066937876
 20
56.154140343195735
 11
-93.158782691918958
 21
56.777092725601136
  0
LINE
  8
0
  6
CONTINUOUS
 62
256
 10
-92.456999051845742
 20
55.478197618983643
 11
-92.724456066937876
 21
56.154140343195735
  0
LINE
  8
0
  6
CONTINUOUS
 62
256
 10
-92.366689869740924
 20
54.775240652783282
 11
-92.456999051845742
 21
55.478197618983643
  0
LINE
  8
0
  6
CONTINUOUS
 62
256
 10
-99.066689869741140
 20
51.782865098782850
 11
-97.066689869741140
 21
52.958650584405746
  0
LINE
  8
0
  6
CONTINUOUS
 62
256
 10
-97.066689869741140
 20
52.958650584405746
 11
-95.066689869741140
 21
54.611292223529063
  0
LINE
  8
0
  6
CONTINUOUS
 62
256
 10
-95.066689869741140
 20
51.782865098782850
 11
-97.066689869741140
 21
52.958650584405746
  0
LINE
  8
0
  6
CONTINUOUS
 62
256
 10
-97.066689869741140
 20
52.958650584405746
 11
-99.066689869741140
 21
54.611292223529063
  0
ARC
  8
0
  6
CONTINUOUS
 62
256
 10
-93.066689869741140
 20
44.762875246321869
 40
3.000000000000000
 50
90.000000000000000
 51
180.000000000000000
  0
LINE
  8
0
  6
CONTINUOUS
 62
256
 10
-96.066689869741140
 20
43.102571607130812
 11
-96.066689869741140
 21
44.762875246321869
  0
LINE
  8
0
  6
CONTINUOUS
 62
256
 10
-86.066689869741140
 20
161.102571607130810
 11
-86.066689869740912
 21
102.102571607130810
  0
LINE
  8
0
  6
CONTINUOUS
 62
256
 10
-92.456999051845742
 20
148.726945595277980
 11
-92.366689869740924
 21
149.429902561478340
  0
LINE
  8
0
  6
CONTINUOUS
 62
256
 10
-92.724456066937876
 20
148.051002871065890
 11
-92.456999051845742
 21
148.726945595277980
  0
LINE
  8
0
  6
CONTINUOUS
 62
256
 10
-93.158782691918958
 20
147.428050488660490
 11
-92.724456066937876
 21
148.051002871065890
  0
LINE
  8
0
  6
CONTINUOUS
 62
256
 10
-93.743287998164149
 20
146.882028158761900
 11
-93.158782691918958
 21
147.428050488660490
  0
LINE
  8
0
  6
CONTINUOUS
 62
256
 10
-94.455509774548787
 20
146.433919213295270
 11
-93.743287998164149
 21
146.882028158761900
  0
LINE
  8
0
  6
CONTINUOUS
 62
256
 10
-95.268077737624992
 20
146.100944227732530
 11
-94.455509774548787
 21
146.433919213295270
  0
LINE
  8
0
  6
CONTINUOUS
 62
256
 10
-96.149765356265107
 20
145.895899244034270
 11
-95.268077737624992
 21
146.100944227732530
  0
LINE
  8
0
  6
CONTINUOUS
 62
256
 10
-97.066689869740912
 20
145.826664025933500
 11
-96.149765356265107
 21
145.895899244034270
  0
LINE
  8
0
  6
CONTINUOUS
 62
256
 10
-97.983614383216718
 20
145.895899244034270
 11
-97.066689869740912
 21
145.826664025933500
  0
LINE
  8
0
  6
CONTINUOUS
 62
256
 10
-98.865302001856833
 20
146.100944227732530
 11
-97.983614383216718
 21
145.895899244034270
  0
LINE
  8
0
  6
CONTINUOUS
 62
256
 10
-99.677869964933038
 20
146.433919213295270
 11
-98.865302001856833
 21
146.100944227732530
  0
LINE
  8
0
  6
CONTINUOUS
 62
256
 10
-100.390091741317680
 20
146.882028158761900
 11
-99.677869964933038
 21
146.433919213295270
  0
LINE
  8
0
  6
CONTINUOUS
 62
256
 10
-100.974597047562870
 20
147.428050488660490
 11
-100.390091741317680
 21
146.882028158761900
  0
LINE
  8
0
  6
CONTINUOUS
 62
256
 10
-101.408923672543930
 20
148.051002871065890
 11
-100.974597047562870
 21
147.428050488660490
  0
LINE
  8
0
  6
CONTINUOUS
 62
256
 10
-101.676380687636080
 20
148.726945595277980
 11
-101.408923672543930
 21
148.051002871065890
  0
LINE
  8
0
  6
CONTINUOUS
 62
256
 10
-101.766689869740900
 20
149.429902561478340
 11
-101.676380687636080
 21
148.726945595277980
  0
LINE
  8
0
  6
CONTINUOUS
 62
256
 10
-101.676380687636080
 20
150.132859527678700
 11
-101.766689869740900
 21
149.429902561478340
  0
LINE
  8
0
  6
CONTINUOUS
 62
256
 10
-101.408923672543930
 20
150.808802251890800
 11
-101.676380687636080
 21
150.132859527678700
  0
LINE
  8
0
  6
CONTINUOUS
 62
256
 10
-100.974597047562870
 20
151.431754634296200
 11
-101.408923672543930
 21
150.808802251890800
  0
LINE
  8
0
  6
CONTINUOUS
 62
256
 10
-100.390091741317680
 20
151.977776964194790
 11
-100.974597047562870
 21
151.431754634296200
  0
LINE
  8
0
  6
CONTINUOUS
 62
256
 10
-99.677869964933038
 20
152.425885909661420
 11
-100.390091741317680
 21
151.977776964194790
  0
LINE
  8
0
  6
CONTINUOUS
 62
256
 10
-98.865302001856833
 20
152.758860895224160
 11
-99.677869964933038
 21
152.425885909661420
  0
LINE
  8
0
  6
CONTINUOUS
 62
256
 10
-97.983614383216718
 20
152.963905878922420
 11
-98.865302001856833
 21
152.758860895224160
  0
LINE
  8
0
  6
CONTINUOUS
 62
256
 10
-97.066689869740912
 20
153.033141097023190
 11
-97.983614383216718
 21
152.963905878922420
  0
LINE
  8
0
  6
CONTINUOUS
 62
256
 10
-96.149765356265107
 20
152.963905878922420
 11
-97.066689869740912
 21
153.033141097023190
  0
LINE
  8
0
  6
CONTINUOUS
 62
256
 10
-95.268077737624992
 20
152.758860895224160
 11
-96.149765356265107
 21
152.963905878922420
  0
LINE
  8
0
  6
CONTINUOUS
 62
256
 10
-94.455509774548787
 20
152.425885909661420
 11
-95.268077737624992
 21
152.758860895224160
  0
LINE
  8
0
  6
CONTINUOUS
 62
256
 10
-93.743287998164149
 20
151.977776964194790
 11
-94.455509774548787
 21
152.425885909661420
  0
LINE
  8
0
  6
CONTINUOUS
 62
256
 10
-93.158782691918958
 20
151.431754634296200
 11
-93.743287998164149
 21
151.977776964194790
  0
LINE
  8
0
  6
CONTINUOUS
 62
256
 10
-92.724456066937876
 20
150.808802251890800
 11
-93.158782691918958
 21
151.431754634296200
  0
LINE
  8
0
  6
CONTINUOUS
 62
256
 10
-92.456999051845742
 20
150.132859527678700
 11
-92.724456066937876
 21
150.808802251890800
  0
LINE
  8
0
  6
CONTINUOUS
 62
256
 10
-92.366689869740924
 20
149.429902561478340
 11
-92.456999051845742
 21
150.132859527678700
  0
LINE
  8
0
  6
CONTINUOUS
 62
256
 10
-99.066689869741140
 20
152.422278115478780
 11
-97.066689869741140
 21
151.246492629855990
  0
LINE
  8
0
  6
CONTINUOUS
 62
256
 10
-97.066689869741140
 20
151.246492629855990
 11
-95.066689869741140
 21
149.593850990732560
  0
LINE
  8
0
  6
CONTINUOUS
 62
256
 10
-95.066689869741140
 20
152.422278115478780
 11
-97.066689869741140
 21
151.246492629855990
  0
LINE
  8
0
  6
CONTINUOUS
 62
256
 10
-97.066689869741140
 20
151.246492629855990
 11
-99.066689869741140
 21
149.593850990732560
  0
LINE
  8
0
  6
CONTINUOUS
 62
256
 10
-19.066689869719767
 20
49.602571607130926
 11
-86.300158564138428
 21
49.602571607130926
  0
LINE
  8
0
  6
CONTINUOUS
 62
256
 10
-94.066689869719767
 20
44.602571607130812
 11
-94.066689869719767
 21
47.591302371075471
  0
LINE
  8
0
  6
CONTINUOUS
 62
256
 10
-96.066689869741140
 20
43.102571607130812
 11
-115.571534818833920
 21
43.102571607130812
  0
LINE
  8
0
  6
CONTINUOUS
 62
256
 10
-86.066689869741140
 20
161.102571607130810
 11
-115.571534818833920
 21
161.102571607130810
  0
ARC
  8
0
  6
CONTINUOUS
 62
256
 10
-115.571534818833920
 20
63.702571607130835
 40
20.599999999999891
 50
235.000000000000400
 51
270.000000000000000
  0
ARC
  8
0
  6
CONTINUOUS
 62
256
 10
-133.466689869741230
 20
54.258951473501497
 40
2.600000000000136
 50
180.000000000000000
 51
234.999999999997330
  0
LINE
  8
0
  6
CONTINUOUS
 62
256
 10
-127.387209407665300
 20
46.828039494777613
 11
-134.957988604254070
 21
52.129156158350156
  0
ARC
  8
0
  6
CONTINUOUS
 62
256
 10
-115.571534818833920
 20
140.502571607130790
 40
20.600000000000023
 50
90.000000000000000
 51
124.999999999999600
  0
ARC
  8
0
  6
CONTINUOUS
 62
256
 10
-133.466689869741230
 20
149.946191740760130
 40
2.600000000000131
 50
125.000000000001180
 51
180.000000000000000
  0
LINE
  8
0
  6
CONTINUOUS
 62
256
 10
-127.387209407665300
 20
157.377103719484130
 11
-134.957988604254070
 21
152.075987055911470
  0
LINE
  8
0
  6
CONTINUOUS
 62
256
 10
-86.066689869740685
 20
51.102571607130812
 11
54.433310130280006
 21
51.102571607130812
  0
LINE
  8
0
  6
CONTINUOUS
 62
256
 10
-86.066689869740685
 20
51.602571607130812
 11
54.433310130280006
 21
51.602571607130812
  0
LINE
  8
0
  6
CONTINUOUS
 62
256
 10
-86.066689869740685
 20
55.969489012248118
 11
54.433310130280006
 21
55.969489012248232
  0
LINE
  8
0
  6
CONTINUOUS
 62
256
 10
-86.066689869740685
 20
61.060657836791052
 11
54.433310130280006
 21
61.060657836791044
  0
LINE
  8
0
  6
CONTINUOUS
 62
256
 10
-86.066689869740685
 20
70.388180448360799
 11
54.433310130280006
 21
70.388180448360799
  0
LINE
  8
0
  6
CONTINUOUS
 62
256
 10
-86.066689869740685
 20
68.798970655622156
 11
54.433310130280006
 21
68.798970655622156
  0
LINE
  8
0
  6
CONTINUOUS
 62
256
 10
-86.066689869740685
 20
73.346176056493732
 11
54.433310130280006
 21
73.346176056493732
  0
LINE
  8
0
  6
CONTINUOUS
 62
256
 10
-86.066689869740685
 20
74.825199209970833
 11
54.433310130280006
 21
74.825199209970833
  0
LINE
  8
0
  6
CONTINUOUS
 62
256
 10
-86.066689869740685
 20
77.917930201636068
 11
54.433310130280006
 21
77.917930201636068
  0
LINE
  8
0
  6
CONTINUOUS
 62
256
 10
-86.066689869740685
 20
79.264331927134663
 11
54.433310130280006
 21
79.264331927134663
  0
LINE
  8
0
  6
CONTINUOUS
 62
256
 10
-86.066689869740685
 20
82.474536950492961
 11
54.433310130280006
 21
82.474536950492961
  0
LINE
  8
0
  6
CONTINUOUS
 62
256
 10
-86.066689869740685
 20
83.716456815380866
 11
54.433310130280006
 21
83.716456815380866
  0
LINE
  8
0
  6
CONTINUOUS
 62
256
 10
-86.066689869740685
 20
88.102571607130812
 11
54.433310130280006
 21
88.102571607130812
  0
LINE
  8
0
  6
CONTINUOUS
 62
256
 10
-86.066689869740912
 20
116.102571607130810
 11
54.433310130280006
 21
116.102571607130810
  0
LINE
  8
0
  6
CONTINUOUS
 62
256
 10
-86.066689869740912
 20
120.488686398880740
 11
54.433310130280006
 21
120.488686398880740
  0
LINE
  8
0
  6
CONTINUOUS
 62
256
 10
-86.066689869740912
 20
121.730606263768660
 11
54.433310130280006
 21
121.730606263768640
  0
LINE
  8
0
  6
CONTINUOUS
 62
256
 10
-86.066689869740912
 20
124.940811287126960
 11
54.433310130280006
 21
124.940811287126980
  0
LINE
  8
0
  6
CONTINUOUS
 62
256
 10
-86.066689869740912
 20
126.287213012625560
 11
54.433310130280006
 21
126.287213012625570
  0
LINE
  8
0
  6
CONTINUOUS
 62
256
 10
-86.066689869740912
 20
129.379944004290910
 11
54.433310130280006
 21
129.379944004290910
  0
LINE
  8
0
  6
CONTINUOUS
 62
256
 10
-86.066689869740912
 20
130.858967157767890
 11
54.433310130280006
 21
130.858967157767890
  0
LINE
  8
0
  6
CONTINUOUS
 62
256
 10
-86.066689869740912
 20
133.816962765900830
 11
54.433310130280006
 21
133.816962765900830
  0
LINE
  8
0
  6
CONTINUOUS
 62
256
 10
-86.066689869740912
 20
135.406172558639580
 11
54.433310130280006
 21
135.406172558639580
  0
LINE
  8
0
  6
CONTINUOUS
 62
256
 10
-86.066689869740912
 20
143.144485377470570
 11
54.433310130280006
 21
143.144485377470570
  0
LINE
  8
0
  6
CONTINUOUS
 62
256
 10
-86.066689869740912
 20
148.235654202013510
 11
54.433310130280006
 21
148.235654202013510
  0
LINE
  8
0
  6
CONTINUOUS
 62
256
 10
-86.066689869740912
 20
152.602571607130810
 11
54.433310130280006
 21
152.602571607130810
  0
LINE
  8
0
  6
CONTINUOUS
 62
256
 10
-86.066689869740912
 20
153.102571607130810
 11
54.433310130280006
 21
153.102571607130810
  0
LINE
  8
0
  6
CONTINUOUS
 62
256
 10
54.433310130280006
 20
155.602571607130810
 11
-86.066689869740912
 21
155.602571607130810
  0
LINE
  8
0
  6
CONTINUOUS
 62
256
 10
54.433310130280006
 20
48.602571607130812
 11
-19.066689869719767
 21
48.602571607130812
  0
LINE
  8
0
  6
CONTINUOUS
 62
256
 10
54.433310130280006
 20
155.602571607130810
 11
54.433310130280006
 21
102.102571607130810
  0
LINE
  8
0
  6
CONTINUOUS
 62
256
 10
54.433310130280006
 20
48.602571607130812
 11
54.433310130280006
 21
102.102571607130810
  0
LINE
  8
0
  6
CONTINUOUS
 62
256
 10
73.933310130280006
 20
138.352570653456500
 11
73.933310130280006
 21
164.602571607130810
  0
LINE
  8
0
  6
CONTINUOUS
 62
256
 10
74.933310130280006
 20
139.352571607130810
 11
75.533310130280370
 21
139.352571607130810
  0
LINE
  8
0
  6
CONTINUOUS
 62
256
 10
75.933310130280006
 20
138.952571607131180
 11
75.933310130280006
 21
129.252571607131360
  0
ARC
  8
0
  6
CONTINUOUS
 62
256
 10
75.533310130280370
 20
138.952571607131180
 40
0.399999999999636
 50
0.000000000000000
 51
90.000000000000000
  0
ARC
  8
0
  6
CONTINUOUS
 62
256
 10
74.933310130280006
 20
140.352571607130810
 40
1.000000000000000
 50
180.000000000000000
 51
270.000000000000000
  0
LINE
  8
0
  6
CONTINUOUS
 62
256
 10
74.933310130280006
 20
128.852571607130810
 11
75.533310130280370
 21
128.852571607130810
  0
ARC
  8
0
  6
CONTINUOUS
 62
256
 10
75.533310130280370
 20
129.252571607131360
 40
0.400000000000546
 50
270.000000000000000
 51
0.000000000000000
  0
ARC
  8
0
  6
CONTINUOUS
 62
256
 10
74.933310130280006
 20
127.852571607130810
 40
1.000000000000000
 50
90.000000000000000
 51
180.000000000000000
  0
ARC
  8
0
  6
CONTINUOUS
 62
256
 10
72.933310130280006
 20
152.102571607130810
 40
1.000000000000000
 50
270.000000000000000
 51
0.000000000000000
  0
ARC
  8
0
  6
CONTINUOUS
 62
256
 10
74.433310130280006
 20
164.602571607130810
 40
0.500000000000000
 50
90.000000000000000
 51
180.000000000000000
  0
ARC
  8
0
  6
CONTINUOUS
 62
256
 10
63.433310130280006
 20
159.102571607130810
 40
7.999999999999964
 50
207.975174367152760
 51
270.000000000000000
  0
ARC
  8
0
  6
CONTINUOUS
 62
256
 10
55.926527252058804
 20
155.115315555753110
 40
0.500000000000217
 50
27.975174367227915
 51
91.499999999989853
  0
ARC
  8
0
  6
CONTINUOUS
 62
256
 10
55.933310130280006
 20
155.115493171670100
 40
0.500000000000872
 50
91.499999999987068
 51
180.000000000000000
  0
ARC
  8
0
  6
CONTINUOUS
 62
256
 10
54.933310130280006
 20
155.128928924945280
 40
0.499999999999054
 50
271.499999999992550
 51
0.000000000000000
  0
LINE
  8
0
  6
CONTINUOUS
 62
256
 10
80.933310130280006
 20
165.102571607130810
 11
80.933310130280006
 21
102.102571607130810
  0
LINE
  8
0
  6
CONTINUOUS
 62
256
 10
73.933310130280006
 20
102.102571607130810
 11
73.933310130280006
 21
129.852572560805130
  0
LINE
  8
0
  6
CONTINUOUS
 62
256
 10
72.933310130280006
 20
151.102571607130810
 11
63.433310130280006
 21
151.102571607130810
  0
LINE
  8
0
  6
CONTINUOUS
 62
256
 10
80.933310130280006
 20
165.102571607130810
 11
74.433310130280006
 21
165.102571607130810
  0
LINE
  8
0
  6
CONTINUOUS
 62
256
 10
54.433310130280006
 20
102.102571607130810
 11
54.433310130280006
 21
154.602571607130810
  0
LINE
  8
0
  6
CONTINUOUS
 62
256
 10
54.946398604433853
 20
154.629100262458450
 11
54.433310130280006
 21
154.602571607130810
  0
LINE
  8
0
  6
CONTINUOUS
 62
256
 10
55.433310130280006
 20
155.115493171670100
 11
55.433310130280006
 21
102.102571607130810
  0
LINE
  8
0
  6
CONTINUOUS
 62
256
 10
70.933310130280006
 20
161.602571607130810
 11
70.933310130280006
 21
153.102571607130810
  0
ARC
  8
0
  6
CONTINUOUS
 62
256
 10
68.933310130280006
 20
153.102571607130810
 40
2.000000000000000
 50
270.000000000000000
 51
0.000000000000000
  0
LINE
  8
0
  6
CONTINUOUS
 62
256
 10
73.433310130280006
 20
162.102571607130810
 11
71.433310130280006
 21
162.102571607130810
  0
ARC
  8
0
  6
CONTINUOUS
 62
256
 10
71.433310130280006
 20
161.602571607130810
 40
0.500000000000000
 50
90.000000000000000
 51
180.000000000000000
  0
ARC
  8
0
  6
CONTINUOUS
 62
256
 10
73.433310130280006
 20
162.602571607130810
 40
0.500000000000000
 50
270.000000000000000
 51
0.000000000000000
  0
LINE
  8
0
  6
CONTINUOUS
 62
256
 10
70.933310893219456
 20
155.852556582044600
 11
70.933310893219456
 21
164.352554674695970
  0
LINE
  8
0
  6
CONTINUOUS
 62
256
 10
73.933310130280006
 20
164.352554674695970
 11
70.933310893219456
 21
164.352554674695970
  0
LINE
  8
0
  6
CONTINUOUS
 62
256
 10
73.933310130280006
 20
65.852572560805129
 11
73.933310130280006
 21
39.602571607130812
  0
LINE
  8
0
  6
CONTINUOUS
 62
256
 10
74.933310130280006
 20
64.852571607130812
 11
75.533310130280370
 21
64.852571607130812
  0
LINE
  8
0
  6
CONTINUOUS
 62
256
 10
75.933310130280006
 20
65.252571607131358
 11
75.933310130280006
 21
74.952571607131176
  0
ARC
  8
0
  6
CONTINUOUS
 62
256
 10
75.533310130280370
 20
65.252571607131358
 40
0.400000000000546
 50
270.000000000000000
 51
0.000000000000000
  0
ARC
  8
0
  6
CONTINUOUS
 62
256
 10
74.933310130280006
 20
63.852571607130812
 40
1.000000000000000
 50
90.000000000000000
 51
180.000000000000000
  0
LINE
  8
0
  6
CONTINUOUS
 62
256
 10
74.933310130280006
 20
75.352571607130812
 11
75.533310130280370
 21
75.352571607130812
  0
ARC
  8
0
  6
CONTINUOUS
 62
256
 10
75.533310130280370
 20
74.952571607131176
 40
0.399999999999636
 50
0.000000000000000
 51
90.000000000000000
  0
ARC
  8
0
  6
CONTINUOUS
 62
256
 10
74.933310130280006
 20
76.352571607130812
 40
1.000000000000000
 50
180.000000000000000
 51
270.000000000000000
  0
ARC
  8
0
  6
CONTINUOUS
 62
256
 10
72.933310130280006
 20
52.102571607130812
 40
1.000000000000000
 50
0.000000000000000
 51
90.000000000000000
  0
ARC
  8
0
  6
CONTINUOUS
 62
256
 10
74.433310130280006
 20
39.602571607130812
 40
0.500000000000000
 50
180.000000000000000
 51
270.000000000000000
  0
ARC
  8
0
  6
CONTINUOUS
 62
256
 10
63.433310130280006
 20
45.102571607130812
 40
8.000000000000000
 50
90.000000000000000
 51
152.024825632841500
  0
ARC
  8
0
  6
CONTINUOUS
 62
256
 10
55.926527252058804
 20
49.089827658509421
 40
0.499999999999963
 50
268.500000000010170
 51
332.024825632772090
  0
ARC
  8
0
  6
CONTINUOUS
 62
256
 10
55.933310130280006
 20
49.089650042591529
 40
0.500000000000000
 50
180.000000000000000
 51
268.500000000010350
  0
ARC
  8
0
  6
CONTINUOUS
 62
256
 10
54.933310130280006
 20
49.076214289316340
 40
0.500000000000000
 50
0.000000000000000
 51
88.500000000010303
  0
LINE
  8
0
  6
CONTINUOUS
 62
256
 10
80.933310130280006
 20
39.102571607130812
 11
80.933310130280006
 21
102.102571607130810
  0
LINE
  8
0
  6
CONTINUOUS
 62
256
 10
73.933310130280006
 20
102.102571607130810
 11
73.933310130280006
 21
74.352570653456496
  0
LINE
  8
0
  6
CONTINUOUS
 62
256
 10
72.933310130280006
 20
53.102571607130812
 11
63.433310130280006
 21
53.102571607130812
  0
LINE
  8
0
  6
CONTINUOUS
 62
256
 10
80.933310130280006
 20
39.102571607130812
 11
74.433310130280006
 21
39.102571607130812
  0
LINE
  8
0
  6
CONTINUOUS
 62
256
 10
54.433310130280006
 20
102.102571607131720
 11
54.433310130280006
 21
49.602571607130812
  0
LINE
  8
0
  6
CONTINUOUS
 62
256
 10
54.946398604433853
 20
49.576042951804084
 11
54.433310130280006
 21
49.602571607130812
  0
LINE
  8
0
  6
CONTINUOUS
 62
256
 10
55.433310130280006
 20
49.089650042591529
 11
55.433310130280006
 21
102.102571607130810
  0
LINE
  8
0
  6
CONTINUOUS
 62
256
 10
70.933310130280006
 20
42.602571607130812
 11
70.933310130280006
 21
51.102571607130812
  0
ARC
  8
0
  6
CONTINUOUS
 62
256
 10
68.933310130280006
 20
51.102571607130812
 40
2.000000000000000
 50
0.000000000000000
 51
90.000000000000000
  0
LINE
  8
0
  6
CONTINUOUS
 62
256
 10
73.433310130280006
 20
42.102571607130812
 11
71.433310130280006
 21
42.102571607130812
  0
ARC
  8
0
  6
CONTINUOUS
 62
256
 10
71.433310130280006
 20
42.602571607130812
 40
0.500000000000000
 50
180.000000000000000
 51
270.000000000000000
  0
ARC
  8
0
  6
CONTINUOUS
 62
256
 10
73.433310130280006
 20
41.602571607130812
 40
0.500000000000000
 50
0.000000000000000
 51
90.000000000000000
  0
LINE
  8
0
  6
CONTINUOUS
 62
256
 10
70.933310893219456
 20
48.352586632217935
 11
70.933310893219456
 21
39.852588539566568
  0
LINE
  8
0
  6
CONTINUOUS
 62
256
 10
73.933310130280006
 20
39.852588539566568
 11
70.933310893219456
 21
39.852588539566568
  0
LINE
  8
0
  6
DASHDOT
 62
256
 10
136.143253820497190
 20
165.742181913910830
 11
108.135996829671040
 21
165.742181913910830
  0
LINE
  8
0
  6
DASHDOT
 62
256
 10
136.143253820497190
 20
38.462961300333518
 11
108.135996829671040
 21
38.462961300333518
  0
ARC
  8
0
  6
CONTINUOUS
 62
256
 10
160.033310130256270
 20
109.702571607131180
 40
0.400000000000091
 50
0.000000000000000
 51
90.000000000000000
  0
LINE
  8
0
  6
CONTINUOUS
 62
256
 10
136.433310130256360
 20
94.252571607130449
 11
136.433310130256360
 21
92.102571607130628
  0
LINE
  8
0
  6
CONTINUOUS
 62
256
 10
137.993117751391310
 20
94.252571607130449
 11
138.552925372526720
 21
94.102571607130812
  0
LINE
  8
0
  6
CONTINUOUS
 62
256
 10
137.993117751391310
 20
94.252571607130449
 11
135.833310130256000
 21
94.252571607130449
  0
LINE
  8
0
  6
CONTINUOUS
 62
256
 10
135.133310130256180
 20
110.602579045792480
 11
135.436917602005450
 21
110.298971574042280
  0
ARC
  8
0
  6
CONTINUOUS
 62
256
 10
135.833310130256000
 20
110.352571607130810
 40
0.399999999999936
 50
187.700803502586670
 51
270.000000000000000
  0
LINE
  8
0
  6
CONTINUOUS
 62
256
 10
135.433310130256360
 20
102.102571607130810
 11
135.433310130256360
 21
110.302579045792290
  0
LINE
  8
0
  6
CONTINUOUS
 62
256
 10
132.433310130280010
 20
110.602579045792480
 11
135.133310130256180
 21
110.602579045792480
  0
LINE
  8
0
  6
CONTINUOUS
 62
256
 10
132.433310130280010
 20
93.602564168469144
 11
135.133310130256180
 21
93.602564168469144
  0
LINE
  8
0
  6
CONTINUOUS
 62
256
 10
135.133310130256180
 20
93.602564168469144
 11
135.436917602005450
 21
93.906171640219327
  0
ARC
  8
0
  6
CONTINUOUS
 62
256
 10
135.833310130256000
 20
93.852571607130812
 40
0.399999999999636
 50
90.000000000000000
 51
172.299196497413900
  0
LINE
  8
0
  6
CONTINUOUS
 62
256
 10
137.993117751391310
 20
109.952571607131180
 11
138.552925372526720
 21
110.102571607130810
  0
LINE
  8
0
  6
CONTINUOUS
 62
256
 10
137.993117751391310
 20
109.952571607131180
 11
135.833310130256000
 21
109.952571607131180
  0
LINE
  8
0
  6
CONTINUOUS
 62
256
 10
135.433310130256360
 20
102.102571607130810
 11
135.433310130256360
 21
93.902564168469326
  0
LINE
  8
0
  6
CONTINUOUS
 62
256
 10
160.433310130256360
 20
102.102571607130810
 11
160.433310130256360
 21
109.702571607131180
  0
LINE
  8
0
  6
CONTINUOUS
 62
256
 10
160.033310130256270
 20
110.102571607130810
 11
138.552925372526720
 21
110.102571607130810
  0
LINE
  8
0
  6
CONTINUOUS
 62
256
 10
160.433310130256360
 20
92.102571607130628
 11
136.433310130256360
 21
92.102571607130628
  0
LINE
  8
0
  6
CONTINUOUS
 62
256
 10
160.433310130256360
 20
92.102571607130628
 11
160.433310130256360
 21
94.502571607130449
  0
ARC
  8
0
  6
CONTINUOUS
 62
256
 10
160.033310130256270
 20
94.502571607130449
 40
0.399999999999636
 50
270.000000000000000
 51
0.000000000000000
  0
LINE
  8
0
  6
CONTINUOUS
 62
256
 10
160.033310130256270
 20
94.102571607130812
 11
138.552925372526720
 21
94.102571607130812
  0
LINE
  8
0
  6
CONTINUOUS
 62
256
 10
160.433310130256360
 20
102.102571607130810
 11
160.433310130256360
 21
94.502571607130449
  0
ARC
  8
0
  6
CONTINUOUS
 62
256
 10
113.933310130280010
 20
45.074639419999585
 40
2.000000000000000
 50
0.000000000000000
 51
39.285346512634725
  0
ARC
  8
0
  6
CONTINUOUS
 62
256
 10
113.933310130280010
 20
48.731493669492011
 40
2.000000000000000
 50
0.000000000000000
 51
39.285346512634725
  0
LINE
  8
0
  6
CONTINUOUS
 62
256
 10
102.309082825933270
 20
62.442727653910879
 11
115.481314475458230
 21
46.341005302084341
  0
ARC
  8
0
  6
CONTINUOUS
 62
256
 10
100.761078480755030
 20
61.176361771825214
 40
2.000000000000331
 50
39.285346512654776
 51
90.000000000000000
  0
LINE
  8
0
  6
CONTINUOUS
 62
256
 10
102.309082825933270
 20
66.099581903403305
 11
115.481314475458230
 21
49.997859551576767
  0
ARC
  8
0
  6
CONTINUOUS
 62
256
 10
100.761078480755030
 20
64.833216021317639
 40
2.000000000000331
 50
39.285346512654776
 51
90.000000000000000
  0
LINE
  8
0
  6
CONTINUOUS
 62
256
 10
103.708923517753650
 20
66.833216021317639
 11
113.933310130280010
 21
66.833216021317639
  0
ARC
  8
0
  6
CONTINUOUS
 62
256
 10
100.761078480755030
 20
139.371927192943990
 40
2.000000000000000
 50
270.000000000000000
 51
320.714653487345000
  0
ARC
  8
0
  6
CONTINUOUS
 62
256
 10
100.761078480755030
 20
143.028781442436410
 40
2.000000000000000
 50
270.000000000000000
 51
320.714653487345000
  0
ARC
  8
0
  6
CONTINUOUS
 62
256
 10
113.933310130280010
 20
155.473649544769610
 40
1.999999999999755
 50
320.714653487365410
 51
0.000000000000000
  0
ARC
  8
0
  6
CONTINUOUS
 62
256
 10
113.933310130280010
 20
159.130503794262040
 40
1.999999999999755
 50
320.714653487365410
 51
0.000000000000000
  0
LINE
  8
0
  6
CONTINUOUS
 62
256
 10
103.708923517753650
 20
137.371927192943990
 11
113.933310130280010
 21
137.371927192943990
  0
LINE
  8
0
  6
CONTINUOUS
 62
256
 10
102.309082825933270
 20
141.762415560350750
 11
115.481314475458230
 21
157.864137912177280
  0
LINE
  8
0
  6
CONTINUOUS
 62
256
 10
102.309082825933270
 20
138.105561310858320
 11
115.481314475458230
 21
154.207283662684860
  0
ARC
  8
0
  6
CONTINUOUS
 62
256
 10
103.708923517753650
 20
98.102571607130812
 40
2.000000000000000
 50
90.000000000000000
 51
180.000000000000000
  0
ARC
  8
0
  6
CONTINUOUS
 62
256
 10
103.708923517753650
 20
106.102571607130810
 40
2.000000000000000
 50
180.000000000000000
 51
270.000000000000000
  0
ARC
  8
0
  6
CONTINUOUS
 62
256
 10
113.933310130280010
 20
98.102571607130812
 40
2.000000000000000
 50
0.000000000000000
 51
90.000000000000000
  0
ARC
  8
0
  6
CONTINUOUS
 62
256
 10
113.933310130280010
 20
106.102571607130810
 40
2.000000000000000
 50
270.000000000000000
 51
0.000000000000000
  0
LINE
  8
0
  6
CONTINUOUS
 62
256
 10
113.933310130280010
 20
104.102571607130810
 11
103.708923517753650
 21
104.102571607130810
  0
LINE
  8
0
  6
CONTINUOUS
 62
256
 10
113.933310130280010
 20
100.102571607130810
 11
103.708923517753650
 21
100.102571607130810
  0
LINE
  8
0
  6
CONTINUOUS
 62
256
 10
81.433310130280006
 20
39.102571607130812
 11
113.968214943154630
 21
38.534672731188948
  0
ARC
  8
0
  6
CONTINUOUS
 62
256
 10
113.933310130280010
 20
36.534977340876139
 40
2.000000000000000
 50
0.000000000000000
 51
88.999999999998224
  0
LINE
  8
0
  6
CONTINUOUS
 62
256
 10
81.433310130280006
 20
39.102571607130812
 11
81.433310130280006
 21
102.102571607130810
  0
LINE
  8
0
  6
CONTINUOUS
 62
256
 10
81.433310130280006
 20
165.102571607130810
 11
81.433310130280006
 21
102.102571607130810
  0
LINE
  8
0
  6
CONTINUOUS
 62
256
 10
81.433310130280006
 20
165.102571607130810
 11
113.968214943154630
 21
165.670470483072680
  0
ARC
  8
0
  6
CONTINUOUS
 62
256
 10
113.933310130280010
 20
167.670165873385490
 40
2.000000000000027
 50
271.000000000001760
 51
0.000000000000000
  0
LINE
  8
0
  6
CONTINUOUS
 62
256
 10
115.933310130280010
 20
169.093844074665870
 11
115.933310130280010
 21
173.719921889519360
  0
LINE
  8
0
  6
CONTINUOUS
 62
256
 10
127.933310130280010
 20
174.602571607129900
 11
120.436051530475650
 21
174.811987193593270
  0
LINE
  8
0
  6
CONTINUOUS
 62
256
 10
116.907133181972090
 20
174.719579214494840
 11
120.436051530475230
 21
174.811987193593270
  0
LINE
  8
0
  6
CONTINUOUS
 62
256
 10
127.933310130280010
 20
29.589478646346834
 11
120.436051530475650
 21
29.393156020668357
  0
LINE
  8
0
  6
CONTINUOUS
 62
256
 10
115.933310130280010
 20
31.534977340876139
 11
115.933310130280010
 21
30.485221324742270
  0
ARC
  8
0
  6
CONTINUOUS
 62
256
 10
116.933310130280010
 20
173.719921889519360
 40
0.999999999999931
 50
91.500000000002828
 51
180.000000000000000
  0
ARC
  8
0
  6
CONTINUOUS
 62
256
 10
116.933310130280010
 20
30.485221324742270
 40
1.000000000000000
 50
180.000000000000000
 51
268.499999999997210
  0
LINE
  8
0
  6
CONTINUOUS
 62
256
 10
130.933310130280010
 20
166.302571607129720
 11
130.153984633541600
 21
167.102571607130810
  0
LINE
  8
0
  6
CONTINUOUS
 62
256
 10
130.933310130280010
 20
37.902571607131904
 11
130.153984633541570
 21
37.102571607130812
  0
LINE
  8
0
  6
CONTINUOUS
 62
256
 10
115.933310130280010
 20
102.102571607130810
 11
115.933310130280010
 21
169.093844074665870
  0
LINE
  8
0
  6
CONTINUOUS
 62
256
 10
115.933310130280010
 20
102.102571607130810
 11
115.933310130280010
 21
30.602571607131722
  0
LINE
  8
0
  6
CONTINUOUS
 62
256
 10
122.880956233664160
 20
46.705434898472049
 11
127.933310130280010
 21
46.573134355595357
  0
ARC
  8
0
  6
CONTINUOUS
 62
256
 10
122.933310130280010
 20
48.704749548423024
 40
2.000000000000000
 50
180.000000000000000
 51
268.499999999997210
  0
LINE
  8
0
  6
CONTINUOUS
 62
256
 10
122.880956233664390
 20
63.404608220226692
 11
127.933310130280010
 21
63.259214716565111
  0
ARC
  8
0
  6
CONTINUOUS
 62
256
 10
122.933310130280010
 20
65.403922870177666
 40
2.000000000000000
 50
180.000000000000000
 51
268.499999999997210
  0
LINE
  8
0
  6
CONTINUOUS
 62
256
 10
120.933310130280010
 20
102.102571607130810
 11
120.933310130280010
 21
48.704749548423024
  0
LINE
  8
0
  6
CONTINUOUS
 62
256
 10
116.907133181972090
 20
29.485563999766782
 11
120.420221656126150
 21
29.393570540516521
  0
LINE
  8
0
  6
CONTINUOUS
 62
256
 10
122.880956233664160
 20
157.499708315789580
 11
127.933310130280010
 21
157.632008858666270
  0
ARC
  8
0
  6
CONTINUOUS
 62
256
 10
122.933310130280010
 20
155.500393665838600
 40
1.999999999999863
 50
91.500000000002828
 51
180.000000000000000
  0
LINE
  8
0
  6
CONTINUOUS
 62
256
 10
122.880956233664390
 20
140.800534994034930
 11
127.933310130280010
 21
140.945928497696510
  0
ARC
  8
0
  6
CONTINUOUS
 62
256
 10
122.933310130280010
 20
138.801220344083960
 40
1.999999999999863
 50
91.500000000002828
 51
180.000000000000000
  0
LINE
  8
0
  6
CONTINUOUS
 62
256
 10
120.933310130280010
 20
102.102571607130810
 11
120.933310130280010
 21
155.500393665838600
  0
ARC
  8
0
  6
CONTINUOUS
 62
256
 10
130.433310130280010
 20
129.922327713757110
 40
2.000000000000000
 50
0.000000000000000
 51
37.568592028830572
  0
LINE
  8
0
  6
CONTINUOUS
 62
256
 10
132.018558108489290
 20
131.141749235456700
 11
130.933310130280010
 21
132.552571607128810
  0
ARC
  8
0
  6
CONTINUOUS
 62
256
 10
130.433310130280010
 20
74.282815500496326
 40
2.000000000000188
 50
322.431407971169340
 51
0.000000000000000
  0
LINE
  8
0
  6
CONTINUOUS
 62
256
 10
132.018558108489290
 20
73.063393978796739
 11
130.933310130280010
 21
71.652571607125537
  0
LINE
  8
0
  6
CONTINUOUS
 62
256
 10
132.433310130280010
 20
129.922327713757110
 11
132.433310130280010
 21
102.102571607130810
  0
LINE
  8
0
  6
CONTINUOUS
 62
256
 10
132.433310130280010
 20
74.282815500496326
 11
132.433310130280010
 21
102.102571607130810
  0
LINE
  8
0
  6
CONTINUOUS
 62
256
 10
127.933310130280010
 20
102.102571607130810
 11
127.933310130280010
 21
29.589478646346834
  0
LINE
  8
0
  6
CONTINUOUS
 62
256
 10
130.933310130280010
 20
102.102571607130810
 11
130.933310130280010
 21
37.902571607131904
  0
LINE
  8
0
  6
CONTINUOUS
 62
256
 10
130.933310130280010
 20
102.102571607130810
 11
130.933310130280010
 21
166.302571607129720
  0
LINE
  8
0
  6
CONTINUOUS
 62
256
 10
127.933310130279760
 20
102.102571607130810
 11
127.933310130280010
 21
174.602571607129900
  0
LINE
  8
0
  6
CONTINUOUS
 62
256
 10
-136.066689869741370
 20
54.258951473501497
 11
-136.066689869741370
 21
102.102571607130810
  0
LINE
  8
0
  6
CONTINUOUS
 62
256
 10
-136.066689869741370
 20
149.946191740760130
 11
-136.066689869741140
 21
102.102571607130810
  0
LINE
  8
0
  6
CONTINUOUS
 62
256
 10
-209.141717459846400
 20
-149.855290997914840
 11
-208.198485234167490
 21
-148.912058772235920
  0
ARC
  8
0
  6
CONTINUOUS
 62
256
 10
-231.340636836659540
 20
-164.849719172882090
 40
6.999999999999596
 50
201.417537750195440
 51
214.849904579047120
  0
ARC
  8
0
  6
CONTINUOUS
 62
256
 10
-231.340636836659540
 20
-164.849719172882090
 40
7.000000000000076
 50
325.150095420952820
 51
348.763010699953840
  0
ARC
  8
0
  6
CONTINUOUS
 62
256
 10
-231.340636836659540
 20
-164.849719172882090
 40
4.249999046324666
 50
213.421071121225850
 51
336.366468944172030
  0
LINE
  8
0
  6
CONTINUOUS
 62
256
 10
-231.340639138851200
 20
-167.159116373728980
 11
-231.725565472288910
 21
-166.936878349404590
  0
LINE
  8
0
  6
CONTINUOUS
 62
256
 10
-230.822160906513430
 20
-166.859774073262320
 11
-231.340638780550930
 21
-167.159116698090090
  0
ARC
  8
0
  6
CONTINUOUS
 62
256
 10
-299.340604879137120
 20
-164.849719172882090
 40
7.000000000000076
 50
325.150095420952820
 51
338.582462249804620
  0
LINE
  8
0
  6
CONTINUOUS
 62
256
 10
-305.085167525675160
 20
-168.849719172882200
 11
-300.776742718541240
 21
-168.849719172882200
  0
LINE
  8
0
  6
CONTINUOUS
 62
256
 10
-297.904467039732990
 20
-168.849719172882200
 11
-293.596042232599070
 21
-168.849719172882200
  0
ARC
  8
0
  6
CONTINUOUS
 62
256
 10
-299.340604879137120
 20
-164.849719172882090
 40
4.249999046324718
 50
203.633531055827690
 51
326.578928878774260
  0
LINE
  8
0
  6
CONTINUOUS
 62
256
 10
-299.340602576945460
 20
-167.159116373728980
 11
-298.955676243507750
 21
-166.936878349404590
  0
LINE
  8
0
  6
CONTINUOUS
 62
256
 10
-299.859080809283230
 20
-166.859774073262320
 11
-299.340602935245730
 21
-167.159116698090090
  0
ARC
  8
0
  6
CONTINUOUS
 62
256
 10
-299.340604879137120
 20
-164.849719172882090
 40
7.000000000000003
 50
191.236989300046050
 51
214.849904579047060
  0
LINE
  8
0
  6
CONTINUOUS
 62
256
 10
-321.539524255950250
 20
-149.855290997915010
 11
-322.482756481629170
 21
-148.912058772236040
  0
ARC
  8
0
  6
CONTINUOUS
 62
256
 10
-308.340620857898330
 20
-134.769923148504970
 40
19.999999999999957
 50
195.974204007402310
 51
225.000000000000400
  0
ARC
  8
0
  6
CONTINUOUS
 62
256
 10
-320.340620857898330
 20
-93.349719172882146
 40
5.000000000000016
 50
225.572995999194460
 51
225.659700457679090
  0
ARC
  8
0
  6
CONTINUOUS
 62
256
 10
-320.340620857898330
 20
-93.349719172882146
 40
4.999999999999961
 50
126.240455740104170
 51
134.427004000805430
  0
LINE
  8
0
  6
CONTINUOUS
 62
256
 10
-337.840620857899470
 20
-148.049278973371430
 11
-337.840620857899470
 21
-163.849719172881810
  0
LINE
  8
0
  6
CONTINUOUS
 62
256
 10
-337.840620857899470
 20
-34.849719172881805
 11
-337.840620857899470
 21
-70.215310744878934
  0
ARC
  8
0
  6
CONTINUOUS
 62
256
 10
-283.340620857898330
 20
-102.806350880651790
 40
44.999999999999929
 50
148.490164730419170
 51
155.577054368654730
  0
ARC
  8
0
  6
CONTINUOUS
 62
256
 10
-283.340620857898330
 20
-102.806350880651790
 40
44.999999999999915
 50
92.906384370709901
 51
115.154512373013720
  0
ARC
  8
0
  6
CONTINUOUS
 62
256
 10
-307.722178163083530
 20
-62.625016117182781
 40
1.999999999999010
 50
6.702562772192431
 51
45.000000000000576
  0
LINE
  8
0
  6
CONTINUOUS
 62
256
 10
-292.090620857898330
 20
-61.243830424667749
 11
-292.090620857898330
 21
-59.494256726709068
  0
ARC
  8
0
  6
CONTINUOUS
 62
256
 10
-297.340620857898330
 20
-65.349719172882033
 40
4.249999046325171
 50
65.218555277079233
 51
124.030593798550900
  0
LINE
  8
0
  6
CONTINUOUS
 62
256
 10
-238.590620857898330
 20
-61.243830424667749
 11
-238.590620857898330
 21
-59.494256726709068
  0
ARC
  8
0
  6
CONTINUOUS
 62
256
 10
-233.340620857898330
 20
-65.349719172882033
 40
4.249999046325110
 50
55.969406201449367
 51
114.781444722920740
  0
ARC
  8
0
  6
CONTINUOUS
 62
256
 10
-222.959063552713130
 20
-62.625016117182781
 40
2.000000000000016
 50
135.000000000000000
 51
173.496499837267830
  0
ARC
  8
0
  6
CONTINUOUS
 62
256
 10
-247.340620857898330
 20
-102.806350880651790
 40
45.000000000000021
 50
64.845487626986284
 51
87.093615629290099
  0
ARC
  8
0
  6
CONTINUOUS
 62
256
 10
-247.340620857898330
 20
-102.806350880651790
 40
45.000000000000021
 50
24.214092770229573
 51
31.509835269580758
  0
ARC
  8
0
  6
CONTINUOUS
 62
256
 10
-222.340620857898330
 20
-134.769923148504860
 40
20.000000000000000
 50
314.999999999999550
 51
331.380554893773880
  0
LINE
  8
0
  6
CONTINUOUS
 62
256
 10
-192.840620857899470
 20
-144.349719172882030
 11
-192.840620857899470
 21
-163.849719172881810
  0
LINE
  8
0
  6
CONTINUOUS
 62
256
 10
-192.840620857899470
 20
-34.849719172881805
 11
-192.840620857899470
 21
-84.349719172882033
  0
LINE
  8
0
  6
DASHDOT
 62
256
 10
-373.685837444147180
 20
-114.349719172882030
 11
-169.233561843157080
 21
-114.349719172882030
  0
ARC
  8
0
  6
CONTINUOUS
 62
256
 10
-344.640620857898280
 20
-128.392219172882050
 40
20.799999999999986
 50
174.275189547776620
 51
205.640070215894870
  0
POINT
  8
0
  6
DASHDOT
 62
256
 10
-323.840620857898330
 20
-114.363449666008020
  0
ARC
  8
0
  6
CONTINUOUS
 62
256
 10
-344.640620857898280
 20
-128.392219172882050
 40
20.799999999999926
 50
205.640070215894870
 51
260.083463391769380
  0
POINT
  8
0
  6
DASHDOT
 62
256
 10
-323.840620857898330
 20
-114.363449666008020
  0
ARC
  8
0
  6
CONTINUOUS
 62
256
 10
-344.640620857898280
 20
-128.392219172882050
 40
20.799999999999986
 50
174.275189547776620
 51
205.640070215894870
  0
ARC
  8
0
  6
CONTINUOUS
 62
256
 10
-342.640620857898280
 20
-88.392219172882051
 40
18.799999999999955
 50
0.000000000000000
 51
79.401214733933926
  0
ARC
  8
0
  6
CONTINUOUS
 62
256
 10
-338.814866223811350
 20
-67.947082795744336
 40
1.999999999999927
 50
177.137594773887290
 51
259.401214733933840
  0
ARC
  8
0
  6
CONTINUOUS
 62
256
 10
-344.407879321527160
 20
-67.667432140858523
 40
1.999999999999928
 50
274.873974813840960
 51
357.137594773887320
  0
ARC
  8
0
  6
CONTINUOUS
 62
256
 10
-342.974073591514750
 20
-151.131230149811360
 40
1.999999999999962
 50
94.191726156001650
 51
177.137594773887370
  0
LINE
  8
0
  6
CONTINUOUS
 62
256
 10
-341.142492349581520
 20
-58.429649006546811
 11
-346.236129277858480
 21
-160.302387572086900
  0
ARC
  8
0
  6
CONTINUOUS
 62
256
 10
-348.567086689230560
 20
-150.851579494925550
 40
2.000000000000154
 50
357.137594773887600
 51
80.083463391768120
  0
LINE
  8
0
  6
CONTINUOUS
 62
256
 10
-365.336880209519220
 20
-126.317406205301040
 11
-361.346855271863210
 21
-86.516907452183773
  0
ARC
  8
0
  6
CONTINUOUS
 62
256
 10
-344.640620857898280
 20
-128.392219172882050
 40
20.800000000000082
 50
274.191726156007410
 51
354.952683218992090
  0
ARC
  8
0
  6
CONTINUOUS
 62
256
 10
-342.640620857898280
 20
-88.392219172882051
 40
18.800000000000036
 50
94.873974813842736
 51
144.191373186504220
  0
ARC
  8
0
  6
CONTINUOUS
 62
256
 10
-342.640620857898280
 20
-88.392219172882051
 40
18.799999999999933
 50
144.191373186504250
 51
174.275189547776420
  0
LINE
  8
0
  6
CONTINUOUS
 62
256
 10
-341.941494220683810
 20
-58.389698912991662
 11
-340.343490478479230
 21
-58.469599100101846
  0
LINE
  8
0
  6
CONTINUOUS
 62
256
 10
-323.840620857898330
 20
-97.019110412662485
 11
-323.840620857898330
 21
-88.392219172882051
  0
ARC
  8
0
  6
CONTINUOUS
 62
256
 10
-335.799167717578260
 20
-63.703061336771952
 40
9.000000000000060
 50
160.536063666407810
 51
193.739143184213500
  0
POINT
  8
0
  6
CONTINUOUS
 62
256
 10
-342.191182305402660
 20
-63.383460607380698
  0
LINE
  8
0
  6
CONTINUOUS
 62
256
 10
-342.016400646099100
 20
-59.887827421308316
 11
-342.365963964706220
 21
-66.879093793453194
  0
LINE
  8
0
  6
CONTINUOUS
 62
256
 10
-342.016400646099100
 20
-59.887827421308316
 11
-342.365963964706220
 21
-66.879093793453194
  0
LINE
  8
0
  6
CONTINUOUS
 62
256
 10
-342.365963964706220
 20
-66.879093793453194
 11
-343.343767777214000
 21
-66.830203602827851
  0
LINE
  8
0
  6
CONTINUOUS
 62
256
 10
-342.016400646099100
 20
-59.887827421308316
 11
-342.994204458606650
 21
-59.838937230682973
  0
ARC
  8
0
  6
CONTINUOUS
 62
256
 10
-343.278848913286310
 20
-65.531826324274220
 40
1.299999237060493
 50
193.739143184211430
 51
267.137612759980130
  0
ARC
  8
0
  6
CONTINUOUS
 62
256
 10
-343.059123322534330
 20
-61.137314509236489
 40
1.299999237060475
 50
87.137594090651845
 51
160.536063666412730
  0
LINE
  8
0
  6
CONTINUOUS
 62
256
 10
-341.941494220683810
 20
-58.389698912991662
 11
-347.035131148960770
 21
-160.262437478531640
  0
LINE
  8
0
  6
CONTINUOUS
 62
256
 10
-345.437127406756190
 20
-160.342337665642620
 11
-347.035131148960770
 21
-160.262437478531640
  0
LINE
  8
0
  6
CONTINUOUS
 62
256
 10
-340.343490478479230
 20
-58.469599100101846
 11
-345.437127406756190
 21
-160.342337665642620
  0
LINE
  8
0
  6
CONTINUOUS
 62
256
 10
-177.840620857898330
 20
-116.849719172882030
 11
-177.840620857898330
 21
-111.849719172882030
  0
LINE
  8
0
  6
CONTINUOUS
 62
256
 10
-178.351037705416050
 20
-116.849719172882030
 11
-177.840620857898330
 21
-116.849719172882030
  0
LINE
  8
0
  6
CONTINUOUS
 62
256
 10
-178.351037705416050
 20
-111.849719172882030
 11
-177.840620857898330
 21
-111.849719172882030
  0
ARC
  8
0
  6
CONTINUOUS
 62
256
 10
-478.340620857898330
 20
-114.349719172882030
 40
300.000000000000170
 50
355.138594604201960
 51
4.861405395798036
  0
LINE
  8
0
  6
CONTINUOUS
 62
256
 10
-207.840620857898330
 20
-84.349719172882033
 11
-184.401851723916710
 21
-84.349719172882033
  0
LINE
  8
0
  6
CONTINUOUS
 62
256
 10
-207.840620857898330
 20
-144.349719172882030
 11
-184.401851723916710
 21
-144.349719172882030
  0
ARC
  8
0
  6
CONTINUOUS
 62
256
 10
-184.401851723916710
 20
-89.349719172882033
 40
4.999999999999893
 50
4.861405395798621
 51
90.000000000000000
  0
ARC
  8
0
  6
CONTINUOUS
 62
256
 10
-184.401851723916710
 20
-139.349719172882030
 40
5.000000000000000
 50
270.000000000000000
 51
355.138594604201500
  0
ARC
  8
0
  6
CONTINUOUS
 62
256
 10
-23.740620857898193
 20
-114.349719172882030
 40
290.796999999999910
 50
174.998349729065040
 51
180.000000000000000
  0
LINE
  8
0
  6
CONTINUOUS
 62
256
 10
-307.418211173754340
 20
-76.104221786633389
 11
-304.077906140476670
 21
-72.763916753355488
  0
ARC
  8
0
  6
CONTINUOUS
 62
256
 10
-292.712511445417700
 20
-90.809921514970029
 40
20.797000000000015
 50
135.000000000000000
 51
174.998349729064670
  0
ARC
  8
0
  6
CONTINUOUS
 62
256
 10
-265.340620857898330
 20
-460.949719172882230
 40
390.797000000000080
 50
90.000000000000000
 51
95.417963762360529
  0
ARC
  8
0
  6
CONTINUOUS
 62
256
 10
-301.956585796916670
 20
-74.885237096915262
 40
3.000000000000067
 50
95.417963762365673
 51
135.000000000003470
  0
ARC
  8
0
  6
CONTINUOUS
 62
256
 10
-23.740620857898193
 20
-114.349719172882030
 40
290.797000000000250
 50
180.000000000000000
 51
185.001650270934930
  0
LINE
  8
0
  6
CONTINUOUS
 62
256
 10
-307.418211173754340
 20
-152.595216559130680
 11
-304.077906140476670
 21
-155.935521592408580
  0
ARC
  8
0
  6
CONTINUOUS
 62
256
 10
-292.712511445417700
 20
-137.889516830794040
 40
20.796999999999880
 50
185.001650270935300
 51
225.000000000000060
  0
ARC
  8
0
  6
CONTINUOUS
 62
256
 10
-265.340620857898330
 20
232.250280827118100
 40
390.797000000000030
 50
264.582036237639500
 51
270.000000000000000
  0
ARC
  8
0
  6
CONTINUOUS
 62
256
 10
-301.956585796916670
 20
-153.814201248848800
 40
3.000000000000346
 50
224.999999999996930
 51
264.582036237634780
  0
ARC
  8
0
  6
CONTINUOUS
 62
256
 10
-506.940620857898690
 20
-114.349719172882030
 40
290.797000000000140
 50
354.998349729065010
 51
0.000000000000000
  0
LINE
  8
0
  6
CONTINUOUS
 62
256
 10
-223.263030542042320
 20
-152.595216559130680
 11
-226.603335575319990
 21
-155.935521592408580
  0
ARC
  8
0
  6
CONTINUOUS
 62
256
 10
-237.968730270378960
 20
-137.889516830794040
 40
20.797000000000015
 50
315.000000000000000
 51
354.998349729064610
  0
ARC
  8
0
  6
CONTINUOUS
 62
256
 10
-265.340620857898330
 20
232.250280827118100
 40
390.797000000000030
 50
270.000000000000000
 51
275.417963762360500
  0
ARC
  8
0
  6
CONTINUOUS
 62
256
 10
-228.724655918879990
 20
-153.814201248848800
 40
3.000000000000067
 50
275.417963762365730
 51
315.000000000003070
  0
ARC
  8
0
  6
CONTINUOUS
 62
256
 10
-506.940620857898690
 20
-114.349719172882030
 40
290.797000000000480
 50
0.000000000000000
 51
5.752282731536625
  0
ARC
  8
0
  6
CONTINUOUS
 62
256
 10
-228.724655918879990
 20
-74.885237096915262
 40
3.000000000000346
 50
44.999999999996930
 51
84.582036237634298
  0
ARC
  8
0
  6
CONTINUOUS
 62
256
 10
-265.340620857898330
 20
-460.949719172882230
 40
390.797000000000140
 50
84.582036237639471
 51
90.000000000000000
  0
LINE
  8
0
  6
CONTINUOUS
 62
256
 10
-220.715921703280630
 20
-78.651330625395531
 11
-226.603335575319990
 21
-72.763916753355488
  0
ARC
  8
0
  6
CONTINUOUS
 62
256
 10
-304.771487857985680
 20
-68.927772430583673
 40
6.600000000000009
 50
95.743681810995113
 51
135.000000000002870
  0
ARC
  8
0
  6
CONTINUOUS
 62
256
 10
-304.771487857985680
 20
-159.771665915180390
 40
6.600000000000278
 50
224.999999999997190
 51
264.256318189004620
  0
ARC
  8
0
  6
CONTINUOUS
 62
256
 10
-225.909753857810980
 20
-159.771665915180390
 40
6.600000000000009
 50
275.743681810995100
 51
315.000000000002790
  0
ARC
  8
0
  6
CONTINUOUS
 62
256
 10
-225.909753857810980
 20
-68.927772430583673
 40
6.600000000000278
 50
44.999999999997208
 51
84.256318189004887
  0
ARC
  8
0
  6
CONTINUOUS
 62
256
 10
-265.340620857898330
 20
-460.949719172882230
 40
400.599999999999970
 50
90.000000000000000
 51
95.743681810993436
  0
ARC
  8
0
  6
CONTINUOUS
 62
256
 10
-265.340620857898330
 20
232.250280827118100
 40
400.599999999999910
 50
264.256318189006550
 51
270.000000000000000
  0
ARC
  8
0
  6
CONTINUOUS
 62
256
 10
-265.340620857898330
 20
232.250280827118100
 40
400.599999999999910
 50
270.000000000000000
 51
275.743681810993510
  0
ARC
  8
0
  6
CONTINUOUS
 62
256
 10
-265.340620857898330
 20
-460.949719172882230
 40
400.599999999999970
 50
84.256318189006564
 51
90.000000000000000
  0
ARC
  8
0
  6
CONTINUOUS
 62
256
 10
-23.740620857897966
 20
-114.349719172882030
 40
300.599999999999910
 50
174.247717268463390
 51
180.000000000000000
  0
ARC
  8
0
  6
CONTINUOUS
 62
256
 10
-23.740620857897966
 20
-114.349719172882030
 40
300.600000000000360
 50
180.000000000000000
 51
185.752282731536610
  0
ARC
  8
0
  6
CONTINUOUS
 62
256
 10
-506.940620857898690
 20
-114.349719172882030
 40
300.599999999999910
 50
354.247717268463420
 51
0.000000000000000
  0
ARC
  8
0
  6
CONTINUOUS
 62
256
 10
-506.940620857898690
 20
-114.349719172882030
 40
300.600000000000360
 50
0.000000000000000
 51
5.752282731536604
  0
ARC
  8
0
  6
CONTINUOUS
 62
256
 10
-268.840620857898330
 20
-149.174279471613770
 40
1.000000000000000
 50
0.000000000000000
 51
84.260829522738462
  0
ARC
  8
0
  6
CONTINUOUS
 62
256
 10
-268.840620857898330
 20
-152.188191657907050
 40
1.000000000000042
 50
264.715267045464260
 51
0.000000000000000
  0
ARC
  8
0
  6
CONTINUOUS
 62
256
 10
-268.840620857898330
 20
-143.641356204635710
 40
1.000000000000077
 50
263.186145655820330
 51
0.000000000000000
  0
LINE
  8
0
  6
CONTINUOUS
 62
256
 10
-267.840620857898330
 20
-152.188191657907050
 11
-267.840620857898330
 21
-149.174279471613770
  0
ARC
  8
0
  6
CONTINUOUS
 62
256
 10
-282.381549541271170
 20
-120.146852051141200
 40
0.999999999999885
 50
300.000000000003810
 51
18.787728582347054
  0
LINE
  8
0
  6
CONTINUOUS
 62
256
 10
-284.522784698327770
 20
-122.537795283845070
 11
-281.881549541271170
 21
-121.012877454925500
  0
ARC
  8
0
  6
CONTINUOUS
 62
256
 10
-285.022784698327770
 20
-121.671769880060760
 40
1.000000000000094
 50
200.405931773138660
 51
300.000000000004150
  0
ARC
  8
0
  6
CONTINUOUS
 62
256
 10
-289.839247190052670
 20
-124.452555796200390
 40
1.000000000000082
 50
299.999999999997270
 51
22.410457608146118
  0
ARC
  8
0
  6
CONTINUOUS
 62
256
 10
-297.249574752222770
 20
-128.730910409002260
 40
1.000000000000082
 50
299.999999999997270
 51
24.260829522734443
  0
LINE
  8
0
  6
CONTINUOUS
 62
256
 10
-291.957922645830190
 20
-126.830474179297880
 11
-289.339247190052670
 21
-125.318581199984910
  0
ARC
  8
0
  6
CONTINUOUS
 62
256
 10
-292.457922645830190
 20
-125.964448775513350
 40
0.999999999999730
 50
203.186145655819840
 51
299.999999999997390
  0
LINE
  8
0
  6
CONTINUOUS
 62
256
 10
-299.359699270328520
 20
-131.103891905933320
 11
-296.749574752222770
 21
-129.596935812786800
  0
ARC
  8
0
  6
CONTINUOUS
 62
256
 10
-299.859699270328520
 20
-130.237866502149020
 40
1.000000000000249
 50
204.715267045455480
 51
300.000000000003300
  0
ARC
  8
0
  6
CONTINUOUS
 62
256
 10
-296.359699270328520
 20
-136.300044328640300
 40
1.000000000000082
 50
119.999999999997300
 51
215.284732954534750
  0
ARC
  8
0
  6
CONTINUOUS
 62
256
 10
-293.749574752222770
 20
-134.793088235493310
 40
0.999999999999807
 50
35.739170477263514
 51
120.000000000002610
  0
ARC
  8
0
  6
CONTINUOUS
 62
256
 10
-268.840620857898330
 20
-140.617570246009340
 40
1.000000000000000
 50
0.000000000000000
 51
82.410457608145990
  0
ARC
  8
0
  6
CONTINUOUS
 62
256
 10
-288.957922645830190
 20
-132.026626602004170
 40
0.999999999999885
 50
120.000000000003810
 51
216.813854344195820
  0
ARC
  8
0
  6
CONTINUOUS
 62
256
 10
-286.339247190053130
 20
-130.514733622691210
 40
1.000000000000194
 50
37.589542391851786
 51
119.999999999997670
  0
ARC
  8
0
  6
CONTINUOUS
 62
256
 10
-268.840620857898330
 20
-135.055998413730550
 40
1.000000000000268
 50
260.405931773124510
 51
0.000000000000000
  0
ARC
  8
0
  6
CONTINUOUS
 62
256
 10
-268.840620857898330
 20
-132.006162755891640
 40
1.000000000000000
 50
0.000000000000000
 51
78.787728582356308
  0
ARC
  8
0
  6
CONTINUOUS
 62
256
 10
-281.522784698327310
 20
-127.733947706551820
 40
0.999999999999885
 50
120.000000000003810
 51
219.594068226860320
  0
ARC
  8
0
  6
CONTINUOUS
 62
256
 10
-278.881549541271170
 20
-126.209029877632470
 40
1.000000000000165
 50
41.212271417643834
 51
119.999999999998080
  0
ARC
  8
0
  6
CONTINUOUS
 62
256
 10
-273.982925703311820
 20
-123.380808086127440
 40
0.999999999999885
 50
120.000000000003810
 51
226.260204708329240
  0
ARC
  8
0
  6
CONTINUOUS
 62
256
 10
-268.840620857898330
 20
-126.349719172882030
 40
0.999999999999964
 50
253.739795291702650
 51
0.000000000000000
  0
ARC
  8
0
  6
CONTINUOUS
 62
256
 10
-268.840620857898330
 20
-123.181480039209870
 40
1.000000000000000
 50
0.000000000000000
 51
68.381727577839243
  0
ARC
  8
0
  6
CONTINUOUS
 62
256
 10
-271.239150128287520
 20
-121.796688519291370
 40
0.999999999999961
 50
51.618272422159770
 51
120.000000000004590
  0
ARC
  8
0
  6
CONTINUOUS
 62
256
 10
-265.340620857898330
 20
-114.349719172882030
 40
38.999999999999865
 50
215.284732954534800
 51
264.715267045465400
  0
ARC
  8
0
  6
CONTINUOUS
 62
256
 10
-265.340620857898330
 20
-114.349719172882030
 40
30.499999999999964
 50
216.813854344181040
 51
263.186145655819020
  0
ARC
  8
0
  6
CONTINUOUS
 62
256
 10
-265.340620857898330
 20
-114.349719172882030
 40
33.999999999999964
 50
215.739170477266950
 51
264.260829522733050
  0
ARC
  8
0
  6
CONTINUOUS
 62
256
 10
-265.340620857898330
 20
-114.349719172882030
 40
25.499999999999890
 50
217.589542391857950
 51
262.410457608141770
  0
ARC
  8
0
  6
CONTINUOUS
 62
256
 10
-265.340620857898330
 20
-114.349719172882030
 40
22.000000000000025
 50
219.594068226860800
 51
260.405931773138780
  0
ARC
  8
0
  6
CONTINUOUS
 62
256
 10
-265.340620857898330
 20
-114.349719172882030
 40
16.999999999999773
 50
221.212271417650750
 51
258.787728582349980
  0
ARC
  8
0
  6
CONTINUOUS
 62
256
 10
-265.340620857898330
 20
-114.349719172882030
 40
13.499999999999927
 50
226.260204708312130
 51
253.739795291689090
  0
ARC
  8
0
  6
CONTINUOUS
 62
256
 10
-265.340620857898330
 20
-114.349719172882030
 40
8.499999999999949
 50
231.618272422157330
 51
248.381727577842410
  0
LINE
  8
0
  6
CONTINUOUS
 62
256
 10
-289.457922645830190
 20
-131.160601198219870
 11
-286.839247190053130
 21
-129.648708218906680
  0
LINE
  8
0
  6
CONTINUOUS
 62
256
 10
-296.859699270328520
 20
-135.434018924855760
 11
-294.249574752222770
 21
-133.927062831709010
  0
LINE
  8
0
  6
CONTINUOUS
 62
256
 10
-282.022784698327310
 20
-126.867922302767510
 11
-279.381549541271170
 21
-125.343004473847940
  0
LINE
  8
0
  6
CONTINUOUS
 62
256
 10
-274.482925703311820
 20
-122.514782682343120
 11
-271.739150128287520
 21
-120.930663115507040
  0
LINE
  8
0
  6
CONTINUOUS
 62
256
 10
-267.840620857898330
 20
-126.349719172882030
 11
-267.840620857898330
 21
-123.181480039209870
  0
LINE
  8
0
  6
CONTINUOUS
 62
256
 10
-267.840620857898330
 20
-135.055998413730550
 11
-267.840620857898330
 21
-132.006162755891640
  0
LINE
  8
0
  6
CONTINUOUS
 62
256
 10
-267.840620857898330
 20
-143.641356204635710
 11
-267.840620857898330
 21
-140.617570246009340
  0
ARC
  8
0
  6
CONTINUOUS
 62
256
 10
-274.739150128287520
 20
-115.734510692800540
 40
0.999999999999885
 50
300.000000000003810
 51
8.381727577845361
  0
ARC
  8
0
  6
CONTINUOUS
 62
256
 10
-265.340620857898330
 20
-114.349719172882030
 40
8.499999999999972
 50
171.618272422157790
 51
188.381727577842210
  0
LINE
  8
0
  6
CONTINUOUS
 62
256
 10
-276.982925703311820
 20
-118.184655663420930
 11
-274.239150128287520
 21
-116.600536096584850
  0
ARC
  8
0
  6
CONTINUOUS
 62
256
 10
-277.482925703311820
 20
-117.318630259636620
 40
0.999999999999879
 50
193.739795291686020
 51
300.000000000003810
  0
ARC
  8
0
  6
CONTINUOUS
 62
256
 10
-268.840620857898330
 20
-96.693275589872428
 40
0.999999999999982
 50
281.212271417643990
 51
0.000000000000000
  0
LINE
  8
0
  6
CONTINUOUS
 62
256
 10
-267.840620857898330
 20
-93.643439932033516
 11
-267.840620857898330
 21
-96.693275589872428
  0
ARC
  8
0
  6
CONTINUOUS
 62
256
 10
-268.840620857898330
 20
-93.643439932033516
 40
1.000000000000000
 50
0.000000000000000
 51
99.594068226874853
  0
ARC
  8
0
  6
CONTINUOUS
 62
256
 10
-268.840620857898330
 20
-88.081868099754729
 40
0.999999999999749
 50
277.589542391855960
 51
0.000000000013028
  0
LINE
  8
0
  6
CONTINUOUS
 62
256
 10
-267.840620857898330
 20
-85.058082141128352
 11
-267.840620857898330
 21
-88.081868099754502
  0
ARC
  8
0
  6
CONTINUOUS
 62
256
 10
-268.840620857898330
 20
-85.058082141128352
 40
1.000000000000000
 50
0.000000000000000
 51
96.813854344180172
  0
ARC
  8
0
  6
CONTINUOUS
 62
256
 10
-268.840620857898330
 20
-79.525158874150293
 40
0.999999999999973
 50
275.739170477261670
 51
0.000000000000000
  0
LINE
  8
0
  6
CONTINUOUS
 62
256
 10
-267.840620857898330
 20
-76.511246687857010
 11
-267.840620857898330
 21
-79.525158874150293
  0
ARC
  8
0
  6
CONTINUOUS
 62
256
 10
-268.840620857898330
 20
-76.511246687857010
 40
1.000000000000000
 50
0.000000000000000
 51
95.284732954535926
  0
ARC
  8
0
  6
CONTINUOUS
 62
256
 10
-288.957922645830190
 20
-96.672811743759667
 40
0.999999999999774
 50
143.186145655813330
 51
240.000000000003440
  0
LINE
  8
0
  6
CONTINUOUS
 62
256
 10
-289.457922645830190
 20
-97.538837147544200
 11
-286.839247190052670
 21
-99.050730126857388
  0
ARC
  8
0
  6
CONTINUOUS
 62
256
 10
-286.339247190052670
 20
-98.184704723072855
 40
1.000000000000082
 50
240.000000000002670
 51
322.410457608131140
  0
ARC
  8
0
  6
CONTINUOUS
 62
256
 10
-296.359699270328520
 20
-92.399394017123996
 40
0.999999999999908
 50
144.715267045455050
 51
239.999999999996560
  0
LINE
  8
0
  6
CONTINUOUS
 62
256
 10
-296.859699270328520
 20
-93.265419420908302
 11
-294.249574752222770
 21
-94.772375514055057
  0
ARC
  8
0
  6
CONTINUOUS
 62
256
 10
-293.749574752222770
 20
-93.906350110270751
 40
0.999999999999885
 50
239.999999999996160
 51
324.260829522725320
  0
ARC
  8
0
  6
CONTINUOUS
 62
256
 10
-271.239150128287520
 20
-106.902749826472470
 40
1.000000000000082
 50
240.000000000002670
 51
308.381727577839230
  0
LINE
  8
0
  6
CONTINUOUS
 62
256
 10
-274.482925703311820
 20
-106.184655663420930
 11
-271.739150128287520
 21
-107.768775230257010
  0
ARC
  8
0
  6
CONTINUOUS
 62
256
 10
-278.881549541271170
 20
-102.490408468131800
 40
0.999999999999885
 50
239.999999999996160
 51
318.787728582349130
  0
LINE
  8
0
  6
CONTINUOUS
 62
256
 10
-282.022784698327310
 20
-101.831516042996550
 11
-279.381549541271170
 21
-103.356433871916120
  0
ARC
  8
0
  6
CONTINUOUS
 62
256
 10
-281.522784698327310
 20
-100.965490639212020
 40
1.000000000000173
 50
140.405931773149600
 51
240.000000000002330
  0
ARC
  8
0
  6
CONTINUOUS
 62
256
 10
-268.840620857898330
 20
-105.517958306554190
 40
1.000000000000090
 50
291.618272422162020
 51
0.000000000000000
  0
ARC
  8
0
  6
CONTINUOUS
 62
256
 10
-265.340620857898330
 20
-114.349719172882030
 40
8.499999999999904
 50
111.618272422157720
 51
128.381727577841810
  0
ARC
  8
0
  6
CONTINUOUS
 62
256
 10
-273.982925703311820
 20
-105.318630259636620
 40
0.999999999999858
 50
133.739795291671330
 51
239.999999999995340
  0
LINE
  8
0
  6
CONTINUOUS
 62
256
 10
-267.840620857898330
 20
-102.349719172882030
 11
-267.840620857898330
 21
-105.517958306554190
  0
ARC
  8
0
  6
CONTINUOUS
 62
256
 10
-268.840620857898330
 20
-102.349719172882030
 40
1.000000000000000
 50
0.000000000000000
 51
106.260204708296920
  0
ARC
  8
0
  6
CONTINUOUS
 62
256
 10
-265.340620857898330
 20
-114.349719172882030
 40
13.499999999999963
 50
106.260204708310880
 51
133.739795291687780
  0
ARC
  8
0
  6
CONTINUOUS
 62
256
 10
-265.340620857898330
 20
-114.349719172882030
 40
17.000000000000046
 50
101.212271417650020
 51
138.787728582350240
  0
ARC
  8
0
  6
CONTINUOUS
 62
256
 10
-265.340620857898330
 20
-114.349719172882030
 40
22.000000000000131
 50
99.594068226861211
 51
140.405931773139140
  0
ARC
  8
0
  6
CONTINUOUS
 62
256
 10
-265.340620857898330
 20
-114.349719172882030
 40
30.500000000000135
 50
96.813854344181038
 51
143.186145655818930
  0
ARC
  8
0
  6
CONTINUOUS
 62
256
 10
-265.340620857898330
 20
-114.349719172882030
 40
25.500000000000160
 50
97.589542391858117
 51
142.410457608142050
  0
ARC
  8
0
  6
CONTINUOUS
 62
256
 10
-265.340620857898330
 20
-114.349719172882030
 40
34.000000000000071
 50
95.739170477266939
 51
144.260829522733360
  0
ARC
  8
0
  6
CONTINUOUS
 62
256
 10
-265.340620857898330
 20
-114.349719172882030
 40
38.999999999999986
 50
95.284732954534590
 51
144.715267045465230
  0
ARC
  8
0
  6
CONTINUOUS
 62
256
 10
-292.457922645830190
 20
-102.734989570250700
 40
1.000000000000082
 50
60.000000000002721
 51
156.813854344180360
  0
LINE
  8
0
  6
CONTINUOUS
 62
256
 10
-291.957922645830190
 20
-101.868964166466180
 11
-289.339247190052670
 21
-103.380857145779370
  0
ARC
  8
0
  6
CONTINUOUS
 62
256
 10
-289.839247190052670
 20
-104.246882549563910
 40
0.999999999999701
 50
337.589542391853970
 51
60.000000000001812
  0
ARC
  8
0
  6
CONTINUOUS
 62
256
 10
-299.859699270328520
 20
-98.461571843615047
 40
1.000000000000082
 50
60.000000000002721
 51
155.284732954544150
  0
LINE
  8
0
  6
CONTINUOUS
 62
256
 10
-299.359699270328520
 20
-97.595546439830514
 11
-296.749574752222770
 21
-99.102502532977269
  0
ARC
  8
0
  6
CONTINUOUS
 62
256
 10
-297.249574752222770
 20
-99.968527936761575
 40
0.999999999999863
 50
335.739170477254390
 51
59.999999999995801
  0
ARC
  8
0
  6
CONTINUOUS
 62
256
 10
-274.739150128287520
 20
-112.964927652963750
 40
1.000000000000026
 50
351.618272422167310
 51
60.000000000001499
  0
LINE
  8
0
  6
CONTINUOUS
 62
256
 10
-276.982925703311820
 20
-110.514782682343120
 11
-274.239150128287520
 21
-112.098902249179200
  0
ARC
  8
0
  6
CONTINUOUS
 62
256
 10
-282.381549541271170
 20
-108.552586294622870
 40
1.000000000000076
 50
341.212271417653030
 51
60.000000000002721
  0
LINE
  8
0
  6
CONTINUOUS
 62
256
 10
-284.522784698327770
 20
-106.161643061918990
 11
-281.881549541271170
 21
-107.686560890838340
  0
ARC
  8
0
  6
CONTINUOUS
 62
256
 10
-285.022784698327770
 20
-107.027668465703300
 40
0.999999999999885
 50
59.999999999996206
 51
159.594068226861740
  0
ARC
  8
0
  6
CONTINUOUS
 62
256
 10
-277.482925703311820
 20
-111.380808086127440
 40
0.999999999999885
 50
59.999999999996206
 51
166.260204708308440
  0
ARC
  8
0
  6
CONTINUOUS
 62
256
 10
-265.340620857898330
 20
-114.349719172882030
 40
13.499999999999687
 50
166.260204708311360
 51
193.739795291688210
  0
ARC
  8
0
  6
CONTINUOUS
 62
256
 10
-265.340620857898330
 20
-114.349719172882030
 40
16.999999999999716
 50
161.212271417649590
 51
198.787728582350440
  0
ARC
  8
0
  6
CONTINUOUS
 62
256
 10
-265.340620857898330
 20
-114.349719172882030
 40
22.000000000000206
 50
159.594068226860770
 51
200.405931773139230
  0
ARC
  8
0
  6
CONTINUOUS
 62
256
 10
-265.340620857898330
 20
-114.349719172882030
 40
30.499999999999954
 50
156.813854344181150
 51
203.186145655818820
  0
ARC
  8
0
  6
CONTINUOUS
 62
256
 10
-265.340620857898330
 20
-114.349719172882030
 40
25.500000000000000
 50
157.589542391858000
 51
202.410457608142480
  0
ARC
  8
0
  6
CONTINUOUS
 62
256
 10
-265.340620857898330
 20
-114.349719172882030
 40
34.000000000000007
 50
155.739170477266780
 51
204.260829522733220
  0
ARC
  8
0
  6
CONTINUOUS
 62
256
 10
-265.340620857898330
 20
-114.349719172882030
 40
39.000000000000220
 50
155.284732954534800
 51
204.715267045465200
  0
LINE
  8
0
  6
CONTINUOUS
 62
256
 10
-262.840620857898330
 20
-143.641356204635710
 11
-262.840620857898330
 21
-140.617570246009340
  0
LINE
  8
0
  6
CONTINUOUS
 62
256
 10
-262.840620857898330
 20
-135.055998413730550
 11
-262.840620857898330
 21
-132.006162755891640
  0
LINE
  8
0
  6
CONTINUOUS
 62
256
 10
-262.840620857898330
 20
-126.349719172882030
 11
-262.840620857898330
 21
-123.181480039209870
  0
LINE
  8
0
  6
CONTINUOUS
 62
256
 10
-256.198316012484840
 20
-122.514782682343120
 11
-258.942091587509140
 21
-120.930663115507040
  0
LINE
  8
0
  6
CONTINUOUS
 62
256
 10
-248.658457017469350
 20
-126.867922302767510
 11
-251.299692174525490
 21
-125.343004473847940
  0
LINE
  8
0
  6
CONTINUOUS
 62
256
 10
-233.821542445468140
 20
-135.434018924855760
 11
-236.431666963573890
 21
-133.927062831709010
  0
LINE
  8
0
  6
CONTINUOUS
 62
256
 10
-262.840620857898330
 20
-152.188191657907050
 11
-262.840620857898330
 21
-149.174279471613770
  0
LINE
  8
0
  6
CONTINUOUS
 62
256
 10
-241.223319069966460
 20
-131.160601198219870
 11
-243.841994525743530
 21
-129.648708218906680
  0
ARC
  8
0
  6
CONTINUOUS
 62
256
 10
-265.340620857898330
 20
-114.349719172882030
 40
8.499999999999904
 50
291.618272422157700
 51
308.381727577842750
  0
ARC
  8
0
  6
CONTINUOUS
 62
256
 10
-265.340620857898330
 20
-114.349719172882030
 40
13.499999999999963
 50
286.260204708310820
 51
313.739795291687760
  0
ARC
  8
0
  6
CONTINUOUS
 62
256
 10
-265.340620857898330
 20
-114.349719172882030
 40
17.000000000000046
 50
281.212271417650020
 51
318.787728582350210
  0
ARC
  8
0
  6
CONTINUOUS
 62
256
 10
-265.340620857898330
 20
-114.349719172882030
 40
22.000000000000131
 50
279.594068226861170
 51
320.405931773139170
  0
ARC
  8
0
  6
CONTINUOUS
 62
256
 10
-265.340620857898330
 20
-114.349719172882030
 40
25.499999999999932
 50
277.589542391858170
 51
322.410457608142050
  0
ARC
  8
0
  6
CONTINUOUS
 62
256
 10
-265.340620857898330
 20
-114.349719172882030
 40
34.000000000000071
 50
275.739170477266950
 51
324.260829522733050
  0
ARC
  8
0
  6
CONTINUOUS
 62
256
 10
-265.340620857898330
 20
-114.349719172882030
 40
30.500000000000135
 50
276.813854344181040
 51
323.186145655818850
  0
ARC
  8
0
  6
CONTINUOUS
 62
256
 10
-265.340620857898330
 20
-114.349719172882030
 40
38.999999999999986
 50
275.284732954534600
 51
324.715267045465230
  0
ARC
  8
0
  6
CONTINUOUS
 62
256
 10
-259.442091587509140
 20
-121.796688519291370
 40
0.999999999999885
 50
59.999999999996206
 51
128.381727577839710
  0
ARC
  8
0
  6
CONTINUOUS
 62
256
 10
-261.840620857898330
 20
-123.181480039209870
 40
1.000000000000090
 50
111.618272422161990
 51
180.000000000000000
  0
ARC
  8
0
  6
CONTINUOUS
 62
256
 10
-261.840620857898330
 20
-126.349719172882030
 40
1.000000000000000
 50
180.000000000000000
 51
286.260204708296900
  0
ARC
  8
0
  6
CONTINUOUS
 62
256
 10
-256.698316012484840
 20
-123.380808086127440
 40
0.999999999999858
 50
313.739795291671330
 51
59.999999999995389
  0
ARC
  8
0
  6
CONTINUOUS
 62
256
 10
-251.799692174525490
 20
-126.209029877632470
 40
1.000000000000082
 50
60.000000000002721
 51
138.787728582339180
  0
ARC
  8
0
  6
CONTINUOUS
 62
256
 10
-249.158457017469350
 20
-127.733947706551820
 40
1.000000000000318
 50
320.405931773139570
 51
59.999999999995502
  0
ARC
  8
0
  6
CONTINUOUS
 62
256
 10
-261.840620857898330
 20
-132.006162755891640
 40
0.999999999999982
 50
101.212271417644000
 51
180.000000000000000
  0
ARC
  8
0
  6
CONTINUOUS
 62
256
 10
-261.840620857898330
 20
-135.055998413730550
 40
1.000000000000000
 50
180.000000000000000
 51
279.594068226874700
  0
ARC
  8
0
  6
CONTINUOUS
 62
256
 10
-261.840620857898330
 20
-143.641356204635710
 40
1.000000000000000
 50
180.000000000000000
 51
276.813854344180240
  0
ARC
  8
0
  6
CONTINUOUS
 62
256
 10
-244.341994525743530
 20
-130.514733622691210
 40
1.000000000000082
 50
60.000000000002721
 51
142.410457608147820
  0
ARC
  8
0
  6
CONTINUOUS
 62
256
 10
-241.723319069966460
 20
-132.026626602004170
 40
0.999999999999911
 50
323.186145655802870
 51
59.999999999997016
  0
ARC
  8
0
  6
CONTINUOUS
 62
256
 10
-261.840620857898330
 20
-140.617570246009340
 40
0.999999999999975
 50
97.589542391854238
 51
180.000000000000000
  0
ARC
  8
0
  6
CONTINUOUS
 62
256
 10
-261.840620857898330
 20
-152.188191657907050
 40
1.000000000000000
 50
180.000000000000000
 51
275.284732954535800
  0
ARC
  8
0
  6
CONTINUOUS
 62
256
 10
-261.840620857898330
 20
-149.174279471613770
 40
0.999999999999973
 50
95.739170477261709
 51
180.000000000000000
  0
ARC
  8
0
  6
CONTINUOUS
 62
256
 10
-236.931666963573890
 20
-134.793088235493310
 40
0.999999999999885
 50
59.999999999996206
 51
144.260829522735750
  0
ARC
  8
0
  6
CONTINUOUS
 62
256
 10
-234.321542445468140
 20
-136.300044328640300
 40
0.999999999999776
 50
324.715267045465680
 51
60.000000000002437
  0
CIRCLE
  8
0
  6
CONTINUOUS
 62
256
 10
-265.340620857898330
 20
-114.349719172882030
 40
5.000000000000000
  0
ARC
  8
0
  6
CONTINUOUS
 62
256
 10
-230.821542445468140
 20
-130.237866502149020
 40
0.999999999999885
 50
239.999999999996160
 51
335.284732954543760
  0
LINE
  8
0
  6
CONTINUOUS
 62
256
 10
-231.321542445468140
 20
-131.103891905933320
 11
-233.931666963573890
 21
-129.596935812786800
  0
ARC
  8
0
  6
CONTINUOUS
 62
256
 10
-265.340620857898330
 20
-114.349719172882030
 40
39.000000000000220
 50
335.284732954534830
 51
24.715267045465190
  0
ARC
  8
0
  6
CONTINUOUS
 62
256
 10
-265.340620857898330
 20
-114.349719172882030
 40
34.000000000000014
 50
335.739170477266730
 51
24.260829522733218
  0
ARC
  8
0
  6
CONTINUOUS
 62
256
 10
-265.340620857898330
 20
-114.349719172882030
 40
25.500000000000085
 50
337.589542391857490
 51
22.410457608142003
  0
ARC
  8
0
  6
CONTINUOUS
 62
256
 10
-265.340620857898330
 20
-114.349719172882030
 40
30.499999999999954
 50
336.813854344181150
 51
23.186145655818844
  0
ARC
  8
0
  6
CONTINUOUS
 62
256
 10
-238.223319069966460
 20
-125.964448775513350
 40
1.000000000000082
 50
240.000000000002670
 51
336.813854344179730
  0
LINE
  8
0
  6
CONTINUOUS
 62
256
 10
-238.723319069966460
 20
-126.830474179297880
 11
-241.341994525743980
 21
-125.318581199984910
  0
ARC
  8
0
  6
CONTINUOUS
 62
256
 10
-265.340620857898330
 20
-114.349719172882030
 40
22.000000000000206
 50
339.594068226860770
 51
20.405931773139223
  0
ARC
  8
0
  6
CONTINUOUS
 62
256
 10
-233.431666963573890
 20
-128.730910409002260
 40
0.999999999999769
 50
155.739170477266270
 51
240.000000000003040
  0
ARC
  8
0
  6
CONTINUOUS
 62
256
 10
-240.841994525743980
 20
-124.452555796200390
 40
0.999999999999701
 50
157.589542391853970
 51
240.000000000003180
  0
ARC
  8
0
  6
CONTINUOUS
 62
256
 10
-245.658457017468890
 20
-121.671769880060760
 40
0.999999999999885
 50
239.999999999996160
 51
339.594068226861170
  0
ARC
  8
0
  6
CONTINUOUS
 62
256
 10
-265.340620857898330
 20
-114.349719172882030
 40
17.000000000000146
 50
341.212271417650070
 51
18.787728582350436
  0
LINE
  8
0
  6
CONTINUOUS
 62
256
 10
-246.158457017468890
 20
-122.537795283845070
 11
-248.799692174525490
 21
-121.012877454925500
  0
ARC
  8
0
  6
CONTINUOUS
 62
256
 10
-248.299692174525490
 20
-120.146852051141200
 40
0.999999999999646
 50
161.212271417644640
 51
239.999999999995770
  0
ARC
  8
0
  6
CONTINUOUS
 62
256
 10
-265.340620857898330
 20
-114.349719172882030
 40
13.500000000000130
 50
346.260204708311850
 51
13.739795291688171
  0
ARC
  8
0
  6
CONTINUOUS
 62
256
 10
-253.198316012484840
 20
-117.318630259636620
 40
0.999999999999885
 50
239.999999999996160
 51
346.260204708314010
  0
LINE
  8
0
  6
CONTINUOUS
 62
256
 10
-253.698316012484840
 20
-118.184655663420930
 11
-256.442091587509140
 21
-116.600536096584850
  0
ARC
  8
0
  6
CONTINUOUS
 62
256
 10
-253.198316012484840
 20
-111.380808086127440
 40
0.999999999999879
 50
13.739795291686027
 51
120.000000000003810
  0
ARC
  8
0
  6
CONTINUOUS
 62
256
 10
-265.340620857898330
 20
-114.349719172882030
 40
8.499999999999972
 50
351.618272422157820
 51
8.381727577842204
  0
ARC
  8
0
  6
CONTINUOUS
 62
256
 10
-255.942091587509140
 20
-115.734510692800540
 40
1.000000000000059
 50
171.618272422154460
 51
239.999999999995050
  0
ARC
  8
0
  6
CONTINUOUS
 62
256
 10
-245.658457017468890
 20
-107.027668465703300
 40
1.000000000000094
 50
20.405931773138683
 51
120.000000000004160
  0
LINE
  8
0
  6
CONTINUOUS
 62
256
 10
-246.158457017468890
 20
-106.161643061918990
 11
-248.799692174525490
 21
-107.686560890838340
  0
ARC
  8
0
  6
CONTINUOUS
 62
256
 10
-248.299692174525490
 20
-108.552586294622870
 40
1.000000000000082
 50
119.999999999997300
 51
198.787728582347000
  0
LINE
  8
0
  6
CONTINUOUS
 62
256
 10
-253.698316012484840
 20
-110.514782682343120
 11
-256.442091587509140
 21
-112.098902249179200
  0
ARC
  8
0
  6
CONTINUOUS
 62
256
 10
-255.942091587509140
 20
-112.964927652963750
 40
1.000000000000082
 50
119.999999999997300
 51
188.381727577833000
  0
ARC
  8
0
  6
CONTINUOUS
 62
256
 10
-233.431666963573890
 20
-99.968527936761575
 40
0.999999999999885
 50
120.000000000003810
 51
204.260829522745640
  0
LINE
  8
0
  6
CONTINUOUS
 62
256
 10
-231.321542445468140
 20
-97.595546439830514
 11
-233.931666963573890
 21
-99.102502532977269
  0
ARC
  8
0
  6
CONTINUOUS
 62
256
 10
-230.821542445468140
 20
-98.461571843615047
 40
1.000000000000249
 50
24.715267045455473
 51
119.999999999997440
  0
ARC
  8
0
  6
CONTINUOUS
 62
256
 10
-240.841994525743980
 20
-104.246882549563910
 40
1.000000000000082
 50
119.999999999997300
 51
202.410457608146120
  0
LINE
  8
0
  6
CONTINUOUS
 62
256
 10
-238.723319069966460
 20
-101.868964166466180
 11
-241.341994525743980
 21
-103.380857145779370
  0
ARC
  8
0
  6
CONTINUOUS
 62
256
 10
-238.223319069966460
 20
-102.734989570250700
 40
0.999999999999730
 50
23.186145655819846
 51
119.999999999997370
  0
ARC
  8
0
  6
CONTINUOUS
 62
256
 10
-265.340620857898330
 20
-114.349719172882030
 40
38.999999999999865
 50
35.284732954534789
 51
84.715267045465410
  0
ARC
  8
0
  6
CONTINUOUS
 62
256
 10
-265.340620857898330
 20
-114.349719172882030
 40
33.999999999999829
 50
35.739170477266640
 51
84.260829522733033
  0
ARC
  8
0
  6
CONTINUOUS
 62
256
 10
-265.340620857898330
 20
-114.349719172882030
 40
25.499999999999890
 50
37.589542391857954
 51
82.410457608141925
  0
ARC
  8
0
  6
CONTINUOUS
 62
256
 10
-265.340620857898330
 20
-114.349719172882030
 40
30.499999999999964
 50
36.813854344181067
 51
83.186145655818933
  0
ARC
  8
0
  6
CONTINUOUS
 62
256
 10
-265.340620857898330
 20
-114.349719172882030
 40
22.000000000000025
 50
39.594068226860820
 51
80.405931773138747
  0
ARC
  8
0
  6
CONTINUOUS
 62
256
 10
-265.340620857898330
 20
-114.349719172882030
 40
17.000000000000114
 50
41.212271417649752
 51
78.787728582350027
  0
ARC
  8
0
  6
CONTINUOUS
 62
256
 10
-265.340620857898330
 20
-114.349719172882030
 40
13.499999999999927
 50
46.260204708312138
 51
73.739795291689092
  0
ARC
  8
0
  6
CONTINUOUS
 62
256
 10
-261.840620857898330
 20
-102.349719172882030
 40
0.999999999999964
 50
73.739795291702634
 51
180.000000000000000
  0
LINE
  8
0
  6
CONTINUOUS
 62
256
 10
-262.840620857898330
 20
-102.349719172882030
 11
-262.840620857898330
 21
-105.517958306554190
  0
ARC
  8
0
  6
CONTINUOUS
 62
256
 10
-256.698316012484840
 20
-105.318630259636620
 40
0.999999999999885
 50
300.000000000003810
 51
46.260204708329255
  0
ARC
  8
0
  6
CONTINUOUS
 62
256
 10
-265.340620857898330
 20
-114.349719172882030
 40
8.500000000000128
 50
51.618272422158320
 51
68.381727577842469
  0
ARC
  8
0
  6
CONTINUOUS
 62
256
 10
-261.840620857898330
 20
-105.517958306554190
 40
1.000000000000000
 50
180.000000000000000
 51
248.381727577839200
  0
ARC
  8
0
  6
CONTINUOUS
 62
256
 10
-249.158457017469350
 20
-100.965490639212020
 40
1.000000000000082
 50
299.999999999997270
 51
39.594068226849963
  0
LINE
  8
0
  6
CONTINUOUS
 62
256
 10
-248.658457017469350
 20
-101.831516042996550
 11
-251.299692174525490
 21
-103.356433871916120
  0
ARC
  8
0
  6
CONTINUOUS
 62
256
 10
-251.799692174525490
 20
-102.490408468131800
 40
0.999999999999673
 50
221.212271417651180
 51
300.000000000003410
  0
LINE
  8
0
  6
CONTINUOUS
 62
256
 10
-256.198316012484840
 20
-106.184655663420930
 11
-258.942091587509140
 21
-107.768775230257010
  0
ARC
  8
0
  6
CONTINUOUS
 62
256
 10
-259.442091587509140
 20
-106.902749826472470
 40
0.999999999999961
 50
231.618272422159780
 51
299.999999999997330
  0
ARC
  8
0
  6
CONTINUOUS
 62
256
 10
-236.931666963573890
 20
-93.906350110270751
 40
0.999999999999940
 50
215.739170477274090
 51
300.000000000003980
  0
LINE
  8
0
  6
CONTINUOUS
 62
256
 10
-233.821542445468140
 20
-93.265419420908302
 11
-236.431666963573890
 21
-94.772375514055057
  0
ARC
  8
0
  6
CONTINUOUS
 62
256
 10
-234.321542445468140
 20
-92.399394017123996
 40
0.999999999999885
 50
300.000000000003810
 51
35.284732954545220
  0
ARC
  8
0
  6
CONTINUOUS
 62
256
 10
-244.341994525743980
 20
-98.184704723072855
 40
0.999999999999834
 50
217.589542391867670
 51
299.999999999997730
  0
LINE
  8
0
  6
CONTINUOUS
 62
256
 10
-241.223319069966460
 20
-97.538837147544200
 11
-243.841994525743980
 21
-99.050730126857388
  0
ARC
  8
0
  6
CONTINUOUS
 62
256
 10
-241.723319069966460
 20
-96.672811743759667
 40
1.000000000000082
 50
299.999999999997270
 51
36.813854344186382
  0
ARC
  8
0
  6
CONTINUOUS
 62
256
 10
-261.840620857898330
 20
-76.511246687857010
 40
1.000000000000042
 50
84.715267045464316
 51
180.000000000000000
  0
LINE
  8
0
  6
CONTINUOUS
 62
256
 10
-262.840620857898330
 20
-76.511246687857010
 11
-262.840620857898330
 21
-79.525158874150293
  0
ARC
  8
0
  6
CONTINUOUS
 62
256
 10
-261.840620857898330
 20
-79.525158874150293
 40
1.000000000000000
 50
180.000000000000000
 51
264.260829522738450
  0
ARC
  8
0
  6
CONTINUOUS
 62
256
 10
-261.840620857898330
 20
-85.058082141128352
 40
1.000000000000077
 50
83.186145655820326
 51
180.000000000000000
  0
LINE
  8
0
  6
CONTINUOUS
 62
256
 10
-262.840620857898330
 20
-85.058082141128352
 11
-262.840620857898330
 21
-88.081868099754502
  0
ARC
  8
0
  6
CONTINUOUS
 62
256
 10
-261.840620857898330
 20
-88.081868099754729
 40
1.000000000000000
 50
179.999999999986980
 51
262.410457608142620
  0
ARC
  8
0
  6
CONTINUOUS
 62
256
 10
-261.840620857898330
 20
-93.643439932033516
 40
1.000000000000268
 50
80.405931773124522
 51
180.000000000000000
  0
LINE
  8
0
  6
CONTINUOUS
 62
256
 10
-262.840620857898330
 20
-93.643439932033516
 11
-262.840620857898330
 21
-96.693275589872428
  0
ARC
  8
0
  6
CONTINUOUS
 62
256
 10
-261.840620857898330
 20
-96.693275589872428
 40
1.000000000000000
 50
180.000000000000000
 51
258.787728582356180
  0
LINE
  8
0
  6
CONTINUOUS
 62
256
 10
-316.897087788488310
 20
-71.719562849424165
 11
-309.438392613817310
 21
-64.260867674752490
  0
LINE
  8
0
  6
CONTINUOUS
 62
256
 10
-316.897087788488310
 20
-156.979875496339900
 11
-309.438392613817310
 21
-164.438570671011580
  0
LINE
  8
0
  6
CONTINUOUS
 62
256
 10
-213.784153927308350
 20
-156.979875496339900
 11
-221.242849101979350
 21
-164.438570671011580
  0
LINE
  8
0
  6
CONTINUOUS
 62
256
 10
-213.784153927308350
 20
-71.719562849424165
 11
-221.242849101979350
 21
-64.260867674752490
  0
LINE
  8
0
  6
CONTINUOUS
 62
256
 10
-207.840620857898330
 20
-145.849719172882030
 11
-207.840620857898330
 21
-144.337705027312270
  0
LINE
  8
0
  6
CONTINUOUS
 62
256
 10
-207.840620857898330
 20
-84.357220110619892
 11
-207.840620857898330
 21
-82.849719172882033
  0
LINE
  8
0
  6
CONTINUOUS
 62
256
 10
-208.039171797997140
 20
-82.849719172882033
 11
-207.840620857898330
 21
-82.849719172882033
  0
LINE
  8
0
  6
CONTINUOUS
 62
256
 10
-208.039171797997140
 20
-145.849719172882030
 11
-207.840620857898330
 21
-145.849719172882030
  0
ARC
  8
0
  6
CONTINUOUS
 62
256
 10
-302.330688096044700
 20
-86.285962541866411
 40
20.600000000000069
 50
135.000000000002700
 51
174.247717268463480
  0
ARC
  8
0
  6
CONTINUOUS
 62
256
 10
-302.330688096044700
 20
-142.413475803897650
 40
20.599999999999916
 50
185.752282731536470
 51
224.999999999997300
  0
ARC
  8
0
  6
CONTINUOUS
 62
256
 10
-228.350553619751960
 20
-142.413475803897650
 40
20.600000000000069
 50
315.000000000002670
 51
354.247717268463480
  0
ARC
  8
0
  6
CONTINUOUS
 62
256
 10
-228.350553619751960
 20
-86.285962541866411
 40
20.599999999999916
 50
5.752282731536487
 51
44.999999999997314
  0
ARC
  8
0
  6
CONTINUOUS
 62
256
 10
-228.350553619751960
 20
-86.285962541866411
 40
10.797000000000011
 50
5.752282731536912
 51
44.999999999998295
  0
INSERT
  8
0
  2
ZU_SYM_1
 10
-346.785443064241690
 20
-155.268675784142490
 50
357.137594773886350
  0
LINE
  8
0
  6
DASHDOT
 62
256
 10
-249.759012235066620
 20
-99.349719172881976
 11
-281.422559207283480
 21
-99.349719172882033
  0
LINE
  8
0
  6
DASHDOT
 62
256
 10
-209.648800325273210
 20
-43.657898640247822
 11
-195.640023362649000
 21
-29.649121677621679
  0
LINE
  8
0
  6
DASHDOT
 62
256
 10
-335.014109746023000
 20
-29.676230284770270
 11
-321.425187758218730
 21
-43.265152272572323
  0
LINE
  8
0
  6
DASHDOT
 62
256
 10
-334.908374652420090
 20
-168.917472967414480
 11
-320.955083049518180
 21
-154.964181364510750
  0
LINE
  8
0
  6
DASHDOT
 62
256
 10
-210.027319544690040
 20
-154.663020486082590
 11
-195.776429174366850
 21
-168.913910856403850
  0
LINE
  8
0
  6
DASHDOT
 62
256
 10
-265.340620857898330
 20
-17.565490531117121
 11
-265.340620857898330
 21
-186.070846041614910
  0
ARC
  8
0
  6
CONTINUOUS
 62
256
 10
-239.590620857898330
 20
-59.494256726709068
 40
1.000000000000000
 50
0.000000000000000
 51
79.855205773680638
  0
ARC
  8
0
  6
CONTINUOUS
 62
256
 10
-291.090620857898330
 20
-59.494256726709068
 40
1.000000000000064
 50
100.144794226318720
 51
180.000000000000000
  0
ARC
  8
0
  6
CONTINUOUS
 62
256
 10
-265.340620857898330
 20
-457.349719172882030
 40
400.000000000000000
 50
90.000000000000000
 51
92.906384370709901
  0
ARC
  8
0
  6
CONTINUOUS
 62
256
 10
-265.340620857898330
 20
-457.349719172882030
 40
399.999999999999940
 50
87.093615629290099
 51
90.000000000000000
  0
LINE
  8
0
  6
CONTINUOUS
 62
256
 10
-225.596074190121500
 20
-168.849719172882200
 11
-229.904498997255420
 21
-168.849719172882200
  0
CIRCLE
  8
0
  6
CONTINUOUS
 62
256
 10
-201.701010551105360
 20
-162.989329479666140
 40
5.000000000000000
  0
CIRCLE
  8
0
  6
CONTINUOUS
 62
256
 10
-328.980231164683800
 20
-162.989329479675920
 40
5.000000000000000
  0
CIRCLE
  8
0
  6
CONTINUOUS
 62
256
 10
-328.980231164693580
 20
-35.710108866097471
 40
5.000000000000000
  0
ARC
  8
0
  6
DASHDOT
 62
256
 10
-265.340620857899470
 20
-99.349719172881805
 40
89.999999999999815
 50
38.633392784995969
 51
51.366607215015975
  0
CIRCLE
  8
0
  6
CONTINUOUS
 62
256
 10
-201.701010551115130
 20
-35.710108866087694
 40
5.000000000000000
  0
ARC
  8
0
  6
CONTINUOUS
 62
256
 10
-200.840620857899470
 20
-34.849719172881805
 40
8.000000000000000
 50
0.000000000000000
 51
90.000000000000000
  0
ARC
  8
0
  6
DASHDOT
 62
256
 10
-265.340620857899690
 20
-99.349719172882033
 40
89.999999999999957
 50
308.633392784996090
 51
321.366607215015960
  0
ARC
  8
0
  6
CONTINUOUS
 62
256
 10
-200.840620857899470
 20
-163.849719172881810
 40
8.000000000000000
 50
270.000000000000000
 51
0.000000000000000
  0
ARC
  8
0
  6
DASHDOT
 62
256
 10
-265.340620857899690
 20
-99.349719172881805
 40
89.999999999999972
 50
218.633392784996090
 51
231.366607215015930
  0
ARC
  8
0
  6
CONTINUOUS
 62
256
 10
-329.840620857899470
 20
-163.849719172881810
 40
8.000000000000000
 50
180.000000000000000
 51
270.000000000000000
  0
ARC
  8
0
  6
DASHDOT
 62
256
 10
-265.340620857899470
 20
-99.349719172881805
 40
89.999999999999943
 50
128.633392784996090
 51
141.366607215015960
  0
ARC
  8
0
  6
CONTINUOUS
 62
256
 10
-329.840620857899470
 20
-34.849719172881805
 40
8.000000000000000
 50
90.000000000000000
 51
180.000000000000000
  0
ARC
  8
0
  6
CONTINUOUS
 62
256
 10
-261.340620857898100
 20
-34.358446705346125
 40
2.000000000000000
 50
90.000000000000000
 51
180.000000000000000
  0
ARC
  8
0
  6
CONTINUOUS
 62
256
 10
-269.340620857898100
 20
-34.358446705346125
 40
2.000000000000000
 50
0.000000000000000
 51
90.000000000000000
  0
ARC
  8
0
  6
CONTINUOUS
 62
256
 10
-269.340620857898100
 20
-55.369620162993215
 40
2.000000000000030
 50
270.570116666734690
 51
0.000000000000000
  0
ARC
  8
0
  6
CONTINUOUS
 62
256
 10
-261.340620857898100
 20
-55.369620162993215
 40
2.000000000000000
 50
180.000000000000000
 51
269.429883333265310
  0
ARC
  8
0
  6
CONTINUOUS
 62
256
 10
-209.026535531640090
 20
-48.692488096109628
 40
1.999999999999976
 50
44.999999999998849
 51
135.000000000001140
  0
ARC
  8
0
  6
CONTINUOUS
 62
256
 10
-214.683389781132290
 20
-43.035633846617316
 40
1.999999999999815
 50
314.999999999996530
 51
45.000000000004604
  0
ARC
  8
0
  6
CONTINUOUS
 62
256
 10
-230.554082540482110
 20
-58.906326605966967
 40
2.000000000000053
 50
249.074092097575060
 51
315.000000000000000
  0
ARC
  8
0
  6
CONTINUOUS
 62
256
 10
-321.654706184156790
 20
-48.692488096109685
 40
2.000000000000177
 50
44.999999999995396
 51
134.999999999995400
  0
ARC
  8
0
  6
CONTINUOUS
 62
256
 10
-315.997851934664370
 20
-43.035633846617316
 40
1.999999999999855
 50
134.999999999995400
 51
225.000000000004010
  0
ARC
  8
0
  6
CONTINUOUS
 62
256
 10
-300.127159175314550
 20
-58.906326605967024
 40
2.000000000000016
 50
225.000000000000000
 51
290.925907902425370
  0
LINE
  8
0
  6
CONTINUOUS
 62
256
 10
-329.840620857899470
 20
-171.849719172881810
 11
-200.840620857899470
 21
-171.849719172881810
  0
LINE
  8
0
  6
CONTINUOUS
 62
256
 10
-329.840620857899470
 20
-26.849719172881805
 11
-200.340620857899470
 21
-26.849719172881805
  0
LINE
  8
0
  6
CONTINUOUS
 62
256
 10
-263.340620857898100
 20
-34.358446705346125
 11
-263.340620857898100
 21
-55.369620162993215
  0
LINE
  8
0
  6
CONTINUOUS
 62
256
 10
-267.340620857898100
 20
-34.358446705346125
 11
-267.340620857898100
 21
-55.369620162993215
  0
LINE
  8
0
  6
CONTINUOUS
 62
256
 10
-210.440749094013200
 20
-47.278274533736578
 11
-224.373277115086240
 21
-61.210802554809675
  0
LINE
  8
0
  6
CONTINUOUS
 62
256
 10
-213.269176218759410
 20
-44.449847408990365
 11
-229.139868978109010
 21
-60.320540168340074
  0
LINE
  8
0
  6
CONTINUOUS
 62
256
 10
-320.240492621783460
 20
-47.278274533736578
 11
-306.307964600710420
 21
-61.210802554809675
  0
LINE
  8
0
  6
CONTINUOUS
 62
256
 10
-317.412065497037250
 20
-44.449847408990365
 11
-301.541372737687650
 21
-60.320540168340131
  0
ARC
  8
0
  6
CONTINUOUS
 62
256
 10
359.369068569220870
 20
-128.392219172883070
 40
20.799999999999915
 50
334.359929784105190
 51
5.724810452223451
  0
ARC
  8
0
  6
CONTINUOUS
 62
256
 10
359.369068569220870
 20
-128.392219172883070
 40
20.800000000000040
 50
279.916536608230560
 51
334.359929784105190
  0
ARC
  8
0
  6
CONTINUOUS
 62
256
 10
359.369068569220870
 20
-128.392219172883070
 40
20.799999999999915
 50
334.359929784105190
 51
5.724810452223451
  0
ARC
  8
0
  6
CONTINUOUS
 62
256
 10
357.369068569220870
 20
-88.392219172883046
 40
18.799999999999983
 50
100.598785266066060
 51
104.792497041397790
  0
ARC
  8
0
  6
CONTINUOUS
 62
256
 10
353.543313935133940
 20
-67.947082795745331
 40
1.999999999999958
 50
280.598785266065990
 51
2.862405226112642
  0
ARC
  8
0
  6
CONTINUOUS
 62
256
 10
359.136327032849750
 20
-67.667432140859518
 40
1.999999999999927
 50
182.862405226112710
 51
265.126025186159040
  0
ARC
  8
0
  6
CONTINUOUS
 62
256
 10
357.702521302837340
 20
-151.131230149812380
 40
1.999999999999927
 50
2.862405226112724
 51
85.808273843998279
  0
LINE
  8
0
  6
CONTINUOUS
 62
256
 10
355.870940060904100
 20
-58.429649006547805
 11
360.964576989181070
 21
-160.302387572087920
  0
ARC
  8
0
  6
CONTINUOUS
 62
256
 10
363.295534400553150
 20
-150.851579494926570
 40
1.999999999999995
 50
99.916536608232732
 51
182.862405226112630
  0
LINE
  8
0
  6
CONTINUOUS
 62
256
 10
380.065327920841810
 20
-126.317406205302040
 11
376.075302983185790
 21
-86.516907452184768
  0
ARC
  8
0
  6
CONTINUOUS
 62
256
 10
357.369068569220870
 20
-88.392219172883046
 40
18.799999999999933
 50
35.808626813495742
 51
85.126025186157236
  0
ARC
  8
0
  6
CONTINUOUS
 62
256
 10
357.369068569220870
 20
-88.392219172883046
 40
18.799999999999837
 50
5.724810452223617
 51
35.808626813495707
  0
LINE
  8
0
  6
CONTINUOUS
 62
256
 10
356.669941932006400
 20
-58.389698912992657
 11
355.071938189801810
 21
-58.469599100102840
  0
ARC
  8
0
  6
CONTINUOUS
 62
256
 10
350.527615428900840
 20
-63.703061336772947
 40
8.999999999999949
 50
346.260856815786500
 51
19.463936333592208
  0
POINT
  8
0
  6
CONTINUOUS
 62
256
 10
356.919630016725250
 20
-63.383460607381693
  0
LINE
  8
0
  6
CONTINUOUS
 62
256
 10
356.744848357421690
 20
-59.887827421309311
 11
357.094411676028810
 21
-66.879093793454189
  0
LINE
  8
0
  6
CONTINUOUS
 62
256
 10
356.744848357421690
 20
-59.887827421309311
 11
357.094411676028810
 21
-66.879093793454189
  0
LINE
  8
0
  6
CONTINUOUS
 62
256
 10
357.094411676028810
 20
-66.879093793454189
 11
358.072215488536590
 21
-66.830203602828846
  0
LINE
  8
0
  6
CONTINUOUS
 62
256
 10
356.744848357421690
 20
-59.887827421309311
 11
357.722652169929230
 21
-59.838937230683968
  0
ARC
  8
0
  6
CONTINUOUS
 62
256
 10
358.007296624608900
 20
-65.531826324275215
 40
1.299999237060550
 50
272.862387240019760
 51
346.260856815788600
  0
ARC
  8
0
  6
CONTINUOUS
 62
256
 10
357.787571033856920
 20
-61.137314509237484
 40
1.299999237060645
 50
19.463936333587128
 51
92.862405909347800
  0
LINE
  8
0
  6
CONTINUOUS
 62
256
 10
356.669941932006400
 20
-58.389698912992657
 11
361.763578860283360
 21
-160.262437478532660
  0
LINE
  8
0
  6
CONTINUOUS
 62
256
 10
360.165575118078780
 20
-160.342337665643640
 11
361.763578860283360
 21
-160.262437478532660
  0
LINE
  8
0
  6
CONTINUOUS
 62
256
 10
355.071938189801810
 20
-58.469599100102840
 11
360.165575118078780
 21
-160.342337665643640
  0
INSERT
  8
0
  2
ZU_SYM_1
 10
361.513890775564280
 20
-155.268675784143510
 41
-1.000000000000000
 42
1.000000000000000
 43
1.000000000000000
 50
2.862405226113666
  0
ARC
  8
0
  6
CONTINUOUS
 62
256
 10
359.369068569220870
 20
-128.392219172883070
 40
20.799999999999986
 50
250.917875196400560
 51
265.808273843992540
  0
LINE
  8
0
  6
CONTINUOUS
 62
256
 10
-232.776774676063670
 20
-168.849719172882200
 11
-237.085199483197580
 21
-168.849719172882200
  0
LINE
  8
0
  6
CONTINUOUS
 62
256
 10
70.933310893219456
 20
129.852572560805130
 11
70.933310893219456
 21
138.352570653456500
  0
LINE
  8
0
  6
CONTINUOUS
 62
256
 10
75.933310893219456
 20
138.352570653456500
 11
70.933310893219456
 21
138.352570653456500
  0
LINE
  8
0
  6
CONTINUOUS
 62
256
 10
75.933310893219456
 20
129.852572560805130
 11
70.933310893219456
 21
129.852572560805130
  0
LINE
  8
0
  6
CONTINUOUS
 62
256
 10
70.933310893219456
 20
74.352570653456496
 11
70.933310893219456
 21
65.852572560805129
  0
LINE
  8
0
  6
CONTINUOUS
 62
256
 10
75.933310893219456
 20
65.852572560805129
 11
70.933310893219456
 21
65.852572560805129
  0
LINE
  8
0
  6
CONTINUOUS
 62
256
 10
75.933310893219456
 20
74.352570653456496
 11
70.933310893219456
 21
74.352570653456496
  0
LINE
  8
0
  6
CONTINUOUS
 62
256
 10
70.933310893219456
 20
-109.599344453107730
 11
70.933310893219456
 21
-101.099346360456370
  0
LINE
  8
0
  6
CONTINUOUS
 62
256
 10
75.933310893219456
 20
-101.099346360456370
 11
70.933310893219456
 21
-101.099346360456370
  0
LINE
  8
0
  6
CONTINUOUS
 62
256
 10
75.933310893219456
 20
-109.599344453107730
 11
70.933310893219456
 21
-109.599344453107730
  0
LINE
  8
0
  6
CONTINUOUS
 62
256
 10
55.433310130280006
 20
148.235654202013510
 11
73.933310130280006
 21
148.235654202013510
  0
LINE
  8
0
  6
CONTINUOUS
 62
256
 10
55.433310130280006
 20
143.144485377470570
 11
73.933310130280006
 21
143.144485377470570
  0
LINE
  8
0
  6
CONTINUOUS
 62
256
 10
55.433310130280006
 20
135.406172558639580
 11
70.933310893219456
 21
135.406172558639580
  0
LINE
  8
0
  6
CONTINUOUS
 62
256
 10
55.433310130280006
 20
133.816962765900830
 11
70.933310893219456
 21
133.816962765900830
  0
LINE
  8
0
  6
CONTINUOUS
 62
256
 10
55.433310130280006
 20
130.858967157767890
 11
70.933310893219456
 21
130.858967157767890
  0
LINE
  8
0
  6
CONTINUOUS
 62
256
 10
55.433310130280006
 20
129.379944004290910
 11
73.933310130280006
 21
129.379944004290910
  0
LINE
  8
0
  6
CONTINUOUS
 62
256
 10
55.433310130280006
 20
126.287213012625560
 11
73.933310130280006
 21
126.287213012625560
  0
LINE
  8
0
  6
CONTINUOUS
 62
256
 10
55.433310130280006
 20
124.940811287126980
 11
73.933310130280006
 21
124.940811287126960
  0
LINE
  8
0
  6
CONTINUOUS
 62
256
 10
55.433310130280006
 20
121.730606263768640
 11
73.933310130280006
 21
121.730606263768640
  0
LINE
  8
0
  6
CONTINUOUS
 62
256
 10
55.433310130280006
 20
120.488686398880740
 11
73.933310130280006
 21
120.488686398880740
  0
LINE
  8
0
  6
CONTINUOUS
 62
256
 10
55.433310130280006
 20
116.102571607130810
 11
73.933310130280006
 21
116.102571607130810
  0
LINE
  8
0
  6
CONTINUOUS
 62
256
 10
55.433310130280006
 20
88.102571607130812
 11
73.933310130280006
 21
88.102571607130812
  0
LINE
  8
0
  6
CONTINUOUS
 62
256
 10
55.433310130280006
 20
83.716456815380852
 11
73.933310130280006
 21
83.716456815380866
  0
LINE
  8
0
  6
CONTINUOUS
 62
256
 10
55.433310130280006
 20
82.474536950492961
 11
73.933310130280006
 21
82.474536950492961
  0
LINE
  8
0
  6
CONTINUOUS
 62
256
 10
55.433310130280006
 20
79.264331927134663
 11
73.933310130280006
 21
79.264331927134663
  0
LINE
  8
0
  6
CONTINUOUS
 62
256
 10
55.433310130280006
 20
77.917930201636068
 11
73.933310130280006
 21
77.917930201636068
  0
LINE
  8
0
  6
CONTINUOUS
 62
256
 10
55.433310130280006
 20
74.825199209970819
 11
73.933310130280006
 21
74.825199209970833
  0
LINE
  8
0
  6
CONTINUOUS
 62
256
 10
55.433310130280006
 20
73.346176056493732
 11
70.933310893219456
 21
73.346176056493732
  0
LINE
  8
0
  6
CONTINUOUS
 62
256
 10
55.433310130280006
 20
68.798970655622156
 11
70.933310893219456
 21
68.798970655622156
  0
LINE
  8
0
  6
CONTINUOUS
 62
256
 10
55.433310130280006
 20
70.388180448360799
 11
70.933310893219456
 21
70.388180448360799
  0
LINE
  8
0
  6
CONTINUOUS
 62
256
 10
55.433310130280006
 20
61.060657836791044
 11
73.933310130280006
 21
61.060657836791044
  0
LINE
  8
0
  6
CONTINUOUS
 62
256
 10
55.433310130280006
 20
55.969489012248232
 11
73.933310130280006
 21
55.969489012248246
  0
LINE
  8
0
  6
CONTINUOUS
 62
256
 10
120.933310130280010
 20
-106.349719172885670
 11
120.933310130280010
 21
-152.747541231589820
  0
TEXT
  8
0
  6
CONTINUOUS
 62
256
 10
-293.023071289062500
 20
49.151000976562500
 40
7.919999599456787
  1
ＳＣＡＬＥ１／１
 50
0.000002504478167
 41
0.984848598876354
  7
STANDARD1
  0
TEXT
  8
0
  6
CONTINUOUS
 62
256
 10
-293.023071289062500
 20
61.871002197265625
 40
7.919999599456787
  1
１／３～１／３０
 50
0.000002504478167
 41
0.984848598876354
  7
STANDARD1
  0
TEXT
  8
0
  6
CONTINUOUS
 62
256
 10
-293.023071289062500
 20
74.591003417968750
 40
7.919999599456787
  1
０．２ｋＷ
 50
0.000002504478167
 41
0.984848598876354
  7
STANDARD1
  0
TEXT
  8
0
  6
CONTINUOUS
 62
256
 10
-293.023071289062500
 20
87.311004638671875
 40
7.919999599456787
  1
ＧＭ－ＳＦＳ
 50
0.000002504478167
 41
0.984848598876354
  7
STANDARD1
  0
TEXT
  8
0
  6
CONTINUOUS
 62
256
 10
-293.023071289062500
 20
100.031005859375000
 40
7.919999599456787
  1
三菱ギヤードモートル
 50
0.000002504478167
 41
0.984848598876354
  7
STANDARD1
  0
TEXT
  8
0
  6
CONTINUOUS
 62
256
 10
-293.023071289062500
 20
112.751007080078120
 40
7.919999599456787
  1
Ｓ１４３
 50
0.000002504478167
 41
0.984848598876354
  7
STANDARD1
  0
LINE
  8
0
  6
CONTINUOUS
 62
256
 10
-214.923907494167540
 20
-70.579809282564739
 11
-214.437104102461940
 21
-70.093005890859118
  0
LINE
  8
0
  6
CONTINUOUS
 62
256
 10
-221.570710967581280
 20
-63.933005809151027
 11
-221.083907575875660
 21
-63.446202417445406
  0
LINE
  8
0
  6
CONTINUOUS
 62
256
 10
-214.610768885198780
 20
-70.327262331714365
 11
-221.287868187671680
 21
-63.650163029241448
  0
LINE
  8
0
  6
CONTINUOUS
 62
256
 10
-214.923907494167540
 20
-70.579809282564739
 11
-221.570710967581280
 21
-63.933005809151027
  0
POINT
  8
0
  6
CONTINUOUS
 62
256
 10
-218.247309230874410
 20
-67.256407545857883
  0
ARC
  8
0
  6
CONTINUOUS
 62
256
 10
-220.510050795801450
 20
-69.519149110784923
 40
6.099999427795398
 50
354.601910595264880
 51
95.398072101890989
  0
LINE
  8
0
  6
CONTINUOUS
 62
256
 10
-315.757334221629090
 20
-70.579809282564739
 11
-316.244137613334710
 21
-70.093005890859118
  0
LINE
  8
0
  6
CONTINUOUS
 62
256
 10
-309.110530748215410
 20
-63.933005809151027
 11
-309.597334139921030
 21
-63.446202417445406
  0
LINE
  8
0
  6
CONTINUOUS
 62
256
 10
-316.070472830597910
 20
-70.327262331714365
 11
-309.393373528124980
 21
-63.650163029241448
  0
LINE
  8
0
  6
CONTINUOUS
 62
256
 10
-315.757334221629090
 20
-70.579809282564739
 11
-309.110530748215410
 21
-63.933005809151027
  0
POINT
  8
0
  6
CONTINUOUS
 62
256
 10
-312.433932484922250
 20
-67.256407545857883
  0
ARC
  8
0
  6
CONTINUOUS
 62
256
 10
-310.171190919995240
 20
-69.519149110784923
 40
6.099999427795413
 50
84.601927898108485
 51
185.398089404735090
  0
LINE
  8
0
  6
CONTINUOUS
 62
256
 10
-315.757334221629090
 20
-158.119629063199080
 11
-316.244137613334710
 21
-158.606432454904710
  0
LINE
  8
0
  6
CONTINUOUS
 62
256
 10
-309.110530748215410
 20
-164.766432536612830
 11
-309.597334139921030
 21
-165.253235928318420
  0
LINE
  8
0
  6
CONTINUOUS
 62
256
 10
-316.070472830597910
 20
-158.372176014049470
 11
-309.393373528124980
 21
-165.049275316522400
  0
LINE
  8
0
  6
CONTINUOUS
 62
256
 10
-315.757334221629090
 20
-158.119629063199080
 11
-309.110530748215410
 21
-164.766432536612830
  0
POINT
  8
0
  6
CONTINUOUS
 62
256
 10
-312.433932484922250
 20
-161.443030799905960
  0
ARC
  8
0
  6
CONTINUOUS
 62
256
 10
-310.171190919995240
 20
-159.180289234978910
 40
6.099999427795398
 50
174.601910595264910
 51
275.398072101891500
  0
LINE
  8
0
  6
CONTINUOUS
 62
256
 10
-214.923907494167540
 20
-158.119629063199080
 11
-214.437104102461940
 21
-158.606432454904710
  0
LINE
  8
0
  6
CONTINUOUS
 62
256
 10
-221.570710967581280
 20
-164.766432536612830
 11
-221.083907575875660
 21
-165.253235928318420
  0
LINE
  8
0
  6
CONTINUOUS
 62
256
 10
-214.610768885198780
 20
-158.372176014049470
 11
-221.287868187671680
 21
-165.049275316522400
  0
LINE
  8
0
  6
CONTINUOUS
 62
256
 10
-214.923907494167540
 20
-158.119629063199080
 11
-221.570710967581280
 21
-164.766432536612830
  0
POINT
  8
0
  6
CONTINUOUS
 62
256
 10
-218.247309230874410
 20
-161.443030799905960
  0
ARC
  8
0
  6
CONTINUOUS
 62
256
 10
-220.510050795801450
 20
-159.180289234978910
 40
6.099999427795400
 50
264.601927898109010
 51
5.398089404735109
  0
LINE
  8
0
  6
CONTINUOUS
 62
256
 10
130.170545300347240
 20
-34.349719172882033
 11
127.933310130279960
 21
-34.349719172882033
  0
LINE
  8
0
  6
CONTINUOUS
 62
256
 10
130.161388225760530
 20
-164.349719172882030
 11
127.933310130279960
 21
-164.349719172882030
  0
LINE
  8
0
  6
CONTINUOUS
 62
256
 10
130.153984633541600
 20
167.102571607130810
 11
127.933310130279960
 21
167.102571607130810
  0
LINE
  8
0
  6
CONTINUOUS
 62
256
 10
130.153984633541600
 20
37.102571607130812
 11
127.933310130279960
 21
37.102571607130812
  0
ENDSEC
  0
EOF
