  0
SECTION
  2
HEADER
  9
$TEXTSIZE
 40
2.5
  9
$ACADVER
  1
AC1009
  9
$DIMASZ
 40
3.863703297614046
  9
$DIMEXE
 40
2.000000000000000
  9
$DIMEXO
 40
1.000000000000000
  9
$DIMLFAC
 40
1.000000000000000
  9
$DIMSCALE
 40
1.000000000000000
  9
$DIMTAD
 70
1
  9
$DIMTFAC
 40
0.625000000000000
  9
$DIMTXT
 40
3.200000047683716
  9
$LUPREC
 70
3
  9
$REGENMODE
 70
1
  9
$TEXTSTYLE
  7
STANDARD1
  0
ENDSEC
  0
SECTION
  2
TABLES
  0
TABLE
  2
LTYPE
 70
4
  0
LTYPE
  2
CONTINUOUS
 70
64
  3
Solid line
 72
65
 73
0
 40
0.0
  0
LTYPE
  2
DASHED
 70
64
  3
-- -- -- -- -- -- -- -- -- -- -- -- -- -- --
 72
65
 73
2
 40
0.75
 49
0.5
 49
-0.25
  0
LTYPE
  2
DASHDOT
 70
64
  3
__ . __ . __ . __ . __ . __ . __ . __ . __ . __
 72
65
 73
4
 40
1.0
 49
0.5
 49
-0.25
 49
0.0
 49
-0.25
  0
LTYPE
  2
DIVIDE
 70
64
  3
__ . . __ . . __ . . __ . . __ . . __ . . __
 72
65
 73
6
 40
1.25
 49
0.5
 49
-0.25
 49
0.0
 49
-0.25
 49
0.0
 49
-0.25
  0
ENDTAB
  0
TABLE
  2
LAYER
 70
1
  0
LAYER
  2
0
 70
64
 62
2
  6
CONTINUOUS
  0
ENDTAB
  0
TABLE
  2
STYLE
 70
4
  0
STYLE
  2
STANDARD1
 70
64
 40
0.0
 41
1.0
 50
0.0
 71
0
 42
3.200000047683716
  3
MONOTXT
  4
BIGFONT
  0
STYLE
  2
STANDARD2
 70
68
 40
0.0
 41
1.0
 50
0.0
 71
0
 42
3.200000047683716
  3
MONOTXT
  4
BIGFONT
  0
STYLE
  2
STANDARD3
 70
64
 40
0.0
 41
1.0
 50
0.0
 71
0
 42
3.200000047683716
  3
MONOTXT
  4

  0
STYLE
  2
STANDARD4
 70
68
 40
0.0
 41
1.0
 50
0.0
 71
0
 42
3.200000047683716
  3
MONOTXT
  4

  0
ENDTAB
  0
TABLE
  2
VIEW
 70
0
  0
ENDTAB
  0
ENDSEC
  0
SECTION
  2
BLOCKS
  0
BLOCK
  8
0
  2
ZU_SYM_1
 70
64
 10
0.000000000000000
 20
0.000000000000000
  0
ARC
  8
0
  6
CONTINUOUS
 62
256
 10
-0.979025304317474
 20
-2.200000762939453
 40
1.299999237060547
 50
196.601531107481040
 51
270.000000000000000
  0
ARC
  8
0
  6
CONTINUOUS
 62
256
 10
-0.979025304317474
 20
2.200000762939453
 40
1.299999237060547
 50
90.000000000000000
 51
163.398451589674950
  0
LINE
  8
0
  6
CONTINUOUS
 62
256
 10
0.000000000000000
 20
-3.500000000000000
 11
-0.979025304317474
 21
-3.500000000000000
  0
LINE
  8
0
  6
CONTINUOUS
 62
256
 10
0.000000000000000
 20
3.500000000000000
 11
-0.979025304317474
 21
3.500000000000000
  0
LINE
  8
0
  6
CONTINUOUS
 62
256
 10
0.000000000000000
 20
-3.500000000000000
 11
0.000000000000000
 21
3.500000000000000
  0
LINE
  8
0
  6
CONTINUOUS
 62
256
 10
0.000000000000000
 20
-3.500000000000000
 11
0.000000000000000
 21
3.500000000000000
  0
POINT
  8
0
  6
CONTINUOUS
 62
256
 10
0.000000000000000
 20
0.000000000000000
  0
ARC
  8
0
  6
CONTINUOUS
 62
256
 10
6.399999618530273
 20
0.000000000000000
 40
9.000000000000000
 50
163.398451589674950
 51
196.601531107481040
  0
ENDBLK
  8
0
  0
ENDSEC
  0
SECTION
  2
ENTITIES
  0
ARC
  8
0
  6
CONTINUOUS
 62
256
 10
164.872038145115310
 20
-93.030358283310306
 40
0.399999999999636
 50
0.000000000000000
 51
90.000000000000000
  0
LINE
  8
0
  6
CONTINUOUS
 62
256
 10
164.872038145115310
 20
-92.630358283310670
 11
139.831845766250810
 21
-92.630358283310670
  0
LINE
  8
0
  6
CONTINUOUS
 62
256
 10
139.272038145115400
 20
-92.780358283310306
 11
137.672038145115490
 21
-92.780358283310306
  0
LINE
  8
0
  6
CONTINUOUS
 62
256
 10
139.831845766250810
 20
-92.630358283310670
 11
139.272038145115400
 21
-92.780358283310306
  0
ARC
  8
0
  6
CONTINUOUS
 62
256
 10
137.672038145115490
 20
-92.380358283310670
 40
0.399999999999636
 50
180.000000000000000
 51
270.000000000000000
  0
LINE
  8
0
  6
CONTINUOUS
 62
256
 10
165.272038145115400
 20
-102.130358283310670
 11
165.272038145115400
 21
-93.030358283310306
  0
ARC
  8
0
  6
CONTINUOUS
 62
256
 10
164.872038145115280
 20
97.512826152053080
 40
0.400000000000091
 50
270.000000000000000
 51
0.000000000000000
  0
ARC
  8
0
  6
CONTINUOUS
 62
256
 10
137.672038145115470
 20
96.862826152052989
 40
0.400000000000091
 50
90.000000000000000
 51
180.000000000000000
  0
LINE
  8
0
  6
CONTINUOUS
 62
256
 10
164.872038145115280
 20
97.112826152053444
 11
139.831845766250780
 21
97.112826152053444
  0
LINE
  8
0
  6
CONTINUOUS
 62
256
 10
139.272038145115370
 20
97.262826152053080
 11
137.672038145115470
 21
97.262826152053080
  0
LINE
  8
0
  6
CONTINUOUS
 62
256
 10
139.831845766250780
 20
97.112826152053444
 11
139.272038145115370
 21
97.262826152053080
  0
LINE
  8
0
  6
CONTINUOUS
 62
256
 10
140.272038145115370
 20
97.112826152053458
 11
140.272038145115370
 21
94.612826152053458
  0
LINE
  8
0
  6
CONTINUOUS
 62
256
 10
165.272038145115370
 20
94.612826152053458
 11
140.272039158980050
 21
94.612826152053458
  0
LINE
  8
0
  6
CONTINUOUS
 62
256
 10
165.272038145115370
 20
106.612826152053440
 11
165.272038145115370
 21
94.540902632003039
  0
LINE
  8
0
  6
CONTINUOUS
 62
256
 10
143.160083253703760
 20
-99.130114142685670
 11
165.272038145115400
 21
-99.130114142685670
  0
ARC
  8
0
  6
CONTINUOUS
 62
256
 10
143.160083253703760
 20
-102.018159251273590
 40
2.888045108587903
 50
90.000000000000000
 51
182.226471171997790
  0
LINE
  8
0
  6
CONTINUOUS
 62
256
 10
44.272021252407285
 20
-120.130358283310670
 11
44.272021252407285
 21
-67.630358283310670
  0
LINE
  8
0
  6
CONTINUOUS
 62
256
 10
44.272021252407285
 20
-67.630358283310727
 11
44.272021252407285
 21
-120.130358283310670
  0
LINE
  8
0
  6
CONTINUOUS
 62
256
 10
44.272021252407740
 20
-166.932572389429480
 11
44.272021252407285
 21
-120.130358283310670
  0
LINE
  8
0
  6
CONTINUOUS
 62
256
 10
44.272021252407285
 20
-172.643451244095560
 11
44.272021252407285
 21
-120.130358283310670
  0
LINE
  8
0
  6
CONTINUOUS
 62
256
 10
44.272021252407285
 20
-67.630358283310670
 11
44.272021252407285
 21
-120.130358283310670
  0
CIRCLE
  8
0
  6
CONTINUOUS
 62
256
 10
293.938906723122270
 20
-102.130358283310670
 40
2.458500000000015
  0
CIRCLE
  8
0
  6
CONTINUOUS
 62
256
 10
293.938906723122270
 20
-102.130358283310670
 40
3.000000000000000
  0
ARC
  8
0
  6
CONTINUOUS
 62
256
 10
293.938906723122270
 20
-102.130358283310670
 40
9.500000000000016
 50
198.434948822922880
 51
161.591512067616610
  0
LINE
  8
0
  6
CONTINUOUS
 62
256
 10
287.938906723122270
 20
-105.130358283310670
 11
287.938906723122270
 21
-99.130358283310670
  0
LINE
  8
0
  6
CONTINUOUS
 62
256
 10
281.938906723122270
 20
-105.130358283310670
 11
281.938906723122270
 21
-99.130358283310670
  0
LINE
  8
0
  6
CONTINUOUS
 62
256
 10
287.938906723122270
 20
-105.130358283310670
 11
281.938906723122270
 21
-105.130358283310670
  0
LINE
  8
0
  6
CONTINUOUS
 62
256
 10
287.938906723122270
 20
-99.130358283310670
 11
281.938906723122270
 21
-99.130358283310670
  0
LINE
  8
0
  6
CONTINUOUS
 62
256
 10
364.438906723122270
 20
-107.130358283310670
 11
363.588027320585750
 21
-107.130358283310670
  0
LINE
  8
0
  6
CONTINUOUS
 62
256
 10
364.438906723122270
 20
-97.130358283310670
 11
363.588027320585750
 21
-97.130358283310670
  0
LINE
  8
0
  6
CONTINUOUS
 62
256
 10
223.438906723122270
 20
-107.130358283310670
 11
224.289786125658790
 21
-107.130358283310670
  0
LINE
  8
0
  6
CONTINUOUS
 62
256
 10
223.438906723122270
 20
-97.130358283310670
 11
224.289786125658790
 21
-97.130358283310670
  0
LINE
  8
0
  6
DASHDOT
 62
256
 10
293.938906723122270
 20
-190.469535847994850
 11
293.938906723122270
 21
-20.300839782285038
  0
LINE
  8
0
  6
DASHDOT
 62
256
 10
197.590835972300740
 20
-102.130358283310670
 11
397.925396018177710
 21
-102.130358283310670
  0
LINE
  8
0
  6
CONTINUOUS
 62
256
 10
221.438906723122270
 20
-166.130358283310670
 11
221.438906723122270
 21
-38.130358283310670
  0
LINE
  8
0
  6
DASHDOT
 62
256
 10
350.728352080685230
 20
-45.340912925748171
 11
363.235371279404260
 21
-32.833893727029135
  0
LINE
  8
0
  6
DASHDOT
 62
256
 10
235.956150665825130
 20
-44.147602226013987
 11
224.642442166840280
 21
-32.833893727029135
  0
LINE
  8
0
  6
DASHDOT
 62
256
 10
235.956150665825130
 20
-160.113114340607350
 11
224.642442166840280
 21
-171.426822839592210
  0
LINE
  8
0
  6
DASHDOT
 62
256
 10
351.921662780419410
 20
-160.113114340607350
 11
363.235371279404260
 21
-171.426822839592210
  0
LINE
  8
0
  6
CONTINUOUS
 62
256
 10
229.938906723122270
 20
-29.630358283310670
 11
357.938906723122270
 21
-29.630358283310670
  0
LINE
  8
0
  6
CONTINUOUS
 62
256
 10
338.368651570175640
 20
-40.730050687780931
 11
348.882557537018780
 21
-30.216144720937336
  0
LINE
  8
0
  6
CONTINUOUS
 62
256
 10
355.339214318652920
 20
-57.700613436257299
 11
365.853120285495150
 21
-47.186707469415524
  0
LINE
  8
0
  6
CONTINUOUS
 62
256
 10
366.438906723122270
 20
-166.130358283310670
 11
366.438906723122270
 21
-38.130358283310670
  0
LINE
  8
0
  6
CONTINUOUS
 62
256
 10
248.438906723122270
 20
-174.630358283310670
 11
229.938906723122270
 21
-174.630358283310670
  0
LINE
  8
0
  6
CONTINUOUS
 62
256
 10
336.438906723122270
 20
-180.130358283310670
 11
336.438906723122270
 21
-177.630358283310670
  0
LINE
  8
0
  6
CONTINUOUS
 62
256
 10
293.938906723122270
 20
-182.130358283310670
 11
334.438906723122270
 21
-182.130358283310670
  0
LINE
  8
0
  6
CONTINUOUS
 62
256
 10
293.938906723122270
 20
-182.130358283310670
 11
253.438906723122270
 21
-182.130358283310670
  0
LINE
  8
0
  6
CONTINUOUS
 62
256
 10
251.438906723122270
 20
-180.130358283310670
 11
251.438906723122270
 21
-177.630358283310670
  0
LINE
  8
0
  6
CONTINUOUS
 62
256
 10
339.438906723122270
 20
-174.630358283310670
 11
357.938906723122270
 21
-174.630358283310670
  0
LINE
  8
0
  6
CONTINUOUS
 62
256
 10
232.538599127591620
 20
-57.700613436257299
 11
222.024693160749390
 21
-47.186707469415524
  0
LINE
  8
0
  6
CONTINUOUS
 62
256
 10
249.509161876068450
 20
-40.730050687780931
 11
238.995255909225760
 21
-30.216144720937336
  0
LINE
  8
0
  6
CONTINUOUS
 62
256
 10
232.538599127591620
 20
-146.560103130364040
 11
222.024693160749390
 21
-157.074009097205820
  0
LINE
  8
0
  6
CONTINUOUS
 62
256
 10
249.509161876068450
 20
-163.530665878840410
 11
238.995255909225760
 21
-174.044571845684000
  0
LINE
  8
0
  6
CONTINUOUS
 62
256
 10
355.339214318652920
 20
-146.560103130364040
 11
365.853120285495150
 21
-157.074009097205820
  0
LINE
  8
0
  6
CONTINUOUS
 62
256
 10
338.368651570175640
 20
-163.530665878840410
 11
348.882557537018780
 21
-174.044571845684000
  0
ARC
  8
0
  6
CONTINUOUS
 62
256
 10
364.438906723122270
 20
-105.130358283310670
 40
2.000000000000000
 50
270.000000000000000
 51
0.000000000000000
  0
ARC
  8
0
  6
CONTINUOUS
 62
256
 10
363.588027320585750
 20
-109.130358283310670
 40
2.000000000000000
 50
90.000000000000000
 51
174.260829522738450
  0
ARC
  8
0
  6
CONTINUOUS
 62
256
 10
364.438906723122270
 20
-99.130358283310670
 40
2.000000000000000
 50
0.000000000000000
 51
90.000000000000000
  0
ARC
  8
0
  6
CONTINUOUS
 62
256
 10
363.588027320585750
 20
-95.130358283310670
 40
1.999999999999945
 50
185.739170477261690
 51
270.000000000000000
  0
ARC
  8
0
  6
CONTINUOUS
 62
256
 10
224.289786125658790
 20
-95.130358283310670
 40
2.000000000000000
 50
270.000000000000000
 51
354.260829522738450
  0
ARC
  8
0
  6
CONTINUOUS
 62
256
 10
224.289786125658790
 20
-109.130358283310670
 40
1.999999999999945
 50
5.739170477261706
 51
90.000000000000000
  0
ARC
  8
0
  6
CONTINUOUS
 62
256
 10
223.438906723122270
 20
-105.130358283310670
 40
2.000000000000000
 50
180.000000000000000
 51
270.000000000000000
  0
ARC
  8
0
  6
CONTINUOUS
 62
256
 10
223.438906723122270
 20
-99.130358283310670
 40
2.000000000000000
 50
90.000000000000000
 51
180.000000000000000
  0
ARC
  8
0
  6
CONTINUOUS
 62
256
 10
293.938906723122270
 20
-102.130358283310670
 40
68.000000000000142
 50
5.739170477266929
 51
28.617330145899032
  0
ARC
  8
0
  6
CONTINUOUS
 62
256
 10
293.938906723122270
 20
-102.130358283310670
 40
68.000000000000142
 50
185.739170477266900
 51
208.617330145899020
  0
CIRCLE
  8
0
  6
CONTINUOUS
 62
256
 10
357.578517029911840
 20
-165.769968590099780
 40
5.300000000000011
  0
CIRCLE
  8
0
  6
CONTINUOUS
 62
256
 10
230.299296416332710
 20
-165.769968590099780
 40
5.300000000000011
  0
CIRCLE
  8
0
  6
CONTINUOUS
 62
256
 10
230.299296416332710
 20
-38.490747976521561
 40
5.300000000000011
  0
CIRCLE
  8
0
  6
CONTINUOUS
 62
256
 10
357.578517029911840
 20
-38.490747976521561
 40
5.300000000000011
  0
ARC
  8
0
  6
CONTINUOUS
 62
256
 10
293.938906723122270
 20
-454.630358283310670
 40
398.525806533542830
 50
86.806152787379048
 51
90.000000000000000
  0
ARC
  8
0
  6
CONTINUOUS
 62
256
 10
293.938906723122270
 20
-454.630358283310670
 40
398.525806533542890
 50
90.000000000000000
 51
93.193847212620952
  0
ARC
  8
0
  6
CONTINUOUS
 62
256
 10
274.438906723121820
 20
-105.173994769924320
 40
48.525806533542799
 50
93.193847212620526
 51
107.911740528482510
  0
ARC
  8
0
  6
CONTINUOUS
 62
256
 10
313.438906723122270
 20
-105.173994769924320
 40
48.525806533542294
 50
72.088259471517517
 51
86.806152787378920
  0
ARC
  8
0
  6
CONTINUOUS
 62
256
 10
329.285751138500470
 20
-56.145571778695739
 40
3.000000000000047
 50
252.088259471516470
 51
52.451819439402151
  0
ARC
  8
0
  6
CONTINUOUS
 62
256
 10
258.592062307744070
 20
-56.145571778695739
 40
3.000000000000072
 50
127.548180560597600
 51
287.911740528475380
  0
ARC
  8
0
  6
DASHDOT
 62
256
 10
293.938906723122270
 20
-102.130358283310670
 40
89.999999999999972
 50
39.007040025620675
 51
50.893549886373542
  0
ARC
  8
0
  6
DASHDOT
 62
256
 10
293.938906723122270
 20
-102.130358283310670
 40
89.999999999999872
 50
129.906632329727100
 51
140.093367670275740
  0
ARC
  8
0
  6
DASHDOT
 62
256
 10
293.938906723122270
 20
-102.130358283310670
 40
90.000000000000014
 50
218.870062441606540
 51
230.093367670272900
  0
ARC
  8
0
  6
DASHDOT
 62
256
 10
293.938906723122270
 20
-102.130358283310670
 40
89.999999999999886
 50
309.906632329727130
 51
320.093367670275710
  0
ARC
  8
0
  6
CONTINUOUS
 62
256
 10
357.938906723122270
 20
-166.130358283310670
 40
8.500000000000000
 50
270.000000000000000
 51
0.000000000000000
  0
CIRCLE
  8
0
  6
CONTINUOUS
 62
256
 10
293.938906723122270
 20
-102.130358283310670
 40
26.956362337679252
  0
ARC
  8
0
  6
CONTINUOUS
 62
256
 10
357.938906723122270
 20
-38.130358283310670
 40
8.500000000000000
 50
0.000000000000000
 51
90.000000000000000
  0
ARC
  8
0
  6
CONTINUOUS
 62
256
 10
229.938906723122270
 20
-166.130358283310670
 40
8.500000000000000
 50
180.000000000000000
 51
270.000000000000000
  0
ARC
  8
0
  6
CONTINUOUS
 62
256
 10
293.938906723122270
 20
-102.130358283310670
 40
68.000000000000185
 50
61.382669854100463
 51
118.617330145899560
  0
ARC
  8
0
  6
CONTINUOUS
 62
256
 10
248.438906723122270
 20
-177.630358283310670
 40
3.000000000000000
 50
0.000000000000000
 51
90.000000000000000
  0
ARC
  8
0
  6
CONTINUOUS
 62
256
 10
229.938906723122270
 20
-38.130358283310670
 40
8.500000000000000
 50
90.000000000000000
 51
180.000000000000000
  0
ARC
  8
0
  6
CONTINUOUS
 62
256
 10
334.438906723122270
 20
-180.130358283310670
 40
2.000000000000000
 50
270.000000000000000
 51
0.000000000000000
  0
ARC
  8
0
  6
CONTINUOUS
 62
256
 10
253.438906723122270
 20
-180.130358283310670
 40
2.000000000000000
 50
180.000000000000000
 51
270.000000000000000
  0
ARC
  8
0
  6
CONTINUOUS
 62
256
 10
339.438906723122270
 20
-177.630358283310670
 40
3.000000000000000
 50
90.000000000000000
 51
180.000000000000000
  0
ARC
  8
0
  6
CONTINUOUS
 62
256
 10
364.438906723122270
 20
-45.772493907042190
 40
2.000000000000016
 50
314.999999999990790
 51
0.000000000000000
  0
ARC
  8
0
  6
CONTINUOUS
 62
256
 10
331.297583758310340
 20
-33.658982875915171
 40
9.999999999999638
 50
241.382669854100750
 51
314.999999999998010
  0
ARC
  8
0
  6
CONTINUOUS
 62
256
 10
223.438906723122270
 20
-45.772493907042190
 40
2.000000000000000
 50
180.000000000000000
 51
225.000000000008920
  0
ARC
  8
0
  6
CONTINUOUS
 62
256
 10
362.410282130518230
 20
-64.771681248123059
 40
10.000000000000082
 50
134.999999999998180
 51
208.617330145899250
  0
ARC
  8
0
  6
CONTINUOUS
 62
256
 10
237.581042346852430
 20
-31.630358283310670
 40
2.000000000000338
 50
45.000000000000000
 51
90.000000000000000
  0
ARC
  8
0
  6
CONTINUOUS
 62
256
 10
293.938906723122270
 20
-102.130358283310670
 40
68.000000000000355
 50
331.382669854100980
 51
354.260829522733050
  0
ARC
  8
0
  6
CONTINUOUS
 62
256
 10
256.580229687934210
 20
-33.658982875915171
 40
10.000000000000401
 50
225.000000000000000
 51
298.617330145899130
  0
ARC
  8
0
  6
CONTINUOUS
 62
256
 10
225.467531315726320
 20
-64.771681248123059
 40
9.999999999999638
 50
331.382669854100700
 51
45.000000000001847
  0
ARC
  8
0
  6
CONTINUOUS
 62
256
 10
350.296771099392120
 20
-31.630358283310670
 40
2.000000000000000
 50
90.000000000000000
 51
135.000000000000230
  0
ARC
  8
0
  6
CONTINUOUS
 62
256
 10
223.438906723122270
 20
-158.488222659579150
 40
2.000000000000016
 50
134.999999999990790
 51
180.000000000000000
  0
ARC
  8
0
  6
CONTINUOUS
 62
256
 10
237.581042346852430
 20
-172.630358283310670
 40
2.000000000000000
 50
270.000000000000000
 51
315.000000000000000
  0
ARC
  8
0
  6
CONTINUOUS
 62
256
 10
256.580229687934210
 20
-170.601733690706170
 40
9.999999999999638
 50
61.382669854100726
 51
135.000000000000000
  0
ARC
  8
0
  6
CONTINUOUS
 62
256
 10
225.467531315726320
 20
-139.489035318498280
 40
10.000000000000082
 50
314.999999999998180
 51
28.617330145899331
  0
ARC
  8
0
  6
CONTINUOUS
 62
256
 10
364.438906723122270
 20
-158.488222659579150
 40
2.000000000000000
 50
0.000000000000000
 51
45.000000000009209
  0
ARC
  8
0
  6
CONTINUOUS
 62
256
 10
350.296771099392120
 20
-172.630358283310670
 40
2.000000000000338
 50
225.000000000000000
 51
270.000000000000000
  0
ARC
  8
0
  6
CONTINUOUS
 62
256
 10
331.297583758310340
 20
-170.601733690706170
 40
10.000000000000082
 50
45.000000000001847
 51
118.617330145899320
  0
ARC
  8
0
  6
CONTINUOUS
 62
256
 10
362.410282130518230
 20
-139.489035318498280
 40
9.999999999999638
 50
151.382669854100730
 51
225.000000000001960
  0
ARC
  8
0
  6
CONTINUOUS
 62
256
 10
293.938906723122270
 20
-102.130358283310670
 40
68.000000000000185
 50
241.382669854100440
 51
298.617330145899530
  0
ARC
  8
0
  6
CONTINUOUS
 62
256
 10
293.938906723122270
 20
-102.130358283310670
 40
68.000000000000369
 50
151.382669854100980
 51
174.260829522733080
  0
CIRCLE
  8
0
  6
CONTINUOUS
 62
256
 10
293.938906723122270
 20
-102.130358283310670
 40
22.000000000000000
  0
CIRCLE
  8
0
  6
CONTINUOUS
 62
256
 10
293.938906723122270
 20
-102.130358283310670
 40
61.000000000000000
  0
CIRCLE
  8
0
  6
CONTINUOUS
 62
256
 10
293.938906723122270
 20
-102.130358283310670
 40
17.500000000000000
  0
LINE
  8
0
  6
CONTINUOUS
 62
256
 10
206.438906723122270
 20
-122.630358283310670
 11
206.438906723122270
 21
-117.630358283310670
  0
LINE
  8
0
  6
CONTINUOUS
 62
256
 10
206.949323570639990
 20
-122.630358283310670
 11
206.438906723122270
 21
-122.630358283310670
  0
LINE
  8
0
  6
CONTINUOUS
 62
256
 10
206.949323570639990
 20
-117.630358283310670
 11
206.438906723122270
 21
-117.630358283310670
  0
ARC
  8
0
  6
CONTINUOUS
 62
256
 10
506.938906723122270
 20
-120.130358283310670
 40
300.000000000000170
 50
175.138594604201960
 51
184.861405395798040
  0
LINE
  8
0
  6
CONTINUOUS
 62
256
 10
221.438906723122270
 20
-90.130358283310670
 11
213.000137589140650
 21
-90.130358283310670
  0
LINE
  8
0
  6
CONTINUOUS
 62
256
 10
221.438906723122270
 20
-150.130358283310670
 11
213.000137589140650
 21
-150.130358283310670
  0
ARC
  8
0
  6
CONTINUOUS
 62
256
 10
213.000137589140650
 20
-95.130358283310670
 40
5.000000000000000
 50
90.000000000000000
 51
175.138594604201330
  0
ARC
  8
0
  6
CONTINUOUS
 62
256
 10
213.000137589140650
 20
-145.130358283310670
 40
4.999999999999893
 50
184.861405395798610
 51
270.000000000000000
  0
LINE
  8
0
  6
DASHDOT
 62
256
 10
310.336267799033520
 20
-120.130358283310670
 11
276.963785000512870
 21
-120.130358283310670
  0
LINE
  8
0
  6
DASHDOT
 62
256
 10
136.268020502770470
 20
-165.769968590099780
 11
110.436262184869070
 21
-165.769968590099780
  0
LINE
  8
0
  6
DASHDOT
 62
256
 10
136.768020502770470
 20
-38.490747976521561
 11
110.436262184869070
 21
-38.490747976521561
  0
ARC
  8
0
  6
CONTINUOUS
 62
256
 10
116.772021252407280
 20
-173.734759177096750
 40
1.000000000000000
 50
180.000000000000000
 51
268.499999999984200
  0
LINE
  8
0
  6
CONTINUOUS
 62
256
 10
116.745844304099140
 20
-174.734416502072240
 11
120.272021252422750
 21
-174.826752695079450
  0
ARC
  8
0
  6
CONTINUOUS
 62
256
 10
62.772021252407285
 20
-173.549120835074970
 40
1.000000000000000
 50
180.000000000000000
 51
270.000000000000000
  0
LINE
  8
0
  6
CONTINUOUS
 62
256
 10
66.372021252407649
 20
-174.549120835074970
 11
62.772021252407285
 21
-174.549120835074970
  0
ARC
  8
0
  6
CONTINUOUS
 62
256
 10
62.772021252407285
 20
-110.880358283310670
 40
1.000000000000000
 50
180.000000000000000
 51
270.000000000000000
  0
ARC
  8
0
  6
CONTINUOUS
 62
256
 10
66.372021252407649
 20
-112.280358283310310
 40
0.399999999999636
 50
0.000000000000000
 51
90.000000000000000
  0
LINE
  8
0
  6
CONTINUOUS
 62
256
 10
66.772021252407285
 20
-112.280358283310310
 11
66.772021252407285
 21
-121.980358283311030
  0
LINE
  8
0
  6
CONTINUOUS
 62
256
 10
66.372021252407649
 20
-111.880358283310670
 11
62.772021252407285
 21
-111.880358283310670
  0
ARC
  8
0
  6
CONTINUOUS
 62
256
 10
62.772021252407285
 20
-123.380358283310670
 40
1.000000000000000
 50
90.000000000000000
 51
180.000000000000000
  0
ARC
  8
0
  6
CONTINUOUS
 62
256
 10
66.372021252407649
 20
-121.980358283311030
 40
0.399999999999636
 50
270.000000000000000
 51
0.000000000000000
  0
LINE
  8
0
  6
CONTINUOUS
 62
256
 10
66.372021252407649
 20
-122.380358283310670
 11
62.772021252407285
 21
-122.380358283310670
  0
LINE
  8
0
  6
CONTINUOUS
 62
256
 10
66.772021252407285
 20
-174.949120835075520
 11
66.772021252407285
 21
-180.880357329636350
  0
LINE
  8
0
  6
CONTINUOUS
 62
256
 10
66.772021252407285
 20
-55.969222797042676
 11
66.772021252407285
 21
-58.640423352667312
  0
ARC
  8
0
  6
CONTINUOUS
 62
256
 10
62.772021252407285
 20
-60.040423352666949
 40
1.000000000000000
 50
90.000000000000000
 51
180.000000000000000
  0
ARC
  8
0
  6
CONTINUOUS
 62
256
 10
66.372021252407649
 20
-58.640423352667312
 40
0.399999999999636
 50
270.000000000000000
 51
0.000000000000000
  0
LINE
  8
0
  6
CONTINUOUS
 62
256
 10
66.372021252407649
 20
-59.040423352666949
 11
62.772021252407285
 21
-59.040423352666949
  0
ARC
  8
0
  6
CONTINUOUS
 62
256
 10
66.372021252407649
 20
-174.949120835075520
 40
0.399999999999636
 50
0.000000000000000
 51
90.000000000000000
  0
ARC
  8
0
  6
CONTINUOUS
 62
256
 10
62.772021252407285
 20
-56.569222797043039
 40
1.000000000000000
 50
90.000000000000000
 51
180.000000000000000
  0
LINE
  8
0
  6
CONTINUOUS
 62
256
 10
66.372021252407649
 20
-55.569222797043039
 11
62.772021252407285
 21
-55.569222797043039
  0
ARC
  8
0
  6
CONTINUOUS
 62
256
 10
66.372021252407194
 20
-55.969222797042676
 40
0.400000000000091
 50
0.000000000000000
 51
90.000000000000000
  0
ARC
  8
0
  6
CONTINUOUS
 62
256
 10
67.272021252407285
 20
-180.630358283310670
 40
0.500000000000000
 50
180.000000000000000
 51
270.000000000000000
  0
LINE
  8
0
  6
CONTINUOUS
 62
256
 10
66.772022015346735
 20
-180.880357329636350
 11
61.772022015346735
 21
-180.880357329636350
  0
LINE
  8
0
  6
CONTINUOUS
 62
256
 10
61.772022015346735
 20
-180.880357329636350
 11
61.772022015346735
 21
-172.380359236984990
  0
LINE
  8
0
  6
CONTINUOUS
 62
256
 10
72.272021252407285
 20
-120.130358283310670
 11
72.272021252407285
 21
-54.586720620990491
  0
LINE
  8
0
  6
CONTINUOUS
 62
256
 10
72.272021252407285
 20
-181.130358283310670
 11
72.272021252407285
 21
-120.130358283310670
  0
ARC
  8
0
  6
CONTINUOUS
 62
256
 10
62.272021252407285
 20
-55.095448153454527
 40
0.500000000000000
 50
90.000000000000000
 51
180.000000000000000
  0
ARC
  8
0
  6
CONTINUOUS
 62
256
 10
62.272021252407285
 20
-180.630358283310670
 40
0.500000000000162
 50
209.999873810899710
 51
270.000000000000000
  0
LINE
  8
0
  6
CONTINUOUS
 62
256
 10
71.772021252407285
 20
-181.130358283310670
 11
62.272021252407285
 21
-181.130358283310670
  0
LINE
  8
0
  6
CONTINUOUS
 62
256
 10
71.772021252407285
 20
-54.595448153454527
 11
62.272021252407285
 21
-54.595448153454527
  0
LINE
  8
0
  6
CONTINUOUS
 62
256
 10
61.772021252407285
 20
-121.380357329636350
 11
61.772021252407285
 21
-173.549120835074970
  0
LINE
  8
0
  6
CONTINUOUS
 62
256
 10
61.772021252407285
 20
-173.101704871555510
 11
44.272021252407285
 21
-172.643451244095560
  0
LINE
  8
0
  6
CONTINUOUS
 62
256
 10
61.772021252407285
 20
-112.880359236984990
 11
61.772021252407285
 21
-55.095448153454527
  0
LINE
  8
0
  6
CONTINUOUS
 62
256
 10
61.772021252407285
 20
-67.159011695065843
 11
44.272021252407285
 21
-67.617265322525782
  0
ARC
  8
0
  6
CONTINUOUS
 62
256
 10
143.160083253703760
 20
-102.242557315347750
 40
2.888045108587920
 50
177.773528828002210
 51
270.000000000000000
  0
LINE
  8
0
  6
CONTINUOUS
 62
256
 10
143.160083253703760
 20
-105.130602423935670
 11
165.272038145115400
 21
-105.130602423935670
  0
LINE
  8
0
  6
CONTINUOUS
 62
256
 10
165.272038145115400
 20
-102.130358283310670
 11
165.272038145115400
 21
-111.230358283311030
  0
LINE
  8
0
  6
CONTINUOUS
 62
256
 10
137.072038145115580
 20
-113.130358283310670
 11
134.772021252407280
 21
-113.130358283310670
  0
LINE
  8
0
  6
CONTINUOUS
 62
256
 10
137.072038145115580
 20
-91.058434763260266
 11
134.772021252407280
 21
-91.058434763260266
  0
ARC
  8
0
  6
CONTINUOUS
 62
256
 10
137.672038145115490
 20
-111.880358283310670
 40
0.399999999999636
 50
90.000000000000000
 51
180.000000000000000
  0
LINE
  8
0
  6
CONTINUOUS
 62
256
 10
137.272038145115400
 20
-102.130358283310670
 11
137.272038145115400
 21
-112.930358283310850
  0
LINE
  8
0
  6
CONTINUOUS
 62
256
 10
139.831845766250810
 20
-111.630358283310670
 11
139.272038145115400
 21
-111.480358283311030
  0
LINE
  8
0
  6
CONTINUOUS
 62
256
 10
139.272038145115400
 20
-111.480358283311030
 11
137.672038145115490
 21
-111.480358283311030
  0
LINE
  8
0
  6
CONTINUOUS
 62
256
 10
137.072038145115580
 20
-113.130358283310670
 11
137.272038145115400
 21
-112.930358283310850
  0
LINE
  8
0
  6
CONTINUOUS
 62
256
 10
164.872038145115310
 20
-111.630358283310670
 11
139.831845766250810
 21
-111.630358283310670
  0
LINE
  8
0
  6
CONTINUOUS
 62
256
 10
137.272038145115400
 20
-102.058434763260270
 11
137.272038145115400
 21
-91.258434763260084
  0
LINE
  8
0
  6
CONTINUOUS
 62
256
 10
137.072038145115580
 20
-91.058434763260266
 11
137.272038145115400
 21
-91.258434763260084
  0
ARC
  8
0
  6
CONTINUOUS
 62
256
 10
164.872038145115310
 20
-111.230358283311030
 40
0.399999999999636
 50
270.000000000000000
 51
0.000000000000000
  0
ARC
  8
0
  6
CONTINUOUS
 62
256
 10
103.190028671145680
 20
-54.711964259718115
 40
3.000000000000000
 50
270.000000000000000
 51
318.942708126126600
  0
LINE
  8
0
  6
CONTINUOUS
 62
256
 10
115.034180818570120
 20
-45.681818004230081
 11
105.452188237308290
 21
-56.682404336761465
  0
ARC
  8
0
  6
CONTINUOUS
 62
256
 10
112.772021252407280
 20
-43.711377927185822
 40
3.000000000000703
 50
318.942708126116430
 51
0.000000000000000
  0
ARC
  8
0
  6
CONTINUOUS
 62
256
 10
103.190028671145680
 20
-58.368818509212360
 40
3.000000000000000
 50
270.000000000000000
 51
318.942708126126600
  0
ARC
  8
0
  6
CONTINUOUS
 62
256
 10
112.772021252407280
 20
-47.368232176680067
 40
3.000000000000703
 50
318.942708126116430
 51
0.000000000000000
  0
LINE
  8
0
  6
CONTINUOUS
 62
256
 10
115.034180818570120
 20
-49.338672253724326
 11
105.452188237308290
 21
-60.339258586255710
  0
LINE
  8
0
  6
CONTINUOUS
 62
256
 10
114.562324933528070
 20
-61.368818509212360
 11
105.931603293147870
 21
-61.368818509212360
  0
ARC
  8
0
  6
CONTINUOUS
 62
256
 10
123.772021252407280
 20
-110.130358283310670
 40
3.000000000000000
 50
90.000000000000000
 51
180.000000000000000
  0
ARC
  8
0
  6
CONTINUOUS
 62
256
 10
123.772021252407280
 20
-94.130358283310670
 40
3.000000000000000
 50
180.000000000000000
 51
270.000000000000000
  0
LINE
  8
0
  6
CONTINUOUS
 62
256
 10
123.772021252407280
 20
-107.130358283310670
 11
127.772021252407280
 21
-107.130358283310670
  0
LINE
  8
0
  6
CONTINUOUS
 62
256
 10
123.772021252407280
 20
-97.130358283310670
 11
127.772021252407280
 21
-97.130358283310670
  0
LINE
  8
0
  6
CONTINUOUS
 62
256
 10
123.693490407488280
 20
-140.866915085046460
 11
127.772021252411360
 21
-140.973715173869100
  0
ARC
  8
0
  6
CONTINUOUS
 62
256
 10
123.772021252411360
 20
-137.867943110119090
 40
3.000000000000000
 50
180.000000000000000
 51
268.500000000010570
  0
LINE
  8
0
  6
CONTINUOUS
 62
256
 10
123.693490407483750
 20
-157.552995446009850
 11
127.772021252407280
 21
-157.659795534832480
  0
ARC
  8
0
  6
CONTINUOUS
 62
256
 10
123.772021252407280
 20
-154.554023471083380
 40
3.000000000000000
 50
180.000000000000000
 51
268.500000000001590
  0
LINE
  8
0
  6
CONTINUOUS
 62
256
 10
120.772021252407280
 20
-154.554023471083380
 11
120.772021252407280
 21
-110.130358283310670
  0
LINE
  8
0
  6
CONTINUOUS
 62
256
 10
120.772021252407280
 20
-49.706693095537958
 11
120.772021252407280
 21
-94.130358283310670
  0
LINE
  8
0
  6
CONTINUOUS
 62
256
 10
123.693490407483750
 20
-46.707721120611495
 11
127.772021252407280
 21
-46.600921031788857
  0
ARC
  8
0
  6
CONTINUOUS
 62
256
 10
123.772021252407280
 20
-49.706693095537958
 40
2.999999999999788
 50
91.499999999998479
 51
180.000000000000000
  0
LINE
  8
0
  6
CONTINUOUS
 62
256
 10
123.693490407488280
 20
-63.393801481574883
 11
127.772021252411360
 21
-63.287001392752245
  0
LINE
  8
0
  6
CONTINUOUS
 62
256
 10
120.272021252407280
 20
-29.433963871541891
 11
127.772021252407280
 21
-29.630358283310670
  0
LINE
  8
0
  6
CONTINUOUS
 62
256
 10
120.261714164723780
 20
-182.119836487688190
 11
72.272021252407285
 21
-181.130358283310670
  0
LINE
  8
0
  6
CONTINUOUS
 62
256
 10
107.779469971294700
 20
-54.010573460488558
 11
72.272021252407285
 21
-54.630358283310670
  0
LINE
  8
0
  6
CONTINUOUS
 62
256
 10
116.745844304099140
 20
-29.526300064549105
 11
120.258932778252980
 21
-29.434306605299753
  0
LINE
  8
0
  6
DASHDOT
 62
256
 10
180.378420453320810
 20
-102.130358283310670
 11
86.230962491145419
 21
-102.130358283310670
  0
LINE
  8
0
  6
CONTINUOUS
 62
256
 10
105.404055611360040
 20
-52.596929077197274
 11
115.370097463760890
 21
-35.335238238480997
  0
LINE
  8
0
  6
CONTINUOUS
 62
256
 10
134.772021252407280
 20
-102.130358283310670
 11
134.772021252407280
 21
-80.862973986206271
  0
LINE
  8
0
  6
CONTINUOUS
 62
256
 10
130.772021252407280
 20
-37.930358283310852
 11
129.992695755669960
 21
-37.130358283310670
  0
LINE
  8
0
  6
CONTINUOUS
 62
256
 10
130.772021252407280
 20
-166.330358283310490
 11
129.992695755669960
 21
-167.130358283310670
  0
LINE
  8
0
  6
CONTINUOUS
 62
256
 10
134.772021252407280
 20
-102.130358283310670
 11
134.772021252407280
 21
-123.397742580415070
  0
ARC
  8
0
  6
CONTINUOUS
 62
256
 10
123.772021252411360
 20
-66.392773456502255
 40
3.000000000000686
 50
91.499999999989342
 51
180.000000000000000
  0
ARC
  8
0
  6
CONTINUOUS
 62
256
 10
120.272021252407280
 20
-181.619942735032960
 40
0.500000000000239
 50
268.818811086687840
 51
0.000000000000000
  0
ARC
  8
0
  6
CONTINUOUS
 62
256
 10
116.772021252407280
 20
-30.525957389524592
 40
0.999999999999937
 50
91.500000000015845
 51
180.000000000000000
  0
ARC
  8
0
  6
CONTINUOUS
 62
256
 10
132.772021252407280
 20
-80.862973986206271
 40
2.000000000000000
 50
0.000000000000000
 51
40.236358309266507
  0
ARC
  8
0
  6
CONTINUOUS
 62
256
 10
132.772021252407280
 20
-123.397742580415070
 40
1.999999999999609
 50
319.763641690733830
 51
0.000000000000000
  0
ARC
  8
0
  6
CONTINUOUS
 62
256
 10
112.772021252407280
 20
-33.835238238480997
 40
3.000000000000247
 50
330.000000000002730
 51
0.000000000000000
  0
ARC
  8
0
  6
CONTINUOUS
 62
256
 10
102.805979400006440
 20
-51.096929077197274
 40
3.000000000000496
 50
271.000000000001590
 51
330.000000000002610
  0
LINE
  8
0
  6
CONTINUOUS
 62
256
 10
71.772021252407285
 20
-102.130358283310670
 11
71.772021252407285
 21
-54.639085815774706
  0
LINE
  8
0
  6
CONTINUOUS
 62
256
 10
129.992695755669960
 20
-37.130358283310670
 11
127.772021252407280
 21
-37.130358283310670
  0
LINE
  8
0
  6
CONTINUOUS
 62
256
 10
129.992695755669960
 20
-167.130358283310670
 11
127.772021252407280
 21
-167.130358283310670
  0
LINE
  8
0
  6
CONTINUOUS
 62
256
 10
71.772021252407285
 20
-181.120049004960490
 11
71.772021252407285
 21
-102.130358283310670
  0
LINE
  8
0
  6
CONTINUOUS
 62
256
 10
127.772021252407280
 20
-102.130358283310670
 11
127.772021252407280
 21
-29.630358283310670
  0
LINE
  8
0
  6
CONTINUOUS
 62
256
 10
134.298793823145390
 20
-124.689627063346960
 11
130.772021252407280
 21
-128.857631010583650
  0
LINE
  8
0
  6
CONTINUOUS
 62
256
 10
134.298793823145390
 20
-79.571089503274379
 11
130.772021252407280
 21
-75.403085556037695
  0
LINE
  8
0
  6
CONTINUOUS
 62
256
 10
127.772021252407280
 20
-102.130358283310670
 11
127.772021252407280
 21
-174.630358283310670
  0
LINE
  8
0
  6
CONTINUOUS
 62
256
 10
130.772021252407280
 20
-102.130358283310670
 11
130.772021252407280
 21
-37.930358283310852
  0
LINE
  8
0
  6
CONTINUOUS
 62
256
 10
130.772021252407280
 20
-102.130358283310670
 11
130.772021252407280
 21
-166.330358283310490
  0
LINE
  8
0
  6
CONTINUOUS
 62
256
 10
120.272021252422750
 20
-174.826752695079450
 11
127.772021252407280
 21
-174.630358283310670
  0
LINE
  8
0
  6
CONTINUOUS
 62
256
 10
115.772021252407280
 20
-173.734759177096750
 11
115.772021252407280
 21
-30.525957389524592
  0
LINE
  8
0
  6
CONTINUOUS
 62
256
 10
120.772021252407280
 20
-174.813659734294560
 11
120.772021252407280
 21
-181.619942735032960
  0
LINE
  8
0
  6
CONTINUOUS
 62
256
 10
44.272021252407285
 20
-120.130358283310670
 11
44.272021252407285
 21
-67.630358283310670
  0
LINE
  8
0
  6
CONTINUOUS
 62
256
 10
44.272021252407740
 20
-166.932572389429480
 11
44.272021252407285
 21
-120.130358283310670
  0
LINE
  8
0
  6
CONTINUOUS
 62
256
 10
44.272021252407285
 20
-172.643451244095560
 11
44.272021252407285
 21
-120.130358283310670
  0
LINE
  8
0
  6
CONTINUOUS
 62
256
 10
44.509134259626535
 20
-69.130358283310557
 11
61.772021252407285
 21
-69.130358283310557
  0
LINE
  8
0
  6
CONTINUOUS
 62
256
 10
44.322710295875822
 20
-69.630358283310670
 11
61.772021252407285
 21
-69.630358283310670
  0
LINE
  8
0
  6
CONTINUOUS
 62
256
 10
44.322710295875822
 20
-73.997275688427976
 11
61.772021252407285
 21
-73.997275688427976
  0
LINE
  8
0
  6
CONTINUOUS
 62
256
 10
44.509134259626535
 20
-75.625702756205783
 11
61.772021252407285
 21
-75.625702756205783
  0
LINE
  8
0
  6
CONTINUOUS
 62
256
 10
44.509134259626535
 20
-79.088444512970909
 11
61.772021252407285
 21
-79.088444512970909
  0
LINE
  8
0
  6
CONTINUOUS
 62
256
 10
44.322710295875822
 20
-80.089922876786204
 11
61.772021252407285
 21
-80.089922876786204
  0
LINE
  8
0
  6
CONTINUOUS
 62
256
 10
44.509134259626535
 20
-86.826757331801900
 11
61.772021252407285
 21
-86.826757331801900
  0
LINE
  8
0
  6
CONTINUOUS
 62
256
 10
44.881982187127960
 20
-88.415967124540657
 11
61.772021252407285
 21
-88.415967124540657
  0
LINE
  8
0
  6
CONTINUOUS
 62
256
 10
44.695558223377247
 20
-91.373962732673590
 11
61.772021252407285
 21
-91.373962732673590
  0
LINE
  8
0
  6
CONTINUOUS
 62
256
 10
44.695558223377247
 20
-92.852985886150691
 11
61.772021252407285
 21
-92.852985886150691
  0
LINE
  8
0
  6
CONTINUOUS
 62
256
 10
44.509134259626535
 20
-95.945716877815926
 11
61.772021252407285
 21
-95.945716877815926
  0
LINE
  8
0
  6
CONTINUOUS
 62
256
 10
44.322710295875822
 20
-97.292118603314520
 11
61.772021252407285
 21
-97.292118603314520
  0
LINE
  8
0
  6
CONTINUOUS
 62
256
 10
44.509134259626535
 20
-100.130358283310670
 11
61.772021252407285
 21
-100.130358283310670
  0
LINE
  8
0
  6
CONTINUOUS
 62
256
 10
44.272021252407512
 20
-140.130358283310670
 11
61.772021252407285
 21
-140.130358283310670
  0
LINE
  8
0
  6
CONTINUOUS
 62
256
 10
44.272021252407512
 20
-142.968597963306820
 11
61.772021252407285
 21
-142.968597963306820
  0
LINE
  8
0
  6
CONTINUOUS
 62
256
 10
44.272021252407512
 20
-144.314999688805410
 11
61.772021252407285
 21
-144.314999688805410
  0
LINE
  8
0
  6
CONTINUOUS
 62
256
 10
44.272021252407569
 20
-147.407730680470650
 11
61.772021252407285
 21
-147.407730680470650
  0
LINE
  8
0
  6
CONTINUOUS
 62
256
 10
44.272021252407569
 20
-148.886753833947750
 11
61.772021252407285
 21
-148.886753833947750
  0
LINE
  8
0
  6
CONTINUOUS
 62
256
 10
44.272021252407626
 20
-151.844749442080680
 11
61.772021252407285
 21
-151.844749442080680
  0
LINE
  8
0
  6
CONTINUOUS
 62
256
 10
44.272021252407626
 20
-153.433959234819330
 11
61.772021252407285
 21
-153.433959234819330
  0
LINE
  8
0
  6
CONTINUOUS
 62
256
 10
44.272021252407683
 20
-160.170793689835020
 11
61.772021252407285
 21
-160.170793689835020
  0
LINE
  8
0
  6
CONTINUOUS
 62
256
 10
44.272021252407683
 20
-161.172272053650320
 11
61.772021252407285
 21
-161.172272053650320
  0
LINE
  8
0
  6
CONTINUOUS
 62
256
 10
44.272021252407740
 20
-164.635013810415560
 11
61.772021252407285
 21
-164.635013810415560
  0
LINE
  8
0
  6
CONTINUOUS
 62
256
 10
44.272021252407740
 20
-166.263440878193360
 11
61.772021252407285
 21
-166.263440878193360
  0
LINE
  8
0
  6
CONTINUOUS
 62
256
 10
44.272021252407740
 20
-170.630358283310670
 11
61.772021252407285
 21
-170.630358283310670
  0
LINE
  8
0
  6
CONTINUOUS
 62
256
 10
44.272021252407740
 20
-171.130358283310670
 11
61.772021252407285
 21
-171.130358283310670
  0
LINE
  8
0
  6
CONTINUOUS
 62
256
 10
-104.227978747592470
 20
-120.130358283310670
 11
-104.227978747592470
 21
-149.630358283310670
  0
LINE
  8
0
  6
CONTINUOUS
 62
256
 10
-29.227978747592488
 20
-120.130358283310670
 11
-29.227978747592488
 21
-149.630358283310670
  0
LINE
  8
0
  6
CONTINUOUS
 62
256
 10
-31.227978747592488
 20
-151.630358283310670
 11
-102.227978747592470
 21
-151.630358283310670
  0
ARC
  8
0
  6
CONTINUOUS
 62
256
 10
-31.227978747592488
 20
-149.630358283310670
 40
2.000000000000000
 50
270.000000000000000
 51
0.000000000000000
  0
ARC
  8
0
  6
CONTINUOUS
 62
256
 10
-102.227978747592470
 20
-149.630358283310670
 40
2.000000000000000
 50
180.000000000000000
 51
270.000000000000000
  0
LINE
  8
0
  6
CONTINUOUS
 62
256
 10
-31.227978747592488
 20
-150.130358283310670
 11
-102.227978747592470
 21
-150.130358283310670
  0
ARC
  8
0
  6
CONTINUOUS
 62
256
 10
-102.227978747592470
 20
-149.130358283310670
 40
1.000000000000000
 50
180.000000000000000
 51
270.000000000000000
  0
ARC
  8
0
  6
CONTINUOUS
 62
256
 10
-31.227978747592488
 20
-149.130358283310670
 40
1.000000000000000
 50
270.000000000000000
 51
0.000000000000000
  0
LINE
  8
0
  6
CONTINUOUS
 62
256
 10
-106.227978747613630
 20
-120.130358283310670
 11
-106.227978747613630
 21
-155.130358283310670
  0
LINE
  8
0
  6
CONTINUOUS
 62
256
 10
-99.227978747613633
 20
-158.130358283310670
 11
-103.227978747613630
 21
-158.130358283310670
  0
ARC
  8
0
  6
CONTINUOUS
 62
256
 10
-103.227978747613630
 20
-155.130358283310670
 40
3.000000000000000
 50
180.000000000000000
 51
270.000000000000000
  0
LINE
  8
0
  6
CONTINUOUS
 62
256
 10
-96.227978747613633
 20
-174.130358283310900
 11
-96.227978747613633
 21
-161.130358283310670
  0
ARC
  8
0
  6
CONTINUOUS
 62
256
 10
-99.227978747613633
 20
-161.130358283310670
 40
3.000000000000000
 50
0.000000000000000
 51
90.000000000000000
  0
LINE
  8
0
  6
CONTINUOUS
 62
256
 10
-102.618287929718240
 20
-168.160646203858560
 11
-102.527978747613400
 21
-167.457689237658200
  0
LINE
  8
0
  6
CONTINUOUS
 62
256
 10
-102.885744944810360
 20
-168.836588928070650
 11
-102.618287929718240
 21
-168.160646203858560
  0
LINE
  8
0
  6
CONTINUOUS
 62
256
 10
-103.320071569791450
 20
-169.459541310476060
 11
-102.885744944810360
 21
-168.836588928070650
  0
LINE
  8
0
  6
CONTINUOUS
 62
256
 10
-103.904576876036640
 20
-170.005563640374650
 11
-103.320071569791450
 21
-169.459541310476060
  0
LINE
  8
0
  6
CONTINUOUS
 62
256
 10
-104.616798652421280
 20
-170.453672585841280
 11
-103.904576876036640
 21
-170.005563640374650
  0
LINE
  8
0
  6
CONTINUOUS
 62
256
 10
-105.429366615497490
 20
-170.786647571404020
 11
-104.616798652421280
 21
-170.453672585841280
  0
LINE
  8
0
  6
CONTINUOUS
 62
256
 10
-106.311054234137600
 20
-170.991692555102280
 11
-105.429366615497490
 21
-170.786647571404020
  0
LINE
  8
0
  6
CONTINUOUS
 62
256
 10
-107.227978747613410
 20
-171.060927773203050
 11
-106.311054234137600
 21
-170.991692555102280
  0
LINE
  8
0
  6
CONTINUOUS
 62
256
 10
-108.144903261089210
 20
-170.991692555102280
 11
-107.227978747613410
 21
-171.060927773203050
  0
LINE
  8
0
  6
CONTINUOUS
 62
256
 10
-109.026590879729330
 20
-170.786647571404020
 11
-108.144903261089210
 21
-170.991692555102280
  0
LINE
  8
0
  6
CONTINUOUS
 62
256
 10
-109.839158842805530
 20
-170.453672585841280
 11
-109.026590879729330
 21
-170.786647571404020
  0
LINE
  8
0
  6
CONTINUOUS
 62
256
 10
-110.551380619190160
 20
-170.005563640374650
 11
-109.839158842805530
 21
-170.453672585841280
  0
LINE
  8
0
  6
CONTINUOUS
 62
256
 10
-111.135885925435360
 20
-169.459541310476060
 11
-110.551380619190160
 21
-170.005563640374650
  0
LINE
  8
0
  6
CONTINUOUS
 62
256
 10
-111.570212550416440
 20
-168.836588928070650
 11
-111.135885925435360
 21
-169.459541310476060
  0
LINE
  8
0
  6
CONTINUOUS
 62
256
 10
-111.837669565508580
 20
-168.160646203858560
 11
-111.570212550416440
 21
-168.836588928070650
  0
LINE
  8
0
  6
CONTINUOUS
 62
256
 10
-111.927978747613390
 20
-167.457689237658200
 11
-111.837669565508580
 21
-168.160646203858560
  0
LINE
  8
0
  6
CONTINUOUS
 62
256
 10
-111.837669565508580
 20
-166.754732271457840
 11
-111.927978747613390
 21
-167.457689237658200
  0
LINE
  8
0
  6
CONTINUOUS
 62
256
 10
-111.570212550416440
 20
-166.078789547245750
 11
-111.837669565508580
 21
-166.754732271457840
  0
LINE
  8
0
  6
CONTINUOUS
 62
256
 10
-111.135885925435360
 20
-165.455837164840350
 11
-111.570212550416440
 21
-166.078789547245750
  0
LINE
  8
0
  6
CONTINUOUS
 62
256
 10
-110.551380619190160
 20
-164.909814834941760
 11
-111.135885925435360
 21
-165.455837164840350
  0
LINE
  8
0
  6
CONTINUOUS
 62
256
 10
-109.839158842805530
 20
-164.461705889475130
 11
-110.551380619190160
 21
-164.909814834941760
  0
LINE
  8
0
  6
CONTINUOUS
 62
256
 10
-109.026590879729330
 20
-164.128730903912380
 11
-109.839158842805530
 21
-164.461705889475130
  0
LINE
  8
0
  6
CONTINUOUS
 62
256
 10
-108.144903261089210
 20
-163.923685920214130
 11
-109.026590879729330
 21
-164.128730903912380
  0
LINE
  8
0
  6
CONTINUOUS
 62
256
 10
-107.227978747613410
 20
-163.854450702113350
 11
-108.144903261089210
 21
-163.923685920214130
  0
LINE
  8
0
  6
CONTINUOUS
 62
256
 10
-106.311054234137600
 20
-163.923685920214130
 11
-107.227978747613410
 21
-163.854450702113350
  0
LINE
  8
0
  6
CONTINUOUS
 62
256
 10
-105.429366615497490
 20
-164.128730903912380
 11
-106.311054234137600
 21
-163.923685920214130
  0
LINE
  8
0
  6
CONTINUOUS
 62
256
 10
-104.616798652421280
 20
-164.461705889475130
 11
-105.429366615497490
 21
-164.128730903912380
  0
LINE
  8
0
  6
CONTINUOUS
 62
256
 10
-103.904576876036640
 20
-164.909814834941760
 11
-104.616798652421280
 21
-164.461705889475130
  0
LINE
  8
0
  6
CONTINUOUS
 62
256
 10
-103.320071569791450
 20
-165.455837164840350
 11
-103.904576876036640
 21
-164.909814834941760
  0
LINE
  8
0
  6
CONTINUOUS
 62
256
 10
-102.885744944810360
 20
-166.078789547245750
 11
-103.320071569791450
 21
-165.455837164840350
  0
LINE
  8
0
  6
CONTINUOUS
 62
256
 10
-102.618287929718240
 20
-166.754732271457840
 11
-102.885744944810360
 21
-166.078789547245750
  0
LINE
  8
0
  6
CONTINUOUS
 62
256
 10
-102.527978747613400
 20
-167.457689237658200
 11
-102.618287929718240
 21
-166.754732271457840
  0
LINE
  8
0
  6
CONTINUOUS
 62
256
 10
-109.227978747613630
 20
-170.450064791658630
 11
-107.227978747613860
 21
-169.274279306035740
  0
LINE
  8
0
  6
CONTINUOUS
 62
256
 10
-107.227978747613860
 20
-169.274279306035740
 11
-105.227978747613630
 21
-167.621637666912420
  0
LINE
  8
0
  6
CONTINUOUS
 62
256
 10
-105.227978747613630
 20
-170.450064791658630
 11
-107.227978747613860
 21
-169.274279306035740
  0
LINE
  8
0
  6
CONTINUOUS
 62
256
 10
-107.227978747613860
 20
-169.274279306035740
 11
-109.227978747613630
 21
-167.621637666912420
  0
LINE
  8
0
  6
CONTINUOUS
 62
256
 10
-106.227978747613630
 20
-148.886753833947750
 11
-104.227978747592470
 21
-148.886753833947750
  0
LINE
  8
0
  6
CONTINUOUS
 62
256
 10
-106.227978747613630
 20
-147.407730680470650
 11
-104.227978747592470
 21
-147.407730680470650
  0
LINE
  8
0
  6
CONTINUOUS
 62
256
 10
-106.227978747613630
 20
-144.314999688805410
 11
-104.227978747592470
 21
-144.314999688805410
  0
LINE
  8
0
  6
CONTINUOUS
 62
256
 10
-106.227978747613630
 20
-142.968597963306820
 11
-104.227978747592470
 21
-142.968597963306820
  0
LINE
  8
0
  6
CONTINUOUS
 62
256
 10
-106.227978747613630
 20
-140.130358283310670
 11
-104.227978747592470
 21
-140.130358283310670
  0
LINE
  8
0
  6
CONTINUOUS
 62
256
 10
-96.227978747613633
 20
-174.130358283310900
 11
-125.732823696706650
 21
-174.130358283310900
  0
ARC
  8
0
  6
CONTINUOUS
 62
256
 10
-125.732823696706650
 20
-153.530358283310870
 40
20.599999999999891
 50
235.000000000000400
 51
270.000000000000000
  0
ARC
  8
0
  6
CONTINUOUS
 62
256
 10
-143.627978747613950
 20
-162.973978416940210
 40
2.599999999999909
 50
180.000000000000000
 51
234.999999999997500
  0
LINE
  8
0
  6
CONTINUOUS
 62
256
 10
-146.227978747613860
 20
-162.973978416940210
 11
-146.227978747613860
 21
-120.130358283310670
  0
LINE
  8
0
  6
CONTINUOUS
 62
256
 10
-137.548498285538020
 20
-170.404890395664100
 11
-145.119277482126790
 21
-165.103773732091550
  0
LINE
  8
0
  6
CONTINUOUS
 62
256
 10
-103.227978747592470
 20
-120.130358283310670
 11
-103.227978747592470
 21
-149.130358283310670
  0
LINE
  8
0
  6
CONTINUOUS
 62
256
 10
-30.227978747592488
 20
-149.130358283310670
 11
-30.227978747592488
 21
-120.130358283310670
  0
LINE
  8
0
  6
CONTINUOUS
 62
256
 10
-106.227978747613630
 20
-120.130358283310670
 11
-106.227978747613630
 21
-85.130358283310670
  0
LINE
  8
0
  6
CONTINUOUS
 62
256
 10
-99.227978747613633
 20
-82.130358283310670
 11
-103.227978747613630
 21
-82.130358283310670
  0
ARC
  8
0
  6
CONTINUOUS
 62
256
 10
-103.227978747613630
 20
-85.130358283310670
 40
3.000000000000000
 50
90.000000000000000
 51
180.000000000000000
  0
LINE
  8
0
  6
CONTINUOUS
 62
256
 10
-96.227978747613633
 20
-66.130358283310443
 11
-96.227978747613633
 21
-79.130358283310670
  0
ARC
  8
0
  6
CONTINUOUS
 62
256
 10
-99.227978747613633
 20
-79.130358283310670
 40
3.000000000000000
 50
270.000000000000000
 51
0.000000000000000
  0
LINE
  8
0
  6
CONTINUOUS
 62
256
 10
-102.618287929718240
 20
-73.505984295163387
 11
-102.527978747613400
 21
-72.803027328963026
  0
LINE
  8
0
  6
CONTINUOUS
 62
256
 10
-102.885744944810360
 20
-74.181927019375479
 11
-102.618287929718240
 21
-73.505984295163387
  0
LINE
  8
0
  6
CONTINUOUS
 62
256
 10
-103.320071569791450
 20
-74.804879401780880
 11
-102.885744944810360
 21
-74.181927019375479
  0
LINE
  8
0
  6
CONTINUOUS
 62
256
 10
-103.904576876036640
 20
-75.350901731679457
 11
-103.320071569791450
 21
-74.804879401780880
  0
LINE
  8
0
  6
CONTINUOUS
 62
256
 10
-104.616798652421280
 20
-75.799010677146072
 11
-103.904576876036640
 21
-75.350901731679457
  0
LINE
  8
0
  6
CONTINUOUS
 62
256
 10
-105.429366615497490
 20
-76.131985662708843
 11
-104.616798652421280
 21
-75.799010677146072
  0
LINE
  8
0
  6
CONTINUOUS
 62
256
 10
-106.311054234137600
 20
-76.337030646407086
 11
-105.429366615497490
 21
-76.131985662708843
  0
LINE
  8
0
  6
CONTINUOUS
 62
256
 10
-107.227978747613410
 20
-76.406265864507859
 11
-106.311054234137600
 21
-76.337030646407086
  0
LINE
  8
0
  6
CONTINUOUS
 62
256
 10
-108.144903261089210
 20
-76.337030646407086
 11
-107.227978747613410
 21
-76.406265864507859
  0
LINE
  8
0
  6
CONTINUOUS
 62
256
 10
-109.026590879729330
 20
-76.131985662708843
 11
-108.144903261089210
 21
-76.337030646407086
  0
LINE
  8
0
  6
CONTINUOUS
 62
256
 10
-109.839158842805530
 20
-75.799010677146072
 11
-109.026590879729330
 21
-76.131985662708843
  0
LINE
  8
0
  6
CONTINUOUS
 62
256
 10
-110.551380619190160
 20
-75.350901731679457
 11
-109.839158842805530
 21
-75.799010677146072
  0
LINE
  8
0
  6
CONTINUOUS
 62
256
 10
-111.135885925435360
 20
-74.804879401780880
 11
-110.551380619190160
 21
-75.350901731679457
  0
LINE
  8
0
  6
CONTINUOUS
 62
256
 10
-111.570212550416440
 20
-74.181927019375479
 11
-111.135885925435360
 21
-74.804879401780880
  0
LINE
  8
0
  6
CONTINUOUS
 62
256
 10
-111.837669565508580
 20
-73.505984295163387
 11
-111.570212550416440
 21
-74.181927019375479
  0
LINE
  8
0
  6
CONTINUOUS
 62
256
 10
-111.927978747613390
 20
-72.803027328963026
 11
-111.837669565508580
 21
-73.505984295163387
  0
LINE
  8
0
  6
CONTINUOUS
 62
256
 10
-111.837669565508580
 20
-72.100070362762665
 11
-111.927978747613390
 21
-72.803027328963026
  0
LINE
  8
0
  6
CONTINUOUS
 62
256
 10
-111.570212550416440
 20
-71.424127638550573
 11
-111.837669565508580
 21
-72.100070362762665
  0
LINE
  8
0
  6
CONTINUOUS
 62
256
 10
-111.135885925435360
 20
-70.801175256145171
 11
-111.570212550416440
 21
-71.424127638550573
  0
LINE
  8
0
  6
CONTINUOUS
 62
256
 10
-110.551380619190160
 20
-70.255152926246595
 11
-111.135885925435360
 21
-70.801175256145171
  0
LINE
  8
0
  6
CONTINUOUS
 62
256
 10
-109.839158842805530
 20
-69.807043980779980
 11
-110.551380619190160
 21
-70.255152926246595
  0
LINE
  8
0
  6
CONTINUOUS
 62
256
 10
-109.026590879729330
 20
-69.474068995217209
 11
-109.839158842805530
 21
-69.807043980779980
  0
LINE
  8
0
  6
CONTINUOUS
 62
256
 10
-108.144903261089210
 20
-69.269024011518965
 11
-109.026590879729330
 21
-69.474068995217209
  0
LINE
  8
0
  6
CONTINUOUS
 62
256
 10
-107.227978747613410
 20
-69.199788793418193
 11
-108.144903261089210
 21
-69.269024011518965
  0
LINE
  8
0
  6
CONTINUOUS
 62
256
 10
-106.311054234137600
 20
-69.269024011518965
 11
-107.227978747613410
 21
-69.199788793418193
  0
LINE
  8
0
  6
CONTINUOUS
 62
256
 10
-105.429366615497490
 20
-69.474068995217209
 11
-106.311054234137600
 21
-69.269024011518965
  0
LINE
  8
0
  6
CONTINUOUS
 62
256
 10
-104.616798652421280
 20
-69.807043980779980
 11
-105.429366615497490
 21
-69.474068995217209
  0
LINE
  8
0
  6
CONTINUOUS
 62
256
 10
-103.904576876036640
 20
-70.255152926246595
 11
-104.616798652421280
 21
-69.807043980779980
  0
LINE
  8
0
  6
CONTINUOUS
 62
256
 10
-103.320071569791450
 20
-70.801175256145171
 11
-103.904576876036640
 21
-70.255152926246595
  0
LINE
  8
0
  6
CONTINUOUS
 62
256
 10
-102.885744944810360
 20
-71.424127638550573
 11
-103.320071569791450
 21
-70.801175256145171
  0
LINE
  8
0
  6
CONTINUOUS
 62
256
 10
-102.618287929718240
 20
-72.100070362762665
 11
-102.885744944810360
 21
-71.424127638550573
  0
LINE
  8
0
  6
CONTINUOUS
 62
256
 10
-102.527978747613400
 20
-72.803027328963026
 11
-102.618287929718240
 21
-72.100070362762665
  0
LINE
  8
0
  6
CONTINUOUS
 62
256
 10
-109.227978747613630
 20
-69.810651774962707
 11
-107.227978747613860
 21
-70.986437260585490
  0
LINE
  8
0
  6
CONTINUOUS
 62
256
 10
-107.227978747613860
 20
-70.986437260585490
 11
-105.227978747613630
 21
-72.639078899708920
  0
LINE
  8
0
  6
CONTINUOUS
 62
256
 10
-105.227978747613630
 20
-69.810651774962707
 11
-107.227978747613860
 21
-70.986437260585490
  0
LINE
  8
0
  6
CONTINUOUS
 62
256
 10
-107.227978747613860
 20
-70.986437260585490
 11
-109.227978747613630
 21
-72.639078899708920
  0
ARC
  8
0
  6
CONTINUOUS
 62
256
 10
-125.732823696706650
 20
-86.730358283310466
 40
20.600000000000023
 50
90.000000000000000
 51
124.999999999999630
  0
ARC
  8
0
  6
CONTINUOUS
 62
256
 10
-143.627978747613950
 20
-77.286738149681128
 40
2.600000000000131
 50
125.000000000001180
 51
180.000000000000000
  0
LINE
  8
0
  6
CONTINUOUS
 62
256
 10
-146.227978747613860
 20
-77.286738149681128
 11
-146.227978747613860
 21
-120.130358283310670
  0
LINE
  8
0
  6
CONTINUOUS
 62
256
 10
-137.548498285538020
 20
-69.855826170957130
 11
-145.119277482126790
 21
-75.156942834529673
  0
LINE
  8
0
  6
CONTINUOUS
 62
256
 10
-96.227978747613633
 20
-66.130358283310443
 11
-125.732823696706650
 21
-66.130358283310443
  0
LINE
  8
0
  6
CONTINUOUS
 62
256
 10
-104.227978747592470
 20
-120.130358283310670
 11
-104.227978747592470
 21
-90.630358283310670
  0
LINE
  8
0
  6
CONTINUOUS
 62
256
 10
-29.227978747592488
 20
-120.130358283310670
 11
-29.227978747592488
 21
-90.630358283310670
  0
LINE
  8
0
  6
CONTINUOUS
 62
256
 10
-31.227978747592488
 20
-88.630358283310670
 11
-102.227978747592470
 21
-88.630358283310670
  0
ARC
  8
0
  6
CONTINUOUS
 62
256
 10
-31.227978747592488
 20
-90.630358283310670
 40
2.000000000000000
 50
0.000000000000000
 51
90.000000000000000
  0
ARC
  8
0
  6
CONTINUOUS
 62
256
 10
-102.227978747592470
 20
-90.630358283310670
 40
2.000000000000000
 50
90.000000000000000
 51
180.000000000000000
  0
LINE
  8
0
  6
CONTINUOUS
 62
256
 10
-106.227978747613630
 20
-100.130358283310670
 11
-104.227978747592470
 21
-100.130358283310670
  0
LINE
  8
0
  6
CONTINUOUS
 62
256
 10
-106.227978747613630
 20
-91.373962732673590
 11
-104.227978747592470
 21
-91.373962732673590
  0
LINE
  8
0
  6
CONTINUOUS
 62
256
 10
-106.227978747613630
 20
-92.852985886150691
 11
-104.227978747592470
 21
-92.852985886150691
  0
LINE
  8
0
  6
CONTINUOUS
 62
256
 10
-106.227978747613630
 20
-95.945716877815926
 11
-104.227978747592470
 21
-95.945716877815926
  0
LINE
  8
0
  6
CONTINUOUS
 62
256
 10
-106.227978747613630
 20
-97.292118603314520
 11
-104.227978747592470
 21
-97.292118603314520
  0
LINE
  8
0
  6
CONTINUOUS
 62
256
 10
-31.227978747592488
 20
-90.130358283310670
 11
-102.227978747592470
 21
-90.130358283310670
  0
LINE
  8
0
  6
CONTINUOUS
 62
256
 10
-103.227978747592470
 20
-120.130358283310670
 11
-103.227978747592470
 21
-91.130358283310670
  0
LINE
  8
0
  6
CONTINUOUS
 62
256
 10
-30.227978747592488
 20
-91.130358283310670
 11
-30.227978747592488
 21
-120.130358283310670
  0
ARC
  8
0
  6
CONTINUOUS
 62
256
 10
-102.227978747592470
 20
-91.130358283310670
 40
1.000000000000000
 50
90.000000000000000
 51
180.000000000000000
  0
ARC
  8
0
  6
CONTINUOUS
 62
256
 10
-31.227978747592488
 20
-91.130358283310670
 40
1.000000000000000
 50
0.000000000000000
 51
90.000000000000000
  0
LINE
  8
0
  6
CONTINUOUS
 62
256
 10
-29.227978747592488
 20
-91.373962732673590
 11
44.272021252407285
 21
-91.373962732673590
  0
LINE
  8
0
  6
CONTINUOUS
 62
256
 10
-29.227978747592488
 20
-92.852985886150691
 11
44.272021252407285
 21
-92.852985886150691
  0
LINE
  8
0
  6
CONTINUOUS
 62
256
 10
-29.227978747592488
 20
-95.945716877815926
 11
44.272021252407285
 21
-95.945716877815926
  0
LINE
  8
0
  6
CONTINUOUS
 62
256
 10
-29.227978747592488
 20
-97.292118603314520
 11
44.272021252407285
 21
-97.292118603314520
  0
LINE
  8
0
  6
CONTINUOUS
 62
256
 10
-29.227978747592488
 20
-100.130358283310670
 11
44.272021252407285
 21
-100.130358283310670
  0
LINE
  8
0
  6
CONTINUOUS
 62
256
 10
-96.385579093984916
 20
-80.089922876786204
 11
44.272021252407285
 21
-80.089922876786204
  0
LINE
  8
0
  6
CONTINUOUS
 62
256
 10
-96.227978747613633
 20
-75.625702756205783
 11
44.272021252407285
 21
-75.625702756205783
  0
LINE
  8
0
  6
CONTINUOUS
 62
256
 10
-106.227978747613630
 20
-88.415967124540657
 11
44.272021252407285
 21
-88.415967124540657
  0
LINE
  8
0
  6
CONTINUOUS
 62
256
 10
-106.227978747613630
 20
-86.826757331801900
 11
44.272021252407285
 21
-86.826757331801900
  0
LINE
  8
0
  6
CONTINUOUS
 62
256
 10
-96.227978747613633
 20
-79.088444512970909
 11
44.272021252407285
 21
-79.088444512970909
  0
LINE
  8
0
  6
CONTINUOUS
 62
256
 10
-96.227978747613633
 20
-73.997275688427976
 11
44.272021252407285
 21
-73.997275688427976
  0
LINE
  8
0
  6
CONTINUOUS
 62
256
 10
-96.227978747613633
 20
-69.130358283310557
 11
44.272021252407285
 21
-69.130358283310557
  0
LINE
  8
0
  6
CONTINUOUS
 62
256
 10
-96.227978747613633
 20
-69.630358283310670
 11
44.272021252407285
 21
-69.630358283310670
  0
LINE
  8
0
  6
CONTINUOUS
 62
256
 10
44.272021252407285
 20
-67.630358283310670
 11
-96.227978747613633
 21
-67.630358283310670
  0
LINE
  8
0
  6
CONTINUOUS
 62
256
 10
-106.227978747613630
 20
-151.844749442080680
 11
44.272021252407285
 21
-151.844749442080680
  0
LINE
  8
0
  6
CONTINUOUS
 62
256
 10
-106.227978747613630
 20
-153.433959234819330
 11
44.272021252407285
 21
-153.433959234819330
  0
LINE
  8
0
  6
CONTINUOUS
 62
256
 10
-96.385579093984916
 20
-160.170793689835020
 11
44.272021252407285
 21
-160.170793689835020
  0
LINE
  8
0
  6
CONTINUOUS
 62
256
 10
-96.227978747613633
 20
-161.172272053650320
 11
44.272021252407285
 21
-161.172272053650320
  0
LINE
  8
0
  6
CONTINUOUS
 62
256
 10
-96.227978747613633
 20
-164.635013810415560
 11
44.272021252407285
 21
-164.635013810415560
  0
LINE
  8
0
  6
CONTINUOUS
 62
256
 10
-96.227978747613633
 20
-166.263440878193360
 11
44.272021252407285
 21
-166.263440878193360
  0
LINE
  8
0
  6
CONTINUOUS
 62
256
 10
-96.227978747613633
 20
-171.130358283310670
 11
44.272021252407285
 21
-171.130358283310670
  0
LINE
  8
0
  6
CONTINUOUS
 62
256
 10
-96.227978747613633
 20
-170.630358283310670
 11
44.272021252407285
 21
-170.630358283310670
  0
LINE
  8
0
  6
CONTINUOUS
 62
256
 10
44.272021252407285
 20
-172.630358283310670
 11
-96.227978747613633
 21
-172.630358283310670
  0
LINE
  8
0
  6
CONTINUOUS
 62
256
 10
-29.227978747592488
 20
-148.886753833947750
 11
44.272021252407285
 21
-148.886753833947750
  0
LINE
  8
0
  6
CONTINUOUS
 62
256
 10
-29.227978747592488
 20
-147.407730680470650
 11
44.272021252407285
 21
-147.407730680470650
  0
LINE
  8
0
  6
CONTINUOUS
 62
256
 10
-29.227978747592488
 20
-144.314999688805410
 11
44.272021252407285
 21
-144.314999688805410
  0
LINE
  8
0
  6
CONTINUOUS
 62
256
 10
-29.227978747592488
 20
-142.968597963306820
 11
44.272021252407285
 21
-142.968597963306820
  0
LINE
  8
0
  6
CONTINUOUS
 62
256
 10
-29.227978747592488
 20
-140.130358283310670
 11
44.272021252407285
 21
-140.130358283310670
  0
LINE
  8
0
  6
DASHDOT
 62
256
 10
83.829743290045826
 20
-120.130358283310670
 11
-163.155244802053400
 21
-120.130358283310670
  0
LINE
  8
0
  6
DASHED
 62
256
 10
-34.727978747595330
 20
34.612826152053572
 11
-34.727978747595330
 21
49.112826152053572
  0
LINE
  8
0
  6
DASHED
 62
256
 10
-48.727978747595330
 20
34.612826152053572
 11
-48.727978747595330
 21
49.112826152053572
  0
ARC
  8
0
  6
DASHED
 62
256
 10
-41.727978747595330
 20
34.612826152053572
 40
7.000000000000000
 50
180.000000000000000
 51
0.000000000000000
  0
CIRCLE
  8
0
  6
DASHED
 62
256
 10
-41.727978747595330
 20
34.612826152053572
 40
6.000000000000000
  0
LINE
  8
0
  6
DASHED
 62
256
 10
-84.727978747595330
 20
34.612826152053572
 11
-84.727978747595330
 21
49.112826152053572
  0
LINE
  8
0
  6
DASHED
 62
256
 10
-98.727978747595330
 20
34.612826152053572
 11
-98.727978747595330
 21
49.112826152053572
  0
ARC
  8
0
  6
DASHED
 62
256
 10
-91.727978747595330
 20
34.612826152053572
 40
7.000000000000000
 50
180.000000000000000
 51
0.000000000000000
  0
LINE
  8
0
  6
DASHDOT
 62
256
 10
-41.727978747595330
 20
25.668668894377447
 11
-41.727978747595330
 21
47.648171026912792
  0
LINE
  8
0
  6
DASHDOT
 62
256
 10
-53.011508163321992
 20
34.612826152053572
 11
-31.244530754793686
 21
34.612826152053572
  0
LINE
  8
0
  6
DASHDOT
 62
256
 10
-91.727978747595330
 20
25.668668894377447
 11
-91.727978747595330
 21
47.217157874909503
  0
LINE
  8
0
  6
DASHDOT
 62
256
 10
-100.813667854178900
 20
34.612826152053572
 11
-80.327079620469590
 21
34.612826152053572
  0
LINE
  8
0
  6
DASHDOT
 62
256
 10
174.024322619856780
 20
106.612826152053440
 11
-174.549625113660110
 21
106.612826152053440
  0
ARC
  8
0
  6
CONTINUOUS
 62
256
 10
29.272021252404443
 20
183.615695772634350
 40
2.000000000000000
 50
270.000000000000000
 51
0.000000000000000
  0
ARC
  8
0
  6
CONTINUOUS
 62
256
 10
29.272021252404443
 20
184.414697643753240
 40
2.000000000000000
 50
270.000000000000000
 51
0.000000000000000
  0
ARC
  8
0
  6
CONTINUOUS
 62
256
 10
29.272021252404443
 20
185.213699514838480
 40
2.000000000000000
 50
270.000000000000000
 51
0.000000000000000
  0
ARC
  8
0
  6
CONTINUOUS
 62
256
 10
29.272021252404443
 20
186.307336443115670
 40
2.000000000000000
 50
0.000000000000000
 51
90.000000000000000
  0
LINE
  8
0
  6
CONTINUOUS
 62
256
 10
28.272021252404443
 20
188.307336443115670
 11
29.272021252404443
 21
188.307336443115670
  0
LINE
  8
0
  6
CONTINUOUS
 62
256
 10
29.272021252404443
 20
181.615695772634350
 11
-96.727978747595557
 21
181.615695772634350
  0
LINE
  8
0
  6
CONTINUOUS
 62
256
 10
29.272021252404443
 20
182.414697643736420
 11
-96.727978747595557
 21
182.414697643736420
  0
LINE
  8
0
  6
CONTINUOUS
 62
256
 10
31.272021252404443
 20
186.307336443115670
 11
31.272021252404443
 21
183.615695772634350
  0
LINE
  8
0
  6
CONTINUOUS
 62
256
 10
28.272021252404443
 20
170.112826152053460
 11
28.272021252404443
 21
181.414697643753240
  0
LINE
  8
0
  6
CONTINUOUS
 62
256
 10
-90.727978747595557
 20
206.712826152053370
 11
23.272021252404443
 21
206.712826152053370
  0
ARC
  8
0
  6
CONTINUOUS
 62
256
 10
23.272021252404443
 20
201.712826152053370
 40
5.000000000000000
 50
0.000000000000000
 51
90.000000000000000
  0
LINE
  8
0
  6
CONTINUOUS
 62
256
 10
-95.727978747595557
 20
170.112826152053460
 11
-95.727978747595557
 21
181.615695772634350
  0
ARC
  8
0
  6
CONTINUOUS
 62
256
 10
-96.727978747595557
 20
183.615695772634350
 40
2.000000000000000
 50
180.000000000000000
 51
270.000000000000000
  0
LINE
  8
0
  6
CONTINUOUS
 62
256
 10
-98.727978747595557
 20
186.307336443115670
 11
-98.727978747595557
 21
183.615695772634350
  0
ARC
  8
0
  6
CONTINUOUS
 62
256
 10
-96.727978747595557
 20
184.414697643753240
 40
2.000000000000000
 50
180.000000000000000
 51
270.000000000000000
  0
ARC
  8
0
  6
CONTINUOUS
 62
256
 10
-96.727978747595557
 20
185.213699514838480
 40
2.000000000000000
 50
180.000000000000000
 51
270.000000000000000
  0
ARC
  8
0
  6
CONTINUOUS
 62
256
 10
-96.727978747595557
 20
186.307336443115670
 40
2.000000000000000
 50
90.000000000000000
 51
180.000000000000000
  0
ARC
  8
0
  6
CONTINUOUS
 62
256
 10
-90.727978747595557
 20
201.712826152053370
 40
5.000000000000000
 50
90.000000000000000
 51
180.000000000000000
  0
ARC
  8
0
  6
CONTINUOUS
 62
256
 10
-90.727978747595557
 20
170.112826152053460
 40
5.000000000000000
 50
180.000000000000000
 51
270.000000000000000
  0
LINE
  8
0
  6
CONTINUOUS
 62
256
 10
29.272021252404443
 20
183.213699514838480
 11
-96.727978747595557
 21
183.213699514838480
  0
LINE
  8
0
  6
CONTINUOUS
 62
256
 10
-95.727978747595557
 20
188.307336443115670
 11
-96.727978747595557
 21
188.307336443115670
  0
LINE
  8
0
  6
CONTINUOUS
 62
256
 10
-95.727978747595557
 20
188.773851211740290
 11
-95.727978747595557
 21
201.712826152053370
  0
ARC
  8
0
  6
CONTINUOUS
 62
256
 10
23.272021252404443
 20
170.112826152053460
 40
5.000000000000000
 50
270.000000000000000
 51
0.000000000000000
  0
LINE
  8
0
  6
CONTINUOUS
 62
256
 10
28.272021252404443
 20
188.773851211740290
 11
28.272021252404443
 21
201.712826152053370
  0
LINE
  8
0
  6
CONTINUOUS
 62
256
 10
-85.295230266184248
 20
183.429289389362250
 11
-85.227978747595557
 21
183.463387599558250
  0
LINE
  8
0
  6
CONTINUOUS
 62
256
 10
-85.494400383806052
 20
183.396501554261620
 11
-85.295230266184248
 21
183.429289389362250
  0
LINE
  8
0
  6
CONTINUOUS
 62
256
 10
-85.817835104536655
 20
183.366284112371600
 11
-85.494400383806052
 21
183.396501554261620
  0
LINE
  8
0
  6
CONTINUOUS
 62
256
 10
-86.253105013442649
 20
183.339798303037900
 11
-85.817835104536655
 21
183.366284112371600
  0
LINE
  8
0
  6
CONTINUOUS
 62
256
 10
-86.783482932026956
 20
183.318061961059810
 11
-86.253105013442649
 21
183.339798303037900
  0
LINE
  8
0
  6
CONTINUOUS
 62
256
 10
-87.388586734317741
 20
183.301910401869630
 11
-86.783482932026956
 21
183.318061961059810
  0
LINE
  8
0
  6
CONTINUOUS
 62
256
 10
-88.045162620539116
 20
183.291964320829180
 11
-87.388586734317741
 21
183.301910401869630
  0
LINE
  8
0
  6
CONTINUOUS
 62
256
 10
-88.727978747595557
 20
183.288605940255020
 11
-88.045162620539116
 21
183.291964320829180
  0
LINE
  8
0
  6
CONTINUOUS
 62
256
 10
-89.410794874652012
 20
183.291964320829180
 11
-88.727978747595557
 21
183.288605940255020
  0
LINE
  8
0
  6
CONTINUOUS
 62
256
 10
-90.067370760873374
 20
183.301910401869630
 11
-89.410794874652012
 21
183.291964320829180
  0
LINE
  8
0
  6
CONTINUOUS
 62
256
 10
-90.672474563164172
 20
183.318061961059810
 11
-90.067370760873374
 21
183.301910401869630
  0
LINE
  8
0
  6
CONTINUOUS
 62
256
 10
-91.202852481748479
 20
183.339798303037900
 11
-90.672474563164172
 21
183.318061961059810
  0
LINE
  8
0
  6
CONTINUOUS
 62
256
 10
-91.638122390654459
 20
183.366284112371600
 11
-91.202852481748479
 21
183.339798303037900
  0
LINE
  8
0
  6
CONTINUOUS
 62
256
 10
-91.961557111385062
 20
183.396501554261620
 11
-91.638122390654459
 21
183.366284112371600
  0
LINE
  8
0
  6
CONTINUOUS
 62
256
 10
-92.160727229006866
 20
183.429289389362250
 11
-91.961557111385062
 21
183.396501554261620
  0
LINE
  8
0
  6
CONTINUOUS
 62
256
 10
-92.227978747595557
 20
183.463387599558250
 11
-92.160727229006866
 21
183.429289389362250
  0
ARC
  8
0
  6
CONTINUOUS
 62
256
 10
-86.527978747595739
 20
184.450397337482630
 40
1.300000000000182
 50
0.000000000000000
 51
73.398450400977964
  0
ARC
  8
0
  6
CONTINUOUS
 62
256
 10
-88.727978747595557
 20
177.071373011733160
 40
9.000000000000123
 50
73.398450400980863
 51
106.601549599019150
  0
ARC
  8
0
  6
CONTINUOUS
 62
256
 10
-90.927978747595375
 20
184.450397337482630
 40
1.300000000000019
 50
106.601549599022380
 51
180.000000000000000
  0
LINE
  8
0
  6
CONTINUOUS
 62
256
 10
-85.227978747595557
 20
184.450397337482630
 11
-85.227978747595557
 21
183.463387599558250
  0
LINE
  8
0
  6
CONTINUOUS
 62
256
 10
-92.227978747595557
 20
184.450397337482630
 11
-92.227978747595557
 21
183.463387599558250
  0
ARC
  8
0
  6
CONTINUOUS
 62
256
 10
-90.727978747595557
 20
188.773851211740290
 40
5.000000000000000
 50
180.000000000000000
 51
252.542396876278100
  0
LINE
  8
0
  6
CONTINUOUS
 62
256
 10
-95.727978747595557
 20
165.112826152053460
 11
28.272021252404443
 21
165.112826152053460
  0
LINE
  8
0
  6
DASHDOT
 62
256
 10
28.272021252404443
 20
160.112826152053460
 11
28.272021252404443
 21
165.112826152053460
  0
LINE
  8
0
  6
DASHDOT
 62
256
 10
28.272021252404443
 20
160.112826152053460
 11
28.272021252404443
 21
165.112826152053460
  0
LINE
  8
0
  6
CONTINUOUS
 62
256
 10
-95.727978747595557
 20
160.112826152053460
 11
-95.727978747595557
 21
165.112826152053460
  0
LINE
  8
0
  6
CONTINUOUS
 62
256
 10
17.772021252404443
 20
184.450397337482630
 11
17.772021252404443
 21
183.463387599558250
  0
LINE
  8
0
  6
CONTINUOUS
 62
256
 10
24.704769733815748
 20
183.429289389362250
 11
24.772021252404439
 21
183.463387599558250
  0
LINE
  8
0
  6
CONTINUOUS
 62
256
 10
24.505599616193944
 20
183.396501554261620
 11
24.704769733815748
 21
183.429289389362250
  0
LINE
  8
0
  6
CONTINUOUS
 62
256
 10
24.182164895463348
 20
183.366284112371600
 11
24.505599616193944
 21
183.396501554261620
  0
LINE
  8
0
  6
CONTINUOUS
 62
256
 10
23.746894986557358
 20
183.339798303037900
 11
24.182164895463348
 21
183.366284112371600
  0
LINE
  8
0
  6
CONTINUOUS
 62
256
 10
23.216517067973047
 20
183.318061961059810
 11
23.746894986557358
 21
183.339798303037900
  0
LINE
  8
0
  6
CONTINUOUS
 62
256
 10
22.611413265682256
 20
183.301910401869630
 11
23.216517067973047
 21
183.318061961059810
  0
LINE
  8
0
  6
CONTINUOUS
 62
256
 10
21.954837379460891
 20
183.291964320829180
 11
22.611413265682256
 21
183.301910401869630
  0
LINE
  8
0
  6
CONTINUOUS
 62
256
 10
21.272021252404443
 20
183.288605940255020
 11
21.954837379460891
 21
183.291964320829180
  0
LINE
  8
0
  6
CONTINUOUS
 62
256
 10
20.589205125347995
 20
183.291964320829180
 11
21.272021252404443
 21
183.288605940255020
  0
LINE
  8
0
  6
CONTINUOUS
 62
256
 10
19.932629239126626
 20
183.301910401869630
 11
20.589205125347995
 21
183.291964320829180
  0
LINE
  8
0
  6
CONTINUOUS
 62
256
 10
19.327525436835835
 20
183.318061961059810
 11
19.932629239126626
 21
183.301910401869630
  0
LINE
  8
0
  6
CONTINUOUS
 62
256
 10
18.797147518251528
 20
183.339798303037900
 11
19.327525436835835
 21
183.318061961059810
  0
LINE
  8
0
  6
CONTINUOUS
 62
256
 10
18.361877609345534
 20
183.366284112371600
 11
18.797147518251528
 21
183.339798303037900
  0
LINE
  8
0
  6
CONTINUOUS
 62
256
 10
18.038442888614938
 20
183.396501554261620
 11
18.361877609345534
 21
183.366284112371600
  0
LINE
  8
0
  6
CONTINUOUS
 62
256
 10
17.839272770993137
 20
183.429289389362250
 11
18.038442888614938
 21
183.396501554261620
  0
LINE
  8
0
  6
CONTINUOUS
 62
256
 10
17.772021252404443
 20
183.463387599558250
 11
17.839272770993137
 21
183.429289389362250
  0
LINE
  8
0
  6
CONTINUOUS
 62
256
 10
24.772021252404443
 20
184.450397337482630
 11
24.772021252404443
 21
183.463387599558250
  0
ARC
  8
0
  6
CONTINUOUS
 62
256
 10
19.072021252404625
 20
184.450397337482630
 40
1.300000000000019
 50
106.601549599022380
 51
180.000000000000000
  0
ARC
  8
0
  6
CONTINUOUS
 62
256
 10
21.272021252404443
 20
177.071373011733160
 40
9.000000000000121
 50
73.398450400980892
 51
106.601549599019120
  0
ARC
  8
0
  6
CONTINUOUS
 62
256
 10
23.472021252404261
 20
184.450397337482630
 40
1.300000000000182
 50
0.000000000000000
 51
73.398450400977822
  0
ARC
  8
0
  6
CONTINUOUS
 62
256
 10
23.272021252404443
 20
188.773851211740290
 40
5.000000000000073
 50
287.457603123721870
 51
0.000000000000000
  0
LINE
  8
0
  6
CONTINUOUS
 62
256
 10
17.772021252404443
 20
183.773851211740290
 11
-85.227978747595557
 21
183.773851211740290
  0
LINE
  8
0
  6
CONTINUOUS
 62
256
 10
-104.227978747595330
 20
49.112826152053458
 11
-29.227978747595330
 21
49.112826152053458
  0
LINE
  8
0
  6
CONTINUOUS
 62
256
 10
-29.227978747595330
 20
49.112826152053458
 11
-29.227978747595330
 21
54.112826152053572
  0
LINE
  8
0
  6
CONTINUOUS
 62
256
 10
-30.227978747595330
 20
20.612826152053458
 11
-30.227978747595330
 21
49.112826152053458
  0
LINE
  8
0
  6
CONTINUOUS
 62
256
 10
-103.227978747595330
 20
20.612826152053458
 11
-103.227978747595330
 21
49.112826152053458
  0
ARC
  8
0
  6
CONTINUOUS
 62
256
 10
-102.227978747595330
 20
20.612826152053458
 40
1.000000000000000
 50
180.000000000000000
 51
270.000000000000000
  0
ARC
  8
0
  6
CONTINUOUS
 62
256
 10
-31.227978747595330
 20
20.612826152053458
 40
1.000000000000000
 50
270.000000000000000
 51
0.000000000000000
  0
LINE
  8
0
  6
CONTINUOUS
 62
256
 10
-37.227978747595330
 20
19.112826152053458
 11
-37.227978747595330
 21
19.612826152053458
  0
LINE
  8
0
  6
CONTINUOUS
 62
256
 10
-45.227978747595330
 20
19.112826152053458
 11
-37.227978747595330
 21
19.112826152053458
  0
LINE
  8
0
  6
CONTINUOUS
 62
256
 10
-45.227978747595330
 20
19.112826152053458
 11
-45.227978747595330
 21
19.612826152053458
  0
LINE
  8
0
  6
CONTINUOUS
 62
256
 10
-31.227978747595330
 20
19.612826152053458
 11
-102.227978747595330
 21
19.612826152053458
  0
LINE
  8
0
  6
CONTINUOUS
 62
256
 10
-96.227978747616703
 20
55.273129791244514
 11
-96.227978747616476
 21
106.612826152053440
  0
ARC
  8
0
  6
CONTINUOUS
 62
256
 10
-99.227978747616703
 20
55.273129791244514
 40
3.000000000000000
 50
270.000000000000000
 51
0.000000000000000
  0
LINE
  8
0
  6
CONTINUOUS
 62
256
 10
-103.227978747616700
 20
52.273129791244514
 11
-99.227978747616703
 21
52.273129791244514
  0
LINE
  8
0
  6
CONTINUOUS
 62
256
 10
-102.618287929721300
 20
58.582538231505566
 11
-102.527978747616490
 21
59.285495197705927
  0
LINE
  8
0
  6
CONTINUOUS
 62
256
 10
-102.885744944813420
 20
57.906595507293474
 11
-102.618287929721300
 21
58.582538231505566
  0
LINE
  8
0
  6
CONTINUOUS
 62
256
 10
-103.320071569794520
 20
57.283643124888073
 11
-102.885744944813420
 21
57.906595507293474
  0
LINE
  8
0
  6
CONTINUOUS
 62
256
 10
-103.904576876039710
 20
56.737620794989496
 11
-103.320071569794520
 21
57.283643124888073
  0
LINE
  8
0
  6
CONTINUOUS
 62
256
 10
-104.616798652424350
 20
56.289511849522874
 11
-103.904576876039710
 21
56.737620794989496
  0
LINE
  8
0
  6
CONTINUOUS
 62
256
 10
-105.429366615500560
 20
55.956536863960118
 11
-104.616798652424350
 21
56.289511849522874
  0
LINE
  8
0
  6
CONTINUOUS
 62
256
 10
-106.311054234140670
 20
55.751491880261867
 11
-105.429366615500560
 21
55.956536863960118
  0
LINE
  8
0
  6
CONTINUOUS
 62
256
 10
-107.227978747616480
 20
55.682256662161095
 11
-106.311054234140670
 21
55.751491880261867
  0
LINE
  8
0
  6
CONTINUOUS
 62
256
 10
-108.144903261092280
 20
55.751491880261867
 11
-107.227978747616480
 21
55.682256662161095
  0
LINE
  8
0
  6
CONTINUOUS
 62
256
 10
-109.026590879732400
 20
55.956536863960118
 11
-108.144903261092280
 21
55.751491880261867
  0
LINE
  8
0
  6
CONTINUOUS
 62
256
 10
-109.839158842808600
 20
56.289511849522874
 11
-109.026590879732400
 21
55.956536863960118
  0
LINE
  8
0
  6
CONTINUOUS
 62
256
 10
-110.551380619193220
 20
56.737620794989496
 11
-109.839158842808600
 21
56.289511849522874
  0
LINE
  8
0
  6
CONTINUOUS
 62
256
 10
-111.135885925438430
 20
57.283643124888073
 11
-110.551380619193220
 21
56.737620794989496
  0
LINE
  8
0
  6
CONTINUOUS
 62
256
 10
-111.570212550419510
 20
57.906595507293474
 11
-111.135885925438430
 21
57.283643124888073
  0
LINE
  8
0
  6
CONTINUOUS
 62
256
 10
-111.837669565511650
 20
58.582538231505566
 11
-111.570212550419510
 21
57.906595507293474
  0
LINE
  8
0
  6
CONTINUOUS
 62
256
 10
-111.927978747616460
 20
59.285495197705927
 11
-111.837669565511650
 21
58.582538231505566
  0
LINE
  8
0
  6
CONTINUOUS
 62
256
 10
-111.837669565511650
 20
59.988452163906288
 11
-111.927978747616460
 21
59.285495197705927
  0
LINE
  8
0
  6
CONTINUOUS
 62
256
 10
-111.570212550419510
 20
60.664394888118380
 11
-111.837669565511650
 21
59.988452163906288
  0
LINE
  8
0
  6
CONTINUOUS
 62
256
 10
-111.135885925438430
 20
61.287347270523782
 11
-111.570212550419510
 21
60.664394888118380
  0
LINE
  8
0
  6
CONTINUOUS
 62
256
 10
-110.551380619193220
 20
61.833369600422365
 11
-111.135885925438430
 21
61.287347270523782
  0
LINE
  8
0
  6
CONTINUOUS
 62
256
 10
-109.839158842808600
 20
62.281478545888980
 11
-110.551380619193220
 21
61.833369600422365
  0
LINE
  8
0
  6
CONTINUOUS
 62
256
 10
-109.026590879732400
 20
62.614453531451737
 11
-109.839158842808600
 21
62.281478545888980
  0
LINE
  8
0
  6
CONTINUOUS
 62
256
 10
-108.144903261092280
 20
62.819498515149988
 11
-109.026590879732400
 21
62.614453531451737
  0
LINE
  8
0
  6
CONTINUOUS
 62
256
 10
-107.227978747616480
 20
62.888733733250760
 11
-108.144903261092280
 21
62.819498515149988
  0
LINE
  8
0
  6
CONTINUOUS
 62
256
 10
-106.311054234140670
 20
62.819498515149988
 11
-107.227978747616480
 21
62.888733733250760
  0
LINE
  8
0
  6
CONTINUOUS
 62
256
 10
-105.429366615500560
 20
62.614453531451737
 11
-106.311054234140670
 21
62.819498515149988
  0
LINE
  8
0
  6
CONTINUOUS
 62
256
 10
-104.616798652424350
 20
62.281478545888980
 11
-105.429366615500560
 21
62.614453531451737
  0
LINE
  8
0
  6
CONTINUOUS
 62
256
 10
-103.904576876039710
 20
61.833369600422365
 11
-104.616798652424350
 21
62.281478545888980
  0
LINE
  8
0
  6
CONTINUOUS
 62
256
 10
-103.320071569794520
 20
61.287347270523782
 11
-103.904576876039710
 21
61.833369600422365
  0
LINE
  8
0
  6
CONTINUOUS
 62
256
 10
-102.885744944813420
 20
60.664394888118380
 11
-103.320071569794520
 21
61.287347270523782
  0
LINE
  8
0
  6
CONTINUOUS
 62
256
 10
-102.618287929721300
 20
59.988452163906288
 11
-102.885744944813420
 21
60.664394888118380
  0
LINE
  8
0
  6
CONTINUOUS
 62
256
 10
-102.527978747616490
 20
59.285495197705927
 11
-102.618287929721300
 21
59.988452163906288
  0
LINE
  8
0
  6
CONTINUOUS
 62
256
 10
-109.227978747616700
 20
56.293119643705495
 11
-107.227978747616700
 21
57.468905129328391
  0
LINE
  8
0
  6
CONTINUOUS
 62
256
 10
-107.227978747616700
 20
57.468905129328391
 11
-105.227978747616700
 21
59.121546768451708
  0
LINE
  8
0
  6
CONTINUOUS
 62
256
 10
-105.227978747616700
 20
56.293119643705495
 11
-107.227978747616700
 21
57.468905129328391
  0
LINE
  8
0
  6
CONTINUOUS
 62
256
 10
-107.227978747616700
 20
57.468905129328391
 11
-109.227978747616700
 21
59.121546768451708
  0
ARC
  8
0
  6
CONTINUOUS
 62
256
 10
-103.227978747616700
 20
49.273129791244514
 40
3.000000000000000
 50
90.000000000000000
 51
180.000000000000000
  0
LINE
  8
0
  6
CONTINUOUS
 62
256
 10
-106.227978747616700
 20
47.612826152053458
 11
-106.227978747616700
 21
49.273129791244514
  0
LINE
  8
0
  6
CONTINUOUS
 62
256
 10
-96.227978747616703
 20
165.612826152053460
 11
-96.227978747616476
 21
106.612826152053440
  0
LINE
  8
0
  6
CONTINUOUS
 62
256
 10
-102.618287929721300
 20
153.237200140200630
 11
-102.527978747616490
 21
153.940157106400990
  0
LINE
  8
0
  6
CONTINUOUS
 62
256
 10
-102.885744944813420
 20
152.561257415988540
 11
-102.618287929721300
 21
153.237200140200630
  0
LINE
  8
0
  6
CONTINUOUS
 62
256
 10
-103.320071569794520
 20
151.938305033583130
 11
-102.885744944813420
 21
152.561257415988540
  0
LINE
  8
0
  6
CONTINUOUS
 62
256
 10
-103.904576876039710
 20
151.392282703684540
 11
-103.320071569794520
 21
151.938305033583130
  0
LINE
  8
0
  6
CONTINUOUS
 62
256
 10
-104.616798652424350
 20
150.944173758217910
 11
-103.904576876039710
 21
151.392282703684540
  0
LINE
  8
0
  6
CONTINUOUS
 62
256
 10
-105.429366615500560
 20
150.611198772655170
 11
-104.616798652424350
 21
150.944173758217910
  0
LINE
  8
0
  6
CONTINUOUS
 62
256
 10
-106.311054234140670
 20
150.406153788956910
 11
-105.429366615500560
 21
150.611198772655170
  0
LINE
  8
0
  6
CONTINUOUS
 62
256
 10
-107.227978747616480
 20
150.336918570856140
 11
-106.311054234140670
 21
150.406153788956910
  0
LINE
  8
0
  6
CONTINUOUS
 62
256
 10
-108.144903261092280
 20
150.406153788956910
 11
-107.227978747616480
 21
150.336918570856140
  0
LINE
  8
0
  6
CONTINUOUS
 62
256
 10
-109.026590879732400
 20
150.611198772655170
 11
-108.144903261092280
 21
150.406153788956910
  0
LINE
  8
0
  6
CONTINUOUS
 62
256
 10
-109.839158842808600
 20
150.944173758217910
 11
-109.026590879732400
 21
150.611198772655170
  0
LINE
  8
0
  6
CONTINUOUS
 62
256
 10
-110.551380619193220
 20
151.392282703684540
 11
-109.839158842808600
 21
150.944173758217910
  0
LINE
  8
0
  6
CONTINUOUS
 62
256
 10
-111.135885925438430
 20
151.938305033583130
 11
-110.551380619193220
 21
151.392282703684540
  0
LINE
  8
0
  6
CONTINUOUS
 62
256
 10
-111.570212550419510
 20
152.561257415988540
 11
-111.135885925438430
 21
151.938305033583130
  0
LINE
  8
0
  6
CONTINUOUS
 62
256
 10
-111.837669565511650
 20
153.237200140200630
 11
-111.570212550419510
 21
152.561257415988540
  0
LINE
  8
0
  6
CONTINUOUS
 62
256
 10
-111.927978747616460
 20
153.940157106400990
 11
-111.837669565511650
 21
153.237200140200630
  0
LINE
  8
0
  6
CONTINUOUS
 62
256
 10
-111.837669565511650
 20
154.643114072601350
 11
-111.927978747616460
 21
153.940157106400990
  0
LINE
  8
0
  6
CONTINUOUS
 62
256
 10
-111.570212550419510
 20
155.319056796813440
 11
-111.837669565511650
 21
154.643114072601350
  0
LINE
  8
0
  6
CONTINUOUS
 62
256
 10
-111.135885925438430
 20
155.942009179218840
 11
-111.570212550419510
 21
155.319056796813440
  0
LINE
  8
0
  6
CONTINUOUS
 62
256
 10
-110.551380619193220
 20
156.488031509117430
 11
-111.135885925438430
 21
155.942009179218840
  0
LINE
  8
0
  6
CONTINUOUS
 62
256
 10
-109.839158842808600
 20
156.936140454584060
 11
-110.551380619193220
 21
156.488031509117430
  0
LINE
  8
0
  6
CONTINUOUS
 62
256
 10
-109.026590879732400
 20
157.269115440146810
 11
-109.839158842808600
 21
156.936140454584060
  0
LINE
  8
0
  6
CONTINUOUS
 62
256
 10
-108.144903261092280
 20
157.474160423845060
 11
-109.026590879732400
 21
157.269115440146810
  0
LINE
  8
0
  6
CONTINUOUS
 62
256
 10
-107.227978747616480
 20
157.543395641945840
 11
-108.144903261092280
 21
157.474160423845060
  0
LINE
  8
0
  6
CONTINUOUS
 62
256
 10
-106.311054234140670
 20
157.474160423845060
 11
-107.227978747616480
 21
157.543395641945840
  0
LINE
  8
0
  6
CONTINUOUS
 62
256
 10
-105.429366615500560
 20
157.269115440146810
 11
-106.311054234140670
 21
157.474160423845060
  0
LINE
  8
0
  6
CONTINUOUS
 62
256
 10
-104.616798652424350
 20
156.936140454584060
 11
-105.429366615500560
 21
157.269115440146810
  0
LINE
  8
0
  6
CONTINUOUS
 62
256
 10
-103.904576876039710
 20
156.488031509117430
 11
-104.616798652424350
 21
156.936140454584060
  0
LINE
  8
0
  6
CONTINUOUS
 62
256
 10
-103.320071569794520
 20
155.942009179218840
 11
-103.904576876039710
 21
156.488031509117430
  0
LINE
  8
0
  6
CONTINUOUS
 62
256
 10
-102.885744944813420
 20
155.319056796813440
 11
-103.320071569794520
 21
155.942009179218840
  0
LINE
  8
0
  6
CONTINUOUS
 62
256
 10
-102.618287929721300
 20
154.643114072601350
 11
-102.885744944813420
 21
155.319056796813440
  0
LINE
  8
0
  6
CONTINUOUS
 62
256
 10
-102.527978747616490
 20
153.940157106400990
 11
-102.618287929721300
 21
154.643114072601350
  0
LINE
  8
0
  6
CONTINUOUS
 62
256
 10
-109.227978747616700
 20
156.932532660401420
 11
-107.227978747616700
 21
155.756747174778640
  0
LINE
  8
0
  6
CONTINUOUS
 62
256
 10
-107.227978747616700
 20
155.756747174778640
 11
-105.227978747616700
 21
154.104105535655210
  0
LINE
  8
0
  6
CONTINUOUS
 62
256
 10
-105.227978747616700
 20
156.932532660401420
 11
-107.227978747616700
 21
155.756747174778640
  0
LINE
  8
0
  6
CONTINUOUS
 62
256
 10
-107.227978747616700
 20
155.756747174778640
 11
-109.227978747616700
 21
154.104105535655210
  0
LINE
  8
0
  6
CONTINUOUS
 62
256
 10
-29.227978747595330
 20
54.112826152053572
 11
-96.461447442013991
 21
54.112826152053572
  0
LINE
  8
0
  6
CONTINUOUS
 62
256
 10
-104.227978747595330
 20
49.112826152053458
 11
-104.227978747595330
 21
52.101556915998117
  0
LINE
  8
0
  6
CONTINUOUS
 62
256
 10
-106.227978747616700
 20
47.612826152053458
 11
-125.732823696709470
 21
47.612826152053458
  0
LINE
  8
0
  6
CONTINUOUS
 62
256
 10
-96.227978747616703
 20
165.612826152053460
 11
-125.732823696709470
 21
165.612826152053460
  0
ARC
  8
0
  6
CONTINUOUS
 62
256
 10
-125.732823696709470
 20
68.212826152053481
 40
20.599999999999898
 50
235.000000000000340
 51
270.000000000000000
  0
ARC
  8
0
  6
CONTINUOUS
 62
256
 10
-143.627978747616790
 20
58.769206018424143
 40
2.600000000000136
 50
180.000000000000000
 51
234.999999999997330
  0
LINE
  8
0
  6
CONTINUOUS
 62
256
 10
-137.548498285540860
 20
51.338294039700259
 11
-145.119277482129630
 21
56.639410703272802
  0
LINE
  8
0
  6
CONTINUOUS
 62
256
 10
-146.227978747616930
 20
58.769206018424143
 11
-146.227978747616930
 21
106.612826152053440
  0
ARC
  8
0
  6
CONTINUOUS
 62
256
 10
-125.732823696709470
 20
145.012826152053440
 40
20.600000000000023
 50
90.000000000000000
 51
124.999999999999600
  0
ARC
  8
0
  6
CONTINUOUS
 62
256
 10
-143.627978747616790
 20
154.456446285682770
 40
2.600000000000131
 50
125.000000000001180
 51
180.000000000000000
  0
LINE
  8
0
  6
CONTINUOUS
 62
256
 10
-137.548498285540860
 20
161.887358264406770
 11
-145.119277482129630
 21
156.586241600834110
  0
LINE
  8
0
  6
CONTINUOUS
 62
256
 10
-146.227978747616930
 20
154.456446285682770
 11
-146.227978747616700
 21
106.612826152053440
  0
LINE
  8
0
  6
CONTINUOUS
 62
256
 10
-96.227978747616248
 20
55.612826152053458
 11
61.772021252407285
 21
55.612826152053458
  0
LINE
  8
0
  6
CONTINUOUS
 62
256
 10
-96.227978747616248
 20
56.112826152053458
 11
61.772021252407285
 21
56.112826152053458
  0
LINE
  8
0
  6
CONTINUOUS
 62
256
 10
-96.227978747616248
 20
60.479743557170764
 11
61.772021252407285
 21
60.479743557170892
  0
LINE
  8
0
  6
CONTINUOUS
 62
256
 10
-96.227978747616248
 20
65.570912381713697
 11
61.772021252407285
 21
65.570912381713697
  0
LINE
  8
0
  6
CONTINUOUS
 62
256
 10
-96.227978747616248
 20
74.898434993283445
 11
61.772021252407285
 21
74.898434993283445
  0
LINE
  8
0
  6
CONTINUOUS
 62
256
 10
-96.227978747616248
 20
73.309225200544802
 11
61.772021252407285
 21
73.309225200544802
  0
LINE
  8
0
  6
CONTINUOUS
 62
256
 10
-96.227978747616248
 20
77.856430601416378
 11
61.772021252407285
 21
77.856430601416378
  0
LINE
  8
0
  6
CONTINUOUS
 62
256
 10
-96.227978747616248
 20
79.335453754893479
 11
61.772021252407285
 21
79.335453754893479
  0
LINE
  8
0
  6
CONTINUOUS
 62
256
 10
-96.227978747616248
 20
82.428184746558713
 11
61.772021252407285
 21
82.428184746558713
  0
LINE
  8
0
  6
CONTINUOUS
 62
256
 10
-96.227978747616248
 20
83.774586472057308
 11
61.772021252407285
 21
83.774586472057308
  0
LINE
  8
0
  6
CONTINUOUS
 62
256
 10
-96.227978747616248
 20
86.984791495415607
 11
61.772021252407285
 21
86.984791495415607
  0
LINE
  8
0
  6
CONTINUOUS
 62
256
 10
-96.227978747616248
 20
88.226711360303511
 11
61.772021252407285
 21
88.226711360303511
  0
LINE
  8
0
  6
CONTINUOUS
 62
256
 10
-96.227978747616248
 20
92.612826152053458
 11
61.772021252407285
 21
92.612826152053458
  0
LINE
  8
0
  6
CONTINUOUS
 62
256
 10
-96.227978747616476
 20
120.612826152053440
 11
61.772021252407285
 21
120.612826152053440
  0
LINE
  8
0
  6
CONTINUOUS
 62
256
 10
-96.227978747616476
 20
124.998940943803400
 11
61.772021252407285
 21
124.998940943803400
  0
LINE
  8
0
  6
CONTINUOUS
 62
256
 10
-96.227978747616476
 20
126.240860808691290
 11
61.772021252407285
 21
126.240860808691320
  0
LINE
  8
0
  6
CONTINUOUS
 62
256
 10
-96.227978747616476
 20
129.451065832049610
 11
61.772021252407285
 21
129.451065832049610
  0
LINE
  8
0
  6
CONTINUOUS
 62
256
 10
-96.227978747616476
 20
130.797467557548200
 11
61.772021252407285
 21
130.797467557548200
  0
LINE
  8
0
  6
CONTINUOUS
 62
256
 10
-96.227978747616476
 20
133.890198549213550
 11
61.772021252407285
 21
133.890198549213550
  0
LINE
  8
0
  6
CONTINUOUS
 62
256
 10
-96.227978747616476
 20
135.369221702690540
 11
61.772021252407285
 21
135.369221702690540
  0
LINE
  8
0
  6
CONTINUOUS
 62
256
 10
-96.227978747616476
 20
138.327217310823470
 11
61.772021252407285
 21
138.327217310823470
  0
LINE
  8
0
  6
CONTINUOUS
 62
256
 10
-96.227978747616476
 20
139.916427103562230
 11
61.772021252407285
 21
139.916427103562230
  0
LINE
  8
0
  6
CONTINUOUS
 62
256
 10
-96.227978747616476
 20
147.654739922393220
 11
61.772021252407285
 21
147.654739922393220
  0
LINE
  8
0
  6
CONTINUOUS
 62
256
 10
-96.227978747616476
 20
152.745908746936150
 11
61.772021252407285
 21
152.745908746936150
  0
LINE
  8
0
  6
CONTINUOUS
 62
256
 10
-96.227978747616476
 20
157.112826152053460
 11
61.772021252407285
 21
157.112826152053460
  0
LINE
  8
0
  6
CONTINUOUS
 62
256
 10
-96.227978747616476
 20
157.612826152053460
 11
61.772021252407285
 21
157.612826152053460
  0
LINE
  8
0
  6
CONTINUOUS
 62
256
 10
44.272021252404443
 20
160.112826152053460
 11
-96.227978747616476
 21
160.112826152053460
  0
LINE
  8
0
  6
CONTINUOUS
 62
256
 10
44.272021252404443
 20
53.112826152053458
 11
-29.227978747595330
 21
53.112826152053458
  0
LINE
  8
0
  6
CONTINUOUS
 62
256
 10
44.272021252404443
 20
160.112826152053460
 11
44.272021252404443
 21
106.612826152053440
  0
LINE
  8
0
  6
CONTINUOUS
 62
256
 10
44.272021252404443
 20
53.112826152053458
 11
44.272021252404443
 21
106.612826152053440
  0
LINE
  8
0
  6
CONTINUOUS
 62
256
 10
60.798198200714978
 20
160.519393403891630
 11
44.272021252407285
 21
160.086640230484590
  0
LINE
  8
0
  6
CONTINUOUS
 62
256
 10
61.772021252407285
 20
106.612826152053440
 11
61.772021252407285
 21
135.362827105727770
  0
LINE
  8
0
  6
CONTINUOUS
 62
256
 10
62.272021252407285
 20
176.112826152053460
 11
72.272021252407285
 21
176.112826152053460
  0
ARC
  8
0
  6
CONTINUOUS
 62
256
 10
60.772021252407285
 20
161.519050728867110
 40
0.999999999999925
 50
271.499999999989770
 51
0.000000000000000
  0
ARC
  8
0
  6
CONTINUOUS
 62
256
 10
62.272021252407285
 20
175.612826152053460
 40
0.500000000000000
 50
90.000000000000000
 51
180.000000000000000
  0
ARC
  8
0
  6
CONTINUOUS
 62
256
 10
62.272021252407285
 20
37.612826152053458
 40
0.500000000000000
 50
180.000000000000000
 51
270.000000000000000
  0
ARC
  8
0
  6
CONTINUOUS
 62
256
 10
60.772021252407285
 20
51.706601575240711
 40
1.000000000000000
 50
0.000000000000000
 51
88.500000000010303
  0
LINE
  8
0
  6
CONTINUOUS
 62
256
 10
62.272021252407285
 20
37.112826152053458
 11
72.272021252407285
 21
37.112826152053458
  0
LINE
  8
0
  6
CONTINUOUS
 62
256
 10
71.772021252407285
 20
37.112826152053458
 11
71.772021252407285
 21
106.612826152053440
  0
LINE
  8
0
  6
CONTINUOUS
 62
256
 10
60.798198200714978
 20
52.706258900216199
 11
44.272021252407285
 21
53.139012073623235
  0
LINE
  8
0
  6
CONTINUOUS
 62
256
 10
44.272021252407285
 20
53.139012073623235
 11
44.272021252404556
 21
106.612826152053440
  0
ARC
  8
0
  6
CONTINUOUS
 62
256
 10
62.772021252407285
 20
67.362826152053458
 40
1.000000000000000
 50
90.000000000000000
 51
180.000000000000000
  0
ARC
  8
0
  6
CONTINUOUS
 62
256
 10
66.372021252407649
 20
68.762826152053094
 40
0.399999999999636
 50
270.000000000000000
 51
0.000000000000000
  0
LINE
  8
0
  6
CONTINUOUS
 62
256
 10
66.772021252407285
 20
68.762826152053094
 11
66.772021252407285
 21
78.462826152053822
  0
LINE
  8
0
  6
CONTINUOUS
 62
256
 10
66.372021252407649
 20
68.362826152053458
 11
62.772021252407285
 21
68.362826152053458
  0
ARC
  8
0
  6
CONTINUOUS
 62
256
 10
62.772021252407285
 20
79.862826152053458
 40
1.000000000000000
 50
180.000000000000000
 51
270.000000000000000
  0
ARC
  8
0
  6
CONTINUOUS
 62
256
 10
66.372021252407649
 20
78.462826152053822
 40
0.399999999999636
 50
0.000000000000000
 51
90.000000000000000
  0
LINE
  8
0
  6
CONTINUOUS
 62
256
 10
66.372021252407649
 20
78.862826152053458
 11
62.772021252407285
 21
78.862826152053458
  0
ARC
  8
0
  6
CONTINUOUS
 62
256
 10
62.772021252407285
 20
145.862826152053460
 40
1.000000000000000
 50
180.000000000000000
 51
270.000000000000000
  0
ARC
  8
0
  6
CONTINUOUS
 62
256
 10
66.372021252407649
 20
144.462826152053820
 40
0.399999999999636
 50
0.000000000000000
 51
90.000000000000000
  0
LINE
  8
0
  6
CONTINUOUS
 62
256
 10
66.772021252407285
 20
144.462826152053820
 11
66.772021252407285
 21
134.762826152053090
  0
LINE
  8
0
  6
CONTINUOUS
 62
256
 10
44.272021252407285
 20
160.086640230484590
 11
44.272021252404556
 21
106.612826152053440
  0
LINE
  8
0
  6
CONTINUOUS
 62
256
 10
66.372021252407649
 20
144.862826152053460
 11
62.772021252407285
 21
144.862826152053460
  0
LINE
  8
0
  6
CONTINUOUS
 62
256
 10
71.772021252407285
 20
176.112826152053460
 11
71.772021252407285
 21
106.612826152053440
  0
ARC
  8
0
  6
CONTINUOUS
 62
256
 10
62.772021252407285
 20
133.362826152053460
 40
1.000000000000000
 50
90.000000000000000
 51
180.000000000000000
  0
ARC
  8
0
  6
CONTINUOUS
 62
256
 10
66.372021252407649
 20
134.762826152053090
 40
0.399999999999636
 50
270.000000000000000
 51
0.000000000000000
  0
LINE
  8
0
  6
CONTINUOUS
 62
256
 10
66.372021252407649
 20
134.362826152053460
 11
62.772021252407285
 21
134.362826152053460
  0
LINE
  8
0
  6
CONTINUOUS
 62
256
 10
61.772021252407285
 20
106.612826152053440
 11
61.772021252407285
 21
77.862825198379142
  0
LINE
  8
0
  6
CONTINUOUS
 62
256
 10
61.772021252407285
 20
69.362827105727774
 11
61.772021252407285
 21
37.612826152053458
  0
LINE
  8
0
  6
CONTINUOUS
 62
256
 10
61.772021252407285
 20
143.862825198379140
 11
61.772021252407285
 21
175.612826152053460
  0
LINE
  8
0
  6
DASHDOT
 62
256
 10
136.268020502770470
 20
170.252436458842570
 11
110.436262184869070
 21
170.252436458842570
  0
LINE
  8
0
  6
DASHDOT
 62
256
 10
136.268020502770470
 20
42.973215845264349
 11
110.436262184869070
 21
42.973215845264349
  0
LINE
  8
0
  6
CONTINUOUS
 62
256
 10
139.831845766250810
 20
116.112826152053440
 11
139.272038145115400
 21
115.962826152053820
  0
LINE
  8
0
  6
CONTINUOUS
 62
256
 10
139.272038145115400
 20
115.962826152053820
 11
137.672038145115490
 21
115.962826152053820
  0
LINE
  8
0
  6
CONTINUOUS
 62
256
 10
164.872038145115310
 20
116.112826152053440
 11
139.831845766250810
 21
116.112826152053440
  0
ARC
  8
0
  6
CONTINUOUS
 62
256
 10
164.872038145115310
 20
115.712826152053820
 40
0.400000000000091
 50
0.000000000000000
 51
90.000000000000000
  0
LINE
  8
0
  6
CONTINUOUS
 62
256
 10
165.272038145115400
 20
106.612826152053440
 11
165.272038145115400
 21
115.712826152053820
  0
LINE
  8
0
  6
CONTINUOUS
 62
256
 10
137.072038145115580
 20
95.612826152053458
 11
134.772021252407280
 21
95.612826152053458
  0
LINE
  8
0
  6
CONTINUOUS
 62
256
 10
137.072038145115580
 20
117.684749672103860
 11
134.772021252407280
 21
117.684749672103860
  0
LINE
  8
0
  6
CONTINUOUS
 62
256
 10
137.272038145115400
 20
106.612826152053440
 11
137.272038145115400
 21
95.812826152053276
  0
LINE
  8
0
  6
CONTINUOUS
 62
256
 10
137.072038145115580
 20
95.612826152053458
 11
137.272038145115400
 21
95.812826152053276
  0
ARC
  8
0
  6
CONTINUOUS
 62
256
 10
137.672038145115490
 20
116.362826152053910
 40
0.400000000000091
 50
180.000000000000000
 51
270.000000000000000
  0
LINE
  8
0
  6
CONTINUOUS
 62
256
 10
137.272038145115400
 20
106.612826152053440
 11
137.272038145115400
 21
117.484749672104040
  0
LINE
  8
0
  6
CONTINUOUS
 62
256
 10
137.072038145115580
 20
117.684749672103860
 11
137.272038145115400
 21
117.484749672104040
  0
ARC
  8
0
  6
CONTINUOUS
 62
256
 10
103.602424819592220
 20
64.786677381323898
 40
1.999999999999347
 50
39.045725661486529
 51
90.000000000000000
  0
LINE
  8
0
  6
CONTINUOUS
 62
256
 10
105.155711772570610
 20
66.046558185886170
 11
115.325308205386590
 21
53.508624915572909
  0
ARC
  8
0
  6
CONTINUOUS
 62
256
 10
113.772021252407280
 20
52.248744111009728
 40
2.000000000000000
 50
0.000000000000000
 51
39.045725661490216
  0
ARC
  8
0
  6
CONTINUOUS
 62
256
 10
103.602424819592220
 20
61.129823131832381
 40
1.999999999999347
 50
39.045725661486529
 51
90.000000000000000
  0
LINE
  8
0
  6
CONTINUOUS
 62
256
 10
105.155711772570610
 20
62.389703936394653
 11
115.325308205386590
 21
49.851770666081393
  0
ARC
  8
0
  6
CONTINUOUS
 62
256
 10
113.772021252407280
 20
48.591889861518212
 40
2.000000000000000
 50
0.000000000000000
 51
39.045725661490216
  0
LINE
  8
0
  6
CONTINUOUS
 62
256
 10
106.445645532121940
 20
66.786677381322988
 11
114.248190209544650
 21
66.786677381322988
  0
LINE
  8
0
  6
CONTINUOUS
 62
256
 10
106.445645532121940
 20
146.438974922783930
 11
114.248190209544650
 21
146.438974922783930
  0
ARC
  8
0
  6
CONTINUOUS
 62
256
 10
103.602424819592220
 20
152.095829172274530
 40
2.000000000000000
 50
270.000000000000000
 51
320.954274338513870
  0
LINE
  8
0
  6
CONTINUOUS
 62
256
 10
105.155711772570610
 20
150.835948367712260
 11
115.325308205386590
 21
163.373881638025520
  0
ARC
  8
0
  6
CONTINUOUS
 62
256
 10
113.772021252407280
 20
164.633762442588700
 40
2.000000000000627
 50
320.954274338509610
 51
0.000000000000000
  0
ARC
  8
0
  6
CONTINUOUS
 62
256
 10
113.772021252407280
 20
160.976908193097190
 40
2.000000000000627
 50
320.954274338509610
 51
0.000000000000000
  0
ARC
  8
0
  6
CONTINUOUS
 62
256
 10
103.602424819592220
 20
148.438974922783020
 40
2.000000000000000
 50
270.000000000000000
 51
320.954274338513870
  0
LINE
  8
0
  6
CONTINUOUS
 62
256
 10
105.155711772570610
 20
147.179094118220750
 11
115.325308205386590
 21
159.717027388534010
  0
ARC
  8
0
  6
CONTINUOUS
 62
256
 10
113.772021252407280
 20
110.612826152053440
 40
2.000000000000000
 50
270.000000000000000
 51
0.000000000000000
  0
ARC
  8
0
  6
CONTINUOUS
 62
256
 10
113.772021252407280
 20
102.612826152053440
 40
2.000000000000000
 50
0.000000000000000
 51
90.000000000000000
  0
ARC
  8
0
  6
CONTINUOUS
 62
256
 10
106.555396444078260
 20
102.612826152053440
 40
2.000000000000000
 50
90.000000000000000
 51
180.000000000000000
  0
ARC
  8
0
  6
CONTINUOUS
 62
256
 10
106.555396444078260
 20
110.612826152053440
 40
2.000000000000000
 50
180.000000000000000
 51
270.000000000000000
  0
LINE
  8
0
  6
CONTINUOUS
 62
256
 10
113.772021252407280
 20
104.612826152053440
 11
106.555396444078260
 21
104.612826152053440
  0
LINE
  8
0
  6
CONTINUOUS
 62
256
 10
113.772021252407280
 20
108.612826152053440
 11
106.555396444078260
 21
108.612826152053440
  0
LINE
  8
0
  6
CONTINUOUS
 62
256
 10
113.162207622016010
 20
36.399085294046017
 11
72.272021252407285
 21
37.112826152053458
  0
ARC
  8
0
  6
CONTINUOUS
 62
256
 10
113.109850402704050
 20
33.399542208576349
 40
3.000000000000397
 50
23.717082663696431
 51
88.999999999998352
  0
ARC
  8
0
  6
CONTINUOUS
 62
256
 10
113.109850402704050
 20
179.826110095531480
 40
3.000000000000496
 50
271.000000000001590
 51
336.282917336303740
  0
LINE
  8
0
  6
CONTINUOUS
 62
256
 10
72.272021252407285
 20
37.112826152053458
 11
72.272021252407285
 21
176.112826152053460
  0
LINE
  8
0
  6
CONTINUOUS
 62
256
 10
113.162207622016010
 20
176.826567010061810
 11
72.272021252407285
 21
176.112826152053460
  0
LINE
  8
0
  6
CONTINUOUS
 62
256
 10
120.272021252407280
 20
179.309220563823150
 11
127.772021252407280
 21
179.112826152053460
  0
LINE
  8
0
  6
CONTINUOUS
 62
256
 10
116.745844304099140
 20
179.216884370815020
 11
120.258932778252980
 21
179.308877830065280
  0
LINE
  8
0
  6
CONTINUOUS
 62
256
 10
134.772021252407280
 20
106.612826152053440
 11
134.772021252407280
 21
127.880210449157840
  0
LINE
  8
0
  6
CONTINUOUS
 62
256
 10
130.772021252407280
 20
170.812826152053280
 11
129.992695755669960
 21
171.612826152053460
  0
LINE
  8
0
  6
CONTINUOUS
 62
256
 10
130.772021252407280
 20
42.412826152053640
 11
129.992695755669960
 21
41.612826152053458
  0
LINE
  8
0
  6
CONTINUOUS
 62
256
 10
134.772021252407280
 20
106.612826152053440
 11
134.772021252407280
 21
85.345441854949058
  0
ARC
  8
0
  6
CONTINUOUS
 62
256
 10
116.772021252407280
 20
178.217227045839540
 40
0.999999999999937
 50
91.500000000015845
 51
180.000000000000000
  0
ARC
  8
0
  6
CONTINUOUS
 62
256
 10
132.772021252407280
 20
127.880210449157840
 40
2.000000000000000
 50
0.000000000000000
 51
40.236358309285897
  0
ARC
  8
0
  6
CONTINUOUS
 62
256
 10
132.772021252407280
 20
85.345441854949058
 40
1.999999999999609
 50
319.763641690733830
 51
0.000000000000000
  0
LINE
  8
0
  6
CONTINUOUS
 62
256
 10
129.992695755669960
 20
171.612826152053460
 11
127.772021252407280
 21
171.612826152053460
  0
LINE
  8
0
  6
CONTINUOUS
 62
256
 10
129.992695755669960
 20
41.612826152053458
 11
127.772021252407280
 21
41.612826152053458
  0
LINE
  8
0
  6
CONTINUOUS
 62
256
 10
127.772021252407280
 20
106.612826152053440
 11
127.772021252407280
 21
179.112826152053460
  0
LINE
  8
0
  6
CONTINUOUS
 62
256
 10
134.298793823145390
 20
84.053557372017167
 11
130.772021252407280
 21
79.885553424780483
  0
LINE
  8
0
  6
CONTINUOUS
 62
256
 10
134.298793823145390
 20
129.172094932090660
 11
130.772021252407280
 21
133.340098879326430
  0
LINE
  8
0
  6
CONTINUOUS
 62
256
 10
127.772021252407280
 20
106.612826152053440
 11
127.772021252407280
 21
34.112826152053458
  0
LINE
  8
0
  6
CONTINUOUS
 62
256
 10
130.772021252407280
 20
106.612826152053440
 11
130.772021252407280
 21
170.812826152053280
  0
LINE
  8
0
  6
CONTINUOUS
 62
256
 10
130.772021252407280
 20
106.612826152053440
 11
130.772021252407280
 21
42.412826152053640
  0
LINE
  8
0
  6
CONTINUOUS
 62
256
 10
116.798198200715430
 20
33.825466482308002
 11
127.772021252407280
 21
34.112826152053458
  0
LINE
  8
0
  6
CONTINUOUS
 62
256
 10
115.772021252407280
 20
34.825123807283489
 11
115.772021252407280
 21
178.217227045839540
  0
ARC
  8
0
  6
CONTINUOUS
 62
256
 10
116.772021252407280
 20
34.825123807283489
 40
1.000000000000000
 50
180.000000000000000
 51
271.500000000015750
  0
LINE
  8
0
  6
CONTINUOUS
 62
256
 10
123.693490407488280
 20
145.349382953789250
 11
127.772021252411360
 21
145.456183042611880
  0
ARC
  8
0
  6
CONTINUOUS
 62
256
 10
123.772021252411360
 20
142.350410978862780
 40
2.999999999999777
 50
91.499999999989811
 51
180.000000000000000
  0
LINE
  8
0
  6
CONTINUOUS
 62
256
 10
123.693490407483750
 20
162.035463314753540
 11
127.772021252407280
 21
162.142263403576180
  0
ARC
  8
0
  6
CONTINUOUS
 62
256
 10
123.772021252407280
 20
159.036491339827080
 40
2.999999999999788
 50
91.499999999998479
 51
180.000000000000000
  0
LINE
  8
0
  6
CONTINUOUS
 62
256
 10
123.693490407488280
 20
67.876269350318580
 11
127.772021252411360
 21
67.769469261495942
  0
ARC
  8
0
  6
CONTINUOUS
 62
256
 10
123.772021252411360
 20
70.875241325245042
 40
3.000000000000000
 50
180.000000000000000
 51
268.500000000010060
  0
LINE
  8
0
  6
CONTINUOUS
 62
256
 10
123.693490407483750
 20
51.190188989354283
 11
127.772021252407280
 21
51.083388900531645
  0
ARC
  8
0
  6
CONTINUOUS
 62
256
 10
123.772021252407280
 20
54.189160964280745
 40
3.000000000000000
 50
180.000000000000000
 51
268.500000000001590
  0
LINE
  8
0
  6
CONTINUOUS
 62
256
 10
120.772021252407280
 20
159.036491339827080
 11
120.772021252407280
 21
106.612826152053440
  0
LINE
  8
0
  6
CONTINUOUS
 62
256
 10
120.772021252407280
 20
54.189160964280745
 11
120.772021252407280
 21
106.612826152053440
  0
LINE
  8
0
  6
DASHDOT
 62
256
 10
-389.937040478886050
 20
-120.130358283311300
 11
-281.980148097929490
 21
-120.130358283310670
  0
LINE
  8
0
  6
DASHDOT
 62
256
 10
-281.980148097929490
 20
-120.130358283310670
 11
-182.305796281572840
 21
-120.130358283310670
  0
LINE
  8
0
  6
DASHDOT
 62
256
 10
-281.980148097929490
 20
-189.389747070269660
 11
-281.980148097929490
 21
-120.130358283310670
  0
LINE
  8
0
  6
DASHDOT
 62
256
 10
-281.980148097929490
 20
-102.130358283310670
 11
-281.980148097929490
 21
-19.756377628015912
  0
ARC
  8
0
  6
CONTINUOUS
 62
256
 10
-259.039109920922560
 20
-143.151191616644160
 40
35.999999999999908
 50
302.753463526023380
 51
309.352837971038810
  0
ARC
  8
0
  6
CONTINUOUS
 62
256
 10
-259.039109920922560
 20
-143.151191616644160
 40
36.000000000000028
 50
320.856406748460640
 51
329.999999999999260
  0
LINE
  8
0
  6
CONTINUOUS
 62
256
 10
-251.379127583495570
 20
-181.130358283310670
 11
-242.480148097929490
 21
-181.130358283310670
  0
ARC
  8
0
  6
CONTINUOUS
 62
256
 10
-246.480148097929490
 20
-176.630358283310730
 40
5.249999999999348
 50
134.139448286042470
 51
180.000000000000000
  0
ARC
  8
0
  6
CONTINUOUS
 62
256
 10
-246.480148097929490
 20
-176.630358283310730
 40
5.249999999999932
 50
29.537822073031958
 51
55.926371714192648
  0
ARC
  8
0
  6
CONTINUOUS
 62
256
 10
-246.480148097929490
 20
-176.630358283310780
 40
4.249999046325978
 50
112.132537888861630
 51
77.933282111373003
  0
LINE
  8
0
  6
CONTINUOUS
 62
256
 10
-312.581168612362940
 20
-181.130358283310670
 11
-321.480148097929490
 21
-181.130358283310670
  0
ARC
  8
0
  6
CONTINUOUS
 62
256
 10
-317.480148097929490
 20
-176.630358283310730
 40
5.249999999999401
 50
124.073628285807400
 51
150.462177926968050
  0
ARC
  8
0
  6
CONTINUOUS
 62
256
 10
-317.480148097929490
 20
-176.630358283310730
 40
5.250000000000000
 50
0.000000000000000
 51
45.860551713957449
  0
ARC
  8
0
  6
CONTINUOUS
 62
256
 10
-317.480148097929490
 20
-176.630358283310780
 40
4.249999046325891
 50
102.066717888626870
 51
67.867462111138650
  0
ARC
  8
0
  6
CONTINUOUS
 62
256
 10
-304.921186274936420
 20
-143.151191616644210
 40
35.999999999999957
 50
230.647162028961050
 51
237.246536473976680
  0
ARC
  8
0
  6
CONTINUOUS
 62
256
 10
-304.921186274936420
 20
-143.151191616644210
 40
35.999999999999915
 50
210.000000000000510
 51
219.143593251539300
  0
LINE
  8
0
  6
CONTINUOUS
 62
256
 10
-336.098100811175980
 20
-161.151191616644440
 11
-344.543625486707700
 21
-146.523113782046950
  0
ARC
  8
0
  6
CONTINUOUS
 62
256
 10
-301.480148097929490
 20
-104.883901139297270
 40
49.999999999999957
 50
91.489858156854154
 51
151.865554224231890
  0
LINE
  8
0
  6
CONTINUOUS
 62
256
 10
-354.480148097929490
 20
-166.130358283310670
 11
-354.480148097929490
 21
-153.829918083799730
  0
LINE
  8
0
  6
CONTINUOUS
 62
256
 10
-354.480148097929490
 20
-75.995949855307856
 11
-354.480148097929490
 21
-38.130358283310670
  0
ARC
  8
0
  6
CONTINUOUS
 62
256
 10
-314.980148097929490
 20
-64.130358283310727
 40
5.250000000000289
 50
324.745941876892000
 51
0.000000000000000
  0
ARC
  8
0
  6
CONTINUOUS
 62
256
 10
-314.980148097929490
 20
-64.130358283310727
 40
5.250000000000000
 50
180.000000000000000
 51
224.625857802114070
  0
ARC
  8
0
  6
CONTINUOUS
 62
256
 10
-314.980148097929490
 20
-64.130358283310727
 40
4.249999046326052
 50
312.474863978033230
 51
236.896935700973020
  0
ARC
  8
0
  6
CONTINUOUS
 62
256
 10
-328.833754363620300
 20
-60.949790715339475
 40
2.000000000000012
 50
330.116185885980600
 51
44.999999999995396
  0
ARC
  8
0
  6
CONTINUOUS
 62
256
 10
-321.349903318623550
 20
-57.119933261351491
 40
1.999999999999855
 50
225.000000000004600
 51
263.145054641824520
  0
ARC
  8
0
  6
CONTINUOUS
 62
256
 10
-235.126541832238670
 20
-60.949790715339475
 40
1.999999999999855
 50
134.999999999995400
 51
209.883814114018580
  0
ARC
  8
0
  6
CONTINUOUS
 62
256
 10
-242.610392877235430
 20
-57.119933261351491
 40
2.000000000000003
 50
276.854945358174970
 51
315.000000000004720
  0
ARC
  8
0
  6
CONTINUOUS
 62
256
 10
-248.980148097929490
 20
-64.130358283310727
 40
5.250000000000297
 50
315.374142197885990
 51
0.000000000000000
  0
ARC
  8
0
  6
CONTINUOUS
 62
256
 10
-248.980148097929490
 20
-64.130358283310727
 40
5.250000000000000
 50
180.000000000000000
 51
215.254058123107910
  0
ARC
  8
0
  6
CONTINUOUS
 62
256
 10
-248.980148097929260
 20
-64.130358283310727
 40
4.249999046325289
 50
303.103064299014480
 51
227.525136021979700
  0
LINE
  8
0
  6
CONTINUOUS
 62
256
 10
-227.862195384683220
 20
-161.151191616644380
 11
-221.499314292988800
 21
-150.130358283310670
  0
ARC
  8
0
  6
CONTINUOUS
 62
256
 10
-262.480148097929490
 20
-104.883901139297270
 40
50.000000000000000
 50
17.161786322051114
 51
88.510141843145860
  0
LINE
  8
0
  6
CONTINUOUS
 62
256
 10
-209.480148097929490
 20
-166.130358283310670
 11
-209.480148097929490
 21
-150.130358283310670
  0
LINE
  8
0
  6
CONTINUOUS
 62
256
 10
-209.480148097929490
 20
-90.130358283310670
 11
-209.480148097929490
 21
-38.130358283310670
  0
LINE
  8
0
  6
CONTINUOUS
 62
256
 10
-248.480145713744890
 20
-177.785054620081950
 11
-248.480146667419150
 21
-175.475657876307540
  0
LINE
  8
0
  6
CONTINUOUS
 62
256
 10
-244.480150482114080
 20
-175.475662900213250
 11
-244.480149528439820
 21
-177.785057736639030
  0
LINE
  8
0
  6
CONTINUOUS
 62
256
 10
-244.480150011882420
 20
-175.475662528109240
 11
-246.480145672909880
 21
-174.320959348322900
  0
LINE
  8
0
  6
CONTINUOUS
 62
256
 10
-246.480150400121150
 20
-178.939755484157670
 11
-248.480145097591960
 21
-177.785054359255010
  0
LINE
  8
0
  6
CONTINUOUS
 62
256
 10
-248.480146829440740
 20
-175.475658302760390
 11
-246.480145662374240
 21
-174.320959060849020
  0
LINE
  8
0
  6
CONTINUOUS
 62
256
 10
-244.480149287707890
 20
-177.785057594047940
 11
-246.480150041820880
 21
-178.939755808518780
  0
LINE
  8
0
  6
CONTINUOUS
 62
256
 10
-315.480150482114140
 20
-177.785054620081950
 11
-315.480149528439820
 21
-175.475657876307540
  0
LINE
  8
0
  6
CONTINUOUS
 62
256
 10
-319.480145713744830
 20
-175.475662900213250
 11
-319.480146667419150
 21
-177.785057736639030
  0
LINE
  8
0
  6
CONTINUOUS
 62
256
 10
-319.480146183976560
 20
-175.475662528109240
 11
-317.480150522949090
 21
-174.320959348322900
  0
LINE
  8
0
  6
CONTINUOUS
 62
256
 10
-317.480145795737830
 20
-178.939755484157670
 11
-315.480151098267020
 21
-177.785054359255010
  0
LINE
  8
0
  6
CONTINUOUS
 62
256
 10
-315.480149366418230
 20
-175.475658302760390
 11
-317.480150533484680
 21
-174.320959060849020
  0
LINE
  8
0
  6
CONTINUOUS
 62
256
 10
-319.480146908151030
 20
-177.785057594047940
 11
-317.480146154038040
 21
-178.939755808518780
  0
LINE
  8
0
  6
CONTINUOUS
 62
256
 10
-312.980150482114140
 20
-65.285054620081894
 11
-312.980149528439820
 21
-62.975657876307480
  0
LINE
  8
0
  6
CONTINUOUS
 62
256
 10
-316.980145713744830
 20
-62.975662900213194
 11
-316.980146667419150
 21
-65.285057736638976
  0
LINE
  8
0
  6
CONTINUOUS
 62
256
 10
-316.980146183976560
 20
-62.975662528109183
 11
-314.980150522949090
 21
-61.820959348322845
  0
LINE
  8
0
  6
CONTINUOUS
 62
256
 10
-314.980145795737830
 20
-66.439755484157615
 11
-312.980151098267020
 21
-65.285054359254957
  0
LINE
  8
0
  6
CONTINUOUS
 62
256
 10
-312.980149366418230
 20
-62.975658302760337
 11
-314.980150533484680
 21
-61.820959060848963
  0
LINE
  8
0
  6
CONTINUOUS
 62
256
 10
-316.980146908151030
 20
-65.285057594047885
 11
-314.980146154038040
 21
-66.439755808518726
  0
LINE
  8
0
  6
CONTINUOUS
 62
256
 10
-250.980145713744660
 20
-65.285054620081894
 11
-250.980146667418920
 21
-62.975657876307480
  0
LINE
  8
0
  6
CONTINUOUS
 62
256
 10
-246.980150482113860
 20
-62.975662900213194
 11
-246.980149528439600
 21
-65.285057736638976
  0
LINE
  8
0
  6
CONTINUOUS
 62
256
 10
-246.980150011882190
 20
-62.975662528109183
 11
-248.980145672909660
 21
-61.820959348322845
  0
LINE
  8
0
  6
CONTINUOUS
 62
256
 10
-248.980150400120920
 20
-66.439755484157615
 11
-250.980145097591730
 21
-65.285054359254957
  0
LINE
  8
0
  6
CONTINUOUS
 62
256
 10
-250.980146829440510
 20
-62.975658302760337
 11
-248.980145662374010
 21
-61.820959060848963
  0
LINE
  8
0
  6
CONTINUOUS
 62
256
 10
-246.980149287707660
 20
-65.285057594047885
 11
-248.980150041820650
 21
-66.439755808518726
  0
ARC
  8
0
  6
CONTINUOUS
 62
256
 10
-361.280148097929440
 20
-134.172858283310690
 40
20.799999999999986
 50
174.275189547776620
 51
205.640070215894870
  0
POINT
  8
0
  6
DASHDOT
 62
256
 10
-340.480148097929490
 20
-120.144088776436660
  0
ARC
  8
0
  6
CONTINUOUS
 62
256
 10
-361.280148097929440
 20
-134.172858283310690
 40
20.799999999999926
 50
205.640070215894870
 51
260.083463391769380
  0
POINT
  8
0
  6
DASHDOT
 62
256
 10
-340.480148097929490
 20
-120.144088776436660
  0
ARC
  8
0
  6
CONTINUOUS
 62
256
 10
-361.280148097929440
 20
-134.172858283310690
 40
20.799999999999986
 50
174.275189547776620
 51
205.640070215894870
  0
ARC
  8
0
  6
CONTINUOUS
 62
256
 10
-359.280148097929440
 20
-94.172858283310688
 40
18.799999999999955
 50
0.000000000000000
 51
79.401214733933926
  0
ARC
  8
0
  6
CONTINUOUS
 62
256
 10
-355.454393463842510
 20
-73.727721906172974
 40
1.999999999999927
 50
177.137594773887290
 51
259.401214733933840
  0
ARC
  8
0
  6
CONTINUOUS
 62
256
 10
-361.047406561558320
 20
-73.448071251287161
 40
1.999999999999928
 50
274.873974813840960
 51
357.137594773887320
  0
ARC
  8
0
  6
CONTINUOUS
 62
256
 10
-359.613600831545910
 20
-156.911869260240000
 40
1.999999999999962
 50
94.191726156001650
 51
177.137594773887370
  0
LINE
  8
0
  6
CONTINUOUS
 62
256
 10
-357.782019589612670
 20
-64.210288116975448
 11
-362.875656517889640
 21
-166.083026682515540
  0
ARC
  8
0
  6
CONTINUOUS
 62
256
 10
-365.206613929261720
 20
-156.632218605354180
 40
2.000000000000154
 50
357.137594773887600
 51
80.083463391768120
  0
LINE
  8
0
  6
CONTINUOUS
 62
256
 10
-381.976407449550380
 20
-132.098045315729680
 11
-377.986382511894360
 21
-92.297546562612411
  0
ARC
  8
0
  6
CONTINUOUS
 62
256
 10
-361.280148097929440
 20
-134.172858283310690
 40
20.800000000000082
 50
274.191726156007410
 51
354.952683218992090
  0
ARC
  8
0
  6
CONTINUOUS
 62
256
 10
-359.280148097929440
 20
-94.172858283310688
 40
18.800000000000036
 50
94.873974813842736
 51
144.191373186504220
  0
ARC
  8
0
  6
CONTINUOUS
 62
256
 10
-359.280148097929440
 20
-94.172858283310688
 40
18.799999999999933
 50
144.191373186504250
 51
174.275189547776420
  0
LINE
  8
0
  6
CONTINUOUS
 62
256
 10
-358.581021460714960
 20
-64.170338023420300
 11
-356.983017718510380
 21
-64.250238210530483
  0
LINE
  8
0
  6
CONTINUOUS
 62
256
 10
-340.480148097929490
 20
-102.799749523091120
 11
-340.480148097929490
 21
-94.172858283310688
  0
ARC
  8
0
  6
CONTINUOUS
 62
256
 10
-352.438694957609410
 20
-69.483700447200590
 40
9.000000000000060
 50
160.536063666407810
 51
193.739143184213500
  0
POINT
  8
0
  6
CONTINUOUS
 62
256
 10
-358.830709545433820
 20
-69.164099717809336
  0
LINE
  8
0
  6
CONTINUOUS
 62
256
 10
-358.655927886130260
 20
-65.668466531736954
 11
-359.005491204737380
 21
-72.659732903881832
  0
LINE
  8
0
  6
CONTINUOUS
 62
256
 10
-358.655927886130260
 20
-65.668466531736954
 11
-359.005491204737380
 21
-72.659732903881832
  0
LINE
  8
0
  6
CONTINUOUS
 62
256
 10
-359.005491204737380
 20
-72.659732903881832
 11
-359.983295017245150
 21
-72.610842713256488
  0
LINE
  8
0
  6
CONTINUOUS
 62
256
 10
-358.655927886130260
 20
-65.668466531736954
 11
-359.633731698637800
 21
-65.619576341111610
  0
ARC
  8
0
  6
CONTINUOUS
 62
256
 10
-359.918376153317470
 20
-71.312465434702858
 40
1.299999237060493
 50
193.739143184211430
 51
267.137612759980130
  0
ARC
  8
0
  6
CONTINUOUS
 62
256
 10
-359.698650562565490
 20
-66.917953619665127
 40
1.299999237060475
 50
87.137594090651845
 51
160.536063666412730
  0
LINE
  8
0
  6
CONTINUOUS
 62
256
 10
-358.581021460714960
 20
-64.170338023420300
 11
-363.674658388991930
 21
-166.043076588960280
  0
LINE
  8
0
  6
CONTINUOUS
 62
256
 10
-362.076654646787350
 20
-166.122976776071250
 11
-363.674658388991930
 21
-166.043076588960280
  0
LINE
  8
0
  6
CONTINUOUS
 62
256
 10
-356.983017718510380
 20
-64.250238210530483
 11
-362.076654646787350
 21
-166.122976776071250
  0
LINE
  8
0
  6
CONTINUOUS
 62
256
 10
-194.480148097929490
 20
-122.630358283310670
 11
-194.480148097929490
 21
-117.630358283310670
  0
LINE
  8
0
  6
CONTINUOUS
 62
256
 10
-194.990564945447200
 20
-122.630358283310670
 11
-194.480148097929490
 21
-122.630358283310670
  0
LINE
  8
0
  6
CONTINUOUS
 62
256
 10
-194.990564945447200
 20
-117.630358283310670
 11
-194.480148097929490
 21
-117.630358283310670
  0
ARC
  8
0
  6
CONTINUOUS
 62
256
 10
-494.980148097929490
 20
-120.130358283310670
 40
300.000000000000170
 50
355.138594604201960
 51
4.861405395798036
  0
LINE
  8
0
  6
CONTINUOUS
 62
256
 10
-224.480148097929490
 20
-90.130358283310670
 11
-201.041378963947860
 21
-90.130358283310670
  0
LINE
  8
0
  6
CONTINUOUS
 62
256
 10
-224.480148097929490
 20
-150.130358283310670
 11
-201.041378963947860
 21
-150.130358283310670
  0
ARC
  8
0
  6
CONTINUOUS
 62
256
 10
-201.041378963947860
 20
-95.130358283310670
 40
4.999999999999893
 50
4.861405395798621
 51
90.000000000000000
  0
ARC
  8
0
  6
CONTINUOUS
 62
256
 10
-201.041378963947860
 20
-145.130358283310670
 40
5.000000000000000
 50
270.000000000000000
 51
355.138594604201500
  0
ARC
  8
0
  6
CONTINUOUS
 62
256
 10
-40.380148097929350
 20
-120.130358283310670
 40
290.796999999999910
 50
174.998349729065040
 51
180.000000000000000
  0
LINE
  8
0
  6
CONTINUOUS
 62
256
 10
-324.057738413785500
 20
-81.884860897062026
 11
-320.717433380507830
 21
-78.544555863784126
  0
ARC
  8
0
  6
CONTINUOUS
 62
256
 10
-309.352038685448860
 20
-96.590560625398666
 40
20.797000000000015
 50
135.000000000000000
 51
174.998349729064670
  0
ARC
  8
0
  6
CONTINUOUS
 62
256
 10
-281.980148097929490
 20
-466.730358283310810
 40
390.797000000000030
 50
90.000000000000000
 51
95.417963762360529
  0
ARC
  8
0
  6
CONTINUOUS
 62
256
 10
-318.596113036947830
 20
-80.665876207343899
 40
3.000000000000067
 50
95.417963762365673
 51
135.000000000003470
  0
ARC
  8
0
  6
CONTINUOUS
 62
256
 10
-40.380148097929350
 20
-120.130358283310670
 40
290.797000000000250
 50
180.000000000000000
 51
185.001650270934930
  0
LINE
  8
0
  6
CONTINUOUS
 62
256
 10
-324.057738413785500
 20
-158.375855669559310
 11
-320.717433380507830
 21
-161.716160702837210
  0
ARC
  8
0
  6
CONTINUOUS
 62
256
 10
-309.352038685448860
 20
-143.670155941222670
 40
20.796999999999880
 50
185.001650270935300
 51
225.000000000000060
  0
ARC
  8
0
  6
CONTINUOUS
 62
256
 10
-281.980148097929490
 20
226.469641716689470
 40
390.797000000000030
 50
264.582036237639500
 51
270.000000000000000
  0
ARC
  8
0
  6
CONTINUOUS
 62
256
 10
-318.596113036947830
 20
-159.594840359277440
 40
3.000000000000346
 50
224.999999999996930
 51
264.582036237634780
  0
ARC
  8
0
  6
CONTINUOUS
 62
256
 10
-523.580148097929850
 20
-120.130358283310670
 40
290.797000000000140
 50
354.998349729065010
 51
0.000000000000000
  0
LINE
  8
0
  6
CONTINUOUS
 62
256
 10
-239.902557782073470
 20
-158.375855669559310
 11
-243.242862815351150
 21
-161.716160702837210
  0
ARC
  8
0
  6
CONTINUOUS
 62
256
 10
-254.608257510410110
 20
-143.670155941222670
 40
20.797000000000015
 50
315.000000000000000
 51
354.998349729064610
  0
ARC
  8
0
  6
CONTINUOUS
 62
256
 10
-281.980148097929490
 20
226.469641716689470
 40
390.797000000000030
 50
270.000000000000000
 51
275.417963762360500
  0
ARC
  8
0
  6
CONTINUOUS
 62
256
 10
-245.364183158911150
 20
-159.594840359277440
 40
3.000000000000067
 50
275.417963762365730
 51
315.000000000003070
  0
ARC
  8
0
  6
CONTINUOUS
 62
256
 10
-523.580148097929850
 20
-120.130358283310670
 40
290.797000000000480
 50
0.000000000000000
 51
5.752282731536625
  0
ARC
  8
0
  6
CONTINUOUS
 62
256
 10
-245.364183158911150
 20
-80.665876207343899
 40
3.000000000000346
 50
44.999999999996930
 51
84.582036237634298
  0
ARC
  8
0
  6
CONTINUOUS
 62
256
 10
-281.980148097929490
 20
-466.730358283310810
 40
390.797000000000030
 50
84.582036237639471
 51
90.000000000000000
  0
LINE
  8
0
  6
CONTINUOUS
 62
256
 10
-237.355448943311790
 20
-84.431969735824168
 11
-243.242862815351150
 21
-78.544555863784126
  0
ARC
  8
0
  6
CONTINUOUS
 62
256
 10
-321.411015098016830
 20
-74.708411541012310
 40
6.600000000000009
 50
95.743681810995113
 51
135.000000000002870
  0
ARC
  8
0
  6
CONTINUOUS
 62
256
 10
-321.411015098016830
 20
-165.552305025609030
 40
6.600000000000278
 50
224.999999999997190
 51
264.256318189004620
  0
ARC
  8
0
  6
CONTINUOUS
 62
256
 10
-242.549281097842140
 20
-165.552305025609030
 40
6.600000000000009
 50
275.743681810995100
 51
315.000000000002790
  0
ARC
  8
0
  6
CONTINUOUS
 62
256
 10
-242.549281097842140
 20
-74.708411541012310
 40
6.600000000000278
 50
44.999999999997208
 51
84.256318189004887
  0
ARC
  8
0
  6
CONTINUOUS
 62
256
 10
-281.980148097929490
 20
-466.730358283310810
 40
400.599999999999910
 50
90.000000000000000
 51
95.743681810993436
  0
ARC
  8
0
  6
CONTINUOUS
 62
256
 10
-281.980148097929490
 20
226.469641716689470
 40
400.599999999999910
 50
264.256318189006550
 51
270.000000000000000
  0
ARC
  8
0
  6
CONTINUOUS
 62
256
 10
-281.980148097929490
 20
226.469641716689470
 40
400.599999999999910
 50
270.000000000000000
 51
275.743681810993510
  0
ARC
  8
0
  6
CONTINUOUS
 62
256
 10
-281.980148097929490
 20
-466.730358283310810
 40
400.599999999999910
 50
84.256318189006564
 51
90.000000000000000
  0
ARC
  8
0
  6
CONTINUOUS
 62
256
 10
-40.380148097929123
 20
-120.130358283310670
 40
300.599999999999910
 50
174.247717268463390
 51
180.000000000000000
  0
ARC
  8
0
  6
CONTINUOUS
 62
256
 10
-40.380148097929123
 20
-120.130358283310670
 40
300.600000000000360
 50
180.000000000000000
 51
185.752282731536610
  0
ARC
  8
0
  6
CONTINUOUS
 62
256
 10
-523.580148097929850
 20
-120.130358283310670
 40
300.599999999999910
 50
354.247717268463420
 51
0.000000000000000
  0
ARC
  8
0
  6
CONTINUOUS
 62
256
 10
-523.580148097929850
 20
-120.130358283310670
 40
300.600000000000360
 50
0.000000000000000
 51
5.752282731536604
  0
ARC
  8
0
  6
CONTINUOUS
 62
256
 10
-285.480148097929490
 20
-154.954918582042410
 40
1.000000000000000
 50
0.000000000000000
 51
84.260829522738462
  0
ARC
  8
0
  6
CONTINUOUS
 62
256
 10
-285.480148097929490
 20
-157.968830768335690
 40
1.000000000000042
 50
264.715267045464260
 51
0.000000000000000
  0
ARC
  8
0
  6
CONTINUOUS
 62
256
 10
-285.480148097929490
 20
-149.421995315064350
 40
1.000000000000077
 50
263.186145655820330
 51
0.000000000000000
  0
LINE
  8
0
  6
CONTINUOUS
 62
256
 10
-284.480148097929490
 20
-157.968830768335690
 11
-284.480148097929490
 21
-154.954918582042410
  0
ARC
  8
0
  6
CONTINUOUS
 62
256
 10
-299.021076781302330
 20
-125.927491161569830
 40
0.999999999999885
 50
300.000000000003810
 51
18.787728582347054
  0
LINE
  8
0
  6
CONTINUOUS
 62
256
 10
-301.162311938358930
 20
-128.318434394273710
 11
-298.521076781302330
 21
-126.793516565354120
  0
ARC
  8
0
  6
CONTINUOUS
 62
256
 10
-301.662311938358930
 20
-127.452408990489400
 40
1.000000000000094
 50
200.405931773138660
 51
300.000000000004550
  0
ARC
  8
0
  6
CONTINUOUS
 62
256
 10
-306.478774430083830
 20
-130.233194906629020
 40
1.000000000000082
 50
299.999999999997270
 51
22.410457608146118
  0
ARC
  8
0
  6
CONTINUOUS
 62
256
 10
-313.889101992253930
 20
-134.511549519430900
 40
1.000000000000082
 50
299.999999999997270
 51
24.260829522734443
  0
LINE
  8
0
  6
CONTINUOUS
 62
256
 10
-308.597449885861350
 20
-132.611113289726520
 11
-305.978774430083830
 21
-131.099220310413560
  0
ARC
  8
0
  6
CONTINUOUS
 62
256
 10
-309.097449885861350
 20
-131.745087885941980
 40
0.999999999999730
 50
203.186145655819840
 51
299.999999999997780
  0
LINE
  8
0
  6
CONTINUOUS
 62
256
 10
-315.999226510359680
 20
-136.884531016361960
 11
-313.389101992253930
 21
-135.377574923215430
  0
ARC
  8
0
  6
CONTINUOUS
 62
256
 10
-316.499226510359680
 20
-136.018505612577660
 40
1.000000000000249
 50
204.715267045455480
 51
300.000000000003300
  0
ARC
  8
0
  6
CONTINUOUS
 62
256
 10
-312.999226510359680
 20
-142.080683439068930
 40
1.000000000000082
 50
119.999999999997300
 51
215.284732954534750
  0
ARC
  8
0
  6
CONTINUOUS
 62
256
 10
-310.389101992253930
 20
-140.573727345921950
 40
0.999999999999807
 50
35.739170477263514
 51
120.000000000002610
  0
ARC
  8
0
  6
CONTINUOUS
 62
256
 10
-285.480148097929490
 20
-146.398209356437970
 40
1.000000000000000
 50
0.000000000000000
 51
82.410457608145990
  0
ARC
  8
0
  6
CONTINUOUS
 62
256
 10
-305.597449885861350
 20
-137.807265712432810
 40
0.999999999999885
 50
120.000000000003810
 51
216.813854344195820
  0
ARC
  8
0
  6
CONTINUOUS
 62
256
 10
-302.978774430084290
 20
-136.295372733119850
 40
1.000000000000194
 50
37.589542391851786
 51
119.999999999997670
  0
ARC
  8
0
  6
CONTINUOUS
 62
256
 10
-285.480148097929490
 20
-140.836637524159190
 40
1.000000000000268
 50
260.405931773124510
 51
0.000000000000000
  0
ARC
  8
0
  6
CONTINUOUS
 62
256
 10
-285.480148097929490
 20
-137.786801866320270
 40
1.000000000000000
 50
0.000000000000000
 51
78.787728582356308
  0
ARC
  8
0
  6
CONTINUOUS
 62
256
 10
-298.162311938358470
 20
-133.514586816980450
 40
0.999999999999885
 50
120.000000000003810
 51
219.594068226860320
  0
ARC
  8
0
  6
CONTINUOUS
 62
256
 10
-295.521076781302330
 20
-131.989668988061110
 40
1.000000000000165
 50
41.212271417643834
 51
119.999999999997670
  0
ARC
  8
0
  6
CONTINUOUS
 62
256
 10
-290.622452943342980
 20
-129.161447196556080
 40
0.999999999999885
 50
120.000000000003810
 51
226.260204708329810
  0
ARC
  8
0
  6
CONTINUOUS
 62
256
 10
-285.480148097929490
 20
-132.130358283310670
 40
0.999999999999964
 50
253.739795291702650
 51
0.000000000000000
  0
ARC
  8
0
  6
CONTINUOUS
 62
256
 10
-285.480148097929490
 20
-128.962119149638510
 40
1.000000000000000
 50
0.000000000000000
 51
68.381727577839243
  0
ARC
  8
0
  6
CONTINUOUS
 62
256
 10
-287.878677368318680
 20
-127.577327629720000
 40
0.999999999999961
 50
51.618272422159770
 51
120.000000000004590
  0
ARC
  8
0
  6
CONTINUOUS
 62
256
 10
-281.980148097929490
 20
-120.130358283310670
 40
38.999999999999865
 50
215.284732954534800
 51
264.715267045465400
  0
ARC
  8
0
  6
CONTINUOUS
 62
256
 10
-281.980148097929490
 20
-120.130358283310670
 40
30.499999999999964
 50
216.813854344181040
 51
263.186145655819020
  0
ARC
  8
0
  6
CONTINUOUS
 62
256
 10
-281.980148097929490
 20
-120.130358283310670
 40
33.999999999999964
 50
215.739170477266950
 51
264.260829522733050
  0
ARC
  8
0
  6
CONTINUOUS
 62
256
 10
-281.980148097929490
 20
-120.130358283310670
 40
25.499999999999890
 50
217.589542391857950
 51
262.410457608141770
  0
ARC
  8
0
  6
CONTINUOUS
 62
256
 10
-281.980148097929490
 20
-120.130358283310670
 40
22.000000000000025
 50
219.594068226860800
 51
260.405931773138780
  0
ARC
  8
0
  6
CONTINUOUS
 62
256
 10
-281.980148097929490
 20
-120.130358283310670
 40
16.999999999999773
 50
221.212271417650750
 51
258.787728582349980
  0
ARC
  8
0
  6
CONTINUOUS
 62
256
 10
-281.980148097929490
 20
-120.130358283310670
 40
13.499999999999927
 50
226.260204708312130
 51
253.739795291689090
  0
ARC
  8
0
  6
CONTINUOUS
 62
256
 10
-281.980148097929490
 20
-120.130358283310670
 40
8.499999999999949
 50
231.618272422157330
 51
248.381727577842410
  0
LINE
  8
0
  6
CONTINUOUS
 62
256
 10
-306.097449885861350
 20
-136.941240308648500
 11
-303.478774430084290
 21
-135.429347329335310
  0
LINE
  8
0
  6
CONTINUOUS
 62
256
 10
-313.499226510359680
 20
-141.214658035284400
 11
-310.889101992253930
 21
-139.707701942137650
  0
LINE
  8
0
  6
CONTINUOUS
 62
256
 10
-298.662311938358470
 20
-132.648561413196150
 11
-296.021076781302330
 21
-131.123643584276580
  0
LINE
  8
0
  6
CONTINUOUS
 62
256
 10
-291.122452943342980
 20
-128.295421792771780
 11
-288.378677368318680
 21
-126.711302225935700
  0
LINE
  8
0
  6
CONTINUOUS
 62
256
 10
-284.480148097929490
 20
-132.130358283310670
 11
-284.480148097929490
 21
-128.962119149638510
  0
LINE
  8
0
  6
CONTINUOUS
 62
256
 10
-284.480148097929490
 20
-140.836637524159190
 11
-284.480148097929490
 21
-137.786801866320270
  0
LINE
  8
0
  6
CONTINUOUS
 62
256
 10
-284.480148097929490
 20
-149.421995315064350
 11
-284.480148097929490
 21
-146.398209356437970
  0
ARC
  8
0
  6
CONTINUOUS
 62
256
 10
-291.378677368318680
 20
-121.515149803229160
 40
0.999999999999885
 50
300.000000000003810
 51
8.381727577845361
  0
ARC
  8
0
  6
CONTINUOUS
 62
256
 10
-281.980148097929490
 20
-120.130358283310670
 40
8.499999999999972
 50
171.618272422157790
 51
188.381727577842210
  0
LINE
  8
0
  6
CONTINUOUS
 62
256
 10
-293.622452943342980
 20
-123.965294773849560
 11
-290.878677368318680
 21
-122.381175207013480
  0
ARC
  8
0
  6
CONTINUOUS
 62
256
 10
-294.122452943342980
 20
-123.099269370065240
 40
0.999999999999879
 50
193.739795291686020
 51
300.000000000003810
  0
ARC
  8
0
  6
CONTINUOUS
 62
256
 10
-285.480148097929490
 20
-102.473914700301070
 40
0.999999999999982
 50
281.212271417643990
 51
0.000000000000000
  0
LINE
  8
0
  6
CONTINUOUS
 62
256
 10
-284.480148097929490
 20
-99.424079042462154
 11
-284.480148097929490
 21
-102.473914700301070
  0
ARC
  8
0
  6
CONTINUOUS
 62
256
 10
-285.480148097929490
 20
-99.424079042462154
 40
1.000000000000000
 50
0.000000000000000
 51
99.594068226874853
  0
ARC
  8
0
  6
CONTINUOUS
 62
256
 10
-285.480148097929490
 20
-93.862507210183367
 40
0.999999999999749
 50
277.589542391855960
 51
0.000000000013028
  0
LINE
  8
0
  6
CONTINUOUS
 62
256
 10
-284.480148097929490
 20
-90.838721251556990
 11
-284.480148097929490
 21
-93.862507210183139
  0
ARC
  8
0
  6
CONTINUOUS
 62
256
 10
-285.480148097929490
 20
-90.838721251556990
 40
1.000000000000000
 50
0.000000000000000
 51
96.813854344180172
  0
ARC
  8
0
  6
CONTINUOUS
 62
256
 10
-285.480148097929490
 20
-85.305797984578930
 40
0.999999999999973
 50
275.739170477261670
 51
0.000000000000000
  0
LINE
  8
0
  6
CONTINUOUS
 62
256
 10
-284.480148097929490
 20
-82.291885798285648
 11
-284.480148097929490
 21
-85.305797984578930
  0
ARC
  8
0
  6
CONTINUOUS
 62
256
 10
-285.480148097929490
 20
-82.291885798285648
 40
1.000000000000000
 50
0.000000000000000
 51
95.284732954535926
  0
ARC
  8
0
  6
CONTINUOUS
 62
256
 10
-305.597449885861350
 20
-102.453450854188300
 40
0.999999999999774
 50
143.186145655813330
 51
240.000000000003440
  0
LINE
  8
0
  6
CONTINUOUS
 62
256
 10
-306.097449885861350
 20
-103.319476257972820
 11
-303.478774430083830
 21
-104.831369237286030
  0
ARC
  8
0
  6
CONTINUOUS
 62
256
 10
-302.978774430083830
 20
-103.965343833501490
 40
1.000000000000082
 50
240.000000000002670
 51
322.410457608131140
  0
ARC
  8
0
  6
CONTINUOUS
 62
256
 10
-312.999226510359680
 20
-98.180033127552633
 40
0.999999999999908
 50
144.715267045455050
 51
239.999999999996560
  0
LINE
  8
0
  6
CONTINUOUS
 62
256
 10
-313.499226510359680
 20
-99.046058531336939
 11
-310.889101992253930
 21
-100.553014624483690
  0
ARC
  8
0
  6
CONTINUOUS
 62
256
 10
-310.389101992253930
 20
-99.686989220699388
 40
0.999999999999885
 50
239.999999999996160
 51
324.260829522725320
  0
ARC
  8
0
  6
CONTINUOUS
 62
256
 10
-287.878677368318680
 20
-112.683388936901110
 40
1.000000000000082
 50
240.000000000002670
 51
308.381727577839230
  0
LINE
  8
0
  6
CONTINUOUS
 62
256
 10
-291.122452943342980
 20
-111.965294773849560
 11
-288.378677368318680
 21
-113.549414340685640
  0
ARC
  8
0
  6
CONTINUOUS
 62
256
 10
-295.521076781302330
 20
-108.271047578560460
 40
0.999999999999885
 50
239.999999999996160
 51
318.787728582349130
  0
LINE
  8
0
  6
CONTINUOUS
 62
256
 10
-298.662311938358470
 20
-107.612155153425190
 11
-296.021076781302330
 21
-109.137072982344760
  0
ARC
  8
0
  6
CONTINUOUS
 62
256
 10
-298.162311938358470
 20
-106.746129749640640
 40
1.000000000000173
 50
140.405931773149600
 51
240.000000000002330
  0
ARC
  8
0
  6
CONTINUOUS
 62
256
 10
-285.480148097929490
 20
-111.298597416982830
 40
1.000000000000090
 50
291.618272422162020
 51
0.000000000000000
  0
ARC
  8
0
  6
CONTINUOUS
 62
256
 10
-281.980148097929490
 20
-120.130358283310670
 40
8.499999999999904
 50
111.618272422157720
 51
128.381727577841810
  0
ARC
  8
0
  6
CONTINUOUS
 62
256
 10
-290.622452943342980
 20
-111.099269370065240
 40
0.999999999999858
 50
133.739795291671330
 51
239.999999999995340
  0
LINE
  8
0
  6
CONTINUOUS
 62
256
 10
-284.480148097929490
 20
-108.130358283310670
 11
-284.480148097929490
 21
-111.298597416982830
  0
ARC
  8
0
  6
CONTINUOUS
 62
256
 10
-285.480148097929490
 20
-108.130358283310670
 40
1.000000000000000
 50
0.000000000000000
 51
106.260204708296920
  0
ARC
  8
0
  6
CONTINUOUS
 62
256
 10
-281.980148097929490
 20
-120.130358283310670
 40
13.499999999999963
 50
106.260204708310880
 51
133.739795291687780
  0
ARC
  8
0
  6
CONTINUOUS
 62
256
 10
-281.980148097929490
 20
-120.130358283310670
 40
17.000000000000046
 50
101.212271417650020
 51
138.787728582350240
  0
ARC
  8
0
  6
CONTINUOUS
 62
256
 10
-281.980148097929490
 20
-120.130358283310670
 40
22.000000000000131
 50
99.594068226861211
 51
140.405931773139140
  0
ARC
  8
0
  6
CONTINUOUS
 62
256
 10
-281.980148097929490
 20
-120.130358283310670
 40
30.500000000000135
 50
96.813854344181038
 51
143.186145655818930
  0
ARC
  8
0
  6
CONTINUOUS
 62
256
 10
-281.980148097929490
 20
-120.130358283310670
 40
25.500000000000160
 50
97.589542391858117
 51
142.410457608142050
  0
ARC
  8
0
  6
CONTINUOUS
 62
256
 10
-281.980148097929490
 20
-120.130358283310670
 40
34.000000000000071
 50
95.739170477266939
 51
144.260829522733360
  0
ARC
  8
0
  6
CONTINUOUS
 62
256
 10
-281.980148097929490
 20
-120.130358283310670
 40
38.999999999999986
 50
95.284732954534590
 51
144.715267045465230
  0
ARC
  8
0
  6
CONTINUOUS
 62
256
 10
-309.097449885861350
 20
-108.515628680679360
 40
1.000000000000082
 50
60.000000000002721
 51
156.813854344180360
  0
LINE
  8
0
  6
CONTINUOUS
 62
256
 10
-308.597449885861350
 20
-107.649603276894820
 11
-305.978774430083830
 21
-109.161496256208010
  0
ARC
  8
0
  6
CONTINUOUS
 62
256
 10
-306.478774430083830
 20
-110.027521659992540
 40
0.999999999999701
 50
337.589542391853970
 51
60.000000000001812
  0
ARC
  8
0
  6
CONTINUOUS
 62
256
 10
-316.499226510359680
 20
-104.242210954043680
 40
1.000000000000082
 50
60.000000000002721
 51
155.284732954544150
  0
LINE
  8
0
  6
CONTINUOUS
 62
256
 10
-315.999226510359680
 20
-103.376185550259150
 11
-313.389101992253930
 21
-104.883141643405910
  0
ARC
  8
0
  6
CONTINUOUS
 62
256
 10
-313.889101992253930
 20
-105.749167047190210
 40
0.999999999999863
 50
335.739170477254390
 51
59.999999999995801
  0
ARC
  8
0
  6
CONTINUOUS
 62
256
 10
-291.378677368318680
 20
-118.745566763392380
 40
1.000000000000026
 50
351.618272422167310
 51
60.000000000001499
  0
LINE
  8
0
  6
CONTINUOUS
 62
256
 10
-293.622452943342980
 20
-116.295421792771780
 11
-290.878677368318680
 21
-117.879541359607860
  0
ARC
  8
0
  6
CONTINUOUS
 62
256
 10
-299.021076781302330
 20
-114.333225405051490
 40
1.000000000000076
 50
341.212271417653030
 51
60.000000000002721
  0
LINE
  8
0
  6
CONTINUOUS
 62
256
 10
-301.162311938358930
 20
-111.942282172347630
 11
-298.521076781302330
 21
-113.467200001266970
  0
ARC
  8
0
  6
CONTINUOUS
 62
256
 10
-301.662311938358930
 20
-112.808307576131920
 40
0.999999999999885
 50
59.999999999996206
 51
159.594068226861740
  0
ARC
  8
0
  6
CONTINUOUS
 62
256
 10
-294.122452943342980
 20
-117.161447196556080
 40
0.999999999999885
 50
59.999999999996206
 51
166.260204708308440
  0
ARC
  8
0
  6
CONTINUOUS
 62
256
 10
-281.980148097929490
 20
-120.130358283310670
 40
13.499999999999687
 50
166.260204708311360
 51
193.739795291688210
  0
ARC
  8
0
  6
CONTINUOUS
 62
256
 10
-281.980148097929490
 20
-120.130358283310670
 40
16.999999999999716
 50
161.212271417649590
 51
198.787728582350440
  0
ARC
  8
0
  6
CONTINUOUS
 62
256
 10
-281.980148097929490
 20
-120.130358283310670
 40
22.000000000000206
 50
159.594068226860770
 51
200.405931773139230
  0
ARC
  8
0
  6
CONTINUOUS
 62
256
 10
-281.980148097929490
 20
-120.130358283310670
 40
30.499999999999954
 50
156.813854344181150
 51
203.186145655818820
  0
ARC
  8
0
  6
CONTINUOUS
 62
256
 10
-281.980148097929490
 20
-120.130358283310670
 40
25.500000000000000
 50
157.589542391858000
 51
202.410457608142480
  0
ARC
  8
0
  6
CONTINUOUS
 62
256
 10
-281.980148097929490
 20
-120.130358283310670
 40
34.000000000000007
 50
155.739170477266780
 51
204.260829522733220
  0
ARC
  8
0
  6
CONTINUOUS
 62
256
 10
-281.980148097929490
 20
-120.130358283310670
 40
39.000000000000220
 50
155.284732954534800
 51
204.715267045465200
  0
LINE
  8
0
  6
CONTINUOUS
 62
256
 10
-279.480148097929490
 20
-149.421995315064350
 11
-279.480148097929490
 21
-146.398209356437970
  0
LINE
  8
0
  6
CONTINUOUS
 62
256
 10
-279.480148097929490
 20
-140.836637524159190
 11
-279.480148097929490
 21
-137.786801866320270
  0
LINE
  8
0
  6
CONTINUOUS
 62
256
 10
-279.480148097929490
 20
-132.130358283310670
 11
-279.480148097929490
 21
-128.962119149638510
  0
LINE
  8
0
  6
CONTINUOUS
 62
256
 10
-272.837843252516000
 20
-128.295421792771780
 11
-275.581618827540300
 21
-126.711302225935700
  0
LINE
  8
0
  6
CONTINUOUS
 62
256
 10
-265.297984257500500
 20
-132.648561413196150
 11
-267.939219414556650
 21
-131.123643584276580
  0
LINE
  8
0
  6
CONTINUOUS
 62
256
 10
-250.461069685499300
 20
-141.214658035284400
 11
-253.071194203605050
 21
-139.707701942137650
  0
LINE
  8
0
  6
CONTINUOUS
 62
256
 10
-279.480148097929490
 20
-157.968830768335690
 11
-279.480148097929490
 21
-154.954918582042410
  0
LINE
  8
0
  6
CONTINUOUS
 62
256
 10
-257.862846309997620
 20
-136.941240308648500
 11
-260.481521765774690
 21
-135.429347329335310
  0
ARC
  8
0
  6
CONTINUOUS
 62
256
 10
-281.980148097929490
 20
-120.130358283310670
 40
8.499999999999904
 50
291.618272422157700
 51
308.381727577842750
  0
ARC
  8
0
  6
CONTINUOUS
 62
256
 10
-281.980148097929490
 20
-120.130358283310670
 40
13.499999999999963
 50
286.260204708310820
 51
313.739795291687760
  0
ARC
  8
0
  6
CONTINUOUS
 62
256
 10
-281.980148097929490
 20
-120.130358283310670
 40
17.000000000000046
 50
281.212271417650020
 51
318.787728582350210
  0
ARC
  8
0
  6
CONTINUOUS
 62
256
 10
-281.980148097929490
 20
-120.130358283310670
 40
22.000000000000131
 50
279.594068226861170
 51
320.405931773139120
  0
ARC
  8
0
  6
CONTINUOUS
 62
256
 10
-281.980148097929490
 20
-120.130358283310670
 40
25.499999999999932
 50
277.589542391858170
 51
322.410457608142050
  0
ARC
  8
0
  6
CONTINUOUS
 62
256
 10
-281.980148097929490
 20
-120.130358283310670
 40
34.000000000000071
 50
275.739170477266950
 51
324.260829522733050
  0
ARC
  8
0
  6
CONTINUOUS
 62
256
 10
-281.980148097929490
 20
-120.130358283310670
 40
30.500000000000135
 50
276.813854344181040
 51
323.186145655818850
  0
ARC
  8
0
  6
CONTINUOUS
 62
256
 10
-281.980148097929490
 20
-120.130358283310670
 40
38.999999999999986
 50
275.284732954534600
 51
324.715267045465230
  0
ARC
  8
0
  6
CONTINUOUS
 62
256
 10
-276.081618827540300
 20
-127.577327629720000
 40
0.999999999999885
 50
59.999999999996206
 51
128.381727577839710
  0
ARC
  8
0
  6
CONTINUOUS
 62
256
 10
-278.480148097929490
 20
-128.962119149638510
 40
1.000000000000090
 50
111.618272422161990
 51
180.000000000000000
  0
ARC
  8
0
  6
CONTINUOUS
 62
256
 10
-278.480148097929490
 20
-132.130358283310670
 40
1.000000000000000
 50
180.000000000000000
 51
286.260204708296900
  0
ARC
  8
0
  6
CONTINUOUS
 62
256
 10
-273.337843252516000
 20
-129.161447196556080
 40
0.999999999999858
 50
313.739795291671330
 51
59.999999999995389
  0
ARC
  8
0
  6
CONTINUOUS
 62
256
 10
-268.439219414556650
 20
-131.989668988061110
 40
1.000000000000082
 50
60.000000000002721
 51
138.787728582338080
  0
ARC
  8
0
  6
CONTINUOUS
 62
256
 10
-265.797984257500500
 20
-133.514586816980450
 40
1.000000000000318
 50
320.405931773139570
 51
59.999999999995502
  0
ARC
  8
0
  6
CONTINUOUS
 62
256
 10
-278.480148097929490
 20
-137.786801866320270
 40
0.999999999999982
 50
101.212271417644000
 51
180.000000000000000
  0
ARC
  8
0
  6
CONTINUOUS
 62
256
 10
-278.480148097929490
 20
-140.836637524159190
 40
1.000000000000000
 50
180.000000000000000
 51
279.594068226874700
  0
ARC
  8
0
  6
CONTINUOUS
 62
256
 10
-278.480148097929490
 20
-149.421995315064350
 40
1.000000000000000
 50
180.000000000000000
 51
276.813854344180240
  0
ARC
  8
0
  6
CONTINUOUS
 62
256
 10
-260.981521765774690
 20
-136.295372733119850
 40
1.000000000000082
 50
60.000000000002721
 51
142.410457608146830
  0
ARC
  8
0
  6
CONTINUOUS
 62
256
 10
-258.362846309997620
 20
-137.807265712432810
 40
0.999999999999911
 50
323.186145655802870
 51
59.999999999997016
  0
ARC
  8
0
  6
CONTINUOUS
 62
256
 10
-278.480148097929490
 20
-146.398209356437970
 40
0.999999999999975
 50
97.589542391854238
 51
180.000000000000000
  0
ARC
  8
0
  6
CONTINUOUS
 62
256
 10
-278.480148097929490
 20
-157.968830768335690
 40
1.000000000000000
 50
180.000000000000000
 51
275.284732954535800
  0
ARC
  8
0
  6
CONTINUOUS
 62
256
 10
-278.480148097929490
 20
-154.954918582042410
 40
0.999999999999973
 50
95.739170477261709
 51
180.000000000000000
  0
ARC
  8
0
  6
CONTINUOUS
 62
256
 10
-253.571194203605050
 20
-140.573727345921950
 40
0.999999999999885
 50
59.999999999996206
 51
144.260829522735750
  0
ARC
  8
0
  6
CONTINUOUS
 62
256
 10
-250.961069685499300
 20
-142.080683439068930
 40
0.999999999999776
 50
324.715267045465680
 51
60.000000000002437
  0
CIRCLE
  8
0
  6
CONTINUOUS
 62
256
 10
-281.980148097929490
 20
-120.130358283310670
 40
5.000000000000000
  0
ARC
  8
0
  6
CONTINUOUS
 62
256
 10
-247.461069685499300
 20
-136.018505612577660
 40
0.999999999999885
 50
239.999999999996160
 51
335.284732954543760
  0
LINE
  8
0
  6
CONTINUOUS
 62
256
 10
-247.961069685499300
 20
-136.884531016361960
 11
-250.571194203605050
 21
-135.377574923215430
  0
ARC
  8
0
  6
CONTINUOUS
 62
256
 10
-281.980148097929490
 20
-120.130358283310670
 40
39.000000000000220
 50
335.284732954534830
 51
24.715267045465190
  0
ARC
  8
0
  6
CONTINUOUS
 62
256
 10
-281.980148097929490
 20
-120.130358283310670
 40
34.000000000000014
 50
335.739170477266730
 51
24.260829522733218
  0
ARC
  8
0
  6
CONTINUOUS
 62
256
 10
-281.980148097929490
 20
-120.130358283310670
 40
25.500000000000085
 50
337.589542391857490
 51
22.410457608142028
  0
ARC
  8
0
  6
CONTINUOUS
 62
256
 10
-281.980148097929490
 20
-120.130358283310670
 40
30.499999999999947
 50
336.813854344181150
 51
23.186145655818844
  0
ARC
  8
0
  6
CONTINUOUS
 62
256
 10
-254.862846309997620
 20
-131.745087885941980
 40
1.000000000000082
 50
240.000000000002670
 51
336.813854344179730
  0
LINE
  8
0
  6
CONTINUOUS
 62
256
 10
-255.362846309997620
 20
-132.611113289726520
 11
-257.981521765775140
 21
-131.099220310413560
  0
ARC
  8
0
  6
CONTINUOUS
 62
256
 10
-281.980148097929490
 20
-120.130358283310670
 40
22.000000000000206
 50
339.594068226860770
 51
20.405931773139223
  0
ARC
  8
0
  6
CONTINUOUS
 62
256
 10
-250.071194203605050
 20
-134.511549519430900
 40
0.999999999999769
 50
155.739170477266270
 51
240.000000000003040
  0
ARC
  8
0
  6
CONTINUOUS
 62
256
 10
-257.481521765775140
 20
-130.233194906629020
 40
0.999999999999701
 50
157.589542391853970
 51
240.000000000001420
  0
ARC
  8
0
  6
CONTINUOUS
 62
256
 10
-262.297984257500050
 20
-127.452408990489400
 40
0.999999999999885
 50
239.999999999996160
 51
339.594068226861740
  0
ARC
  8
0
  6
CONTINUOUS
 62
256
 10
-281.980148097929490
 20
-120.130358283310670
 40
17.000000000000146
 50
341.212271417650070
 51
18.787728582350436
  0
LINE
  8
0
  6
CONTINUOUS
 62
256
 10
-262.797984257500050
 20
-128.318434394273710
 11
-265.439219414556650
 21
-126.793516565354120
  0
ARC
  8
0
  6
CONTINUOUS
 62
256
 10
-264.939219414556650
 20
-125.927491161569830
 40
0.999999999999646
 50
161.212271417644640
 51
239.999999999995770
  0
ARC
  8
0
  6
CONTINUOUS
 62
256
 10
-281.980148097929490
 20
-120.130358283310670
 40
13.500000000000130
 50
346.260204708311850
 51
13.739795291688171
  0
ARC
  8
0
  6
CONTINUOUS
 62
256
 10
-269.837843252516000
 20
-123.099269370065240
 40
0.999999999999885
 50
239.999999999996160
 51
346.260204708314010
  0
LINE
  8
0
  6
CONTINUOUS
 62
256
 10
-270.337843252516000
 20
-123.965294773849560
 11
-273.081618827540300
 21
-122.381175207013480
  0
ARC
  8
0
  6
CONTINUOUS
 62
256
 10
-269.837843252516000
 20
-117.161447196556080
 40
0.999999999999879
 50
13.739795291686027
 51
120.000000000003810
  0
ARC
  8
0
  6
CONTINUOUS
 62
256
 10
-281.980148097929490
 20
-120.130358283310670
 40
8.499999999999972
 50
351.618272422157820
 51
8.381727577842204
  0
ARC
  8
0
  6
CONTINUOUS
 62
256
 10
-272.581618827540300
 20
-121.515149803229160
 40
1.000000000000059
 50
171.618272422154460
 51
239.999999999995050
  0
ARC
  8
0
  6
CONTINUOUS
 62
256
 10
-262.297984257500050
 20
-112.808307576131920
 40
1.000000000000094
 50
20.405931773138683
 51
120.000000000004160
  0
LINE
  8
0
  6
CONTINUOUS
 62
256
 10
-262.797984257500050
 20
-111.942282172347630
 11
-265.439219414556650
 21
-113.467200001266970
  0
ARC
  8
0
  6
CONTINUOUS
 62
256
 10
-264.939219414556650
 20
-114.333225405051490
 40
1.000000000000082
 50
119.999999999997300
 51
198.787728582347000
  0
LINE
  8
0
  6
CONTINUOUS
 62
256
 10
-270.337843252516000
 20
-116.295421792771780
 11
-273.081618827540300
 21
-117.879541359607860
  0
ARC
  8
0
  6
CONTINUOUS
 62
256
 10
-272.581618827540300
 20
-118.745566763392380
 40
1.000000000000082
 50
119.999999999997300
 51
188.381727577833000
  0
ARC
  8
0
  6
CONTINUOUS
 62
256
 10
-250.071194203605050
 20
-105.749167047190210
 40
0.999999999999885
 50
120.000000000003810
 51
204.260829522745640
  0
LINE
  8
0
  6
CONTINUOUS
 62
256
 10
-247.961069685499300
 20
-103.376185550259150
 11
-250.571194203605050
 21
-104.883141643405910
  0
ARC
  8
0
  6
CONTINUOUS
 62
256
 10
-247.461069685499300
 20
-104.242210954043680
 40
1.000000000000249
 50
24.715267045455473
 51
119.999999999997440
  0
ARC
  8
0
  6
CONTINUOUS
 62
256
 10
-257.481521765775140
 20
-110.027521659992540
 40
1.000000000000082
 50
119.999999999997300
 51
202.410457608146120
  0
LINE
  8
0
  6
CONTINUOUS
 62
256
 10
-255.362846309997620
 20
-107.649603276894820
 11
-257.981521765775140
 21
-109.161496256208010
  0
ARC
  8
0
  6
CONTINUOUS
 62
256
 10
-254.862846309997620
 20
-108.515628680679360
 40
0.999999999999730
 50
23.186145655819846
 51
119.999999999997370
  0
ARC
  8
0
  6
CONTINUOUS
 62
256
 10
-281.980148097929490
 20
-120.130358283310670
 40
38.999999999999865
 50
35.284732954534789
 51
84.715267045465410
  0
ARC
  8
0
  6
CONTINUOUS
 62
256
 10
-281.980148097929490
 20
-120.130358283310670
 40
33.999999999999829
 50
35.739170477266640
 51
84.260829522733033
  0
ARC
  8
0
  6
CONTINUOUS
 62
256
 10
-281.980148097929490
 20
-120.130358283310670
 40
25.499999999999890
 50
37.589542391857954
 51
82.410457608141925
  0
ARC
  8
0
  6
CONTINUOUS
 62
256
 10
-281.980148097929490
 20
-120.130358283310670
 40
30.499999999999964
 50
36.813854344181067
 51
83.186145655818933
  0
ARC
  8
0
  6
CONTINUOUS
 62
256
 10
-281.980148097929490
 20
-120.130358283310670
 40
22.000000000000025
 50
39.594068226860820
 51
80.405931773138747
  0
ARC
  8
0
  6
CONTINUOUS
 62
256
 10
-281.980148097929490
 20
-120.130358283310670
 40
17.000000000000114
 50
41.212271417649752
 51
78.787728582350027
  0
ARC
  8
0
  6
CONTINUOUS
 62
256
 10
-281.980148097929490
 20
-120.130358283310670
 40
13.499999999999927
 50
46.260204708312138
 51
73.739795291689092
  0
ARC
  8
0
  6
CONTINUOUS
 62
256
 10
-278.480148097929490
 20
-108.130358283310670
 40
0.999999999999964
 50
73.739795291702634
 51
180.000000000000000
  0
LINE
  8
0
  6
CONTINUOUS
 62
256
 10
-279.480148097929490
 20
-108.130358283310670
 11
-279.480148097929490
 21
-111.298597416982830
  0
ARC
  8
0
  6
CONTINUOUS
 62
256
 10
-273.337843252516000
 20
-111.099269370065240
 40
0.999999999999885
 50
300.000000000003810
 51
46.260204708329255
  0
ARC
  8
0
  6
CONTINUOUS
 62
256
 10
-281.980148097929490
 20
-120.130358283310670
 40
8.500000000000128
 50
51.618272422158320
 51
68.381727577842469
  0
ARC
  8
0
  6
CONTINUOUS
 62
256
 10
-278.480148097929490
 20
-111.298597416982830
 40
1.000000000000000
 50
180.000000000000000
 51
248.381727577839200
  0
ARC
  8
0
  6
CONTINUOUS
 62
256
 10
-265.797984257500500
 20
-106.746129749640640
 40
1.000000000000082
 50
299.999999999997270
 51
39.594068226849963
  0
LINE
  8
0
  6
CONTINUOUS
 62
256
 10
-265.297984257500500
 20
-107.612155153425190
 11
-267.939219414556650
 21
-109.137072982344760
  0
ARC
  8
0
  6
CONTINUOUS
 62
256
 10
-268.439219414556650
 20
-108.271047578560460
 40
0.999999999999673
 50
221.212271417651180
 51
300.000000000003410
  0
LINE
  8
0
  6
CONTINUOUS
 62
256
 10
-272.837843252516000
 20
-111.965294773849560
 11
-275.581618827540300
 21
-113.549414340685640
  0
ARC
  8
0
  6
CONTINUOUS
 62
256
 10
-276.081618827540300
 20
-112.683388936901110
 40
0.999999999999961
 50
231.618272422159780
 51
299.999999999997330
  0
ARC
  8
0
  6
CONTINUOUS
 62
256
 10
-253.571194203605050
 20
-99.686989220699388
 40
0.999999999999940
 50
215.739170477274090
 51
300.000000000003980
  0
LINE
  8
0
  6
CONTINUOUS
 62
256
 10
-250.461069685499300
 20
-99.046058531336939
 11
-253.071194203605050
 21
-100.553014624483690
  0
ARC
  8
0
  6
CONTINUOUS
 62
256
 10
-250.961069685499300
 20
-98.180033127552633
 40
0.999999999999885
 50
300.000000000003810
 51
35.284732954545220
  0
ARC
  8
0
  6
CONTINUOUS
 62
256
 10
-260.981521765775140
 20
-103.965343833501490
 40
0.999999999999834
 50
217.589542391867670
 51
299.999999999997730
  0
LINE
  8
0
  6
CONTINUOUS
 62
256
 10
-257.862846309997620
 20
-103.319476257972820
 11
-260.481521765775140
 21
-104.831369237286030
  0
ARC
  8
0
  6
CONTINUOUS
 62
256
 10
-258.362846309997620
 20
-102.453450854188300
 40
1.000000000000082
 50
299.999999999997270
 51
36.813854344187355
  0
ARC
  8
0
  6
CONTINUOUS
 62
256
 10
-278.480148097929490
 20
-82.291885798285648
 40
1.000000000000042
 50
84.715267045464316
 51
180.000000000000000
  0
LINE
  8
0
  6
CONTINUOUS
 62
256
 10
-279.480148097929490
 20
-82.291885798285648
 11
-279.480148097929490
 21
-85.305797984578930
  0
ARC
  8
0
  6
CONTINUOUS
 62
256
 10
-278.480148097929490
 20
-85.305797984578930
 40
1.000000000000000
 50
180.000000000000000
 51
264.260829522738450
  0
ARC
  8
0
  6
CONTINUOUS
 62
256
 10
-278.480148097929490
 20
-90.838721251556990
 40
1.000000000000077
 50
83.186145655820326
 51
180.000000000000000
  0
LINE
  8
0
  6
CONTINUOUS
 62
256
 10
-279.480148097929490
 20
-90.838721251556990
 11
-279.480148097929490
 21
-93.862507210183139
  0
ARC
  8
0
  6
CONTINUOUS
 62
256
 10
-278.480148097929490
 20
-93.862507210183367
 40
1.000000000000000
 50
179.999999999986980
 51
262.410457608142620
  0
ARC
  8
0
  6
CONTINUOUS
 62
256
 10
-278.480148097929490
 20
-99.424079042462154
 40
1.000000000000268
 50
80.405931773124522
 51
180.000000000000000
  0
LINE
  8
0
  6
CONTINUOUS
 62
256
 10
-279.480148097929490
 20
-99.424079042462154
 11
-279.480148097929490
 21
-102.473914700301070
  0
ARC
  8
0
  6
CONTINUOUS
 62
256
 10
-278.480148097929490
 20
-102.473914700301070
 40
1.000000000000000
 50
180.000000000000000
 51
258.787728582356180
  0
LINE
  8
0
  6
CONTINUOUS
 62
256
 10
-333.536615028519460
 20
-77.500201959852802
 11
-326.077919853848470
 21
-70.041506785181127
  0
LINE
  8
0
  6
CONTINUOUS
 62
256
 10
-333.536615028519460
 20
-162.760514606768540
 11
-326.077919853848470
 21
-170.219209781440210
  0
LINE
  8
0
  6
CONTINUOUS
 62
256
 10
-230.423681167339510
 20
-162.760514606768540
 11
-237.882376342010500
 21
-170.219209781440210
  0
LINE
  8
0
  6
CONTINUOUS
 62
256
 10
-230.423681167339510
 20
-77.500201959852802
 11
-237.882376342010500
 21
-70.041506785181127
  0
LINE
  8
0
  6
CONTINUOUS
 62
256
 10
-224.480148097929490
 20
-151.630358283310670
 11
-224.480148097929490
 21
-150.118344137740910
  0
LINE
  8
0
  6
CONTINUOUS
 62
256
 10
-224.480148097929490
 20
-90.137859221048529
 11
-224.480148097929490
 21
-88.630358283310670
  0
LINE
  8
0
  6
CONTINUOUS
 62
256
 10
-224.678699038028300
 20
-88.630358283310670
 11
-224.480148097929490
 21
-88.630358283310670
  0
LINE
  8
0
  6
CONTINUOUS
 62
256
 10
-224.678699038028300
 20
-151.630358283310670
 11
-224.480148097929490
 21
-151.630358283310670
  0
ARC
  8
0
  6
CONTINUOUS
 62
256
 10
-318.970215336075850
 20
-92.066601652295049
 40
20.600000000000069
 50
135.000000000002700
 51
174.247717268463480
  0
ARC
  8
0
  6
CONTINUOUS
 62
256
 10
-318.970215336075850
 20
-148.194114914326290
 40
20.599999999999916
 50
185.752282731536470
 51
224.999999999997300
  0
ARC
  8
0
  6
CONTINUOUS
 62
256
 10
-244.990080859783120
 20
-148.194114914326290
 40
20.600000000000069
 50
315.000000000002670
 51
354.247717268463480
  0
ARC
  8
0
  6
CONTINUOUS
 62
256
 10
-244.990080859783120
 20
-92.066601652295049
 40
20.599999999999916
 50
5.752282731536487
 51
44.999999999997314
  0
ARC
  8
0
  6
CONTINUOUS
 62
256
 10
-244.990080859783120
 20
-92.066601652295049
 40
10.797000000000011
 50
5.752282731536912
 51
44.999999999998295
  0
INSERT
  8
0
  2
ZU_SYM_1
 10
-363.424970304272850
 20
-161.049314894571130
 50
357.137594773886350
  0
LINE
  8
0
  6
DASHDOT
 62
256
 10
-265.442952732439150
 20
-102.130358283310670
 11
-298.848332408437270
 21
-102.130358283310670
  0
LINE
  8
0
  6
CONTINUOUS
 62
256
 10
-312.230148097929490
 20
-179.130358283310670
 11
-312.230148097929490
 21
-176.630358283310730
  0
ARC
  8
0
  6
CONTINUOUS
 62
256
 10
-311.230148097929490
 20
-179.130358283310670
 40
1.000000000000000
 50
180.000000000000000
 51
270.000000000000000
  0
ARC
  8
0
  6
CONTINUOUS
 62
256
 10
-322.917838396906750
 20
-173.549120835075370
 40
1.000000000000073
 50
211.339195329083590
 51
330.462177926966770
  0
ARC
  8
0
  6
CONTINUOUS
 62
256
 10
-252.730148097929490
 20
-179.130358283310670
 40
1.000000000000000
 50
270.000000000000000
 51
0.000000000000000
  0
ARC
  8
0
  6
CONTINUOUS
 62
256
 10
-241.042457798952230
 20
-173.549120835075370
 40
1.000000000000014
 50
209.537822073033400
 51
328.660804670916090
  0
ARC
  8
0
  6
CONTINUOUS
 62
256
 10
-281.980148097929710
 20
-854.630358283310670
 40
799.999999999999890
 50
88.510141843146044
 51
90.000000000000000
  0
LINE
  8
0
  6
CONTINUOUS
 62
256
 10
-251.730148097929490
 20
-179.130358283310670
 11
-251.730148097929490
 21
-176.630358283310730
  0
ARC
  8
0
  6
CONTINUOUS
 62
256
 10
-255.230148097929490
 20
-56.423221201846957
 40
1.000000000000000
 50
0.000000000000000
 51
81.491323261727388
  0
LINE
  8
0
  6
CONTINUOUS
 62
256
 10
-254.230148097929490
 20
-56.423221201846957
 11
-254.230148097929490
 21
-64.130358283310727
  0
LINE
  8
0
  6
CONTINUOUS
 62
256
 10
-243.730148097929490
 20
-60.040423352667005
 11
-243.730148097929490
 21
-64.130358283310727
  0
ARC
  8
0
  6
CONTINUOUS
 62
256
 10
-242.730148097929490
 20
-60.040423352667005
 40
1.000000000000052
 50
66.230309577334467
 51
180.000000000000000
  0
ARC
  8
0
  6
CONTINUOUS
 62
256
 10
-321.230148097929490
 20
-60.040423352667005
 40
1.000000000000000
 50
0.000000000000000
 51
113.769690422666680
  0
ARC
  8
0
  6
CONTINUOUS
 62
256
 10
-308.730148097929490
 20
-56.423221201846957
 40
1.000000000000005
 50
98.508676738272570
 51
180.000000000000000
  0
LINE
  8
0
  6
CONTINUOUS
 62
256
 10
-320.230148097929490
 20
-60.040423352667005
 11
-320.230148097929490
 21
-64.130358283310727
  0
LINE
  8
0
  6
CONTINUOUS
 62
256
 10
-309.730148097929490
 20
-56.423221201846957
 11
-309.730148097929490
 21
-64.130358283310727
  0
ARC
  8
0
  6
CONTINUOUS
 62
256
 10
-242.480148097929490
 20
-179.130358283310670
 40
2.000000000000000
 50
270.000000000000000
 51
0.000000000000000
  0
ARC
  8
0
  6
CONTINUOUS
 62
256
 10
-246.480148097929490
 20
-176.130358283310670
 40
7.000000000000012
 50
214.849904579046410
 51
225.584691402807270
  0
ARC
  8
0
  6
CONTINUOUS
 62
256
 10
-317.480148097929490
 20
-176.130358283310730
 40
6.999999999999971
 50
314.415308597192730
 51
325.150095420953510
  0
ARC
  8
0
  6
CONTINUOUS
 62
256
 10
-321.480148097929490
 20
-179.130358283310730
 40
2.000000000000000
 50
180.000000000000000
 51
270.000000000000000
  0
ARC
  8
0
  6
CONTINUOUS
 62
256
 10
-281.980148097929490
 20
-854.630358283310670
 40
800.000000000000000
 50
90.000000000000000
 51
91.489858156853941
  0
ARC
  8
0
  6
CONTINUOUS
 62
256
 10
-325.480148097929490
 20
-175.109431379821270
 40
2.000000000000000
 50
0.000000000000000
 51
57.246536473974864
  0
ARC
  8
0
  6
CONTINUOUS
 62
256
 10
-238.480148097929490
 20
-175.109431379821220
 40
1.999999999999969
 50
122.753463526025580
 51
180.000000000000000
  0
LINE
  8
0
  6
CONTINUOUS
 62
256
 10
-323.480148097929490
 20
-179.130358283310730
 11
-323.480148097929490
 21
-175.109431379821270
  0
LINE
  8
0
  6
CONTINUOUS
 62
256
 10
-281.980148097929490
 20
-180.130358283310670
 11
-311.735585451391440
 21
-180.130358283310730
  0
LINE
  8
0
  6
CONTINUOUS
 62
256
 10
-281.980148097929490
 20
-180.130358283310670
 11
-252.224710744467530
 21
-180.130358283310670
  0
LINE
  8
0
  6
CONTINUOUS
 62
256
 10
-240.480148097929490
 20
-179.130358283310670
 11
-240.480148097929490
 21
-175.109431379821220
  0
LINE
  8
0
  6
DASHDOT
 62
256
 10
-281.980148097929490
 20
-120.130358283310670
 11
-281.980148097929490
 21
-102.130358283310670
  0
ARC
  8
0
  6
CONTINUOUS
 62
256
 10
-339.291948975966530
 20
-50.491596102993242
 40
2.000000000000177
 50
44.999999999995396
 51
134.999999999995990
  0
ARC
  8
0
  6
CONTINUOUS
 62
256
 10
-333.635094726474110
 20
-44.834741853500873
 40
1.999999999999855
 50
134.999999999995400
 51
225.000000000004600
  0
ARC
  8
0
  6
CONTINUOUS
 62
256
 10
-224.668347219892440
 20
-50.491596102993299
 40
2.000000000000177
 50
44.999999999995396
 51
134.999999999995400
  0
ARC
  8
0
  6
CONTINUOUS
 62
256
 10
-230.325201469384870
 20
-44.834741853500873
 40
2.000000000000177
 50
315.000000000004600
 51
44.999999999995396
  0
ARC
  8
0
  6
CONTINUOUS
 62
256
 10
-285.980148097929490
 20
-36.639085815774763
 40
2.000000000000000
 50
0.000000000000000
 51
90.000000000000000
  0
ARC
  8
0
  6
CONTINUOUS
 62
256
 10
-277.980148097929490
 20
-36.639085815774763
 40
2.000000000000000
 50
90.000000000000000
 51
180.000000000000000
  0
ARC
  8
0
  6
CONTINUOUS
 62
256
 10
-277.980148097929490
 20
-52.650259273421852
 40
2.000000000000000
 50
180.000000000000000
 51
269.429883333265310
  0
ARC
  8
0
  6
CONTINUOUS
 62
256
 10
-285.980148097929490
 20
-52.650259273421852
 40
2.000000000000030
 50
270.570116666734690
 51
0.000000000000000
  0
ARC
  8
0
  6
CONTINUOUS
 62
256
 10
-326.480148097929490
 20
-177.630358283310670
 40
3.000000000000000
 50
0.000000000000000
 51
90.000000000000000
  0
ARC
  8
0
  6
CONTINUOUS
 62
256
 10
-321.480148097929490
 20
-179.130358283310670
 40
2.000000000000000
 50
180.000000000000000
 51
270.000000000000000
  0
ARC
  8
0
  6
CONTINUOUS
 62
256
 10
-325.480148097929490
 20
-175.109431379821220
 40
2.000000000000000
 50
0.000000000000000
 51
57.246536473968995
  0
ARC
  8
0
  6
CONTINUOUS
 62
256
 10
-321.480148097929490
 20
-179.130358283310670
 40
2.000000000000000
 50
180.000000000000000
 51
270.000000000000000
  0
ARC
  8
0
  6
DASHDOT
 62
256
 10
-281.980148097929490
 20
-102.130358283310670
 40
89.999999999999773
 50
219.906632329724350
 51
230.093367670273240
  0
CIRCLE
  8
0
  6
CONTINUOUS
 62
256
 10
-345.619758404719050
 20
-165.769968590099670
 40
5.000000000000000
  0
ARC
  8
0
  6
CONTINUOUS
 62
256
 10
-345.980148097929490
 20
-166.130358283310670
 40
8.500000000000000
 50
180.000000000000000
 51
270.000000000000000
  0
ARC
  8
0
  6
CONTINUOUS
 62
256
 10
-237.480148097929490
 20
-177.630358283310670
 40
3.000000000000000
 50
90.000000000000000
 51
180.000000000000000
  0
ARC
  8
0
  6
CONTINUOUS
 62
256
 10
-242.480148097929490
 20
-179.130358283310670
 40
2.000000000000000
 50
270.000000000000000
 51
0.000000000000000
  0
ARC
  8
0
  6
CONTINUOUS
 62
256
 10
-242.480148097929490
 20
-179.130358283310670
 40
2.000000000000000
 50
270.000000000000000
 51
0.000000000000000
  0
ARC
  8
0
  6
CONTINUOUS
 62
256
 10
-246.480148097929490
 20
-176.130358283310670
 40
6.999999999999825
 50
214.849904579047490
 51
225.584691402808570
  0
ARC
  8
0
  6
DASHDOT
 62
256
 10
-281.980148097929490
 20
-102.130358283310670
 40
90.000000000000128
 50
309.906632329726900
 51
320.093367670275820
  0
CIRCLE
  8
0
  6
CONTINUOUS
 62
256
 10
-218.340537791139920
 20
-165.769968590099670
 40
5.000000000000000
  0
ARC
  8
0
  6
CONTINUOUS
 62
256
 10
-217.980148097929490
 20
-166.130358283310670
 40
8.500000000000000
 50
270.000000000000000
 51
0.000000000000000
  0
CIRCLE
  8
0
  6
CONTINUOUS
 62
256
 10
-345.619758404719050
 20
-38.490747976521675
 40
5.000000000000000
  0
ARC
  8
0
  6
DASHDOT
 62
256
 10
-281.980148097929490
 20
-102.130358283310670
 40
89.999999999999829
 50
129.906632329726760
 51
140.093367670275650
  0
ARC
  8
0
  6
DASHDOT
 62
256
 10
-281.980148097929490
 20
-102.130358283310670
 40
90.000000000000128
 50
39.906632329724161
 51
50.093367670273018
  0
CIRCLE
  8
0
  6
CONTINUOUS
 62
256
 10
-218.340537791139920
 20
-38.490747976521675
 40
5.000000000000000
  0
ARC
  8
0
  6
CONTINUOUS
 62
256
 10
-345.980148097929490
 20
-38.130358283310670
 40
8.500000000000000
 50
90.000000000000000
 51
180.000000000000000
  0
ARC
  8
0
  6
CONTINUOUS
 62
256
 10
-217.980148097929490
 20
-38.130358283310670
 40
8.500000000000000
 50
0.000000000000000
 51
90.000000000000000
  0
ARC
  8
0
  6
CONTINUOUS
 62
256
 10
-317.480148097929490
 20
-176.130358283310670
 40
7.000000000000130
 50
314.415308597194040
 51
325.150095420954590
  0
LINE
  8
0
  6
CONTINUOUS
 62
256
 10
-327.419540801246970
 20
-59.535577152966368
 11
-337.877735413593200
 21
-49.077382540620135
  0
LINE
  8
0
  6
CONTINUOUS
 62
256
 10
-322.764116880996430
 20
-58.534146823724598
 11
-335.049308288846990
 21
-46.248955415873979
  0
LINE
  8
0
  6
CONTINUOUS
 62
256
 10
-236.540755394611550
 20
-59.535577152966368
 11
-226.082560782265320
 21
-49.077382540620192
  0
LINE
  8
0
  6
CONTINUOUS
 62
256
 10
-241.196179314862090
 20
-58.534146823724598
 11
-228.910987907011530
 21
-46.248955415873979
  0
LINE
  8
0
  6
CONTINUOUS
 62
256
 10
-323.480148097929490
 20
-179.130358283310670
 11
-323.480148097929490
 21
-177.630358283310670
  0
LINE
  8
0
  6
CONTINUOUS
 62
256
 10
-323.480148097929490
 20
-179.130358283310670
 11
-323.480148097929490
 21
-175.109431379821220
  0
LINE
  8
0
  6
DASHDOT
 62
256
 10
-339.962904155226620
 20
-160.113114340607240
 11
-351.276612654211480
 21
-171.426822839591980
  0
LINE
  8
0
  6
CONTINUOUS
 62
256
 10
-326.480148097929490
 20
-174.630358283310670
 11
-345.980148097929490
 21
-174.630358283310670
  0
LINE
  8
0
  6
CONTINUOUS
 62
256
 10
-240.480148097929490
 20
-179.130358283310670
 11
-240.480148097929490
 21
-177.630358283310670
  0
LINE
  8
0
  6
CONTINUOUS
 62
256
 10
-240.480148097929490
 20
-179.130358283310670
 11
-240.480148097929490
 21
-175.109431379821220
  0
LINE
  8
0
  6
DASHDOT
 62
256
 10
-223.997392040632350
 20
-160.113114340607240
 11
-212.683683541647500
 21
-171.426822839591980
  0
LINE
  8
0
  6
CONTINUOUS
 62
256
 10
-312.581168612362940
 20
-181.130358283310670
 11
-251.379127583495570
 21
-181.130358283310670
  0
LINE
  8
0
  6
CONTINUOUS
 62
256
 10
-237.480148097929490
 20
-174.630358283310670
 11
-217.980148097929490
 21
-174.630358283310670
  0
LINE
  8
0
  6
CONTINUOUS
 62
256
 10
-281.980148097929490
 20
-180.130358283310670
 11
-252.224710744467300
 21
-180.130358283310670
  0
LINE
  8
0
  6
DASHDOT
 62
256
 10
-339.962904155226620
 20
-44.147602226014101
 11
-351.276612654211480
 21
-32.833893727029363
  0
LINE
  8
0
  6
DASHDOT
 62
256
 10
-223.997392040632350
 20
-44.147602226014101
 11
-212.683683541647500
 21
-32.833893727029363
  0
LINE
  8
0
  6
CONTINUOUS
 62
256
 10
-217.980148097929490
 20
-29.630358283310670
 11
-345.980148097929490
 21
-29.630358283310670
  0
LINE
  8
0
  6
CONTINUOUS
 62
256
 10
-283.980148097929490
 20
-52.650259273421852
 11
-283.980148097929490
 21
-36.639085815774763
  0
LINE
  8
0
  6
CONTINUOUS
 62
256
 10
-279.980148097929490
 20
-52.650259273421852
 11
-279.980148097929490
 21
-36.639085815774763
  0
LINE
  8
0
  6
CONTINUOUS
 62
256
 10
-281.980148097929490
 20
-180.130358283310670
 11
-311.735585451391220
 21
-180.130358283310670
  0
ARC
  8
0
  6
CONTINUOUS
 62
256
 10
373.238906723122230
 20
-134.172858283310690
 40
20.799999999999915
 50
334.359929784105190
 51
5.724810452223412
  0
ARC
  8
0
  6
CONTINUOUS
 62
256
 10
373.238906723122230
 20
-134.172858283310690
 40
20.800000000000040
 50
279.916536608230560
 51
334.359929784105190
  0
ARC
  8
0
  6
CONTINUOUS
 62
256
 10
373.238906723122230
 20
-134.172858283310690
 40
20.799999999999915
 50
334.359929784105190
 51
5.724810452223412
  0
ARC
  8
0
  6
CONTINUOUS
 62
256
 10
371.238906723122230
 20
-94.172858283310688
 40
18.799999999999983
 50
100.598785266066060
 51
104.792497041401380
  0
ARC
  8
0
  6
CONTINUOUS
 62
256
 10
367.413152089035290
 20
-73.727721906172974
 40
1.999999999999958
 50
280.598785266065990
 51
2.862405226112642
  0
ARC
  8
0
  6
CONTINUOUS
 62
256
 10
373.006165186751100
 20
-73.448071251287161
 40
1.999999999999927
 50
182.862405226112710
 51
265.126025186159040
  0
ARC
  8
0
  6
CONTINUOUS
 62
256
 10
371.572359456738700
 20
-156.911869260240000
 40
1.999999999999927
 50
2.862405226112724
 51
85.808273843998279
  0
LINE
  8
0
  6
CONTINUOUS
 62
256
 10
369.740778214805460
 20
-64.210288116975448
 11
374.834415143082420
 21
-166.083026682515540
  0
ARC
  8
0
  6
CONTINUOUS
 62
256
 10
377.165372554454510
 20
-156.632218605354180
 40
1.999999999999995
 50
99.916536608232732
 51
182.862405226112630
  0
LINE
  8
0
  6
CONTINUOUS
 62
256
 10
393.935166074743170
 20
-132.098045315729680
 11
389.945141137087150
 21
-92.297546562612411
  0
ARC
  8
0
  6
CONTINUOUS
 62
256
 10
371.238906723122230
 20
-94.172858283310688
 40
18.799999999999933
 50
35.808626813495742
 51
85.126025186157236
  0
ARC
  8
0
  6
CONTINUOUS
 62
256
 10
371.238906723122230
 20
-94.172858283310688
 40
18.799999999999837
 50
5.724810452223617
 51
35.808626813495707
  0
LINE
  8
0
  6
CONTINUOUS
 62
256
 10
370.539780085907750
 20
-64.170338023420300
 11
368.941776343703170
 21
-64.250238210530483
  0
ARC
  8
0
  6
CONTINUOUS
 62
256
 10
364.397453582802200
 20
-69.483700447200590
 40
8.999999999999949
 50
346.260856815786500
 51
19.463936333592169
  0
POINT
  8
0
  6
CONTINUOUS
 62
256
 10
370.789468170626610
 20
-69.164099717809336
  0
LINE
  8
0
  6
CONTINUOUS
 62
256
 10
370.614686511323040
 20
-65.668466531736954
 11
370.964249829930170
 21
-72.659732903881832
  0
LINE
  8
0
  6
CONTINUOUS
 62
256
 10
370.614686511323040
 20
-65.668466531736954
 11
370.964249829930170
 21
-72.659732903881832
  0
LINE
  8
0
  6
CONTINUOUS
 62
256
 10
370.964249829930170
 20
-72.659732903881832
 11
371.942053642437940
 21
-72.610842713256488
  0
LINE
  8
0
  6
CONTINUOUS
 62
256
 10
370.614686511323040
 20
-65.668466531736954
 11
371.592490323830590
 21
-65.619576341111610
  0
ARC
  8
0
  6
CONTINUOUS
 62
256
 10
371.877134778510250
 20
-71.312465434702858
 40
1.299999237060550
 50
272.862387240019760
 51
346.260856815788600
  0
ARC
  8
0
  6
CONTINUOUS
 62
256
 10
371.657409187758280
 20
-66.917953619665127
 40
1.299999237060645
 50
19.463936333587128
 51
92.862405909347800
  0
LINE
  8
0
  6
CONTINUOUS
 62
256
 10
370.539780085907750
 20
-64.170338023420300
 11
375.633417014184720
 21
-166.043076588960280
  0
LINE
  8
0
  6
CONTINUOUS
 62
256
 10
374.035413271980130
 20
-166.122976776071250
 11
375.633417014184720
 21
-166.043076588960280
  0
LINE
  8
0
  6
CONTINUOUS
 62
256
 10
368.941776343703170
 20
-64.250238210530483
 11
374.035413271980130
 21
-166.122976776071250
  0
INSERT
  8
0
  2
ZU_SYM_1
 10
375.383728929465630
 20
-161.049314894571130
 41
-1.000000000000000
 42
1.000000000000000
 43
1.000000000000000
 50
2.862405226113666
  0
ARC
  8
0
  6
CONTINUOUS
 62
256
 10
373.238906723122230
 20
-134.172858283310690
 40
20.800000000000036
 50
250.917875196397290
 51
265.808273843992540
  0
LINE
  8
0
  6
CONTINUOUS
 62
256
 10
61.772022015346735
 20
135.362827105727770
 11
61.772022015346735
 21
143.862825198379140
  0
LINE
  8
0
  6
CONTINUOUS
 62
256
 10
66.772022015346735
 20
143.862825198379140
 11
61.772022015346735
 21
143.862825198379140
  0
LINE
  8
0
  6
CONTINUOUS
 62
256
 10
66.772022015346735
 20
135.362827105727770
 11
61.772022015346735
 21
135.362827105727770
  0
LINE
  8
0
  6
CONTINUOUS
 62
256
 10
61.772022015346735
 20
77.862825198379142
 11
61.772022015346735
 21
69.362827105727774
  0
LINE
  8
0
  6
CONTINUOUS
 62
256
 10
66.772022015346735
 20
69.362827105727774
 11
61.772022015346735
 21
69.362827105727774
  0
LINE
  8
0
  6
CONTINUOUS
 62
256
 10
66.772022015346735
 20
77.862825198379142
 11
61.772022015346735
 21
77.862825198379142
  0
LINE
  8
0
  6
CONTINUOUS
 62
256
 10
66.772022015346735
 20
-121.380357329636350
 11
61.772022015346735
 21
-121.380357329636350
  0
LINE
  8
0
  6
CONTINUOUS
 62
256
 10
66.772022015346735
 20
-112.880359236984990
 11
61.772022015346735
 21
-112.880359236984990
  0
LINE
  8
0
  6
CONTINUOUS
 62
256
 10
61.772022015346735
 20
-121.380357329636350
 11
61.772022015346735
 21
-112.880359236984990
  0
TEXT
  8
0
  6
CONTINUOUS
 62
256
 10
-312.253906250000000
 20
51.708301544189453
 40
7.919999599456787
  1
ＳＣＡＬＥ１／１
 50
0.000002504478167
 41
0.984848598876354
  7
STANDARD1
  0
TEXT
  8
0
  6
CONTINUOUS
 62
256
 10
-312.253906250000000
 20
64.428298950195313
 40
7.919999599456787
  1
１／４０,１／５０
 50
0.000002504478167
 41
0.893116103600776
  7
STANDARD1
  0
TEXT
  8
0
  6
CONTINUOUS
 62
256
 10
-312.253906250000000
 20
77.148300170898438
 40
7.919999599456787
  1
０．２ｋＷ
 50
0.000002504478167
 41
0.984848598876354
  7
STANDARD1
  0
TEXT
  8
0
  6
CONTINUOUS
 62
256
 10
-312.253906250000000
 20
89.868301391601563
 40
7.919999599456787
  1
ＧＭ－ＳＦＳ
 50
0.000002504478167
 41
0.984848598876354
  7
STANDARD1
  0
TEXT
  8
0
  6
CONTINUOUS
 62
256
 10
-312.253906250000000
 20
102.588302612304690
 40
7.919999599456787
  1
三菱ギヤードモートル
 50
0.000002504478167
 41
0.984848598876354
  7
STANDARD1
  0
TEXT
  8
0
  6
CONTINUOUS
 62
256
 10
-312.253906250000000
 20
115.308303833007810
 40
7.919999599456787
  1
Ｓ１４４
 50
0.000002504478167
 41
0.984848598876354
  7
STANDARD1
  0
LINE
  8
0
  6
CONTINUOUS
 62
256
 10
-231.563434734198690
 20
-76.360448392993376
 11
-231.076631342493100
 21
-75.873645001287755
  0
LINE
  8
0
  6
CONTINUOUS
 62
256
 10
-238.210238207612430
 20
-69.713644919579664
 11
-237.723434815906810
 21
-69.226841527874043
  0
LINE
  8
0
  6
CONTINUOUS
 62
256
 10
-231.250296125229940
 20
-76.107901442143003
 11
-237.927395427702830
 21
-69.430802139670092
  0
LINE
  8
0
  6
CONTINUOUS
 62
256
 10
-231.563434734198690
 20
-76.360448392993376
 11
-238.210238207612430
 21
-69.713644919579664
  0
POINT
  8
0
  6
CONTINUOUS
 62
256
 10
-234.886836470905560
 20
-73.037046656286520
  0
ARC
  8
0
  6
CONTINUOUS
 62
256
 10
-237.149578035832600
 20
-75.299788221213561
 40
6.099999427795398
 50
354.601910595264880
 51
95.398072101890989
  0
LINE
  8
0
  6
CONTINUOUS
 62
256
 10
-231.563434734198690
 20
-163.900268173627720
 11
-231.076631342493100
 21
-164.387071565333340
  0
LINE
  8
0
  6
CONTINUOUS
 62
256
 10
-238.210238207612430
 20
-170.547071647041460
 11
-237.723434815906810
 21
-171.033875038747060
  0
LINE
  8
0
  6
CONTINUOUS
 62
256
 10
-231.250296125229940
 20
-164.152815124478110
 11
-237.927395427702830
 21
-170.829914426951040
  0
LINE
  8
0
  6
CONTINUOUS
 62
256
 10
-231.563434734198690
 20
-163.900268173627720
 11
-238.210238207612430
 21
-170.547071647041460
  0
POINT
  8
0
  6
CONTINUOUS
 62
256
 10
-234.886836470905560
 20
-167.223669910334590
  0
ARC
  8
0
  6
CONTINUOUS
 62
256
 10
-237.149578035832600
 20
-164.960928345407550
 40
6.099999427795400
 50
264.601927898109010
 51
5.398089404735109
  0
LINE
  8
0
  6
CONTINUOUS
 62
256
 10
-332.396861461660250
 20
-163.900268173627720
 11
-332.883664853365870
 21
-164.387071565333340
  0
LINE
  8
0
  6
CONTINUOUS
 62
256
 10
-325.750057988246570
 20
-170.547071647041460
 11
-326.236861379952190
 21
-171.033875038747060
  0
LINE
  8
0
  6
CONTINUOUS
 62
256
 10
-332.710000070629060
 20
-164.152815124478110
 11
-326.032900768156140
 21
-170.829914426951040
  0
LINE
  8
0
  6
CONTINUOUS
 62
256
 10
-332.396861461660250
 20
-163.900268173627720
 11
-325.750057988246570
 21
-170.547071647041460
  0
POINT
  8
0
  6
CONTINUOUS
 62
256
 10
-329.073459724953410
 20
-167.223669910334590
  0
ARC
  8
0
  6
CONTINUOUS
 62
256
 10
-326.810718160026400
 20
-164.960928345407550
 40
6.099999427795398
 50
174.601910595264910
 51
275.398072101891500
  0
LINE
  8
0
  6
CONTINUOUS
 62
256
 10
-332.396861461660250
 20
-76.360448392993376
 11
-332.883664853365870
 21
-75.873645001287755
  0
LINE
  8
0
  6
CONTINUOUS
 62
256
 10
-325.750057988246570
 20
-69.713644919579664
 11
-326.236861379952190
 21
-69.226841527874043
  0
LINE
  8
0
  6
CONTINUOUS
 62
256
 10
-332.710000070629060
 20
-76.107901442143003
 11
-326.032900768156140
 21
-69.430802139670092
  0
LINE
  8
0
  6
CONTINUOUS
 62
256
 10
-332.396861461660250
 20
-76.360448392993376
 11
-325.750057988246570
 21
-69.713644919579664
  0
POINT
  8
0
  6
CONTINUOUS
 62
256
 10
-329.073459724953410
 20
-73.037046656286520
  0
ARC
  8
0
  6
CONTINUOUS
 62
256
 10
-326.810718160026400
 20
-75.299788221213561
 40
6.099999427795419
 50
84.601927898108499
 51
185.398089404735090
  0
CIRCLE
  8
0
  6
CONTINUOUS
 62
256
 10
293.938906723122270
 20
-102.130358283310670
 40
65.000000000000000
  0
ENDSEC
  0
EOF
