  0
SECTION
  2
HEADER
  9
$FILLMODE
 70
1
  9
$TEXTSTYLE
  7
STANDARD1
  9
$ACADVER
  1
AC1009
  9
$DIMASZ
 40
1.931851648807023
  9
$DIMEXE
 40
2.000000000000000
  9
$DIMEXO
 40
1.000000000000000
  9
$DIMLFAC
 40
1.000000000000000
  9
$DIMSCALE
 40
1.000000000000000
  9
$DIMTAD
 70
1
  9
$DIMTFAC
 40
0.714285731315613
  9
$DIMTXT
 40
2.799999952316284
  9
$LUPREC
 70
3
  9
$TEXTSIZE
 40
3.299999952316284
  9
$REGENMODE
 70
1
  0
ENDSEC
  0
SECTION
  2
TABLES
  0
TABLE
  2
LTYPE
 70
4
  0
LTYPE
  2
CONTINUOUS
 70
64
  3
Solid line
 72
65
 73
0
 40
0.0
  0
LTYPE
  2
DASHED
 70
64
  3
-- -- -- -- -- -- -- -- -- -- -- -- -- -- --
 72
65
 73
2
 40
0.75
 49
0.5
 49
-0.25
  0
LTYPE
  2
DASHDOT
 70
64
  3
__ . __ . __ . __ . __ . __ . __ . __ . __ . __
 72
65
 73
4
 40
1.0
 49
0.5
 49
-0.25
 49
0.0
 49
-0.25
  0
LTYPE
  2
DIVIDE
 70
64
  3
__ . . __ . . __ . . __ . . __ . . __ . . __
 72
65
 73
6
 40
1.25
 49
0.5
 49
-0.25
 49
0.0
 49
-0.25
 49
0.0
 49
-0.25
  0
ENDTAB
  0
TABLE
  2
LAYER
 70
1
  0
LAYER
  2
0
 70
64
 62
2
  6
CONTINUOUS
  0
ENDTAB
  0
TABLE
  2
STYLE
 70
4
  0
STYLE
  2
STANDARD1
 70
64
 40
0.0
 41
1.0
 50
0.0
 71
0
 42
3.299999952316284
  3
MONOTXT
  4
BIGFONT
  0
STYLE
  2
STANDARD2
 70
68
 40
0.0
 41
1.0
 50
0.0
 71
0
 42
3.299999952316284
  3
MONOTXT
  4
BIGFONT
  0
STYLE
  2
STANDARD3
 70
64
 40
0.0
 41
1.0
 50
0.0
 71
0
 42
3.299999952316284
  3
MONOTXT
  4

  0
STYLE
  2
STANDARD4
 70
68
 40
0.0
 41
1.0
 50
0.0
 71
0
 42
3.299999952316284
  3
MONOTXT
  4

  0
ENDTAB
  0
TABLE
  2
VIEW
 70
0
  0
ENDTAB
  0
ENDSEC
  0
SECTION
  2
BLOCKS
  0
BLOCK
  8
0
  2
SYM1
 70
64
 10
0.000000000000000
 20
0.000000000000000
  0
ARC
  8
0
  6
CONTINUOUS
 62
3
 10
-0.979025304317474
 20
-2.200000762939453
 40
1.299999237060547
 50
196.601531107481040
 51
270.000000000000000
  0
ARC
  8
0
  6
CONTINUOUS
 62
3
 10
-0.979025304317474
 20
2.200000762939453
 40
1.299999237060547
 50
90.000000000000000
 51
163.398451589674950
  0
LINE
  8
0
  6
CONTINUOUS
 62
3
 10
-0.000000000000000
 20
-3.500000000000000
 11
-0.979025304317474
 21
-3.500000000000000
  0
LINE
  8
0
  6
CONTINUOUS
 62
3
 10
0.000000000000000
 20
3.500000000000000
 11
-0.979025304317474
 21
3.500000000000000
  0
LINE
  8
0
  6
CONTINUOUS
 62
3
 10
0.000000000000000
 20
-3.500000000000000
 11
-0.000000000000000
 21
3.500000000000000
  0
LINE
  8
0
  6
CONTINUOUS
 62
3
 10
0.000000000000000
 20
-3.500000000000000
 11
-0.000000000000000
 21
3.500000000000000
  0
POINT
  8
0
  6
CONTINUOUS
 62
3
 10
0.000000000000000
 20
0.000000000000000
  0
ARC
  8
0
  6
CONTINUOUS
 62
3
 10
6.399999618530273
 20
0.000000000000000
 40
9.000000000000000
 50
163.398451589674950
 51
196.601531107481040
  0
ENDBLK
  8
0
  0
BLOCK
  8
0
  2
SYM2
 70
64
 10
0.000000000000000
 20
0.000000000000000
  0
ARC
  8
0
  6
CONTINUOUS
 62
3
 10
-0.979025304317474
 20
-2.200000762939453
 40
1.299999237060547
 50
196.601531107481040
 51
270.000000000000000
  0
ARC
  8
0
  6
CONTINUOUS
 62
3
 10
-0.979025304317474
 20
2.200000762939453
 40
1.299999237060547
 50
90.000000000000000
 51
163.398451589674950
  0
LINE
  8
0
  6
CONTINUOUS
 62
3
 10
-0.000000000000000
 20
-3.500000000000000
 11
-0.979025304317474
 21
-3.500000000000000
  0
LINE
  8
0
  6
CONTINUOUS
 62
3
 10
0.000000000000000
 20
3.500000000000000
 11
-0.979025304317474
 21
3.500000000000000
  0
LINE
  8
0
  6
CONTINUOUS
 62
3
 10
0.000000000000000
 20
-3.500000000000000
 11
-0.000000000000000
 21
3.500000000000000
  0
LINE
  8
0
  6
CONTINUOUS
 62
3
 10
0.000000000000000
 20
-3.500000000000000
 11
-0.000000000000000
 21
3.500000000000000
  0
POINT
  8
0
  6
CONTINUOUS
 62
3
 10
0.000000000000000
 20
0.000000000000000
  0
ARC
  8
0
  6
CONTINUOUS
 62
3
 10
6.399999618530273
 20
0.000000000000000
 40
9.000000000000000
 50
163.398451589674950
 51
196.601531107481040
  0
ENDBLK
  8
0
  0
ENDSEC
  0
SECTION
  2
ENTITIES
  0
ARC
  8
0
  6
CONTINUOUS
 62
3
 10
-334.180462340217160
 20
-82.398148487574502
 40
6.099999427795419
 50
84.601927898108485
 51
185.398089404735120
  0
POINT
  8
0
  6
CONTINUOUS
 62
3
 10
-336.443203905144170
 20
-80.135406922647462
  0
LINE
  8
0
  6
CONTINUOUS
 62
3
 10
-339.766605641851020
 20
-83.458808659354318
 11
-333.119802168437330
 21
-76.812005185940606
  0
LINE
  8
0
  6
CONTINUOUS
 62
3
 10
-340.079744250819830
 20
-83.206261708503945
 11
-333.402644948346900
 21
-76.529162406031034
  0
LINE
  8
0
  6
CONTINUOUS
 62
3
 10
-333.119802168437330
 20
-76.812005185940606
 11
-333.606605560142950
 21
-76.325201794234985
  0
LINE
  8
0
  6
CONTINUOUS
 62
3
 10
-339.766605641851020
 20
-83.458808659354318
 11
-340.253409033556640
 21
-82.972005267648697
  0
ARC
  8
0
  6
CONTINUOUS
 62
3
 10
-334.180462340217160
 20
-172.059288611768490
 40
6.099999427795398
 50
174.601910595264880
 51
275.398072101891500
  0
POINT
  8
0
  6
CONTINUOUS
 62
3
 10
-336.443203905144170
 20
-174.322030176695530
  0
LINE
  8
0
  6
CONTINUOUS
 62
3
 10
-339.766605641851020
 20
-170.998628439988660
 11
-333.119802168437330
 21
-177.645431913402400
  0
LINE
  8
0
  6
CONTINUOUS
 62
3
 10
-340.079744250819830
 20
-171.251175390839050
 11
-333.402644948346900
 21
-177.928274693311980
  0
LINE
  8
0
  6
CONTINUOUS
 62
3
 10
-333.119802168437330
 20
-177.645431913402400
 11
-333.606605560142950
 21
-178.132235305108000
  0
LINE
  8
0
  6
CONTINUOUS
 62
3
 10
-339.766605641851020
 20
-170.998628439988660
 11
-340.253409033556640
 21
-171.485431831694290
  0
ARC
  8
0
  6
CONTINUOUS
 62
3
 10
-244.519322216023370
 20
-172.059288611768490
 40
6.099999427795399
 50
264.601927898109010
 51
5.398089404735109
  0
POINT
  8
0
  6
CONTINUOUS
 62
3
 10
-242.256580651096330
 20
-174.322030176695530
  0
LINE
  8
0
  6
CONTINUOUS
 62
3
 10
-238.933178914389460
 20
-170.998628439988660
 11
-245.579982387803200
 21
-177.645431913402400
  0
LINE
  8
0
  6
CONTINUOUS
 62
3
 10
-238.620040305420700
 20
-171.251175390839050
 11
-245.297139607893600
 21
-177.928274693311980
  0
LINE
  8
0
  6
CONTINUOUS
 62
3
 10
-245.579982387803200
 20
-177.645431913402400
 11
-245.093178996097580
 21
-178.132235305108000
  0
LINE
  8
0
  6
CONTINUOUS
 62
3
 10
-238.933178914389460
 20
-170.998628439988660
 11
-238.446375522683870
 21
-171.485431831694290
  0
ARC
  8
0
  6
CONTINUOUS
 62
3
 10
-244.519322216023370
 20
-82.398148487574502
 40
6.099999427795398
 50
354.601910595264880
 51
95.398072101890989
  0
POINT
  8
0
  6
CONTINUOUS
 62
3
 10
-242.256580651096330
 20
-80.135406922647462
  0
LINE
  8
0
  6
CONTINUOUS
 62
3
 10
-238.933178914389460
 20
-83.458808659354318
 11
-245.579982387803200
 21
-76.812005185940606
  0
LINE
  8
0
  6
CONTINUOUS
 62
3
 10
-238.620040305420700
 20
-83.206261708503945
 11
-245.297139607893600
 21
-76.529162406031034
  0
LINE
  8
0
  6
CONTINUOUS
 62
3
 10
-245.579982387803200
 20
-76.812005185940606
 11
-245.093178996097580
 21
-76.325201794234985
  0
LINE
  8
0
  6
CONTINUOUS
 62
3
 10
-238.933178914389460
 20
-83.458808659354318
 11
-238.446375522683870
 21
-82.972005267648697
  0
TEXT
  8
0
  6
CONTINUOUS
 62
3
 10
-320.493743896484380
 20
118.814262390136710
 40
7.919999599456787
  1
Ｓ１４５
 50
0.000002504478167
 41
0.984848598876354
  7
STANDARD1
  0
TEXT
  8
0
  6
CONTINUOUS
 62
3
 10
-320.493743896484380
 20
106.094261169433590
 40
7.919999599456787
  1
三菱ギヤードモートル
 50
0.000002504478167
 41
0.984848598876354
  7
STANDARD1
  0
TEXT
  8
0
  6
CONTINUOUS
 62
3
 10
-320.493743896484380
 20
93.374259948730469
 40
7.919999599456787
  1
ＧＭ－ＳＦＳ
 50
0.000002504478167
 41
0.984848598876354
  7
STANDARD1
  0
TEXT
  8
0
  6
CONTINUOUS
 62
3
 10
-320.493743896484380
 20
80.654258728027344
 40
7.919999599456787
  1
０．２ｋＷ
 50
0.000002504478167
 41
0.984848598876354
  7
STANDARD1
  0
TEXT
  8
0
  6
CONTINUOUS
 62
3
 10
-320.493743896484380
 20
67.934257507324219
 40
7.919999599456787
  1
１／６０～１／１００
 50
0.000002504478167
 41
0.984848598876354
  7
STANDARD1
  0
TEXT
  8
0
  6
CONTINUOUS
 62
3
 10
-320.493743896484380
 20
55.214256286621094
 40
7.919999599456787
  1
ＳＣＡＬＥ１／１
 50
0.000002504478167
 41
0.984848598876354
  7
STANDARD1
  0
LINE
  8
0
  6
CONTINUOUS
 62
3
 10
51.381951889404945
 20
-134.228718549671610
 11
51.381951889404945
 21
-124.228718549671610
  0
LINE
  8
0
  6
CONTINUOUS
 62
3
 10
57.381951889404945
 20
-124.228718549671610
 11
51.381951889404945
 21
-124.228718549671610
  0
LINE
  8
0
  6
CONTINUOUS
 62
3
 10
57.381951889404945
 20
-134.228718549671610
 11
51.381951889404945
 21
-134.228718549671610
  0
LINE
  8
0
  6
CONTINUOUS
 62
3
 10
57.381951889404945
 20
71.588664675651671
 11
51.381951889404945
 21
71.588664675651671
  0
LINE
  8
0
  6
CONTINUOUS
 62
3
 10
57.381951889404945
 20
81.588664675651671
 11
51.381951889404945
 21
81.588664675651671
  0
LINE
  8
0
  6
CONTINUOUS
 62
3
 10
51.381951889404945
 20
71.588664675651671
 11
51.381951889404945
 21
81.588664675651671
  0
LINE
  8
0
  6
CONTINUOUS
 62
3
 10
57.381951889404945
 20
149.588664675652580
 11
51.381951889404945
 21
149.588664675652580
  0
LINE
  8
0
  6
CONTINUOUS
 62
3
 10
57.381951889404945
 20
139.588664675652580
 11
51.381951889404945
 21
139.588664675652580
  0
LINE
  8
0
  6
CONTINUOUS
 62
3
 10
51.381951889404945
 20
149.588664675652580
 11
51.381951889404945
 21
139.588664675652580
  0
LINE
  8
0
  6
CONTINUOUS
 62
3
 10
-242.512495112531500
 20
-187.228718549671610
 11
-219.349892278120250
 21
-187.228718549671610
  0
LINE
  8
0
  6
CONTINUOUS
 62
3
 10
-359.349892278120250
 20
-187.228718549671610
 11
-336.058096210619400
 21
-187.228718549671610
  0
LINE
  8
0
  6
CONTINUOUS
 62
3
 10
-359.349892278120250
 20
-27.228718549671612
 11
-219.349892278120250
 21
-27.228718549671612
  0
LINE
  8
0
  6
CONTINUOUS
 62
3
 10
-289.349892278120250
 20
-190.228718549671610
 11
-322.735514000458580
 21
-190.228718549671610
  0
LINE
  8
0
  6
CONTINUOUS
 62
3
 10
-289.349892278120250
 20
-190.228718549671610
 11
-255.964270555781920
 21
-190.228718549671610
  0
LINE
  8
0
  6
CONTINUOUS
 62
3
 10
-287.349892278120250
 20
-38.237446082135762
 11
-287.349892278120250
 21
-59.248619539782794
  0
LINE
  8
0
  6
CONTINUOUS
 62
3
 10
-291.349892278120250
 20
-38.237446082135762
 11
-291.349892278120250
 21
-59.248619539782794
  0
LINE
  8
0
  6
CONTINUOUS
 62
3
 10
-348.029909563112820
 20
-51.377128389425138
 11
-334.174669566745930
 21
-65.232368385792199
  0
LINE
  8
0
  6
CONTINUOUS
 62
3
 10
-345.201482438366610
 20
-48.548701264678925
 11
-329.284202636932380
 21
-64.465981066113159
  0
LINE
  8
0
  6
CONTINUOUS
 62
3
 10
-233.498302117873890
 20
-48.548701264678925
 11
-249.415581919308120
 21
-64.465981066113159
  0
LINE
  8
0
  6
CONTINUOUS
 62
3
 10
-230.669874993127680
 20
-51.377128389425138
 11
-244.525114989494570
 21
-65.232368385792199
  0
CIRCLE
  8
0
  6
CONTINUOUS
 62
3
 10
-358.292803443808680
 20
-176.171629715360040
 40
5.000000000000000
  0
CIRCLE
  8
0
  6
CONTINUOUS
 62
3
 10
-358.292803443808680
 20
-38.285807383983183
 40
5.000000000000000
  0
CIRCLE
  8
0
  6
CONTINUOUS
 62
3
 10
-220.406981112431820
 20
-38.285807383983183
 40
5.000000000000000
  0
ARC
  8
0
  6
CONTINUOUS
 62
3
 10
-359.349892278120250
 20
-177.228718549671610
 40
10.000000000000000
 50
180.000000000000000
 51
270.000000000000000
  0
ARC
  8
0
  6
CONTINUOUS
 62
3
 10
-359.349892278120250
 20
-37.228718549671612
 40
10.000000000000000
 50
90.000000000000000
 51
180.000000000000000
  0
ARC
  8
0
  6
CONTINUOUS
 62
3
 10
-219.349892278120250
 20
-37.228718549671612
 40
10.000000000000000
 50
0.000000000000000
 51
90.000000000000000
  0
ARC
  8
0
  6
CONTINUOUS
 62
3
 10
-219.349892278120250
 20
-177.228718549671610
 40
10.000000000000000
 50
270.000000000000000
 51
0.000000000000000
  0
CIRCLE
  8
0
  6
CONTINUOUS
 62
3
 10
-220.406981112431820
 20
-176.171629715360040
 40
5.000000000000000
  0
ARC
  8
0
  6
CONTINUOUS
 62
3
 10
-285.349892278120250
 20
-59.248619539782794
 40
2.000000000000000
 50
180.000000000000000
 51
269.429883333265310
  0
ARC
  8
0
  6
CONTINUOUS
 62
3
 10
-293.349892278120250
 20
-59.248619539782794
 40
2.000000000000030
 50
270.570116666734690
 51
0.000000000000000
  0
ARC
  8
0
  6
CONTINUOUS
 62
3
 10
-343.787268875993500
 20
-47.134487702305819
 40
2.000000000000056
 50
134.999999999998830
 51
225.000000000000000
  0
ARC
  8
0
  6
CONTINUOUS
 62
3
 10
-349.444123125485930
 20
-52.791341951798188
 40
1.999999999999976
 50
44.999999999998856
 51
135.000000000000000
  0
ARC
  8
0
  6
CONTINUOUS
 62
3
 10
-335.588883129119040
 20
-66.646581948165306
 40
1.999999999999991
 50
299.668470645168160
 51
45.000000000000000
  0
ARC
  8
0
  6
CONTINUOUS
 62
3
 10
-327.869989074559500
 20
-63.051767503740109
 40
1.999999999999815
 50
225.000000000003470
 51
290.275851198862480
  0
ARC
  8
0
  6
CONTINUOUS
 62
3
 10
-234.912515680247000
 20
-47.134487702305819
 40
2.000000000000016
 50
315.000000000000000
 51
45.000000000001158
  0
ARC
  8
0
  6
CONTINUOUS
 62
3
 10
-250.829795481681000
 20
-63.051767503740109
 40
2.000000000000064
 50
249.724148801137520
 51
314.999999999996530
  0
ARC
  8
0
  6
CONTINUOUS
 62
3
 10
-243.110901427121460
 20
-66.646581948165306
 40
2.000000000000016
 50
135.000000000000000
 51
240.331529354831820
  0
ARC
  8
0
  6
CONTINUOUS
 62
3
 10
-229.255661430754570
 20
-52.791341951798188
 40
2.000000000000016
 50
45.000000000000000
 51
135.000000000001140
  0
ARC
  8
0
  6
CONTINUOUS
 62
3
 10
-285.349892278120250
 20
-38.237446082135762
 40
2.000000000000000
 50
90.000000000000000
 51
180.000000000000000
  0
ARC
  8
0
  6
CONTINUOUS
 62
3
 10
-293.349892278120250
 20
-38.237446082135762
 40
2.000000000000000
 50
0.000000000000000
 51
90.000000000000000
  0
ARC
  8
0
  6
CONTINUOUS
 62
3
 10
-329.349892278120250
 20
-185.728718549671730
 40
8.000000000000103
 50
316.567463442211480
 51
325.771133672188510
  0
ARC
  8
0
  6
CONTINUOUS
 62
3
 10
-249.349892278120250
 20
-185.728718549671730
 40
8.000000000000130
 50
214.228866327811460
 51
223.432536557788520
  0
ARC
  8
0
  6
CONTINUOUS
 62
3
 10
-249.349892278120250
 20
-185.728718549671730
 40
6.999999999999967
 50
308.213210701738600
 51
8.736046408089175
  0
ARC
  8
0
  6
CONTINUOUS
 62
3
 10
-329.349892278120250
 20
-185.728718549671730
 40
6.999999999999856
 50
171.263953591910850
 51
231.786789298261400
  0
LINE
  8
0
  6
CONTINUOUS
 62
3
 10
-289.349892278120020
 20
-190.228718549671610
 11
-323.000679728520030
 21
-190.228718549671610
  0
ARC
  8
0
  6
CONTINUOUS
 62
3
 10
-323.000679728520030
 20
-189.228718549671610
 40
1.000000000000049
 50
151.134272584994620
 51
270.000000000000000
  0
ARC
  8
0
  6
CONTINUOUS
 62
3
 10
-329.349892278120020
 20
-185.728718549671670
 40
6.249999999999792
 50
331.134272584992350
 51
147.533799814502430
  0
ARC
  8
0
  6
CONTINUOUS
 62
3
 10
-335.466777176025290
 20
-181.836904172574460
 40
0.999999999999817
 50
195.896808563643160
 51
327.533799814499730
  0
LINE
  8
0
  6
CONTINUOUS
 62
3
 10
-289.349892278120480
 20
-190.228718549671610
 11
-255.699104827720480
 21
-190.228718549671610
  0
ARC
  8
0
  6
CONTINUOUS
 62
3
 10
-255.699104827720480
 20
-189.228718549671610
 40
1.000000000000000
 50
270.000000000000000
 51
28.865727415011673
  0
ARC
  8
0
  6
CONTINUOUS
 62
3
 10
-249.349892278120480
 20
-185.728718549671670
 40
6.250000000000016
 50
32.466200185499126
 51
208.865727415006660
  0
ARC
  8
0
  6
CONTINUOUS
 62
3
 10
-243.233007380215210
 20
-181.836904172574410
 40
1.000000000000154
 50
212.466200185493310
 51
344.103191436353650
  0
ARC
  8
0
  6
CONTINUOUS
 62
3
 10
-249.349892278120480
 20
-185.728718549671730
 40
7.000000000000063
 50
308.213210701740310
 51
8.736046408088891
  0
ARC
  8
0
  6
CONTINUOUS
 62
3
 10
-268.548538795608010
 20
-149.374936568558950
 40
40.999999999999915
 50
313.090533982667180
 51
327.706333120354880
  0
ARC
  8
0
  6
CONTINUOUS
 62
3
 10
-236.500711405058840
 20
-183.754243710291060
 40
6.000000000000012
 50
132.989840483216540
 51
188.736046408088780
  0
ARC
  8
0
  6
CONTINUOUS
 62
3
 10
-249.349892278120480
 20
-185.728718549671670
 40
7.999999999999941
 50
214.228866327812370
 51
223.432536557789660
  0
ARC
  8
0
  6
CONTINUOUS
 62
3
 10
-329.349892278120020
 20
-185.728718549671670
 40
7.999999999999938
 50
316.567463442210340
 51
325.771133672187600
  0
ARC
  8
0
  6
CONTINUOUS
 62
3
 10
-329.349892278120020
 20
-185.728718549671730
 40
7.000000000000072
 50
171.263953591911560
 51
231.786789298259690
  0
ARC
  8
0
  6
CONTINUOUS
 62
3
 10
-342.199073151181660
 20
-183.754243710291060
 40
5.999999999999944
 50
351.263953591910710
 51
47.010159516783453
  0
ARC
  8
0
  6
CONTINUOUS
 62
3
 10
-310.151245760632260
 20
-149.374936568558950
 40
41.000000000000014
 50
212.293666879645140
 51
227.010159516783570
  0
LINE
  8
0
  6
CONTINUOUS
 62
3
 10
-317.099892278120020
 20
-71.228718549671612
 11
-317.099892278120020
 21
-63.229822957809176
  0
ARC
  8
0
  6
CONTINUOUS
 62
3
 10
-316.099892278120250
 20
-63.229822957809176
 40
0.999999999999975
 50
97.328097969880389
 51
180.000000000000000
  0
LINE
  8
0
  6
CONTINUOUS
 62
3
 10
-329.599892278120020
 20
-71.228718549671612
 11
-329.599892278120020
 21
-67.439981204903290
  0
ARC
  8
0
  6
CONTINUOUS
 62
3
 10
-330.599892278120020
 20
-67.439981204903290
 40
1.000000000000000
 50
0.000000000000000
 51
115.053819043268190
  0
ARC
  8
0
  6
CONTINUOUS
 62
3
 10
-248.099892278120480
 20
-67.439981204903290
 40
0.999999999999981
 50
64.946180956731823
 51
180.000000000000000
  0
ARC
  8
0
  6
CONTINUOUS
 62
3
 10
-262.599892278120250
 20
-63.229822957809176
 40
0.999999999999773
 50
0.000000000000000
 51
82.671902030119611
  0
LINE
  8
0
  6
CONTINUOUS
 62
3
 10
-261.599892278120480
 20
-71.228718549671612
 11
-261.599892278120480
 21
-63.229822957809176
  0
LINE
  8
0
  6
CONTINUOUS
 62
3
 10
-249.099892278120480
 20
-71.228718549671612
 11
-249.099892278120480
 21
-67.439981204903290
  0
ARC
  8
0
  6
CONTINUOUS
 62
3
 10
-289.349892278120020
 20
-461.228718549671610
 40
400.000000000000000
 50
90.000000000000000
 51
93.357817421570701
  0
ARC
  8
0
  6
CONTINUOUS
 62
3
 10
-289.349892278120480
 20
-461.228718549671610
 40
400.000000000000170
 50
86.642182578429299
 51
90.000000000000000
  0
ARC
  8
0
  6
DASHDOT
 62
4
 10
-289.349892278120250
 20
-107.228718549671610
 40
97.500000000000043
 50
219.218915597777030
 51
230.876812265942480
  0
LINE
  8
0
  6
DASHDOT
 62
4
 10
-351.587809297555740
 20
-169.466635569107100
 11
-365.636147851396690
 21
-183.514974122948050
  0
LINE
  8
0
  6
DASHDOT
 62
4
 10
-227.794247423326960
 20
-168.784363404464900
 11
-213.224780387136890
 21
-183.353830440654860
  0
ARC
  8
0
  6
DASHDOT
 62
4
 10
-289.349892278120250
 20
-107.228718549671610
 40
97.500000000000298
 50
309.123187734056780
 51
320.876812265942530
  0
LINE
  8
0
  6
DASHDOT
 62
4
 10
-350.179956238224800
 20
-46.398654589566945
 11
-365.605539082315890
 21
-30.973071745475977
  0
ARC
  8
0
  6
DASHDOT
 62
4
 10
-289.349892278120250
 20
-107.228718549671610
 40
97.500000000000298
 50
129.123187734056760
 51
140.876812265942500
  0
ARC
  8
0
  6
DASHDOT
 62
4
 10
-289.349892278120250
 20
-107.228718549671610
 40
97.500000000000043
 50
39.449964188079079
 51
50.876812265942476
  0
LINE
  8
0
  6
DASHDOT
 62
4
 10
-227.771885884352170
 20
-45.650712155903591
 11
-213.149239333456990
 21
-31.028065605008237
  0
LINE
  8
0
  6
DASHDOT
 62
4
 10
-306.850881199014110
 20
-107.228718549671610
 11
-272.001484603021940
 21
-107.228718549671610
  0
LINE
  8
0
  6
DASHDOT
 62
4
 10
-190.435814829216950
 20
-127.228718549671610
 11
-402.582256583929850
 21
-127.228718549671610
  0
INSERT
  8
0
  2
SYM1
 10
-370.794714484463610
 20
-168.147675160932070
 41
1.000000000000000
 42
1.000000000000000
 43
1.000000000000000
 50
357.137594773886350
  0
ARC
  8
0
  6
CONTINUOUS
 62
4
 10
-252.359825039973880
 20
-99.164961918655990
 40
10.797000000000011
 50
5.752282731536912
 51
44.999999999998295
  0
ARC
  8
0
  6
CONTINUOUS
 62
3
 10
-252.359825039973880
 20
-99.164961918655990
 40
20.599999999999916
 50
5.752282731536487
 51
44.999999999997321
  0
ARC
  8
0
  6
CONTINUOUS
 62
3
 10
-252.359825039973880
 20
-155.292475180687230
 40
20.600000000000069
 50
315.000000000002670
 51
354.247717268463480
  0
ARC
  8
0
  6
CONTINUOUS
 62
3
 10
-326.339959516266620
 20
-155.292475180687230
 40
20.599999999999916
 50
185.752282731536500
 51
224.999999999997330
  0
ARC
  8
0
  6
CONTINUOUS
 62
3
 10
-326.339959516266620
 20
-99.164961918655990
 40
20.600000000000069
 50
135.000000000002670
 51
174.247717268463500
  0
LINE
  8
0
  6
CONTINUOUS
 62
3
 10
-232.048443218219060
 20
-158.728718549671610
 11
-231.849892278120250
 21
-158.728718549671610
  0
LINE
  8
0
  6
CONTINUOUS
 62
3
 10
-232.048443218219060
 20
-95.728718549671612
 11
-231.849892278120250
 21
-95.728718549671612
  0
LINE
  8
0
  6
CONTINUOUS
 62
3
 10
-231.849892278120250
 20
-97.236219487409471
 11
-231.849892278120250
 21
-95.728718549671612
  0
LINE
  8
0
  6
CONTINUOUS
 62
3
 10
-231.849892278120250
 20
-158.728718549671610
 11
-231.849892278120250
 21
-157.216704404101850
  0
LINE
  8
0
  6
CONTINUOUS
 62
3
 10
-237.793425347530270
 20
-84.598562226213744
 11
-245.252120522201270
 21
-77.139867051542069
  0
LINE
  8
0
  6
CONTINUOUS
 62
3
 10
-237.793425347530270
 20
-169.858874873129480
 11
-245.252120522201270
 21
-177.317570047801150
  0
LINE
  8
0
  6
CONTINUOUS
 62
3
 10
-340.906359208710230
 20
-169.858874873129480
 11
-333.447664034039240
 21
-177.317570047801150
  0
LINE
  8
0
  6
CONTINUOUS
 62
3
 10
-340.906359208710230
 20
-84.598562226213744
 11
-333.447664034039240
 21
-77.139867051542069
  0
ARC
  8
0
  6
CONTINUOUS
 62
3
 10
-285.849892278120250
 20
-109.572274966662000
 40
1.000000000000000
 50
180.000000000000000
 51
258.787728582356010
  0
LINE
  8
0
  6
CONTINUOUS
 62
3
 10
-286.849892278120250
 20
-106.522439308823090
 11
-286.849892278120250
 21
-109.572274966662000
  0
ARC
  8
0
  6
CONTINUOUS
 62
3
 10
-285.849892278120250
 20
-106.522439308823090
 40
1.000000000000268
 50
80.405931773124522
 51
180.000000000000000
  0
ARC
  8
0
  6
CONTINUOUS
 62
3
 10
-285.849892278120250
 20
-100.960867476544300
 40
1.000000000000000
 50
179.999999999986980
 51
262.410457608144040
  0
LINE
  8
0
  6
CONTINUOUS
 62
3
 10
-286.849892278120250
 20
-97.937081517917932
 11
-286.849892278120250
 21
-100.960867476544080
  0
ARC
  8
0
  6
CONTINUOUS
 62
3
 10
-285.849892278120250
 20
-97.937081517917932
 40
1.000000000000077
 50
83.186145655820312
 51
180.000000000000000
  0
ARC
  8
0
  6
CONTINUOUS
 62
3
 10
-285.849892278120250
 20
-92.404158250939872
 40
1.000000000000000
 50
180.000000000000000
 51
264.260829522738280
  0
LINE
  8
0
  6
CONTINUOUS
 62
3
 10
-286.849892278120250
 20
-89.390246064646590
 11
-286.849892278120250
 21
-92.404158250939872
  0
ARC
  8
0
  6
CONTINUOUS
 62
3
 10
-285.849892278120250
 20
-89.390246064646590
 40
1.000000000000042
 50
84.715267045464302
 51
180.000000000000000
  0
ARC
  8
0
  6
CONTINUOUS
 62
3
 10
-265.732590490188390
 20
-109.551811120549240
 40
1.000000000000082
 50
299.999999999997270
 51
36.813854344186687
  0
LINE
  8
0
  6
CONTINUOUS
 62
3
 10
-265.232590490188390
 20
-110.417836524333770
 11
-267.851265945965910
 21
-111.929729503646960
  0
ARC
  8
0
  6
CONTINUOUS
 62
3
 10
-268.351265945965910
 20
-111.063704099862430
 40
0.999999999999834
 50
217.589542391867670
 51
299.999999999997270
  0
ARC
  8
0
  6
CONTINUOUS
 62
3
 10
-258.330813865690060
 20
-105.278393393913570
 40
0.999999999999885
 50
300.000000000003810
 51
35.284732954544943
  0
LINE
  8
0
  6
CONTINUOUS
 62
3
 10
-257.830813865690060
 20
-106.144418797697880
 11
-260.440938383795810
 21
-107.651374890844630
  0
ARC
  8
0
  6
CONTINUOUS
 62
3
 10
-260.940938383795810
 20
-106.785349487060330
 40
0.999999999999940
 50
215.739170477274090
 51
300.000000000003810
  0
ARC
  8
0
  6
CONTINUOUS
 62
3
 10
-283.451363007731060
 20
-119.781749203262050
 40
0.999999999999961
 50
231.618272422159780
 51
299.999999999997270
  0
LINE
  8
0
  6
CONTINUOUS
 62
3
 10
-280.207587432706760
 20
-119.063655040210500
 11
-282.951363007731060
 21
-120.647774607046580
  0
ARC
  8
0
  6
CONTINUOUS
 62
3
 10
-275.808963594747410
 20
-115.369407844921390
 40
0.999999999999673
 50
221.212271417651210
 51
300.000000000003810
  0
LINE
  8
0
  6
CONTINUOUS
 62
3
 10
-272.667728437691270
 20
-114.710515419786130
 11
-275.308963594747410
 21
-116.235433248705700
  0
ARC
  8
0
  6
CONTINUOUS
 62
3
 10
-273.167728437691270
 20
-113.844490016001600
 40
1.000000000000082
 50
299.999999999997270
 51
39.594068226850403
  0
ARC
  8
0
  6
CONTINUOUS
 62
3
 10
-285.849892278120250
 20
-118.396957683343770
 40
1.000000000000000
 50
180.000000000000000
 51
248.381727577838030
  0
ARC
  8
0
  6
CONTINUOUS
 62
3
 10
-289.349892278120250
 20
-127.228718549671610
 40
8.500000000000128
 50
51.618272422158320
 51
68.381727577842284
  0
ARC
  8
0
  6
CONTINUOUS
 62
3
 10
-280.707587432706760
 20
-118.197629636426200
 40
0.999999999999885
 50
300.000000000003810
 51
46.260204708328693
  0
LINE
  8
0
  6
CONTINUOUS
 62
3
 10
-286.849892278120250
 20
-115.228718549671610
 11
-286.849892278120250
 21
-118.396957683343770
  0
ARC
  8
0
  6
CONTINUOUS
 62
3
 10
-285.849892278120250
 20
-115.228718549671610
 40
0.999999999999964
 50
73.739795291702634
 51
180.000000000000000
  0
ARC
  8
0
  6
CONTINUOUS
 62
3
 10
-289.349892278120250
 20
-127.228718549671610
 40
13.499999999999927
 50
46.260204708312145
 51
73.739795291689134
  0
ARC
  8
0
  6
CONTINUOUS
 62
3
 10
-289.349892278120250
 20
-127.228718549671610
 40
17.000000000000114
 50
41.212271417649760
 51
78.787728582349985
  0
ARC
  8
0
  6
CONTINUOUS
 62
3
 10
-289.349892278120250
 20
-127.228718549671610
 40
22.000000000000025
 50
39.594068226860820
 51
80.405931773138789
  0
ARC
  8
0
  6
CONTINUOUS
 62
3
 10
-289.349892278120250
 20
-127.228718549671610
 40
30.499999999999964
 50
36.813854344181067
 51
83.186145655818962
  0
ARC
  8
0
  6
CONTINUOUS
 62
3
 10
-289.349892278120250
 20
-127.228718549671610
 40
25.499999999999890
 50
37.589542391857961
 51
82.410457608141883
  0
ARC
  8
0
  6
CONTINUOUS
 62
3
 10
-289.349892278120250
 20
-127.228718549671610
 40
33.999999999999829
 50
35.739170477266640
 51
84.260829522733076
  0
ARC
  8
0
  6
CONTINUOUS
 62
3
 10
-289.349892278120250
 20
-127.228718549671610
 40
38.999999999999865
 50
35.284732954534789
 51
84.715267045465410
  0
ARC
  8
0
  6
CONTINUOUS
 62
3
 10
-262.232590490188390
 20
-115.613988947040290
 40
0.999999999999730
 50
23.186145655819850
 51
119.999999999997270
  0
LINE
  8
0
  6
CONTINUOUS
 62
3
 10
-262.732590490188390
 20
-114.747963543255760
 11
-265.351265945965910
 21
-116.259856522568950
  0
ARC
  8
0
  6
CONTINUOUS
 62
3
 10
-264.851265945965910
 20
-117.125881926353480
 40
1.000000000000082
 50
119.999999999997270
 51
202.410457608146060
  0
ARC
  8
0
  6
CONTINUOUS
 62
3
 10
-254.830813865690060
 20
-111.340571220404620
 40
1.000000000000248
 50
24.715267045455477
 51
119.999999999997270
  0
LINE
  8
0
  6
CONTINUOUS
 62
3
 10
-255.330813865690060
 20
-110.474545816620090
 11
-257.940938383795810
 21
-111.981501909766840
  0
ARC
  8
0
  6
CONTINUOUS
 62
3
 10
-257.440938383795810
 20
-112.847527313551150
 40
0.999999999999885
 50
120.000000000003780
 51
204.260829522745610
  0
ARC
  8
0
  6
CONTINUOUS
 62
3
 10
-279.951363007731060
 20
-125.843927029753330
 40
1.000000000000082
 50
119.999999999997270
 51
188.381727577832660
  0
LINE
  8
0
  6
CONTINUOUS
 62
3
 10
-277.707587432706760
 20
-123.393782059132710
 11
-280.451363007731060
 21
-124.977901625968790
  0
ARC
  8
0
  6
CONTINUOUS
 62
3
 10
-272.308963594747410
 20
-121.431585671412440
 40
1.000000000000082
 50
119.999999999997270
 51
198.787728582347000
  0
LINE
  8
0
  6
CONTINUOUS
 62
3
 10
-270.167728437690810
 20
-119.040642438708570
 11
-272.808963594747410
 21
-120.565560267627910
  0
ARC
  8
0
  6
CONTINUOUS
 62
3
 10
-269.667728437690810
 20
-119.906667842492880
 40
1.000000000000094
 50
20.405931773138686
 51
120.000000000003780
  0
ARC
  8
0
  6
CONTINUOUS
 62
3
 10
-279.951363007731060
 20
-128.613510069590120
 40
1.000000000000059
 50
171.618272422154460
 51
239.999999999996220
  0
ARC
  8
0
  6
CONTINUOUS
 62
3
 10
-289.349892278120250
 20
-127.228718549671610
 40
8.499999999999972
 50
351.618272422157820
 51
8.381727577842204
  0
ARC
  8
0
  6
CONTINUOUS
 62
3
 10
-277.207587432706760
 20
-124.259807462917020
 40
0.999999999999879
 50
13.739795291686027
 51
120.000000000003780
  0
LINE
  8
0
  6
CONTINUOUS
 62
3
 10
-277.707587432706760
 20
-131.063655040210510
 11
-280.451363007731060
 21
-129.479535473374430
  0
ARC
  8
0
  6
CONTINUOUS
 62
3
 10
-277.207587432706760
 20
-130.197629636426200
 40
0.999999999999885
 50
239.999999999996220
 51
346.260204708314010
  0
ARC
  8
0
  6
CONTINUOUS
 62
3
 10
-289.349892278120250
 20
-127.228718549671610
 40
13.500000000000130
 50
346.260204708311850
 51
13.739795291688171
  0
ARC
  8
0
  6
CONTINUOUS
 62
3
 10
-272.308963594747410
 20
-133.025851427930770
 40
0.999999999999646
 50
161.212271417644620
 51
239.999999999996220
  0
LINE
  8
0
  6
CONTINUOUS
 62
3
 10
-270.167728437690810
 20
-135.416794660634650
 11
-272.808963594747410
 21
-133.891876831715080
  0
ARC
  8
0
  6
CONTINUOUS
 62
3
 10
-289.349892278120250
 20
-127.228718549671610
 40
17.000000000000146
 50
341.212271417650070
 51
18.787728582350418
  0
ARC
  8
0
  6
CONTINUOUS
 62
3
 10
-269.667728437690810
 20
-134.550769256850340
 40
0.999999999999885
 50
239.999999999996220
 51
339.594068226861340
  0
ARC
  8
0
  6
CONTINUOUS
 62
3
 10
-264.851265945965910
 20
-137.331555172989970
 40
0.999999999999701
 50
157.589542391853940
 51
240.000000000002730
  0
ARC
  8
0
  6
CONTINUOUS
 62
3
 10
-257.440938383795810
 20
-141.609909785791840
 40
0.999999999999769
 50
155.739170477266270
 51
240.000000000002730
  0
ARC
  8
0
  6
CONTINUOUS
 62
3
 10
-289.349892278120250
 20
-127.228718549671610
 40
22.000000000000206
 50
339.594068226860770
 51
20.405931773139226
  0
LINE
  8
0
  6
CONTINUOUS
 62
3
 10
-262.732590490188390
 20
-139.709473556087460
 11
-265.351265945965910
 21
-138.197580576774500
  0
ARC
  8
0
  6
CONTINUOUS
 62
3
 10
-262.232590490188390
 20
-138.843448152302930
 40
1.000000000000082
 50
240.000000000002730
 51
336.813854344180130
  0
ARC
  8
0
  6
CONTINUOUS
 62
3
 10
-289.349892278120250
 20
-127.228718549671610
 40
30.499999999999947
 50
336.813854344181150
 51
23.186145655818844
  0
ARC
  8
0
  6
CONTINUOUS
 62
3
 10
-289.349892278120250
 20
-127.228718549671610
 40
25.500000000000085
 50
337.589542391857490
 51
22.410457608142021
  0
ARC
  8
0
  6
CONTINUOUS
 62
3
 10
-289.349892278120250
 20
-127.228718549671610
 40
34.000000000000007
 50
335.739170477266780
 51
24.260829522733218
  0
ARC
  8
0
  6
CONTINUOUS
 62
3
 10
-289.349892278120250
 20
-127.228718549671610
 40
39.000000000000220
 50
335.284732954534830
 51
24.715267045465190
  0
LINE
  8
0
  6
CONTINUOUS
 62
3
 10
-255.330813865690060
 20
-143.982891282722900
 11
-257.940938383795810
 21
-142.475935189576380
  0
ARC
  8
0
  6
CONTINUOUS
 62
3
 10
-254.830813865690060
 20
-143.116865878938600
 40
0.999999999999885
 50
239.999999999996220
 51
335.284732954544490
  0
CIRCLE
  8
0
  6
CONTINUOUS
 62
3
 10
-289.349892278120250
 20
-127.228718549671610
 40
5.000000000000000
  0
ARC
  8
0
  6
CONTINUOUS
 62
3
 10
-258.330813865690060
 20
-149.179043705429880
 40
0.999999999999776
 50
324.715267045465680
 51
60.000000000002721
  0
ARC
  8
0
  6
CONTINUOUS
 62
3
 10
-260.940938383795810
 20
-147.672087612282890
 40
0.999999999999885
 50
59.999999999996206
 51
144.260829522736490
  0
ARC
  8
0
  6
CONTINUOUS
 62
3
 10
-285.849892278120250
 20
-162.053278848403350
 40
0.999999999999973
 50
95.739170477261709
 51
180.000000000000000
  0
ARC
  8
0
  6
CONTINUOUS
 62
3
 10
-285.849892278120250
 20
-165.067191034696630
 40
1.000000000000000
 50
180.000000000000000
 51
275.284732954535740
  0
ARC
  8
0
  6
CONTINUOUS
 62
3
 10
-285.849892278120250
 20
-153.496569622798920
 40
0.999999999999975
 50
97.589542391854238
 51
180.000000000000000
  0
ARC
  8
0
  6
CONTINUOUS
 62
3
 10
-265.732590490188390
 20
-144.905625978793750
 40
0.999999999999911
 50
323.186145655802870
 51
59.999999999996206
  0
ARC
  8
0
  6
CONTINUOUS
 62
3
 10
-268.351265945965450
 20
-143.393732999480790
 40
1.000000000000082
 50
60.000000000002721
 51
142.410457608148220
  0
ARC
  8
0
  6
CONTINUOUS
 62
3
 10
-285.849892278120250
 20
-156.520355581425290
 40
1.000000000000000
 50
180.000000000000000
 51
276.813854344179670
  0
ARC
  8
0
  6
CONTINUOUS
 62
3
 10
-285.849892278120250
 20
-147.934997790520130
 40
1.000000000000000
 50
180.000000000000000
 51
279.594068226875490
  0
ARC
  8
0
  6
CONTINUOUS
 62
3
 10
-285.849892278120250
 20
-144.885162132681220
 40
0.999999999999982
 50
101.212271417644000
 51
180.000000000000000
  0
ARC
  8
0
  6
CONTINUOUS
 62
3
 10
-273.167728437691270
 20
-140.612947083341400
 40
1.000000000000318
 50
320.405931773139570
 51
59.999999999996206
  0
ARC
  8
0
  6
CONTINUOUS
 62
3
 10
-275.808963594747410
 20
-139.088029254422050
 40
1.000000000000082
 50
60.000000000002721
 51
138.787728582338990
  0
ARC
  8
0
  6
CONTINUOUS
 62
3
 10
-280.707587432706760
 20
-136.259807462917020
 40
0.999999999999858
 50
313.739795291671330
 51
59.999999999996206
  0
ARC
  8
0
  6
CONTINUOUS
 62
3
 10
-285.849892278120250
 20
-139.228718549671610
 40
1.000000000000000
 50
180.000000000000000
 51
286.260204708297350
  0
ARC
  8
0
  6
CONTINUOUS
 62
3
 10
-285.849892278120250
 20
-136.060479415999450
 40
1.000000000000090
 50
111.618272422161970
 51
180.000000000000000
  0
ARC
  8
0
  6
CONTINUOUS
 62
3
 10
-283.451363007731060
 20
-134.675687896080940
 40
0.999999999999885
 50
59.999999999996206
 51
128.381727577840220
  0
ARC
  8
0
  6
CONTINUOUS
 62
3
 10
-289.349892278120250
 20
-127.228718549671610
 40
38.999999999999986
 50
275.284732954534600
 51
324.715267045465230
  0
ARC
  8
0
  6
CONTINUOUS
 62
3
 10
-289.349892278120250
 20
-127.228718549671610
 40
30.500000000000135
 50
276.813854344181040
 51
323.186145655818900
  0
ARC
  8
0
  6
CONTINUOUS
 62
3
 10
-289.349892278120250
 20
-127.228718549671610
 40
34.000000000000071
 50
275.739170477266950
 51
324.260829522733050
  0
ARC
  8
0
  6
CONTINUOUS
 62
3
 10
-289.349892278120250
 20
-127.228718549671610
 40
25.499999999999932
 50
277.589542391858170
 51
322.410457608142050
  0
ARC
  8
0
  6
CONTINUOUS
 62
3
 10
-289.349892278120250
 20
-127.228718549671610
 40
22.000000000000131
 50
279.594068226861170
 51
320.405931773139170
  0
ARC
  8
0
  6
CONTINUOUS
 62
3
 10
-289.349892278120250
 20
-127.228718549671610
 40
17.000000000000046
 50
281.212271417650020
 51
318.787728582350210
  0
ARC
  8
0
  6
CONTINUOUS
 62
3
 10
-289.349892278120250
 20
-127.228718549671610
 40
13.499999999999963
 50
286.260204708310820
 51
313.739795291687870
  0
ARC
  8
0
  6
CONTINUOUS
 62
3
 10
-289.349892278120250
 20
-127.228718549671610
 40
8.499999999999904
 50
291.618272422157700
 51
308.381727577842640
  0
LINE
  8
0
  6
CONTINUOUS
 62
3
 10
-265.232590490188390
 20
-144.039600575009440
 11
-267.851265945965450
 21
-142.527707595696260
  0
LINE
  8
0
  6
CONTINUOUS
 62
3
 10
-286.849892278120250
 20
-165.067191034696630
 11
-286.849892278120250
 21
-162.053278848403350
  0
LINE
  8
0
  6
CONTINUOUS
 62
3
 10
-257.830813865690060
 20
-148.313018301645340
 11
-260.440938383795810
 21
-146.806062208498590
  0
LINE
  8
0
  6
CONTINUOUS
 62
3
 10
-272.667728437691270
 20
-139.746921679557090
 11
-275.308963594747410
 21
-138.222003850637520
  0
LINE
  8
0
  6
CONTINUOUS
 62
3
 10
-280.207587432706760
 20
-135.393782059132720
 11
-282.951363007731060
 21
-133.809662492296640
  0
LINE
  8
0
  6
CONTINUOUS
 62
3
 10
-286.849892278120250
 20
-139.228718549671610
 11
-286.849892278120250
 21
-136.060479415999450
  0
LINE
  8
0
  6
CONTINUOUS
 62
3
 10
-286.849892278120250
 20
-147.934997790520130
 11
-286.849892278120250
 21
-144.885162132681220
  0
LINE
  8
0
  6
CONTINUOUS
 62
3
 10
-286.849892278120250
 20
-156.520355581425290
 11
-286.849892278120250
 21
-153.496569622798920
  0
ARC
  8
0
  6
CONTINUOUS
 62
3
 10
-289.349892278120250
 20
-127.228718549671610
 40
39.000000000000220
 50
155.284732954534800
 51
204.715267045465200
  0
ARC
  8
0
  6
CONTINUOUS
 62
3
 10
-289.349892278120250
 20
-127.228718549671610
 40
34.000000000000007
 50
155.739170477266780
 51
204.260829522733220
  0
ARC
  8
0
  6
CONTINUOUS
 62
3
 10
-289.349892278120250
 20
-127.228718549671610
 40
25.500000000000000
 50
157.589542391857980
 51
202.410457608142480
  0
ARC
  8
0
  6
CONTINUOUS
 62
3
 10
-289.349892278120250
 20
-127.228718549671610
 40
30.499999999999947
 50
156.813854344181150
 51
203.186145655818850
  0
ARC
  8
0
  6
CONTINUOUS
 62
3
 10
-289.349892278120250
 20
-127.228718549671610
 40
22.000000000000206
 50
159.594068226860770
 51
200.405931773139230
  0
ARC
  8
0
  6
CONTINUOUS
 62
3
 10
-289.349892278120250
 20
-127.228718549671610
 40
16.999999999999716
 50
161.212271417649560
 51
198.787728582350440
  0
ARC
  8
0
  6
CONTINUOUS
 62
3
 10
-289.349892278120250
 20
-127.228718549671610
 40
13.499999999999687
 50
166.260204708311360
 51
193.739795291688180
  0
ARC
  8
0
  6
CONTINUOUS
 62
3
 10
-301.492197123533740
 20
-124.259807462917020
 40
0.999999999999885
 50
59.999999999996206
 51
166.260204708307780
  0
ARC
  8
0
  6
CONTINUOUS
 62
3
 10
-309.032056118549690
 20
-119.906667842492880
 40
0.999999999999885
 50
59.999999999996206
 51
159.594068226861310
  0
LINE
  8
0
  6
CONTINUOUS
 62
3
 10
-308.532056118549690
 20
-119.040642438708570
 11
-305.890820961493090
 21
-120.565560267627910
  0
ARC
  8
0
  6
CONTINUOUS
 62
3
 10
-306.390820961493090
 20
-121.431585671412440
 40
1.000000000000076
 50
341.212271417652970
 51
60.000000000002721
  0
LINE
  8
0
  6
CONTINUOUS
 62
3
 10
-300.992197123533740
 20
-123.393782059132710
 11
-298.248421548509440
 21
-124.977901625968790
  0
ARC
  8
0
  6
CONTINUOUS
 62
3
 10
-298.748421548509440
 20
-125.843927029753330
 40
1.000000000000026
 50
351.618272422167310
 51
60.000000000002721
  0
ARC
  8
0
  6
CONTINUOUS
 62
3
 10
-321.258846172444690
 20
-112.847527313551150
 40
0.999999999999863
 50
335.739170477254390
 51
59.999999999996206
  0
LINE
  8
0
  6
CONTINUOUS
 62
3
 10
-323.368970690550440
 20
-110.474545816620090
 11
-320.758846172444690
 21
-111.981501909766840
  0
ARC
  8
0
  6
CONTINUOUS
 62
3
 10
-323.868970690550440
 20
-111.340571220404620
 40
1.000000000000082
 50
60.000000000002721
 51
155.284732954544520
  0
ARC
  8
0
  6
CONTINUOUS
 62
3
 10
-313.848518610274600
 20
-117.125881926353480
 40
0.999999999999701
 50
337.589542391853970
 51
60.000000000002721
  0
LINE
  8
0
  6
CONTINUOUS
 62
3
 10
-315.967194066052120
 20
-114.747963543255760
 11
-313.348518610274600
 21
-116.259856522568950
  0
ARC
  8
0
  6
CONTINUOUS
 62
3
 10
-316.467194066052120
 20
-115.613988947040290
 40
1.000000000000082
 50
60.000000000002721
 51
156.813854344180160
  0
ARC
  8
0
  6
CONTINUOUS
 62
3
 10
-289.349892278120250
 20
-127.228718549671610
 40
38.999999999999986
 50
95.284732954534590
 51
144.715267045465200
  0
ARC
  8
0
  6
CONTINUOUS
 62
3
 10
-289.349892278120250
 20
-127.228718549671610
 40
34.000000000000071
 50
95.739170477266924
 51
144.260829522733360
  0
ARC
  8
0
  6
CONTINUOUS
 62
3
 10
-289.349892278120250
 20
-127.228718549671610
 40
25.500000000000160
 50
97.589542391858117
 51
142.410457608142050
  0
ARC
  8
0
  6
CONTINUOUS
 62
3
 10
-289.349892278120250
 20
-127.228718549671610
 40
30.500000000000135
 50
96.813854344181038
 51
143.186145655818930
  0
ARC
  8
0
  6
CONTINUOUS
 62
3
 10
-289.349892278120250
 20
-127.228718549671610
 40
22.000000000000131
 50
99.594068226861211
 51
140.405931773139200
  0
ARC
  8
0
  6
CONTINUOUS
 62
3
 10
-289.349892278120250
 20
-127.228718549671610
 40
17.000000000000046
 50
101.212271417650010
 51
138.787728582350240
  0
ARC
  8
0
  6
CONTINUOUS
 62
3
 10
-289.349892278120250
 20
-127.228718549671610
 40
13.499999999999963
 50
106.260204708310860
 51
133.739795291687870
  0
ARC
  8
0
  6
CONTINUOUS
 62
3
 10
-292.849892278120250
 20
-115.228718549671610
 40
1.000000000000000
 50
0.000000000000000
 51
106.260204708297360
  0
LINE
  8
0
  6
CONTINUOUS
 62
3
 10
-291.849892278120250
 20
-115.228718549671610
 11
-291.849892278120250
 21
-118.396957683343770
  0
ARC
  8
0
  6
CONTINUOUS
 62
3
 10
-297.992197123533740
 20
-118.197629636426200
 40
0.999999999999858
 50
133.739795291671300
 51
239.999999999996220
  0
ARC
  8
0
  6
CONTINUOUS
 62
3
 10
-289.349892278120250
 20
-127.228718549671610
 40
8.499999999999904
 50
111.618272422157710
 51
128.381727577841670
  0
ARC
  8
0
  6
CONTINUOUS
 62
3
 10
-292.849892278120250
 20
-118.396957683343770
 40
1.000000000000090
 50
291.618272422161970
 51
0.000000000000000
  0
ARC
  8
0
  6
CONTINUOUS
 62
3
 10
-305.532056118549240
 20
-113.844490016001600
 40
1.000000000000173
 50
140.405931773149600
 51
240.000000000002730
  0
LINE
  8
0
  6
CONTINUOUS
 62
3
 10
-306.032056118549240
 20
-114.710515419786130
 11
-303.390820961493090
 21
-116.235433248705700
  0
ARC
  8
0
  6
CONTINUOUS
 62
3
 10
-302.890820961493090
 20
-115.369407844921390
 40
0.999999999999885
 50
239.999999999996220
 51
318.787728582348790
  0
LINE
  8
0
  6
CONTINUOUS
 62
3
 10
-298.492197123533740
 20
-119.063655040210500
 11
-295.748421548509440
 21
-120.647774607046580
  0
ARC
  8
0
  6
CONTINUOUS
 62
3
 10
-295.248421548509440
 20
-119.781749203262050
 40
1.000000000000082
 50
240.000000000002730
 51
308.381727577840190
  0
ARC
  8
0
  6
CONTINUOUS
 62
3
 10
-317.758846172444690
 20
-106.785349487060330
 40
0.999999999999885
 50
239.999999999996220
 51
324.260829522725940
  0
LINE
  8
0
  6
CONTINUOUS
 62
3
 10
-320.868970690550440
 20
-106.144418797697880
 11
-318.258846172444690
 21
-107.651374890844630
  0
ARC
  8
0
  6
CONTINUOUS
 62
3
 10
-320.368970690550440
 20
-105.278393393913570
 40
0.999999999999908
 50
144.715267045455050
 51
239.999999999996220
  0
ARC
  8
0
  6
CONTINUOUS
 62
3
 10
-310.348518610274600
 20
-111.063704099862430
 40
1.000000000000082
 50
240.000000000002730
 51
322.410457608132330
  0
LINE
  8
0
  6
CONTINUOUS
 62
3
 10
-313.467194066052120
 20
-110.417836524333770
 11
-310.848518610274600
 21
-111.929729503646960
  0
ARC
  8
0
  6
CONTINUOUS
 62
3
 10
-312.967194066052120
 20
-109.551811120549240
 40
0.999999999999774
 50
143.186145655813330
 51
240.000000000002730
  0
ARC
  8
0
  6
CONTINUOUS
 62
3
 10
-292.849892278120250
 20
-89.390246064646590
 40
1.000000000000000
 50
0.000000000000000
 51
95.284732954535698
  0
LINE
  8
0
  6
CONTINUOUS
 62
3
 10
-291.849892278120250
 20
-89.390246064646590
 11
-291.849892278120250
 21
-92.404158250939872
  0
ARC
  8
0
  6
CONTINUOUS
 62
3
 10
-292.849892278120250
 20
-92.404158250939872
 40
0.999999999999973
 50
275.739170477261670
 51
0.000000000000000
  0
ARC
  8
0
  6
CONTINUOUS
 62
3
 10
-292.849892278120250
 20
-97.937081517917932
 40
1.000000000000000
 50
0.000000000000000
 51
96.813854344179688
  0
LINE
  8
0
  6
CONTINUOUS
 62
3
 10
-291.849892278120250
 20
-97.937081517917932
 11
-291.849892278120250
 21
-100.960867476544080
  0
ARC
  8
0
  6
CONTINUOUS
 62
3
 10
-292.849892278120250
 20
-100.960867476544300
 40
0.999999999999749
 50
277.589542391855960
 51
0.000000000013028
  0
ARC
  8
0
  6
CONTINUOUS
 62
3
 10
-292.849892278120250
 20
-106.522439308823090
 40
1.000000000000000
 50
0.000000000000000
 51
99.594068226875478
  0
LINE
  8
0
  6
CONTINUOUS
 62
3
 10
-291.849892278120250
 20
-106.522439308823090
 11
-291.849892278120250
 21
-109.572274966662000
  0
ARC
  8
0
  6
CONTINUOUS
 62
3
 10
-292.849892278120250
 20
-109.572274966662000
 40
0.999999999999982
 50
281.212271417643990
 51
0.000000000000000
  0
ARC
  8
0
  6
CONTINUOUS
 62
3
 10
-301.492197123533740
 20
-130.197629636426200
 40
0.999999999999879
 50
193.739795291686050
 51
300.000000000003810
  0
LINE
  8
0
  6
CONTINUOUS
 62
3
 10
-300.992197123533740
 20
-131.063655040210510
 11
-298.248421548509440
 21
-129.479535473374430
  0
ARC
  8
0
  6
CONTINUOUS
 62
3
 10
-289.349892278120250
 20
-127.228718549671610
 40
8.499999999999972
 50
171.618272422157790
 51
188.381727577842210
  0
ARC
  8
0
  6
CONTINUOUS
 62
3
 10
-298.748421548509440
 20
-128.613510069590120
 40
0.999999999999885
 50
300.000000000003810
 51
8.381727577845549
  0
LINE
  8
0
  6
CONTINUOUS
 62
3
 10
-291.849892278120250
 20
-156.520355581425290
 11
-291.849892278120250
 21
-153.496569622798920
  0
LINE
  8
0
  6
CONTINUOUS
 62
3
 10
-291.849892278120250
 20
-147.934997790520130
 11
-291.849892278120250
 21
-144.885162132681220
  0
LINE
  8
0
  6
CONTINUOUS
 62
3
 10
-291.849892278120250
 20
-139.228718549671610
 11
-291.849892278120250
 21
-136.060479415999450
  0
LINE
  8
0
  6
CONTINUOUS
 62
3
 10
-298.492197123533740
 20
-135.393782059132720
 11
-295.748421548509440
 21
-133.809662492296640
  0
LINE
  8
0
  6
CONTINUOUS
 62
3
 10
-306.032056118549240
 20
-139.746921679557090
 11
-303.390820961493090
 21
-138.222003850637520
  0
LINE
  8
0
  6
CONTINUOUS
 62
3
 10
-320.868970690550440
 20
-148.313018301645340
 11
-318.258846172444690
 21
-146.806062208498590
  0
LINE
  8
0
  6
CONTINUOUS
 62
3
 10
-313.467194066052120
 20
-144.039600575009440
 11
-310.848518610275050
 21
-142.527707595696260
  0
ARC
  8
0
  6
CONTINUOUS
 62
3
 10
-289.349892278120250
 20
-127.228718549671610
 40
8.499999999999948
 50
231.618272422157330
 51
248.381727577842330
  0
ARC
  8
0
  6
CONTINUOUS
 62
3
 10
-289.349892278120250
 20
-127.228718549671610
 40
13.499999999999927
 50
226.260204708312130
 51
253.739795291689150
  0
ARC
  8
0
  6
CONTINUOUS
 62
3
 10
-289.349892278120250
 20
-127.228718549671610
 40
16.999999999999773
 50
221.212271417650780
 51
258.787728582349980
  0
ARC
  8
0
  6
CONTINUOUS
 62
3
 10
-289.349892278120250
 20
-127.228718549671610
 40
22.000000000000025
 50
219.594068226860800
 51
260.405931773138780
  0
ARC
  8
0
  6
CONTINUOUS
 62
3
 10
-289.349892278120250
 20
-127.228718549671610
 40
25.499999999999890
 50
217.589542391857950
 51
262.410457608141830
  0
ARC
  8
0
  6
CONTINUOUS
 62
3
 10
-289.349892278120250
 20
-127.228718549671610
 40
33.999999999999964
 50
215.739170477266950
 51
264.260829522733050
  0
ARC
  8
0
  6
CONTINUOUS
 62
3
 10
-289.349892278120250
 20
-127.228718549671610
 40
30.499999999999964
 50
216.813854344181070
 51
263.186145655818960
  0
ARC
  8
0
  6
CONTINUOUS
 62
3
 10
-289.349892278120250
 20
-127.228718549671610
 40
38.999999999999865
 50
215.284732954534800
 51
264.715267045465400
  0
ARC
  8
0
  6
CONTINUOUS
 62
3
 10
-295.248421548509440
 20
-134.675687896080940
 40
0.999999999999961
 50
51.618272422159777
 51
120.000000000003780
  0
ARC
  8
0
  6
CONTINUOUS
 62
3
 10
-292.849892278120250
 20
-136.060479415999450
 40
1.000000000000000
 50
0.000000000000000
 51
68.381727577838021
  0
ARC
  8
0
  6
CONTINUOUS
 62
3
 10
-292.849892278120250
 20
-139.228718549671610
 40
0.999999999999964
 50
253.739795291702650
 51
0.000000000000000
  0
ARC
  8
0
  6
CONTINUOUS
 62
3
 10
-297.992197123533740
 20
-136.259807462917020
 40
0.999999999999885
 50
120.000000000003780
 51
226.260204708328700
  0
ARC
  8
0
  6
CONTINUOUS
 62
3
 10
-302.890820961493090
 20
-139.088029254422050
 40
1.000000000000165
 50
41.212271417643841
 51
119.999999999997270
  0
ARC
  8
0
  6
CONTINUOUS
 62
3
 10
-305.532056118549240
 20
-140.612947083341400
 40
0.999999999999885
 50
120.000000000003780
 51
219.594068226860460
  0
ARC
  8
0
  6
CONTINUOUS
 62
3
 10
-292.849892278120250
 20
-144.885162132681220
 40
1.000000000000000
 50
0.000000000000000
 51
78.787728582355996
  0
ARC
  8
0
  6
CONTINUOUS
 62
3
 10
-292.849892278120250
 20
-147.934997790520130
 40
1.000000000000268
 50
260.405931773124510
 51
0.000000000000000
  0
ARC
  8
0
  6
CONTINUOUS
 62
3
 10
-310.348518610275050
 20
-143.393732999480790
 40
1.000000000000194
 50
37.589542391851793
 51
119.999999999997270
  0
ARC
  8
0
  6
CONTINUOUS
 62
3
 10
-312.967194066052120
 20
-144.905625978793750
 40
0.999999999999885
 50
120.000000000003780
 51
216.813854344197100
  0
ARC
  8
0
  6
CONTINUOUS
 62
3
 10
-292.849892278120250
 20
-153.496569622798920
 40
1.000000000000000
 50
0.000000000000000
 51
82.410457608145762
  0
ARC
  8
0
  6
CONTINUOUS
 62
3
 10
-317.758846172444690
 20
-147.672087612282890
 40
0.999999999999807
 50
35.739170477263521
 51
120.000000000003780
  0
ARC
  8
0
  6
CONTINUOUS
 62
3
 10
-320.368970690550440
 20
-149.179043705429880
 40
1.000000000000082
 50
119.999999999997270
 51
215.284732954534320
  0
ARC
  8
0
  6
CONTINUOUS
 62
3
 10
-323.868970690550440
 20
-143.116865878938600
 40
1.000000000000248
 50
204.715267045455480
 51
300.000000000003810
  0
LINE
  8
0
  6
CONTINUOUS
 62
3
 10
-323.368970690550440
 20
-143.982891282722900
 11
-320.758846172444690
 21
-142.475935189576380
  0
ARC
  8
0
  6
CONTINUOUS
 62
3
 10
-316.467194066052120
 20
-138.843448152302930
 40
0.999999999999730
 50
203.186145655819840
 51
299.999999999997270
  0
LINE
  8
0
  6
CONTINUOUS
 62
3
 10
-315.967194066052120
 20
-139.709473556087460
 11
-313.348518610274600
 21
-138.197580576774500
  0
ARC
  8
0
  6
CONTINUOUS
 62
3
 10
-321.258846172444690
 20
-141.609909785791840
 40
1.000000000000082
 50
299.999999999997270
 51
24.260829522733715
  0
ARC
  8
0
  6
CONTINUOUS
 62
3
 10
-313.848518610274600
 20
-137.331555172989970
 40
1.000000000000082
 50
299.999999999997270
 51
22.410457608146043
  0
ARC
  8
0
  6
CONTINUOUS
 62
3
 10
-309.032056118549690
 20
-134.550769256850340
 40
1.000000000000094
 50
200.405931773138690
 51
300.000000000003810
  0
LINE
  8
0
  6
CONTINUOUS
 62
3
 10
-308.532056118549690
 20
-135.416794660634650
 11
-305.890820961493090
 21
-133.891876831715080
  0
ARC
  8
0
  6
CONTINUOUS
 62
3
 10
-306.390820961493090
 20
-133.025851427930770
 40
0.999999999999885
 50
300.000000000003810
 51
18.787728582346993
  0
LINE
  8
0
  6
CONTINUOUS
 62
3
 10
-291.849892278120250
 20
-165.067191034696630
 11
-291.849892278120250
 21
-162.053278848403350
  0
ARC
  8
0
  6
CONTINUOUS
 62
3
 10
-292.849892278120250
 20
-156.520355581425290
 40
1.000000000000077
 50
263.186145655820330
 51
0.000000000000000
  0
ARC
  8
0
  6
CONTINUOUS
 62
3
 10
-292.849892278120250
 20
-165.067191034696630
 40
1.000000000000042
 50
264.715267045464260
 51
0.000000000000000
  0
ARC
  8
0
  6
CONTINUOUS
 62
3
 10
-292.849892278120250
 20
-162.053278848403350
 40
1.000000000000000
 50
0.000000000000000
 51
84.260829522738291
  0
ARC
  8
0
  6
CONTINUOUS
 62
3
 10
-530.949892278120610
 20
-127.228718549671610
 40
300.600000000000360
 50
0.000000000000000
 51
5.752282731536604
  0
ARC
  8
0
  6
CONTINUOUS
 62
3
 10
-530.949892278120610
 20
-127.228718549671610
 40
300.599999999999910
 50
354.247717268463420
 51
0.000000000000000
  0
ARC
  8
0
  6
CONTINUOUS
 62
3
 10
-47.749892278119887
 20
-127.228718549671610
 40
300.600000000000360
 50
180.000000000000000
 51
185.752282731536610
  0
ARC
  8
0
  6
CONTINUOUS
 62
3
 10
-47.749892278119887
 20
-127.228718549671610
 40
300.599999999999910
 50
174.247717268463390
 51
180.000000000000000
  0
ARC
  8
0
  6
CONTINUOUS
 62
3
 10
-289.349892278120250
 20
-473.828718549671750
 40
400.599999999999910
 50
84.256318189006564
 51
90.000000000000000
  0
ARC
  8
0
  6
CONTINUOUS
 62
3
 10
-289.349892278120250
 20
219.371281450328520
 40
400.599999999999910
 50
270.000000000000000
 51
275.743681810993450
  0
ARC
  8
0
  6
CONTINUOUS
 62
3
 10
-289.349892278120250
 20
219.371281450328520
 40
400.599999999999910
 50
264.256318189006550
 51
270.000000000000000
  0
ARC
  8
0
  6
CONTINUOUS
 62
3
 10
-289.349892278120250
 20
-473.828718549671750
 40
400.599999999999910
 50
90.000000000000000
 51
95.743681810993436
  0
ARC
  8
0
  6
CONTINUOUS
 62
3
 10
-249.919025278032900
 20
-81.806771807373252
 40
6.600000000000278
 50
44.999999999997215
 51
84.256318189004901
  0
ARC
  8
0
  6
CONTINUOUS
 62
3
 10
-249.919025278032900
 20
-172.650665291969970
 40
6.600000000000009
 50
275.743681810995100
 51
315.000000000002790
  0
ARC
  8
0
  6
CONTINUOUS
 62
3
 10
-328.780759278207600
 20
-172.650665291969970
 40
6.600000000000278
 50
224.999999999997190
 51
264.256318189004900
  0
ARC
  8
0
  6
CONTINUOUS
 62
3
 10
-328.780759278207600
 20
-81.806771807373252
 40
6.600000000000009
 50
95.743681810995099
 51
135.000000000002790
  0
LINE
  8
0
  6
CONTINUOUS
 62
4
 10
-244.725193123502550
 20
-91.530330002185110
 11
-250.612606995541910
 21
-85.642916130145068
  0
ARC
  8
0
  6
CONTINUOUS
 62
4
 10
-289.349892278120250
 20
-473.828718549671750
 40
390.797000000000030
 50
84.582036237639471
 51
90.000000000000000
  0
ARC
  8
0
  6
CONTINUOUS
 62
4
 10
-252.733927339101910
 20
-87.764236473704841
 40
3.000000000000346
 50
44.999999999996930
 51
84.582036237634313
  0
ARC
  8
0
  6
CONTINUOUS
 62
4
 10
-530.949892278120610
 20
-127.228718549671610
 40
290.797000000000480
 50
0.000000000000000
 51
5.752282731536624
  0
ARC
  8
0
  6
CONTINUOUS
 62
4
 10
-252.733927339101910
 20
-166.693200625638380
 40
3.000000000000067
 50
275.417963762365730
 51
315.000000000003070
  0
ARC
  8
0
  6
CONTINUOUS
 62
4
 10
-289.349892278120250
 20
219.371281450328520
 40
390.797000000000030
 50
270.000000000000000
 51
275.417963762360500
  0
ARC
  8
0
  6
CONTINUOUS
 62
4
 10
-261.978001690600880
 20
-150.768516207583620
 40
20.797000000000015
 50
315.000000000000000
 51
354.998349729064670
  0
LINE
  8
0
  6
CONTINUOUS
 62
4
 10
-247.272301962264240
 20
-165.474215935920260
 11
-250.612606995541910
 21
-168.814520969198160
  0
ARC
  8
0
  6
CONTINUOUS
 62
4
 10
-530.949892278120610
 20
-127.228718549671610
 40
290.797000000000140
 50
354.998349729065010
 51
0.000000000000000
  0
ARC
  8
0
  6
CONTINUOUS
 62
4
 10
-325.965857217138590
 20
-166.693200625638380
 40
3.000000000000346
 50
224.999999999996960
 51
264.582036237634270
  0
ARC
  8
0
  6
CONTINUOUS
 62
4
 10
-289.349892278120250
 20
219.371281450328520
 40
390.797000000000030
 50
264.582036237639500
 51
270.000000000000000
  0
ARC
  8
0
  6
CONTINUOUS
 62
4
 10
-316.721782865639630
 20
-150.768516207583620
 40
20.796999999999880
 50
185.001650270935330
 51
225.000000000000000
  0
LINE
  8
0
  6
CONTINUOUS
 62
4
 10
-331.427482593976260
 20
-165.474215935920260
 11
-328.087177560698590
 21
-168.814520969198160
  0
ARC
  8
0
  6
CONTINUOUS
 62
4
 10
-47.749892278120114
 20
-127.228718549671610
 40
290.797000000000250
 50
180.000000000000000
 51
185.001650270934930
  0
ARC
  8
0
  6
CONTINUOUS
 62
4
 10
-325.965857217138590
 20
-87.764236473704841
 40
3.000000000000067
 50
95.417963762365673
 51
135.000000000003040
  0
ARC
  8
0
  6
CONTINUOUS
 62
4
 10
-289.349892278120250
 20
-473.828718549671750
 40
390.797000000000030
 50
90.000000000000000
 51
95.417963762360529
  0
ARC
  8
0
  6
CONTINUOUS
 62
4
 10
-316.721782865639630
 20
-103.688920891759600
 40
20.797000000000015
 50
135.000000000000000
 51
174.998349729064670
  0
LINE
  8
0
  6
CONTINUOUS
 62
4
 10
-331.427482593976260
 20
-88.983221163422968
 11
-328.087177560698590
 21
-85.642916130145068
  0
ARC
  8
0
  6
CONTINUOUS
 62
4
 10
-47.749892278120114
 20
-127.228718549671610
 40
290.796999999999910
 50
174.998349729065040
 51
180.000000000000000
  0
ARC
  8
0
  6
CONTINUOUS
 62
3
 10
-208.411123144138630
 20
-152.228718549671610
 40
5.000000000000000
 50
270.000000000000000
 51
355.138594604201330
  0
ARC
  8
0
  6
CONTINUOUS
 62
3
 10
-208.411123144138630
 20
-102.228718549671610
 40
4.999999999999893
 50
4.861405395798621
 51
90.000000000000000
  0
LINE
  8
0
  6
CONTINUOUS
 62
3
 10
-231.849892278120250
 20
-157.228718549671610
 11
-208.411123144138630
 21
-157.228718549671610
  0
LINE
  8
0
  6
CONTINUOUS
 62
3
 10
-231.849892278120250
 20
-97.228718549671612
 11
-208.411123144138630
 21
-97.228718549671612
  0
ARC
  8
0
  6
CONTINUOUS
 62
3
 10
-502.349892278120250
 20
-127.228718549671610
 40
300.000000000000170
 50
355.138594604201960
 51
4.861405395798036
  0
LINE
  8
0
  6
CONTINUOUS
 62
3
 10
-202.360309125637970
 20
-124.728718549671610
 11
-201.849892278120250
 21
-124.728718549671610
  0
LINE
  8
0
  6
CONTINUOUS
 62
3
 10
-202.360309125637970
 20
-129.728718549671610
 11
-201.849892278120250
 21
-129.728718549671610
  0
LINE
  8
0
  6
CONTINUOUS
 62
3
 10
-201.849892278120250
 20
-129.728718549671610
 11
-201.849892278120250
 21
-124.728718549671610
  0
LINE
  8
0
  6
CONTINUOUS
 62
3
 10
-364.352761898701150
 20
-71.348598476891425
 11
-369.446398826978110
 21
-173.221337042432200
  0
LINE
  8
0
  6
CONTINUOUS
 62
3
 10
-369.446398826978110
 20
-173.221337042432200
 11
-371.044402569182690
 21
-173.141436855321220
  0
LINE
  8
0
  6
CONTINUOUS
 62
3
 10
-365.950765640905730
 20
-71.268698289781241
 11
-371.044402569182690
 21
-173.141436855321220
  0
ARC
  8
0
  6
CONTINUOUS
 62
3
 10
-367.068394742756250
 20
-74.016313886026069
 40
1.299999237060474
 50
87.137594090651831
 51
160.536063666412870
  0
ARC
  8
0
  6
CONTINUOUS
 62
3
 10
-367.288120333508230
 20
-78.410825701063800
 40
1.299999237060493
 50
193.739143184211430
 51
267.137612759980240
  0
LINE
  8
0
  6
CONTINUOUS
 62
3
 10
-366.025672066321020
 20
-72.766826798097895
 11
-367.003475878828570
 21
-72.717936607472552
  0
LINE
  8
0
  6
CONTINUOUS
 62
3
 10
-366.375235384928150
 20
-79.758093170242773
 11
-367.353039197435920
 21
-79.709202979617430
  0
LINE
  8
0
  6
CONTINUOUS
 62
3
 10
-366.025672066321020
 20
-72.766826798097895
 11
-366.375235384928150
 21
-79.758093170242773
  0
LINE
  8
0
  6
CONTINUOUS
 62
3
 10
-366.025672066321020
 20
-72.766826798097895
 11
-366.375235384928150
 21
-79.758093170242773
  0
ARC
  8
0
  6
CONTINUOUS
 62
3
 10
-359.808439137800180
 20
-76.582060713561532
 40
9.000000000000060
 50
160.536063666407810
 51
193.739143184213500
  0
LINE
  8
0
  6
CONTINUOUS
 62
3
 10
-347.849892278120250
 20
-109.898109789452060
 11
-347.849892278120250
 21
-101.271218549671630
  0
LINE
  8
0
  6
CONTINUOUS
 62
3
 10
-365.950765640905730
 20
-71.268698289781241
 11
-364.352761898701150
 21
-71.348598476891425
  0
ARC
  8
0
  6
CONTINUOUS
 62
3
 10
-366.649892278120210
 20
-101.271218549671630
 40
18.799999999999933
 50
144.191373186504250
 51
174.275189547776390
  0
ARC
  8
0
  6
CONTINUOUS
 62
3
 10
-366.649892278120210
 20
-101.271218549671630
 40
18.800000000000036
 50
94.873974813842736
 51
144.191373186504250
  0
ARC
  8
0
  6
CONTINUOUS
 62
3
 10
-368.649892278120210
 20
-141.271218549671630
 40
20.800000000000082
 50
274.191726156007460
 51
354.952683218992150
  0
LINE
  8
0
  6
CONTINUOUS
 62
3
 10
-389.346151629741140
 20
-139.196405582090620
 11
-385.356126692085130
 21
-99.395906828973352
  0
ARC
  8
0
  6
CONTINUOUS
 62
3
 10
-372.576358109452490
 20
-163.730578871715120
 40
2.000000000000154
 50
357.137594773887600
 51
80.083463391767268
  0
LINE
  8
0
  6
CONTINUOUS
 62
3
 10
-365.151763769803440
 20
-71.308648383336390
 11
-370.245400698080400
 21
-173.181386948876480
  0
ARC
  8
0
  6
CONTINUOUS
 62
3
 10
-366.983345011736670
 20
-164.010229526600940
 40
1.999999999999962
 50
94.191726156001650
 51
177.137594773887290
  0
ARC
  8
0
  6
CONTINUOUS
 62
3
 10
-368.417150741749080
 20
-80.546431517648102
 40
1.999999999999928
 50
274.873974813840960
 51
357.137594773887320
  0
ARC
  8
0
  6
CONTINUOUS
 62
3
 10
-362.824137644033270
 20
-80.826082172533916
 40
1.999999999999927
 50
177.137594773887290
 51
259.401214733934010
  0
ARC
  8
0
  6
CONTINUOUS
 62
3
 10
-366.649892278120210
 20
-101.271218549671630
 40
18.799999999999955
 50
0.000000000000000
 51
79.401214733933941
  0
ARC
  8
0
  6
CONTINUOUS
 62
3
 10
-368.649892278120210
 20
-141.271218549671630
 40
20.799999999999986
 50
174.275189547776620
 51
205.640070215894870
  0
ARC
  8
0
  6
CONTINUOUS
 62
3
 10
-368.649892278120210
 20
-141.271218549671630
 40
20.799999999999926
 50
205.640070215894870
 51
260.083463391769440
  0
ARC
  8
0
  6
CONTINUOUS
 62
3
 10
-368.649892278120210
 20
-141.271218549671630
 40
20.799999999999986
 50
174.275189547776620
 51
205.640070215894870
  0
LINE
  8
0
  6
DASHDOT
 62
4
 10
-289.349892278120250
 20
-15.875959904599085
 11
-289.349892278120250
 21
-201.161670012498010
  0
LINE
  8
0
  6
CONTINUOUS
 62
3
 10
-252.849892926176440
 20
-72.672092524347590
 11
-255.349897275682910
 21
-74.115466101043467
  0
LINE
  8
0
  6
CONTINUOUS
 62
3
 10
-255.349887495683790
 20
-68.341970289458231
 11
-257.849892223730650
 21
-69.785341324551382
  0
LINE
  8
0
  6
CONTINUOUS
 62
3
 10
-255.349897790245960
 20
-74.115465487393692
 11
-257.849890095289540
 21
-72.672090140649573
  0
LINE
  8
0
  6
CONTINUOUS
 62
3
 10
-255.349887556913250
 20
-68.341969809315515
 11
-252.849893772121960
 21
-69.785346453862985
  0
LINE
  8
0
  6
CONTINUOUS
 62
3
 10
-252.849894662305640
 20
-69.785346904672565
 11
-252.849893708631330
 21
-72.672092357553424
  0
LINE
  8
0
  6
CONTINUOUS
 62
3
 10
-257.849889893935990
 20
-72.672090194669522
 11
-257.849890847610250
 21
-69.785340927091397
  0
LINE
  8
0
  6
CONTINUOUS
 62
3
 10
-325.849891630064120
 20
-72.672092524347590
 11
-323.349887280557600
 21
-74.115466101043467
  0
LINE
  8
0
  6
CONTINUOUS
 62
3
 10
-323.349897060556710
 20
-68.341970289458231
 11
-320.849892332509850
 21
-69.785341324551382
  0
LINE
  8
0
  6
CONTINUOUS
 62
3
 10
-323.349886765994600
 20
-74.115465487393692
 11
-320.849894460950960
 21
-72.672090140649573
  0
LINE
  8
0
  6
CONTINUOUS
 62
3
 10
-323.349896999327260
 20
-68.341969809315515
 11
-325.849890784118540
 21
-69.785346453862985
  0
LINE
  8
0
  6
CONTINUOUS
 62
3
 10
-325.849889893934910
 20
-69.785346904672565
 11
-325.849890847609230
 21
-72.672092357553424
  0
LINE
  8
0
  6
CONTINUOUS
 62
3
 10
-320.849894662304450
 20
-72.672090194669522
 11
-320.849893708630250
 21
-69.785340927091397
  0
LINE
  8
0
  6
CONTINUOUS
 62
3
 10
-331.849891630064120
 20
-187.172092524347650
 11
-329.349887280557600
 21
-188.615466101043520
  0
LINE
  8
0
  6
CONTINUOUS
 62
3
 10
-329.349897060556710
 20
-182.841970289458290
 11
-326.849892332509850
 21
-184.285341324551440
  0
LINE
  8
0
  6
CONTINUOUS
 62
3
 10
-329.349886765994600
 20
-188.615465487393750
 11
-326.849894460950960
 21
-187.172090140649630
  0
LINE
  8
0
  6
CONTINUOUS
 62
3
 10
-329.349896999327260
 20
-182.841969809315570
 11
-331.849890784118540
 21
-184.285346453863040
  0
LINE
  8
0
  6
CONTINUOUS
 62
3
 10
-331.849889893934910
 20
-184.285346904672620
 11
-331.849890847609230
 21
-187.172092357553480
  0
LINE
  8
0
  6
CONTINUOUS
 62
3
 10
-326.849894662304450
 20
-187.172090194669580
 11
-326.849893708630250
 21
-184.285340927091450
  0
CIRCLE
  8
0
  6
CONTINUOUS
 62
3
 10
-329.349892278120020
 20
-185.728718549671670
 40
5.000000000000000
  0
LINE
  8
0
  6
CONTINUOUS
 62
3
 10
-246.849892926176440
 20
-187.172092524347650
 11
-249.349897275682910
 21
-188.615466101043520
  0
LINE
  8
0
  6
CONTINUOUS
 62
3
 10
-249.349887495683790
 20
-182.841970289458290
 11
-251.849892223730650
 21
-184.285341324551440
  0
LINE
  8
0
  6
CONTINUOUS
 62
3
 10
-249.349897790245960
 20
-188.615465487393750
 11
-251.849890095289540
 21
-187.172090140649630
  0
LINE
  8
0
  6
CONTINUOUS
 62
3
 10
-249.349887556913250
 20
-182.841969809315570
 11
-246.849893772121960
 21
-184.285346453863040
  0
LINE
  8
0
  6
CONTINUOUS
 62
3
 10
-246.849894662305640
 20
-184.285346904672620
 11
-246.849893708631330
 21
-187.172092357553480
  0
LINE
  8
0
  6
CONTINUOUS
 62
3
 10
-251.849889893935990
 20
-187.172090194669580
 11
-251.849890847610250
 21
-184.285340927091450
  0
CIRCLE
  8
0
  6
CONTINUOUS
 62
3
 10
-249.349892278120480
 20
-185.728718549671670
 40
5.000000000000000
  0
LINE
  8
0
  6
CONTINUOUS
 62
3
 10
-209.349892278120250
 20
-37.228718549671612
 11
-209.349892278120250
 21
-97.228718549671612
  0
LINE
  8
0
  6
CONTINUOUS
 62
3
 10
-209.349892278120250
 20
-157.228718549671610
 11
-209.349892278120250
 21
-177.228718549671610
  0
ARC
  8
0
  6
CONTINUOUS
 62
3
 10
-268.849892278120480
 20
-111.829591475776390
 40
50.000000000000000
 50
16.978776992020297
 51
86.642182578429185
  0
LINE
  8
0
  6
CONTINUOUS
 62
3
 10
-225.009987581235010
 20
-157.228718549671610
 11
-233.890382221353090
 21
-171.279552129541340
  0
ARC
  8
0
  6
CONTINUOUS
 62
3
 10
-255.349892278120480
 20
-71.228718549671612
 40
5.000000000000307
 50
311.551050375543410
 51
218.794478426544910
  0
ARC
  8
0
  6
CONTINUOUS
 62
3
 10
-255.349892278120480
 20
-71.228718549671612
 40
6.250000000000000
 50
180.000000000000000
 51
208.862789398056090
  0
ARC
  8
0
  6
CONTINUOUS
 62
3
 10
-255.349892278120480
 20
-71.228718549671612
 40
6.250000000000258
 50
321.482739404032770
 51
0.000000000000000
  0
ARC
  8
0
  6
CONTINUOUS
 62
3
 10
-323.349892278120020
 20
-71.228718549671612
 40
5.000000000000345
 50
321.205521573455480
 51
228.448949624457100
  0
ARC
  8
0
  6
CONTINUOUS
 62
3
 10
-323.349892278120020
 20
-71.228718549671612
 40
6.250000000000000
 50
180.000000000000000
 51
218.517260595967570
  0
ARC
  8
0
  6
CONTINUOUS
 62
3
 10
-323.349892278120020
 20
-71.228718549671612
 40
6.250000000000186
 50
331.137210601943650
 51
0.000000000000000
  0
LINE
  8
0
  6
CONTINUOUS
 62
3
 10
-369.349892278120250
 20
-37.228718549671612
 11
-369.349892278120250
 21
-82.666111723856318
  0
LINE
  8
0
  6
CONTINUOUS
 62
3
 10
-369.349892278120250
 20
-171.291206065274140
 11
-369.349892278120250
 21
-177.228718549671610
  0
ARC
  8
0
  6
CONTINUOUS
 62
3
 10
-309.849892278120020
 20
-111.829591475776390
 40
50.000000000000199
 50
93.357817421570815
 51
151.143261462943740
  0
LINE
  8
0
  6
CONTINUOUS
 62
3
 10
-354.274289012467530
 20
-156.303917267751330
 11
-344.809402334887180
 21
-171.279552129541340
  0
LINE
  8
0
  6
CONTINUOUS
 62
3
 10
-347.878818953720270
 20
-100.228718549671550
 11
-347.134861840721670
 21
-100.228718549671550
  0
LINE
  8
0
  6
CONTINUOUS
 62
3
 10
-323.540417258808930
 20
-191.228718549671610
 11
-333.680019297042290
 21
-191.228718549671610
  0
LINE
  8
0
  6
CONTINUOUS
 62
3
 10
-255.159367297431570
 20
-191.228718549671610
 11
-245.019765259198180
 21
-191.228718549671610
  0
LINE
  8
0
  6
CONTINUOUS
 62
3
 10
63.381951889404945
 20
110.588664675651670
 11
63.381951889404945
 21
39.495291681909293
  0
LINE
  8
0
  6
CONTINUOUS
 62
3
 10
54.381951889404945
 20
40.495291681911112
 11
54.381951889404945
 21
71.588664675650762
  0
ARC
  8
0
  6
CONTINUOUS
 62
3
 10
54.381951889404945
 20
41.454690079435750
 40
1.000000000000000
 50
180.000000000000000
 51
246.457436915979320
  0
ARC
  8
0
  6
CONTINUOUS
 62
3
 10
55.381951889404945
 20
40.495291681911112
 40
1.000000000000000
 50
180.000000000000000
 51
253.216766737311250
  0
ARC
  8
0
  6
CONTINUOUS
 62
3
 10
55.381951889404945
 20
40.495291681911112
 40
1.000000000000999
 50
253.216766737311250
 51
270.000000000000000
  0
LINE
  8
0
  6
CONTINUOUS
 62
3
 10
55.381951889404945
 20
39.495291681911112
 11
63.381951889404945
 21
39.495291681909293
  0
ARC
  8
0
  6
CONTINUOUS
 62
3
 10
53.583091466311316
 20
39.621162870907028
 40
0.999999999999802
 50
25.916728130901330
 51
66.457436915958496
  0
ARC
  8
0
  6
CONTINUOUS
 62
3
 10
53.583091466311316
 20
181.556166480396310
 40
0.999999999999640
 50
293.542563084041490
 51
334.083271869098670
  0
ARC
  8
0
  6
CONTINUOUS
 62
3
 10
52.381951889404945
 20
168.576778427504910
 40
1.999999999999851
 50
271.499999999989830
 51
0.000000000000000
  0
ARC
  8
0
  6
CONTINUOUS
 62
3
 10
55.381951889404945
 20
180.682037669392230
 40
1.000000000000999
 50
106.783233262688730
 51
180.000000000000000
  0
ARC
  8
0
  6
CONTINUOUS
 62
3
 10
55.381951889404945
 20
180.682037669392230
 40
1.000000000000000
 50
90.000000000000000
 51
106.783233262688730
  0
LINE
  8
0
  6
CONTINUOUS
 62
3
 10
55.381951889404945
 20
181.682037669392230
 11
63.381951889404945
 21
181.682037669394050
  0
LINE
  8
0
  6
CONTINUOUS
 62
3
 10
52.434305786020332
 20
166.577463777553930
 11
36.881951889405855
 21
166.170211058200950
  0
LINE
  8
0
  6
CONTINUOUS
 62
3
 10
63.381951889404945
 20
110.588664675651670
 11
63.381951889404945
 21
181.682037669394050
  0
LINE
  8
0
  6
CONTINUOUS
 62
3
 10
36.881951889405855
 20
110.588664675651670
 11
36.881951889405855
 21
166.170211058200950
  0
ARC
  8
0
  6
CONTINUOUS
 62
3
 10
54.381951889404945
 20
179.722639271867590
 40
1.000000000000474
 50
113.542563084020690
 51
180.000000000000000
  0
LINE
  8
0
  6
CONTINUOUS
 62
3
 10
53.381951889404945
 20
168.550592505936040
 11
53.381951889404945
 21
179.722639271867590
  0
ARC
  8
0
  6
CONTINUOUS
 62
3
 10
51.381951889404945
 20
168.550592505936040
 40
1.999999999999851
 50
271.499999999989830
 51
0.000000000000000
  0
ARC
  8
0
  6
CONTINUOUS
 62
3
 10
57.281951889405491
 20
150.738664675652220
 40
0.099999999999454
 50
0.000000000000000
 51
90.000000000000000
  0
ARC
  8
0
  6
CONTINUOUS
 62
3
 10
55.381951889404945
 20
151.838664675652580
 40
1.000000000000000
 50
180.000000000000000
 51
270.000000000000000
  0
ARC
  8
0
  6
CONTINUOUS
 62
3
 10
57.281951889405491
 20
138.438664675652030
 40
0.099999999999454
 50
270.000000000000000
 51
0.000000000000000
  0
ARC
  8
0
  6
CONTINUOUS
 62
3
 10
55.381951889404945
 20
137.338664675652580
 40
1.000000000000000
 50
90.000000000000000
 51
180.000000000000000
  0
LINE
  8
0
  6
CONTINUOUS
 62
3
 10
57.381951889404945
 20
150.738664675652220
 11
57.381951889404945
 21
138.438664675652030
  0
LINE
  8
0
  6
CONTINUOUS
 62
3
 10
55.381951889404945
 20
150.838664675652580
 11
57.281951889405491
 21
150.838664675652580
  0
LINE
  8
0
  6
CONTINUOUS
 62
3
 10
55.381951889404945
 20
138.338664675652580
 11
57.281951889405491
 21
138.338664675652580
  0
LINE
  8
0
  6
CONTINUOUS
 62
3
 10
54.381951889404945
 20
180.682037669392230
 11
54.381951889404945
 21
149.588664675652580
  0
LINE
  8
0
  6
CONTINUOUS
 62
3
 10
54.381951889404945
 20
139.588664675652580
 11
54.381951889404945
 21
110.588664675651670
  0
LINE
  8
0
  6
CONTINUOUS
 62
3
 10
51.381951889404945
 20
179.588664675652580
 11
51.381951889404945
 21
169.588664675652580
  0
LINE
  8
0
  6
CONTINUOUS
 62
3
 10
53.381951889404945
 20
179.588664675652580
 11
51.381951889404945
 21
179.588664675652580
  0
LINE
  8
0
  6
CONTINUOUS
 62
3
 10
53.381951889404945
 20
169.588664675652580
 11
51.381951889404945
 21
169.588664675652580
  0
ARC
  8
0
  6
CONTINUOUS
 62
3
 10
52.381951889404945
 20
52.600550923798437
 40
2.000000000000000
 50
0.000000000000000
 51
88.500000000010189
  0
LINE
  8
0
  6
CONTINUOUS
 62
3
 10
52.434305786020332
 20
54.599865573749412
 11
36.881951889405855
 21
55.007118293102394
  0
LINE
  8
0
  6
CONTINUOUS
 62
3
 10
36.881951889405855
 20
110.588664675651670
 11
36.881951889405855
 21
55.007118293102394
  0
LINE
  8
0
  6
CONTINUOUS
 62
3
 10
53.381951889404945
 20
52.626736845367304
 11
53.381951889404945
 21
41.454690079436659
  0
ARC
  8
0
  6
CONTINUOUS
 62
3
 10
51.381951889404945
 20
52.626736845367304
 40
2.000000000000000
 50
0.000000000000000
 51
88.500000000010189
  0
ARC
  8
0
  6
CONTINUOUS
 62
3
 10
57.281951889405491
 20
70.438664675652035
 40
0.100000000000364
 50
270.000000000000000
 51
0.000000000000000
  0
ARC
  8
0
  6
CONTINUOUS
 62
3
 10
55.381951889404945
 20
69.338664675651671
 40
1.000000000000000
 50
90.000000000000000
 51
180.000000000000000
  0
ARC
  8
0
  6
CONTINUOUS
 62
3
 10
57.281951889405491
 20
82.738664675651307
 40
0.099999999999454
 50
0.000000000000000
 51
90.000000000000000
  0
ARC
  8
0
  6
CONTINUOUS
 62
3
 10
55.381951889404945
 20
83.838664675651671
 40
1.000000000000000
 50
180.000000000000000
 51
270.000000000000000
  0
LINE
  8
0
  6
CONTINUOUS
 62
3
 10
57.381951889404945
 20
70.438664675652035
 11
57.381951889404945
 21
82.738664675651307
  0
LINE
  8
0
  6
CONTINUOUS
 62
3
 10
55.381951889404945
 20
70.338664675651671
 11
57.281951889405491
 21
70.338664675651671
  0
LINE
  8
0
  6
CONTINUOUS
 62
3
 10
55.381951889404945
 20
82.838664675651671
 11
57.281951889405491
 21
82.838664675651671
  0
LINE
  8
0
  6
CONTINUOUS
 62
3
 10
54.381951889404945
 20
81.588664675650762
 11
54.381951889404945
 21
110.588664675651670
  0
LINE
  8
0
  6
CONTINUOUS
 62
3
 10
51.381951889404945
 20
41.588664675651671
 11
51.381951889404945
 21
51.588664675651671
  0
LINE
  8
0
  6
CONTINUOUS
 62
3
 10
53.381951889404945
 20
41.588664675650762
 11
51.381951889404945
 21
41.588664675651280
  0
LINE
  8
0
  6
CONTINUOUS
 62
3
 10
53.381951889404945
 20
51.588664675650762
 11
51.381951889404945
 21
51.588664675651280
  0
LINE
  8
0
  6
CONTINUOUS
 62
3
 10
183.881951889404950
 20
110.588664675651670
 11
183.881951889404950
 21
99.988664675651307
  0
LINE
  8
0
  6
CONTINUOUS
 62
3
 10
183.481951889404850
 20
99.588664675651671
 11
150.441759510540350
 21
99.588664675651671
  0
LINE
  8
0
  6
CONTINUOUS
 62
3
 10
183.481951889404850
 20
99.588664675651671
 11
150.441759510540350
 21
99.588664675651671
  0
ARC
  8
0
  6
CONTINUOUS
 62
3
 10
183.481951889404850
 20
99.988664675651307
 40
0.399999999999636
 50
270.000000000000000
 51
0.000000000000000
  0
LINE
  8
0
  6
CONTINUOUS
 62
3
 10
183.881951889404950
 20
99.988664675651307
 11
183.881951889404950
 21
97.088664675651671
  0
LINE
  8
0
  6
CONTINUOUS
 62
3
 10
183.881953796707650
 20
97.088664675651671
 11
151.881953796707650
 21
97.088664675651671
  0
LINE
  8
0
  6
CONTINUOUS
 62
3
 10
147.881951889404950
 20
110.588664675651670
 11
147.881951889404950
 21
122.188664675651120
  0
LINE
  8
0
  6
CONTINUOUS
 62
3
 10
149.881951889404950
 20
121.438664675651120
 11
148.681951889404670
 21
121.438664675651120
  0
LINE
  8
0
  6
CONTINUOUS
 62
3
 10
150.441759510540350
 20
121.588664675651670
 11
149.881951889404950
 21
121.438664675651120
  0
LINE
  8
0
  6
CONTINUOUS
 62
3
 10
147.881951889404950
 20
122.188664675651120
 11
147.481951889404850
 21
122.588664675651670
  0
ARC
  8
0
  6
CONTINUOUS
 62
3
 10
148.681951889404670
 20
122.238664675651300
 40
0.799999999999783
 50
183.703196634282420
 51
270.000000000000000
  0
LINE
  8
0
  6
CONTINUOUS
 62
3
 10
149.881951889404950
 20
121.438664675651120
 11
148.681951889404670
 21
121.438664675651120
  0
LINE
  8
0
  6
CONTINUOUS
 62
3
 10
150.441759510540350
 20
121.588664675651670
 11
149.881951889404950
 21
121.438664675651120
  0
LINE
  8
0
  6
CONTINUOUS
 62
3
 10
147.881951889404950
 20
122.188664675651120
 11
147.481951889404850
 21
122.588664675651670
  0
LINE
  8
0
  6
CONTINUOUS
 62
3
 10
145.881951889404950
 20
122.588664675651670
 11
147.481951889404850
 21
122.588664675651670
  0
LINE
  8
0
  6
CONTINUOUS
 62
3
 10
151.881951889404950
 20
99.588664675651671
 11
151.881951889404950
 21
97.088664675651671
  0
LINE
  8
0
  6
CONTINUOUS
 62
3
 10
145.881951889404950
 20
98.588664675650762
 11
147.481951889404850
 21
98.588664675651671
  0
LINE
  8
0
  6
CONTINUOUS
 62
3
 10
147.881951889404950
 20
110.588664675651670
 11
147.881951889404950
 21
98.988664675651307
  0
LINE
  8
0
  6
CONTINUOUS
 62
3
 10
149.881951889404950
 20
99.738664675651307
 11
148.681951889404670
 21
99.738664675651307
  0
LINE
  8
0
  6
CONTINUOUS
 62
3
 10
150.441759510540350
 20
99.588664675651671
 11
149.881951889404950
 21
99.738664675651307
  0
LINE
  8
0
  6
CONTINUOUS
 62
3
 10
147.881951889404950
 20
98.988664675651307
 11
147.481951889404850
 21
98.588664675651671
  0
LINE
  8
0
  6
CONTINUOUS
 62
3
 10
183.481951889404850
 20
121.588664675651670
 11
150.441759510540350
 21
121.588664675651670
  0
ARC
  8
0
  6
CONTINUOUS
 62
3
 10
148.681951889404670
 20
98.938664675651125
 40
0.800000000000182
 50
90.000000000000000
 51
176.296803365717580
  0
LINE
  8
0
  6
CONTINUOUS
 62
3
 10
149.881951889404950
 20
99.738664675651307
 11
148.681951889404670
 21
99.738664675651307
  0
LINE
  8
0
  6
CONTINUOUS
 62
3
 10
150.441759510540350
 20
99.588664675651671
 11
149.881951889404950
 21
99.738664675651307
  0
LINE
  8
0
  6
CONTINUOUS
 62
3
 10
147.881951889404950
 20
98.988664675651307
 11
147.481951889404850
 21
98.588664675651671
  0
LINE
  8
0
  6
CONTINUOUS
 62
3
 10
183.481951889404850
 20
121.588664675651670
 11
150.441759510540350
 21
121.588664675651670
  0
LINE
  8
0
  6
CONTINUOUS
 62
3
 10
145.881951889404950
 20
98.588664675650762
 11
147.481951889404850
 21
98.588664675651671
  0
LINE
  8
0
  6
CONTINUOUS
 62
3
 10
183.881951889404950
 20
110.588664675651670
 11
183.881951889404950
 21
121.188664675651120
  0
ARC
  8
0
  6
CONTINUOUS
 62
3
 10
183.481951889404850
 20
121.188664675651120
 40
0.400000000000091
 50
0.000000000000000
 51
90.000000000000000
  0
LINE
  8
0
  6
DASHDOT
 62
4
 10
149.104785566414420
 20
41.645753509963470
 11
116.267596854020430
 21
41.645753509963470
  0
LINE
  8
0
  6
DASHDOT
 62
4
 10
149.104785566414420
 20
179.531575841339870
 11
116.267596854020430
 21
179.531575841339870
  0
LINE
  8
0
  6
CONTINUOUS
 62
3
 10
123.381951889405620
 20
71.572727427023892
 11
113.432432839733560
 21
71.572727427023892
  0
ARC
  8
0
  6
CONTINUOUS
 62
3
 10
110.471715766755770
 20
65.915873177532376
 40
1.999999999999685
 50
38.684601234802514
 51
90.000000000000000
  0
LINE
  8
0
  6
CONTINUOUS
 62
3
 10
112.032912604430520
 20
67.165938949415249
 11
124.943148727081280
 21
51.042451480470845
  0
ARC
  8
0
  6
CONTINUOUS
 62
3
 10
123.381951889406080
 20
49.792385708587062
 40
1.999999999999773
 50
0.000000000000000
 51
38.684601234814714
  0
ARC
  8
0
  6
CONTINUOUS
 62
3
 10
110.471715766755550
 20
69.572727427024802
 40
1.999999999999685
 50
38.684601234802514
 51
90.000000000000000
  0
LINE
  8
0
  6
CONTINUOUS
 62
3
 10
112.032912604430290
 20
70.822793198907675
 11
124.943148727081050
 21
54.699305729963271
  0
ARC
  8
0
  6
CONTINUOUS
 62
3
 10
123.381951889405850
 20
53.449239958079488
 40
1.999999999999773
 50
0.000000000000000
 51
38.684601234814714
  0
ARC
  8
0
  6
CONTINUOUS
 62
3
 10
110.471715766755550
 20
151.604601924278540
 40
2.000000000000000
 50
270.000000000000000
 51
321.315398765197470
  0
LINE
  8
0
  6
CONTINUOUS
 62
3
 10
112.032912604430290
 20
150.354536152395670
 11
124.943148727081050
 21
166.478023621340070
  0
ARC
  8
0
  6
CONTINUOUS
 62
3
 10
123.381951889405850
 20
167.728089393223850
 40
2.000000000000608
 50
321.315398765185310
 51
0.000000000000000
  0
ARC
  8
0
  6
CONTINUOUS
 62
3
 10
123.381951889406080
 20
171.384943642716280
 40
2.000000000000608
 50
321.315398765185310
 51
0.000000000000000
  0
ARC
  8
0
  6
CONTINUOUS
 62
3
 10
110.471715766755770
 20
155.261456173770970
 40
2.000000000000000
 50
270.000000000000000
 51
321.315398765197470
  0
ARC
  8
0
  6
CONTINUOUS
 62
3
 10
123.381951889405170
 20
114.588664675651670
 40
2.000000000000000
 50
270.000000000000000
 51
0.000000000000000
  0
ARC
  8
0
  6
CONTINUOUS
 62
3
 10
123.381951889405170
 20
106.588664675651670
 40
2.000000000000000
 50
0.000000000000000
 51
90.000000000000000
  0
ARC
  8
0
  6
CONTINUOUS
 62
3
 10
113.432432839733560
 20
106.588664675651670
 40
2.000000000000000
 50
90.000000000000000
 51
180.000000000000000
  0
ARC
  8
0
  6
CONTINUOUS
 62
3
 10
113.432432839733560
 20
114.588664675651670
 40
2.000000000000000
 50
180.000000000000000
 51
270.000000000000000
  0
LINE
  8
0
  6
CONTINUOUS
 62
3
 10
112.032912604430520
 20
154.011390401888090
 11
124.943148727081280
 21
170.134877870832500
  0
LINE
  8
0
  6
CONTINUOUS
 62
3
 10
123.381951889405620
 20
149.604601924279450
 11
113.432432839733560
 21
149.604601924279450
  0
LINE
  8
0
  6
CONTINUOUS
 62
3
 10
123.381951889405170
 20
108.588664675651670
 11
113.432432839733560
 21
108.588664675651670
  0
LINE
  8
0
  6
CONTINUOUS
 62
3
 10
123.381951889405170
 20
112.588664675651670
 11
113.432432839733560
 21
112.588664675651670
  0
LINE
  8
0
  6
CONTINUOUS
 62
3
 10
63.881951889404945
 20
39.495291681909293
 11
122.434309108717340
 21
38.473256484947342
  0
ARC
  8
0
  6
CONTINUOUS
 62
3
 10
122.381951889405620
 20
35.473713399478584
 40
3.000000000000000
 50
0.000000000000000
 51
89.000000000002430
  0
LINE
  8
0
  6
CONTINUOUS
 62
3
 10
63.881951889404945
 20
181.682037669394050
 11
122.434309108717340
 21
182.704072866356000
  0
LINE
  8
0
  6
CONTINUOUS
 62
3
 10
145.881951889404950
 20
110.588664675651670
 11
145.881951889404950
 21
89.611287265782266
  0
LINE
  8
0
  6
CONTINUOUS
 62
3
 10
145.881951889404950
 20
110.588664675651670
 11
145.881951889404950
 21
131.566042085521080
  0
LINE
  8
0
  6
CONTINUOUS
 62
3
 10
129.881951889405850
 20
190.588664675651670
 11
126.355774941097930
 21
190.496328482644460
  0
LINE
  8
0
  6
CONTINUOUS
 62
3
 10
137.381951889405850
 20
190.392270263882890
 11
129.881951889405850
 21
190.588664675651670
  0
LINE
  8
0
  6
CONTINUOUS
 62
3
 10
139.602626392668530
 20
35.588664675651671
 11
140.381951889405850
 21
36.388664675651853
  0
LINE
  8
0
  6
CONTINUOUS
 62
3
 10
139.602626392668530
 20
185.588664675651670
 11
140.381951889405850
 21
184.788664675651490
  0
ARC
  8
0
  6
CONTINUOUS
 62
3
 10
126.381951889405850
 20
189.496671157668970
 40
0.999999999999931
 50
91.500000000002814
 51
180.000000000000000
  0
ARC
  8
0
  6
CONTINUOUS
 62
3
 10
122.381951889405620
 20
185.703615951824760
 40
2.999999999999582
 50
270.999999999997610
 51
0.000000000000000
  0
ARC
  8
0
  6
CONTINUOUS
 62
3
 10
143.881951889404950
 20
131.566042085521080
 40
2.000000000000000
 50
0.000000000000000
 51
54.162347045717610
  0
ARC
  8
0
  6
CONTINUOUS
 62
3
 10
143.881951889404950
 20
89.611287265782266
 40
1.999999999999779
 50
305.837652954282420
 51
0.000000000000000
  0
LINE
  8
0
  6
CONTINUOUS
 62
3
 10
63.881951889404945
 20
181.682037669394050
 11
63.881951889404945
 21
39.495291681909293
  0
LINE
  8
0
  6
CONTINUOUS
 62
3
 10
139.602626392668530
 20
185.588664675651670
 11
137.381951889405850
 21
185.588664675651670
  0
LINE
  8
0
  6
CONTINUOUS
 62
3
 10
139.602626392668530
 20
35.588664675651671
 11
137.381951889405850
 21
35.588664675651671
  0
LINE
  8
0
  6
CONTINUOUS
 62
3
 10
137.381951889405850
 20
110.588664675651670
 11
137.381951889405850
 21
190.379177303098000
  0
LINE
  8
0
  6
CONTINUOUS
 62
3
 10
140.381951889404720
 20
110.588664675651670
 11
140.381951889405850
 21
184.788664675651490
  0
LINE
  8
0
  6
CONTINUOUS
 62
3
 10
140.381951889404950
 20
110.588664675651670
 11
140.381951889405850
 21
36.388664675651853
  0
LINE
  8
0
  6
CONTINUOUS
 62
3
 10
145.052932997093650
 20
87.989928808982768
 11
140.381951889405400
 21
84.616442453429954
  0
LINE
  8
0
  6
CONTINUOUS
 62
3
 10
145.052932997093650
 20
133.187400542320570
 11
140.381951889404950
 21
136.560886897874300
  0
LINE
  8
0
  6
CONTINUOUS
 62
3
 10
129.881951889405850
 20
30.588664675651671
 11
126.355774941097930
 21
30.681000868658884
  0
ARC
  8
0
  6
CONTINUOUS
 62
3
 10
126.381951889405850
 20
31.680658193634372
 40
1.000000000000000
 50
180.000000000000000
 51
268.499999999997210
  0
LINE
  8
0
  6
CONTINUOUS
 62
3
 10
137.381951889405850
 20
30.785059087420450
 11
129.881951889405850
 21
30.588664675651671
  0
LINE
  8
0
  6
CONTINUOUS
 62
3
 10
137.381951889405850
 20
110.588664675651670
 11
137.381951889405850
 21
30.785059087420450
  0
LINE
  8
0
  6
CONTINUOUS
 62
3
 10
125.381951889404490
 20
31.680658193634372
 11
125.381951889405850
 21
189.496671157668970
  0
ARC
  8
0
  6
CONTINUOUS
 62
3
 10
132.381951889405400
 20
171.618101927174390
 40
2.000000000000000
 50
90.000000000000000
 51
180.000000000000000
  0
LINE
  8
0
  6
CONTINUOUS
 62
3
 10
137.381951889405850
 20
173.618101927174390
 11
132.381951889405400
 21
173.618101927174390
  0
LINE
  8
0
  6
CONTINUOUS
 62
3
 10
132.381951889405400
 20
155.281796815115740
 11
137.381951889405850
 21
155.281796815115740
  0
ARC
  8
0
  6
CONTINUOUS
 62
3
 10
132.381951889405400
 20
153.281796815115740
 40
2.000000000000000
 50
90.000000000000000
 51
180.000000000000000
  0
ARC
  8
0
  6
CONTINUOUS
 62
3
 10
132.381951889405400
 20
49.559227424128949
 40
1.999999999999773
 50
180.000000000000000
 51
270.000000000000000
  0
LINE
  8
0
  6
CONTINUOUS
 62
3
 10
137.381951889405850
 20
47.559227424128949
 11
132.381951889405400
 21
47.559227424128949
  0
LINE
  8
0
  6
CONTINUOUS
 62
3
 10
132.381951889405400
 20
65.895532536187602
 11
137.381951889405850
 21
65.895532536187602
  0
ARC
  8
0
  6
CONTINUOUS
 62
3
 10
132.381951889405400
 20
67.895532536187602
 40
2.000000000000000
 50
180.000000000000000
 51
270.000000000000000
  0
LINE
  8
0
  6
CONTINUOUS
 62
3
 10
130.381951889404720
 20
49.559227424128949
 11
130.381951889405170
 21
110.588664675651670
  0
LINE
  8
0
  6
CONTINUOUS
 62
3
 10
130.381951889405170
 20
110.588664675651670
 11
130.381951889405630
 21
171.618101927174390
  0
LINE
  8
0
  6
CONTINUOUS
 62
3
 10
36.881951889405855
 20
57.088664675651671
 11
36.881951889405855
 21
110.588664675651670
  0
LINE
  8
0
  6
CONTINUOUS
 62
3
 10
36.881951889405855
 20
164.088664675651670
 11
36.881951889405855
 21
110.588664675651670
  0
LINE
  8
0
  6
CONTINUOUS
 62
3
 10
36.881951889405855
 20
57.088664675651671
 11
-36.618048110593918
 21
57.088664675651671
  0
LINE
  8
0
  6
CONTINUOUS
 62
3
 10
36.881951889405855
 20
164.088664675651670
 11
-103.618048110615060
 21
164.088664675651670
  0
LINE
  8
0
  6
CONTINUOUS
 62
4
 10
-103.618048110615060
 20
161.588664675651670
 11
54.381951889404952
 21
161.588664675651670
  0
LINE
  8
0
  6
CONTINUOUS
 62
4
 10
-103.618048110615060
 20
161.088664675651670
 11
54.381951889404952
 21
161.088664675651670
  0
LINE
  8
0
  6
CONTINUOUS
 62
4
 10
-103.618048110615060
 20
156.721747270534370
 11
54.381951889404952
 21
156.721747270534370
  0
LINE
  8
0
  6
CONTINUOUS
 62
4
 10
-103.618048110615060
 20
151.630578445991430
 11
54.381951889404952
 21
151.630578445991430
  0
LINE
  8
0
  6
CONTINUOUS
 62
4
 10
-103.618048110615060
 20
143.892265627160440
 11
51.381951889404945
 21
143.892265627160440
  0
LINE
  8
0
  6
CONTINUOUS
 62
4
 10
-103.618048110615060
 20
142.303055834421680
 11
51.381951889404945
 21
142.303055834421680
  0
LINE
  8
0
  6
CONTINUOUS
 62
4
 10
-103.618048110615060
 20
139.345060226288750
 11
54.381951889404952
 21
139.345060226288750
  0
LINE
  8
0
  6
CONTINUOUS
 62
4
 10
-103.618048110615060
 20
137.866037072811760
 11
54.381951889404952
 21
137.866037072811760
  0
LINE
  8
0
  6
CONTINUOUS
 62
4
 10
-103.618048110615060
 20
134.773306081146420
 11
54.381951889404952
 21
134.773306081146420
  0
LINE
  8
0
  6
CONTINUOUS
 62
4
 10
-103.618048110615060
 20
133.426904355647820
 11
54.381951889404952
 21
133.426904355647820
  0
LINE
  8
0
  6
CONTINUOUS
 62
4
 10
-103.618048110615060
 20
130.216699332289520
 11
54.381951889404952
 21
130.216699332289520
  0
LINE
  8
0
  6
CONTINUOUS
 62
4
 10
-103.618048110615060
 20
128.974779467401620
 11
54.381951889404952
 21
128.974779467401620
  0
LINE
  8
0
  6
CONTINUOUS
 62
4
 10
-103.618048110615060
 20
124.588664675651670
 11
54.381951889404952
 21
124.588664675651670
  0
LINE
  8
0
  6
CONTINUOUS
 62
4
 10
-103.618048110614830
 20
96.588664675651671
 11
54.381951889404952
 21
96.588664675651671
  0
LINE
  8
0
  6
CONTINUOUS
 62
4
 10
-103.618048110614830
 20
92.202549883901725
 11
54.381951889404952
 21
92.202549883901725
  0
LINE
  8
0
  6
CONTINUOUS
 62
4
 10
-103.618048110614830
 20
90.960630019013820
 11
54.381951889404952
 21
90.960630019013820
  0
LINE
  8
0
  6
CONTINUOUS
 62
4
 10
-103.618048110614830
 20
87.750424995655521
 11
54.381951889404952
 21
87.750424995655521
  0
LINE
  8
0
  6
CONTINUOUS
 62
4
 10
-103.618048110614830
 20
86.404023270156927
 11
54.381951889404952
 21
86.404023270156927
  0
LINE
  8
0
  6
CONTINUOUS
 62
4
 10
-103.618048110614830
 20
83.311292278491692
 11
54.381951889404952
 21
83.311292278491692
  0
LINE
  8
0
  6
CONTINUOUS
 62
4
 10
-103.618048110614830
 20
81.832269125014591
 11
54.381951889404952
 21
81.832269125014591
  0
LINE
  8
0
  6
CONTINUOUS
 62
4
 10
-103.618048110614830
 20
77.285063724143015
 11
51.381951889404945
 21
77.285063724143015
  0
LINE
  8
0
  6
CONTINUOUS
 62
4
 10
-103.618048110614830
 20
78.874273516881658
 11
51.381951889404945
 21
78.874273516881658
  0
LINE
  8
0
  6
CONTINUOUS
 62
4
 10
-103.618048110614830
 20
69.546750905311910
 11
54.381951889404952
 21
69.546750905311910
  0
LINE
  8
0
  6
CONTINUOUS
 62
4
 10
-103.618048110614830
 20
64.455582080768977
 11
54.381951889404952
 21
64.455582080769091
  0
LINE
  8
0
  6
CONTINUOUS
 62
4
 10
-103.618048110614830
 20
60.088664675651671
 11
54.381951889404952
 21
60.088664675651678
  0
LINE
  8
0
  6
CONTINUOUS
 62
4
 10
-103.618048110614830
 20
59.588664675651671
 11
54.381951889404952
 21
59.588664675651671
  0
LINE
  8
0
  6
CONTINUOUS
 62
3
 10
-153.618048110615520
 20
158.432284809280990
 11
-153.618048110615290
 21
110.588664675651670
  0
LINE
  8
0
  6
CONTINUOUS
 62
3
 10
-144.938567648539450
 20
165.863196788004980
 11
-152.509346845128220
 21
160.562080124432330
  0
ARC
  8
0
  6
CONTINUOUS
 62
3
 10
-151.018048110615380
 20
158.432284809280990
 40
2.600000000000131
 50
125.000000000001180
 51
180.000000000000000
  0
ARC
  8
0
  6
CONTINUOUS
 62
3
 10
-133.122893059708080
 20
148.988664675651650
 40
20.600000000000023
 50
90.000000000000000
 51
124.999999999999600
  0
LINE
  8
0
  6
CONTINUOUS
 62
3
 10
-153.618048110615520
 20
62.745044542022356
 11
-153.618048110615520
 21
110.588664675651670
  0
LINE
  8
0
  6
CONTINUOUS
 62
3
 10
-144.938567648539450
 20
55.314132563298472
 11
-152.509346845128220
 21
60.615249226871015
  0
ARC
  8
0
  6
CONTINUOUS
 62
3
 10
-151.018048110615380
 20
62.745044542022356
 40
2.600000000000136
 50
180.000000000000000
 51
234.999999999997390
  0
ARC
  8
0
  6
CONTINUOUS
 62
3
 10
-133.122893059708080
 20
72.188664675651694
 40
20.599999999999891
 50
235.000000000000400
 51
270.000000000000000
  0
LINE
  8
0
  6
CONTINUOUS
 62
3
 10
-103.618048110615290
 20
169.588664675651670
 11
-133.122893059708080
 21
169.588664675651670
  0
LINE
  8
0
  6
CONTINUOUS
 62
3
 10
-113.618048110615290
 20
51.588664675651671
 11
-133.122893059708080
 21
51.588664675651671
  0
LINE
  8
0
  6
CONTINUOUS
 62
3
 10
-111.618048110593910
 20
53.088664675651671
 11
-111.618048110593910
 21
56.077395439596330
  0
LINE
  8
0
  6
CONTINUOUS
 62
3
 10
-36.618048110593918
 20
58.088664675651785
 11
-103.851516805012570
 21
58.088664675651785
  0
LINE
  8
0
  6
CONTINUOUS
 62
3
 10
-114.618048110615290
 20
159.732585698376850
 11
-116.618048110615290
 21
158.079944059253420
  0
LINE
  8
0
  6
CONTINUOUS
 62
3
 10
-112.618048110615290
 20
160.908371183999630
 11
-114.618048110615290
 21
159.732585698376850
  0
LINE
  8
0
  6
CONTINUOUS
 62
3
 10
-114.618048110615290
 20
159.732585698376850
 11
-112.618048110615290
 21
158.079944059253420
  0
LINE
  8
0
  6
CONTINUOUS
 62
3
 10
-116.618048110615290
 20
160.908371183999630
 11
-114.618048110615290
 21
159.732585698376850
  0
POLYLINE
  8
0
  6
CONTINUOUS
 62
3
 66
1
 70
1
  0
VERTEX
  8
0
  6
CONTINUOUS
 62
3
 10
-109.918048110615070
 20
157.915995629999200
  0
VERTEX
  8
0
  6
CONTINUOUS
 62
3
 10
-110.008357292719890
 20
158.618952596199560
  0
VERTEX
  8
0
  6
CONTINUOUS
 62
3
 10
-110.275814307812020
 20
159.294895320411650
  0
VERTEX
  8
0
  6
CONTINUOUS
 62
3
 10
-110.710140932793100
 20
159.917847702817060
  0
VERTEX
  8
0
  6
CONTINUOUS
 62
3
 10
-111.294646239038300
 20
160.463870032715650
  0
VERTEX
  8
0
  6
CONTINUOUS
 62
3
 10
-112.006868015422930
 20
160.911978978182280
  0
VERTEX
  8
0
  6
CONTINUOUS
 62
3
 10
-112.819435978499140
 20
161.244953963745020
  0
VERTEX
  8
0
  6
CONTINUOUS
 62
3
 10
-113.701123597139250
 20
161.449998947443280
  0
VERTEX
  8
0
  6
CONTINUOUS
 62
3
 10
-114.618048110615060
 20
161.519234165544050
  0
VERTEX
  8
0
  6
CONTINUOUS
 62
3
 10
-115.534972624090860
 20
161.449998947443280
  0
VERTEX
  8
0
  6
CONTINUOUS
 62
3
 10
-116.416660242730980
 20
161.244953963745020
  0
VERTEX
  8
0
  6
CONTINUOUS
 62
3
 10
-117.229228205807180
 20
160.911978978182280
  0
VERTEX
  8
0
  6
CONTINUOUS
 62
3
 10
-117.941449982191820
 20
160.463870032715650
  0
VERTEX
  8
0
  6
CONTINUOUS
 62
3
 10
-118.525955288437010
 20
159.917847702817060
  0
VERTEX
  8
0
  6
CONTINUOUS
 62
3
 10
-118.960281913418100
 20
159.294895320411650
  0
VERTEX
  8
0
  6
CONTINUOUS
 62
3
 10
-119.227738928510230
 20
158.618952596199560
  0
VERTEX
  8
0
  6
CONTINUOUS
 62
3
 10
-119.318048110615050
 20
157.915995629999200
  0
VERTEX
  8
0
  6
CONTINUOUS
 62
3
 10
-119.227738928510230
 20
157.213038663798840
  0
VERTEX
  8
0
  6
CONTINUOUS
 62
3
 10
-118.960281913418100
 20
156.537095939586750
  0
VERTEX
  8
0
  6
CONTINUOUS
 62
3
 10
-118.525955288437010
 20
155.914143557181350
  0
VERTEX
  8
0
  6
CONTINUOUS
 62
3
 10
-117.941449982191820
 20
155.368121227282760
  0
VERTEX
  8
0
  6
CONTINUOUS
 62
3
 10
-117.229228205807180
 20
154.920012281816130
  0
VERTEX
  8
0
  6
CONTINUOUS
 62
3
 10
-116.416660242730980
 20
154.587037296253380
  0
VERTEX
  8
0
  6
CONTINUOUS
 62
3
 10
-115.534972624090860
 20
154.381992312555130
  0
VERTEX
  8
0
  6
CONTINUOUS
 62
3
 10
-114.618048110615060
 20
154.312757094454350
  0
VERTEX
  8
0
  6
CONTINUOUS
 62
3
 10
-113.701123597139250
 20
154.381992312555130
  0
VERTEX
  8
0
  6
CONTINUOUS
 62
3
 10
-112.819435978499140
 20
154.587037296253380
  0
VERTEX
  8
0
  6
CONTINUOUS
 62
3
 10
-112.006868015422930
 20
154.920012281816130
  0
VERTEX
  8
0
  6
CONTINUOUS
 62
3
 10
-111.294646239038300
 20
155.368121227282760
  0
VERTEX
  8
0
  6
CONTINUOUS
 62
3
 10
-110.710140932793100
 20
155.914143557181350
  0
VERTEX
  8
0
  6
CONTINUOUS
 62
3
 10
-110.275814307812020
 20
156.537095939586750
  0
VERTEX
  8
0
  6
CONTINUOUS
 62
3
 10
-110.008357292719890
 20
157.213038663798840
  0
SEQEND
  8
0
  6
CONTINUOUS
 62
3
  0
LINE
  8
0
  6
CONTINUOUS
 62
3
 10
-103.618048110615290
 20
169.588664675651670
 11
-103.618048110615060
 21
110.588664675651670
  0
LINE
  8
0
  6
CONTINUOUS
 62
3
 10
-113.618048110615290
 20
51.588664675651671
 11
-113.618048110615290
 21
53.248968314842728
  0
ARC
  8
0
  6
CONTINUOUS
 62
3
 10
-110.618048110615290
 20
53.248968314842728
 40
3.000000000000000
 50
90.000000000000000
 51
180.000000000000000
  0
LINE
  8
0
  6
CONTINUOUS
 62
3
 10
-114.618048110615290
 20
61.444743652926604
 11
-116.618048110615290
 21
63.097385292049921
  0
LINE
  8
0
  6
CONTINUOUS
 62
3
 10
-112.618048110615290
 20
60.268958167303708
 11
-114.618048110615290
 21
61.444743652926604
  0
LINE
  8
0
  6
CONTINUOUS
 62
3
 10
-114.618048110615290
 20
61.444743652926604
 11
-112.618048110615290
 21
63.097385292049921
  0
LINE
  8
0
  6
CONTINUOUS
 62
3
 10
-116.618048110615290
 20
60.268958167303708
 11
-114.618048110615290
 21
61.444743652926604
  0
POLYLINE
  8
0
  6
CONTINUOUS
 62
3
 66
1
 70
1
  0
VERTEX
  8
0
  6
CONTINUOUS
 62
3
 10
-109.918048110615070
 20
63.261333721304140
  0
VERTEX
  8
0
  6
CONTINUOUS
 62
3
 10
-110.008357292719890
 20
63.964290687504501
  0
VERTEX
  8
0
  6
CONTINUOUS
 62
3
 10
-110.275814307812020
 20
64.640233411716594
  0
VERTEX
  8
0
  6
CONTINUOUS
 62
3
 10
-110.710140932793100
 20
65.263185794121995
  0
VERTEX
  8
0
  6
CONTINUOUS
 62
3
 10
-111.294646239038300
 20
65.809208124020572
  0
VERTEX
  8
0
  6
CONTINUOUS
 62
3
 10
-112.006868015422930
 20
66.257317069487186
  0
VERTEX
  8
0
  6
CONTINUOUS
 62
3
 10
-112.819435978499140
 20
66.590292055049957
  0
VERTEX
  8
0
  6
CONTINUOUS
 62
3
 10
-113.701123597139250
 20
66.795337038748201
  0
VERTEX
  8
0
  6
CONTINUOUS
 62
3
 10
-114.618048110615060
 20
66.864572256848973
  0
VERTEX
  8
0
  6
CONTINUOUS
 62
3
 10
-115.534972624090860
 20
66.795337038748201
  0
VERTEX
  8
0
  6
CONTINUOUS
 62
3
 10
-116.416660242730980
 20
66.590292055049957
  0
VERTEX
  8
0
  6
CONTINUOUS
 62
3
 10
-117.229228205807180
 20
66.257317069487186
  0
VERTEX
  8
0
  6
CONTINUOUS
 62
3
 10
-117.941449982191820
 20
65.809208124020572
  0
VERTEX
  8
0
  6
CONTINUOUS
 62
3
 10
-118.525955288437010
 20
65.263185794121995
  0
VERTEX
  8
0
  6
CONTINUOUS
 62
3
 10
-118.960281913418100
 20
64.640233411716594
  0
VERTEX
  8
0
  6
CONTINUOUS
 62
3
 10
-119.227738928510230
 20
63.964290687504501
  0
VERTEX
  8
0
  6
CONTINUOUS
 62
3
 10
-119.318048110615050
 20
63.261333721304140
  0
VERTEX
  8
0
  6
CONTINUOUS
 62
3
 10
-119.227738928510230
 20
62.558376755103779
  0
VERTEX
  8
0
  6
CONTINUOUS
 62
3
 10
-118.960281913418100
 20
61.882434030891687
  0
VERTEX
  8
0
  6
CONTINUOUS
 62
3
 10
-118.525955288437010
 20
61.259481648486286
  0
VERTEX
  8
0
  6
CONTINUOUS
 62
3
 10
-117.941449982191820
 20
60.713459318587709
  0
VERTEX
  8
0
  6
CONTINUOUS
 62
3
 10
-117.229228205807180
 20
60.265350373121088
  0
VERTEX
  8
0
  6
CONTINUOUS
 62
3
 10
-116.416660242730980
 20
59.932375387558331
  0
VERTEX
  8
0
  6
CONTINUOUS
 62
3
 10
-115.534972624090860
 20
59.727330403860080
  0
VERTEX
  8
0
  6
CONTINUOUS
 62
3
 10
-114.618048110615060
 20
59.658095185759308
  0
VERTEX
  8
0
  6
CONTINUOUS
 62
3
 10
-113.701123597139250
 20
59.727330403860080
  0
VERTEX
  8
0
  6
CONTINUOUS
 62
3
 10
-112.819435978499140
 20
59.932375387558331
  0
VERTEX
  8
0
  6
CONTINUOUS
 62
3
 10
-112.006868015422930
 20
60.265350373121088
  0
VERTEX
  8
0
  6
CONTINUOUS
 62
3
 10
-111.294646239038300
 20
60.713459318587709
  0
VERTEX
  8
0
  6
CONTINUOUS
 62
3
 10
-110.710140932793100
 20
61.259481648486286
  0
VERTEX
  8
0
  6
CONTINUOUS
 62
3
 10
-110.275814307812020
 20
61.882434030891687
  0
VERTEX
  8
0
  6
CONTINUOUS
 62
3
 10
-110.008357292719890
 20
62.558376755103779
  0
SEQEND
  8
0
  6
CONTINUOUS
 62
3
  0
LINE
  8
0
  6
CONTINUOUS
 62
3
 10
-110.618048110615290
 20
56.248968314842728
 11
-106.618048110615290
 21
56.248968314842728
  0
ARC
  8
0
  6
CONTINUOUS
 62
3
 10
-106.618048110615290
 20
59.248968314842728
 40
3.000000000000000
 50
270.000000000000000
 51
0.000000000000000
  0
LINE
  8
0
  6
CONTINUOUS
 62
3
 10
-103.618048110615290
 20
59.248968314842728
 11
-103.618048110615060
 21
110.588664675651670
  0
LINE
  8
0
  6
CONTINUOUS
 62
3
 10
-38.618048110593918
 20
23.588664675651671
 11
-109.618048110593910
 21
23.588664675651671
  0
LINE
  8
0
  6
CONTINUOUS
 62
3
 10
-52.618048110593918
 20
23.088664675651671
 11
-52.618048110593918
 21
23.588664675651671
  0
LINE
  8
0
  6
CONTINUOUS
 62
3
 10
-52.618048110593918
 20
23.088664675651671
 11
-44.618048110593918
 21
23.088664675651671
  0
LINE
  8
0
  6
CONTINUOUS
 62
3
 10
-44.618048110593918
 20
23.088664675651671
 11
-44.618048110593918
 21
23.588664675651671
  0
ARC
  8
0
  6
CONTINUOUS
 62
3
 10
-38.618048110593918
 20
24.588664675651671
 40
1.000000000000000
 50
270.000000000000000
 51
0.000000000000000
  0
ARC
  8
0
  6
CONTINUOUS
 62
3
 10
-109.618048110593910
 20
24.588664675651671
 40
1.000000000000000
 50
180.000000000000000
 51
270.000000000000000
  0
LINE
  8
0
  6
CONTINUOUS
 62
3
 10
-110.618048110593910
 20
24.588664675651671
 11
-110.618048110593910
 21
53.088664675651671
  0
LINE
  8
0
  6
CONTINUOUS
 62
3
 10
-37.618048110593918
 20
24.588664675651671
 11
-37.618048110593918
 21
53.088664675651671
  0
LINE
  8
0
  6
CONTINUOUS
 62
3
 10
-36.618048110593918
 20
53.088664675651671
 11
-36.618048110593918
 21
58.088664675651785
  0
LINE
  8
0
  6
CONTINUOUS
 62
3
 10
-111.618048110593910
 20
53.088664675651671
 11
-36.618048110593918
 21
53.088664675651671
  0
LINE
  8
0
  6
CONTINUOUS
 62
3
 10
10.381951889405855
 20
187.749689735338510
 11
-92.618048110594145
 21
187.749689735338510
  0
ARC
  8
0
  6
CONTINUOUS
 62
3
 10
15.881951889405855
 20
192.749689735338510
 40
5.000000000000072
 50
287.457603123721870
 51
0.000000000000000
  0
ARC
  8
0
  6
CONTINUOUS
 62
3
 10
16.081951889405673
 20
188.426235861080840
 40
1.300000000000182
 50
0.000000000000000
 51
73.398450400977637
  0
ARC
  8
0
  6
CONTINUOUS
 62
3
 10
13.881951889405855
 20
181.047211535331370
 40
9.000000000000123
 50
73.398450400980877
 51
106.601549599019120
  0
ARC
  8
0
  6
CONTINUOUS
 62
3
 10
11.681951889406037
 20
188.426235861080840
 40
1.300000000000019
 50
106.601549599022360
 51
180.000000000000000
  0
LINE
  8
0
  6
CONTINUOUS
 62
3
 10
17.381951889405855
 20
188.426235861080840
 11
17.381951889405855
 21
187.439226123156460
  0
POLYLINE
  8
0
  6
CONTINUOUS
 62
3
 66
1
  0
VERTEX
  8
0
  6
CONTINUOUS
 62
3
 10
10.381951889405855
 20
187.439226123156460
  0
VERTEX
  8
0
  6
CONTINUOUS
 62
3
 10
10.449203407994549
 20
187.405127912960470
  0
VERTEX
  8
0
  6
CONTINUOUS
 62
3
 10
10.648373525616352
 20
187.372340077859830
  0
VERTEX
  8
0
  6
CONTINUOUS
 62
3
 10
10.971808246346946
 20
187.342122635969820
  0
VERTEX
  8
0
  6
CONTINUOUS
 62
3
 10
11.407078155252938
 20
187.315636826636110
  0
VERTEX
  8
0
  6
CONTINUOUS
 62
3
 10
11.937456073837247
 20
187.293900484658020
  0
VERTEX
  8
0
  6
CONTINUOUS
 62
3
 10
12.542559876128040
 20
187.277748925467850
  0
VERTEX
  8
0
  6
CONTINUOUS
 62
3
 10
13.199135762349405
 20
187.267802844427390
  0
VERTEX
  8
0
  6
CONTINUOUS
 62
3
 10
13.881951889405855
 20
187.264444463853240
  0
VERTEX
  8
0
  6
CONTINUOUS
 62
3
 10
14.564768016462303
 20
187.267802844427390
  0
VERTEX
  8
0
  6
CONTINUOUS
 62
3
 10
15.221343902683667
 20
187.277748925467850
  0
VERTEX
  8
0
  6
CONTINUOUS
 62
3
 10
15.826447704974461
 20
187.293900484658020
  0
VERTEX
  8
0
  6
CONTINUOUS
 62
3
 10
16.356825623558770
 20
187.315636826636110
  0
VERTEX
  8
0
  6
CONTINUOUS
 62
3
 10
16.792095532464760
 20
187.342122635969820
  0
VERTEX
  8
0
  6
CONTINUOUS
 62
3
 10
17.115530253195356
 20
187.372340077859830
  0
VERTEX
  8
0
  6
CONTINUOUS
 62
3
 10
17.314700370817160
 20
187.405127912960470
  0
VERTEX
  8
0
  6
CONTINUOUS
 62
3
 10
17.381951889405851
 20
187.439226123156460
  0
SEQEND
  8
0
  6
CONTINUOUS
 62
3
  0
LINE
  8
0
  6
CONTINUOUS
 62
3
 10
10.381951889405855
 20
188.426235861080840
 11
10.381951889405855
 21
187.439226123156460
  0
LINE
  8
0
  6
CONTINUOUS
 62
3
 10
-103.118048110594140
 20
164.088664675651670
 11
-103.118048110594140
 21
169.088664675651670
  0
LINE
  8
0
  6
DASHDOT
 62
3
 10
20.881951889405855
 20
164.088664675651670
 11
20.881951889405855
 21
169.088664675651670
  0
LINE
  8
0
  6
DASHDOT
 62
3
 10
20.881951889405855
 20
164.088664675651670
 11
20.881951889405855
 21
169.088664675651670
  0
LINE
  8
0
  6
CONTINUOUS
 62
3
 10
-103.118048110594140
 20
169.088664675651670
 11
20.881951889405855
 21
169.088664675651670
  0
ARC
  8
0
  6
CONTINUOUS
 62
3
 10
-98.118048110594145
 20
192.749689735338510
 40
5.000000000000000
 50
180.000000000000000
 51
252.542396876278160
  0
LINE
  8
0
  6
CONTINUOUS
 62
3
 10
-99.618048110594145
 20
188.426235861080840
 11
-99.618048110594145
 21
187.439226123156460
  0
LINE
  8
0
  6
CONTINUOUS
 62
3
 10
-92.618048110594145
 20
188.426235861080840
 11
-92.618048110594145
 21
187.439226123156460
  0
ARC
  8
0
  6
CONTINUOUS
 62
3
 10
-98.318048110593963
 20
188.426235861080840
 40
1.300000000000019
 50
106.601549599022360
 51
180.000000000000000
  0
ARC
  8
0
  6
CONTINUOUS
 62
3
 10
-96.118048110594145
 20
181.047211535331370
 40
9.000000000000123
 50
73.398450400980877
 51
106.601549599019120
  0
ARC
  8
0
  6
CONTINUOUS
 62
3
 10
-93.918048110594327
 20
188.426235861080840
 40
1.300000000000182
 50
0.000000000000000
 51
73.398450400977637
  0
POLYLINE
  8
0
  6
CONTINUOUS
 62
3
 66
1
  0
VERTEX
  8
0
  6
CONTINUOUS
 62
3
 10
-99.618048110594145
 20
187.439226123156460
  0
VERTEX
  8
0
  6
CONTINUOUS
 62
3
 10
-99.550796592005454
 20
187.405127912960470
  0
VERTEX
  8
0
  6
CONTINUOUS
 62
3
 10
-99.351626474383650
 20
187.372340077859830
  0
VERTEX
  8
0
  6
CONTINUOUS
 62
3
 10
-99.028191753653047
 20
187.342122635969820
  0
VERTEX
  8
0
  6
CONTINUOUS
 62
3
 10
-98.592921844747067
 20
187.315636826636110
  0
VERTEX
  8
0
  6
CONTINUOUS
 62
3
 10
-98.062543926162760
 20
187.293900484658020
  0
VERTEX
  8
0
  6
CONTINUOUS
 62
3
 10
-97.457440123871962
 20
187.277748925467850
  0
VERTEX
  8
0
  6
CONTINUOUS
 62
3
 10
-96.800864237650600
 20
187.267802844427390
  0
VERTEX
  8
0
  6
CONTINUOUS
 62
3
 10
-96.118048110594145
 20
187.264444463853240
  0
VERTEX
  8
0
  6
CONTINUOUS
 62
3
 10
-95.435231983537705
 20
187.267802844427390
  0
VERTEX
  8
0
  6
CONTINUOUS
 62
3
 10
-94.778656097316329
 20
187.277748925467850
  0
VERTEX
  8
0
  6
CONTINUOUS
 62
3
 10
-94.173552295025544
 20
187.293900484658020
  0
VERTEX
  8
0
  6
CONTINUOUS
 62
3
 10
-93.643174376441237
 20
187.315636826636110
  0
VERTEX
  8
0
  6
CONTINUOUS
 62
3
 10
-93.207904467535243
 20
187.342122635969820
  0
VERTEX
  8
0
  6
CONTINUOUS
 62
3
 10
-92.884469746804641
 20
187.372340077859830
  0
VERTEX
  8
0
  6
CONTINUOUS
 62
3
 10
-92.685299629182836
 20
187.405127912960470
  0
VERTEX
  8
0
  6
CONTINUOUS
 62
3
 10
-92.618048110594145
 20
187.439226123156460
  0
SEQEND
  8
0
  6
CONTINUOUS
 62
3
  0
LINE
  8
0
  6
CONTINUOUS
 62
3
 10
20.881951889405855
 20
192.749689735338510
 11
20.881951889405855
 21
205.688664675651580
  0
ARC
  8
0
  6
CONTINUOUS
 62
3
 10
15.881951889405855
 20
174.088664675651670
 40
5.000000000000000
 50
270.000000000000000
 51
0.000000000000000
  0
LINE
  8
0
  6
CONTINUOUS
 62
3
 10
-103.118048110594140
 20
192.749689735338510
 11
-103.118048110594140
 21
205.688664675651580
  0
LINE
  8
0
  6
CONTINUOUS
 62
3
 10
-103.118048110594140
 20
192.283174966713890
 11
-104.118048110594140
 21
192.283174966713890
  0
LINE
  8
0
  6
CONTINUOUS
 62
3
 10
21.881951889405855
 20
187.189538038436690
 11
-104.118048110594140
 21
187.189538038436690
  0
ARC
  8
0
  6
CONTINUOUS
 62
3
 10
-98.118048110594145
 20
174.088664675651670
 40
5.000000000000000
 50
180.000000000000000
 51
270.000000000000000
  0
ARC
  8
0
  6
CONTINUOUS
 62
3
 10
-98.118048110594145
 20
205.688664675651580
 40
5.000000000000000
 50
90.000000000000000
 51
180.000000000000000
  0
ARC
  8
0
  6
CONTINUOUS
 62
3
 10
-104.118048110594140
 20
190.283174966713890
 40
2.000000000000000
 50
90.000000000000000
 51
180.000000000000000
  0
ARC
  8
0
  6
CONTINUOUS
 62
3
 10
-104.118048110594140
 20
189.189538038436690
 40
2.000000000000000
 50
180.000000000000000
 51
270.000000000000000
  0
ARC
  8
0
  6
CONTINUOUS
 62
3
 10
-104.118048110594140
 20
188.390536167351460
 40
2.000000000000000
 50
180.000000000000000
 51
270.000000000000000
  0
LINE
  8
0
  6
CONTINUOUS
 62
3
 10
-106.118048110594140
 20
190.283174966713890
 11
-106.118048110594140
 21
187.591534296232570
  0
ARC
  8
0
  6
CONTINUOUS
 62
3
 10
-104.118048110594140
 20
187.591534296232570
 40
2.000000000000000
 50
180.000000000000000
 51
270.000000000000000
  0
LINE
  8
0
  6
CONTINUOUS
 62
3
 10
-103.118048110594140
 20
174.088664675651670
 11
-103.118048110594140
 21
185.591534296232570
  0
ARC
  8
0
  6
CONTINUOUS
 62
3
 10
15.881951889405855
 20
205.688664675651580
 40
5.000000000000000
 50
0.000000000000000
 51
90.000000000000000
  0
LINE
  8
0
  6
CONTINUOUS
 62
3
 10
-98.118048110594145
 20
210.688664675651580
 11
15.881951889405855
 21
210.688664675651580
  0
LINE
  8
0
  6
CONTINUOUS
 62
3
 10
20.881951889405855
 20
174.088664675651670
 11
20.881951889405855
 21
185.390536167351460
  0
LINE
  8
0
  6
CONTINUOUS
 62
3
 10
23.881951889405855
 20
190.283174966713890
 11
23.881951889405855
 21
187.591534296232570
  0
LINE
  8
0
  6
CONTINUOUS
 62
3
 10
21.881951889405855
 20
186.390536167334630
 11
-104.118048110594140
 21
186.390536167334630
  0
LINE
  8
0
  6
CONTINUOUS
 62
3
 10
21.881951889405855
 20
185.591534296232570
 11
-104.118048110594140
 21
185.591534296232570
  0
LINE
  8
0
  6
CONTINUOUS
 62
3
 10
20.881951889405855
 20
192.283174966713890
 11
21.881951889405855
 21
192.283174966713890
  0
ARC
  8
0
  6
CONTINUOUS
 62
3
 10
21.881951889405855
 20
190.283174966713890
 40
2.000000000000000
 50
0.000000000000000
 51
90.000000000000000
  0
ARC
  8
0
  6
CONTINUOUS
 62
3
 10
21.881951889405855
 20
189.189538038436690
 40
2.000000000000000
 50
270.000000000000000
 51
0.000000000000000
  0
ARC
  8
0
  6
CONTINUOUS
 62
3
 10
21.881951889405855
 20
188.390536167351460
 40
2.000000000000000
 50
270.000000000000000
 51
0.000000000000000
  0
ARC
  8
0
  6
CONTINUOUS
 62
3
 10
21.881951889405855
 20
187.591534296232570
 40
2.000000000000000
 50
270.000000000000000
 51
0.000000000000000
  0
LINE
  8
0
  6
DASHDOT
 62
4
 10
197.168106492539440
 20
110.588664675651670
 11
-178.451553121882400
 21
110.588664675651670
  0
LINE
  8
0
  6
DASHDOT
 62
4
 10
-99.118048110593918
 20
29.644507417975660
 11
-99.118048110593918
 21
51.192996398507717
  0
LINE
  8
0
  6
DASHDOT
 62
4
 10
-108.203737217177490
 20
38.588664675651785
 11
-87.717148983468178
 21
38.588664675651785
  0
LINE
  8
0
  6
DASHDOT
 62
4
 10
-49.118048110593918
 20
29.644507417975660
 11
-49.118048110593918
 21
51.624009550511005
  0
LINE
  8
0
  6
DASHDOT
 62
4
 10
-60.401577526320580
 20
38.588664675651785
 11
-38.634600117792274
 21
38.588664675651785
  0
LINE
  8
0
  6
DASHED
 62
4
 10
-42.118048110593918
 20
38.588664675651785
 11
-42.118048110593918
 21
53.088664675651785
  0
LINE
  8
0
  6
DASHED
 62
4
 10
-56.118048110593918
 20
38.588664675651785
 11
-56.118048110593918
 21
53.088664675651785
  0
ARC
  8
0
  6
DASHED
 62
4
 10
-49.118048110593918
 20
38.588664675651785
 40
7.000000000000000
 50
180.000000000000000
 51
0.000000000000000
  0
CIRCLE
  8
0
  6
DASHED
 62
4
 10
-49.118048110593918
 20
38.588664675651785
 40
6.000000000000000
  0
LINE
  8
0
  6
DASHED
 62
4
 10
-92.118048110593918
 20
38.588664675651785
 11
-92.118048110593918
 21
53.088664675651785
  0
LINE
  8
0
  6
DASHED
 62
4
 10
-106.118048110593910
 20
38.588664675651785
 11
-106.118048110593910
 21
53.088664675651785
  0
ARC
  8
0
  6
DASHED
 62
4
 10
-99.118048110593918
 20
38.588664675651785
 40
7.000000000000000
 50
180.000000000000000
 51
0.000000000000000
  0
ARC
  8
0
  6
CONTINUOUS
 62
3
 10
328.527936865237280
 20
-111.829591475775480
 40
43.283778524804312
 50
26.056903281673080
 51
60.989001274772832
  0
INSERT
  8
0
  2
SYM2
 10
389.472759071580640
 20
-168.147675160931210
 41
-1.000000000000000
 42
1.000000000000000
 43
1.000000000000000
 50
2.862405226113666
  0
ARC
  8
0
  6
CONTINUOUS
 62
3
 10
387.327936865237230
 20
-141.271218549670780
 40
20.799999999999926
 50
334.359929784105190
 51
5.724810452223396
  0
ARC
  8
0
  6
CONTINUOUS
 62
3
 10
387.327936865237230
 20
-141.271218549670780
 40
20.800000000000040
 50
279.916536608230560
 51
334.359929784105190
  0
ARC
  8
0
  6
CONTINUOUS
 62
3
 10
387.327936865237230
 20
-141.271218549670780
 40
20.799999999999926
 50
334.359929784105190
 51
5.724810452223396
  0
LINE
  8
0
  6
CONTINUOUS
 62
3
 10
388.027936865237280
 20
-155.271218549672080
 11
388.923445285197490
 21
-173.181386948875880
  0
ARC
  8
0
  6
CONTINUOUS
 62
3
 10
391.254402696569510
 20
-163.730578871714270
 40
1.999999999999995
 50
99.916536608232732
 51
182.862405226112400
  0
LINE
  8
0
  6
CONTINUOUS
 62
3
 10
408.024196216858170
 20
-139.196405582089770
 11
404.034171279202160
 21
-99.395906828972500
  0
ARC
  8
0
  6
CONTINUOUS
 62
3
 10
385.327936865237230
 20
-101.271218549670770
 40
18.799999999999933
 50
35.808626813495749
 51
81.742797848721310
  0
ARC
  8
0
  6
CONTINUOUS
 62
3
 10
385.327936865237230
 20
-101.271218549670770
 40
18.799999999999837
 50
5.724810452223617
 51
35.808626813495749
  0
LINE
  8
0
  6
CONTINUOUS
 62
3
 10
388.027936865237280
 20
-139.251231034070490
 11
389.722447156299720
 21
-173.141436855320360
  0
LINE
  8
0
  6
CONTINUOUS
 62
3
 10
388.124443414095140
 20
-173.221337042431340
 11
389.722447156299720
 21
-173.141436855320360
  0
LINE
  8
0
  6
DASHED
 62
3
 10
388.027936865237280
 20
-171.291206065273680
 11
388.124443414095140
 21
-173.221337042431340
  0
LINE
  8
0
  6
CONTINUOUS
 62
3
 10
-111.618048110593910
 20
-127.228718549671610
 11
-111.618048110593910
 21
-156.728718549671610
  0
LINE
  8
0
  6
CONTINUOUS
 62
3
 10
-36.618048110593918
 20
-127.228718549671610
 11
-36.618048110593918
 21
-156.728718549671610
  0
LINE
  8
0
  6
CONTINUOUS
 62
3
 10
-38.618048110593918
 20
-158.728718549671610
 11
-109.618048110593910
 21
-158.728718549671610
  0
ARC
  8
0
  6
CONTINUOUS
 62
3
 10
-38.618048110593918
 20
-156.728718549671610
 40
2.000000000000000
 50
270.000000000000000
 51
0.000000000000000
  0
ARC
  8
0
  6
CONTINUOUS
 62
3
 10
-109.618048110593910
 20
-156.728718549671610
 40
2.000000000000000
 50
180.000000000000000
 51
270.000000000000000
  0
LINE
  8
0
  6
CONTINUOUS
 62
3
 10
-38.618048110593918
 20
-157.228718549671610
 11
-109.618048110593910
 21
-157.228718549671610
  0
ARC
  8
0
  6
CONTINUOUS
 62
3
 10
-109.618048110593910
 20
-156.228718549671610
 40
1.000000000000000
 50
180.000000000000000
 51
270.000000000000000
  0
ARC
  8
0
  6
CONTINUOUS
 62
3
 10
-38.618048110593918
 20
-156.228718549671610
 40
1.000000000000000
 50
270.000000000000000
 51
0.000000000000000
  0
LINE
  8
0
  6
CONTINUOUS
 62
3
 10
-113.618048110615060
 20
-127.228718549671610
 11
-113.618048110615060
 21
-162.228718549671610
  0
LINE
  8
0
  6
CONTINUOUS
 62
3
 10
-106.618048110615060
 20
-165.228718549671610
 11
-110.618048110615060
 21
-165.228718549671610
  0
ARC
  8
0
  6
CONTINUOUS
 62
3
 10
-110.618048110615060
 20
-162.228718549671610
 40
3.000000000000000
 50
180.000000000000000
 51
270.000000000000000
  0
LINE
  8
0
  6
CONTINUOUS
 62
3
 10
-103.618048110615060
 20
-181.228718549671840
 11
-103.618048110615060
 21
-168.228718549671610
  0
ARC
  8
0
  6
CONTINUOUS
 62
3
 10
-106.618048110615060
 20
-168.228718549671610
 40
3.000000000000000
 50
0.000000000000000
 51
90.000000000000000
  0
POLYLINE
  8
0
  6
CONTINUOUS
 62
3
 66
1
 70
1
  0
VERTEX
  8
0
  6
CONTINUOUS
 62
3
 10
-109.918048110614840
 20
-174.556049504019140
  0
VERTEX
  8
0
  6
CONTINUOUS
 62
3
 10
-110.008357292719660
 20
-173.853092537818780
  0
VERTEX
  8
0
  6
CONTINUOUS
 62
3
 10
-110.275814307811800
 20
-173.177149813606690
  0
VERTEX
  8
0
  6
CONTINUOUS
 62
3
 10
-110.710140932792880
 20
-172.554197431201290
  0
VERTEX
  8
0
  6
CONTINUOUS
 62
3
 10
-111.294646239038070
 20
-172.008175101302700
  0
VERTEX
  8
0
  6
CONTINUOUS
 62
3
 10
-112.006868015422710
 20
-171.560066155836070
  0
VERTEX
  8
0
  6
CONTINUOUS
 62
3
 10
-112.819435978498910
 20
-171.227091170273330
  0
VERTEX
  8
0
  6
CONTINUOUS
 62
3
 10
-113.701123597139030
 20
-171.022046186575070
  0
VERTEX
  8
0
  6
CONTINUOUS
 62
3
 10
-114.618048110614830
 20
-170.952810968474300
  0
VERTEX
  8
0
  6
CONTINUOUS
 62
3
 10
-115.534972624090640
 20
-171.022046186575070
  0
VERTEX
  8
0
  6
CONTINUOUS
 62
3
 10
-116.416660242730750
 20
-171.227091170273330
  0
VERTEX
  8
0
  6
CONTINUOUS
 62
3
 10
-117.229228205806960
 20
-171.560066155836070
  0
VERTEX
  8
0
  6
CONTINUOUS
 62
3
 10
-117.941449982191600
 20
-172.008175101302700
  0
VERTEX
  8
0
  6
CONTINUOUS
 62
3
 10
-118.525955288436790
 20
-172.554197431201290
  0
VERTEX
  8
0
  6
CONTINUOUS
 62
3
 10
-118.960281913417870
 20
-173.177149813606690
  0
VERTEX
  8
0
  6
CONTINUOUS
 62
3
 10
-119.227738928510000
 20
-173.853092537818780
  0
VERTEX
  8
0
  6
CONTINUOUS
 62
3
 10
-119.318048110614820
 20
-174.556049504019140
  0
VERTEX
  8
0
  6
CONTINUOUS
 62
3
 10
-119.227738928510000
 20
-175.259006470219500
  0
VERTEX
  8
0
  6
CONTINUOUS
 62
3
 10
-118.960281913417870
 20
-175.934949194431600
  0
VERTEX
  8
0
  6
CONTINUOUS
 62
3
 10
-118.525955288436790
 20
-176.557901576837000
  0
VERTEX
  8
0
  6
CONTINUOUS
 62
3
 10
-117.941449982191600
 20
-177.103923906735590
  0
VERTEX
  8
0
  6
CONTINUOUS
 62
3
 10
-117.229228205806960
 20
-177.552032852202220
  0
VERTEX
  8
0
  6
CONTINUOUS
 62
3
 10
-116.416660242730750
 20
-177.885007837764960
  0
VERTEX
  8
0
  6
CONTINUOUS
 62
3
 10
-115.534972624090640
 20
-178.090052821463220
  0
VERTEX
  8
0
  6
CONTINUOUS
 62
3
 10
-114.618048110614830
 20
-178.159288039563990
  0
VERTEX
  8
0
  6
CONTINUOUS
 62
3
 10
-113.701123597139030
 20
-178.090052821463220
  0
VERTEX
  8
0
  6
CONTINUOUS
 62
3
 10
-112.819435978498910
 20
-177.885007837764960
  0
VERTEX
  8
0
  6
CONTINUOUS
 62
3
 10
-112.006868015422710
 20
-177.552032852202220
  0
VERTEX
  8
0
  6
CONTINUOUS
 62
3
 10
-111.294646239038070
 20
-177.103923906735590
  0
VERTEX
  8
0
  6
CONTINUOUS
 62
3
 10
-110.710140932792880
 20
-176.557901576837000
  0
VERTEX
  8
0
  6
CONTINUOUS
 62
3
 10
-110.275814307811800
 20
-175.934949194431600
  0
VERTEX
  8
0
  6
CONTINUOUS
 62
3
 10
-110.008357292719660
 20
-175.259006470219500
  0
SEQEND
  8
0
  6
CONTINUOUS
 62
3
  0
LINE
  8
0
  6
CONTINUOUS
 62
3
 10
-116.618048110615060
 20
-177.548425058019570
 11
-114.618048110615290
 21
-176.372639572396680
  0
LINE
  8
0
  6
CONTINUOUS
 62
3
 10
-114.618048110615290
 20
-176.372639572396680
 11
-112.618048110615060
 21
-174.719997933273360
  0
LINE
  8
0
  6
CONTINUOUS
 62
3
 10
-112.618048110615060
 20
-177.548425058019570
 11
-114.618048110615290
 21
-176.372639572396680
  0
LINE
  8
0
  6
CONTINUOUS
 62
3
 10
-114.618048110615290
 20
-176.372639572396680
 11
-116.618048110615060
 21
-174.719997933273360
  0
LINE
  8
0
  6
CONTINUOUS
 62
4
 10
-113.618048110615060
 20
-155.985114100308690
 11
-111.618048110593910
 21
-155.985114100308690
  0
LINE
  8
0
  6
CONTINUOUS
 62
4
 10
-113.618048110615060
 20
-154.506090946831590
 11
-111.618048110593910
 21
-154.506090946831590
  0
LINE
  8
0
  6
CONTINUOUS
 62
4
 10
-113.618048110615060
 20
-151.413359955166360
 11
-111.618048110593910
 21
-151.413359955166360
  0
LINE
  8
0
  6
CONTINUOUS
 62
4
 10
-113.618048110615060
 20
-150.066958229667760
 11
-111.618048110593910
 21
-150.066958229667760
  0
LINE
  8
0
  6
CONTINUOUS
 62
4
 10
-113.618048110615060
 20
-147.228718549671610
 11
-111.618048110593910
 21
-147.228718549671610
  0
LINE
  8
0
  6
CONTINUOUS
 62
3
 10
-103.618048110615060
 20
-181.228718549671840
 11
-133.122893059708080
 21
-181.228718549671840
  0
ARC
  8
0
  6
CONTINUOUS
 62
3
 10
-133.122893059708080
 20
-160.628718549671820
 40
20.599999999999891
 50
235.000000000000400
 51
270.000000000000000
  0
ARC
  8
0
  6
CONTINUOUS
 62
3
 10
-151.018048110615380
 20
-170.072338683301150
 40
2.599999999999909
 50
180.000000000000000
 51
234.999999999997390
  0
LINE
  8
0
  6
CONTINUOUS
 62
3
 10
-153.618048110615290
 20
-170.072338683301150
 11
-153.618048110615290
 21
-127.228718549671610
  0
LINE
  8
0
  6
CONTINUOUS
 62
3
 10
-144.938567648539450
 20
-177.503250662025040
 11
-152.509346845128220
 21
-172.202133998452500
  0
LINE
  8
0
  6
CONTINUOUS
 62
3
 10
-110.618048110593910
 20
-127.228718549671610
 11
-110.618048110593910
 21
-156.228718549671610
  0
LINE
  8
0
  6
CONTINUOUS
 62
3
 10
-37.618048110593918
 20
-156.228718549671610
 11
-37.618048110593918
 21
-127.228718549671610
  0
LINE
  8
0
  6
CONTINUOUS
 62
3
 10
-113.618048110615060
 20
-127.228718549671610
 11
-113.618048110615060
 21
-92.228718549671612
  0
LINE
  8
0
  6
CONTINUOUS
 62
3
 10
-106.618048110615060
 20
-89.228718549671612
 11
-110.618048110615060
 21
-89.228718549671612
  0
ARC
  8
0
  6
CONTINUOUS
 62
3
 10
-110.618048110615060
 20
-92.228718549671612
 40
3.000000000000000
 50
90.000000000000000
 51
180.000000000000000
  0
LINE
  8
0
  6
CONTINUOUS
 62
3
 10
-103.618048110615060
 20
-73.228718549671385
 11
-103.618048110615060
 21
-86.228718549671612
  0
ARC
  8
0
  6
CONTINUOUS
 62
3
 10
-106.618048110615060
 20
-86.228718549671612
 40
3.000000000000000
 50
270.000000000000000
 51
0.000000000000000
  0
POLYLINE
  8
0
  6
CONTINUOUS
 62
3
 66
1
 70
1
  0
VERTEX
  8
0
  6
CONTINUOUS
 62
3
 10
-109.918048110614840
 20
-79.901387595323968
  0
VERTEX
  8
0
  6
CONTINUOUS
 62
3
 10
-110.008357292719660
 20
-79.198430629123607
  0
VERTEX
  8
0
  6
CONTINUOUS
 62
3
 10
-110.275814307811800
 20
-78.522487904911515
  0
VERTEX
  8
0
  6
CONTINUOUS
 62
3
 10
-110.710140932792880
 20
-77.899535522506113
  0
VERTEX
  8
0
  6
CONTINUOUS
 62
3
 10
-111.294646239038070
 20
-77.353513192607537
  0
VERTEX
  8
0
  6
CONTINUOUS
 62
3
 10
-112.006868015422710
 20
-76.905404247140922
  0
VERTEX
  8
0
  6
CONTINUOUS
 62
3
 10
-112.819435978498910
 20
-76.572429261578151
  0
VERTEX
  8
0
  6
CONTINUOUS
 62
3
 10
-113.701123597139030
 20
-76.367384277879907
  0
VERTEX
  8
0
  6
CONTINUOUS
 62
3
 10
-114.618048110614830
 20
-76.298149059779135
  0
VERTEX
  8
0
  6
CONTINUOUS
 62
3
 10
-115.534972624090640
 20
-76.367384277879907
  0
VERTEX
  8
0
  6
CONTINUOUS
 62
3
 10
-116.416660242730750
 20
-76.572429261578151
  0
VERTEX
  8
0
  6
CONTINUOUS
 62
3
 10
-117.229228205806960
 20
-76.905404247140922
  0
VERTEX
  8
0
  6
CONTINUOUS
 62
3
 10
-117.941449982191600
 20
-77.353513192607537
  0
VERTEX
  8
0
  6
CONTINUOUS
 62
3
 10
-118.525955288436790
 20
-77.899535522506113
  0
VERTEX
  8
0
  6
CONTINUOUS
 62
3
 10
-118.960281913417870
 20
-78.522487904911515
  0
VERTEX
  8
0
  6
CONTINUOUS
 62
3
 10
-119.227738928510000
 20
-79.198430629123607
  0
VERTEX
  8
0
  6
CONTINUOUS
 62
3
 10
-119.318048110614820
 20
-79.901387595323968
  0
VERTEX
  8
0
  6
CONTINUOUS
 62
3
 10
-119.227738928510000
 20
-80.604344561524329
  0
VERTEX
  8
0
  6
CONTINUOUS
 62
3
 10
-118.960281913417870
 20
-81.280287285736421
  0
VERTEX
  8
0
  6
CONTINUOUS
 62
3
 10
-118.525955288436790
 20
-81.903239668141822
  0
VERTEX
  8
0
  6
CONTINUOUS
 62
3
 10
-117.941449982191600
 20
-82.449261998040399
  0
VERTEX
  8
0
  6
CONTINUOUS
 62
3
 10
-117.229228205806960
 20
-82.897370943507013
  0
VERTEX
  8
0
  6
CONTINUOUS
 62
3
 10
-116.416660242730750
 20
-83.230345929069784
  0
VERTEX
  8
0
  6
CONTINUOUS
 62
3
 10
-115.534972624090640
 20
-83.435390912768028
  0
VERTEX
  8
0
  6
CONTINUOUS
 62
3
 10
-114.618048110614830
 20
-83.504626130868800
  0
VERTEX
  8
0
  6
CONTINUOUS
 62
3
 10
-113.701123597139030
 20
-83.435390912768028
  0
VERTEX
  8
0
  6
CONTINUOUS
 62
3
 10
-112.819435978498910
 20
-83.230345929069784
  0
VERTEX
  8
0
  6
CONTINUOUS
 62
3
 10
-112.006868015422710
 20
-82.897370943507013
  0
VERTEX
  8
0
  6
CONTINUOUS
 62
3
 10
-111.294646239038070
 20
-82.449261998040399
  0
VERTEX
  8
0
  6
CONTINUOUS
 62
3
 10
-110.710140932792880
 20
-81.903239668141822
  0
VERTEX
  8
0
  6
CONTINUOUS
 62
3
 10
-110.275814307811800
 20
-81.280287285736421
  0
VERTEX
  8
0
  6
CONTINUOUS
 62
3
 10
-110.008357292719660
 20
-80.604344561524329
  0
SEQEND
  8
0
  6
CONTINUOUS
 62
3
  0
LINE
  8
0
  6
CONTINUOUS
 62
3
 10
-116.618048110615060
 20
-76.909012041323649
 11
-114.618048110615290
 21
-78.084797526946431
  0
LINE
  8
0
  6
CONTINUOUS
 62
3
 10
-114.618048110615290
 20
-78.084797526946431
 11
-112.618048110615060
 21
-79.737439166069862
  0
LINE
  8
0
  6
CONTINUOUS
 62
3
 10
-112.618048110615060
 20
-76.909012041323649
 11
-114.618048110615290
 21
-78.084797526946431
  0
LINE
  8
0
  6
CONTINUOUS
 62
3
 10
-114.618048110615290
 20
-78.084797526946431
 11
-116.618048110615060
 21
-79.737439166069862
  0
ARC
  8
0
  6
CONTINUOUS
 62
3
 10
-133.122893059708080
 20
-93.828718549671407
 40
20.600000000000023
 50
90.000000000000000
 51
124.999999999999600
  0
ARC
  8
0
  6
CONTINUOUS
 62
3
 10
-151.018048110615380
 20
-84.385098416042069
 40
2.600000000000131
 50
125.000000000001180
 51
180.000000000000000
  0
LINE
  8
0
  6
CONTINUOUS
 62
3
 10
-153.618048110615290
 20
-84.385098416042069
 11
-153.618048110615290
 21
-127.228718549671610
  0
LINE
  8
0
  6
CONTINUOUS
 62
3
 10
-144.938567648539450
 20
-76.954186437318072
 11
-152.509346845128220
 21
-82.255303100890615
  0
LINE
  8
0
  6
CONTINUOUS
 62
3
 10
-103.618048110615060
 20
-73.228718549671385
 11
-133.122893059708080
 21
-73.228718549671385
  0
LINE
  8
0
  6
CONTINUOUS
 62
3
 10
-111.618048110593910
 20
-127.228718549671610
 11
-111.618048110593910
 21
-97.728718549671612
  0
LINE
  8
0
  6
CONTINUOUS
 62
3
 10
-36.618048110593918
 20
-127.228718549671610
 11
-36.618048110593918
 21
-97.728718549671612
  0
LINE
  8
0
  6
CONTINUOUS
 62
3
 10
-38.618048110593918
 20
-95.728718549671612
 11
-109.618048110593910
 21
-95.728718549671612
  0
ARC
  8
0
  6
CONTINUOUS
 62
3
 10
-38.618048110593918
 20
-97.728718549671612
 40
2.000000000000000
 50
0.000000000000000
 51
90.000000000000000
  0
ARC
  8
0
  6
CONTINUOUS
 62
3
 10
-109.618048110593910
 20
-97.728718549671612
 40
2.000000000000000
 50
90.000000000000000
 51
180.000000000000000
  0
LINE
  8
0
  6
CONTINUOUS
 62
4
 10
-113.618048110615060
 20
-107.228718549671610
 11
-111.618048110593910
 21
-107.228718549671610
  0
LINE
  8
0
  6
CONTINUOUS
 62
4
 10
-113.618048110615060
 20
-98.472322999034532
 11
-111.618048110593910
 21
-98.472322999034532
  0
LINE
  8
0
  6
CONTINUOUS
 62
4
 10
-113.618048110615060
 20
-99.951346152511633
 11
-111.618048110593910
 21
-99.951346152511633
  0
LINE
  8
0
  6
CONTINUOUS
 62
4
 10
-113.618048110615060
 20
-103.044077144176860
 11
-111.618048110593910
 21
-103.044077144176860
  0
LINE
  8
0
  6
CONTINUOUS
 62
4
 10
-113.618048110615060
 20
-104.390478869675460
 11
-111.618048110593910
 21
-104.390478869675460
  0
LINE
  8
0
  6
CONTINUOUS
 62
3
 10
-38.618048110593918
 20
-97.228718549671612
 11
-109.618048110593910
 21
-97.228718549671612
  0
LINE
  8
0
  6
CONTINUOUS
 62
3
 10
-110.618048110593910
 20
-127.228718549671610
 11
-110.618048110593910
 21
-98.228718549671612
  0
LINE
  8
0
  6
CONTINUOUS
 62
3
 10
-37.618048110593918
 20
-98.228718549671612
 11
-37.618048110593918
 21
-127.228718549671610
  0
ARC
  8
0
  6
CONTINUOUS
 62
3
 10
-109.618048110593910
 20
-98.228718549671612
 40
1.000000000000000
 50
90.000000000000000
 51
180.000000000000000
  0
ARC
  8
0
  6
CONTINUOUS
 62
3
 10
-38.618048110593918
 20
-98.228718549671612
 40
1.000000000000000
 50
0.000000000000000
 51
90.000000000000000
  0
LINE
  8
0
  6
CONTINUOUS
 62
4
 10
-36.618048110593918
 20
-98.472322999034532
 11
36.881951889405855
 21
-98.472322999034532
  0
LINE
  8
0
  6
CONTINUOUS
 62
4
 10
-36.618048110593918
 20
-99.951346152511633
 11
36.881951889405855
 21
-99.951346152511633
  0
LINE
  8
0
  6
CONTINUOUS
 62
4
 10
-36.618048110593918
 20
-103.044077144176860
 11
36.881951889405855
 21
-103.044077144176860
  0
LINE
  8
0
  6
CONTINUOUS
 62
4
 10
-36.618048110593918
 20
-104.390478869675460
 11
36.881951889405855
 21
-104.390478869675460
  0
LINE
  8
0
  6
CONTINUOUS
 62
4
 10
-36.618048110593918
 20
-107.228718549671610
 11
36.881951889405855
 21
-107.228718549671610
  0
LINE
  8
0
  6
CONTINUOUS
 62
4
 10
-103.775648456986340
 20
-87.188283143147146
 11
36.881951889405855
 21
-87.188283143147146
  0
LINE
  8
0
  6
CONTINUOUS
 62
4
 10
-103.618048110615060
 20
-82.724063022566725
 11
54.381951889404824
 21
-82.724063022566725
  0
LINE
  8
0
  6
CONTINUOUS
 62
4
 10
-113.618048110615060
 20
-95.514327390901599
 11
36.881951889405855
 21
-95.514327390901599
  0
LINE
  8
0
  6
CONTINUOUS
 62
4
 10
-113.618048110615060
 20
-93.925117598162842
 11
36.881951889405855
 21
-93.925117598162842
  0
LINE
  8
0
  6
CONTINUOUS
 62
4
 10
-103.618048110615060
 20
-86.186804779331851
 11
36.881951889405855
 21
-86.186804779331851
  0
LINE
  8
0
  6
CONTINUOUS
 62
4
 10
-103.618048110615060
 20
-81.095635954788918
 11
36.881951889405855
 21
-81.095635954788918
  0
LINE
  8
0
  6
CONTINUOUS
 62
4
 10
-103.618048110615060
 20
-76.228718549671498
 11
36.881951889405855
 21
-76.228718549671498
  0
LINE
  8
0
  6
CONTINUOUS
 62
4
 10
-103.618048110615060
 20
-76.728718549671612
 11
36.881951889405855
 21
-76.728718549671612
  0
LINE
  8
0
  6
CONTINUOUS
 62
3
 10
36.881951889405855
 20
-74.728718549671612
 11
-103.618048110615060
 21
-74.728718549671612
  0
LINE
  8
0
  6
CONTINUOUS
 62
4
 10
-113.618048110615060
 20
-158.943109708441630
 11
36.881951889405855
 21
-158.943109708441630
  0
LINE
  8
0
  6
CONTINUOUS
 62
4
 10
-113.618048110615060
 20
-160.532319501180270
 11
36.881951889405855
 21
-160.532319501180270
  0
LINE
  8
0
  6
CONTINUOUS
 62
4
 10
-103.775648456986340
 20
-167.269153956195960
 11
36.881951889405855
 21
-167.269153956195960
  0
LINE
  8
0
  6
CONTINUOUS
 62
4
 10
-103.618048110615060
 20
-168.270632320011260
 11
36.881951889405855
 21
-168.270632320011260
  0
LINE
  8
0
  6
CONTINUOUS
 62
4
 10
-103.618048110615060
 20
-171.733374076776500
 11
36.881951889405855
 21
-171.733374076776500
  0
LINE
  8
0
  6
CONTINUOUS
 62
4
 10
-103.618048110615060
 20
-173.361801144554310
 11
36.881951889405855
 21
-173.361801144554310
  0
LINE
  8
0
  6
CONTINUOUS
 62
4
 10
-103.618048110615060
 20
-178.228718549671610
 11
36.881951889405855
 21
-178.228718549671610
  0
LINE
  8
0
  6
CONTINUOUS
 62
4
 10
-103.618048110615060
 20
-177.728718549671610
 11
36.881951889405855
 21
-177.728718549671610
  0
LINE
  8
0
  6
CONTINUOUS
 62
3
 10
36.881951889405855
 20
-179.728718549671610
 11
-103.618048110615060
 21
-179.728718549671610
  0
LINE
  8
0
  6
CONTINUOUS
 62
4
 10
-36.618048110593918
 20
-155.985114100308690
 11
36.881951889405855
 21
-155.985114100308690
  0
LINE
  8
0
  6
CONTINUOUS
 62
4
 10
-36.618048110593918
 20
-154.506090946831590
 11
36.881951889405855
 21
-154.506090946831590
  0
LINE
  8
0
  6
CONTINUOUS
 62
4
 10
-36.618048110593918
 20
-151.413359955166360
 11
36.881951889405855
 21
-151.413359955166360
  0
LINE
  8
0
  6
CONTINUOUS
 62
4
 10
-36.618048110593918
 20
-150.066958229667760
 11
36.881951889405855
 21
-150.066958229667760
  0
LINE
  8
0
  6
CONTINUOUS
 62
4
 10
-36.618048110593918
 20
-147.228718549671610
 11
36.881951889405855
 21
-147.228718549671610
  0
LINE
  8
0
  6
DASHDOT
 62
4
 10
79.525728077671602
 20
-127.228718549671610
 11
-174.176479296518440
 21
-127.228718549671610
  0
LINE
  8
0
  6
CONTINUOUS
 62
4
 10
36.881951889405912
 20
-178.228718549671610
 11
54.381951889404945
 21
-178.228718549671610
  0
LINE
  8
0
  6
CONTINUOUS
 62
4
 10
36.881951889405855
 20
-177.728718549671610
 11
54.381951889404945
 21
-177.728718549671610
  0
LINE
  8
0
  6
CONTINUOUS
 62
4
 10
36.881951889405855
 20
-173.361801144554310
 11
54.381951889404945
 21
-173.361801144554310
  0
LINE
  8
0
  6
CONTINUOUS
 62
4
 10
36.881951889405855
 20
-171.733374076776500
 11
54.381951889404945
 21
-171.733374076776500
  0
LINE
  8
0
  6
CONTINUOUS
 62
4
 10
36.881951889405855
 20
-167.269153956195960
 11
54.381951889404945
 21
-167.269153956195960
  0
LINE
  8
0
  6
CONTINUOUS
 62
4
 10
36.881951889405855
 20
-168.270632320011260
 11
54.381951889404945
 21
-168.270632320011260
  0
LINE
  8
0
  6
CONTINUOUS
 62
4
 10
36.881951889405855
 20
-160.532319501180270
 11
54.381951889404945
 21
-160.532319501180270
  0
LINE
  8
0
  6
CONTINUOUS
 62
4
 10
36.881951889405855
 20
-158.943109708441630
 11
54.381951889404945
 21
-158.943109708441630
  0
LINE
  8
0
  6
CONTINUOUS
 62
4
 10
36.881951889405855
 20
-155.985114100308690
 11
54.381951889404945
 21
-155.985114100308690
  0
LINE
  8
0
  6
CONTINUOUS
 62
4
 10
36.881951889405855
 20
-154.506090946831590
 11
54.381951889404945
 21
-154.506090946831590
  0
LINE
  8
0
  6
CONTINUOUS
 62
4
 10
36.881951889405855
 20
-151.413359955166360
 11
54.381951889404945
 21
-151.413359955166360
  0
LINE
  8
0
  6
CONTINUOUS
 62
4
 10
36.881951889405855
 20
-150.066958229667760
 11
54.381951889404945
 21
-150.066958229667760
  0
LINE
  8
0
  6
CONTINUOUS
 62
4
 10
36.881951889405855
 20
-147.228718549671610
 11
54.381951889404945
 21
-147.228718549671610
  0
LINE
  8
0
  6
CONTINUOUS
 62
4
 10
36.881951889405912
 20
-95.514327390901599
 11
54.381951889404945
 21
-95.514327390901599
  0
LINE
  8
0
  6
CONTINUOUS
 62
4
 10
36.881951889405912
 20
-93.925117598162842
 11
54.381951889404945
 21
-93.925117598162842
  0
LINE
  8
0
  6
CONTINUOUS
 62
4
 10
36.881951889405912
 20
-99.951346152511633
 11
54.381951889404945
 21
-99.951346152511633
  0
LINE
  8
0
  6
CONTINUOUS
 62
4
 10
36.881951889405912
 20
-98.472322999034532
 11
54.381951889404945
 21
-98.472322999034532
  0
LINE
  8
0
  6
CONTINUOUS
 62
4
 10
36.881951889405912
 20
-103.044077144176860
 11
53.381951889404945
 21
-103.044077144176860
  0
LINE
  8
0
  6
CONTINUOUS
 62
4
 10
36.881951889405912
 20
-104.390478869675460
 11
53.381951889404945
 21
-104.390478869675460
  0
LINE
  8
0
  6
CONTINUOUS
 62
4
 10
36.881951889405912
 20
-107.228718549671610
 11
53.381951889404945
 21
-107.228718549671610
  0
LINE
  8
0
  6
CONTINUOUS
 62
4
 10
36.881951889405912
 20
-76.228718549671498
 11
54.381951889404945
 21
-76.228718549671498
  0
LINE
  8
0
  6
CONTINUOUS
 62
4
 10
36.881951889405912
 20
-76.728718549671612
 11
54.381951889404945
 21
-76.728718549671612
  0
LINE
  8
0
  6
CONTINUOUS
 62
4
 10
36.881951889405912
 20
-81.095635954788918
 11
54.381951889404945
 21
-81.095635954788918
  0
LINE
  8
0
  6
CONTINUOUS
 62
4
 10
36.881951889405912
 20
-86.186804779331851
 11
54.381951889404945
 21
-86.186804779331851
  0
LINE
  8
0
  6
CONTINUOUS
 62
4
 10
36.881951889405912
 20
-87.188283143147146
 11
54.381951889404945
 21
-87.188283143147146
  0
LINE
  8
0
  6
CONTINUOUS
 62
3
 10
36.881951889405855
 20
-74.728718549671726
 11
36.881951889405855
 21
-127.228718549671610
  0
LINE
  8
0
  6
CONTINUOUS
 62
3
 10
36.881951889405855
 20
-179.728718549671610
 11
36.881951889405855
 21
-127.228718549671610
  0
LINE
  8
0
  6
CONTINUOUS
 62
3
 10
36.881951889405855
 20
-176.932680648488430
 11
36.881951889405855
 21
-127.228718549671610
  0
LINE
  8
0
  6
CONTINUOUS
 62
3
 10
55.381951889404945
 20
-65.895535482428386
 11
57.281951889405491
 21
-65.895535482428386
  0
LINE
  8
0
  6
CONTINUOUS
 62
3
 10
55.381951889404945
 20
-122.978718549671610
 11
57.281951889405036
 21
-122.978718549671610
  0
LINE
  8
0
  6
CONTINUOUS
 62
3
 10
55.381951889404945
 20
-135.478718549671610
 11
57.281951889405036
 21
-135.478718549671610
  0
LINE
  8
0
  6
CONTINUOUS
 62
3
 10
57.381951889404945
 20
-135.378718549671250
 11
57.381951889404945
 21
-123.078718549671060
  0
ARC
  8
0
  6
CONTINUOUS
 62
3
 10
55.381951889404945
 20
-121.978718549671610
 40
1.000000000000000
 50
180.000000000000000
 51
270.000000000000000
  0
ARC
  8
0
  6
CONTINUOUS
 62
3
 10
57.281951889405491
 20
-182.936904172574030
 40
0.099999999999909
 50
0.000000000000000
 51
90.000000000000000
  0
ARC
  8
0
  6
CONTINUOUS
 62
3
 10
57.281951889405036
 20
-123.078718549671060
 40
0.099999999999909
 50
0.000000000000000
 51
90.000000000000000
  0
ARC
  8
0
  6
CONTINUOUS
 62
3
 10
55.381951889404945
 20
-136.478718549671610
 40
1.000000000000000
 50
90.000000000000000
 51
180.000000000000000
  0
ARC
  8
0
  6
CONTINUOUS
 62
3
 10
54.381951889404945
 20
-115.496667742102540
 40
1.000000000000000
 50
180.000000000000000
 51
239.999999999989710
  0
LINE
  8
0
  6
CONTINUOUS
 62
3
 10
53.381951889404945
 20
-100.960769357239760
 11
53.381951889404945
 21
-115.496667742102540
  0
ARC
  8
0
  6
CONTINUOUS
 62
3
 10
53.381951889404945
 20
-117.228718549671610
 40
1.000000000000000
 50
0.000000000000000
 51
60.000000000015746
  0
ARC
  8
0
  6
CONTINUOUS
 62
3
 10
54.381951889404945
 20
-100.960769357239760
 40
0.999999999999688
 50
120.000000000010300
 51
180.000000000000000
  0
ARC
  8
0
  6
CONTINUOUS
 62
3
 10
53.381951889404945
 20
-99.228718549671612
 40
0.999999999999688
 50
300.000000000010290
 51
0.000000000000000
  0
LINE
  8
0
  6
CONTINUOUS
 62
3
 10
57.381951889404945
 20
-65.795535482428022
 11
57.381951889404945
 21
-62.458008723654530
  0
LINE
  8
0
  6
CONTINUOUS
 62
3
 10
55.381951889405400
 20
-182.836904172574580
 11
57.281951889405491
 21
-182.836904172574580
  0
ARC
  8
0
  6
CONTINUOUS
 62
3
 10
55.381951889404945
 20
-66.895535482428386
 40
1.000000000000000
 50
90.000000000000000
 51
180.000000000000000
  0
LINE
  8
0
  6
CONTINUOUS
 62
3
 10
55.381951889404945
 20
-62.358008723655075
 11
57.281951889405491
 21
-62.358008723655075
  0
ARC
  8
0
  6
CONTINUOUS
 62
3
 10
55.381951889405400
 20
-181.836904172574580
 40
1.000000000000000
 50
180.000000000000000
 51
270.000000000000000
  0
ARC
  8
0
  6
CONTINUOUS
 62
3
 10
55.381951889404945
 20
-63.358008723655075
 40
1.000000000000000
 50
90.000000000000000
 51
180.000000000000000
  0
ARC
  8
0
  6
CONTINUOUS
 62
3
 10
57.281951889405036
 20
-135.378718549671250
 40
0.100000000000364
 50
270.000000000000000
 51
0.000000000000000
  0
ARC
  8
0
  6
CONTINUOUS
 62
3
 10
57.281951889405491
 20
-62.458008723654530
 40
0.099999999999454
 50
0.000000000000000
 51
90.000000000000000
  0
LINE
  8
0
  6
CONTINUOUS
 62
3
 10
57.381951889405400
 20
-190.728718549671610
 11
51.381951889405400
 21
-190.728718549671610
  0
LINE
  8
0
  6
CONTINUOUS
 62
3
 10
54.277232106918255
 20
-180.728718549671610
 11
51.381951889405400
 21
-180.728718549671610
  0
LINE
  8
0
  6
CONTINUOUS
 62
3
 10
51.381951889405400
 20
-190.728718549671610
 11
51.381951889405400
 21
-180.728718549671610
  0
LINE
  8
0
  6
CONTINUOUS
 62
3
 10
57.381951889405400
 20
-182.936904172574030
 11
57.381951889405400
 21
-191.128718549671250
  0
ARC
  8
0
  6
CONTINUOUS
 62
3
 10
57.281951889405491
 20
-65.795535482428022
 40
0.100000000000364
 50
270.000000000000000
 51
0.000000000000000
  0
ARC
  8
0
  6
CONTINUOUS
 62
3
 10
57.481951889405309
 20
-191.128718549671250
 40
0.099999999999909
 50
180.000000000000000
 51
270.000000000000000
  0
LINE
  8
0
  6
CONTINUOUS
 62
3
 10
54.381951889404945
 20
-76.228718549671612
 11
51.381951889404945
 21
-76.228718549671612
  0
LINE
  8
0
  6
CONTINUOUS
 62
3
 10
54.636730326251609
 20
-66.228718549671612
 11
51.381951889404945
 21
-66.228718549671612
  0
LINE
  8
0
  6
CONTINUOUS
 62
3
 10
51.381951889404945
 20
-76.228718549671612
 11
51.381951889404945
 21
-66.228718549671612
  0
LINE
  8
0
  6
CONTINUOUS
 62
3
 10
54.381951889404945
 20
-66.895535482428386
 11
54.381951889404490
 21
-124.228718549671610
  0
LINE
  8
0
  6
CONTINUOUS
 62
3
 10
63.381951889404945
 20
-61.228718549671612
 11
63.381951889404945
 21
-127.228718549671610
  0
LINE
  8
0
  6
CONTINUOUS
 62
3
 10
63.381951889405855
 20
-191.228718549671610
 11
63.381951889405855
 21
-127.228718549671610
  0
LINE
  8
0
  6
CONTINUOUS
 62
3
 10
54.381951889404945
 20
-62.228718549671612
 11
54.381951889404945
 21
-66.228718549671612
  0
LINE
  8
0
  6
CONTINUOUS
 62
3
 10
51.381951889404945
 20
-74.335929726134083
 11
36.881951889405855
 21
-74.715625588886724
  0
LINE
  8
0
  6
CONTINUOUS
 62
3
 10
53.408128837713093
 20
-180.174564683862630
 11
36.881951889405855
 21
-179.741811510456500
  0
LINE
  8
0
  6
CONTINUOUS
 62
3
 10
55.381951889404945
 20
-61.228718549671612
 11
63.381951889404945
 21
-61.228718549671612
  0
ARC
  8
0
  6
CONTINUOUS
 62
3
 10
55.381951889404945
 20
-62.228718549671612
 40
1.000000000000000
 50
90.000000000000000
 51
180.000000000000000
  0
LINE
  8
0
  6
CONTINUOUS
 62
3
 10
56.381951889404945
 20
-191.228718549671610
 11
63.381951889405855
 21
-191.228718549671610
  0
LINE
  8
0
  6
CONTINUOUS
 62
3
 10
54.381951889404945
 20
-134.228718549671610
 11
54.381951889404945
 21
-181.836904172574580
  0
ARC
  8
0
  6
CONTINUOUS
 62
3
 10
56.381951889404945
 20
-189.228718549671610
 40
1.999999999999966
 50
228.590377890730250
 51
270.000000000000000
  0
ARC
  8
0
  6
CONTINUOUS
 62
3
 10
53.381951889404945
 20
-181.174222008838110
 40
1.000000000000000
 50
0.000000000000000
 51
88.499999999984155
  0
LINE
  8
0
  6
CONTINUOUS
 62
3
 10
183.881951889404950
 20
-104.228718549670700
 11
154.881951889405400
 21
-104.228718549670700
  0
LINE
  8
0
  6
CONTINUOUS
 62
3
 10
183.881951889404950
 20
-110.228718549670700
 11
154.881951889405400
 21
-110.228718549670700
  0
ARC
  8
0
  6
CONTINUOUS
 62
3
 10
154.881951889405400
 20
-107.228718549670700
 40
3.000000000000000
 50
90.000000000000000
 51
270.000000000000000
  0
LINE
  8
0
  6
CONTINUOUS
 62
3
 10
183.881951889404950
 20
-107.228718549670700
 11
183.881951889404950
 21
-96.628718549671248
  0
LINE
  8
0
  6
CONTINUOUS
 62
3
 10
183.481951889404850
 20
-96.228718549670702
 11
150.441759510540350
 21
-96.228718549670702
  0
LINE
  8
0
  6
CONTINUOUS
 62
3
 10
183.481951889404850
 20
-96.228718549670702
 11
150.441759510540350
 21
-96.228718549670702
  0
ARC
  8
0
  6
CONTINUOUS
 62
3
 10
183.481951889404850
 20
-96.628718549671248
 40
0.400000000000091
 50
0.000000000000000
 51
90.000000000000000
  0
LINE
  8
0
  6
CONTINUOUS
 62
3
 10
145.881951889404950
 20
-95.228718549670702
 11
147.481951889404850
 21
-95.228718549670702
  0
LINE
  8
0
  6
CONTINUOUS
 62
3
 10
147.881951889404950
 20
-107.228718549670700
 11
147.881951889404950
 21
-95.628718549671248
  0
LINE
  8
0
  6
CONTINUOUS
 62
3
 10
149.881951889404950
 20
-96.378718549671248
 11
148.681951889404670
 21
-96.378718549671248
  0
LINE
  8
0
  6
CONTINUOUS
 62
3
 10
150.441759510540350
 20
-96.228718549670702
 11
149.881951889404950
 21
-96.378718549671248
  0
LINE
  8
0
  6
CONTINUOUS
 62
3
 10
147.881951889404950
 20
-95.628718549671248
 11
147.481951889404850
 21
-95.228718549670702
  0
ARC
  8
0
  6
CONTINUOUS
 62
3
 10
148.681951889404670
 20
-95.578718549671066
 40
0.799999999999783
 50
183.703196634282420
 51
270.000000000000000
  0
LINE
  8
0
  6
CONTINUOUS
 62
3
 10
149.881951889404950
 20
-96.378718549671248
 11
148.681951889404670
 21
-96.378718549671248
  0
LINE
  8
0
  6
CONTINUOUS
 62
3
 10
150.441759510540350
 20
-96.228718549670702
 11
149.881951889404950
 21
-96.378718549671248
  0
LINE
  8
0
  6
CONTINUOUS
 62
3
 10
147.881951889404950
 20
-95.628718549671248
 11
147.481951889404850
 21
-95.228718549670702
  0
LINE
  8
0
  6
CONTINUOUS
 62
3
 10
145.881951889404950
 20
-95.228718549670702
 11
147.481951889404850
 21
-95.228718549670702
  0
LINE
  8
0
  6
CONTINUOUS
 62
3
 10
145.881951889404950
 20
-119.228718549670700
 11
147.481951889404850
 21
-119.228718549670700
  0
LINE
  8
0
  6
CONTINUOUS
 62
3
 10
147.881951889404950
 20
-107.228718549670700
 11
147.881951889404950
 21
-118.828718549671060
  0
LINE
  8
0
  6
CONTINUOUS
 62
3
 10
149.881951889404950
 20
-118.078718549671060
 11
148.681951889404670
 21
-118.078718549671060
  0
LINE
  8
0
  6
CONTINUOUS
 62
3
 10
150.441759510540350
 20
-118.228718549670700
 11
149.881951889404950
 21
-118.078718549671060
  0
LINE
  8
0
  6
CONTINUOUS
 62
3
 10
147.881951889404950
 20
-118.828718549671060
 11
147.481951889404850
 21
-119.228718549670700
  0
LINE
  8
0
  6
CONTINUOUS
 62
3
 10
183.481951889404850
 20
-118.228718549670700
 11
150.441759510540350
 21
-118.228718549670700
  0
ARC
  8
0
  6
CONTINUOUS
 62
3
 10
148.681951889404670
 20
-118.878718549670330
 40
0.799999999999272
 50
90.000000000000000
 51
176.296803365782610
  0
LINE
  8
0
  6
CONTINUOUS
 62
3
 10
149.881951889404950
 20
-118.078718549671060
 11
148.681951889404670
 21
-118.078718549671060
  0
LINE
  8
0
  6
CONTINUOUS
 62
3
 10
150.441759510540350
 20
-118.228718549670700
 11
149.881951889404950
 21
-118.078718549671060
  0
LINE
  8
0
  6
CONTINUOUS
 62
3
 10
147.881951889404950
 20
-118.828718549671060
 11
147.481951889404850
 21
-119.228718549670700
  0
LINE
  8
0
  6
CONTINUOUS
 62
3
 10
183.481951889404850
 20
-118.228718549670700
 11
150.441759510540350
 21
-118.228718549670700
  0
LINE
  8
0
  6
CONTINUOUS
 62
3
 10
145.881951889404950
 20
-119.228718549670700
 11
147.481951889404850
 21
-119.228718549670700
  0
LINE
  8
0
  6
CONTINUOUS
 62
3
 10
183.881951889404950
 20
-107.228718549670700
 11
183.881951889404950
 21
-117.828718549671060
  0
ARC
  8
0
  6
CONTINUOUS
 62
3
 10
183.481951889404850
 20
-117.828718549671060
 40
0.399999999999636
 50
270.000000000000000
 51
0.000000000000000
  0
LINE
  8
0
  6
DASHDOT
 62
4
 10
149.104785566414420
 20
-38.285807383982501
 11
116.267596854020430
 21
-38.285807383982501
  0
LINE
  8
0
  6
DASHDOT
 62
4
 10
149.104785566414420
 20
-176.171629715358900
 11
116.267596854020430
 21
-176.171629715358900
  0
ARC
  8
0
  6
CONTINUOUS
 62
3
 10
110.048669284097960
 20
-60.480821224336978
 40
3.000000000000000
 50
270.000000000000000
 51
319.523454666810440
  0
ARC
  8
0
  6
CONTINUOUS
 62
3
 10
122.381951889405620
 20
-46.028426832104742
 40
3.000000000000073
 50
319.523454666815210
 51
0.000000000000000
  0
LINE
  8
0
  6
CONTINUOUS
 62
3
 10
112.330684566158190
 20
-62.428231364099702
 11
124.663967171465170
 21
-47.975836971866556
  0
ARC
  8
0
  6
CONTINUOUS
 62
3
 10
110.048669284097960
 20
-64.137675473829404
 40
3.000000000000000
 50
270.000000000000000
 51
319.523454666810440
  0
ARC
  8
0
  6
CONTINUOUS
 62
3
 10
122.381951889405620
 20
-49.685281081597168
 40
3.000000000000073
 50
319.523454666815210
 51
0.000000000000000
  0
LINE
  8
0
  6
CONTINUOUS
 62
3
 10
112.330684566158190
 20
-66.085085613592128
 11
124.663967171465170
 21
-51.632691221358982
  0
LINE
  8
0
  6
CONTINUOUS
 62
3
 10
123.530049064210970
 20
-67.137675473829404
 11
113.169678734909890
 21
-67.137675473829404
  0
LINE
  8
0
  6
CONTINUOUS
 62
3
 10
63.881951889404945
 20
-61.228718549670702
 11
114.102383876241900
 21
-60.352117648618332
  0
LINE
  8
0
  6
CONTINUOUS
 62
3
 10
145.881951889404950
 20
-107.228718549670700
 11
145.881951889404950
 21
-128.206095959540110
  0
LINE
  8
0
  6
CONTINUOUS
 62
3
 10
145.881951889404950
 20
-107.228718549670700
 11
145.881951889404950
 21
-86.251341139801298
  0
LINE
  8
0
  6
CONTINUOUS
 62
3
 10
129.881951889405850
 20
-27.228718549670702
 11
126.355774941097930
 21
-27.321054742677916
  0
LINE
  8
0
  6
CONTINUOUS
 62
3
 10
137.381951889405850
 20
-27.425112961439481
 11
129.881951889405850
 21
-27.228718549670702
  0
LINE
  8
0
  6
DASHDOT
 62
4
 10
199.121915955973460
 20
-107.228718549670700
 11
106.026069860148480
 21
-107.228718549670700
  0
LINE
  8
0
  6
CONTINUOUS
 62
3
 10
63.881951889404945
 20
-191.228718549670700
 11
129.874433942379260
 21
-192.221086700843440
  0
LINE
  8
0
  6
CONTINUOUS
 62
3
 10
112.281092007015550
 20
-58.928801021274921
 11
124.980028100759000
 21
-36.933598504841029
  0
LINE
  8
0
  6
CONTINUOUS
 62
3
 10
139.602626392668530
 20
-182.228718549670700
 11
140.381951889405850
 21
-181.428718549670520
  0
LINE
  8
0
  6
CONTINUOUS
 62
3
 10
139.602626392668530
 20
-32.228718549670702
 11
140.381951889405850
 21
-33.028718549670884
  0
ARC
  8
0
  6
CONTINUOUS
 62
3
 10
126.381951889405850
 20
-28.320712067653403
 40
0.999999999999931
 50
91.500000000002814
 51
180.000000000000000
  0
ARC
  8
0
  6
CONTINUOUS
 62
3
 10
129.881951889405850
 20
-191.721143223565380
 40
0.500000000000379
 50
269.138474265448620
 51
0.000000000000000
  0
ARC
  8
0
  6
CONTINUOUS
 62
3
 10
122.381951889405850
 20
-35.433598504841029
 40
2.999999999999853
 50
329.999999999998350
 51
0.000000000000000
  0
ARC
  8
0
  6
CONTINUOUS
 62
3
 10
109.683015795662410
 20
-57.428801021274921
 40
2.999999999999582
 50
270.999999999997610
 51
329.999999999998350
  0
ARC
  8
0
  6
CONTINUOUS
 62
3
 10
143.881951889404950
 20
-86.251341139801298
 40
2.000000000000000
 50
0.000000000000000
 51
54.162347045717610
  0
ARC
  8
0
  6
CONTINUOUS
 62
3
 10
143.881951889404950
 20
-128.206095959540110
 40
1.999999999999779
 50
305.837652954282420
 51
0.000000000000000
  0
LINE
  8
0
  6
CONTINUOUS
 62
3
 10
63.881951889404945
 20
-61.228718549670702
 11
63.881951889404945
 21
-191.228718549670700
  0
LINE
  8
0
  6
CONTINUOUS
 62
3
 10
139.602626392668530
 20
-32.228718549670702
 11
137.381951889405850
 21
-32.228718549670702
  0
LINE
  8
0
  6
CONTINUOUS
 62
3
 10
139.602626392668530
 20
-182.228718549670700
 11
137.381951889405850
 21
-182.228718549670700
  0
LINE
  8
0
  6
CONTINUOUS
 62
3
 10
137.381951889405850
 20
-107.228718549670700
 11
137.381951889405850
 21
-27.438205922224370
  0
LINE
  8
0
  6
CONTINUOUS
 62
3
 10
140.381951889404720
 20
-107.228718549670700
 11
140.381951889405850
 21
-33.028718549670884
  0
LINE
  8
0
  6
CONTINUOUS
 62
3
 10
140.381951889404950
 20
-107.228718549670700
 11
140.381951889405850
 21
-181.428718549670520
  0
LINE
  8
0
  6
CONTINUOUS
 62
3
 10
145.052932997093650
 20
-129.827454416339610
 11
140.381951889405400
 21
-133.200940771892420
  0
LINE
  8
0
  6
CONTINUOUS
 62
3
 10
145.052932997093650
 20
-84.629982683001799
 11
140.381951889404950
 21
-81.256496327448076
  0
LINE
  8
0
  6
CONTINUOUS
 62
3
 10
129.881951889405850
 20
-187.228718549670700
 11
126.355774941097930
 21
-187.136382356663490
  0
ARC
  8
0
  6
CONTINUOUS
 62
3
 10
126.381951889405850
 20
-186.136725031688000
 40
1.000000000000000
 50
180.000000000000000
 51
268.499999999997210
  0
LINE
  8
0
  6
CONTINUOUS
 62
3
 10
137.381951889405850
 20
-187.032324137901920
 11
129.881951889405850
 21
-187.228718549670700
  0
LINE
  8
0
  6
CONTINUOUS
 62
3
 10
137.381951889405850
 20
-107.228718549670700
 11
137.381951889405850
 21
-187.032324137901920
  0
LINE
  8
0
  6
CONTINUOUS
 62
3
 10
125.381951889404490
 20
-186.136725031688000
 11
125.381951889405850
 21
-28.320712067653403
  0
ARC
  8
0
  6
CONTINUOUS
 62
3
 10
132.381951889405400
 20
-46.199281298147980
 40
2.000000000000000
 50
90.000000000000000
 51
180.000000000000000
  0
LINE
  8
0
  6
CONTINUOUS
 62
3
 10
137.381951889405850
 20
-44.199281298147980
 11
132.381951889405400
 21
-44.199281298147980
  0
LINE
  8
0
  6
CONTINUOUS
 62
3
 10
132.381951889405170
 20
-102.228718549670700
 11
137.381951889405850
 21
-102.228718549670700
  0
ARC
  8
0
  6
CONTINUOUS
 62
3
 10
132.381951889405170
 20
-100.228718549670700
 40
2.000000000000000
 50
180.000000000000000
 51
270.000000000000000
  0
LINE
  8
0
  6
CONTINUOUS
 62
3
 10
132.381951889405400
 20
-62.535586410206633
 11
137.381951889405850
 21
-62.535586410206633
  0
ARC
  8
0
  6
CONTINUOUS
 62
3
 10
132.381951889405400
 20
-64.535586410206633
 40
2.000000000000000
 50
90.000000000000000
 51
180.000000000000000
  0
ARC
  8
0
  6
CONTINUOUS
 62
3
 10
132.381951889405400
 20
-168.258155801193420
 40
1.999999999999773
 50
180.000000000000000
 51
270.000000000000000
  0
LINE
  8
0
  6
CONTINUOUS
 62
3
 10
137.381951889405850
 20
-170.258155801193420
 11
132.381951889405400
 21
-170.258155801193420
  0
LINE
  8
0
  6
CONTINUOUS
 62
3
 10
132.381951889405170
 20
-112.228718549670700
 11
137.381951889405850
 21
-112.228718549670700
  0
ARC
  8
0
  6
CONTINUOUS
 62
3
 10
132.381951889405170
 20
-114.228718549670700
 40
2.000000000000000
 50
90.000000000000000
 51
180.000000000000000
  0
LINE
  8
0
  6
CONTINUOUS
 62
3
 10
132.381951889405400
 20
-151.921850689134770
 11
137.381951889405850
 21
-151.921850689134770
  0
ARC
  8
0
  6
CONTINUOUS
 62
3
 10
132.381951889405400
 20
-149.921850689134770
 40
2.000000000000000
 50
180.000000000000000
 51
270.000000000000000
  0
LINE
  8
0
  6
CONTINUOUS
 62
3
 10
130.381951889404720
 20
-168.258155801193420
 11
130.381951889405170
 21
-114.228718549670700
  0
LINE
  8
0
  6
CONTINUOUS
 62
3
 10
130.381951889405170
 20
-100.228718549670700
 11
130.381951889405630
 21
-46.199281298147980
  0
LINE
  8
0
  6
CONTINUOUS
 62
3
 10
130.381951889405630
 20
-187.215625588885810
 11
130.381951889406080
 21
-191.721143223565380
  0
LINE
  8
0
  6
CONTINUOUS
 62
3
 10
220.527936865237280
 20
-129.728718549670650
 11
220.527936865237280
 21
-124.728718549670640
  0
LINE
  8
0
  6
CONTINUOUS
 62
3
 10
221.038353712755000
 20
-129.728718549670650
 11
220.527936865237280
 21
-129.728718549670650
  0
LINE
  8
0
  6
CONTINUOUS
 62
3
 10
221.038353712755000
 20
-124.728718549670640
 11
220.527936865237280
 21
-124.728718549670640
  0
ARC
  8
0
  6
CONTINUOUS
 62
3
 10
521.027936865237280
 20
-127.228718549670700
 40
300.000000000000170
 50
175.138594604201960
 51
184.861405395798040
  0
LINE
  8
0
  6
CONTINUOUS
 62
3
 10
228.027936865237280
 20
-97.228718549670702
 11
227.089167731255660
 21
-97.228718549670702
  0
LINE
  8
0
  6
CONTINUOUS
 62
3
 10
228.027936865237280
 20
-157.228718549670700
 11
227.089167731255660
 21
-157.228718549670700
  0
ARC
  8
0
  6
CONTINUOUS
 62
3
 10
227.089167731255660
 20
-102.228718549670700
 40
5.000000000000000
 50
90.000000000000000
 51
175.138594604201390
  0
ARC
  8
0
  6
CONTINUOUS
 62
3
 10
227.089167731255660
 20
-152.228718549670700
 40
4.999999999999888
 50
184.861405395797990
 51
270.000000000000000
  0
CIRCLE
  8
0
  6
CONTINUOUS
 62
3
 10
308.027936865237280
 20
-107.228718549670700
 40
3.323500000000024
  0
CIRCLE
  8
0
  6
CONTINUOUS
 62
4
 10
308.027936865237280
 20
-107.228718549670700
 40
4.000000000000000
  0
LINE
  8
0
  6
CONTINUOUS
 62
3
 10
294.527936865237280
 20
-104.228718549670700
 11
300.527936865237280
 21
-104.228718549670700
  0
LINE
  8
0
  6
CONTINUOUS
 62
3
 10
294.527936865237280
 20
-104.228718549670700
 11
294.527936865237280
 21
-110.228718549670700
  0
ARC
  8
0
  6
CONTINUOUS
 62
3
 10
308.027936865237280
 20
-107.228718549670700
 40
11.000000000000037
 50
195.826620131872290
 51
164.173379868127710
  0
LINE
  8
0
  6
CONTINUOUS
 62
3
 10
300.527936865237280
 20
-110.228718549670700
 11
300.527936865237280
 21
-104.228718549670700
  0
LINE
  8
0
  6
CONTINUOUS
 62
3
 10
294.527936865237280
 20
-110.228718549670700
 11
300.527936865237280
 21
-110.228718549670700
  0
ARC
  8
0
  6
CONTINUOUS
 62
3
 10
268.027936865237280
 20
-185.728718549670700
 40
9.000000000000044
 50
313.761742692680060
 51
330.000000000000570
  0
ARC
  8
0
  6
CONTINUOUS
 62
3
 10
268.027936865237280
 20
-185.728718549670700
 40
7.999999999999988
 50
190.806922874860360
 51
234.340912303861100
  0
ARC
  8
0
  6
CONTINUOUS
 62
3
 10
348.027936865237280
 20
-185.728718549670700
 40
8.000000000000012
 50
305.659087696138900
 51
349.193077125139670
  0
ARC
  8
0
  6
CONTINUOUS
 62
3
 10
348.027936865237280
 20
-185.728718549670700
 40
8.999999999999950
 50
210.000000000000200
 51
226.238257307319910
  0
ARC
  8
0
  6
CONTINUOUS
 62
3
 10
256.539300869867250
 20
-62.811150366165748
 40
2.999999999999542
 50
44.999999999993868
 51
139.216730478861190
  0
ARC
  8
0
  6
CONTINUOUS
 62
3
 10
263.610368681732780
 20
-55.740082554300898
 40
3.000000000000379
 50
130.783269521145830
 51
224.999999999990790
  0
ARC
  8
0
  6
CONTINUOUS
 62
3
 10
352.445505048742010
 20
-55.740082554300898
 40
2.999999999999542
 50
315.000000000006140
 51
49.216730478857478
  0
ARC
  8
0
  6
CONTINUOUS
 62
3
 10
359.516572860607540
 20
-62.811150366165748
 40
2.999999999999589
 50
40.783269521141641
 51
135.000000000009210
  0
ARC
  8
0
  6
CONTINUOUS
 62
3
 10
303.027936865237280
 20
-39.412791216926962
 40
3.000000000000000
 50
0.000000000000000
 51
94.216730478853037
  0
ARC
  8
0
  6
CONTINUOUS
 62
3
 10
313.027936865237280
 20
-39.412791216926962
 40
2.999999999999889
 50
85.783269521146963
 51
180.000000000000000
  0
ARC
  8
0
  6
CONTINUOUS
 62
3
 10
238.027936865237280
 20
-177.228718549670700
 40
10.000000000000000
 50
180.000000000000000
 51
270.000000000000000
  0
ARC
  8
0
  6
CONTINUOUS
 62
3
 10
378.027936865237280
 20
-177.228718549670700
 40
10.000000000000000
 50
270.000000000000000
 51
0.000000000000000
  0
ARC
  8
0
  6
DASHDOT
 62
4
 10
308.027936865237280
 20
-107.228718549670700
 40
97.500000000000298
 50
309.123187734056780
 51
320.876812265942530
  0
ARC
  8
0
  6
CONTINUOUS
 62
3
 10
386.027936865237280
 20
-171.086582925940090
 40
2.000000000000000
 50
0.000000000026055
 51
45.000000000004619
  0
ARC
  8
0
  6
CONTINUOUS
 62
3
 10
371.885801241506210
 20
-185.228718549670700
 40
2.000000000000016
 50
225.000000000009210
 51
270.000000000000000
  0
ARC
  8
0
  6
CONTINUOUS
 62
3
 10
244.170072488968340
 20
-185.228718549670700
 40
2.000000000000000
 50
270.000000000000000
 51
314.999999999990790
  0
ARC
  8
0
  6
CONTINUOUS
 62
3
 10
230.027936865237280
 20
-171.086582925940090
 40
2.000000000000177
 50
134.999999999995370
 51
180.000000000000000
  0
ARC
  8
0
  6
DASHDOT
 62
4
 10
308.027936865237280
 20
-107.228718549670700
 40
97.500000000000298
 50
129.123187734056760
 51
140.876812265942500
  0
ARC
  8
0
  6
CONTINUOUS
 62
3
 10
230.027936865237280
 20
-43.370854173401312
 40
2.000000000000000
 50
180.000000000000000
 51
225.000000000004630
  0
ARC
  8
0
  6
CONTINUOUS
 62
3
 10
244.170072488968340
 20
-29.228718549670702
 40
2.000000000000016
 50
45.000000000009216
 51
90.000000000000000
  0
ARC
  8
0
  6
CONTINUOUS
 62
3
 10
238.027936865237280
 20
-37.228718549670702
 40
10.000000000000000
 50
90.000000000000000
 51
180.000000000000000
  0
ARC
  8
0
  6
CONTINUOUS
 62
3
 10
371.885801241506210
 20
-29.228718549670702
 40
2.000000000000000
 50
90.000000000000000
 51
134.999999999990790
  0
ARC
  8
0
  6
CONTINUOUS
 62
3
 10
386.027936865237280
 20
-43.370854173401312
 40
2.000000000000177
 50
314.999999999995400
 51
0.000000000000000
  0
ARC
  8
0
  6
CONTINUOUS
 62
3
 10
378.027936865237280
 20
-37.228718549670702
 40
10.000000000000000
 50
0.000000000000000
 51
90.000000000000000
  0
ARC
  8
0
  6
CONTINUOUS
 62
3
 10
308.027936865237280
 20
-107.228718549670700
 40
77.999999999999957
 50
59.477512185929996
 51
120.522487814070010
  0
ARC
  8
0
  6
CONTINUOUS
 62
3
 10
263.334804725773210
 20
-31.422888037998746
 40
9.999999999999758
 50
224.999999999996330
 51
300.522487814070870
  0
ARC
  8
0
  6
CONTINUOUS
 62
3
 10
263.334804725773210
 20
-183.034549061343570
 40
10.000000000000433
 50
59.477512185931793
 51
134.999999999999090
  0
ARC
  8
0
  6
CONTINUOUS
 62
3
 10
308.027936865237280
 20
-107.228718549670700
 40
77.999999999999957
 50
239.477512185929980
 51
300.522487814070020
  0
ARC
  8
0
  6
CONTINUOUS
 62
3
 10
352.721069004701580
 20
-183.034549061343570
 40
10.000000000000242
 50
45.000000000000931
 51
120.522487814069320
  0
ARC
  8
0
  6
CONTINUOUS
 62
3
 10
352.721069004701350
 20
-31.422888037998746
 40
9.999999999999650
 50
239.477512185929130
 51
315.000000000002730
  0
CIRCLE
  8
0
  6
CONTINUOUS
 62
3
 10
239.085025699548850
 20
-38.285807383982501
 40
5.300000000000011
  0
CIRCLE
  8
0
  6
CONTINUOUS
 62
3
 10
239.085025699549080
 20
-176.171629715358900
 40
5.300000000000011
  0
CIRCLE
  8
0
  6
CONTINUOUS
 62
3
 10
376.970848030925710
 20
-176.171629715358900
 40
5.300000000000011
  0
CIRCLE
  8
0
  6
CONTINUOUS
 62
3
 10
376.970848030925710
 20
-38.285807383982501
 40
5.300000000000011
  0
LINE
  8
0
  6
CONTINUOUS
 62
3
 10
387.027936865237280
 20
-112.228718549670700
 11
386.799759238469280
 21
-112.228718549670700
  0
LINE
  8
0
  6
CONTINUOUS
 62
3
 10
387.027936865237280
 20
-102.228718549670700
 11
386.799759238469280
 21
-102.228718549670700
  0
LINE
  8
0
  6
CONTINUOUS
 62
3
 10
229.027936865237280
 20
-112.228718549670700
 11
229.256114492005280
 21
-112.228718549670700
  0
LINE
  8
0
  6
CONTINUOUS
 62
3
 10
229.027936865237280
 20
-102.228718549670700
 11
229.256114492005280
 21
-102.228718549670700
  0
LINE
  8
0
  6
CONTINUOUS
 62
3
 10
376.762699565044160
 20
-55.464518598340874
 11
387.442150427610390
 21
-44.785067735774646
  0
LINE
  8
0
  6
CONTINUOUS
 62
3
 10
359.792136816566880
 20
-38.493955849863596
 11
370.471587679133340
 21
-27.814504987297369
  0
LINE
  8
0
  6
DASHDOT
 62
4
 10
369.605943259005360
 20
-45.650712155902625
 11
384.228589809900540
 21
-31.028065605007328
  0
LINE
  8
0
  6
CONTINUOUS
 62
3
 10
388.027936865237280
 20
-37.228718549670702
 11
388.027936865237280
 21
-177.228718549670700
  0
LINE
  8
0
  6
CONTINUOUS
 62
3
 10
378.027936865237280
 20
-27.228718549670702
 11
238.027936865237280
 21
-27.228718549670702
  0
LINE
  8
0
  6
CONTINUOUS
 62
3
 10
256.263736913907450
 20
-38.493955849863596
 11
245.584286051341220
 21
-27.814504987297369
  0
LINE
  8
0
  6
CONTINUOUS
 62
3
 10
239.293174165430630
 20
-55.464518598340874
 11
228.613723302864170
 21
-44.785067735774646
  0
LINE
  8
0
  6
DASHDOT
 62
4
 10
247.197872905132730
 20
-46.398654589566036
 11
231.772290061041640
 21
-30.973071745475067
  0
LINE
  8
0
  6
CONTINUOUS
 62
3
 10
228.027936865237280
 20
-37.228718549670702
 11
228.027936865237280
 21
-177.228718549670700
  0
LINE
  8
0
  6
CONTINUOUS
 62
3
 10
239.293174165430400
 20
-158.992918501000530
 11
228.613723302864170
 21
-169.672369363566760
  0
LINE
  8
0
  6
CONTINUOUS
 62
3
 10
256.263736913907680
 20
-175.963481249477810
 11
245.584286051341220
 21
-186.642932112044040
  0
LINE
  8
0
  6
DASHDOT
 62
4
 10
245.790019845801790
 20
-169.466635569106190
 11
231.741681291960840
 21
-183.514974122947140
  0
LINE
  8
0
  6
CONTINUOUS
 62
3
 10
376.762699565044160
 20
-158.992918501000530
 11
387.442150427610390
 21
-169.672369363566760
  0
LINE
  8
0
  6
CONTINUOUS
 62
3
 10
359.792136816567110
 20
-175.963481249477810
 11
370.471587679133340
 21
-186.642932112044040
  0
LINE
  8
0
  6
DASHDOT
 62
4
 10
369.583581720030570
 20
-168.784363404463990
 11
384.153048756220640
 21
-183.353830440653950
  0
LINE
  8
0
  6
DASHDOT
 62
4
 10
212.373503905706460
 20
-107.228718549670700
 11
417.811027091953290
 21
-107.228718549670700
  0
LINE
  8
0
  6
DASHDOT
 62
4
 10
293.126692870082480
 20
-127.228718549670700
 11
324.448260653931360
 21
-127.228718549670700
  0
LINE
  8
0
  6
DASHDOT
 62
4
 10
308.027936865237280
 20
-15.490628409035708
 11
308.027936865237280
 21
-203.396570565054390
  0
LINE
  8
0
  6
CONTINUOUS
 62
3
 10
306.027936865237280
 20
-39.412791216926962
 11
306.027936865237280
 21
-64.976484332756627
  0
LINE
  8
0
  6
CONTINUOUS
 62
3
 10
310.027936865237280
 20
-39.412791216926962
 11
310.027936865237280
 21
-64.976484332756627
  0
LINE
  8
0
  6
CONTINUOUS
 62
3
 10
354.566825392301550
 20
-57.861402897859989
 11
343.064789160824600
 21
-69.363439129337166
  0
LINE
  8
0
  6
CONTINUOUS
 62
3
 10
357.395252517047770
 20
-60.689830022606657
 11
348.853208035123090
 21
-69.231874504531334
  0
LINE
  8
0
  6
CONTINUOUS
 62
3
 10
258.660621213426790
 20
-60.689830022606657
 11
267.202665695351470
 21
-69.231874504531334
  0
LINE
  8
0
  6
CONTINUOUS
 62
3
 10
261.489048338173010
 20
-57.861402897859989
 11
272.991084569649960
 21
-69.363439129337166
  0
LINE
  8
0
  6
CONTINUOUS
 62
3
 10
308.027936865237280
 20
-190.228718549670700
 11
340.233708231177390
 21
-190.228718549670700
  0
LINE
  8
0
  6
CONTINUOUS
 62
3
 10
341.802987066242850
 20
-192.228718549670700
 11
352.691626391781710
 21
-192.228718549670700
  0
LINE
  8
0
  6
CONTINUOUS
 62
3
 10
355.886053687988120
 20
-187.228718549670700
 11
378.027936865237280
 21
-187.228718549670700
  0
LINE
  8
0
  6
CONTINUOUS
 62
3
 10
274.252886664231710
 20
-192.228718549670700
 11
263.364247338692850
 21
-192.228718549670700
  0
LINE
  8
0
  6
CONTINUOUS
 62
3
 10
238.027936865237280
 20
-187.228718549670700
 11
260.169820042486440
 21
-187.228718549670700
  0
LINE
  8
0
  6
CONTINUOUS
 62
3
 10
308.027936865237280
 20
-190.228718549670700
 11
275.822165499297170
 21
-190.228718549670700
  0
ARC
  8
0
  6
CONTINUOUS
 62
3
 10
386.799759238469280
 20
-113.228718549670700
 40
1.000000000000000
 50
90.000000000000000
 51
175.644227372976700
  0
ARC
  8
0
  6
CONTINUOUS
 62
3
 10
387.027936865237280
 20
-111.228718549670700
 40
1.000000000000000
 50
270.000000000000000
 51
0.000000000000000
  0
ARC
  8
0
  6
CONTINUOUS
 62
3
 10
386.799759238469280
 20
-101.228718549670700
 40
0.999999999999999
 50
184.355772627023300
 51
270.000000000000000
  0
ARC
  8
0
  6
CONTINUOUS
 62
3
 10
387.027936865237280
 20
-103.228718549670700
 40
1.000000000000000
 50
0.000000000000000
 51
90.000000000000000
  0
ARC
  8
0
  6
CONTINUOUS
 62
3
 10
229.027936865237280
 20
-111.228718549670700
 40
1.000000000000000
 50
180.000000000000000
 51
270.000000000000000
  0
ARC
  8
0
  6
CONTINUOUS
 62
3
 10
229.256114492005280
 20
-113.228718549670700
 40
0.999999999999999
 50
4.355772627023321
 51
90.000000000000000
  0
ARC
  8
0
  6
CONTINUOUS
 62
3
 10
229.027936865237280
 20
-103.228718549670700
 40
1.000000000000000
 50
90.000000000000000
 51
180.000000000000000
  0
ARC
  8
0
  6
CONTINUOUS
 62
3
 10
229.256114492005280
 20
-101.228718549670700
 40
1.000000000000000
 50
270.000000000000000
 51
355.644227372976670
  0
ARC
  8
0
  6
CONTINUOUS
 62
3
 10
308.027936865237280
 20
-107.228718549670700
 40
78.000000000000085
 50
4.355772627031354
 51
30.522487814070015
  0
ARC
  8
0
  6
CONTINUOUS
 62
3
 10
308.027936865237280
 20
-107.228718549670700
 40
78.000000000000085
 50
184.355772627031340
 51
210.522487814070020
  0
ARC
  8
0
  6
CONTINUOUS
 62
3
 10
371.904066918546050
 20
-90.620286672676230
 40
4.999999999999898
 50
206.056903281674380
 51
14.574752288481397
  0
ARC
  8
0
  6
CONTINUOUS
 62
3
 10
308.027936865237280
 20
-461.228718549670700
 40
393.283778524804060
 50
90.722932692684765
 51
93.357817421570687
  0
ARC
  8
0
  6
CONTINUOUS
 62
3
 10
308.027936865237280
 20
-461.228718549670700
 40
393.283778524803950
 50
86.642182578429313
 51
89.277067307315235
  0
ARC
  8
0
  6
CONTINUOUS
 62
3
 10
287.527936865237280
 20
-111.829591475775480
 40
43.283778524803985
 50
93.357817421570644
 51
105.560040400866880
  0
ARC
  8
0
  6
CONTINUOUS
 62
3
 10
244.151806811928510
 20
-90.620286672675320
 40
4.999999999999824
 50
165.425247711517950
 51
333.943096718326790
  0
ARC
  8
0
  6
CONTINUOUS
 62
3
 10
383.833767376909690
 20
-62.535586410206633
 40
10.000000000000242
 50
134.999999999999090
 51
210.522487814069560
  0
ARC
  8
0
  6
CONTINUOUS
 62
3
 10
383.833767376909690
 20
-151.921850689134770
 40
10.000000000000041
 50
149.477512185930440
 51
225.000000000000910
  0
ARC
  8
0
  6
CONTINUOUS
 62
3
 10
308.027936865237280
 20
-107.228718549670700
 40
77.999999999999957
 50
329.477512185929980
 51
355.644227372968660
  0
ARC
  8
0
  6
CONTINUOUS
 62
3
 10
232.222106353564870
 20
-151.921850689134770
 40
10.000000000000242
 50
314.999999999999090
 51
30.522487814069546
  0
ARC
  8
0
  6
CONTINUOUS
 62
3
 10
232.222106353564870
 20
-62.535586410206633
 40
10.000000000000041
 50
329.477512185930440
 51
45.000000000000000
  0
ARC
  8
0
  6
CONTINUOUS
 62
3
 10
308.027936865237280
 20
-107.228718549670700
 40
77.999999999999957
 50
149.477512185929980
 51
175.644227372968660
  0
CIRCLE
  8
0
  6
CONTINUOUS
 62
3
 10
308.027936865237280
 20
-107.228718549670700
 40
71.000000000000000
  0
ARC
  8
0
  6
CONTINUOUS
 62
3
 10
287.527936865237280
 20
-111.829591475775480
 40
43.283778524804646
 50
119.010998725227180
 51
153.943096718326930
  0
ARC
  8
0
  6
CONTINUOUS
 62
3
 10
328.527936865237280
 20
-111.829591475775480
 40
43.283778524804475
 50
74.439959599133118
 51
86.642182578429356
  0
ARC
  8
0
  6
CONTINUOUS
 62
3
 10
303.027936865237280
 20
-64.976484332756627
 40
3.000000000000205
 50
270.722932692684590
 51
0.000000000000000
  0
ARC
  8
0
  6
CONTINUOUS
 62
3
 10
313.027936865237280
 20
-64.976484332756627
 40
3.000000000000000
 50
180.000000000000000
 51
269.277067307315410
  0
ARC
  8
0
  6
CONTINUOUS
 62
3
 10
350.974528378682860
 20
-71.353194848090425
 40
2.999999999999703
 50
135.000000000009210
 51
240.989001274778500
  0
ARC
  8
0
  6
CONTINUOUS
 62
3
 10
340.943468817265060
 20
-67.242118785777166
 40
3.000000000000183
 50
254.439959599132550
 51
314.999999999993860
  0
ARC
  8
0
  6
CONTINUOUS
 62
3
 10
265.081345351791700
 20
-71.353194848090425
 40
2.999999999999936
 50
299.010998725229910
 51
44.999999999990798
  0
ARC
  8
0
  6
CONTINUOUS
 62
3
 10
275.112404913209500
 20
-67.242118785777166
 40
3.000000000000185
 50
225.000000000006170
 51
285.560040400867420
  0
CIRCLE
  8
0
  6
CONTINUOUS
 62
3
 10
308.349767872587110
 20
-107.513200739881540
 40
21.881536638176669
  0
CIRCLE
  8
0
  6
CONTINUOUS
 62
3
 10
308.018381555422820
 20
-107.181814422717250
 40
28.501149875631768
  0
CIRCLE
  8
0
  6
CONTINUOUS
 62
3
 10
308.219881303790320
 20
-107.203194185122810
 40
75.000000000000000
  0
CIRCLE
  8
0
  6
CONTINUOUS
 62
3
 10
308.027936865237280
 20
-107.228718549670700
 40
19.000000000000000
  0
ARC
  8
0
  6
DASHDOT
 62
4
 10
308.027936865237280
 20
-107.228718549670700
 40
97.500000000000043
 50
39.449964188079079
 51
50.876812265942476
  0
ARC
  8
0
  6
DASHDOT
 62
4
 10
308.027936865237280
 20
-107.228718549670700
 40
97.500000000000043
 50
219.218915597777030
 51
230.876812265942480
  0
ARC
  8
0
  6
CONTINUOUS
 62
3
 10
328.527936865237280
 20
-111.829591475775480
 40
43.283778524804298
 50
59.292619216613510
 51
60.989001274772242
  0
LINE
  8
0
  6
CONTINUOUS
 62
3
 10
36.881951889405855
 20
-176.932680648488430
 11
36.881951889405855
 21
-127.228718549671610
  0
LINE
  8
0
  6
CONTINUOUS
 62
3
 10
36.881951889405855
 20
-127.228718549671610
 11
36.881951889405855
 21
-74.728718549671612
  0
LINE
  8
0
  6
CONTINUOUS
 62
3
 10
54.381951889404945
 20
-179.728718549671610
 11
36.881951889405912
 21
-179.728718549671610
  0
ENDSEC
  0
EOF
