  0
SECTION
  2
HEADER
  9
$FILLMODE
 70
1
  9
$TEXTSTYLE
  7
STANDARD1
  9
$ACADVER
  1
AC1009
  9
$DIMASZ
 40
1.931851648807023
  9
$DIMEXE
 40
2.000000000000000
  9
$DIMEXO
 40
1.000000000000000
  9
$DIMLFAC
 40
1.000000000000000
  9
$DIMSCALE
 40
1.000000000000000
  9
$DIMTAD
 70
1
  9
$DIMTFAC
 40
0.714285731315613
  9
$DIMTXT
 40
2.799999952316284
  9
$LUPREC
 70
3
  9
$TEXTSIZE
 40
2.799999952316284
  9
$REGENMODE
 70
1
  0
ENDSEC
  0
SECTION
  2
TABLES
  0
TABLE
  2
LTYPE
 70
4
  0
LTYPE
  2
CONTINUOUS
 70
64
  3
Solid line
 72
65
 73
0
 40
0.0
  0
LTYPE
  2
DASHED
 70
64
  3
-- -- -- -- -- -- -- -- -- -- -- -- -- -- --
 72
65
 73
2
 40
0.75
 49
0.5
 49
-0.25
  0
LTYPE
  2
DASHDOT
 70
64
  3
__ . __ . __ . __ . __ . __ . __ . __ . __ . __
 72
65
 73
4
 40
1.0
 49
0.5
 49
-0.25
 49
0.0
 49
-0.25
  0
LTYPE
  2
DIVIDE
 70
64
  3
__ . . __ . . __ . . __ . . __ . . __ . . __
 72
65
 73
6
 40
1.25
 49
0.5
 49
-0.25
 49
0.0
 49
-0.25
 49
0.0
 49
-0.25
  0
ENDTAB
  0
TABLE
  2
LAYER
 70
1
  0
LAYER
  2
0
 70
64
 62
2
  6
CONTINUOUS
  0
ENDTAB
  0
TABLE
  2
STYLE
 70
4
  0
STYLE
  2
STANDARD1
 70
64
 40
0.0
 41
1.0
 50
0.0
 71
0
 42
2.799999952316284
  3
MONOTXT
  4
BIGFONT
  0
STYLE
  2
STANDARD2
 70
68
 40
0.0
 41
1.0
 50
0.0
 71
0
 42
2.799999952316284
  3
MONOTXT
  4
BIGFONT
  0
STYLE
  2
STANDARD3
 70
64
 40
0.0
 41
1.0
 50
0.0
 71
0
 42
2.799999952316284
  3
MONOTXT
  4

  0
STYLE
  2
STANDARD4
 70
68
 40
0.0
 41
1.0
 50
0.0
 71
0
 42
2.799999952316284
  3
MONOTXT
  4

  0
ENDTAB
  0
TABLE
  2
VIEW
 70
0
  0
ENDTAB
  0
ENDSEC
  0
SECTION
  2
BLOCKS
  0
BLOCK
  8
0
  2
SYM1
 70
64
 10
0.000000000000000
 20
0.000000000000000
  0
ARC
  8
0
  6
CONTINUOUS
 62
3
 10
-0.979025304317474
 20
-2.200000762939453
 40
1.299999237060547
 50
196.601531107481040
 51
270.000000000000000
  0
ARC
  8
0
  6
CONTINUOUS
 62
3
 10
-0.979025304317474
 20
2.200000762939453
 40
1.299999237060547
 50
90.000000000000000
 51
163.398451589674950
  0
LINE
  8
0
  6
CONTINUOUS
 62
3
 10
-0.000000000000000
 20
-3.500000000000000
 11
-0.979025304317474
 21
-3.500000000000000
  0
LINE
  8
0
  6
CONTINUOUS
 62
3
 10
0.000000000000000
 20
3.500000000000000
 11
-0.979025304317474
 21
3.500000000000000
  0
LINE
  8
0
  6
CONTINUOUS
 62
3
 10
0.000000000000000
 20
-3.500000000000000
 11
-0.000000000000000
 21
3.500000000000000
  0
LINE
  8
0
  6
CONTINUOUS
 62
3
 10
0.000000000000000
 20
-3.500000000000000
 11
-0.000000000000000
 21
3.500000000000000
  0
POINT
  8
0
  6
CONTINUOUS
 62
3
 10
0.000000000000000
 20
0.000000000000000
  0
ARC
  8
0
  6
CONTINUOUS
 62
3
 10
6.399999618530273
 20
0.000000000000000
 40
9.000000000000000
 50
163.398451589674950
 51
196.601531107481040
  0
ENDBLK
  8
0
  0
BLOCK
  8
0
  2
SYM2
 70
64
 10
0.000000000000000
 20
0.000000000000000
  0
ARC
  8
0
  6
CONTINUOUS
 62
3
 10
-0.979025304317474
 20
-2.200000762939453
 40
1.299999237060547
 50
196.601531107481040
 51
270.000000000000000
  0
ARC
  8
0
  6
CONTINUOUS
 62
3
 10
-0.979025304317474
 20
2.200000762939453
 40
1.299999237060547
 50
90.000000000000000
 51
163.398451589674950
  0
LINE
  8
0
  6
CONTINUOUS
 62
3
 10
-0.000000000000000
 20
-3.500000000000000
 11
-0.979025304317474
 21
-3.500000000000000
  0
LINE
  8
0
  6
CONTINUOUS
 62
3
 10
0.000000000000000
 20
3.500000000000000
 11
-0.979025304317474
 21
3.500000000000000
  0
LINE
  8
0
  6
CONTINUOUS
 62
3
 10
0.000000000000000
 20
-3.500000000000000
 11
-0.000000000000000
 21
3.500000000000000
  0
LINE
  8
0
  6
CONTINUOUS
 62
3
 10
0.000000000000000
 20
-3.500000000000000
 11
-0.000000000000000
 21
3.500000000000000
  0
POINT
  8
0
  6
CONTINUOUS
 62
3
 10
0.000000000000000
 20
0.000000000000000
  0
ARC
  8
0
  6
CONTINUOUS
 62
3
 10
6.399999618530273
 20
0.000000000000000
 40
9.000000000000000
 50
163.398451589674950
 51
196.601531107481040
  0
ENDBLK
  8
0
  0
ENDSEC
  0
SECTION
  2
ENTITIES
  0
LINE
  8
0
  6
CONTINUOUS
 62
3
 10
278.907534774261990
 20
-238.091700325138850
 11
377.390962334347590
 21
-238.091700325138850
  0
CIRCLE
  8
0
  6
CONTINUOUS
 62
3
 10
328.149248554304680
 20
-133.591700325138850
 40
85.000000000000000
  0
TEXT
  8
0
  6
CONTINUOUS
 62
3
 10
-366.010467529296880
 20
129.885192871093750
 40
10.295999526977539
  1
Ｓ１４６
 50
0.000002504478167
 41
0.984848625190477
  7
STANDARD1
  0
TEXT
  8
0
  6
CONTINUOUS
 62
3
 10
-366.010467529296880
 20
113.349189758300780
 40
10.295999526977539
  1
三菱ギヤードモートル
 50
0.000002504478167
 41
0.984848625190477
  7
STANDARD1
  0
TEXT
  8
0
  6
CONTINUOUS
 62
3
 10
-366.010467529296880
 20
96.813186645507812
 40
10.295999526977539
  1
ＧＭ－ＳＦＳ
 50
0.000002504478167
 41
0.984848625190477
  7
STANDARD1
  0
TEXT
  8
0
  6
CONTINUOUS
 62
3
 10
-366.010467529296880
 20
80.277191162109375
 40
10.295999526977539
  1
０．２ｋＷ
 50
0.000002504478167
 41
0.984848625190477
  7
STANDARD1
  0
TEXT
  8
0
  6
CONTINUOUS
 62
3
 10
-366.010467529296880
 20
63.741188049316406
 40
10.295999526977539
  1
１／１２０～１／２００
 50
0.000002504478167
 41
0.984848625190477
  7
STANDARD1
  0
TEXT
  8
0
  6
CONTINUOUS
 62
3
 10
-366.010467529296880
 20
47.205188751220703
 40
10.295999526977539
  1
ＳＣＡＬＥ１／１
 50
0.000002504478167
 41
0.984848625190477
  7
STANDARD1
  0
ARC
  8
0
  6
CONTINUOUS
 62
3
 10
-308.730001423301130
 20
-159.591700325138870
 40
82.999999999999943
 50
309.642094265606600
 51
338.810986909002620
  0
ARC
  8
0
  6
CONTINUOUS
 62
3
 10
-378.230001423301130
 20
-181.924411759266230
 40
10.000000000000000
 50
180.000000000000000
 51
197.813976466620010
  0
ARC
  8
0
  6
CONTINUOUS
 62
3
 10
-308.730001423301130
 20
-159.591700325138870
 40
83.000000000000000
 50
204.554472145841830
 51
230.428105065559090
  0
ARC
  8
0
  6
CONTINUOUS
 62
3
 10
-308.730001423300910
 20
-528.591700325362810
 40
450.000000000000000
 50
90.000000000000000
 51
92.158403465040564
  0
ARC
  8
0
  6
CONTINUOUS
 62
3
 10
-323.230001423301130
 20
-143.864849169896870
 40
64.999999999999730
 50
92.158403465040337
 51
153.982816491506360
  0
ARC
  8
0
  6
CONTINUOUS
 62
3
 10
-308.730001423301130
 20
-528.591700325362810
 40
449.999999999999830
 50
87.841596534959393
 51
90.000000000000000
  0
ARC
  8
0
  6
CONTINUOUS
 62
3
 10
-294.230001423300910
 20
-143.864849169896870
 40
65.000000000000014
 50
12.684771122193162
 51
87.841596534959464
  0
LINE
  8
0
  6
CONTINUOUS
 62
3
 10
28.415461163412377
 20
102.224299030742250
 11
41.915461163410896
 21
102.224299030742250
  0
LINE
  8
0
  6
CONTINUOUS
 62
3
 10
28.415461163412374
 20
130.224299030742260
 11
41.915461163410903
 21
130.224299030742260
  0
LINE
  8
0
  6
CONTINUOUS
 62
3
 10
46.915461163422378
 20
-164.591700325138850
 11
40.915461163422378
 21
-164.591700325138850
  0
LINE
  8
0
  6
CONTINUOUS
 62
3
 10
46.915461163422378
 20
-154.591700325138850
 11
40.915461163422378
 21
-154.591700325138850
  0
LINE
  8
0
  6
CONTINUOUS
 62
3
 10
40.915461163422378
 20
-164.591700325138850
 11
40.915461163422378
 21
-154.591700325138850
  0
LINE
  8
0
  6
CONTINUOUS
 62
3
 10
46.915461163412374
 20
79.224299030741349
 11
40.915461163412374
 21
79.224299030741349
  0
LINE
  8
0
  6
CONTINUOUS
 62
3
 10
46.915461163412374
 20
69.224299030741349
 11
40.915461163412374
 21
69.224299030741349
  0
LINE
  8
0
  6
CONTINUOUS
 62
3
 10
40.915461163412374
 20
79.224299030741349
 11
40.915461163412374
 21
69.224299030741349
  0
LINE
  8
0
  6
CONTINUOUS
 62
3
 10
46.915461163412374
 20
153.224299030742260
 11
40.915461163412374
 21
153.224299030742260
  0
LINE
  8
0
  6
CONTINUOUS
 62
3
 10
46.915461163412374
 20
163.224299030742260
 11
40.915461163412374
 21
163.224299030742260
  0
LINE
  8
0
  6
CONTINUOUS
 62
3
 10
40.915461163412374
 20
153.224299030742260
 11
40.915461163412374
 21
163.224299030742260
  0
LINE
  8
0
  6
CONTINUOUS
 62
3
 10
-393.730001423301130
 20
-38.591700325138845
 11
-223.730001423301130
 21
-38.591700325139072
  0
LINE
  8
0
  6
CONTINUOUS
 62
3
 10
-213.730001423301130
 20
-48.591700325139072
 11
-213.730001423301130
 21
-218.591700325139130
  0
LINE
  8
0
  6
CONTINUOUS
 62
3
 10
-258.019795837073500
 20
-228.591700325139130
 11
-223.730001423301130
 21
-228.591700325139130
  0
LINE
  8
0
  6
CONTINUOUS
 62
3
 10
-393.730001423301130
 20
-228.591700325138900
 11
-359.440207009528760
 21
-228.591700325138900
  0
LINE
  8
0
  6
CONTINUOUS
 62
3
 10
-311.230001423301130
 20
-44.091700325138845
 11
-311.230001423301130
 21
-75.625090076880952
  0
LINE
  8
0
  6
CONTINUOUS
 62
3
 10
-359.937642294599190
 20
-85.919593359773671
 11
-373.783825292463350
 21
-72.073410361909282
  0
LINE
  8
0
  6
CONTINUOUS
 62
3
 10
-263.139422248249160
 20
-84.465587244154108
 11
-247.211711460071570
 21
-68.537876455976516
  0
ARC
  8
0
  6
CONTINUOUS
 62
3
 10
-365.427091538573110
 20
-228.195198577492700
 40
6.000000000000070
 50
348.059665094244340
 51
50.428105065558938
  0
ARC
  8
0
  6
CONTINUOUS
 62
3
 10
-252.032911308028930
 20
-228.195198577492700
 40
6.000000000000001
 50
129.571894934442720
 51
191.940334905755690
  0
ARC
  8
0
  6
CONTINUOUS
 62
3
 10
-351.730001423301130
 20
-231.091700325138900
 40
7.999999999999885
 50
168.059665094243460
 51
223.432536557789920
  0
ARC
  8
0
  6
CONTINUOUS
 62
3
 10
-265.730001423301130
 20
-231.091700325138900
 40
8.000000000000142
 50
316.567463442211190
 51
11.940334905756204
  0
ARC
  8
0
  6
CONTINUOUS
 62
3
 10
-352.199260254793330
 20
-82.344266900594675
 40
2.999999999999944
 50
225.000000000001530
 51
295.215148958216560
  0
ARC
  8
0
  6
CONTINUOUS
 62
3
 10
-362.058962638158730
 20
-88.040913703333331
 40
2.999999999999977
 50
304.820974823218140
 51
45.000000000001542
  0
ARC
  8
0
  6
CONTINUOUS
 62
3
 10
-265.260742591808930
 20
-82.344266900594448
 40
3.000000000000029
 50
244.784851041784350
 51
315.000000000001530
  0
ARC
  8
0
  6
CONTINUOUS
 62
3
 10
-255.401040208443530
 20
-88.040913703333104
 40
2.999999999999864
 50
135.000000000000000
 51
235.179025176783090
  0
ARC
  8
0
  6
CONTINUOUS
 62
3
 10
-393.730001423301130
 20
-48.591700325138845
 40
10.000000000000000
 50
90.000000000000000
 51
180.000000000000000
  0
CIRCLE
  8
0
  6
CONTINUOUS
 62
3
 10
-391.815048212720400
 20
-50.506653535719579
 40
6.000000000000000
  0
ARC
  8
0
  6
CONTINUOUS
 62
3
 10
-223.730001423301130
 20
-48.591700325139072
 40
10.000000000000000
 50
0.000000000000000
 51
90.000000000000000
  0
CIRCLE
  8
0
  6
CONTINUOUS
 62
3
 10
-225.644954633881870
 20
-50.506653535719579
 40
6.000000000000000
  0
ARC
  8
0
  6
CONTINUOUS
 62
3
 10
-223.730001423301130
 20
-218.591700325139130
 40
10.000000000000000
 50
270.000000000000000
 51
0.000000000000000
  0
ARC
  8
0
  6
CONTINUOUS
 62
3
 10
-393.730001423301130
 20
-218.591700325138900
 40
10.000000000000000
 50
180.000000000000000
 51
270.000000000000000
  0
CIRCLE
  8
0
  6
CONTINUOUS
 62
3
 10
-225.644954633882090
 20
-216.676747114558400
 40
6.000000000000000
  0
CIRCLE
  8
0
  6
CONTINUOUS
 62
3
 10
-391.815048212719940
 20
-216.676747114558400
 40
6.000000000000000
  0
ARC
  8
0
  6
CONTINUOUS
 62
3
 10
-314.230001423301130
 20
-75.625090076880952
 40
3.000000000000050
 50
270.695661214153010
 51
0.000000000000000
  0
ARC
  8
0
  6
CONTINUOUS
 62
3
 10
-303.230001423301130
 20
-75.625090076880952
 40
3.000000000000000
 50
180.000000000000000
 51
269.304338785846990
  0
ARC
  8
0
  6
CONTINUOUS
 62
3
 10
-249.333031803631120
 20
-66.416556112416970
 40
2.999999999999944
 50
314.999999999998470
 51
45.000000000001542
  0
ARC
  8
0
  6
CONTINUOUS
 62
3
 10
-241.554857210579140
 20
-74.194730705468942
 40
3.000000000000105
 50
44.999999999998472
 51
134.999999999998470
  0
LINE
  8
0
  6
CONTINUOUS
 62
3
 10
-257.522360552003080
 20
-85.919593359773557
 11
-243.676177554138920
 21
-72.073410361909282
  0
ARC
  8
0
  6
CONTINUOUS
 62
3
 10
-303.230001423301130
 20
-44.091700325138845
 40
3.000000000000000
 50
90.000000000000000
 51
180.000000000000000
  0
LINE
  8
0
  6
CONTINUOUS
 62
3
 10
-306.230001423301130
 20
-44.091700325138845
 11
-306.230001423301130
 21
-75.625090076880952
  0
ARC
  8
0
  6
CONTINUOUS
 62
3
 10
-314.230001423301130
 20
-44.091700325138845
 40
3.000000000000000
 50
0.000000000000000
 51
90.000000000000000
  0
ARC
  8
0
  6
CONTINUOUS
 62
3
 10
-368.126971042970920
 20
-66.416556112416970
 40
3.000000000000105
 50
135.000000000001530
 51
224.999999999998470
  0
ARC
  8
0
  6
CONTINUOUS
 62
3
 10
-375.905145636023120
 20
-74.194730705468942
 40
3.000000000000105
 50
44.999999999998472
 51
134.999999999998470
  0
LINE
  8
0
  6
CONTINUOUS
 62
3
 10
-354.320580598352880
 20
-84.465587244154335
 11
-370.248291386530700
 21
-68.537876455976630
  0
LINE
  8
0
  6
CONTINUOUS
 62
3
 10
-273.730001423301130
 20
-85.901498680126224
 11
-273.730001423301130
 21
-93.591700325138845
  0
LINE
  8
0
  6
CONTINUOUS
 62
3
 10
-343.730001423301130
 20
-85.901498680126224
 11
-343.730001423301130
 21
-93.591700325138845
  0
ARC
  8
0
  6
CONTINUOUS
 62
3
 10
-366.372137047032200
 20
-210.162768137003980
 40
3.000000000000024
 50
224.999999999996960
 51
315.000000000000000
  0
ARC
  8
0
  6
CONTINUOUS
 62
3
 10
-359.301069235166890
 20
-217.233835948869510
 40
2.999999999999864
 50
135.000000000000000
 51
225.000000000000000
  0
ARC
  8
0
  6
CONTINUOUS
 62
3
 10
-251.087865799570070
 20
-210.162768137003980
 40
2.999999999999864
 50
225.000000000000000
 51
315.000000000003070
  0
ARC
  8
0
  6
CONTINUOUS
 62
3
 10
-258.158933611435370
 20
-217.233835948869510
 40
2.999999999999864
 50
315.000000000000000
 51
45.000000000000000
  0
ARC
  8
0
  6
CONTINUOUS
 62
3
 10
-251.087865799570070
 20
-109.020632513273540
 40
3.000000000000024
 50
44.999999999996930
 51
135.000000000000000
  0
ARC
  8
0
  6
CONTINUOUS
 62
3
 10
-258.158933611435370
 20
-101.949564701408230
 40
2.999999999999864
 50
315.000000000000000
 51
45.000000000003077
  0
ARC
  8
0
  6
CONTINUOUS
 62
3
 10
-359.301069235166890
 20
-101.949564701408230
 40
3.000000000000024
 50
134.999999999996930
 51
225.000000000000000
  0
ARC
  8
0
  6
CONTINUOUS
 62
3
 10
-366.372137047032200
 20
-109.020632513273540
 40
2.999999999999864
 50
45.000000000000000
 51
135.000000000003040
  0
ARC
  8
0
  6
CONTINUOUS
 62
3
 10
-266.730001423301130
 20
-93.591700325138845
 40
7.000000000000000
 50
180.000000000000000
 51
338.520534180738930
  0
ARC
  8
0
  6
CONTINUOUS
 62
3
 10
-350.730001423301130
 20
-93.591700325138845
 40
7.000000000000041
 50
201.479465819260380
 51
0.000000000000000
  0
ARC
  8
0
  6
CONTINUOUS
 62
3
 10
-265.730001423301130
 20
-231.091700325138900
 40
6.999999999999920
 50
61.263962136560927
 51
180.000000000000000
  0
LINE
  8
0
  6
CONTINUOUS
 62
3
 10
-272.730001423301130
 20
-231.091700325138900
 11
-272.730001423301130
 21
-231.591700325138900
  0
ARC
  8
0
  6
CONTINUOUS
 62
3
 10
-265.730001423301130
 20
-231.091700325138900
 40
7.999999999999977
 50
316.567463442210060
 51
11.940334905756542
  0
ARC
  8
0
  6
CONTINUOUS
 62
3
 10
-252.032911308029160
 20
-228.195198577492700
 40
5.999999999999855
 50
129.571894934441050
 51
191.940334905755690
  0
ARC
  8
0
  6
CONTINUOUS
 62
3
 10
-365.427091538573110
 20
-228.195198577492700
 40
5.999999999999847
 50
348.059665094243880
 51
50.428105065558938
  0
ARC
  8
0
  6
CONTINUOUS
 62
3
 10
-351.730001423301130
 20
-231.091700325138900
 40
8.000000000000108
 50
168.059665094243800
 51
223.432536557789920
  0
ARC
  8
0
  6
CONTINUOUS
 62
3
 10
-351.730001423301130
 20
-231.091700325138900
 40
7.000000000000000
 50
0.000000000000000
 51
118.736037863439060
  0
LINE
  8
0
  6
CONTINUOUS
 62
3
 10
-344.730001423301130
 20
-231.091700325138900
 11
-344.730001423301130
 21
-231.591700325138900
  0
ARC
  8
0
  6
CONTINUOUS
 62
3
 10
-338.730001423301130
 20
-85.901498680126224
 40
4.999999999999904
 50
104.971190995949040
 51
180.000000000000000
  0
ARC
  8
0
  6
CONTINUOUS
 62
3
 10
-361.896587722394660
 20
-97.985713345703971
 40
4.999999999999919
 50
21.479465819263282
 51
130.123934227061850
  0
ARC
  8
0
  6
CONTINUOUS
 62
3
 10
-339.730001423301130
 20
-231.591700325138900
 40
5.000000000000000
 50
180.000000000000000
 51
270.000000000000000
  0
ARC
  8
0
  6
CONTINUOUS
 62
3
 10
-357.499302734403610
 20
-220.569573050594560
 40
4.999999999999753
 50
223.887028754553090
 51
298.736037863439320
  0
ARC
  8
0
  6
CONTINUOUS
 62
3
 10
-259.960700112198880
 20
-220.569573050594560
 40
4.999999999999922
 50
241.263962136562950
 51
316.112971245448760
  0
ARC
  8
0
  6
CONTINUOUS
 62
3
 10
-277.730001423301130
 20
-231.591700325138900
 40
5.000000000000000
 50
270.000000000000000
 51
0.000000000000000
  0
ARC
  8
0
  6
CONTINUOUS
 62
3
 10
-278.730001423301130
 20
-85.901498680126224
 40
5.000000000000000
 50
0.000000000000000
 51
75.028809004050956
  0
ARC
  8
0
  6
CONTINUOUS
 62
3
 10
-255.563415124207610
 20
-97.985713345703971
 40
5.000000000000052
 50
49.876065772938119
 51
158.520534180736720
  0
LINE
  8
0
  6
DASHDOT
 62
4
 10
-384.036873619667970
 20
-208.898572521506140
 11
-399.593222805771920
 21
-224.454921707610080
  0
ARC
  8
0
  6
DASHDOT
 62
4
 10
-308.730001423301130
 20
-133.591700325138850
 40
117.499999999999810
 50
219.139569540826670
 51
230.364178174483900
  0
LINE
  8
0
  6
DASHDOT
 62
4
 10
-382.074305171574220
 20
-60.247396576865299
 11
-400.205960670776790
 21
-42.115741077662619
  0
ARC
  8
0
  6
DASHDOT
 62
4
 10
-308.730001423301130
 20
-133.591700325138850
 40
117.499999999999780
 50
129.635821825516160
 51
140.364178174483360
  0
LINE
  8
0
  6
DASHDOT
 62
4
 10
-235.123082292967640
 20
-59.984781194805350
 11
-217.866780040829780
 21
-42.728478942667607
  0
ARC
  8
0
  6
DASHDOT
 62
4
 10
-308.730001423301130
 20
-133.591700325138850
 40
117.499999999999870
 50
39.244192836631640
 51
50.364178174483797
  0
LINE
  8
0
  6
DASHDOT
 62
4
 10
-234.691317774563230
 20
-207.630383973877710
 11
-217.714644469776090
 21
-224.607057278665080
  0
ARC
  8
0
  6
DASHDOT
 62
4
 10
-308.730001423301130
 20
-133.591700325138850
 40
117.499999999999710
 50
309.635821825516130
 51
320.364178174483300
  0
INSERT
  8
0
  2
SYM1
 10
-390.174823629644490
 20
-200.510656936399300
 41
1.000000000000000
 42
1.000000000000000
 43
1.000000000000000
 50
357.137594773886350
  0
ARC
  8
0
  6
CONTINUOUS
 62
4
 10
-271.739934185154710
 20
-131.527943694123220
 40
10.797000000000011
 50
5.752282731536912
 51
44.999999999998295
  0
ARC
  8
0
  6
CONTINUOUS
 62
3
 10
-271.739934185154710
 20
-131.527943694123220
 40
20.599999999999973
 50
5.752282731536472
 51
44.999999999997321
  0
ARC
  8
0
  6
CONTINUOUS
 62
3
 10
-271.739934185154710
 20
-187.655456956154470
 40
20.600000000000069
 50
315.000000000002670
 51
354.247717268463530
  0
ARC
  8
0
  6
CONTINUOUS
 62
3
 10
-345.720068661447500
 20
-187.655456956154470
 40
20.599999999999916
 50
185.752282731536500
 51
224.999999999997330
  0
ARC
  8
0
  6
CONTINUOUS
 62
3
 10
-345.720068661447500
 20
-131.527943694123220
 40
20.600000000000069
 50
135.000000000002670
 51
174.247717268463500
  0
LINE
  8
0
  6
CONTINUOUS
 62
3
 10
-251.428552363399830
 20
-191.091700325138850
 11
-251.230001423301020
 21
-191.091700325138850
  0
LINE
  8
0
  6
CONTINUOUS
 62
3
 10
-251.428552363399830
 20
-128.091700325138850
 11
-251.230001423301020
 21
-128.091700325138850
  0
LINE
  8
0
  6
CONTINUOUS
 62
3
 10
-251.230001423301020
 20
-129.599201262876700
 11
-251.230001423301020
 21
-128.091700325138850
  0
LINE
  8
0
  6
CONTINUOUS
 62
3
 10
-251.230001423301020
 20
-191.091700325138850
 11
-251.230001423301020
 21
-189.579686179569080
  0
LINE
  8
0
  6
CONTINUOUS
 62
3
 10
-257.173534492711100
 20
-116.961544001680970
 11
-264.632229667382090
 21
-109.502848827009300
  0
LINE
  8
0
  6
CONTINUOUS
 62
3
 10
-257.173534492711100
 20
-202.221856648596710
 11
-264.632229667382090
 21
-209.680551823268390
  0
LINE
  8
0
  6
CONTINUOUS
 62
3
 10
-360.286468353891110
 20
-202.221856648596710
 11
-352.827773179220120
 21
-209.680551823268390
  0
LINE
  8
0
  6
CONTINUOUS
 62
3
 10
-360.286468353891110
 20
-116.961544001680970
 11
-352.827773179220120
 21
-109.502848827009300
  0
ARC
  8
0
  6
CONTINUOUS
 62
3
 10
-305.230001423301020
 20
-141.935256742129240
 40
1.000000000000000
 50
180.000000000000000
 51
258.787728582356010
  0
LINE
  8
0
  6
CONTINUOUS
 62
3
 10
-306.230001423301020
 20
-138.885421084290330
 11
-306.230001423301020
 21
-141.935256742129240
  0
ARC
  8
0
  6
CONTINUOUS
 62
3
 10
-305.230001423301020
 20
-138.885421084290330
 40
1.000000000000268
 50
80.405931773124522
 51
180.000000000000000
  0
ARC
  8
0
  6
CONTINUOUS
 62
3
 10
-305.230001423301020
 20
-133.323849252011540
 40
1.000000000000000
 50
179.999999999986980
 51
262.410457608144040
  0
LINE
  8
0
  6
CONTINUOUS
 62
3
 10
-306.230001423301020
 20
-130.300063293385160
 11
-306.230001423301020
 21
-133.323849252011310
  0
ARC
  8
0
  6
CONTINUOUS
 62
3
 10
-305.230001423301020
 20
-130.300063293385160
 40
1.000000000000077
 50
83.186145655820312
 51
180.000000000000000
  0
ARC
  8
0
  6
CONTINUOUS
 62
3
 10
-305.230001423301020
 20
-124.767140026407100
 40
1.000000000000000
 50
180.000000000000000
 51
264.260829522738280
  0
LINE
  8
0
  6
CONTINUOUS
 62
3
 10
-306.230001423301020
 20
-121.753227840113820
 11
-306.230001423301020
 21
-124.767140026407100
  0
ARC
  8
0
  6
CONTINUOUS
 62
3
 10
-305.230001423301020
 20
-121.753227840113820
 40
1.000000000000042
 50
84.715267045464302
 51
180.000000000000000
  0
ARC
  8
0
  6
CONTINUOUS
 62
3
 10
-285.112699635369210
 20
-141.914792896016480
 40
1.000000000000082
 50
299.999999999997270
 51
36.813854344186687
  0
LINE
  8
0
  6
CONTINUOUS
 62
3
 10
-284.612699635369210
 20
-142.780818299801010
 11
-287.231375091146730
 21
-144.292711279114200
  0
ARC
  8
0
  6
CONTINUOUS
 62
3
 10
-287.731375091146730
 20
-143.426685875329670
 40
0.999999999999834
 50
217.589542391867670
 51
299.999999999997270
  0
ARC
  8
0
  6
CONTINUOUS
 62
3
 10
-277.710923010870890
 20
-137.641375169380810
 40
0.999999999999885
 50
300.000000000003810
 51
35.284732954544943
  0
LINE
  8
0
  6
CONTINUOUS
 62
3
 10
-277.210923010870890
 20
-138.507400573165110
 11
-279.821047528976640
 21
-140.014356666311870
  0
ARC
  8
0
  6
CONTINUOUS
 62
3
 10
-280.321047528976640
 20
-139.148331262527560
 40
0.999999999999940
 50
215.739170477274090
 51
300.000000000003810
  0
ARC
  8
0
  6
CONTINUOUS
 62
3
 10
-302.831472152911830
 20
-152.144730978729290
 40
0.999999999999961
 50
231.618272422159780
 51
299.999999999997270
  0
LINE
  8
0
  6
CONTINUOUS
 62
3
 10
-299.587696577887580
 20
-151.426636815677740
 11
-302.331472152911830
 21
-153.010756382513820
  0
ARC
  8
0
  6
CONTINUOUS
 62
3
 10
-295.189072739928240
 20
-147.732389620388630
 40
0.999999999999673
 50
221.212271417651210
 51
300.000000000003810
  0
LINE
  8
0
  6
CONTINUOUS
 62
3
 10
-292.047837582872090
 20
-147.073497195253370
 11
-294.689072739928240
 21
-148.598415024172940
  0
ARC
  8
0
  6
CONTINUOUS
 62
3
 10
-292.547837582872090
 20
-146.207471791468830
 40
1.000000000000082
 50
299.999999999997270
 51
39.594068226850403
  0
ARC
  8
0
  6
CONTINUOUS
 62
3
 10
-305.230001423301020
 20
-150.759939458811000
 40
1.000000000000000
 50
180.000000000000000
 51
248.381727577838030
  0
ARC
  8
0
  6
CONTINUOUS
 62
3
 10
-308.730001423301130
 20
-159.591700325138850
 40
8.500000000000197
 50
51.618272422157723
 51
68.381727577841588
  0
ARC
  8
0
  6
CONTINUOUS
 62
3
 10
-300.087696577887580
 20
-150.560611411893430
 40
0.999999999999885
 50
300.000000000003810
 51
46.260204708328693
  0
LINE
  8
0
  6
CONTINUOUS
 62
3
 10
-306.230001423301020
 20
-147.591700325138850
 11
-306.230001423301020
 21
-150.759939458811000
  0
ARC
  8
0
  6
CONTINUOUS
 62
3
 10
-305.230001423301020
 20
-147.591700325138850
 40
0.999999999999964
 50
73.739795291702634
 51
180.000000000000000
  0
ARC
  8
0
  6
CONTINUOUS
 62
3
 10
-308.730001423301130
 20
-159.591700325138850
 40
13.499999999999966
 50
46.260204708311974
 51
73.739795291688665
  0
ARC
  8
0
  6
CONTINUOUS
 62
3
 10
-308.730001423301130
 20
-159.591700325138850
 40
17.000000000000156
 50
41.212271417649632
 51
78.787728582349615
  0
ARC
  8
0
  6
CONTINUOUS
 62
3
 10
-308.730001423301130
 20
-159.591700325138850
 40
22.000000000000071
 50
39.594068226860728
 51
80.405931773138491
  0
ARC
  8
0
  6
CONTINUOUS
 62
3
 10
-308.730001423301130
 20
-159.591700325138850
 40
30.500000000000007
 50
36.813854344181003
 51
83.186145655818748
  0
ARC
  8
0
  6
CONTINUOUS
 62
3
 10
-308.730001423301130
 20
-159.591700325138850
 40
25.499999999999936
 50
37.589542391857883
 51
82.410457608141627
  0
ARC
  8
0
  6
CONTINUOUS
 62
3
 10
-308.730001423301130
 20
-159.591700325138850
 40
33.999999999999879
 50
35.739170477266583
 51
84.260829522732891
  0
ARC
  8
0
  6
CONTINUOUS
 62
3
 10
-308.730001423301130
 20
-159.591700325138850
 40
38.999999999999908
 50
35.284732954534746
 51
84.715267045465254
  0
ARC
  8
0
  6
CONTINUOUS
 62
3
 10
-281.612699635369210
 20
-147.976970722507530
 40
0.999999999999730
 50
23.186145655819850
 51
119.999999999997270
  0
LINE
  8
0
  6
CONTINUOUS
 62
3
 10
-282.112699635369210
 20
-147.110945318723000
 11
-284.731375091146730
 21
-148.622838298036190
  0
ARC
  8
0
  6
CONTINUOUS
 62
3
 10
-284.231375091146730
 20
-149.488863701820720
 40
1.000000000000082
 50
119.999999999997270
 51
202.410457608146060
  0
ARC
  8
0
  6
CONTINUOUS
 62
3
 10
-274.210923010870890
 20
-143.703552995871860
 40
1.000000000000248
 50
24.715267045455477
 51
119.999999999997270
  0
LINE
  8
0
  6
CONTINUOUS
 62
3
 10
-274.710923010870890
 20
-142.837527592087330
 11
-277.321047528976640
 21
-144.344483685234080
  0
ARC
  8
0
  6
CONTINUOUS
 62
3
 10
-276.821047528976640
 20
-145.210509089018390
 40
0.999999999999885
 50
120.000000000003780
 51
204.260829522745610
  0
ARC
  8
0
  6
CONTINUOUS
 62
3
 10
-299.331472152911890
 20
-158.206908805220560
 40
1.000000000000082
 50
119.999999999997270
 51
188.381727577832660
  0
LINE
  8
0
  6
CONTINUOUS
 62
3
 10
-297.087696577887580
 20
-155.756763834599950
 11
-299.831472152911890
 21
-157.340883401436030
  0
ARC
  8
0
  6
CONTINUOUS
 62
3
 10
-291.689072739928240
 20
-153.794567446879680
 40
1.000000000000082
 50
119.999999999997270
 51
198.787728582347000
  0
LINE
  8
0
  6
CONTINUOUS
 62
3
 10
-289.547837582871640
 20
-151.403624214175810
 11
-292.189072739928240
 21
-152.928542043095150
  0
ARC
  8
0
  6
CONTINUOUS
 62
3
 10
-289.047837582871640
 20
-152.269649617960110
 40
1.000000000000094
 50
20.405931773138686
 51
120.000000000003780
  0
ARC
  8
0
  6
CONTINUOUS
 62
3
 10
-299.331472152911890
 20
-160.976491845057350
 40
1.000000000000059
 50
171.618272422154460
 51
239.999999999996220
  0
ARC
  8
0
  6
CONTINUOUS
 62
3
 10
-308.730001423301130
 20
-159.591700325138850
 40
8.500000000000027
 50
351.618272422157870
 51
8.381727577842147
  0
ARC
  8
0
  6
CONTINUOUS
 62
3
 10
-296.587696577887580
 20
-156.622789238384260
 40
0.999999999999879
 50
13.739795291686027
 51
120.000000000003780
  0
LINE
  8
0
  6
CONTINUOUS
 62
3
 10
-297.087696577887580
 20
-163.426636815677740
 11
-299.831472152911890
 21
-161.842517248841660
  0
ARC
  8
0
  6
CONTINUOUS
 62
3
 10
-296.587696577887580
 20
-162.560611411893430
 40
0.999999999999885
 50
239.999999999996220
 51
346.260204708314010
  0
ARC
  8
0
  6
CONTINUOUS
 62
3
 10
-308.730001423301130
 20
-159.591700325138850
 40
13.500000000000185
 50
346.260204708311900
 51
13.739795291688115
  0
ARC
  8
0
  6
CONTINUOUS
 62
3
 10
-291.689072739928240
 20
-165.388833203398010
 40
0.999999999999646
 50
161.212271417644620
 51
239.999999999996220
  0
LINE
  8
0
  6
CONTINUOUS
 62
3
 10
-289.547837582871640
 20
-167.779776436101880
 11
-292.189072739928240
 21
-166.254858607182310
  0
ARC
  8
0
  6
CONTINUOUS
 62
3
 10
-308.730001423301130
 20
-159.591700325138850
 40
17.000000000000203
 50
341.212271417650130
 51
18.787728582350358
  0
ARC
  8
0
  6
CONTINUOUS
 62
3
 10
-289.047837582871640
 20
-166.913751032317580
 40
0.999999999999885
 50
239.999999999996220
 51
339.594068226861340
  0
ARC
  8
0
  6
CONTINUOUS
 62
3
 10
-284.231375091146730
 20
-169.694536948457200
 40
0.999999999999701
 50
157.589542391853940
 51
240.000000000002730
  0
ARC
  8
0
  6
CONTINUOUS
 62
3
 10
-276.821047528976640
 20
-173.972891561259080
 40
0.999999999999769
 50
155.739170477266270
 51
240.000000000002730
  0
ARC
  8
0
  6
CONTINUOUS
 62
3
 10
-308.730001423301130
 20
-159.591700325138850
 40
22.000000000000259
 50
339.594068226860830
 51
20.405931773139180
  0
LINE
  8
0
  6
CONTINUOUS
 62
3
 10
-282.112699635369210
 20
-172.072455331554690
 11
-284.731375091146730
 21
-170.560562352241730
  0
ARC
  8
0
  6
CONTINUOUS
 62
3
 10
-281.612699635369210
 20
-171.206429927770160
 40
1.000000000000082
 50
240.000000000002730
 51
336.813854344180130
  0
ARC
  8
0
  6
CONTINUOUS
 62
3
 10
-308.730001423301130
 20
-159.591700325138850
 40
30.500000000000000
 50
336.813854344181210
 51
23.186145655818802
  0
ARC
  8
0
  6
CONTINUOUS
 62
3
 10
-308.730001423301130
 20
-159.591700325138850
 40
25.500000000000142
 50
337.589542391857550
 51
22.410457608141972
  0
ARC
  8
0
  6
CONTINUOUS
 62
3
 10
-308.730001423301130
 20
-159.591700325138850
 40
34.000000000000057
 50
335.739170477266840
 51
24.260829522733179
  0
ARC
  8
0
  6
CONTINUOUS
 62
3
 10
-308.730001423301130
 20
-159.591700325138850
 40
39.000000000000270
 50
335.284732954534830
 51
24.715267045465158
  0
LINE
  8
0
  6
CONTINUOUS
 62
3
 10
-274.710923010870890
 20
-176.345873058190140
 11
-277.321047528976640
 21
-174.838916965043610
  0
ARC
  8
0
  6
CONTINUOUS
 62
3
 10
-274.210923010870890
 20
-175.479847654405830
 40
0.999999999999885
 50
239.999999999996220
 51
335.284732954544490
  0
CIRCLE
  8
0
  6
CONTINUOUS
 62
3
 10
-308.730001423301130
 20
-159.591700325138850
 40
5.000000000000000
  0
ARC
  8
0
  6
CONTINUOUS
 62
3
 10
-277.710923010870890
 20
-181.542025480897110
 40
0.999999999999776
 50
324.715267045465680
 51
60.000000000002721
  0
ARC
  8
0
  6
CONTINUOUS
 62
3
 10
-280.321047528976640
 20
-180.035069387750130
 40
0.999999999999885
 50
59.999999999996206
 51
144.260829522736490
  0
ARC
  8
0
  6
CONTINUOUS
 62
3
 10
-305.230001423301020
 20
-194.416260623870580
 40
0.999999999999973
 50
95.739170477261709
 51
180.000000000000000
  0
ARC
  8
0
  6
CONTINUOUS
 62
3
 10
-305.230001423301020
 20
-197.430172810163870
 40
1.000000000000000
 50
180.000000000000000
 51
275.284732954535740
  0
ARC
  8
0
  6
CONTINUOUS
 62
3
 10
-305.230001423301020
 20
-185.859551398266150
 40
0.999999999999975
 50
97.589542391854238
 51
180.000000000000000
  0
ARC
  8
0
  6
CONTINUOUS
 62
3
 10
-285.112699635369210
 20
-177.268607754260980
 40
0.999999999999911
 50
323.186145655802870
 51
59.999999999996206
  0
ARC
  8
0
  6
CONTINUOUS
 62
3
 10
-287.731375091146280
 20
-175.756714774948020
 40
1.000000000000082
 50
60.000000000002721
 51
142.410457608148220
  0
ARC
  8
0
  6
CONTINUOUS
 62
3
 10
-305.230001423301020
 20
-188.883337356892530
 40
1.000000000000000
 50
180.000000000000000
 51
276.813854344179670
  0
ARC
  8
0
  6
CONTINUOUS
 62
3
 10
-305.230001423301020
 20
-180.297979565987360
 40
1.000000000000000
 50
180.000000000000000
 51
279.594068226875490
  0
ARC
  8
0
  6
CONTINUOUS
 62
3
 10
-305.230001423301020
 20
-177.248143908148450
 40
0.999999999999982
 50
101.212271417644000
 51
180.000000000000000
  0
ARC
  8
0
  6
CONTINUOUS
 62
3
 10
-292.547837582872090
 20
-172.975928858808630
 40
1.000000000000318
 50
320.405931773139570
 51
59.999999999996206
  0
ARC
  8
0
  6
CONTINUOUS
 62
3
 10
-295.189072739928240
 20
-171.451011029889290
 40
1.000000000000082
 50
60.000000000002721
 51
138.787728582338990
  0
ARC
  8
0
  6
CONTINUOUS
 62
3
 10
-300.087696577887580
 20
-168.622789238384260
 40
0.999999999999858
 50
313.739795291671330
 51
59.999999999996206
  0
ARC
  8
0
  6
CONTINUOUS
 62
3
 10
-305.230001423301020
 20
-171.591700325138850
 40
1.000000000000000
 50
180.000000000000000
 51
286.260204708297350
  0
ARC
  8
0
  6
CONTINUOUS
 62
3
 10
-305.230001423301020
 20
-168.423461191466690
 40
1.000000000000090
 50
111.618272422161970
 51
180.000000000000000
  0
ARC
  8
0
  6
CONTINUOUS
 62
3
 10
-302.831472152911830
 20
-167.038669671548180
 40
0.999999999999885
 50
59.999999999996206
 51
128.381727577840220
  0
ARC
  8
0
  6
CONTINUOUS
 62
3
 10
-308.730001423301130
 20
-159.591700325138850
 40
39.000000000000000
 50
275.284732954534770
 51
324.715267045465230
  0
ARC
  8
0
  6
CONTINUOUS
 62
3
 10
-308.730001423301130
 20
-159.591700325138850
 40
30.500000000000149
 50
276.813854344181270
 51
323.186145655818960
  0
ARC
  8
0
  6
CONTINUOUS
 62
3
 10
-308.730001423301130
 20
-159.591700325138850
 40
34.000000000000078
 50
275.739170477267070
 51
324.260829522733100
  0
ARC
  8
0
  6
CONTINUOUS
 62
3
 10
-308.730001423301130
 20
-159.591700325138850
 40
25.499999999999950
 50
277.589542391858460
 51
322.410457608142110
  0
ARC
  8
0
  6
CONTINUOUS
 62
3
 10
-308.730001423301130
 20
-159.591700325138850
 40
22.000000000000149
 50
279.594068226861510
 51
320.405931773139290
  0
ARC
  8
0
  6
CONTINUOUS
 62
3
 10
-308.730001423301130
 20
-159.591700325138850
 40
17.000000000000068
 50
281.212271417650410
 51
318.787728582350330
  0
ARC
  8
0
  6
CONTINUOUS
 62
3
 10
-308.730001423301130
 20
-159.591700325138850
 40
13.499999999999996
 50
286.260204708311330
 51
313.739795291688040
  0
ARC
  8
0
  6
CONTINUOUS
 62
3
 10
-308.730001423301130
 20
-159.591700325138850
 40
8.499999999999945
 50
291.618272422158380
 51
308.381727577843210
  0
LINE
  8
0
  6
CONTINUOUS
 62
3
 10
-284.612699635369210
 20
-176.402582350476680
 11
-287.231375091146280
 21
-174.890689371163490
  0
LINE
  8
0
  6
CONTINUOUS
 62
3
 10
-306.230001423301020
 20
-197.430172810163870
 11
-306.230001423301020
 21
-194.416260623870580
  0
LINE
  8
0
  6
CONTINUOUS
 62
3
 10
-277.210923010870890
 20
-180.676000077112580
 11
-279.821047528976640
 21
-179.169043983965820
  0
LINE
  8
0
  6
CONTINUOUS
 62
3
 10
-292.047837582872090
 20
-172.109903455024320
 11
-294.689072739928240
 21
-170.584985626104750
  0
LINE
  8
0
  6
CONTINUOUS
 62
3
 10
-299.587696577887580
 20
-167.756763834599950
 11
-302.331472152911830
 21
-166.172644267763870
  0
LINE
  8
0
  6
CONTINUOUS
 62
3
 10
-306.230001423301020
 20
-171.591700325138850
 11
-306.230001423301020
 21
-168.423461191466690
  0
LINE
  8
0
  6
CONTINUOUS
 62
3
 10
-306.230001423301020
 20
-180.297979565987360
 11
-306.230001423301020
 21
-177.248143908148450
  0
LINE
  8
0
  6
CONTINUOUS
 62
3
 10
-306.230001423301020
 20
-188.883337356892530
 11
-306.230001423301020
 21
-185.859551398266150
  0
ARC
  8
0
  6
CONTINUOUS
 62
3
 10
-308.730001423301130
 20
-159.591700325138850
 40
39.000000000000220
 50
155.284732954534800
 51
204.715267045465200
  0
ARC
  8
0
  6
CONTINUOUS
 62
3
 10
-308.730001423301130
 20
-159.591700325138850
 40
34.000000000000007
 50
155.739170477266780
 51
204.260829522733220
  0
ARC
  8
0
  6
CONTINUOUS
 62
3
 10
-308.730001423301130
 20
-159.591700325138850
 40
25.500000000000000
 50
157.589542391857980
 51
202.410457608142480
  0
ARC
  8
0
  6
CONTINUOUS
 62
3
 10
-308.730001423301130
 20
-159.591700325138850
 40
30.499999999999947
 50
156.813854344181150
 51
203.186145655818850
  0
ARC
  8
0
  6
CONTINUOUS
 62
3
 10
-308.730001423301130
 20
-159.591700325138850
 40
22.000000000000206
 50
159.594068226860770
 51
200.405931773139230
  0
ARC
  8
0
  6
CONTINUOUS
 62
3
 10
-308.730001423301130
 20
-159.591700325138850
 40
16.999999999999716
 50
161.212271417649560
 51
198.787728582350440
  0
ARC
  8
0
  6
CONTINUOUS
 62
3
 10
-308.730001423301130
 20
-159.591700325138850
 40
13.499999999999687
 50
166.260204708311360
 51
193.739795291688180
  0
ARC
  8
0
  6
CONTINUOUS
 62
3
 10
-320.872306268714620
 20
-156.622789238384260
 40
0.999999999999885
 50
59.999999999996206
 51
166.260204708307780
  0
ARC
  8
0
  6
CONTINUOUS
 62
3
 10
-328.412165263730570
 20
-152.269649617960110
 40
0.999999999999885
 50
59.999999999996206
 51
159.594068226861310
  0
LINE
  8
0
  6
CONTINUOUS
 62
3
 10
-327.912165263730570
 20
-151.403624214175810
 11
-325.270930106673970
 21
-152.928542043095150
  0
ARC
  8
0
  6
CONTINUOUS
 62
3
 10
-325.770930106673970
 20
-153.794567446879680
 40
1.000000000000076
 50
341.212271417652970
 51
60.000000000002721
  0
LINE
  8
0
  6
CONTINUOUS
 62
3
 10
-320.372306268714620
 20
-155.756763834599950
 11
-317.628530693690320
 21
-157.340883401436030
  0
ARC
  8
0
  6
CONTINUOUS
 62
3
 10
-318.128530693690320
 20
-158.206908805220560
 40
1.000000000000026
 50
351.618272422167310
 51
60.000000000002721
  0
ARC
  8
0
  6
CONTINUOUS
 62
3
 10
-340.638955317625570
 20
-145.210509089018390
 40
0.999999999999863
 50
335.739170477254390
 51
59.999999999996206
  0
LINE
  8
0
  6
CONTINUOUS
 62
3
 10
-342.749079835731320
 20
-142.837527592087330
 11
-340.138955317625570
 21
-144.344483685234080
  0
ARC
  8
0
  6
CONTINUOUS
 62
3
 10
-343.249079835731320
 20
-143.703552995871860
 40
1.000000000000082
 50
60.000000000002721
 51
155.284732954544520
  0
ARC
  8
0
  6
CONTINUOUS
 62
3
 10
-333.228627755455480
 20
-149.488863701820720
 40
0.999999999999701
 50
337.589542391853970
 51
60.000000000002721
  0
LINE
  8
0
  6
CONTINUOUS
 62
3
 10
-335.347303211233000
 20
-147.110945318723000
 11
-332.728627755455480
 21
-148.622838298036190
  0
ARC
  8
0
  6
CONTINUOUS
 62
3
 10
-335.847303211233000
 20
-147.976970722507530
 40
1.000000000000082
 50
60.000000000002721
 51
156.813854344180160
  0
ARC
  8
0
  6
CONTINUOUS
 62
3
 10
-308.730001423301130
 20
-159.591700325138850
 40
38.999999999999986
 50
95.284732954534590
 51
144.715267045465200
  0
ARC
  8
0
  6
CONTINUOUS
 62
3
 10
-308.730001423301130
 20
-159.591700325138850
 40
34.000000000000071
 50
95.739170477266924
 51
144.260829522733360
  0
ARC
  8
0
  6
CONTINUOUS
 62
3
 10
-308.730001423301130
 20
-159.591700325138850
 40
25.500000000000160
 50
97.589542391858117
 51
142.410457608142050
  0
ARC
  8
0
  6
CONTINUOUS
 62
3
 10
-308.730001423301130
 20
-159.591700325138850
 40
30.500000000000135
 50
96.813854344181038
 51
143.186145655818930
  0
ARC
  8
0
  6
CONTINUOUS
 62
3
 10
-308.730001423301130
 20
-159.591700325138850
 40
22.000000000000131
 50
99.594068226861211
 51
140.405931773139200
  0
ARC
  8
0
  6
CONTINUOUS
 62
3
 10
-308.730001423301130
 20
-159.591700325138850
 40
17.000000000000046
 50
101.212271417650010
 51
138.787728582350240
  0
ARC
  8
0
  6
CONTINUOUS
 62
3
 10
-308.730001423301130
 20
-159.591700325138850
 40
13.499999999999963
 50
106.260204708310860
 51
133.739795291687870
  0
ARC
  8
0
  6
CONTINUOUS
 62
3
 10
-312.230001423301130
 20
-147.591700325138850
 40
1.000000000000000
 50
0.000000000000000
 51
106.260204708297360
  0
LINE
  8
0
  6
CONTINUOUS
 62
3
 10
-311.230001423301130
 20
-147.591700325138850
 11
-311.230001423301130
 21
-150.759939458811000
  0
ARC
  8
0
  6
CONTINUOUS
 62
3
 10
-317.372306268714620
 20
-150.560611411893430
 40
0.999999999999858
 50
133.739795291671300
 51
239.999999999996220
  0
ARC
  8
0
  6
CONTINUOUS
 62
3
 10
-308.730001423301130
 20
-159.591700325138850
 40
8.499999999999904
 50
111.618272422157710
 51
128.381727577841670
  0
ARC
  8
0
  6
CONTINUOUS
 62
3
 10
-312.230001423301130
 20
-150.759939458811000
 40
1.000000000000090
 50
291.618272422161970
 51
0.000000000000000
  0
ARC
  8
0
  6
CONTINUOUS
 62
3
 10
-324.912165263730120
 20
-146.207471791468830
 40
1.000000000000173
 50
140.405931773149600
 51
240.000000000002730
  0
LINE
  8
0
  6
CONTINUOUS
 62
3
 10
-325.412165263730120
 20
-147.073497195253370
 11
-322.770930106673970
 21
-148.598415024172940
  0
ARC
  8
0
  6
CONTINUOUS
 62
3
 10
-322.270930106673970
 20
-147.732389620388630
 40
0.999999999999885
 50
239.999999999996220
 51
318.787728582348790
  0
LINE
  8
0
  6
CONTINUOUS
 62
3
 10
-317.872306268714620
 20
-151.426636815677740
 11
-315.128530693690320
 21
-153.010756382513820
  0
ARC
  8
0
  6
CONTINUOUS
 62
3
 10
-314.628530693690320
 20
-152.144730978729290
 40
1.000000000000082
 50
240.000000000002730
 51
308.381727577840190
  0
ARC
  8
0
  6
CONTINUOUS
 62
3
 10
-337.138955317625570
 20
-139.148331262527560
 40
0.999999999999885
 50
239.999999999996220
 51
324.260829522725940
  0
LINE
  8
0
  6
CONTINUOUS
 62
3
 10
-340.249079835731320
 20
-138.507400573165110
 11
-337.638955317625570
 21
-140.014356666311870
  0
ARC
  8
0
  6
CONTINUOUS
 62
3
 10
-339.749079835731320
 20
-137.641375169380810
 40
0.999999999999908
 50
144.715267045455050
 51
239.999999999996220
  0
ARC
  8
0
  6
CONTINUOUS
 62
3
 10
-329.728627755455480
 20
-143.426685875329670
 40
1.000000000000082
 50
240.000000000002730
 51
322.410457608132330
  0
LINE
  8
0
  6
CONTINUOUS
 62
3
 10
-332.847303211233000
 20
-142.780818299801010
 11
-330.228627755455480
 21
-144.292711279114200
  0
ARC
  8
0
  6
CONTINUOUS
 62
3
 10
-332.347303211233000
 20
-141.914792896016480
 40
0.999999999999774
 50
143.186145655813330
 51
240.000000000002730
  0
ARC
  8
0
  6
CONTINUOUS
 62
3
 10
-312.230001423301130
 20
-121.753227840113820
 40
1.000000000000000
 50
0.000000000000000
 51
95.284732954535698
  0
LINE
  8
0
  6
CONTINUOUS
 62
3
 10
-311.230001423301130
 20
-121.753227840113820
 11
-311.230001423301130
 21
-124.767140026407100
  0
ARC
  8
0
  6
CONTINUOUS
 62
3
 10
-312.230001423301130
 20
-124.767140026407100
 40
0.999999999999973
 50
275.739170477261670
 51
0.000000000000000
  0
ARC
  8
0
  6
CONTINUOUS
 62
3
 10
-312.230001423301130
 20
-130.300063293385160
 40
1.000000000000000
 50
0.000000000000000
 51
96.813854344179688
  0
LINE
  8
0
  6
CONTINUOUS
 62
3
 10
-311.230001423301130
 20
-130.300063293385160
 11
-311.230001423301130
 21
-133.323849252011310
  0
ARC
  8
0
  6
CONTINUOUS
 62
3
 10
-312.230001423301130
 20
-133.323849252011540
 40
0.999999999999749
 50
277.589542391855960
 51
0.000000000013028
  0
ARC
  8
0
  6
CONTINUOUS
 62
3
 10
-312.230001423301130
 20
-138.885421084290330
 40
1.000000000000000
 50
0.000000000000000
 51
99.594068226875478
  0
LINE
  8
0
  6
CONTINUOUS
 62
3
 10
-311.230001423301130
 20
-138.885421084290330
 11
-311.230001423301130
 21
-141.935256742129240
  0
ARC
  8
0
  6
CONTINUOUS
 62
3
 10
-312.230001423301130
 20
-141.935256742129240
 40
0.999999999999982
 50
281.212271417643990
 51
0.000000000000000
  0
ARC
  8
0
  6
CONTINUOUS
 62
3
 10
-320.872306268714620
 20
-162.560611411893430
 40
0.999999999999879
 50
193.739795291686050
 51
300.000000000003810
  0
LINE
  8
0
  6
CONTINUOUS
 62
3
 10
-320.372306268714620
 20
-163.426636815677740
 11
-317.628530693690320
 21
-161.842517248841660
  0
ARC
  8
0
  6
CONTINUOUS
 62
3
 10
-308.730001423301130
 20
-159.591700325138850
 40
8.499999999999972
 50
171.618272422157790
 51
188.381727577842210
  0
ARC
  8
0
  6
CONTINUOUS
 62
3
 10
-318.128530693690320
 20
-160.976491845057350
 40
0.999999999999885
 50
300.000000000003810
 51
8.381727577845549
  0
LINE
  8
0
  6
CONTINUOUS
 62
3
 10
-311.230001423301130
 20
-188.883337356892530
 11
-311.230001423301130
 21
-185.859551398266150
  0
LINE
  8
0
  6
CONTINUOUS
 62
3
 10
-311.230001423301130
 20
-180.297979565987360
 11
-311.230001423301130
 21
-177.248143908148450
  0
LINE
  8
0
  6
CONTINUOUS
 62
3
 10
-311.230001423301130
 20
-171.591700325138850
 11
-311.230001423301130
 21
-168.423461191466690
  0
LINE
  8
0
  6
CONTINUOUS
 62
3
 10
-317.872306268714620
 20
-167.756763834599950
 11
-315.128530693690320
 21
-166.172644267763870
  0
LINE
  8
0
  6
CONTINUOUS
 62
3
 10
-325.412165263730120
 20
-172.109903455024320
 11
-322.770930106673970
 21
-170.584985626104750
  0
LINE
  8
0
  6
CONTINUOUS
 62
3
 10
-340.249079835731320
 20
-180.676000077112580
 11
-337.638955317625570
 21
-179.169043983965820
  0
LINE
  8
0
  6
CONTINUOUS
 62
3
 10
-332.847303211233000
 20
-176.402582350476680
 11
-330.228627755455930
 21
-174.890689371163490
  0
ARC
  8
0
  6
CONTINUOUS
 62
3
 10
-308.730001423301130
 20
-159.591700325138850
 40
8.499999999999948
 50
231.618272422157330
 51
248.381727577842330
  0
ARC
  8
0
  6
CONTINUOUS
 62
3
 10
-308.730001423301130
 20
-159.591700325138850
 40
13.499999999999927
 50
226.260204708312130
 51
253.739795291689150
  0
ARC
  8
0
  6
CONTINUOUS
 62
3
 10
-308.730001423301130
 20
-159.591700325138850
 40
16.999999999999773
 50
221.212271417650780
 51
258.787728582349980
  0
ARC
  8
0
  6
CONTINUOUS
 62
3
 10
-308.730001423301130
 20
-159.591700325138850
 40
22.000000000000025
 50
219.594068226860800
 51
260.405931773138780
  0
ARC
  8
0
  6
CONTINUOUS
 62
3
 10
-308.730001423301130
 20
-159.591700325138850
 40
25.499999999999890
 50
217.589542391857950
 51
262.410457608141830
  0
ARC
  8
0
  6
CONTINUOUS
 62
3
 10
-308.730001423301130
 20
-159.591700325138850
 40
33.999999999999964
 50
215.739170477266950
 51
264.260829522733050
  0
ARC
  8
0
  6
CONTINUOUS
 62
3
 10
-308.730001423301130
 20
-159.591700325138850
 40
30.499999999999964
 50
216.813854344181070
 51
263.186145655818960
  0
ARC
  8
0
  6
CONTINUOUS
 62
3
 10
-308.730001423301130
 20
-159.591700325138850
 40
38.999999999999865
 50
215.284732954534800
 51
264.715267045465400
  0
ARC
  8
0
  6
CONTINUOUS
 62
3
 10
-314.628530693690320
 20
-167.038669671548180
 40
0.999999999999961
 50
51.618272422159777
 51
120.000000000003780
  0
ARC
  8
0
  6
CONTINUOUS
 62
3
 10
-312.230001423301130
 20
-168.423461191466690
 40
1.000000000000000
 50
0.000000000000000
 51
68.381727577838021
  0
ARC
  8
0
  6
CONTINUOUS
 62
3
 10
-312.230001423301130
 20
-171.591700325138850
 40
0.999999999999964
 50
253.739795291702650
 51
0.000000000000000
  0
ARC
  8
0
  6
CONTINUOUS
 62
3
 10
-317.372306268714620
 20
-168.622789238384260
 40
0.999999999999885
 50
120.000000000003780
 51
226.260204708328700
  0
ARC
  8
0
  6
CONTINUOUS
 62
3
 10
-322.270930106673970
 20
-171.451011029889290
 40
1.000000000000165
 50
41.212271417643841
 51
119.999999999997270
  0
ARC
  8
0
  6
CONTINUOUS
 62
3
 10
-324.912165263730120
 20
-172.975928858808630
 40
0.999999999999885
 50
120.000000000003780
 51
219.594068226860460
  0
ARC
  8
0
  6
CONTINUOUS
 62
3
 10
-312.230001423301130
 20
-177.248143908148450
 40
1.000000000000000
 50
0.000000000000000
 51
78.787728582355996
  0
ARC
  8
0
  6
CONTINUOUS
 62
3
 10
-312.230001423301130
 20
-180.297979565987360
 40
1.000000000000268
 50
260.405931773124510
 51
0.000000000000000
  0
ARC
  8
0
  6
CONTINUOUS
 62
3
 10
-329.728627755455930
 20
-175.756714774948020
 40
1.000000000000194
 50
37.589542391851793
 51
119.999999999997270
  0
ARC
  8
0
  6
CONTINUOUS
 62
3
 10
-332.347303211233000
 20
-177.268607754260980
 40
0.999999999999885
 50
120.000000000003780
 51
216.813854344197100
  0
ARC
  8
0
  6
CONTINUOUS
 62
3
 10
-312.230001423301130
 20
-185.859551398266150
 40
1.000000000000000
 50
0.000000000000000
 51
82.410457608145762
  0
ARC
  8
0
  6
CONTINUOUS
 62
3
 10
-337.138955317625570
 20
-180.035069387750130
 40
0.999999999999807
 50
35.739170477263521
 51
120.000000000003780
  0
ARC
  8
0
  6
CONTINUOUS
 62
3
 10
-339.749079835731320
 20
-181.542025480897110
 40
1.000000000000082
 50
119.999999999997270
 51
215.284732954534320
  0
ARC
  8
0
  6
CONTINUOUS
 62
3
 10
-343.249079835731320
 20
-175.479847654405830
 40
1.000000000000248
 50
204.715267045455480
 51
300.000000000003810
  0
LINE
  8
0
  6
CONTINUOUS
 62
3
 10
-342.749079835731320
 20
-176.345873058190140
 11
-340.138955317625570
 21
-174.838916965043610
  0
ARC
  8
0
  6
CONTINUOUS
 62
3
 10
-335.847303211233000
 20
-171.206429927770160
 40
0.999999999999730
 50
203.186145655819840
 51
299.999999999997270
  0
LINE
  8
0
  6
CONTINUOUS
 62
3
 10
-335.347303211233000
 20
-172.072455331554690
 11
-332.728627755455480
 21
-170.560562352241730
  0
ARC
  8
0
  6
CONTINUOUS
 62
3
 10
-340.638955317625570
 20
-173.972891561259080
 40
1.000000000000082
 50
299.999999999997270
 51
24.260829522733715
  0
ARC
  8
0
  6
CONTINUOUS
 62
3
 10
-333.228627755455480
 20
-169.694536948457200
 40
1.000000000000082
 50
299.999999999997270
 51
22.410457608146043
  0
ARC
  8
0
  6
CONTINUOUS
 62
3
 10
-328.412165263730570
 20
-166.913751032317580
 40
1.000000000000094
 50
200.405931773138690
 51
300.000000000003810
  0
LINE
  8
0
  6
CONTINUOUS
 62
3
 10
-327.912165263730570
 20
-167.779776436101880
 11
-325.270930106673970
 21
-166.254858607182310
  0
ARC
  8
0
  6
CONTINUOUS
 62
3
 10
-325.770930106673970
 20
-165.388833203398010
 40
0.999999999999885
 50
300.000000000003810
 51
18.787728582346993
  0
LINE
  8
0
  6
CONTINUOUS
 62
3
 10
-311.230001423301130
 20
-197.430172810163870
 11
-311.230001423301130
 21
-194.416260623870580
  0
ARC
  8
0
  6
CONTINUOUS
 62
3
 10
-312.230001423301130
 20
-188.883337356892530
 40
1.000000000000077
 50
263.186145655820330
 51
0.000000000000000
  0
ARC
  8
0
  6
CONTINUOUS
 62
3
 10
-312.230001423301130
 20
-197.430172810163870
 40
1.000000000000042
 50
264.715267045464260
 51
0.000000000000000
  0
ARC
  8
0
  6
CONTINUOUS
 62
3
 10
-312.230001423301130
 20
-194.416260623870580
 40
1.000000000000000
 50
0.000000000000000
 51
84.260829522738291
  0
ARC
  8
0
  6
CONTINUOUS
 62
3
 10
-550.330001423301500
 20
-159.591700325138850
 40
300.600000000000480
 50
0.000000000000000
 51
5.752282731536602
  0
ARC
  8
0
  6
CONTINUOUS
 62
3
 10
-550.330001423301500
 20
-159.591700325138850
 40
300.600000000000020
 50
354.247717268463420
 51
0.000000000000000
  0
ARC
  8
0
  6
CONTINUOUS
 62
3
 10
-67.130001423300655
 20
-159.591700325138850
 40
300.600000000000480
 50
180.000000000000000
 51
185.752282731536610
  0
ARC
  8
0
  6
CONTINUOUS
 62
3
 10
-67.130001423300655
 20
-159.591700325138850
 40
300.600000000000020
 50
174.247717268463390
 51
180.000000000000000
  0
ARC
  8
0
  6
CONTINUOUS
 62
3
 10
-308.730001423301130
 20
-506.191700325138980
 40
400.599999999999910
 50
84.256318189006564
 51
90.000000000000000
  0
ARC
  8
0
  6
CONTINUOUS
 62
3
 10
-308.730001423301130
 20
187.008299674861290
 40
400.599999999999910
 50
270.000000000000000
 51
275.743681810993450
  0
ARC
  8
0
  6
CONTINUOUS
 62
3
 10
-308.730001423301130
 20
187.008299674861290
 40
400.599999999999910
 50
264.256318189006550
 51
270.000000000000000
  0
ARC
  8
0
  6
CONTINUOUS
 62
3
 10
-308.730001423301130
 20
-506.191700325138980
 40
400.599999999999910
 50
90.000000000000000
 51
95.743681810993436
  0
ARC
  8
0
  6
CONTINUOUS
 62
3
 10
-269.299134423213730
 20
-114.169753582840480
 40
6.600000000000278
 50
44.999999999997215
 51
84.256318189004901
  0
ARC
  8
0
  6
CONTINUOUS
 62
3
 10
-269.299134423213730
 20
-205.013647067437200
 40
6.600000000000009
 50
275.743681810995100
 51
315.000000000002790
  0
ARC
  8
0
  6
CONTINUOUS
 62
3
 10
-348.160868423388480
 20
-205.013647067437200
 40
6.600000000000278
 50
224.999999999997190
 51
264.256318189004900
  0
ARC
  8
0
  6
CONTINUOUS
 62
3
 10
-348.160868423388480
 20
-114.169753582840480
 40
6.600000000000009
 50
95.743681810995099
 51
135.000000000002790
  0
LINE
  8
0
  6
CONTINUOUS
 62
4
 10
-264.105302268683370
 20
-123.893311777652340
 11
-269.992716140722730
 21
-118.005897905612300
  0
ARC
  8
0
  6
CONTINUOUS
 62
4
 10
-308.730001423301130
 20
-506.191700325138980
 40
390.797000000000080
 50
84.582036237639457
 51
90.000000000000000
  0
ARC
  8
0
  6
CONTINUOUS
 62
4
 10
-272.114036484282740
 20
-120.127218249172070
 40
3.000000000000346
 50
44.999999999996930
 51
84.582036237634313
  0
ARC
  8
0
  6
CONTINUOUS
 62
4
 10
-550.330001423301500
 20
-159.591700325138850
 40
290.797000000000540
 50
0.000000000000000
 51
5.752282731536623
  0
ARC
  8
0
  6
CONTINUOUS
 62
4
 10
-272.114036484282740
 20
-199.056182401105620
 40
3.000000000000067
 50
275.417963762365730
 51
315.000000000003070
  0
ARC
  8
0
  6
CONTINUOUS
 62
4
 10
-308.730001423301130
 20
187.008299674861290
 40
390.797000000000030
 50
270.000000000000000
 51
275.417963762360500
  0
ARC
  8
0
  6
CONTINUOUS
 62
4
 10
-281.358110835781700
 20
-183.131497983050850
 40
20.797000000000015
 50
315.000000000000000
 51
354.998349729064670
  0
LINE
  8
0
  6
CONTINUOUS
 62
4
 10
-266.652411107445060
 20
-197.837197711387490
 11
-269.992716140722730
 21
-201.177502744665390
  0
ARC
  8
0
  6
CONTINUOUS
 62
4
 10
-550.330001423301500
 20
-159.591700325138850
 40
290.797000000000140
 50
354.998349729065010
 51
0.000000000000000
  0
ARC
  8
0
  6
CONTINUOUS
 62
4
 10
-345.345966362319470
 20
-199.056182401105620
 40
3.000000000000346
 50
224.999999999996960
 51
264.582036237634270
  0
ARC
  8
0
  6
CONTINUOUS
 62
4
 10
-308.730001423301130
 20
187.008299674861290
 40
390.797000000000030
 50
264.582036237639500
 51
270.000000000000000
  0
ARC
  8
0
  6
CONTINUOUS
 62
4
 10
-336.101892010820510
 20
-183.131497983050850
 40
20.796999999999880
 50
185.001650270935330
 51
225.000000000000000
  0
LINE
  8
0
  6
CONTINUOUS
 62
4
 10
-350.807591739157150
 20
-197.837197711387490
 11
-347.467286705879470
 21
-201.177502744665390
  0
ARC
  8
0
  6
CONTINUOUS
 62
4
 10
-67.130001423300882
 20
-159.591700325138850
 40
290.797000000000370
 50
180.000000000000000
 51
185.001650270934930
  0
ARC
  8
0
  6
CONTINUOUS
 62
4
 10
-345.345966362319470
 20
-120.127218249172070
 40
3.000000000000067
 50
95.417963762365673
 51
135.000000000003040
  0
ARC
  8
0
  6
CONTINUOUS
 62
4
 10
-308.730001423301130
 20
-506.191700325138980
 40
390.797000000000030
 50
90.000000000000000
 51
95.417963762360529
  0
ARC
  8
0
  6
CONTINUOUS
 62
4
 10
-336.101892010820510
 20
-136.051902667226840
 40
20.797000000000015
 50
135.000000000000000
 51
174.998349729064670
  0
LINE
  8
0
  6
CONTINUOUS
 62
4
 10
-350.807591739157150
 20
-121.346202938890200
 11
-347.467286705879470
 21
-118.005897905612300
  0
ARC
  8
0
  6
CONTINUOUS
 62
4
 10
-67.130001423300882
 20
-159.591700325138850
 40
290.796999999999970
 50
174.998349729065040
 51
180.000000000000000
  0
ARC
  8
0
  6
CONTINUOUS
 62
3
 10
-227.791232289319400
 20
-184.591700325138850
 40
5.000000000000000
 50
270.000000000000000
 51
355.138594604201330
  0
ARC
  8
0
  6
CONTINUOUS
 62
3
 10
-227.791232289319400
 20
-134.591700325138850
 40
4.999999999999893
 50
4.861405395798621
 51
90.000000000000000
  0
LINE
  8
0
  6
CONTINUOUS
 62
3
 10
-251.230001423301020
 20
-189.591700325138850
 11
-227.791232289319400
 21
-189.591700325138850
  0
LINE
  8
0
  6
CONTINUOUS
 62
3
 10
-251.230001423301020
 20
-129.591700325138850
 11
-227.791232289319400
 21
-129.591700325138850
  0
ARC
  8
0
  6
CONTINUOUS
 62
3
 10
-521.730001423301130
 20
-159.591700325138850
 40
300.000000000000280
 50
355.138594604201960
 51
4.861405395798034
  0
LINE
  8
0
  6
CONTINUOUS
 62
3
 10
-221.740418270818740
 20
-157.091700325138850
 11
-221.230001423301020
 21
-157.091700325138850
  0
LINE
  8
0
  6
CONTINUOUS
 62
3
 10
-221.740418270818740
 20
-162.091700325138850
 11
-221.230001423301020
 21
-162.091700325138850
  0
LINE
  8
0
  6
CONTINUOUS
 62
3
 10
-221.230001423301020
 20
-162.091700325138850
 11
-221.230001423301020
 21
-157.091700325138850
  0
LINE
  8
0
  6
CONTINUOUS
 62
3
 10
-383.732871043882030
 20
-103.711580252358650
 11
-388.826507972158990
 21
-205.584318817899430
  0
LINE
  8
0
  6
CONTINUOUS
 62
3
 10
-388.826507972158990
 20
-205.584318817899430
 11
-390.424511714363580
 21
-205.504418630788450
  0
LINE
  8
0
  6
CONTINUOUS
 62
3
 10
-385.330874786086610
 20
-103.631680065248470
 11
-390.424511714363580
 21
-205.504418630788450
  0
ARC
  8
0
  6
CONTINUOUS
 62
3
 10
-386.448503887937140
 20
-106.379295661493300
 40
1.299999237060474
 50
87.137594090651831
 51
160.536063666412870
  0
ARC
  8
0
  6
CONTINUOUS
 62
3
 10
-386.668229478689110
 20
-110.773807476531030
 40
1.299999237060493
 50
193.739143184211430
 51
267.137612759980240
  0
LINE
  8
0
  6
CONTINUOUS
 62
3
 10
-385.405781211501900
 20
-105.129808573565120
 11
-386.383585024009450
 21
-105.080918382939780
  0
LINE
  8
0
  6
CONTINUOUS
 62
3
 10
-385.755344530109030
 20
-112.121074945710000
 11
-386.733148342616800
 21
-112.072184755084660
  0
LINE
  8
0
  6
CONTINUOUS
 62
3
 10
-385.405781211501900
 20
-105.129808573565120
 11
-385.755344530109030
 21
-112.121074945710000
  0
LINE
  8
0
  6
CONTINUOUS
 62
3
 10
-385.405781211501900
 20
-105.129808573565120
 11
-385.755344530109030
 21
-112.121074945710000
  0
POINT
  8
0
  6
CONTINUOUS
 62
3
 10
-385.580562870805470
 20
-108.625441759637510
  0
ARC
  8
0
  6
CONTINUOUS
 62
3
 10
-379.188548282981060
 20
-108.945042489028760
 40
9.000000000000060
 50
160.536063666407810
 51
193.739143184213500
  0
LINE
  8
0
  6
CONTINUOUS
 62
3
 10
-367.230001423301130
 20
-142.261091564919300
 11
-367.230001423301130
 21
-133.634200325138860
  0
LINE
  8
0
  6
CONTINUOUS
 62
3
 10
-385.330874786086610
 20
-103.631680065248470
 11
-383.732871043882030
 21
-103.711580252358650
  0
ARC
  8
0
  6
CONTINUOUS
 62
3
 10
-386.030001423301090
 20
-133.634200325138860
 40
18.799999999999933
 50
144.191373186504250
 51
174.275189547776390
  0
ARC
  8
0
  6
CONTINUOUS
 62
3
 10
-386.030001423301090
 20
-133.634200325138860
 40
18.800000000000036
 50
94.873974813842736
 51
144.191373186504250
  0
ARC
  8
0
  6
CONTINUOUS
 62
3
 10
-388.030001423301090
 20
-173.634200325138860
 40
20.800000000000082
 50
274.191726156007460
 51
354.952683218992150
  0
LINE
  8
0
  6
CONTINUOUS
 62
3
 10
-408.726260774922030
 20
-171.559387357557850
 11
-404.736235837266010
 21
-131.758888604440590
  0
ARC
  8
0
  6
CONTINUOUS
 62
3
 10
-391.956467254633370
 20
-196.093560647182360
 40
2.000000000000154
 50
357.137594773887600
 51
80.083463391767268
  0
LINE
  8
0
  6
CONTINUOUS
 62
3
 10
-384.531872914984320
 20
-103.671630158803620
 11
-389.625509843261280
 21
-205.544368724343710
  0
ARC
  8
0
  6
CONTINUOUS
 62
3
 10
-386.363454156917560
 20
-196.373211302068170
 40
1.999999999999962
 50
94.191726156001650
 51
177.137594773887290
  0
ARC
  8
0
  6
CONTINUOUS
 62
3
 10
-387.797259886929960
 20
-112.909413293115330
 40
1.999999999999928
 50
274.873974813840960
 51
357.137594773887320
  0
ARC
  8
0
  6
CONTINUOUS
 62
3
 10
-382.204246789214150
 20
-113.189063948001140
 40
1.999999999999927
 50
177.137594773887290
 51
259.401214733934010
  0
ARC
  8
0
  6
CONTINUOUS
 62
3
 10
-386.030001423301090
 20
-133.634200325138860
 40
18.799999999999955
 50
0.000000000000000
 51
79.401214733933941
  0
ARC
  8
0
  6
CONTINUOUS
 62
3
 10
-388.030001423301090
 20
-173.634200325138860
 40
20.799999999999986
 50
174.275189547776620
 51
205.640070215894870
  0
POINT
  8
0
  6
DASHDOT
 62
4
 10
-367.230001423301130
 20
-159.605430818264840
  0
ARC
  8
0
  6
CONTINUOUS
 62
3
 10
-388.030001423301090
 20
-173.634200325138860
 40
20.799999999999926
 50
205.640070215894870
 51
260.083463391769440
  0
POINT
  8
0
  6
DASHDOT
 62
4
 10
-367.230001423301130
 20
-159.605430818264840
  0
ARC
  8
0
  6
CONTINUOUS
 62
3
 10
-388.030001423301090
 20
-173.634200325138860
 40
20.799999999999986
 50
174.275189547776620
 51
205.640070215894870
  0
LINE
  8
0
  6
CONTINUOUS
 62
3
 10
-264.230002071357090
 20
-95.035074299814823
 11
-266.730006420863560
 21
-96.478447876510700
  0
LINE
  8
0
  6
CONTINUOUS
 62
3
 10
-266.729996640864440
 20
-90.704952064925465
 11
-269.230001368911300
 21
-92.148323100018615
  0
LINE
  8
0
  6
CONTINUOUS
 62
3
 10
-266.730006935426620
 20
-96.478447262860982
 11
-269.229999240470190
 21
-95.035071916116749
  0
LINE
  8
0
  6
CONTINUOUS
 62
3
 10
-266.729996702093900
 20
-90.704951584782748
 11
-264.230002917302610
 21
-92.148328229330218
  0
LINE
  8
0
  6
CONTINUOUS
 62
3
 10
-264.230003807486300
 20
-92.148328680139798
 11
-264.230002853811980
 21
-95.035074133020657
  0
LINE
  8
0
  6
CONTINUOUS
 62
3
 10
-269.229999039116650
 20
-95.035071970136755
 11
-269.229999992790910
 21
-92.148322702558630
  0
CIRCLE
  8
0
  6
CONTINUOUS
 62
3
 10
-266.730001423301130
 20
-93.591700325138845
 40
5.000000000000000
  0
LINE
  8
0
  6
CONTINUOUS
 62
3
 10
-353.230000775245230
 20
-95.035074299814823
 11
-350.729996425738700
 21
-96.478447876510700
  0
LINE
  8
0
  6
CONTINUOUS
 62
3
 10
-350.730006205737820
 20
-90.704952064925465
 11
-348.230001477690960
 21
-92.148323100018615
  0
LINE
  8
0
  6
CONTINUOUS
 62
3
 10
-350.729995911175710
 20
-96.478447262860982
 11
-348.230003606132070
 21
-95.035071916116749
  0
LINE
  8
0
  6
CONTINUOUS
 62
3
 10
-350.730006144508370
 20
-90.704951584782748
 11
-353.229999929299650
 21
-92.148328229330218
  0
LINE
  8
0
  6
CONTINUOUS
 62
3
 10
-353.229999039116020
 20
-92.148328680139798
 11
-353.229999992790340
 21
-95.035074133020657
  0
LINE
  8
0
  6
CONTINUOUS
 62
3
 10
-348.230003807485560
 20
-95.035071970136755
 11
-348.230002853811360
 21
-92.148322702558630
  0
CIRCLE
  8
0
  6
CONTINUOUS
 62
3
 10
-350.730001423301130
 20
-93.591700325138845
 40
5.000000000000000
  0
LINE
  8
0
  6
CONTINUOUS
 62
3
 10
-354.230000775245230
 20
-232.535074299814880
 11
-351.729996425738700
 21
-233.978447876510760
  0
LINE
  8
0
  6
CONTINUOUS
 62
3
 10
-351.730006205737820
 20
-228.204952064925520
 11
-349.230001477690960
 21
-229.648323100018670
  0
LINE
  8
0
  6
CONTINUOUS
 62
3
 10
-351.729995911175710
 20
-233.978447262860980
 11
-349.230003606132070
 21
-232.535071916116860
  0
LINE
  8
0
  6
CONTINUOUS
 62
3
 10
-351.730006144508370
 20
-228.204951584782800
 11
-354.229999929299650
 21
-229.648328229330280
  0
LINE
  8
0
  6
CONTINUOUS
 62
3
 10
-354.229999039116020
 20
-229.648328680139850
 11
-354.229999992790340
 21
-232.535074133020710
  0
LINE
  8
0
  6
CONTINUOUS
 62
3
 10
-349.230003807485560
 20
-232.535071970136810
 11
-349.230002853811360
 21
-229.648322702558690
  0
CIRCLE
  8
0
  6
CONTINUOUS
 62
3
 10
-351.730001423301130
 20
-231.091700325138900
 40
5.000000000000000
  0
LINE
  8
0
  6
CONTINUOUS
 62
3
 10
-263.230002071357090
 20
-232.535074299814880
 11
-265.730006420863560
 21
-233.978447876510760
  0
LINE
  8
0
  6
CONTINUOUS
 62
3
 10
-265.729996640864440
 20
-228.204952064925520
 11
-268.230001368911300
 21
-229.648323100018670
  0
LINE
  8
0
  6
CONTINUOUS
 62
3
 10
-265.730006935426620
 20
-233.978447262860980
 11
-268.229999240470190
 21
-232.535071916116860
  0
LINE
  8
0
  6
CONTINUOUS
 62
3
 10
-265.729996702093900
 20
-228.204951584782800
 11
-263.230002917302610
 21
-229.648328229330280
  0
LINE
  8
0
  6
CONTINUOUS
 62
3
 10
-263.230003807486300
 20
-229.648328680139850
 11
-263.230002853811980
 21
-232.535074133020710
  0
LINE
  8
0
  6
CONTINUOUS
 62
3
 10
-268.229999039116650
 20
-232.535071970136810
 11
-268.229999992790910
 21
-229.648322702558690
  0
CIRCLE
  8
0
  6
CONTINUOUS
 62
3
 10
-265.730001423301130
 20
-231.091700325138900
 40
5.000000000000000
  0
ARC
  8
0
  6
CONTINUOUS
 62
3
 10
-263.899431361204170
 20
-204.422270387235700
 40
6.099999427795462
 50
264.601927898108560
 51
5.398089404734844
  0
POINT
  8
0
  6
CONTINUOUS
 62
3
 10
-261.636689796277150
 20
-206.685011952162770
  0
LINE
  8
0
  6
CONTINUOUS
 62
3
 10
-258.313288059570310
 20
-203.361610215455930
 11
-264.960091532983990
 21
-210.008413688869610
  0
LINE
  8
0
  6
CONTINUOUS
 62
3
 10
-258.000149450601500
 20
-203.614157166306310
 11
-264.677248753074420
 21
-210.291256468779240
  0
LINE
  8
0
  6
CONTINUOUS
 62
3
 10
-264.960091532983990
 20
-210.008413688869610
 11
-264.473288141278370
 21
-210.495217080575230
  0
LINE
  8
0
  6
CONTINUOUS
 62
3
 10
-258.313288059570310
 20
-203.361610215455930
 11
-257.826484667864690
 21
-203.848413607161550
  0
ARC
  8
0
  6
CONTINUOUS
 62
3
 10
-263.899431361204170
 20
-114.761130263041760
 40
6.099999427795395
 50
354.601910595265110
 51
95.398072101891472
  0
POINT
  8
0
  6
CONTINUOUS
 62
3
 10
-261.636689796277150
 20
-112.498388698114690
  0
LINE
  8
0
  6
CONTINUOUS
 62
3
 10
-258.313288059570310
 20
-115.821790434821530
 11
-264.960091532983990
 21
-109.174986961407850
  0
LINE
  8
0
  6
CONTINUOUS
 62
3
 10
-258.000149450601500
 20
-115.569243483971150
 11
-264.677248753074420
 21
-108.892144181498220
  0
LINE
  8
0
  6
CONTINUOUS
 62
3
 10
-264.960091532983990
 20
-109.174986961407850
 11
-264.473288141278370
 21
-108.688183569702230
  0
LINE
  8
0
  6
CONTINUOUS
 62
3
 10
-258.313288059570310
 20
-115.821790434821530
 11
-257.826484667864690
 21
-115.334987043115910
  0
ARC
  8
0
  6
CONTINUOUS
 62
3
 10
-353.560571485397990
 20
-114.761130263041760
 40
6.099999427795462
 50
84.601927898108528
 51
185.398089404734830
  0
POINT
  8
0
  6
CONTINUOUS
 62
3
 10
-355.823313050325050
 20
-112.498388698114690
  0
LINE
  8
0
  6
CONTINUOUS
 62
3
 10
-359.146714787031780
 20
-115.821790434821530
 11
-352.499911313618100
 21
-109.174986961407850
  0
LINE
  8
0
  6
CONTINUOUS
 62
3
 10
-359.459853396000650
 20
-115.569243483971150
 11
-352.782754093527730
 21
-108.892144181498220
  0
LINE
  8
0
  6
CONTINUOUS
 62
3
 10
-352.499911313618100
 20
-109.174986961407850
 11
-352.986714705323830
 21
-108.688183569702230
  0
LINE
  8
0
  6
CONTINUOUS
 62
3
 10
-359.146714787031780
 20
-115.821790434821530
 11
-359.633518178737520
 21
-115.334987043115910
  0
ARC
  8
0
  6
CONTINUOUS
 62
3
 10
-353.560571485397990
 20
-204.422270387235700
 40
6.099999427795395
 50
174.601910595265170
 51
275.398072101891440
  0
POINT
  8
0
  6
CONTINUOUS
 62
3
 10
-355.823313050325050
 20
-206.685011952162770
  0
LINE
  8
0
  6
CONTINUOUS
 62
3
 10
-359.146714787031780
 20
-203.361610215455930
 11
-352.499911313618100
 21
-210.008413688869610
  0
LINE
  8
0
  6
CONTINUOUS
 62
3
 10
-359.459853396000650
 20
-203.614157166306310
 11
-352.782754093527730
 21
-210.291256468779240
  0
LINE
  8
0
  6
CONTINUOUS
 62
3
 10
-352.499911313618100
 20
-210.008413688869610
 11
-352.986714705323830
 21
-210.495217080575230
  0
LINE
  8
0
  6
CONTINUOUS
 62
3
 10
-359.146714787031780
 20
-203.361610215455930
 11
-359.633518178737520
 21
-203.848413607161550
  0
LINE
  8
0
  6
DASHDOT
 62
4
 10
-290.976481976598730
 20
-133.591700325138850
 11
-325.988191960670520
 21
-133.591700325138850
  0
LINE
  8
0
  6
DASHDOT
 62
4
 10
-204.603133747528770
 20
-159.591700325138850
 11
-416.016880501185370
 21
-159.591700325138850
  0
LINE
  8
0
  6
DASHDOT
 62
4
 10
-308.730001423301130
 20
-23.652222361682107
 11
-308.730001423301130
 21
-248.113817990209160
  0
LINE
  8
0
  6
CONTINUOUS
 62
3
 10
-261.238722039698930
 20
-109.271993816790880
 11
-256.037613267875830
 21
-104.070885044967780
  0
LINE
  8
0
  6
CONTINUOUS
 62
3
 10
-258.410294914952940
 20
-112.100420941537320
 11
-253.209186143129610
 21
-106.899312169713990
  0
LINE
  8
0
  6
CONTINUOUS
 62
3
 10
-356.221280806903340
 20
-109.271993816790880
 11
-361.422389578726440
 21
-104.070885044967780
  0
LINE
  8
0
  6
CONTINUOUS
 62
3
 10
-359.049707931649320
 20
-112.100420941537320
 11
-364.250816703472650
 21
-106.899312169713990
  0
LINE
  8
0
  6
CONTINUOUS
 62
3
 10
-403.730001423301130
 20
-48.591700325138845
 11
-403.730001423301130
 21
-127.297797560162840
  0
LINE
  8
0
  6
CONTINUOUS
 62
3
 10
-403.730001423301130
 20
-187.277880180661610
 11
-403.730001423301130
 21
-218.591700325138900
  0
LINE
  8
0
  6
CONTINUOUS
 62
3
 10
-359.049707931649210
 20
-207.082979708740250
 11
-364.250816703472650
 21
-212.284088480563530
  0
LINE
  8
0
  6
CONTINUOUS
 62
3
 10
-356.221280806903110
 20
-209.911406833486640
 11
-361.422389578726440
 21
-215.112515605309970
  0
LINE
  8
0
  6
CONTINUOUS
 62
3
 10
-357.539476442612280
 20
-236.591700325138900
 11
-308.730001423301130
 21
-236.591700325138900
  0
LINE
  8
0
  6
CONTINUOUS
 62
3
 10
-259.920526403989980
 20
-236.591700325138900
 11
-308.730001423301130
 21
-236.591700325138900
  0
LINE
  8
0
  6
CONTINUOUS
 62
3
 10
-258.410294914953000
 20
-207.082979708740250
 11
-253.209186143129610
 21
-212.284088480563530
  0
LINE
  8
0
  6
CONTINUOUS
 62
3
 10
-261.238722039699100
 20
-209.911406833486690
 11
-256.037613267875830
 21
-215.112515605309970
  0
LINE
  8
0
  6
CONTINUOUS
 62
3
 10
125.895268438006720
 20
72.150450182501118
 11
110.817574402955180
 21
72.150450182501118
  0
ARC
  8
0
  6
CONTINUOUS
 62
3
 10
125.415461163416010
 20
47.705487998156968
 40
3.000000000000000
 50
0.000000000000000
 51
48.254159514985268
  0
LINE
  8
0
  6
CONTINUOUS
 62
3
 10
108.736656775887920
 20
66.610592732232362
 11
127.412943671054560
 21
49.943805140941549
  0
ARC
  8
0
  6
CONTINUOUS
 62
3
 10
106.739174268249590
 20
64.372275589448691
 40
3.000000000000058
 50
48.254159514976941
 51
90.000000000000000
  0
ARC
  8
0
  6
CONTINUOUS
 62
3
 10
125.415461163416010
 20
52.483662591209395
 40
3.000000000000000
 50
0.000000000000000
 51
48.254159514985268
  0
LINE
  8
0
  6
CONTINUOUS
 62
3
 10
108.736656775887920
 20
71.388767325284789
 11
127.412943671054560
 21
54.721979733993976
  0
ARC
  8
0
  6
CONTINUOUS
 62
3
 10
106.739174268249590
 20
69.150450182501118
 40
3.000000000000058
 50
48.254159514976941
 51
90.000000000000000
  0
LINE
  8
0
  6
CONTINUOUS
 62
3
 10
125.895268438006720
 20
160.298147878983400
 11
110.817574402955180
 21
160.298147878983400
  0
ARC
  8
0
  6
CONTINUOUS
 62
3
 10
125.415461163416010
 20
184.743110063327550
 40
3.000000000000888
 50
311.745840485014750
 51
0.000000000000000
  0
LINE
  8
0
  6
CONTINUOUS
 62
3
 10
108.736656775887920
 20
165.838005329252160
 11
127.412943671054560
 21
182.504792920542970
  0
ARC
  8
0
  6
CONTINUOUS
 62
3
 10
106.739174268249590
 20
168.076322472035830
 40
3.000000000000000
 50
270.000000000000000
 51
311.745840485023050
  0
ARC
  8
0
  6
CONTINUOUS
 62
3
 10
125.415461163416010
 20
179.964935470275120
 40
3.000000000000888
 50
311.745840485014750
 51
0.000000000000000
  0
LINE
  8
0
  6
CONTINUOUS
 62
3
 10
108.736656775887920
 20
161.059830736199730
 11
127.412943671054560
 21
177.726618327490540
  0
ARC
  8
0
  6
CONTINUOUS
 62
3
 10
106.739174268249590
 20
163.298147878983400
 40
3.000000000000000
 50
270.000000000000000
 51
311.745840485023050
  0
ARC
  8
0
  6
CONTINUOUS
 62
3
 10
110.883138514700700
 20
110.724299030743160
 40
3.000000000000000
 50
90.000000000000000
 51
180.000000000000000
  0
LINE
  8
0
  6
CONTINUOUS
 62
3
 10
110.883138514700700
 20
113.724299030743160
 11
125.415461163416010
 21
113.724299030743160
  0
ARC
  8
0
  6
CONTINUOUS
 62
3
 10
125.415461163416010
 20
110.724299030743160
 40
3.000000000000000
 50
0.000000000000000
 51
90.000000000000000
  0
ARC
  8
0
  6
CONTINUOUS
 62
3
 10
110.883138514700700
 20
121.724299030743160
 40
3.000000000000000
 50
180.000000000000000
 51
270.000000000000000
  0
LINE
  8
0
  6
CONTINUOUS
 62
3
 10
110.883138514700700
 20
118.724299030743160
 11
125.415461163416010
 21
118.724299030743160
  0
ARC
  8
0
  6
CONTINUOUS
 62
3
 10
125.415461163416010
 20
121.724299030743160
 40
3.000000000000000
 50
270.000000000000000
 51
0.000000000000000
  0
LINE
  8
0
  6
CONTINUOUS
 62
3
 10
133.415461163416010
 20
43.023288903965295
 11
133.415461163416010
 21
116.224299030742250
  0
LINE
  8
0
  6
CONTINUOUS
 62
3
 10
133.415461163416010
 20
189.425309157519220
 11
133.415461163416010
 21
116.224299030742250
  0
LINE
  8
0
  6
CONTINUOUS
 62
3
 10
53.415461163416012
 20
36.724299030741349
 11
53.415461163416012
 21
195.724299030742260
  0
ARC
  8
0
  6
CONTINUOUS
 62
3
 10
125.415461163416010
 20
31.208174994439105
 40
3.000000000000000
 50
0.000000000000000
 51
88.000000000000995
  0
LINE
  8
0
  6
CONTINUOUS
 62
3
 10
53.415461163416012
 20
36.724299030742259
 11
125.520159653523470
 21
34.206347475496841
  0
ARC
  8
0
  6
CONTINUOUS
 62
3
 10
125.415461163416010
 20
201.240423067045410
 40
3.000000000000447
 50
271.999999999999030
 51
0.000000000000000
  0
LINE
  8
0
  6
CONTINUOUS
 62
3
 10
53.415461163416012
 20
195.724299030742260
 11
125.520159653523470
 21
198.242250585987680
  0
LINE
  8
0
  6
CONTINUOUS
 62
3
 10
140.415461163416010
 20
64.690903753723433
 11
135.415461163416010
 21
64.690903753723433
  0
LINE
  8
0
  6
CONTINUOUS
 62
3
 10
140.415461163416010
 20
41.023288903965295
 11
135.415461163416010
 21
41.023288903965295
  0
ARC
  8
0
  6
CONTINUOUS
 62
3
 10
135.415461163416010
 20
43.023288903965295
 40
2.000000000000000
 50
180.000000000000000
 51
270.000000000000000
  0
ARC
  8
0
  6
CONTINUOUS
 62
3
 10
135.415461163416010
 20
66.690903753723433
 40
2.000000000000000
 50
180.000000000000000
 51
270.000000000000000
  0
LINE
  8
0
  6
CONTINUOUS
 62
3
 10
140.415461163416010
 20
167.757694307761080
 11
135.415461163416010
 21
167.757694307761080
  0
LINE
  8
0
  6
CONTINUOUS
 62
3
 10
140.415461163416010
 20
191.425309157519220
 11
135.415461163416010
 21
191.425309157519220
  0
ARC
  8
0
  6
CONTINUOUS
 62
3
 10
135.415461163416010
 20
189.425309157519220
 40
2.000000000000000
 50
90.000000000000000
 51
180.000000000000000
  0
ARC
  8
0
  6
CONTINUOUS
 62
3
 10
135.415461163416010
 20
165.757694307761080
 40
2.000000000000000
 50
90.000000000000000
 51
180.000000000000000
  0
LINE
  8
0
  6
DASHDOT
 62
4
 10
151.033913574029840
 20
33.139252241322538
 11
118.558452873666510
 21
33.139252241322538
  0
LINE
  8
0
  6
DASHDOT
 62
4
 10
151.033913574029840
 20
199.309345820161980
 11
118.558452873666510
 21
199.309345820161980
  0
LINE
  8
0
  6
CONTINUOUS
 62
3
 10
140.415461163416010
 20
21.712445128887339
 11
140.415461163416010
 21
116.224299030742250
  0
LINE
  8
0
  6
CONTINUOUS
 62
3
 10
140.415461163416010
 20
210.736152932596270
 11
140.415461163416010
 21
116.224299030742250
  0
ARC
  8
0
  6
CONTINUOUS
 62
3
 10
130.415461163416010
 20
209.808521466716230
 40
1.999999999999651
 50
87.000000000000398
 51
180.000000000000000
  0
ARC
  8
0
  6
CONTINUOUS
 62
3
 10
130.415461163416010
 20
22.640076594768288
 40
2.000000000000000
 50
180.000000000000000
 51
272.999999999999600
  0
LINE
  8
0
  6
CONTINUOUS
 62
3
 10
128.415461163416010
 20
209.808521466716230
 11
128.415461163416010
 21
22.640076594768288
  0
LINE
  8
0
  6
CONTINUOUS
 62
3
 10
139.865180905041140
 20
21.132570729277177
 11
130.520133075901870
 21
20.642817525258579
  0
LINE
  8
0
  6
CONTINUOUS
 62
3
 10
143.415461163416010
 20
31.224299030742259
 11
143.415461163416010
 21
116.224299030742250
  0
LINE
  8
0
  6
CONTINUOUS
 62
3
 10
143.415461163416010
 20
201.224299030742260
 11
143.415461163416010
 21
116.224299030742250
  0
ARC
  8
0
  6
CONTINUOUS
 62
3
 10
143.915461163416010
 20
87.670518905460995
 40
0.999999999999832
 50
93.000000000006111
 51
120.000000000010300
  0
ARC
  8
0
  6
CONTINUOUS
 62
3
 10
143.915461163416010
 20
144.778079156022610
 40
0.999999999999688
 50
239.999999999989710
 51
266.999999999993860
  0
LINE
  8
0
  6
CONTINUOUS
 62
3
 10
143.415461163416010
 20
31.224299030742259
 11
140.415461163416010
 21
31.224299030742259
  0
LINE
  8
0
  6
CONTINUOUS
 62
3
 10
143.415461163416010
 20
201.224299030742260
 11
140.415461163416010
 21
201.224299030742260
  0
ARC
  8
0
  6
CONTINUOUS
 62
3
 10
130.415461163416010
 20
209.808521466716230
 40
2.000000000000025
 50
177.837310087963030
 51
180.000000000000000
  0
LINE
  8
0
  6
CONTINUOUS
 62
3
 10
144.915461163416010
 20
116.224299030742250
 11
144.915461163416010
 21
142.724299030742260
  0
LINE
  8
0
  6
CONTINUOUS
 62
3
 10
144.915461163416010
 20
116.224299030742250
 11
144.915461163416010
 21
89.724299030742259
  0
LINE
  8
0
  6
CONTINUOUS
 62
3
 10
139.865180905041140
 20
211.316027332206430
 11
130.520133075901870
 21
211.805780536225030
  0
LINE
  8
0
  6
CONTINUOUS
 62
3
 10
139.865180905041140
 20
211.316027332206430
 11
140.415461163416010
 21
210.736152932596270
  0
LINE
  8
0
  6
CONTINUOUS
 62
3
 10
139.865180905041140
 20
21.132570729277177
 11
140.415461163416010
 21
21.712445128887339
  0
LINE
  8
0
  6
CONTINUOUS
 62
3
 10
143.915461163416010
 20
143.724299030742260
 11
143.863125207172970
 21
143.779449621268210
  0
LINE
  8
0
  6
CONTINUOUS
 62
3
 10
143.915461163416010
 20
88.724299030742259
 11
143.863125207172970
 21
88.669148440215395
  0
ARC
  8
0
  6
CONTINUOUS
 62
3
 10
143.915461163416010
 20
142.724299030742260
 40
1.000000000000000
 50
0.000000000000000
 51
90.000000000000000
  0
ARC
  8
0
  6
CONTINUOUS
 62
3
 10
143.915461163416010
 20
89.724299030742259
 40
1.000000000000000
 50
270.000000000000000
 51
0.000000000000000
  0
LINE
  8
0
  6
CONTINUOUS
 62
3
 10
41.915461163412374
 20
69.224299030741349
 11
41.915461163413283
 21
38.724299030742259
  0
LINE
  8
0
  6
CONTINUOUS
 62
3
 10
41.915461163410555
 20
116.224299030741340
 11
41.915461163411464
 21
79.224299030741349
  0
ARC
  8
0
  6
CONTINUOUS
 62
3
 10
45.915461163412374
 20
68.224299030742259
 40
1.000000000000000
 50
270.000000000000000
 51
0.000000000000000
  0
ARC
  8
0
  6
CONTINUOUS
 62
3
 10
42.915461163412374
 20
66.224299030742259
 40
1.000000000000000
 50
90.000000000000000
 51
180.000000000000000
  0
LINE
  8
0
  6
CONTINUOUS
 62
3
 10
46.915461163412374
 20
80.224299030740440
 11
46.915461163412374
 21
68.224299030742259
  0
LINE
  8
0
  6
CONTINUOUS
 62
3
 10
42.915461163412374
 20
67.224299030742259
 11
45.915461163412374
 21
67.224299030742259
  0
ARC
  8
0
  6
CONTINUOUS
 62
3
 10
45.915461163412374
 20
80.224299030740440
 40
1.000000000000000
 50
0.000000000000000
 51
90.000000000000000
  0
ARC
  8
0
  6
CONTINUOUS
 62
3
 10
42.915461163412374
 20
82.224299030740440
 40
1.000000000000000
 50
180.000000000000000
 51
270.000000000000000
  0
LINE
  8
0
  6
CONTINUOUS
 62
3
 10
42.915461163412374
 20
81.224299030740440
 11
45.915461163412374
 21
81.224299030740440
  0
LINE
  8
0
  6
CONTINUOUS
 62
3
 10
38.915461163412374
 20
52.287807357637575
 11
38.915461163412374
 21
38.724299030742259
  0
ARC
  8
0
  6
CONTINUOUS
 62
3
 10
39.915461163411464
 20
56.160790703845123
 40
2.000000000000290
 50
284.477512185954710
 51
0.000000000000000
  0
ARC
  8
0
  6
CONTINUOUS
 62
3
 10
40.915461163412374
 20
52.287807357637575
 40
2.000000000000063
 50
104.477512185929450
 51
180.000000000000000
  0
ARC
  8
0
  6
CONTINUOUS
 62
3
 10
40.915461163412374
 20
38.724299030742259
 40
2.000000000000000
 50
180.000000000000000
 51
270.000000000000000
  0
LINE
  8
0
  6
CONTINUOUS
 62
3
 10
53.415461163416012
 20
36.724299030742259
 11
40.915461163412374
 21
36.724299030742259
  0
LINE
  8
0
  6
CONTINUOUS
 62
3
 10
52.915461163416012
 20
36.724299030742259
 11
52.915461163416012
 21
116.224299030741340
  0
LINE
  8
0
  6
CONTINUOUS
 62
3
 10
27.415461163416012
 20
63.689378261249658
 11
37.089958646925197
 21
63.351537364679643
  0
ARC
  8
0
  6
CONTINUOUS
 62
3
 10
36.915461163412374
 20
59.959345538059097
 40
5.000000000000000
 50
0.000000000000000
 51
87.999999999996405
  0
ARC
  8
0
  6
CONTINUOUS
 62
3
 10
36.915461163412374
 20
58.354583229584023
 40
5.000000000000000
 50
0.000000000000000
 51
87.999999999996405
  0
ARC
  8
0
  6
CONTINUOUS
 62
3
 10
43.915461163413283
 20
38.724299030742259
 40
2.000000000000000
 50
180.000000000000000
 51
270.000000000000000
  0
LINE
  8
0
  6
CONTINUOUS
 62
3
 10
29.415461163412374
 20
65.224299030741349
 11
37.089958646925197
 21
64.956299673154717
  0
LINE
  8
0
  6
CONTINUOUS
 62
3
 10
42.915448219795735
 20
79.224299030742259
 11
42.915446762945294
 21
79.224299030742259
  0
LINE
  8
0
  6
CONTINUOUS
 62
3
 10
41.915461163412374
 20
163.224299030742260
 11
41.915461163413283
 21
193.724299030742260
  0
LINE
  8
0
  6
CONTINUOUS
 62
3
 10
41.915461163410555
 20
116.224299030742250
 11
41.915461163411464
 21
153.224299030742260
  0
ARC
  8
0
  6
CONTINUOUS
 62
3
 10
45.915461163412374
 20
164.224299030741350
 40
1.000000000000000
 50
0.000000000000000
 51
90.000000000000000
  0
ARC
  8
0
  6
CONTINUOUS
 62
3
 10
42.915461163412374
 20
166.224299030741350
 40
1.000000000000000
 50
180.000000000000000
 51
270.000000000000000
  0
LINE
  8
0
  6
CONTINUOUS
 62
3
 10
46.915461163412374
 20
152.224299030743170
 11
46.915461163412374
 21
164.224299030741350
  0
LINE
  8
0
  6
CONTINUOUS
 62
3
 10
42.915461163412374
 20
165.224299030741350
 11
45.915461163412374
 21
165.224299030741350
  0
ARC
  8
0
  6
CONTINUOUS
 62
3
 10
45.915461163412374
 20
152.224299030743170
 40
1.000000000000000
 50
270.000000000000000
 51
0.000000000000000
  0
ARC
  8
0
  6
CONTINUOUS
 62
3
 10
42.915461163412374
 20
150.224299030743170
 40
1.000000000000000
 50
90.000000000000000
 51
180.000000000000000
  0
LINE
  8
0
  6
CONTINUOUS
 62
3
 10
42.915461163412374
 20
151.224299030743170
 11
45.915461163412374
 21
151.224299030743170
  0
LINE
  8
0
  6
CONTINUOUS
 62
3
 10
38.915461163412374
 20
180.160790703846030
 11
38.915461163412374
 21
193.724299030742260
  0
ARC
  8
0
  6
CONTINUOUS
 62
3
 10
39.915461163411464
 20
176.287807357638480
 40
2.000000000000000
 50
0.000000000000000
 51
75.522487814051829
  0
ARC
  8
0
  6
CONTINUOUS
 62
3
 10
40.915461163412374
 20
180.160790703846030
 40
2.000000000000000
 50
180.000000000000000
 51
255.522487814064020
  0
ARC
  8
0
  6
CONTINUOUS
 62
3
 10
40.915461163412374
 20
193.724299030742260
 40
2.000000000000000
 50
90.000000000000000
 51
180.000000000000000
  0
LINE
  8
0
  6
CONTINUOUS
 62
3
 10
53.415461163416012
 20
195.724299030742260
 11
40.915461163412374
 21
195.724299030742260
  0
LINE
  8
0
  6
CONTINUOUS
 62
3
 10
52.915461163416012
 20
195.724299030742260
 11
52.915461163416012
 21
116.224299030742250
  0
LINE
  8
0
  6
CONTINUOUS
 62
3
 10
27.415461163416012
 20
168.759219800233950
 11
37.089958646925197
 21
169.097060696803960
  0
ARC
  8
0
  6
CONTINUOUS
 62
3
 10
36.915461163412374
 20
172.489252523424510
 40
5.000000000000153
 50
272.000000000003580
 51
0.000000000000000
  0
ARC
  8
0
  6
CONTINUOUS
 62
3
 10
36.915461163412374
 20
174.094014831899590
 40
5.000000000000153
 50
272.000000000003580
 51
0.000000000000000
  0
ARC
  8
0
  6
CONTINUOUS
 62
3
 10
43.915461163413283
 20
193.724299030742260
 40
2.000000000000000
 50
90.000000000000000
 51
180.000000000000000
  0
LINE
  8
0
  6
CONTINUOUS
 62
3
 10
29.415461163412374
 20
167.224299030742260
 11
37.089958646925197
 21
167.492298388328890
  0
LINE
  8
0
  6
CONTINUOUS
 62
3
 10
42.915448219795735
 20
153.224299030741350
 11
42.915446762945294
 21
153.224299030741350
  0
LINE
  8
0
  6
CONTINUOUS
 62
3
 10
27.415461163416012
 20
63.689378261249658
 11
27.415461163416012
 21
116.224299030741340
  0
ARC
  8
0
  6
CONTINUOUS
 62
3
 10
27.415461163412374
 20
68.566011158879519
 40
1.000000000000000
 50
0.000000000000000
 51
90.000000000000000
  0
ARC
  8
0
  6
CONTINUOUS
 62
3
 10
27.415461163412374
 20
77.964956609212095
 40
1.000000000000000
 50
270.000000000000000
 51
0.000000000000000
  0
LINE
  8
0
  6
CONTINUOUS
 62
3
 10
28.415461163412374
 20
68.566011158879519
 11
28.415461163412374
 21
66.224299030741349
  0
ARC
  8
0
  6
CONTINUOUS
 62
3
 10
29.415461163412374
 20
66.224299030741349
 40
1.000000000000000
 50
180.000000000000000
 51
270.000000000000000
  0
LINE
  8
0
  6
CONTINUOUS
 62
3
 10
28.415461163412374
 20
116.224299030742250
 11
28.415461163412374
 21
77.964956609212095
  0
LINE
  8
0
  6
CONTINUOUS
 62
3
 10
27.415461163416012
 20
168.759219800233950
 11
27.415461163416012
 21
116.224299030742250
  0
ARC
  8
0
  6
CONTINUOUS
 62
3
 10
27.415461163412374
 20
163.882586902604090
 40
1.000000000000000
 50
270.000000000000000
 51
0.000000000000000
  0
ARC
  8
0
  6
CONTINUOUS
 62
3
 10
27.415461163412374
 20
154.483641452271510
 40
1.000000000000000
 50
0.000000000000000
 51
90.000000000000000
  0
LINE
  8
0
  6
CONTINUOUS
 62
3
 10
28.415461163412374
 20
163.882586902604090
 11
28.415461163412374
 21
166.224299030742260
  0
ARC
  8
0
  6
CONTINUOUS
 62
3
 10
29.415461163412374
 20
166.224299030742260
 40
1.000000000000000
 50
90.000000000000000
 51
180.000000000000000
  0
LINE
  8
0
  6
CONTINUOUS
 62
3
 10
28.415461163412374
 20
116.224299030742250
 11
28.415461163412374
 21
154.483641452271510
  0
LINE
  8
0
  6
CONTINUOUS
 62
3
 10
146.715461163415740
 20
101.724299030742250
 11
144.915461163416010
 21
101.724299030742250
  0
LINE
  8
0
  6
CONTINUOUS
 62
3
 10
146.915461163416010
 20
116.224299030742250
 11
146.915461163416010
 21
101.924299030742070
  0
LINE
  8
0
  6
CONTINUOUS
 62
3
 10
146.915461163416010
 20
101.924299030742070
 11
146.715461163415740
 21
101.724299030742250
  0
ARC
  8
0
  6
CONTINUOUS
 62
3
 10
147.315461163415650
 20
101.974299030742250
 40
0.399999999999636
 50
90.000000000000000
 51
180.000000000000000
  0
LINE
  8
0
  6
CONTINUOUS
 62
3
 10
149.475268784550960
 20
102.224299030742250
 11
148.915461163416010
 21
102.374299030741890
  0
LINE
  8
0
  6
CONTINUOUS
 62
3
 10
148.915461163416010
 20
102.374299030741890
 11
147.315461163415650
 21
102.374299030741890
  0
LINE
  8
0
  6
CONTINUOUS
 62
3
 10
146.715461163415740
 20
130.724299030742260
 11
144.915461163416010
 21
130.724299030742260
  0
LINE
  8
0
  6
CONTINUOUS
 62
3
 10
146.915461163416010
 20
116.224299030742250
 11
146.915461163416010
 21
130.524299030742440
  0
LINE
  8
0
  6
CONTINUOUS
 62
3
 10
146.915461163416010
 20
130.524299030742440
 11
146.715461163415740
 21
130.724299030742260
  0
ARC
  8
0
  6
CONTINUOUS
 62
3
 10
147.315461163415650
 20
130.474299030742260
 40
0.399999999999636
 50
180.000000000000000
 51
270.000000000000000
  0
LINE
  8
0
  6
CONTINUOUS
 62
3
 10
149.475268784550960
 20
130.224299030742260
 11
148.915461163416010
 21
130.074299030742620
  0
LINE
  8
0
  6
CONTINUOUS
 62
3
 10
148.915461163416010
 20
130.074299030742620
 11
147.315461163415650
 21
130.074299030742620
  0
LINE
  8
0
  6
CONTINUOUS
 62
3
 10
152.915461163416010
 20
99.224299030742259
 11
152.915461163416010
 21
102.224299030742250
  0
LINE
  8
0
  6
CONTINUOUS
 62
3
 10
188.915461163416010
 20
129.824299030742620
 11
188.915461163416010
 21
116.224299030742250
  0
LINE
  8
0
  6
CONTINUOUS
 62
3
 10
188.515461163415920
 20
130.224299030742260
 11
149.475268784550960
 21
130.224299030742260
  0
ARC
  8
0
  6
CONTINUOUS
 62
3
 10
188.515461163415920
 20
129.824299030742620
 40
0.400000000000091
 50
0.000000000000000
 51
90.000000000000000
  0
LINE
  8
0
  6
CONTINUOUS
 62
3
 10
188.915461163416010
 20
99.224299030742259
 11
188.915461163416010
 21
102.624299030741890
  0
LINE
  8
0
  6
CONTINUOUS
 62
3
 10
188.915461163416010
 20
99.224299030742259
 11
152.915461163416010
 21
99.224299030742259
  0
LINE
  8
0
  6
CONTINUOUS
 62
3
 10
188.915461163416010
 20
102.624299030741890
 11
188.915461163416010
 21
116.224299030742250
  0
LINE
  8
0
  6
CONTINUOUS
 62
3
 10
188.515461163415920
 20
102.224299030742250
 11
149.475268784550960
 21
102.224299030742250
  0
ARC
  8
0
  6
CONTINUOUS
 62
3
 10
188.515461163415920
 20
102.624299030741890
 40
0.399999999999636
 50
270.000000000000000
 51
0.000000000000000
  0
LINE
  8
0
  6
CONTINUOUS
 62
3
 10
27.415461163416012
 20
62.724299030742259
 11
27.415461163416012
 21
116.224299030742250
  0
LINE
  8
0
  6
CONTINUOUS
 62
3
 10
27.415461163416012
 20
169.724299030742260
 11
27.415461163416012
 21
116.224299030742250
  0
LINE
  8
0
  6
CONTINUOUS
 62
3
 10
27.415461163416012
 20
62.724299030742259
 11
-46.084538836583761
 21
62.724299030742259
  0
LINE
  8
0
  6
CONTINUOUS
 62
3
 10
27.415461163416012
 20
169.724299030742260
 11
-113.084538836604900
 21
169.724299030742260
  0
LINE
  8
0
  6
CONTINUOUS
 62
4
 10
-113.084538836604900
 20
167.224299030742260
 11
27.415461163416012
 21
167.224299030742260
  0
LINE
  8
0
  6
CONTINUOUS
 62
4
 10
-113.084538836604900
 20
166.724299030742260
 11
27.415461163416012
 21
166.724299030742260
  0
LINE
  8
0
  6
CONTINUOUS
 62
4
 10
-113.084538836604900
 20
162.357381625624950
 11
27.415461163416012
 21
162.357381625624950
  0
LINE
  8
0
  6
CONTINUOUS
 62
4
 10
-113.084538836604900
 20
157.266212801082020
 11
27.415461163416012
 21
157.266212801082020
  0
LINE
  8
0
  6
CONTINUOUS
 62
4
 10
-113.084538836604900
 20
149.527899982251030
 11
27.415461163416012
 21
149.527899982251030
  0
LINE
  8
0
  6
CONTINUOUS
 62
4
 10
-113.084538836604900
 20
147.938690189512270
 11
27.415461163416012
 21
147.938690189512270
  0
LINE
  8
0
  6
CONTINUOUS
 62
4
 10
-113.084538836604900
 20
144.980694581379340
 11
27.415461163416012
 21
144.980694581379340
  0
LINE
  8
0
  6
CONTINUOUS
 62
4
 10
-113.084538836604900
 20
143.501671427902350
 11
27.415461163416012
 21
143.501671427902350
  0
LINE
  8
0
  6
CONTINUOUS
 62
4
 10
-113.084538836604900
 20
140.408940436237000
 11
27.415461163416012
 21
140.408940436237000
  0
LINE
  8
0
  6
CONTINUOUS
 62
4
 10
-113.084538836604900
 20
139.062538710738410
 11
27.415461163416012
 21
139.062538710738410
  0
LINE
  8
0
  6
CONTINUOUS
 62
4
 10
-113.084538836604900
 20
135.852333687380110
 11
27.415461163416012
 21
135.852333687380110
  0
LINE
  8
0
  6
CONTINUOUS
 62
4
 10
-113.084538836604900
 20
134.610413822492210
 11
27.415461163416012
 21
134.610413822492210
  0
LINE
  8
0
  6
CONTINUOUS
 62
4
 10
-113.084538836604900
 20
130.224299030742260
 11
27.415461163416015
 21
130.224299030742260
  0
LINE
  8
0
  6
CONTINUOUS
 62
4
 10
-113.084538836604670
 20
102.224299030742250
 11
27.415461163416015
 21
102.224299030742250
  0
LINE
  8
0
  6
CONTINUOUS
 62
4
 10
-113.084538836604670
 20
97.838184238992312
 11
27.415461163416012
 21
97.838184238992312
  0
LINE
  8
0
  6
CONTINUOUS
 62
4
 10
-113.084538836604670
 20
96.596264374104408
 11
27.415461163416012
 21
96.596264374104408
  0
LINE
  8
0
  6
CONTINUOUS
 62
4
 10
-113.084538836604670
 20
93.386059350746109
 11
27.415461163416012
 21
93.386059350746109
  0
LINE
  8
0
  6
CONTINUOUS
 62
4
 10
-113.084538836604670
 20
92.039657625247514
 11
27.415461163416012
 21
92.039657625247514
  0
LINE
  8
0
  6
CONTINUOUS
 62
4
 10
-113.084538836604670
 20
88.946926633582279
 11
27.415461163416012
 21
88.946926633582279
  0
LINE
  8
0
  6
CONTINUOUS
 62
4
 10
-113.084538836604670
 20
87.467903480105178
 11
27.415461163416012
 21
87.467903480105178
  0
LINE
  8
0
  6
CONTINUOUS
 62
4
 10
-113.084538836604670
 20
82.920698079233603
 11
27.415461163416012
 21
82.920698079233603
  0
LINE
  8
0
  6
CONTINUOUS
 62
4
 10
-113.084538836604670
 20
84.509907871972246
 11
27.415461163416012
 21
84.509907871972246
  0
LINE
  8
0
  6
CONTINUOUS
 62
4
 10
-113.084538836604670
 20
75.182385260402498
 11
27.415461163416012
 21
75.182385260402498
  0
LINE
  8
0
  6
CONTINUOUS
 62
4
 10
-113.084538836604670
 20
70.091216435859565
 11
27.415461163416012
 21
70.091216435859678
  0
LINE
  8
0
  6
CONTINUOUS
 62
4
 10
-113.084538836604670
 20
65.724299030742259
 11
27.415461163416012
 21
65.724299030742259
  0
LINE
  8
0
  6
CONTINUOUS
 62
4
 10
-113.084538836604670
 20
65.224299030742259
 11
27.415461163416012
 21
65.224299030742259
  0
LINE
  8
0
  6
CONTINUOUS
 62
3
 10
-163.084538836605360
 20
164.067919164371570
 11
-163.084538836605130
 21
116.224299030742250
  0
LINE
  8
0
  6
CONTINUOUS
 62
3
 10
-154.405058374529290
 20
171.498831143095570
 11
-161.975837571118060
 21
166.197714479522920
  0
ARC
  8
0
  6
CONTINUOUS
 62
3
 10
-160.484538836605220
 20
164.067919164371570
 40
2.600000000000131
 50
125.000000000001180
 51
180.000000000000000
  0
ARC
  8
0
  6
CONTINUOUS
 62
3
 10
-142.589383785697920
 20
154.624299030742240
 40
20.600000000000023
 50
90.000000000000000
 51
124.999999999999600
  0
LINE
  8
0
  6
CONTINUOUS
 62
3
 10
-163.084538836605360
 20
68.380678897112944
 11
-163.084538836605360
 21
116.224299030742250
  0
LINE
  8
0
  6
CONTINUOUS
 62
3
 10
-154.405058374529290
 20
60.949766918389059
 11
-161.975837571118060
 21
66.250883581961602
  0
ARC
  8
0
  6
CONTINUOUS
 62
3
 10
-160.484538836605220
 20
68.380678897112944
 40
2.600000000000136
 50
180.000000000000000
 51
234.999999999997390
  0
ARC
  8
0
  6
CONTINUOUS
 62
3
 10
-142.589383785697920
 20
77.824299030742282
 40
20.599999999999891
 50
235.000000000000400
 51
270.000000000000000
  0
LINE
  8
0
  6
CONTINUOUS
 62
3
 10
-113.084538836605130
 20
175.224299030742260
 11
-142.589383785697920
 21
175.224299030742260
  0
LINE
  8
0
  6
CONTINUOUS
 62
3
 10
-123.084538836605130
 20
57.224299030742259
 11
-142.589383785697920
 21
57.224299030742259
  0
LINE
  8
0
  6
CONTINUOUS
 62
3
 10
-121.084538836583760
 20
58.724299030742259
 11
-121.084538836583760
 21
61.713029794686918
  0
LINE
  8
0
  6
CONTINUOUS
 62
3
 10
-46.084538836583761
 20
63.724299030742372
 11
-113.318007531002420
 21
63.724299030742372
  0
LINE
  8
0
  6
CONTINUOUS
 62
3
 10
-124.084538836605130
 20
165.368220053467440
 11
-126.084538836605130
 21
163.715578414344010
  0
LINE
  8
0
  6
CONTINUOUS
 62
3
 10
-122.084538836605130
 20
166.544005539090220
 11
-124.084538836605130
 21
165.368220053467440
  0
LINE
  8
0
  6
CONTINUOUS
 62
3
 10
-124.084538836605130
 20
165.368220053467440
 11
-122.084538836605130
 21
163.715578414344010
  0
LINE
  8
0
  6
CONTINUOUS
 62
3
 10
-126.084538836605130
 20
166.544005539090220
 11
-124.084538836605130
 21
165.368220053467440
  0
POLYLINE
  8
0
  6
CONTINUOUS
 62
3
 66
1
 70
1
  0
VERTEX
  8
0
  6
CONTINUOUS
 62
3
 10
-119.384538836604910
 20
163.551629985089790
  0
VERTEX
  8
0
  6
CONTINUOUS
 62
3
 10
-119.474848018709730
 20
164.254586951290150
  0
VERTEX
  8
0
  6
CONTINUOUS
 62
3
 10
-119.742305033801870
 20
164.930529675502240
  0
VERTEX
  8
0
  6
CONTINUOUS
 62
3
 10
-120.176631658782950
 20
165.553482057907640
  0
VERTEX
  8
0
  6
CONTINUOUS
 62
3
 10
-120.761136965028140
 20
166.099504387806230
  0
VERTEX
  8
0
  6
CONTINUOUS
 62
3
 10
-121.473358741412780
 20
166.547613333272860
  0
VERTEX
  8
0
  6
CONTINUOUS
 62
3
 10
-122.285926704488980
 20
166.880588318835610
  0
VERTEX
  8
0
  6
CONTINUOUS
 62
3
 10
-123.167614323129100
 20
167.085633302533860
  0
VERTEX
  8
0
  6
CONTINUOUS
 62
3
 10
-124.084538836604900
 20
167.154868520634640
  0
VERTEX
  8
0
  6
CONTINUOUS
 62
3
 10
-125.001463350080710
 20
167.085633302533860
  0
VERTEX
  8
0
  6
CONTINUOUS
 62
3
 10
-125.883150968720820
 20
166.880588318835610
  0
VERTEX
  8
0
  6
CONTINUOUS
 62
3
 10
-126.695718931797030
 20
166.547613333272860
  0
VERTEX
  8
0
  6
CONTINUOUS
 62
3
 10
-127.407940708181670
 20
166.099504387806230
  0
VERTEX
  8
0
  6
CONTINUOUS
 62
3
 10
-127.992446014426860
 20
165.553482057907640
  0
VERTEX
  8
0
  6
CONTINUOUS
 62
3
 10
-128.426772639407940
 20
164.930529675502240
  0
VERTEX
  8
0
  6
CONTINUOUS
 62
3
 10
-128.694229654500080
 20
164.254586951290150
  0
VERTEX
  8
0
  6
CONTINUOUS
 62
3
 10
-128.784538836604900
 20
163.551629985089790
  0
VERTEX
  8
0
  6
CONTINUOUS
 62
3
 10
-128.694229654500080
 20
162.848673018889430
  0
VERTEX
  8
0
  6
CONTINUOUS
 62
3
 10
-128.426772639407940
 20
162.172730294677340
  0
VERTEX
  8
0
  6
CONTINUOUS
 62
3
 10
-127.992446014426860
 20
161.549777912271940
  0
VERTEX
  8
0
  6
CONTINUOUS
 62
3
 10
-127.407940708181670
 20
161.003755582373340
  0
VERTEX
  8
0
  6
CONTINUOUS
 62
3
 10
-126.695718931797030
 20
160.555646636906720
  0
VERTEX
  8
0
  6
CONTINUOUS
 62
3
 10
-125.883150968720820
 20
160.222671651343970
  0
VERTEX
  8
0
  6
CONTINUOUS
 62
3
 10
-125.001463350080710
 20
160.017626667645710
  0
VERTEX
  8
0
  6
CONTINUOUS
 62
3
 10
-124.084538836604900
 20
159.948391449544940
  0
VERTEX
  8
0
  6
CONTINUOUS
 62
3
 10
-123.167614323129100
 20
160.017626667645710
  0
VERTEX
  8
0
  6
CONTINUOUS
 62
3
 10
-122.285926704488980
 20
160.222671651343970
  0
VERTEX
  8
0
  6
CONTINUOUS
 62
3
 10
-121.473358741412780
 20
160.555646636906720
  0
VERTEX
  8
0
  6
CONTINUOUS
 62
3
 10
-120.761136965028140
 20
161.003755582373340
  0
VERTEX
  8
0
  6
CONTINUOUS
 62
3
 10
-120.176631658782950
 20
161.549777912271940
  0
VERTEX
  8
0
  6
CONTINUOUS
 62
3
 10
-119.742305033801870
 20
162.172730294677340
  0
VERTEX
  8
0
  6
CONTINUOUS
 62
3
 10
-119.474848018709730
 20
162.848673018889430
  0
SEQEND
  8
0
  6
CONTINUOUS
 62
3
  0
LINE
  8
0
  6
CONTINUOUS
 62
3
 10
-113.084538836605130
 20
175.224299030742260
 11
-113.084538836604900
 21
116.224299030742250
  0
LINE
  8
0
  6
CONTINUOUS
 62
3
 10
-123.084538836605130
 20
57.224299030742259
 11
-123.084538836605130
 21
58.884602669933315
  0
ARC
  8
0
  6
CONTINUOUS
 62
3
 10
-120.084538836605130
 20
58.884602669933315
 40
3.000000000000000
 50
90.000000000000000
 51
180.000000000000000
  0
LINE
  8
0
  6
CONTINUOUS
 62
3
 10
-124.084538836605130
 20
67.080378008017192
 11
-126.084538836605130
 21
68.733019647140509
  0
LINE
  8
0
  6
CONTINUOUS
 62
3
 10
-122.084538836605130
 20
65.904592522394296
 11
-124.084538836605130
 21
67.080378008017192
  0
LINE
  8
0
  6
CONTINUOUS
 62
3
 10
-124.084538836605130
 20
67.080378008017192
 11
-122.084538836605130
 21
68.733019647140509
  0
LINE
  8
0
  6
CONTINUOUS
 62
3
 10
-126.084538836605130
 20
65.904592522394296
 11
-124.084538836605130
 21
67.080378008017192
  0
POLYLINE
  8
0
  6
CONTINUOUS
 62
3
 66
1
 70
1
  0
VERTEX
  8
0
  6
CONTINUOUS
 62
3
 10
-119.384538836604910
 20
68.896968076394728
  0
VERTEX
  8
0
  6
CONTINUOUS
 62
3
 10
-119.474848018709730
 20
69.599925042595089
  0
VERTEX
  8
0
  6
CONTINUOUS
 62
3
 10
-119.742305033801870
 20
70.275867766807181
  0
VERTEX
  8
0
  6
CONTINUOUS
 62
3
 10
-120.176631658782950
 20
70.898820149212582
  0
VERTEX
  8
0
  6
CONTINUOUS
 62
3
 10
-120.761136965028140
 20
71.444842479111159
  0
VERTEX
  8
0
  6
CONTINUOUS
 62
3
 10
-121.473358741412780
 20
71.892951424577774
  0
VERTEX
  8
0
  6
CONTINUOUS
 62
3
 10
-122.285926704488980
 20
72.225926410140545
  0
VERTEX
  8
0
  6
CONTINUOUS
 62
3
 10
-123.167614323129100
 20
72.430971393838789
  0
VERTEX
  8
0
  6
CONTINUOUS
 62
3
 10
-124.084538836604900
 20
72.500206611939561
  0
VERTEX
  8
0
  6
CONTINUOUS
 62
3
 10
-125.001463350080710
 20
72.430971393838789
  0
VERTEX
  8
0
  6
CONTINUOUS
 62
3
 10
-125.883150968720820
 20
72.225926410140545
  0
VERTEX
  8
0
  6
CONTINUOUS
 62
3
 10
-126.695718931797030
 20
71.892951424577774
  0
VERTEX
  8
0
  6
CONTINUOUS
 62
3
 10
-127.407940708181670
 20
71.444842479111159
  0
VERTEX
  8
0
  6
CONTINUOUS
 62
3
 10
-127.992446014426860
 20
70.898820149212582
  0
VERTEX
  8
0
  6
CONTINUOUS
 62
3
 10
-128.426772639407940
 20
70.275867766807181
  0
VERTEX
  8
0
  6
CONTINUOUS
 62
3
 10
-128.694229654500080
 20
69.599925042595089
  0
VERTEX
  8
0
  6
CONTINUOUS
 62
3
 10
-128.784538836604900
 20
68.896968076394728
  0
VERTEX
  8
0
  6
CONTINUOUS
 62
3
 10
-128.694229654500080
 20
68.194011110194367
  0
VERTEX
  8
0
  6
CONTINUOUS
 62
3
 10
-128.426772639407940
 20
67.518068385982275
  0
VERTEX
  8
0
  6
CONTINUOUS
 62
3
 10
-127.992446014426860
 20
66.895116003576874
  0
VERTEX
  8
0
  6
CONTINUOUS
 62
3
 10
-127.407940708181670
 20
66.349093673678297
  0
VERTEX
  8
0
  6
CONTINUOUS
 62
3
 10
-126.695718931797030
 20
65.900984728211682
  0
VERTEX
  8
0
  6
CONTINUOUS
 62
3
 10
-125.883150968720820
 20
65.568009742648911
  0
VERTEX
  8
0
  6
CONTINUOUS
 62
3
 10
-125.001463350080710
 20
65.362964758950667
  0
VERTEX
  8
0
  6
CONTINUOUS
 62
3
 10
-124.084538836604900
 20
65.293729540849895
  0
VERTEX
  8
0
  6
CONTINUOUS
 62
3
 10
-123.167614323129100
 20
65.362964758950667
  0
VERTEX
  8
0
  6
CONTINUOUS
 62
3
 10
-122.285926704488980
 20
65.568009742648911
  0
VERTEX
  8
0
  6
CONTINUOUS
 62
3
 10
-121.473358741412780
 20
65.900984728211682
  0
VERTEX
  8
0
  6
CONTINUOUS
 62
3
 10
-120.761136965028140
 20
66.349093673678297
  0
VERTEX
  8
0
  6
CONTINUOUS
 62
3
 10
-120.176631658782950
 20
66.895116003576874
  0
VERTEX
  8
0
  6
CONTINUOUS
 62
3
 10
-119.742305033801870
 20
67.518068385982275
  0
VERTEX
  8
0
  6
CONTINUOUS
 62
3
 10
-119.474848018709730
 20
68.194011110194367
  0
SEQEND
  8
0
  6
CONTINUOUS
 62
3
  0
LINE
  8
0
  6
CONTINUOUS
 62
3
 10
-120.084538836605130
 20
61.884602669933315
 11
-116.084538836605130
 21
61.884602669933315
  0
ARC
  8
0
  6
CONTINUOUS
 62
3
 10
-116.084538836605130
 20
64.884602669933315
 40
3.000000000000000
 50
270.000000000000000
 51
0.000000000000000
  0
LINE
  8
0
  6
CONTINUOUS
 62
3
 10
-113.084538836605130
 20
64.884602669933315
 11
-113.084538836604900
 21
116.224299030742250
  0
LINE
  8
0
  6
CONTINUOUS
 62
3
 10
-48.084538836583761
 20
29.224299030742259
 11
-119.084538836583760
 21
29.224299030742259
  0
LINE
  8
0
  6
CONTINUOUS
 62
3
 10
-62.084538836583761
 20
28.724299030742259
 11
-62.084538836583761
 21
29.224299030742259
  0
LINE
  8
0
  6
CONTINUOUS
 62
3
 10
-62.084538836583761
 20
28.724299030742259
 11
-54.084538836583761
 21
28.724299030742259
  0
LINE
  8
0
  6
CONTINUOUS
 62
3
 10
-54.084538836583761
 20
28.724299030742259
 11
-54.084538836583761
 21
29.224299030742259
  0
ARC
  8
0
  6
CONTINUOUS
 62
3
 10
-48.084538836583761
 20
30.224299030742259
 40
1.000000000000000
 50
270.000000000000000
 51
0.000000000000000
  0
ARC
  8
0
  6
CONTINUOUS
 62
3
 10
-119.084538836583760
 20
30.224299030742259
 40
1.000000000000000
 50
180.000000000000000
 51
270.000000000000000
  0
LINE
  8
0
  6
CONTINUOUS
 62
3
 10
-120.084538836583760
 20
30.224299030742259
 11
-120.084538836583760
 21
58.724299030742259
  0
LINE
  8
0
  6
CONTINUOUS
 62
3
 10
-47.084538836583761
 20
30.224299030742259
 11
-47.084538836583761
 21
58.724299030742259
  0
LINE
  8
0
  6
CONTINUOUS
 62
3
 10
-46.084538836583761
 20
58.724299030742259
 11
-46.084538836583761
 21
63.724299030742372
  0
LINE
  8
0
  6
CONTINUOUS
 62
3
 10
-121.084538836583760
 20
58.724299030742259
 11
-46.084538836583761
 21
58.724299030742259
  0
LINE
  8
0
  6
CONTINUOUS
 62
3
 10
0.915461163416012
 20
193.385324090429090
 11
-102.084538836583980
 21
193.385324090429090
  0
ARC
  8
0
  6
CONTINUOUS
 62
3
 10
6.415461163416012
 20
198.385324090429090
 40
5.000000000000072
 50
287.457603123721870
 51
0.000000000000000
  0
ARC
  8
0
  6
CONTINUOUS
 62
3
 10
6.615461163415830
 20
194.061870216171430
 40
1.300000000000182
 50
0.000000000000000
 51
73.398450400977637
  0
ARC
  8
0
  6
CONTINUOUS
 62
3
 10
4.415461163416012
 20
186.682845890421960
 40
9.000000000000123
 50
73.398450400980877
 51
106.601549599019120
  0
ARC
  8
0
  6
CONTINUOUS
 62
3
 10
2.215461163416194
 20
194.061870216171430
 40
1.300000000000019
 50
106.601549599022360
 51
180.000000000000000
  0
LINE
  8
0
  6
CONTINUOUS
 62
3
 10
7.915461163416012
 20
194.061870216171430
 11
7.915461163416012
 21
193.074860478247050
  0
POLYLINE
  8
0
  6
CONTINUOUS
 62
3
 66
1
  0
VERTEX
  8
0
  6
CONTINUOUS
 62
3
 10
0.915461163416012
 20
193.074860478247050
  0
VERTEX
  8
0
  6
CONTINUOUS
 62
3
 10
0.982712682004705
 20
193.040762268051050
  0
VERTEX
  8
0
  6
CONTINUOUS
 62
3
 10
1.181882799626508
 20
193.007974432950420
  0
VERTEX
  8
0
  6
CONTINUOUS
 62
3
 10
1.505317520357103
 20
192.977756991060400
  0
VERTEX
  8
0
  6
CONTINUOUS
 62
3
 10
1.940587429263096
 20
192.951271181726700
  0
VERTEX
  8
0
  6
CONTINUOUS
 62
3
 10
2.470965347847404
 20
192.929534839748610
  0
VERTEX
  8
0
  6
CONTINUOUS
 62
3
 10
3.076069150138197
 20
192.913383280558430
  0
VERTEX
  8
0
  6
CONTINUOUS
 62
3
 10
3.732645036359562
 20
192.903437199517980
  0
VERTEX
  8
0
  6
CONTINUOUS
 62
3
 10
4.415461163416011
 20
192.900078818943830
  0
VERTEX
  8
0
  6
CONTINUOUS
 62
3
 10
5.098277290472460
 20
192.903437199517980
  0
VERTEX
  8
0
  6
CONTINUOUS
 62
3
 10
5.754853176693825
 20
192.913383280558430
  0
VERTEX
  8
0
  6
CONTINUOUS
 62
3
 10
6.359956978984618
 20
192.929534839748610
  0
VERTEX
  8
0
  6
CONTINUOUS
 62
3
 10
6.890334897568927
 20
192.951271181726700
  0
VERTEX
  8
0
  6
CONTINUOUS
 62
3
 10
7.325604806474918
 20
192.977756991060400
  0
VERTEX
  8
0
  6
CONTINUOUS
 62
3
 10
7.649039527205513
 20
193.007974432950420
  0
VERTEX
  8
0
  6
CONTINUOUS
 62
3
 10
7.848209644827316
 20
193.040762268051050
  0
VERTEX
  8
0
  6
CONTINUOUS
 62
3
 10
7.915461163416010
 20
193.074860478247050
  0
SEQEND
  8
0
  6
CONTINUOUS
 62
3
  0
LINE
  8
0
  6
CONTINUOUS
 62
3
 10
0.915461163416012
 20
194.061870216171430
 11
0.915461163416012
 21
193.074860478247050
  0
LINE
  8
0
  6
CONTINUOUS
 62
3
 10
-112.584538836583980
 20
169.724299030742260
 11
-112.584538836583980
 21
174.724299030742260
  0
LINE
  8
0
  6
DASHDOT
 62
3
 10
11.415461163416012
 20
169.724299030742260
 11
11.415461163416012
 21
174.724299030742260
  0
LINE
  8
0
  6
DASHDOT
 62
3
 10
11.415461163416012
 20
169.724299030742260
 11
11.415461163416012
 21
174.724299030742260
  0
LINE
  8
0
  6
CONTINUOUS
 62
3
 10
-112.584538836583980
 20
174.724299030742260
 11
11.415461163416012
 21
174.724299030742260
  0
ARC
  8
0
  6
CONTINUOUS
 62
3
 10
-107.584538836583980
 20
198.385324090429090
 40
5.000000000000000
 50
180.000000000000000
 51
252.542396876278160
  0
LINE
  8
0
  6
CONTINUOUS
 62
3
 10
-109.084538836583980
 20
194.061870216171430
 11
-109.084538836583980
 21
193.074860478247050
  0
LINE
  8
0
  6
CONTINUOUS
 62
3
 10
-102.084538836583980
 20
194.061870216171430
 11
-102.084538836583980
 21
193.074860478247050
  0
ARC
  8
0
  6
CONTINUOUS
 62
3
 10
-107.784538836583800
 20
194.061870216171430
 40
1.300000000000019
 50
106.601549599022360
 51
180.000000000000000
  0
ARC
  8
0
  6
CONTINUOUS
 62
3
 10
-105.584538836583980
 20
186.682845890421960
 40
9.000000000000123
 50
73.398450400980877
 51
106.601549599019120
  0
ARC
  8
0
  6
CONTINUOUS
 62
3
 10
-103.384538836584170
 20
194.061870216171430
 40
1.300000000000182
 50
0.000000000000000
 51
73.398450400977637
  0
POLYLINE
  8
0
  6
CONTINUOUS
 62
3
 66
1
  0
VERTEX
  8
0
  6
CONTINUOUS
 62
3
 10
-109.084538836583980
 20
193.074860478247050
  0
VERTEX
  8
0
  6
CONTINUOUS
 62
3
 10
-109.017287317995290
 20
193.040762268051050
  0
VERTEX
  8
0
  6
CONTINUOUS
 62
3
 10
-108.818117200373490
 20
193.007974432950420
  0
VERTEX
  8
0
  6
CONTINUOUS
 62
3
 10
-108.494682479642890
 20
192.977756991060400
  0
VERTEX
  8
0
  6
CONTINUOUS
 62
3
 10
-108.059412570736910
 20
192.951271181726700
  0
VERTEX
  8
0
  6
CONTINUOUS
 62
3
 10
-107.529034652152600
 20
192.929534839748610
  0
VERTEX
  8
0
  6
CONTINUOUS
 62
3
 10
-106.923930849861800
 20
192.913383280558430
  0
VERTEX
  8
0
  6
CONTINUOUS
 62
3
 10
-106.267354963640440
 20
192.903437199517980
  0
VERTEX
  8
0
  6
CONTINUOUS
 62
3
 10
-105.584538836583980
 20
192.900078818943830
  0
VERTEX
  8
0
  6
CONTINUOUS
 62
3
 10
-104.901722709527540
 20
192.903437199517980
  0
VERTEX
  8
0
  6
CONTINUOUS
 62
3
 10
-104.245146823306170
 20
192.913383280558430
  0
VERTEX
  8
0
  6
CONTINUOUS
 62
3
 10
-103.640043021015380
 20
192.929534839748610
  0
VERTEX
  8
0
  6
CONTINUOUS
 62
3
 10
-103.109665102431080
 20
192.951271181726700
  0
VERTEX
  8
0
  6
CONTINUOUS
 62
3
 10
-102.674395193525080
 20
192.977756991060400
  0
VERTEX
  8
0
  6
CONTINUOUS
 62
3
 10
-102.350960472794480
 20
193.007974432950420
  0
VERTEX
  8
0
  6
CONTINUOUS
 62
3
 10
-102.151790355172670
 20
193.040762268051050
  0
VERTEX
  8
0
  6
CONTINUOUS
 62
3
 10
-102.084538836583980
 20
193.074860478247050
  0
SEQEND
  8
0
  6
CONTINUOUS
 62
3
  0
LINE
  8
0
  6
CONTINUOUS
 62
3
 10
11.415461163416012
 20
198.385324090429090
 11
11.415461163416012
 21
211.324299030742170
  0
ARC
  8
0
  6
CONTINUOUS
 62
3
 10
6.415461163416012
 20
179.724299030742260
 40
5.000000000000000
 50
270.000000000000000
 51
0.000000000000000
  0
LINE
  8
0
  6
CONTINUOUS
 62
3
 10
-112.584538836583980
 20
198.385324090429090
 11
-112.584538836583980
 21
211.324299030742170
  0
LINE
  8
0
  6
CONTINUOUS
 62
3
 10
-112.584538836583980
 20
197.918809321804470
 11
-113.584538836583980
 21
197.918809321804470
  0
LINE
  8
0
  6
CONTINUOUS
 62
3
 10
12.415461163416012
 20
192.825172393527280
 11
-113.584538836583980
 21
192.825172393527280
  0
ARC
  8
0
  6
CONTINUOUS
 62
3
 10
-107.584538836583980
 20
179.724299030742260
 40
5.000000000000000
 50
180.000000000000000
 51
270.000000000000000
  0
ARC
  8
0
  6
CONTINUOUS
 62
3
 10
-107.584538836583980
 20
211.324299030742170
 40
5.000000000000000
 50
90.000000000000000
 51
180.000000000000000
  0
ARC
  8
0
  6
CONTINUOUS
 62
3
 10
-113.584538836583980
 20
195.918809321804470
 40
2.000000000000000
 50
90.000000000000000
 51
180.000000000000000
  0
ARC
  8
0
  6
CONTINUOUS
 62
3
 10
-113.584538836583980
 20
194.825172393527280
 40
2.000000000000000
 50
180.000000000000000
 51
270.000000000000000
  0
ARC
  8
0
  6
CONTINUOUS
 62
3
 10
-113.584538836583980
 20
194.026170522442040
 40
2.000000000000000
 50
180.000000000000000
 51
270.000000000000000
  0
LINE
  8
0
  6
CONTINUOUS
 62
3
 10
-115.584538836583980
 20
195.918809321804470
 11
-115.584538836583980
 21
193.227168651323150
  0
ARC
  8
0
  6
CONTINUOUS
 62
3
 10
-113.584538836583980
 20
193.227168651323150
 40
2.000000000000000
 50
180.000000000000000
 51
270.000000000000000
  0
LINE
  8
0
  6
CONTINUOUS
 62
3
 10
-112.584538836583980
 20
179.724299030742260
 11
-112.584538836583980
 21
191.227168651323150
  0
ARC
  8
0
  6
CONTINUOUS
 62
3
 10
6.415461163416012
 20
211.324299030742170
 40
5.000000000000000
 50
0.000000000000000
 51
90.000000000000000
  0
LINE
  8
0
  6
CONTINUOUS
 62
3
 10
-107.584538836583980
 20
216.324299030742170
 11
6.415461163416012
 21
216.324299030742170
  0
LINE
  8
0
  6
CONTINUOUS
 62
3
 10
11.415461163416012
 20
179.724299030742260
 11
11.415461163416012
 21
191.026170522442040
  0
LINE
  8
0
  6
CONTINUOUS
 62
3
 10
14.415461163416012
 20
195.918809321804470
 11
14.415461163416012
 21
193.227168651323150
  0
LINE
  8
0
  6
CONTINUOUS
 62
3
 10
12.415461163416012
 20
192.026170522425220
 11
-113.584538836583980
 21
192.026170522425220
  0
LINE
  8
0
  6
CONTINUOUS
 62
3
 10
12.415461163416012
 20
191.227168651323150
 11
-113.584538836583980
 21
191.227168651323150
  0
LINE
  8
0
  6
CONTINUOUS
 62
3
 10
11.415461163416012
 20
197.918809321804470
 11
12.415461163416012
 21
197.918809321804470
  0
ARC
  8
0
  6
CONTINUOUS
 62
3
 10
12.415461163416012
 20
195.918809321804470
 40
2.000000000000000
 50
0.000000000000000
 51
90.000000000000000
  0
ARC
  8
0
  6
CONTINUOUS
 62
3
 10
12.415461163416012
 20
194.825172393527280
 40
2.000000000000000
 50
270.000000000000000
 51
0.000000000000000
  0
ARC
  8
0
  6
CONTINUOUS
 62
3
 10
12.415461163416012
 20
194.026170522442040
 40
2.000000000000000
 50
270.000000000000000
 51
0.000000000000000
  0
ARC
  8
0
  6
CONTINUOUS
 62
3
 10
12.415461163416012
 20
193.227168651323150
 40
2.000000000000000
 50
270.000000000000000
 51
0.000000000000000
  0
LINE
  8
0
  6
DASHDOT
 62
4
 10
200.817044138007760
 20
116.224299030742250
 11
-186.794022118125890
 21
116.224299030742250
  0
LINE
  8
0
  6
DASHDOT
 62
4
 10
-69.868068252310422
 20
44.224299030742372
 11
-48.101090843782004
 21
44.224299030742372
  0
LINE
  8
0
  6
DASHDOT
 62
4
 10
-58.584538836583761
 20
35.280141773066248
 11
-58.584538836583761
 21
57.259643905601592
  0
LINE
  8
0
  6
DASHDOT
 62
4
 10
-117.670227943167440
 20
44.224299030742372
 11
-97.183639709458021
 21
44.224299030742372
  0
LINE
  8
0
  6
DASHDOT
 62
4
 10
-108.584538836583760
 20
35.280141773066248
 11
-108.584538836583760
 21
56.828630753598304
  0
ARC
  8
0
  6
DASHED
 62
4
 10
-108.584538836583760
 20
44.224299030742372
 40
7.000000000000000
 50
180.000000000000000
 51
0.000000000000000
  0
LINE
  8
0
  6
DASHED
 62
4
 10
-115.584538836583760
 20
44.224299030742372
 11
-115.584538836583760
 21
58.724299030742372
  0
LINE
  8
0
  6
DASHED
 62
4
 10
-101.584538836583760
 20
44.224299030742372
 11
-101.584538836583760
 21
58.724299030742372
  0
CIRCLE
  8
0
  6
DASHED
 62
4
 10
-58.584538836583761
 20
44.224299030742372
 40
6.000000000000000
  0
ARC
  8
0
  6
DASHED
 62
4
 10
-58.584538836583761
 20
44.224299030742372
 40
7.000000000000000
 50
180.000000000000000
 51
0.000000000000000
  0
LINE
  8
0
  6
DASHED
 62
4
 10
-65.584538836583761
 20
44.224299030742372
 11
-65.584538836583761
 21
58.724299030742372
  0
LINE
  8
0
  6
DASHED
 62
4
 10
-51.584538836583761
 20
44.224299030742372
 11
-51.584538836583761
 21
58.724299030742372
  0
ARC
  8
0
  6
CONTINUOUS
 62
3
 10
342.649248554304680
 20
-143.864849169896840
 40
62.692927983299889
 50
15.321688456567145
 51
56.614043319659181
  0
ARC
  8
0
  6
DASHED
 62
3
 10
405.449248554304630
 20
-133.634200325138860
 40
18.800000000000004
 50
19.696801460675363
 51
35.808626813495749
  0
ARC
  8
0
  6
CONTINUOUS
 62
3
 10
407.449248554304630
 20
-173.634200325138860
 40
20.800000000000004
 50
319.008569186277780
 51
334.359929784105190
  0
INSERT
  8
0
  2
SYM2
 10
409.594070760648040
 20
-200.510656936399300
 41
-1.000000000000000
 42
1.000000000000000
 43
1.000000000000000
 50
2.862405226113666
  0
ARC
  8
0
  6
CONTINUOUS
 62
3
 10
407.449248554304630
 20
-173.634200325138860
 40
20.799999999999926
 50
334.359929784105190
 51
5.724810452223396
  0
POINT
  8
0
  6
DASHED
 62
3
 10
386.649248554304680
 20
-159.605430818264840
  0
ARC
  8
0
  6
DASHED
 62
3
 10
407.449248554304630
 20
-173.634200325138860
 40
20.800000000000040
 50
279.916536608230560
 51
319.008569186277780
  0
POINT
  8
0
  6
DASHED
 62
3
 10
386.649248554304680
 20
-159.605430818264840
  0
ARC
  8
0
  6
DASHED
 62
3
 10
407.449248554304630
 20
-173.634200325138860
 40
20.799999999999926
 50
334.359929784105190
 51
5.724810452223396
  0
ARC
  8
0
  6
DASHED
 62
3
 10
401.623493920217700
 20
-113.189063948001140
 40
1.999999999999958
 50
280.598785266065990
 51
2.862405226112724
  0
ARC
  8
0
  6
DASHED
 62
3
 10
407.216507017933510
 20
-112.909413293115330
 40
1.999999999999927
 50
182.862405226112710
 51
265.126025186159040
  0
ARC
  8
0
  6
DASHED
 62
3
 10
405.782701287921100
 20
-196.373211302068170
 40
1.999999999999927
 50
2.862405226112724
 51
85.808273843998350
  0
LINE
  8
0
  6
DASHED
 62
3
 10
403.951120045987860
 20
-103.671630158803620
 11
409.044756974264830
 21
-205.544368724343710
  0
ARC
  8
0
  6
DASHED
 62
3
 10
411.375714385636910
 20
-196.093560647182360
 40
1.999999999999995
 50
99.916536608232732
 51
182.862405226112400
  0
LINE
  8
0
  6
CONTINUOUS
 62
3
 10
428.145507905925570
 20
-171.559387357557850
 11
424.155482968269550
 21
-131.758888604440590
  0
ARC
  8
0
  6
DASHED
 62
3
 10
405.449248554304630
 20
-133.634200325138860
 40
18.799999999999933
 50
35.808626813495749
 51
85.126025186157264
  0
ARC
  8
0
  6
CONTINUOUS
 62
3
 10
405.449248554304630
 20
-133.634200325138860
 40
18.799999999999837
 50
5.724810452223617
 51
19.696801460675363
  0
LINE
  8
0
  6
DASHED
 62
3
 10
404.750121917090150
 20
-103.631680065248470
 11
403.152118174885570
 21
-103.711580252358650
  0
ARC
  8
0
  6
DASHED
 62
3
 10
398.607795413984600
 20
-108.945042489028760
 40
8.999999999999948
 50
346.260856815786500
 51
19.463936333592187
  0
POINT
  8
0
  6
DASHED
 62
3
 10
404.999810001809010
 20
-108.625441759637510
  0
LINE
  8
0
  6
DASHED
 62
3
 10
404.825028342505450
 20
-105.129808573565120
 11
405.174591661112570
 21
-112.121074945710000
  0
LINE
  8
0
  6
DASHED
 62
3
 10
404.825028342505450
 20
-105.129808573565120
 11
405.174591661112570
 21
-112.121074945710000
  0
LINE
  8
0
  6
DASHED
 62
3
 10
405.174591661112570
 20
-112.121074945710000
 11
406.152395473620350
 21
-112.072184755084660
  0
LINE
  8
0
  6
DASHED
 62
3
 10
404.825028342505450
 20
-105.129808573565120
 11
405.802832155012990
 21
-105.080918382939780
  0
ARC
  8
0
  6
DASHED
 62
3
 10
406.087476609692660
 20
-110.773807476531030
 40
1.299999237060550
 50
272.862387240019760
 51
346.260856815788600
  0
ARC
  8
0
  6
DASHED
 62
3
 10
405.867751018940680
 20
-106.379295661493300
 40
1.299999237060645
 50
19.463936333587132
 51
92.862405909348169
  0
LINE
  8
0
  6
DASHED
 62
3
 10
404.750121917090150
 20
-103.631680065248470
 11
409.843758845367120
 21
-205.504418630788450
  0
LINE
  8
0
  6
DASHED
 62
3
 10
408.245755103162540
 20
-205.584318817899430
 11
409.843758845367120
 21
-205.504418630788450
  0
LINE
  8
0
  6
DASHED
 62
3
 10
403.152118174885570
 20
-103.711580252358650
 11
408.245755103162540
 21
-205.584318817899430
  0
ARC
  8
0
  6
DASHED
 62
3
 10
405.449248554304630
 20
-133.634200325138860
 40
18.799999999999983
 50
100.598785266066050
 51
180.000000000000000
  0
ARC
  8
0
  6
DASHED
 62
3
 10
407.449248554304630
 20
-173.634200325138860
 40
20.799999999999862
 50
185.047316781007880
 51
265.808273843992540
  0
LINE
  8
0
  6
DASHED
 62
3
 10
386.649248554304680
 20
-175.464151128500480
 11
386.649248554304680
 21
-133.634200325138860
  0
LINE
  8
0
  6
DASHDOT
 62
4
 10
66.994001717741185
 20
-159.591700325138850
 11
-189.436877469530600
 21
-159.591700325138850
  0
LINE
  8
0
  6
CONTINUOUS
 62
3
 10
-121.084538836576480
 20
-159.591700325138850
 11
-121.084538836576480
 21
-189.091700325138850
  0
LINE
  8
0
  6
CONTINUOUS
 62
3
 10
-46.084538836576485
 20
-159.591700325138850
 11
-46.084538836576485
 21
-189.091700325138850
  0
LINE
  8
0
  6
CONTINUOUS
 62
3
 10
-48.084538836576485
 20
-191.091700325138850
 11
-119.084538836576480
 21
-191.091700325138850
  0
ARC
  8
0
  6
CONTINUOUS
 62
3
 10
-48.084538836576485
 20
-189.091700325138850
 40
2.000000000000000
 50
270.000000000000000
 51
0.000000000000000
  0
ARC
  8
0
  6
CONTINUOUS
 62
3
 10
-119.084538836576480
 20
-189.091700325138850
 40
2.000000000000000
 50
180.000000000000000
 51
270.000000000000000
  0
LINE
  8
0
  6
CONTINUOUS
 62
3
 10
-48.084538836576485
 20
-189.591700325138850
 11
-119.084538836576480
 21
-189.591700325138850
  0
ARC
  8
0
  6
CONTINUOUS
 62
3
 10
-119.084538836576480
 20
-188.591700325138850
 40
1.000000000000000
 50
180.000000000000000
 51
270.000000000000000
  0
ARC
  8
0
  6
CONTINUOUS
 62
3
 10
-48.084538836576485
 20
-188.591700325138850
 40
1.000000000000000
 50
270.000000000000000
 51
0.000000000000000
  0
LINE
  8
0
  6
CONTINUOUS
 62
3
 10
-123.084538836597630
 20
-159.591700325138850
 11
-123.084538836597630
 21
-194.591700325138850
  0
LINE
  8
0
  6
CONTINUOUS
 62
3
 10
-116.084538836597630
 20
-197.591700325138850
 11
-120.084538836597630
 21
-197.591700325138850
  0
ARC
  8
0
  6
CONTINUOUS
 62
3
 10
-120.084538836597630
 20
-194.591700325138850
 40
3.000000000000000
 50
180.000000000000000
 51
270.000000000000000
  0
LINE
  8
0
  6
CONTINUOUS
 62
3
 10
-113.084538836597630
 20
-213.591700325139070
 11
-113.084538836597630
 21
-200.591700325138850
  0
ARC
  8
0
  6
CONTINUOUS
 62
3
 10
-116.084538836597630
 20
-200.591700325138850
 40
3.000000000000000
 50
0.000000000000000
 51
90.000000000000000
  0
POLYLINE
  8
0
  6
CONTINUOUS
 62
3
 66
1
 70
1
  0
VERTEX
  8
0
  6
CONTINUOUS
 62
3
 10
-119.384538836597410
 20
-206.919031279486380
  0
VERTEX
  8
0
  6
CONTINUOUS
 62
3
 10
-119.474848018702230
 20
-206.216074313286010
  0
VERTEX
  8
0
  6
CONTINUOUS
 62
3
 10
-119.742305033794360
 20
-205.540131589073920
  0
VERTEX
  8
0
  6
CONTINUOUS
 62
3
 10
-120.176631658775440
 20
-204.917179206668520
  0
VERTEX
  8
0
  6
CONTINUOUS
 62
3
 10
-120.761136965020640
 20
-204.371156876769930
  0
VERTEX
  8
0
  6
CONTINUOUS
 62
3
 10
-121.473358741405270
 20
-203.923047931303300
  0
VERTEX
  8
0
  6
CONTINUOUS
 62
3
 10
-122.285926704481480
 20
-203.590072945740560
  0
VERTEX
  8
0
  6
CONTINUOUS
 62
3
 10
-123.167614323121590
 20
-203.385027962042300
  0
VERTEX
  8
0
  6
CONTINUOUS
 62
3
 10
-124.084538836597400
 20
-203.315792743941530
  0
VERTEX
  8
0
  6
CONTINUOUS
 62
3
 10
-125.001463350073200
 20
-203.385027962042300
  0
VERTEX
  8
0
  6
CONTINUOUS
 62
3
 10
-125.883150968713320
 20
-203.590072945740560
  0
VERTEX
  8
0
  6
CONTINUOUS
 62
3
 10
-126.695718931789520
 20
-203.923047931303300
  0
VERTEX
  8
0
  6
CONTINUOUS
 62
3
 10
-127.407940708174160
 20
-204.371156876769930
  0
VERTEX
  8
0
  6
CONTINUOUS
 62
3
 10
-127.992446014419350
 20
-204.917179206668520
  0
VERTEX
  8
0
  6
CONTINUOUS
 62
3
 10
-128.426772639400440
 20
-205.540131589073920
  0
VERTEX
  8
0
  6
CONTINUOUS
 62
3
 10
-128.694229654492570
 20
-206.216074313286010
  0
VERTEX
  8
0
  6
CONTINUOUS
 62
3
 10
-128.784538836597390
 20
-206.919031279486380
  0
VERTEX
  8
0
  6
CONTINUOUS
 62
3
 10
-128.694229654492570
 20
-207.621988245686740
  0
VERTEX
  8
0
  6
CONTINUOUS
 62
3
 10
-128.426772639400440
 20
-208.297930969898830
  0
VERTEX
  8
0
  6
CONTINUOUS
 62
3
 10
-127.992446014419350
 20
-208.920883352304230
  0
VERTEX
  8
0
  6
CONTINUOUS
 62
3
 10
-127.407940708174160
 20
-209.466905682202820
  0
VERTEX
  8
0
  6
CONTINUOUS
 62
3
 10
-126.695718931789520
 20
-209.915014627669450
  0
VERTEX
  8
0
  6
CONTINUOUS
 62
3
 10
-125.883150968713320
 20
-210.247989613232190
  0
VERTEX
  8
0
  6
CONTINUOUS
 62
3
 10
-125.001463350073200
 20
-210.453034596930450
  0
VERTEX
  8
0
  6
CONTINUOUS
 62
3
 10
-124.084538836597400
 20
-210.522269815031220
  0
VERTEX
  8
0
  6
CONTINUOUS
 62
3
 10
-123.167614323121590
 20
-210.453034596930450
  0
VERTEX
  8
0
  6
CONTINUOUS
 62
3
 10
-122.285926704481480
 20
-210.247989613232190
  0
VERTEX
  8
0
  6
CONTINUOUS
 62
3
 10
-121.473358741405270
 20
-209.915014627669450
  0
VERTEX
  8
0
  6
CONTINUOUS
 62
3
 10
-120.761136965020640
 20
-209.466905682202820
  0
VERTEX
  8
0
  6
CONTINUOUS
 62
3
 10
-120.176631658775440
 20
-208.920883352304230
  0
VERTEX
  8
0
  6
CONTINUOUS
 62
3
 10
-119.742305033794360
 20
-208.297930969898830
  0
VERTEX
  8
0
  6
CONTINUOUS
 62
3
 10
-119.474848018702230
 20
-207.621988245686740
  0
SEQEND
  8
0
  6
CONTINUOUS
 62
3
  0
LINE
  8
0
  6
CONTINUOUS
 62
3
 10
-126.084538836597630
 20
-209.911406833486810
 11
-124.084538836597850
 21
-208.735621347863910
  0
LINE
  8
0
  6
CONTINUOUS
 62
3
 10
-124.084538836597850
 20
-208.735621347863910
 11
-122.084538836597630
 21
-207.082979708740600
  0
LINE
  8
0
  6
CONTINUOUS
 62
3
 10
-122.084538836597630
 20
-209.911406833486810
 11
-124.084538836597850
 21
-208.735621347863910
  0
LINE
  8
0
  6
CONTINUOUS
 62
3
 10
-124.084538836597850
 20
-208.735621347863910
 11
-126.084538836597630
 21
-207.082979708740600
  0
LINE
  8
0
  6
CONTINUOUS
 62
4
 10
-123.084538836597630
 20
-188.348095875775930
 11
-121.084538836576480
 21
-188.348095875775930
  0
LINE
  8
0
  6
CONTINUOUS
 62
4
 10
-123.084538836597630
 20
-186.869072722298820
 11
-121.084538836576480
 21
-186.869072722298820
  0
LINE
  8
0
  6
CONTINUOUS
 62
4
 10
-123.084538836597630
 20
-183.776341730633590
 11
-121.084538836576480
 21
-183.776341730633590
  0
LINE
  8
0
  6
CONTINUOUS
 62
4
 10
-123.084538836597630
 20
-182.429940005134990
 11
-121.084538836576480
 21
-182.429940005134990
  0
LINE
  8
0
  6
CONTINUOUS
 62
4
 10
-123.084538836597630
 20
-179.591700325138850
 11
-121.084538836576480
 21
-179.591700325138850
  0
LINE
  8
0
  6
CONTINUOUS
 62
3
 10
-113.084538836597630
 20
-213.591700325139070
 11
-142.589383785690640
 21
-213.591700325139070
  0
ARC
  8
0
  6
CONTINUOUS
 62
3
 10
-142.589383785690640
 20
-192.991700325139050
 40
20.599999999999891
 50
235.000000000000400
 51
270.000000000000000
  0
ARC
  8
0
  6
CONTINUOUS
 62
3
 10
-160.484538836597950
 20
-202.435320458768390
 40
2.599999999999909
 50
180.000000000000000
 51
234.999999999997390
  0
LINE
  8
0
  6
CONTINUOUS
 62
3
 10
-163.084538836597860
 20
-202.435320458768390
 11
-163.084538836597860
 21
-159.591700325138850
  0
LINE
  8
0
  6
CONTINUOUS
 62
3
 10
-154.405058374522010
 20
-209.866232437492270
 11
-161.975837571110790
 21
-204.565115773919730
  0
LINE
  8
0
  6
CONTINUOUS
 62
3
 10
-120.084538836576480
 20
-159.591700325138850
 11
-120.084538836576480
 21
-188.591700325138850
  0
LINE
  8
0
  6
CONTINUOUS
 62
3
 10
-47.084538836576485
 20
-188.591700325138850
 11
-47.084538836576485
 21
-159.591700325138850
  0
LINE
  8
0
  6
CONTINUOUS
 62
3
 10
-123.084538836597630
 20
-159.591700325138850
 11
-123.084538836597630
 21
-124.591700325138840
  0
LINE
  8
0
  6
CONTINUOUS
 62
3
 10
-116.084538836597630
 20
-121.591700325138840
 11
-120.084538836597630
 21
-121.591700325138840
  0
ARC
  8
0
  6
CONTINUOUS
 62
3
 10
-120.084538836597630
 20
-124.591700325138840
 40
3.000000000000000
 50
90.000000000000000
 51
180.000000000000000
  0
LINE
  8
0
  6
CONTINUOUS
 62
3
 10
-113.084538836597630
 20
-105.591700325138610
 11
-113.084538836597630
 21
-118.591700325138840
  0
ARC
  8
0
  6
CONTINUOUS
 62
3
 10
-116.084538836597630
 20
-118.591700325138840
 40
3.000000000000000
 50
270.000000000000000
 51
0.000000000000000
  0
POLYLINE
  8
0
  6
CONTINUOUS
 62
3
 66
1
 70
1
  0
VERTEX
  8
0
  6
CONTINUOUS
 62
3
 10
-119.384538836597410
 20
-112.264369370791200
  0
VERTEX
  8
0
  6
CONTINUOUS
 62
3
 10
-119.474848018702230
 20
-111.561412404590840
  0
VERTEX
  8
0
  6
CONTINUOUS
 62
3
 10
-119.742305033794360
 20
-110.885469680378740
  0
VERTEX
  8
0
  6
CONTINUOUS
 62
3
 10
-120.176631658775440
 20
-110.262517297973340
  0
VERTEX
  8
0
  6
CONTINUOUS
 62
3
 10
-120.761136965020640
 20
-109.716494968074770
  0
VERTEX
  8
0
  6
CONTINUOUS
 62
3
 10
-121.473358741405270
 20
-109.268386022608150
  0
VERTEX
  8
0
  6
CONTINUOUS
 62
3
 10
-122.285926704481480
 20
-108.935411037045380
  0
VERTEX
  8
0
  6
CONTINUOUS
 62
3
 10
-123.167614323121590
 20
-108.730366053347140
  0
VERTEX
  8
0
  6
CONTINUOUS
 62
3
 10
-124.084538836597400
 20
-108.661130835246360
  0
VERTEX
  8
0
  6
CONTINUOUS
 62
3
 10
-125.001463350073200
 20
-108.730366053347140
  0
VERTEX
  8
0
  6
CONTINUOUS
 62
3
 10
-125.883150968713320
 20
-108.935411037045380
  0
VERTEX
  8
0
  6
CONTINUOUS
 62
3
 10
-126.695718931789520
 20
-109.268386022608150
  0
VERTEX
  8
0
  6
CONTINUOUS
 62
3
 10
-127.407940708174160
 20
-109.716494968074770
  0
VERTEX
  8
0
  6
CONTINUOUS
 62
3
 10
-127.992446014419350
 20
-110.262517297973340
  0
VERTEX
  8
0
  6
CONTINUOUS
 62
3
 10
-128.426772639400440
 20
-110.885469680378740
  0
VERTEX
  8
0
  6
CONTINUOUS
 62
3
 10
-128.694229654492570
 20
-111.561412404590840
  0
VERTEX
  8
0
  6
CONTINUOUS
 62
3
 10
-128.784538836597390
 20
-112.264369370791200
  0
VERTEX
  8
0
  6
CONTINUOUS
 62
3
 10
-128.694229654492570
 20
-112.967326336991560
  0
VERTEX
  8
0
  6
CONTINUOUS
 62
3
 10
-128.426772639400440
 20
-113.643269061203650
  0
VERTEX
  8
0
  6
CONTINUOUS
 62
3
 10
-127.992446014419350
 20
-114.266221443609050
  0
VERTEX
  8
0
  6
CONTINUOUS
 62
3
 10
-127.407940708174160
 20
-114.812243773507630
  0
VERTEX
  8
0
  6
CONTINUOUS
 62
3
 10
-126.695718931789520
 20
-115.260352718974240
  0
VERTEX
  8
0
  6
CONTINUOUS
 62
3
 10
-125.883150968713320
 20
-115.593327704537010
  0
VERTEX
  8
0
  6
CONTINUOUS
 62
3
 10
-125.001463350073200
 20
-115.798372688235260
  0
VERTEX
  8
0
  6
CONTINUOUS
 62
3
 10
-124.084538836597400
 20
-115.867607906336030
  0
VERTEX
  8
0
  6
CONTINUOUS
 62
3
 10
-123.167614323121590
 20
-115.798372688235260
  0
VERTEX
  8
0
  6
CONTINUOUS
 62
3
 10
-122.285926704481480
 20
-115.593327704537010
  0
VERTEX
  8
0
  6
CONTINUOUS
 62
3
 10
-121.473358741405270
 20
-115.260352718974240
  0
VERTEX
  8
0
  6
CONTINUOUS
 62
3
 10
-120.761136965020640
 20
-114.812243773507630
  0
VERTEX
  8
0
  6
CONTINUOUS
 62
3
 10
-120.176631658775440
 20
-114.266221443609050
  0
VERTEX
  8
0
  6
CONTINUOUS
 62
3
 10
-119.742305033794360
 20
-113.643269061203650
  0
VERTEX
  8
0
  6
CONTINUOUS
 62
3
 10
-119.474848018702230
 20
-112.967326336991560
  0
SEQEND
  8
0
  6
CONTINUOUS
 62
3
  0
LINE
  8
0
  6
CONTINUOUS
 62
3
 10
-126.084538836597630
 20
-109.271993816790880
 11
-124.084538836597850
 21
-110.447779302413660
  0
LINE
  8
0
  6
CONTINUOUS
 62
3
 10
-124.084538836597850
 20
-110.447779302413660
 11
-122.084538836597630
 21
-112.100420941537090
  0
LINE
  8
0
  6
CONTINUOUS
 62
3
 10
-122.084538836597630
 20
-109.271993816790880
 11
-124.084538836597850
 21
-110.447779302413660
  0
LINE
  8
0
  6
CONTINUOUS
 62
3
 10
-124.084538836597850
 20
-110.447779302413660
 11
-126.084538836597630
 21
-112.100420941537090
  0
ARC
  8
0
  6
CONTINUOUS
 62
3
 10
-142.589383785690640
 20
-126.191700325138640
 40
20.600000000000023
 50
90.000000000000000
 51
124.999999999999600
  0
ARC
  8
0
  6
CONTINUOUS
 62
3
 10
-160.484538836597950
 20
-116.748080191509300
 40
2.600000000000131
 50
125.000000000001180
 51
180.000000000000000
  0
LINE
  8
0
  6
CONTINUOUS
 62
3
 10
-163.084538836597860
 20
-116.748080191509300
 11
-163.084538836597860
 21
-159.591700325138850
  0
LINE
  8
0
  6
CONTINUOUS
 62
3
 10
-154.405058374522010
 20
-109.317168212785300
 11
-161.975837571110790
 21
-114.618284876357840
  0
LINE
  8
0
  6
CONTINUOUS
 62
3
 10
-113.084538836597630
 20
-105.591700325138610
 11
-142.589383785690640
 21
-105.591700325138610
  0
LINE
  8
0
  6
CONTINUOUS
 62
3
 10
-121.084538836576480
 20
-159.591700325138850
 11
-121.084538836576480
 21
-130.091700325138850
  0
LINE
  8
0
  6
CONTINUOUS
 62
3
 10
-46.084538836576485
 20
-159.591700325138850
 11
-46.084538836576485
 21
-130.091700325138850
  0
LINE
  8
0
  6
CONTINUOUS
 62
3
 10
-48.084538836576485
 20
-128.091700325138850
 11
-119.084538836576480
 21
-128.091700325138850
  0
ARC
  8
0
  6
CONTINUOUS
 62
3
 10
-48.084538836576485
 20
-130.091700325138850
 40
2.000000000000000
 50
0.000000000000000
 51
90.000000000000000
  0
ARC
  8
0
  6
CONTINUOUS
 62
3
 10
-119.084538836576480
 20
-130.091700325138850
 40
2.000000000000000
 50
90.000000000000000
 51
180.000000000000000
  0
LINE
  8
0
  6
CONTINUOUS
 62
4
 10
-123.084538836597630
 20
-139.591700325138850
 11
-121.084538836576480
 21
-139.591700325138850
  0
LINE
  8
0
  6
CONTINUOUS
 62
4
 10
-123.084538836597630
 20
-130.835304774501760
 11
-121.084538836576480
 21
-130.835304774501760
  0
LINE
  8
0
  6
CONTINUOUS
 62
4
 10
-123.084538836597630
 20
-132.314327927978870
 11
-121.084538836576480
 21
-132.314327927978870
  0
LINE
  8
0
  6
CONTINUOUS
 62
4
 10
-123.084538836597630
 20
-135.407058919644100
 11
-121.084538836576480
 21
-135.407058919644100
  0
LINE
  8
0
  6
CONTINUOUS
 62
4
 10
-123.084538836597630
 20
-136.753460645142700
 11
-121.084538836576480
 21
-136.753460645142700
  0
LINE
  8
0
  6
CONTINUOUS
 62
3
 10
-48.084538836576485
 20
-129.591700325138850
 11
-119.084538836576480
 21
-129.591700325138850
  0
LINE
  8
0
  6
CONTINUOUS
 62
3
 10
-120.084538836576480
 20
-159.591700325138850
 11
-120.084538836576480
 21
-130.591700325138850
  0
LINE
  8
0
  6
CONTINUOUS
 62
3
 10
-47.084538836576485
 20
-130.591700325138850
 11
-47.084538836576485
 21
-159.591700325138850
  0
ARC
  8
0
  6
CONTINUOUS
 62
3
 10
-119.084538836576480
 20
-130.591700325138850
 40
1.000000000000000
 50
90.000000000000000
 51
180.000000000000000
  0
ARC
  8
0
  6
CONTINUOUS
 62
3
 10
-48.084538836576485
 20
-130.591700325138850
 40
1.000000000000000
 50
0.000000000000000
 51
90.000000000000000
  0
LINE
  8
0
  6
CONTINUOUS
 62
4
 10
-46.084538836576485
 20
-130.835304774501760
 11
27.415461163423288
 21
-130.835304774501760
  0
LINE
  8
0
  6
CONTINUOUS
 62
4
 10
-46.084538836576485
 20
-132.314327927978870
 11
27.415461163423288
 21
-132.314327927978870
  0
LINE
  8
0
  6
CONTINUOUS
 62
4
 10
-46.084538836576485
 20
-135.407058919644100
 11
27.415461163423288
 21
-135.407058919644100
  0
LINE
  8
0
  6
CONTINUOUS
 62
4
 10
-46.084538836576485
 20
-136.753460645142700
 11
27.415461163423288
 21
-136.753460645142700
  0
LINE
  8
0
  6
CONTINUOUS
 62
4
 10
-46.084538836576485
 20
-139.591700325138850
 11
27.415461163423288
 21
-139.591700325138850
  0
LINE
  8
0
  6
CONTINUOUS
 62
4
 10
-113.242139182968910
 20
-119.551264918614370
 11
27.415461163423288
 21
-119.551264918614370
  0
LINE
  8
0
  6
CONTINUOUS
 62
4
 10
-113.084538836597630
 20
-115.087044798033950
 11
27.415461163423288
 21
-115.087044798033950
  0
LINE
  8
0
  6
CONTINUOUS
 62
4
 10
-123.084538836597630
 20
-127.877309166368830
 11
27.415461163423288
 21
-127.877309166368830
  0
LINE
  8
0
  6
CONTINUOUS
 62
4
 10
-123.084538836597630
 20
-126.288099373630070
 11
27.415461163423288
 21
-126.288099373630070
  0
LINE
  8
0
  6
CONTINUOUS
 62
4
 10
-113.084538836597630
 20
-118.549786554799080
 11
27.415461163423288
 21
-118.549786554799080
  0
LINE
  8
0
  6
CONTINUOUS
 62
4
 10
-113.084538836597630
 20
-113.458617730256150
 11
27.415461163423288
 21
-113.458617730256150
  0
LINE
  8
0
  6
CONTINUOUS
 62
4
 10
-113.084538836597630
 20
-108.591700325138730
 11
27.415461163423288
 21
-108.591700325138730
  0
LINE
  8
0
  6
CONTINUOUS
 62
4
 10
-113.084538836597630
 20
-109.091700325138840
 11
27.415461163423288
 21
-109.091700325138840
  0
LINE
  8
0
  6
CONTINUOUS
 62
3
 10
27.415461163423288
 20
-107.091700325138840
 11
-113.084538836597630
 21
-107.091700325138840
  0
LINE
  8
0
  6
CONTINUOUS
 62
4
 10
-123.084538836597630
 20
-191.306091483908860
 11
27.415461163423288
 21
-191.306091483908860
  0
LINE
  8
0
  6
CONTINUOUS
 62
4
 10
-123.084538836597630
 20
-192.895301276647500
 11
27.415461163423288
 21
-192.895301276647500
  0
LINE
  8
0
  6
CONTINUOUS
 62
4
 10
-113.242139182968910
 20
-199.632135731663200
 11
27.415461163423288
 21
-199.632135731663200
  0
LINE
  8
0
  6
CONTINUOUS
 62
4
 10
-113.084538836597630
 20
-200.633614095478490
 11
27.415461163423288
 21
-200.633614095478490
  0
LINE
  8
0
  6
CONTINUOUS
 62
4
 10
-113.084538836597630
 20
-204.096355852243730
 11
27.415461163423288
 21
-204.096355852243730
  0
LINE
  8
0
  6
CONTINUOUS
 62
4
 10
-113.084538836597630
 20
-205.724782920021540
 11
27.415461163423288
 21
-205.724782920021540
  0
LINE
  8
0
  6
CONTINUOUS
 62
4
 10
-113.084538836597630
 20
-210.591700325138850
 11
27.415461163422378
 21
-210.591700325138850
  0
LINE
  8
0
  6
CONTINUOUS
 62
4
 10
-113.084538836597630
 20
-210.091700325138850
 11
27.415461163422378
 21
-210.091700325138850
  0
LINE
  8
0
  6
CONTINUOUS
 62
3
 10
27.415461163422378
 20
-212.091700325138850
 11
-113.084538836597630
 21
-212.091700325138850
  0
LINE
  8
0
  6
CONTINUOUS
 62
4
 10
-46.084538836576485
 20
-188.348095875775930
 11
27.415461163423288
 21
-188.348095875775930
  0
LINE
  8
0
  6
CONTINUOUS
 62
4
 10
-46.084538836576485
 20
-186.869072722298820
 11
27.415461163423288
 21
-186.869072722298820
  0
LINE
  8
0
  6
CONTINUOUS
 62
4
 10
-46.084538836576485
 20
-183.776341730633590
 11
27.415461163423288
 21
-183.776341730633590
  0
LINE
  8
0
  6
CONTINUOUS
 62
4
 10
-46.084538836576485
 20
-182.429940005134990
 11
27.415461163423288
 21
-182.429940005134990
  0
LINE
  8
0
  6
CONTINUOUS
 62
4
 10
-46.084538836576485
 20
-179.591700325138850
 11
27.415461163423288
 21
-179.591700325138850
  0
ARC
  8
0
  6
CONTINUOUS
 62
3
 10
256.077958602276110
 20
-128.091700325138850
 40
2.999999999999927
 50
164.678311543428240
 51
270.000000000000000
  0
LINE
  8
0
  6
CONTINUOUS
 62
3
 10
251.345928313575540
 20
-136.091700325138850
 11
290.549381533263390
 21
-136.091700325138850
  0
LINE
  8
0
  6
CONTINUOUS
 62
3
 10
251.345928313575540
 20
-131.091700325138850
 11
290.549381533263390
 21
-131.091700325138850
  0
LINE
  8
0
  6
CONTINUOUS
 62
3
 10
251.063445488729710
 20
-190.878513517490320
 11
233.735034991931800
 21
-208.206924014288230
  0
LINE
  8
0
  6
DASHDOT
 62
4
 10
221.354393575529680
 20
-133.591700325138850
 11
435.138482868932210
 21
-133.591700325138850
  0
LINE
  8
0
  6
CONTINUOUS
 62
3
 10
250.956320571004880
 20
-154.192900223806650
 11
250.956320571004880
 21
-143.864849169896840
  0
ARC
  8
0
  6
CONTINUOUS
 62
3
 10
304.262626184470950
 20
-186.444602532689710
 40
27.000000000000110
 50
101.549996895618790
 51
184.263738012298520
  0
ARC
  8
0
  6
CONTINUOUS
 62
3
 10
237.501578975876100
 20
-141.591700325138850
 40
2.999999999999949
 50
5.043502368943697
 51
90.000000000000000
  0
ARC
  8
0
  6
CONTINUOUS
 62
3
 10
237.501578975875870
 20
-125.591700325138840
 40
3.000000000000000
 50
270.000000000000000
 51
354.956497631056660
  0
ARC
  8
0
  6
CONTINUOUS
 62
3
 10
274.345654569147650
 20
-188.675030601007170
 40
2.999999999999730
 50
225.673360121561220
 51
4.263738012311998
  0
ARC
  8
0
  6
CONTINUOUS
 62
3
 10
243.992377676864180
 20
-183.807445705624560
 40
10.000000000000242
 50
314.999999999999090
 51
30.824196484129473
  0
ARC
  8
0
  6
CONTINUOUS
 62
3
 10
328.149248554304680
 20
-133.591700325138850
 40
88.000000000000213
 50
149.175803515866870
 51
174.956497631052430
  0
ARC
  8
0
  6
CONTINUOUS
 62
3
 10
251.345928313575540
 20
-139.091700325138850
 40
3.000000000000000
 50
90.000000000000000
 51
184.096043758145020
  0
ARC
  8
0
  6
CONTINUOUS
 62
3
 10
251.345928313575540
 20
-128.091700325138850
 40
2.999999999999968
 50
175.903956241837680
 51
270.000000000000000
  0
ARC
  8
0
  6
CONTINUOUS
 62
3
 10
328.149248554304680
 20
-133.591700325138850
 40
87.999999999999858
 50
185.043502368947570
 51
210.824196484133130
  0
ARC
  8
0
  6
CONTINUOUS
 62
3
 10
313.649248554304680
 20
-143.864849169896840
 40
62.692927983300045
 50
175.413634931334310
 51
180.000000000000000
  0
ARC
  8
0
  6
CONTINUOUS
 62
3
 10
313.649248554304680
 20
-143.864849169896840
 40
62.692927983299832
 50
123.385956680340820
 51
164.678311543432840
  0
ARC
  8
0
  6
CONTINUOUS
 62
3
 10
328.149248554304680
 20
-133.591700325138850
 40
41.999999999999993
 50
183.412480210152720
 51
220.223497577760330
  0
ARC
  8
0
  6
CONTINUOUS
 62
3
 10
254.147461175056830
 20
-139.091700325138850
 40
3.000000000000000
 50
90.000000000000000
 51
175.413634931327380
  0
ARC
  8
0
  6
CONTINUOUS
 62
3
 10
253.956320571004880
 20
-154.192900223806650
 40
3.000000000000000
 50
180.000000000000000
 51
195.518413527626140
  0
ARC
  8
0
  6
CONTINUOUS
 62
3
 10
328.149248554304680
 20
-133.591700325138850
 40
42.000000000000107
 50
138.412480210152180
 51
176.587519789847280
  0
CIRCLE
  8
0
  6
CONTINUOUS
 62
3
 10
328.149248554304680
 20
-133.591700325138850
 40
80.000000000000000
  0
LINE
  8
0
  6
DASHED
 62
3
 10
240.649248554304680
 20
-162.091700325138850
 11
240.649248554304680
 21
-157.091700325138850
  0
LINE
  8
0
  6
DASHED
 62
3
 10
240.649248554304680
 20
-162.091700325138850
 11
241.159665401822510
 21
-162.091700325138850
  0
LINE
  8
0
  6
DASHED
 62
3
 10
240.649248554304680
 20
-157.091700325138850
 11
241.159665401822510
 21
-157.091700325138850
  0
ARC
  8
0
  6
DASHED
 62
3
 10
541.149248554304680
 20
-159.591700325138850
 40
300.000000000000060
 50
175.138594604201960
 51
180.000000000000000
  0
LINE
  8
0
  6
DASHED
 62
3
 10
274.649248554304680
 20
-178.341700325138850
 11
274.649248554304680
 21
-140.841700325138850
  0
LINE
  8
0
  6
DASHED
 62
3
 10
274.149248554304680
 20
-140.841700325138850
 11
274.649248554304680
 21
-140.841700325138850
  0
LINE
  8
0
  6
DASHED
 62
3
 10
247.210479420323280
 20
-129.591700325138850
 11
270.649248554304680
 21
-129.591700325138850
  0
ARC
  8
0
  6
DASHED
 62
3
 10
247.210479420323280
 20
-134.591700325138850
 40
5.000000000000000
 50
90.000000000000000
 51
175.138594604201470
  0
ARC
  8
0
  6
DASHED
 62
3
 10
247.210479420323280
 20
-184.591700325138850
 40
5.000000000000006
 50
184.861405395798530
 51
270.000000000000000
  0
LINE
  8
0
  6
DASHED
 62
3
 10
247.210479420323280
 20
-189.591700325138850
 11
270.649248554304680
 21
-189.591700325138850
  0
ARC
  8
0
  6
DASHED
 62
3
 10
541.149248554304680
 20
-159.591700325138850
 40
300.000000000000000
 50
180.000000000000000
 51
184.861405395798040
  0
LINE
  8
0
  6
DASHED
 62
3
 10
275.649248554304680
 20
-191.091700325138850
 11
270.649248554304680
 21
-191.091700325138850
  0
LINE
  8
0
  6
DASHED
 62
3
 10
275.649248554304680
 20
-180.091700325138850
 11
275.649248554304680
 21
-191.091700325138850
  0
LINE
  8
0
  6
DASHED
 62
3
 10
270.649248554304680
 20
-191.091700325138850
 11
270.649248554304680
 21
-128.091700325138850
  0
LINE
  8
0
  6
DASHED
 62
3
 10
275.649248554304680
 20
-128.091700325138850
 11
270.649248554304680
 21
-128.091700325138850
  0
ARC
  8
0
  6
DASHED
 62
3
 10
274.349248554304670
 20
-139.291700325138890
 40
0.200000000000045
 50
90.000000000000000
 51
180.000000000000000
  0
LINE
  8
0
  6
DASHED
 62
3
 10
275.649248554304680
 20
-139.091700325138850
 11
274.349248554304670
 21
-139.091700325138850
  0
LINE
  8
0
  6
DASHED
 62
3
 10
275.649248554304680
 20
-139.091700325138850
 11
275.649248554304680
 21
-128.091700325138850
  0
ARC
  8
0
  6
DASHED
 62
3
 10
274.349248554304670
 20
-179.891700325138860
 40
0.199999999999989
 50
180.000000000000000
 51
270.000000000000000
  0
LINE
  8
0
  6
DASHED
 62
3
 10
274.149248554304680
 20
-159.591700325138850
 11
274.149248554304680
 21
-179.891700325138860
  0
LINE
  8
0
  6
DASHED
 62
3
 10
275.649248554304680
 20
-180.091700325138850
 11
274.349248554304670
 21
-180.091700325138850
  0
LINE
  8
0
  6
DASHED
 62
3
 10
274.149248554304680
 20
-159.591700325138850
 11
274.149248554304680
 21
-139.291700325138890
  0
LINE
  8
0
  6
DASHED
 62
3
 10
274.149248554304680
 20
-178.341700325138850
 11
274.649248554304680
 21
-178.341700325138850
  0
ARC
  8
0
  6
CONTINUOUS
 62
3
 10
342.649248554304680
 20
-143.864849169896840
 40
62.692927983299946
 50
52.533621004832987
 51
56.614043319659004
  0
LINE
  8
0
  6
CONTINUOUS
 62
3
 10
188.915461163416470
 20
-129.591700325138850
 11
156.915461163416470
 21
-129.591700325138850
  0
LINE
  8
0
  6
CONTINUOUS
 62
3
 10
188.915461163416470
 20
-137.591700325138850
 11
156.915461163416470
 21
-137.591700325138850
  0
ARC
  8
0
  6
CONTINUOUS
 62
3
 10
156.915461163416470
 20
-133.591700325138850
 40
4.000000000000000
 50
90.000000000000000
 51
270.000000000000000
  0
ARC
  8
0
  6
CONTINUOUS
 62
3
 10
188.515461163415920
 20
-147.191700325139210
 40
0.399999999999636
 50
270.000000000000000
 51
0.000000000000000
  0
LINE
  8
0
  6
CONTINUOUS
 62
3
 10
188.515461163415920
 20
-147.591700325138850
 11
149.475268784550960
 21
-147.591700325138850
  0
LINE
  8
0
  6
CONTINUOUS
 62
3
 10
188.915461163416010
 20
-147.191700325139210
 11
188.915461163416010
 21
-133.591700325138850
  0
ARC
  8
0
  6
CONTINUOUS
 62
3
 10
188.515461163415920
 20
-119.991700325138480
 40
0.400000000000091
 50
0.000000000000000
 51
90.000000000000000
  0
LINE
  8
0
  6
CONTINUOUS
 62
3
 10
188.515461163415920
 20
-119.591700325138840
 11
149.475268784550960
 21
-119.591700325138840
  0
LINE
  8
0
  6
CONTINUOUS
 62
3
 10
188.915461163416010
 20
-119.991700325138480
 11
188.915461163416010
 21
-133.591700325138850
  0
LINE
  8
0
  6
CONTINUOUS
 62
3
 10
148.915461163416010
 20
-119.741700325138480
 11
147.315461163415650
 21
-119.741700325138480
  0
LINE
  8
0
  6
CONTINUOUS
 62
3
 10
149.475268784550960
 20
-119.591700325138840
 11
148.915461163416010
 21
-119.741700325138480
  0
ARC
  8
0
  6
CONTINUOUS
 62
3
 10
147.315461163415650
 20
-119.341700325138840
 40
0.399999999999636
 50
180.000000000000000
 51
270.000000000000000
  0
LINE
  8
0
  6
CONTINUOUS
 62
3
 10
146.915461163416010
 20
-119.291700325138660
 11
146.715461163415740
 21
-119.091700325138840
  0
LINE
  8
0
  6
CONTINUOUS
 62
3
 10
146.915461163416010
 20
-133.591700325138850
 11
146.915461163416010
 21
-119.291700325138660
  0
LINE
  8
0
  6
CONTINUOUS
 62
3
 10
146.715461163415740
 20
-119.091700325138840
 11
144.915461163415560
 21
-119.091700325138840
  0
LINE
  8
0
  6
CONTINUOUS
 62
3
 10
148.915461163416010
 20
-147.441700325139210
 11
147.315461163415650
 21
-147.441700325139210
  0
LINE
  8
0
  6
CONTINUOUS
 62
3
 10
149.475268784550960
 20
-147.591700325138850
 11
148.915461163416010
 21
-147.441700325139210
  0
ARC
  8
0
  6
CONTINUOUS
 62
3
 10
147.315461163415650
 20
-147.841700325138850
 40
0.399999999999636
 50
90.000000000000000
 51
180.000000000000000
  0
LINE
  8
0
  6
CONTINUOUS
 62
3
 10
146.915461163416010
 20
-147.891700325139030
 11
146.715461163415740
 21
-148.091700325138850
  0
LINE
  8
0
  6
CONTINUOUS
 62
3
 10
146.915461163416010
 20
-133.591700325138850
 11
146.915461163416010
 21
-147.891700325139030
  0
LINE
  8
0
  6
CONTINUOUS
 62
3
 10
146.715461163415740
 20
-148.091700325138850
 11
144.915461163415560
 21
-148.091700325138850
  0
ARC
  8
0
  6
CONTINUOUS
 62
3
 10
132.915461163416010
 20
-237.496756887839180
 40
0.500000000000234
 50
268.999999999998690
 51
0.000000000000000
  0
ARC
  8
0
  6
CONTINUOUS
 62
3
 10
143.915461163416010
 20
-160.091700325138850
 40
1.000000000000000
 50
270.000000000000000
 51
0.000000000000000
  0
ARC
  8
0
  6
CONTINUOUS
 62
3
 10
143.915461163416010
 20
-107.091700325138840
 40
1.000000000000000
 50
0.000000000000000
 51
90.000000000000000
  0
LINE
  8
0
  6
CONTINUOUS
 62
3
 10
143.915461163416010
 20
-161.091700325138850
 11
143.863125207172970
 21
-161.146850915665710
  0
LINE
  8
0
  6
CONTINUOUS
 62
3
 10
143.915461163416010
 20
-106.091700325138840
 11
143.863125207172970
 21
-106.036549734612890
  0
LINE
  8
0
  6
CONTINUOUS
 62
3
 10
132.906734960197350
 20
-237.996680735416700
 11
53.415461163416012
 21
-236.609155390066920
  0
LINE
  8
0
  6
CONTINUOUS
 62
3
 10
139.865180905041140
 20
-228.683428626603930
 11
140.415461163416010
 21
-228.103554226993770
  0
LINE
  8
0
  6
CONTINUOUS
 62
3
 10
139.865180905041140
 20
-38.499972023674673
 11
140.415461163416010
 21
-39.079846423284835
  0
LINE
  8
0
  6
CONTINUOUS
 62
3
 10
139.865180905041140
 20
-38.499972023674673
 11
130.520133075901870
 21
-38.010218819656075
  0
LINE
  8
0
  6
CONTINUOUS
 62
3
 10
144.915461163416010
 20
-133.591700325138850
 11
144.915461163416010
 21
-160.091700325138850
  0
LINE
  8
0
  6
CONTINUOUS
 62
3
 10
144.915461163416010
 20
-133.591700325138850
 11
144.915461163416010
 21
-107.091700325138840
  0
ARC
  8
0
  6
CONTINUOUS
 62
3
 10
104.938784124410170
 20
-71.754497749582697
 40
5.000000000000146
 50
272.000000000000970
 51
330.000000000000110
  0
LINE
  8
0
  6
CONTINUOUS
 62
3
 10
127.750574267866790
 20
-42.243318209516474
 11
109.268911143332380
 21
-74.254497749582697
  0
ARC
  8
0
  6
CONTINUOUS
 62
3
 10
130.415461163416010
 20
-40.007477889164875
 40
2.000000000000025
 50
177.837310087963030
 51
180.000000000000000
  0
LINE
  8
0
  6
CONTINUOUS
 62
3
 10
53.415461163416012
 20
-236.609155390066920
 11
53.415461163416012
 21
-78.556779555647154
  0
LINE
  8
0
  6
CONTINUOUS
 62
3
 10
143.415461163416010
 20
-48.591700325138845
 11
140.415461163416010
 21
-48.591700325138845
  0
LINE
  8
0
  6
CONTINUOUS
 62
3
 10
143.415461163416010
 20
-218.591700325138850
 11
140.415461163416010
 21
-218.591700325138850
  0
ARC
  8
0
  6
CONTINUOUS
 62
3
 10
123.420447248944580
 20
-39.743318209516474
 40
5.000000000000016
 50
330.000000000000110
 51
357.837310087936940
  0
ARC
  8
0
  6
CONTINUOUS
 62
3
 10
143.915461163416010
 20
-105.037920199858490
 40
0.999999999999688
 50
239.999999999989710
 51
266.999999999993860
  0
ARC
  8
0
  6
CONTINUOUS
 62
3
 10
143.915461163416010
 20
-162.145480450420110
 40
0.999999999999832
 50
93.000000000006111
 51
120.000000000010300
  0
LINE
  8
0
  6
CONTINUOUS
 62
3
 10
143.415461163416010
 20
-48.591700325138845
 11
143.415461163416010
 21
-133.591700325138850
  0
LINE
  8
0
  6
CONTINUOUS
 62
3
 10
143.415461163416010
 20
-218.591700325138850
 11
143.415461163416010
 21
-133.591700325138850
  0
LINE
  8
0
  6
CONTINUOUS
 62
3
 10
139.865180905041140
 20
-228.683428626603930
 11
130.520133075901870
 21
-229.173181830622530
  0
LINE
  8
0
  6
CONTINUOUS
 62
3
 10
133.415461163416010
 20
-229.021444115260240
 11
133.415461163416010
 21
-237.496756887839180
  0
LINE
  8
0
  6
CONTINUOUS
 62
3
 10
128.415461163416010
 20
-40.007477889164875
 11
128.415461163416010
 21
-227.175922761112820
  0
ARC
  8
0
  6
CONTINUOUS
 62
3
 10
130.415461163416010
 20
-227.175922761112820
 40
2.000000000000000
 50
180.000000000000000
 51
272.999999999999600
  0
ARC
  8
0
  6
CONTINUOUS
 62
3
 10
130.415461163416010
 20
-40.007477889164875
 40
1.999999999999651
 50
87.000000000000398
 51
180.000000000000000
  0
LINE
  8
0
  6
CONTINUOUS
 62
3
 10
140.415461163416010
 20
-39.079846423284835
 11
140.415461163416010
 21
-133.591700325138850
  0
LINE
  8
0
  6
CONTINUOUS
 62
3
 10
140.415461163416010
 20
-228.103554226993770
 11
140.415461163416010
 21
-133.591700325138850
  0
LINE
  8
0
  6
DASHDOT
 62
4
 10
151.033913574029840
 20
-50.506653535719124
 11
118.558452873666510
 21
-50.506653535719124
  0
LINE
  8
0
  6
DASHDOT
 62
4
 10
151.033913574029840
 20
-216.676747114558570
 11
118.558452873666510
 21
-216.676747114558570
  0
ARC
  8
0
  6
CONTINUOUS
 62
3
 10
135.415461163416010
 20
-126.591700325138840
 40
2.000000000000000
 50
180.000000000000000
 51
270.000000000000000
  0
ARC
  8
0
  6
CONTINUOUS
 62
3
 10
135.415461163416010
 20
-84.058305048120019
 40
2.000000000000000
 50
90.000000000000000
 51
180.000000000000000
  0
LINE
  8
0
  6
CONTINUOUS
 62
3
 10
133.415461163416010
 20
-60.390690198361881
 11
133.415461163416010
 21
-126.591700325138840
  0
ARC
  8
0
  6
CONTINUOUS
 62
3
 10
135.415461163416010
 20
-60.390690198361881
 40
2.000000000000000
 50
90.000000000000000
 51
180.000000000000000
  0
LINE
  8
0
  6
CONTINUOUS
 62
3
 10
140.415461163416010
 20
-58.390690198361881
 11
135.415461163416010
 21
-58.390690198361881
  0
LINE
  8
0
  6
CONTINUOUS
 62
3
 10
140.415461163416010
 20
-82.058305048120019
 11
135.415461163416010
 21
-82.058305048120019
  0
LINE
  8
0
  6
CONTINUOUS
 62
3
 10
140.415461163416010
 20
-128.591700325138850
 11
135.415461163416010
 21
-128.591700325138850
  0
ARC
  8
0
  6
CONTINUOUS
 62
3
 10
135.415461163416010
 20
-140.591700325138850
 40
2.000000000000000
 50
90.000000000000000
 51
180.000000000000000
  0
ARC
  8
0
  6
CONTINUOUS
 62
3
 10
135.415461163416010
 20
-183.125095602157670
 40
2.000000000000000
 50
180.000000000000000
 51
270.000000000000000
  0
LINE
  8
0
  6
CONTINUOUS
 62
3
 10
133.415461163416010
 20
-206.792710451915810
 11
133.415461163416010
 21
-140.591700325138850
  0
ARC
  8
0
  6
CONTINUOUS
 62
3
 10
135.415461163416010
 20
-206.792710451915810
 40
2.000000000000000
 50
180.000000000000000
 51
270.000000000000000
  0
LINE
  8
0
  6
CONTINUOUS
 62
3
 10
140.415461163416010
 20
-208.792710451915810
 11
135.415461163416010
 21
-208.792710451915810
  0
LINE
  8
0
  6
CONTINUOUS
 62
3
 10
140.415461163416010
 20
-185.125095602157670
 11
135.415461163416010
 21
-185.125095602157670
  0
LINE
  8
0
  6
CONTINUOUS
 62
3
 10
140.415461163416010
 20
-138.591700325138850
 11
135.415461163416010
 21
-138.591700325138850
  0
ARC
  8
0
  6
CONTINUOUS
 62
3
 10
106.054873622843610
 20
-83.527578758120399
 40
5.000000000000000
 50
270.000000000000000
 51
310.170179485510800
  0
LINE
  8
0
  6
CONTINUOUS
 62
3
 10
109.280173974501390
 20
-87.348238078394388
 11
126.640761515073790
 21
-72.692885584003307
  0
ARC
  8
0
  6
CONTINUOUS
 62
3
 10
123.415461163416010
 20
-68.872226263729317
 40
5.000000000000030
 50
310.170179485510800
 51
0.000000000000000
  0
ARC
  8
0
  6
CONTINUOUS
 62
3
 10
106.054873622843610
 20
-78.749404165068881
 40
5.000000000000000
 50
270.000000000000000
 51
310.170179485510800
  0
LINE
  8
0
  6
CONTINUOUS
 62
3
 10
109.280173974501390
 20
-82.570063485342871
 11
126.640761515073790
 21
-67.914710990951789
  0
ARC
  8
0
  6
CONTINUOUS
 62
3
 10
123.415461163416010
 20
-64.094051670677800
 40
5.000000000000030
 50
310.170179485510800
 51
0.000000000000000
  0
LINE
  8
0
  6
CONTINUOUS
 62
3
 10
53.415461163416012
 20
-78.556779555647154
 11
116.650085168924070
 21
-76.348577826852306
  0
LINE
  8
0
  6
CONTINUOUS
 62
3
 10
110.345719499987580
 20
-88.527578758120399
 11
126.176269132284910
 21
-88.527578758120399
  0
LINE
  8
0
  6
CONTINUOUS
 62
3
 10
146.915461163416010
 20
-133.591700325138850
 11
146.915461163416010
 21
-121.991700325139390
  0
LINE
  8
0
  6
CONTINUOUS
 62
3
 10
146.915461163416010
 20
-133.591700325138850
 11
146.915461163416010
 21
-145.191700325139210
  0
LINE
  8
0
  6
DASHDOT
 62
4
 10
203.686829994867140
 20
-133.591700325138850
 11
42.701106383694423
 21
-133.591700325138850
  0
LINE
  8
0
  6
CONTINUOUS
 62
3
 10
42.915461163422378
 20
-166.591700325137940
 11
45.915461163422378
 21
-166.591700325137940
  0
ARC
  8
0
  6
CONTINUOUS
 62
3
 10
42.915461163422378
 20
-167.591700325137940
 40
1.000000000000000
 50
90.000000000000000
 51
180.000000000000000
  0
ARC
  8
0
  6
CONTINUOUS
 62
3
 10
45.915461163422378
 20
-165.591700325137940
 40
1.000000000000000
 50
270.000000000000000
 51
0.000000000000000
  0
ARC
  8
0
  6
CONTINUOUS
 62
3
 10
40.915461163423288
 20
-134.591700325139750
 40
2.000000000000290
 50
104.477512185954690
 51
180.000000000000000
  0
ARC
  8
0
  6
CONTINUOUS
 62
3
 10
39.915461163422378
 20
-130.718716978933120
 40
1.999999999999183
 50
284.477512185936010
 51
0.000000000000000
  0
ARC
  8
0
  6
CONTINUOUS
 62
3
 10
40.915461163423288
 20
-146.591700325139750
 40
2.000000000000000
 50
180.000000000000000
 51
255.522487814045290
  0
LINE
  8
0
  6
CONTINUOUS
 62
3
 10
38.915461163423288
 20
-146.591700325139750
 11
38.915461163423288
 21
-134.591700325139750
  0
ARC
  8
0
  6
CONTINUOUS
 62
3
 10
39.915461163422378
 20
-150.464683671347300
 40
2.000000000000000
 50
0.000000000000000
 51
75.522487814070544
  0
LINE
  8
0
  6
CONTINUOUS
 62
3
 10
42.915461163422378
 20
-152.591700325139750
 11
45.915461163422378
 21
-152.591700325139750
  0
LINE
  8
0
  6
CONTINUOUS
 62
3
 10
46.915461163422378
 20
-165.591700325137940
 11
46.915461163422378
 21
-153.591700325139750
  0
ARC
  8
0
  6
CONTINUOUS
 62
3
 10
42.915461163422378
 20
-151.591700325139750
 40
1.000000000000000
 50
180.000000000000000
 51
270.000000000000000
  0
ARC
  8
0
  6
CONTINUOUS
 62
3
 10
45.915461163422378
 20
-153.591700325139750
 40
1.000000000000000
 50
0.000000000000000
 51
90.000000000000000
  0
LINE
  8
0
  6
CONTINUOUS
 62
3
 10
28.415461163423288
 20
-179.591700325138850
 11
41.915461163422378
 21
-179.591700325138850
  0
ARC
  8
0
  6
CONTINUOUS
 62
3
 10
36.915461163423288
 20
-215.856653817822010
 40
5.000000000000000
 50
0.000000000000000
 51
88.000000000006835
  0
LINE
  8
0
  6
CONTINUOUS
 62
3
 10
29.415461163423288
 20
-210.591700325139750
 11
37.089958646935202
 21
-210.859699682726390
  0
ARC
  8
0
  6
CONTINUOUS
 62
3
 10
36.915461163423288
 20
-103.326746832456590
 40
5.000000000000122
 50
271.999999999993180
 51
0.000000000000000
  0
LINE
  8
0
  6
CONTINUOUS
 62
3
 10
46.915461163424197
 20
-91.985713345703516
 11
46.915461163424197
 21
-83.182193585040295
  0
LINE
  8
0
  6
CONTINUOUS
 62
3
 10
42.915461163424197
 20
-92.985713345703516
 11
45.915461163424197
 21
-92.985713345703516
  0
ARC
  8
0
  6
CONTINUOUS
 62
3
 10
42.915461163424197
 20
-93.985713345703516
 40
1.000000000000000
 50
90.000000000000000
 51
180.000000000000000
  0
ARC
  8
0
  6
CONTINUOUS
 62
3
 10
45.915461163424197
 20
-91.985713345703516
 40
1.000000000000000
 50
270.000000000000000
 51
0.000000000000000
  0
LINE
  8
0
  6
CONTINUOUS
 62
3
 10
42.915461163424197
 20
-82.182193585040295
 11
45.915461163424197
 21
-82.182193585040295
  0
ARC
  8
0
  6
CONTINUOUS
 62
3
 10
42.915461163424197
 20
-81.182193585040295
 40
1.000000000000000
 50
180.000000000000000
 51
270.000000000000000
  0
ARC
  8
0
  6
CONTINUOUS
 62
3
 10
45.915461163424197
 20
-83.182193585040295
 40
1.000000000000000
 50
0.000000000000000
 51
90.000000000000000
  0
LINE
  8
0
  6
CONTINUOUS
 62
3
 10
29.415461163423288
 20
-108.591700325138840
 11
37.089958646935202
 21
-108.323700967552210
  0
ARC
  8
0
  6
CONTINUOUS
 62
3
 10
27.415461163423288
 20
-111.933412453277010
 40
1.000000000000000
 50
270.000000000000000
 51
0.000000000000000
  0
ARC
  8
0
  6
CONTINUOUS
 62
3
 10
29.415461163423288
 20
-109.591700325138840
 40
1.000000000000000
 50
90.000000000000000
 51
180.000000000000000
  0
LINE
  8
0
  6
CONTINUOUS
 62
3
 10
28.415461163423288
 20
-111.933412453277010
 11
28.415461163423288
 21
-109.591700325138840
  0
LINE
  8
0
  6
CONTINUOUS
 62
3
 10
42.915461163422378
 20
-225.569573050594950
 11
45.915461163422378
 21
-225.569573050594950
  0
ARC
  8
0
  6
CONTINUOUS
 62
3
 10
42.915461163422378
 20
-224.569573050594950
 40
1.000000000000000
 50
180.000000000000000
 51
270.000000000000000
  0
ARC
  8
0
  6
CONTINUOUS
 62
3
 10
45.915461163422378
 20
-226.569573050594950
 40
1.000000000000000
 50
0.000000000000000
 51
90.000000000000000
  0
LINE
  8
0
  6
CONTINUOUS
 62
3
 10
28.415461163423288
 20
-139.591700325138850
 11
38.915461163423288
 21
-139.591700325138850
  0
ARC
  8
0
  6
CONTINUOUS
 62
3
 10
27.415461163423288
 20
-121.332357903609590
 40
1.000000000000000
 50
0.000000000000000
 51
90.000000000000000
  0
LINE
  8
0
  6
CONTINUOUS
 62
3
 10
28.415461163423288
 20
-159.591700325138850
 11
28.415461163423288
 21
-121.332357903609590
  0
ARC
  8
0
  6
CONTINUOUS
 62
3
 10
27.415461163423288
 20
-207.249988197001580
 40
1.000000000000000
 50
0.000000000000000
 51
90.000000000000000
  0
ARC
  8
0
  6
CONTINUOUS
 62
3
 10
29.415461163423288
 20
-209.591700325139750
 40
1.000000000000000
 50
180.000000000000000
 51
270.000000000000000
  0
LINE
  8
0
  6
CONTINUOUS
 62
3
 10
28.415461163423288
 20
-207.249988197001580
 11
28.415461163423288
 21
-209.591700325139750
  0
ARC
  8
0
  6
CONTINUOUS
 62
3
 10
27.415461163423288
 20
-197.851042746669010
 40
1.000000000000000
 50
270.000000000000000
 51
0.000000000000000
  0
ARC
  8
0
  6
CONTINUOUS
 62
3
 10
47.915461163422378
 20
-235.091700325138850
 40
1.000000000000000
 50
180.000000000000000
 51
270.000000000000000
  0
LINE
  8
0
  6
CONTINUOUS
 62
3
 10
28.415461163423288
 20
-159.591700325138850
 11
28.415461163423288
 21
-197.851042746669010
  0
ARC
  8
0
  6
CONTINUOUS
 62
3
 10
36.915461163422378
 20
-217.648843737601060
 40
5.000000000000000
 50
0.000000000000000
 51
87.000000000004846
  0
ARC
  8
0
  6
CONTINUOUS
 62
3
 10
36.915461163423288
 20
-101.534556912677540
 40
5.000000000000066
 50
273.000000000005570
 51
0.000000000000000
  0
LINE
  8
0
  6
CONTINUOUS
 62
3
 10
41.915461163422378
 20
-164.591700325138850
 11
41.915461163422378
 21
-226.091700325138850
  0
LINE
  8
0
  6
CONTINUOUS
 62
3
 10
41.915461163423060
 20
-98.591700325138845
 11
40.915461163424197
 21
-98.591700325138845
  0
LINE
  8
0
  6
CONTINUOUS
 62
3
 10
46.915461163424197
 20
-88.591700325138845
 11
40.915461163424197
 21
-88.591700325138845
  0
LINE
  8
0
  6
CONTINUOUS
 62
3
 10
40.915461163424197
 20
-98.591700325138845
 11
40.915461163424197
 21
-88.591700325138845
  0
LINE
  8
0
  6
CONTINUOUS
 62
3
 10
46.915461163424197
 20
-87.491700897343435
 11
46.915461163424197
 21
-91.985713345703516
  0
LINE
  8
0
  6
CONTINUOUS
 62
3
 10
46.915461163422378
 20
-236.091700325138850
 11
40.915461163422378
 21
-236.091700325138850
  0
LINE
  8
0
  6
CONTINUOUS
 62
3
 10
46.793890248929657
 20
-226.091700325138850
 11
40.915461163422378
 21
-226.091700325138850
  0
LINE
  8
0
  6
CONTINUOUS
 62
3
 10
40.915461163422378
 20
-236.091700325138850
 11
40.915461163422378
 21
-226.091700325138850
  0
LINE
  8
0
  6
CONTINUOUS
 62
3
 10
46.915461163422378
 20
-226.569573050594950
 11
46.915461163422378
 21
-236.091700325138850
  0
LINE
  8
0
  6
CONTINUOUS
 62
3
 10
41.915461163424197
 20
-88.591700325138845
 11
41.915461163424197
 21
-80.591700325138845
  0
LINE
  8
0
  6
CONTINUOUS
 62
3
 10
27.415461163423288
 20
-107.039292545856370
 11
27.415461163423288
 21
-159.591700325138850
  0
LINE
  8
0
  6
CONTINUOUS
 62
3
 10
52.915461163412374
 20
-159.591700325138850
 11
52.915461163424197
 21
-78.591700325138845
  0
LINE
  8
0
  6
CONTINUOUS
 62
3
 10
27.415461163422378
 20
-212.144108104422230
 11
27.415461163422378
 21
-159.591700325138850
  0
LINE
  8
0
  6
CONTINUOUS
 62
3
 10
52.915461163422378
 20
-159.591700325138850
 11
52.915461163422378
 21
-236.091700325138850
  0
ARC
  8
0
  6
CONTINUOUS
 62
3
 10
43.915461163424197
 20
-80.591700325138845
 40
2.000000000000000
 50
90.000000000000000
 51
180.000000000000000
  0
LINE
  8
0
  6
CONTINUOUS
 62
3
 10
37.177140944636676
 20
-212.655696063828150
 11
27.415461163422378
 21
-212.144108104422230
  0
LINE
  8
0
  6
CONTINUOUS
 62
3
 10
41.915461163422378
 20
-150.464683671347300
 11
41.915461163422378
 21
-154.591700325138850
  0
LINE
  8
0
  6
CONTINUOUS
 62
3
 10
37.177140944638495
 20
-106.527704586450450
 11
27.415461163423288
 21
-107.039292545856370
  0
LINE
  8
0
  6
CONTINUOUS
 62
3
 10
52.915461163424197
 20
-78.591700325138845
 11
43.915462516164780
 21
-78.591700325138845
  0
LINE
  8
0
  6
CONTINUOUS
 62
3
 10
41.915461163421469
 20
-130.718716978933120
 11
41.915461163423288
 21
-93.985713345703516
  0
LINE
  8
0
  6
CONTINUOUS
 62
3
 10
52.915461163422378
 20
-236.091700325138850
 11
46.915461163422378
 21
-236.091700325138850
  0
ARC
  8
0
  6
CONTINUOUS
 62
3
 10
328.149248554304680
 20
-133.591700325138850
 40
42.000000000000107
 50
318.412480210152130
 51
356.587519789847310
  0
ARC
  8
0
  6
CONTINUOUS
 62
3
 10
358.625456793121430
 20
-156.289733970903400
 40
2.999999999999790
 50
143.322040599181920
 51
225.000000000006170
  0
ARC
  8
0
  6
CONTINUOUS
 62
3
 10
328.149248554304680
 20
-133.591700325138850
 40
42.000000000000128
 50
48.412480210152623
 51
86.587519789847292
  0
ARC
  8
0
  6
CONTINUOUS
 62
3
 10
375.496840194317880
 20
-94.022283278177383
 40
2.999999999999778
 50
56.614043319654456
 51
135.000000000006140
  0
ARC
  8
0
  6
CONTINUOUS
 62
3
 10
365.318749066689630
 20
-88.644025219701689
 40
3.000000000000185
 50
314.999999999993860
 51
67.680649198203099
  0
ARC
  8
0
  6
CONTINUOUS
 62
3
 10
350.847282200069460
 20
-103.115492086321860
 40
3.000000000000291
 50
233.322040599183650
 51
314.999999999996870
  0
ARC
  8
0
  6
CONTINUOUS
 62
3
 10
358.625456793121660
 20
-110.893666679374290
 40
3.000000000000346
 50
134.999999999996930
 51
216.677959400818080
  0
ARC
  8
0
  6
CONTINUOUS
 62
3
 10
290.979748041919950
 20
-88.644025219701689
 40
2.999999999999996
 50
112.319350801796900
 51
225.000000000006170
  0
ARC
  8
0
  6
CONTINUOUS
 62
3
 10
280.801656914291470
 20
-94.022283278177383
 40
2.999999999999703
 50
44.999999999990798
 51
123.385956680341920
  0
ARC
  8
0
  6
CONTINUOUS
 62
3
 10
297.673040315487920
 20
-110.893666679374290
 40
2.999999999999790
 50
323.322040599181890
 51
45.000000000006146
  0
ARC
  8
0
  6
CONTINUOUS
 62
3
 10
305.451214908539900
 20
-103.115492086321860
 40
3.000000000000185
 50
225.000000000006170
 51
306.677959400819820
  0
ARC
  8
0
  6
CONTINUOUS
 62
3
 10
402.342176537604700
 20
-154.192900223806650
 40
2.999999999999850
 50
344.481586472372670
 51
0.000000000000000
  0
ARC
  8
0
  6
CONTINUOUS
 62
3
 10
400.220538506333240
 20
-128.091700325138850
 40
3.000000000000000
 50
270.000000000000000
 51
15.321688456570628
  0
ARC
  8
0
  6
CONTINUOUS
 62
3
 10
402.151035933552520
 20
-139.091700325138850
 40
3.000000000000105
 50
4.586365068672618
 51
90.000000000000000
  0
ARC
  8
0
  6
CONTINUOUS
 62
3
 10
322.649248554304680
 20
-83.932785877040260
 40
3.000000000000000
 50
0.000000000000000
 51
90.708657147834131
  0
ARC
  8
0
  6
CONTINUOUS
 62
3
 10
333.649248554304680
 20
-83.932785877040260
 40
2.999999999999795
 50
89.291342852161520
 51
180.000000000000000
  0
ARC
  8
0
  6
CONTINUOUS
 62
3
 10
298.255937656380870
 20
-157.052091702097640
 40
2.999999999999245
 50
281.549996895624300
 51
38.124966414613354
  0
ARC
  8
0
  6
CONTINUOUS
 62
3
 10
328.149248554304680
 20
-133.591700325138850
 40
41.999999999999993
 50
3.412480210152714
 51
41.587519789847612
  0
ARC
  8
0
  6
CONTINUOUS
 62
3
 10
328.149248554304680
 20
-133.591700325138850
 40
41.999999999999993
 50
93.412480210152708
 51
131.587519789847140
  0
ARC
  8
0
  6
CONTINUOUS
 62
3
 10
333.649248554304680
 20
-95.991833304096872
 40
3.000000000000000
 50
180.000000000000000
 51
261.677959400826750
  0
ARC
  8
0
  6
CONTINUOUS
 62
3
 10
322.649248554304680
 20
-95.991833304096872
 40
3.000000000000119
 50
278.322040599177570
 51
0.000000000000000
  0
ARC
  8
0
  6
CONTINUOUS
 62
3
 10
365.749115575346200
 20
-139.091700325138850
 40
3.000000000000000
 50
90.000000000000000
 51
171.677959400821810
  0
ARC
  8
0
  6
CONTINUOUS
 62
3
 10
365.749115575346200
 20
-128.091700325138850
 40
2.999999999999894
 50
188.322040599178190
 51
270.000000000000000
  0
ARC
  8
0
  6
CONTINUOUS
 62
3
 10
290.549381533263390
 20
-139.091700325138850
 40
2.999999999999894
 50
8.322040599178212
 51
90.000000000000000
  0
ARC
  8
0
  6
CONTINUOUS
 62
3
 10
290.549381533263390
 20
-128.091700325138850
 40
3.000000000000000
 50
270.000000000000000
 51
351.677959400821810
  0
ARC
  8
0
  6
CONTINUOUS
 62
3
 10
386.346484410692030
 20
-184.010761588474450
 40
3.000000000000185
 50
225.000000000006170
 51
319.096043758151380
  0
ARC
  8
0
  6
CONTINUOUS
 62
3
 10
342.649248554304680
 20
-143.864849169896840
 40
62.692927983300230
 50
67.680649198203270
 51
87.841596534959393
  0
ARC
  8
0
  6
CONTINUOUS
 62
3
 10
378.568309817640280
 20
-75.394464468750812
 40
3.000000000000346
 50
314.999999999996870
 51
49.096043758146152
  0
ARC
  8
0
  6
CONTINUOUS
 62
3
 10
386.346484410692480
 20
-83.172639061803238
 40
3.000000000000060
 50
40.903956241851461
 51
134.999999999996930
  0
ARC
  8
0
  6
CONTINUOUS
 62
3
 10
269.952012697917100
 20
-83.172639061803238
 40
3.000000000000185
 50
45.000000000006146
 51
139.096043758148540
  0
ARC
  8
0
  6
CONTINUOUS
 62
3
 10
277.730187290969070
 20
-75.394464468750812
 40
2.999999999999567
 50
130.903956241853850
 51
225.000000000006170
  0
ARC
  8
0
  6
CONTINUOUS
 62
3
 10
342.649248554304680
 20
-143.864849169896840
 40
62.692927983300109
 50
15.321688456567088
 51
20.350598527481814
  0
ARC
  8
0
  6
CONTINUOUS
 62
3
 10
328.149248554304680
 20
-528.591700325362580
 40
447.692927983299680
 50
87.841596534959422
 51
89.291342852163240
  0
ARC
  8
0
  6
CONTINUOUS
 62
3
 10
342.649248554304680
 20
-143.864849169896840
 40
62.692927983300024
 50
0.000000000000000
 51
4.586365068665685
  0
ARC
  8
0
  6
CONTINUOUS
 62
3
 10
328.149248554304900
 20
-528.591700325362580
 40
447.692927983299800
 50
90.708657147836760
 51
92.158403465040607
  0
ARC
  8
0
  6
CONTINUOUS
 62
3
 10
313.649248554304680
 20
-143.864849169896840
 40
62.692927983299825
 50
92.158403465040607
 51
112.319350801796530
  0
ARC
  8
0
  6
CONTINUOUS
 62
3
 10
383.517791869957360
 20
-231.591700325138850
 40
3.000000000000000
 50
90.000000000000000
 51
177.685070995693020
  0
ARC
  8
0
  6
CONTINUOUS
 62
3
 10
371.149248554304900
 20
-231.091700325138850
 40
9.378645473199995
 50
311.722538873448460
 51
357.685070995697000
  0
ARC
  8
0
  6
CONTINUOUS
 62
3
 10
285.149248554304680
 20
-231.091700325138850
 40
9.378645473200079
 50
182.314929004302910
 51
227.175307991348060
  0
ARC
  8
0
  6
CONTINUOUS
 62
3
 10
272.780705238651990
 20
-231.591700325138850
 40
2.999999999999998
 50
2.314929004306987
 51
90.000000000000000
  0
ARC
  8
0
  6
CONTINUOUS
 62
3
 10
328.149248554304680
 20
-133.591700325138850
 40
88.000000000000085
 50
5.043502368947569
 51
30.824196484133129
  0
ARC
  8
0
  6
CONTINUOUS
 62
3
 10
404.952568795034040
 20
-139.091700325138850
 40
2.999999999999903
 50
355.903956241854980
 51
90.000000000000000
  0
ARC
  8
0
  6
CONTINUOUS
 62
3
 10
404.952568795034040
 20
-128.091700325138850
 40
3.000000000000000
 50
270.000000000000000
 51
4.096043758162328
  0
ARC
  8
0
  6
CONTINUOUS
 62
3
 10
322.649248554304680
 20
-56.788380084409255
 40
3.000000000000000
 50
0.000000000000000
 51
94.096043758150259
  0
ARC
  8
0
  6
CONTINUOUS
 62
3
 10
333.649248554304680
 20
-56.788380084409255
 40
2.999999999999255
 50
85.903956241845407
 51
180.000000000000000
  0
ARC
  8
0
  6
CONTINUOUS
 62
3
 10
404.178685805827400
 20
-226.591700325138850
 40
2.000000000000338
 50
225.000000000000000
 51
270.000000000000000
  0
CIRCLE
  8
0
  6
CONTINUOUS
 62
3
 10
411.234295343723940
 20
-50.506653535719124
 40
6.000000000000000
  0
ARC
  8
0
  6
CONTINUOUS
 62
3
 10
413.149248554304680
 20
-48.591700325138845
 40
10.000000000000000
 50
0.000000000000000
 51
90.000000000000000
  0
ARC
  8
0
  6
CONTINUOUS
 62
3
 10
412.306119431744950
 20
-83.375954944652221
 40
9.999999999999437
 50
135.000000000001820
 51
210.824196484133950
  0
ARC
  8
0
  6
CONTINUOUS
 62
3
 10
404.178685805827400
 20
-40.591700325138845
 40
2.000000000000000
 50
90.000000000000000
 51
135.000000000000000
  0
ARC
  8
0
  6
CONTINUOUS
 62
3
 10
421.149248554304680
 20
-57.562263073616123
 40
1.999999999999373
 50
315.000000000009210
 51
0.000000000000000
  0
ARC
  8
0
  6
CONTINUOUS
 62
3
 10
328.149248554304680
 20
-133.591700325138850
 40
88.000000000000213
 50
329.175803515866900
 51
354.956497631052460
  0
ARC
  8
0
  6
CONTINUOUS
 62
3
 10
412.306119431744950
 20
-183.807445705624560
 40
9.999999999999602
 50
149.175803515870540
 51
225.000000000001850
  0
CIRCLE
  8
0
  6
CONTINUOUS
 62
3
 10
411.234295343723720
 20
-216.676747114558570
 40
6.000000000000000
  0
ARC
  8
0
  6
DASHDOT
 62
4
 10
328.149248554304680
 20
-133.591700325138850
 40
117.499999999999640
 50
309.635821825516080
 51
320.364178174483240
  0
ARC
  8
0
  6
CONTINUOUS
 62
3
 10
413.149248554304680
 20
-218.591700325138850
 40
10.000000000000000
 50
270.000000000000000
 51
0.000000000000000
  0
ARC
  8
0
  6
CONTINUOUS
 62
3
 10
421.149248554304680
 20
-209.621137576661570
 40
2.000000000000000
 50
0.000000000000000
 51
44.999999999990798
  0
CIRCLE
  8
0
  6
CONTINUOUS
 62
3
 10
245.064201764885410
 20
-50.506653535719124
 40
6.000000000000000
  0
CIRCLE
  8
0
  6
CONTINUOUS
 62
3
 10
245.064201764885870
 20
-216.676747114558570
 40
6.000000000000000
  0
ARC
  8
0
  6
CONTINUOUS
 62
3
 10
243.149248554304680
 20
-218.591700325138850
 40
10.000000000000000
 50
180.000000000000000
 51
270.000000000000000
  0
ARC
  8
0
  6
CONTINUOUS
 62
3
 10
243.149248554304680
 20
-48.591700325138845
 40
10.000000000000000
 50
90.000000000000000
 51
180.000000000000000
  0
ARC
  8
0
  6
DASHDOT
 62
4
 10
328.149248554304680
 20
-133.591700325138850
 40
117.499999999999780
 50
129.635821825516160
 51
140.364178174483360
  0
ARC
  8
0
  6
CONTINUOUS
 62
3
 10
378.364993934790850
 20
-49.434829447698576
 40
9.999999999999677
 50
239.175803515864690
 51
315.000000000001820
  0
ARC
  8
0
  6
CONTINUOUS
 62
3
 10
235.149248554304680
 20
-57.562263073616123
 40
2.000000000000000
 50
180.000000000000000
 51
224.999999999990790
  0
ARC
  8
0
  6
CONTINUOUS
 62
3
 10
252.119811302781950
 20
-40.591700325138845
 40
2.000000000000338
 50
45.000000000000000
 51
90.000000000000000
  0
ARC
  8
0
  6
CONTINUOUS
 62
3
 10
277.933503173818510
 20
-49.434829447698576
 40
9.999999999999437
 50
224.999999999998180
 51
300.824196484135310
  0
ARC
  8
0
  6
CONTINUOUS
 62
3
 10
243.992377676864410
 20
-83.375954944652221
 40
10.000000000000068
 50
329.175803515866050
 51
44.999999999998167
  0
ARC
  8
0
  6
CONTINUOUS
 62
3
 10
328.149248554304680
 20
-133.591700325138850
 40
88.000000000000185
 50
59.175803515867223
 51
120.824196484132780
  0
ARC
  8
0
  6
CONTINUOUS
 62
3
 10
328.149248554304680
 20
-133.591700325138850
 40
88.000000000000185
 50
239.175803515867240
 51
300.824196484132760
  0
ARC
  8
0
  6
CONTINUOUS
 62
3
 10
235.149248554304680
 20
-209.621137576661570
 40
2.000000000000016
 50
134.999999999990790
 51
180.000000000000000
  0
ARC
  8
0
  6
CONTINUOUS
 62
3
 10
252.119811302781730
 20
-226.591700325138850
 40
2.000000000000000
 50
270.000000000000000
 51
314.999999999995400
  0
ARC
  8
0
  6
CONTINUOUS
 62
3
 10
277.933503173818510
 20
-217.748571202579110
 40
9.999999999999561
 50
59.175803515865844
 51
134.999999999999090
  0
ARC
  8
0
  6
CONTINUOUS
 62
3
 10
378.364993934790850
 20
-217.748571202579110
 40
10.000000000000082
 50
45.000000000001855
 51
120.824196484135270
  0
ARC
  8
0
  6
CONTINUOUS
 62
3
 10
235.149248554304680
 20
-130.591700325138850
 40
2.000000000000000
 50
90.000000000000000
 51
180.000000000000000
  0
ARC
  8
0
  6
CONTINUOUS
 62
3
 10
235.149248554304680
 20
-136.591700325138850
 40
2.000000000000000
 50
180.000000000000000
 51
270.000000000000000
  0
ARC
  8
0
  6
CONTINUOUS
 62
3
 10
418.796918132733480
 20
-141.591700325138850
 40
3.000000000000000
 50
90.000000000000000
 51
174.956497631056290
  0
ARC
  8
0
  6
CONTINUOUS
 62
3
 10
421.149248554304680
 20
-136.591700325138850
 40
2.000000000000000
 50
270.000000000000000
 51
0.000000000000000
  0
ARC
  8
0
  6
CONTINUOUS
 62
3
 10
418.796918132733480
 20
-125.591700325138840
 40
2.999999999999949
 50
185.043502368943710
 51
270.000000000000000
  0
ARC
  8
0
  6
CONTINUOUS
 62
3
 10
421.149248554304680
 20
-130.591700325138850
 40
2.000000000000000
 50
0.000000000000000
 51
90.000000000000000
  0
CIRCLE
  8
0
  6
CONTINUOUS
 62
3
 10
328.149248554304680
 20
-133.591700325138850
 40
27.500000000000000
  0
LINE
  8
0
  6
CONTINUOUS
 62
3
 10
384.225164067132480
 20
-186.132081932034450
 11
356.504136449561880
 21
-158.411054314463400
  0
LINE
  8
0
  6
CONTINUOUS
 62
3
 10
384.225164067132710
 20
-81.051318718243238
 11
356.504136449561880
 21
-108.772346335814290
  0
LINE
  8
0
  6
CONTINUOUS
 62
3
 10
380.689630161200060
 20
-77.515784812310812
 11
352.968602543629230
 21
-105.236812429881860
  0
LINE
  8
0
  6
CONTINUOUS
 62
3
 10
272.073333041476870
 20
-81.051318718243238
 11
299.794360659047470
 21
-108.772346335814290
  0
LINE
  8
0
  6
CONTINUOUS
 62
3
 10
275.608866947409520
 20
-77.515784812310812
 11
303.329894564980350
 21
-105.236812429881860
  0
LINE
  8
0
  6
CONTINUOUS
 62
3
 10
405.342176537604700
 20
-143.864849169896840
 11
405.342176537604700
 21
-154.192900223806650
  0
LINE
  8
0
  6
CONTINUOUS
 62
3
 10
383.517791869957360
 20
-228.591700325138850
 11
413.149248554304680
 21
-228.591700325138850
  0
LINE
  8
0
  6
CONTINUOUS
 62
3
 10
243.149248554304680
 20
-228.591700325138850
 11
272.780705238651990
 21
-228.591700325138850
  0
LINE
  8
0
  6
DASHED
 62
4
 10
272.780705238651990
 20
-228.591700325138850
 11
274.160618066386860
 21
-228.591700325138850
  0
LINE
  8
0
  6
DASHDOT
 62
4
 10
402.187932203042520
 20
-207.630383973877710
 11
419.164605507829660
 21
-224.607057278665080
  0
LINE
  8
0
  6
DASHDOT
 62
4
 10
401.756167684638170
 20
-59.984781194805350
 11
419.012469936775910
 21
-42.728478942667607
  0
LINE
  8
0
  6
CONTINUOUS
 62
3
 10
405.235051619879640
 20
-76.304887132787371
 11
422.563462116677560
 21
-58.976476635988547
  0
LINE
  8
0
  6
CONTINUOUS
 62
3
 10
423.149248554304680
 20
-48.591700325138845
 11
423.149248554304680
 21
-218.591700325138850
  0
LINE
  8
0
  6
CONTINUOUS
 62
3
 10
405.235051619879640
 20
-190.878513517490320
 11
422.563462116677560
 21
-208.206924014289140
  0
LINE
  8
0
  6
CONTINUOUS
 62
3
 10
233.149248554304680
 20
-48.591700325138845
 11
233.149248554304680
 21
-218.591700325138850
  0
LINE
  8
0
  6
CONTINUOUS
 62
3
 10
243.149248554304680
 20
-38.591700325138845
 11
413.149248554304680
 21
-38.591700325138845
  0
LINE
  8
0
  6
DASHDOT
 62
4
 10
254.804944806031530
 20
-60.247396576865299
 11
236.673289306828910
 21
-42.115741077662619
  0
LINE
  8
0
  6
DASHDOT
 62
4
 10
252.842376357937840
 20
-208.898572521506140
 11
237.286027171833890
 21
-224.454921707610080
  0
LINE
  8
0
  6
CONTINUOUS
 62
3
 10
385.436061746656150
 20
-56.505897259563426
 11
402.764472243454070
 21
-39.177486762765511
  0
LINE
  8
0
  6
CONTINUOUS
 62
3
 10
270.862435361953200
 20
-56.505897259563426
 11
253.534024865155290
 21
-39.177486762765511
  0
LINE
  8
0
  6
CONTINUOUS
 62
3
 10
251.063445488729710
 20
-76.304887132787371
 11
233.735034991931800
 21
-58.976476635988547
  0
LINE
  8
0
  6
CONTINUOUS
 62
3
 10
270.862435361952980
 20
-210.677503390713350
 11
253.534024865154830
 21
-228.005913887512180
  0
LINE
  8
0
  6
CONTINUOUS
 62
3
 10
385.436061746656150
 20
-210.677503390713350
 11
402.764472243454070
 21
-228.005913887512180
  0
LINE
  8
0
  6
CONTINUOUS
 62
3
 10
237.501578975875870
 20
-128.591700325138850
 11
235.149248554304680
 21
-128.591700325138850
  0
LINE
  8
0
  6
CONTINUOUS
 62
3
 10
237.501578975875870
 20
-138.591700325138850
 11
235.149248554304680
 21
-138.591700325138850
  0
LINE
  8
0
  6
CONTINUOUS
 62
3
 10
418.796918132733480
 20
-138.591700325138850
 11
421.149248554304680
 21
-138.591700325138850
  0
LINE
  8
0
  6
CONTINUOUS
 62
3
 10
418.796918132733480
 20
-128.591700325138850
 11
421.149248554304680
 21
-128.591700325138850
  0
LINE
  8
0
  6
CONTINUOUS
 62
3
 10
325.649248554304680
 20
-56.788380084409255
 11
325.649248554304680
 21
-95.991833304096872
  0
LINE
  8
0
  6
CONTINUOUS
 62
3
 10
330.649248554304680
 20
-56.788380084409255
 11
330.649248554304680
 21
-95.991833304096872
  0
LINE
  8
0
  6
CONTINUOUS
 62
3
 10
404.952568795033810
 20
-131.091700325138850
 11
365.749115575346200
 21
-131.091700325138850
  0
LINE
  8
0
  6
CONTINUOUS
 62
3
 10
404.952568795033810
 20
-136.091700325138850
 11
365.749115575346200
 21
-136.091700325138850
  0
CIRCLE
  8
0
  6
CONTINUOUS
 62
3
 10
328.149248554304680
 20
-133.591700325138850
 40
35.000000000000000
  0
CIRCLE
  8
0
  6
CONTINUOUS
 62
3
 10
328.149248554304680
 20
-133.591700325138850
 40
22.499999999999545
  0
ARC
  8
0
  6
DASHDOT
 62
4
 10
328.149248554304680
 20
-133.591700325138850
 40
117.499999999999820
 50
39.244192836631662
 51
50.364178174483833
  0
ARC
  8
0
  6
DASHDOT
 62
4
 10
328.149248554304680
 20
-133.591700325138850
 40
117.499999999999880
 50
219.139569540826640
 51
230.364178174483900
  0
LINE
  8
0
  6
DASHDOT
 62
4
 10
328.149248554304680
 20
-26.167306100433962
 11
328.149248554304680
 21
-255.571441512825000
  0
LINE
  8
0
  6
DASHDOT
 62
4
 10
349.081105001056130
 20
-159.591700325138850
 11
307.005528891488210
 21
-159.591700325138850
  0
CIRCLE
  8
0
  6
CONTINUOUS
 62
4
 10
328.149248554304450
 20
-133.591700325138850
 40
4.000000000000000
  0
CIRCLE
  8
0
  6
CONTINUOUS
 62
3
 10
328.149248554304450
 20
-133.591700325138850
 40
3.323500000000024
  0
ARC
  8
0
  6
CONTINUOUS
 62
3
 10
328.149248554304450
 20
-133.591700325139750
 40
13.999999999999572
 50
196.601549599020760
 51
163.398450400979240
  0
LINE
  8
0
  6
CONTINUOUS
 62
3
 10
311.149248554304450
 20
-129.591700325139750
 11
318.149248554304450
 21
-129.591700325139750
  0
LINE
  8
0
  6
CONTINUOUS
 62
3
 10
318.149248554304450
 20
-137.591700325139750
 11
318.149248554304450
 21
-129.591700325139750
  0
LINE
  8
0
  6
CONTINUOUS
 62
3
 10
311.149248554304450
 20
-137.591700325139750
 11
318.149248554304450
 21
-137.591700325139750
  0
LINE
  8
0
  6
CONTINUOUS
 62
3
 10
311.149248554304450
 20
-137.591700325139750
 11
311.149248554304450
 21
-129.591700325139750
  0
LINE
  8
0
  6
CONTINUOUS
 62
3
 10
27.415461163423288
 20
-107.039292545856140
 11
27.415461163423288
 21
-159.591700325139020
  0
LINE
  8
0
  6
CONTINUOUS
 62
3
 10
27.415461163422378
 20
-212.144108104421950
 11
27.415461163422378
 21
-159.591700325139020
  0
LINE
  8
0
  6
CONTINUOUS
 62
3
 10
27.415461163423288
 20
-159.591700325138850
 11
27.415461163423288
 21
-212.091700325138850
  0
LINE
  8
0
  6
CONTINUOUS
 62
3
 10
27.415461163423288
 20
-159.591700325138850
 11
27.415461163423288
 21
-107.091700325138840
  0
ENDSEC
  0
EOF
