  0
SECTION
  2
HEADER
  9
$FILLMODE
 70
1
  9
$TEXTSTYLE
  7
STANDARD1
  9
$ACADVER
  1
AC1009
  9
$DIMASZ
 40
1.931851648807023
  9
$DIMEXE
 40
2.000000000000000
  9
$DIMEXO
 40
1.000000000000000
  9
$DIMLFAC
 40
1.000000000000000
  9
$DIMSCALE
 40
1.000000000000000
  9
$DIMTAD
 70
1
  9
$DIMTFAC
 40
0.714285731315613
  9
$DIMTXT
 40
2.799999952316284
  9
$LUPREC
 70
3
  9
$TEXTSIZE
 40
3.299999952316284
  9
$REGENMODE
 70
1
  0
ENDSEC
  0
SECTION
  2
TABLES
  0
TABLE
  2
LTYPE
 70
4
  0
LTYPE
  2
CONTINUOUS
 70
64
  3
Solid line
 72
65
 73
0
 40
0.0
  0
LTYPE
  2
DASHED
 70
64
  3
-- -- -- -- -- -- -- -- -- -- -- -- -- -- --
 72
65
 73
2
 40
0.75
 49
0.5
 49
-0.25
  0
LTYPE
  2
DASHDOT
 70
64
  3
__ . __ . __ . __ . __ . __ . __ . __ . __ . __
 72
65
 73
4
 40
1.0
 49
0.5
 49
-0.25
 49
0.0
 49
-0.25
  0
LTYPE
  2
DIVIDE
 70
64
  3
__ . . __ . . __ . . __ . . __ . . __ . . __
 72
65
 73
6
 40
1.25
 49
0.5
 49
-0.25
 49
0.0
 49
-0.25
 49
0.0
 49
-0.25
  0
ENDTAB
  0
TABLE
  2
LAYER
 70
1
  0
LAYER
  2
0
 70
64
 62
2
  6
CONTINUOUS
  0
ENDTAB
  0
TABLE
  2
STYLE
 70
4
  0
STYLE
  2
STANDARD1
 70
64
 40
0.0
 41
1.0
 50
0.0
 71
0
 42
3.299999952316284
  3
MONOTXT
  4
BIGFONT
  0
STYLE
  2
STANDARD2
 70
68
 40
0.0
 41
1.0
 50
0.0
 71
0
 42
3.299999952316284
  3
MONOTXT
  4
BIGFONT
  0
STYLE
  2
STANDARD3
 70
64
 40
0.0
 41
1.0
 50
0.0
 71
0
 42
3.299999952316284
  3
MONOTXT
  4

  0
STYLE
  2
STANDARD4
 70
68
 40
0.0
 41
1.0
 50
0.0
 71
0
 42
3.299999952316284
  3
MONOTXT
  4

  0
ENDTAB
  0
TABLE
  2
VIEW
 70
0
  0
ENDTAB
  0
ENDSEC
  0
SECTION
  2
BLOCKS
  0
BLOCK
  8
0
  2
SYM1
 70
64
 10
0.000000000000000
 20
0.000000000000000
  0
POINT
  8
0
  6
CONTINUOUS
 62
3
 10
0.000000000000000
 20
0.000000000000000
  0
LINE
  8
0
  6
CONTINUOUS
 62
3
 10
0.000000000000000
 20
-6.500000000000000
 11
-0.000000000000000
 21
6.500000000000000
  0
LINE
  8
0
  6
CONTINUOUS
 62
3
 10
-7.999999046325684
 20
5.633875846862793
 11
-7.999999046325684
 21
-5.634070396423340
  0
LINE
  8
0
  6
CONTINUOUS
 62
3
 10
0.000000000000000
 20
6.500000000000000
 11
-7.499999046325684
 21
6.500000000000000
  0
LINE
  8
0
  6
CONTINUOUS
 62
3
 10
-0.000000000000000
 20
-6.500000000000000
 11
-7.499998092651367
 21
-6.500000000000000
  0
LINE
  8
0
  6
CONTINUOUS
 62
3
 10
-7.499999203818277
 20
6.499999909101064
 11
-7.999999021366804
 21
5.633876130311293
  0
LINE
  8
0
  6
CONTINUOUS
 62
3
 10
-7.499997911632022
 20
-6.499999445138201
 11
-7.999998623386432
 21
-5.634070287011241
  0
LINE
  8
0
  6
CONTINUOUS
 62
3
 10
-7.499999046325684
 20
6.500000000000000
 11
-7.499999046325684
 21
-6.500000000000000
  0
ENDBLK
  8
0
  0
BLOCK
  8
0
  2
SYM2
 70
64
 10
0.000000000000000
 20
0.000000000000000
  0
POINT
  8
0
  6
CONTINUOUS
 62
3
 10
0.000000000000000
 20
0.000000000000000
  0
LINE
  8
0
  6
CONTINUOUS
 62
3
 10
0.000000000000000
 20
-6.500000000000000
 11
-0.000000000000000
 21
6.500000000000000
  0
LINE
  8
0
  6
CONTINUOUS
 62
3
 10
-7.999999046325684
 20
5.633875846862793
 11
-7.999999046325684
 21
-5.634070396423340
  0
LINE
  8
0
  6
CONTINUOUS
 62
3
 10
0.000000000000000
 20
6.500000000000000
 11
-7.499999046325684
 21
6.500000000000000
  0
LINE
  8
0
  6
CONTINUOUS
 62
3
 10
-0.000000000000000
 20
-6.500000000000000
 11
-7.499998092651367
 21
-6.500000000000000
  0
LINE
  8
0
  6
CONTINUOUS
 62
3
 10
-7.499999203818277
 20
6.499999909101064
 11
-7.999999021366804
 21
5.633876130311293
  0
LINE
  8
0
  6
CONTINUOUS
 62
3
 10
-7.499997911632022
 20
-6.499999445138201
 11
-7.999998623386432
 21
-5.634070287011241
  0
LINE
  8
0
  6
CONTINUOUS
 62
3
 10
-7.499999046325684
 20
6.500000000000000
 11
-7.499999046325684
 21
-6.500000000000000
  0
ENDBLK
  8
0
  0
BLOCK
  8
0
  2
SYM3
 70
64
 10
0.000000000000000
 20
0.000000000000000
  0
POINT
  8
0
  6
CONTINUOUS
 62
3
 10
0.000000000000000
 20
0.000000000000000
  0
LINE
  8
0
  6
CONTINUOUS
 62
3
 10
0.000000000000000
 20
5.000000000000000
 11
0.000000000000000
 21
-5.000000000000000
  0
LINE
  8
0
  6
CONTINUOUS
 62
3
 10
-6.000000000000000
 20
-5.000000000000000
 11
-6.000000000000000
 21
5.000000000000000
  0
LINE
  8
0
  6
CONTINUOUS
 62
3
 10
0.000000000000000
 20
5.000000000000000
 11
-6.000000000000000
 21
5.000000000000000
  0
LINE
  8
0
  6
CONTINUOUS
 62
3
 10
-0.000000000000000
 20
-5.000000000000000
 11
-6.000000000000000
 21
-5.000000000000000
  0
ENDBLK
  8
0
  0
BLOCK
  8
0
  2
SYM4
 70
64
 10
0.000000000000000
 20
0.000000000000000
  0
POINT
  8
0
  6
CONTINUOUS
 62
3
 10
0.000000000000000
 20
0.000000000000000
  0
LINE
  8
0
  6
CONTINUOUS
 62
3
 10
0.000000000000000
 20
-6.500000000000000
 11
-0.000000000000000
 21
6.500000000000000
  0
LINE
  8
0
  6
CONTINUOUS
 62
3
 10
-7.999999046325684
 20
5.633875846862793
 11
-7.999999046325684
 21
-5.634070396423340
  0
LINE
  8
0
  6
CONTINUOUS
 62
3
 10
0.000000000000000
 20
6.500000000000000
 11
-7.499999046325684
 21
6.500000000000000
  0
LINE
  8
0
  6
CONTINUOUS
 62
3
 10
-0.000000000000000
 20
-6.500000000000000
 11
-7.499998092651367
 21
-6.500000000000000
  0
LINE
  8
0
  6
CONTINUOUS
 62
3
 10
-7.499999203818277
 20
6.499999909101064
 11
-7.999999021366804
 21
5.633876130311293
  0
LINE
  8
0
  6
CONTINUOUS
 62
3
 10
-7.499997911632022
 20
-6.499999445138201
 11
-7.999998623386432
 21
-5.634070287011241
  0
LINE
  8
0
  6
CONTINUOUS
 62
3
 10
-7.499999046325684
 20
6.500000000000000
 11
-7.499999046325684
 21
-6.500000000000000
  0
ENDBLK
  8
0
  0
BLOCK
  8
0
  2
SYM5
 70
64
 10
0.000000000000000
 20
0.000000000000000
  0
POINT
  8
0
  6
CONTINUOUS
 62
3
 10
0.000000000000000
 20
0.000000000000000
  0
LINE
  8
0
  6
CONTINUOUS
 62
3
 10
0.000000000000000
 20
5.000000000000000
 11
0.000000000000000
 21
-5.000000000000000
  0
LINE
  8
0
  6
CONTINUOUS
 62
3
 10
-6.000000000000000
 20
-5.000000000000000
 11
-6.000000000000000
 21
5.000000000000000
  0
LINE
  8
0
  6
CONTINUOUS
 62
3
 10
0.000000000000000
 20
5.000000000000000
 11
-6.000000000000000
 21
5.000000000000000
  0
LINE
  8
0
  6
CONTINUOUS
 62
3
 10
-0.000000000000000
 20
-5.000000000000000
 11
-6.000000000000000
 21
-5.000000000000000
  0
ENDBLK
  8
0
  0
BLOCK
  8
0
  2
SYM6
 70
64
 10
0.000000000000000
 20
0.000000000000000
  0
POINT
  8
0
  6
CONTINUOUS
 62
3
 10
0.000000000000000
 20
0.000000000000000
  0
LINE
  8
0
  6
CONTINUOUS
 62
3
 10
0.000000000000000
 20
-6.500000000000000
 11
-0.000000000000000
 21
6.500000000000000
  0
LINE
  8
0
  6
CONTINUOUS
 62
3
 10
-7.999999046325684
 20
5.633875846862793
 11
-7.999999046325684
 21
-5.634070396423340
  0
LINE
  8
0
  6
CONTINUOUS
 62
3
 10
0.000000000000000
 20
6.500000000000000
 11
-7.499999046325684
 21
6.500000000000000
  0
LINE
  8
0
  6
CONTINUOUS
 62
3
 10
-0.000000000000000
 20
-6.500000000000000
 11
-7.499998092651367
 21
-6.500000000000000
  0
LINE
  8
0
  6
CONTINUOUS
 62
3
 10
-7.499999203818277
 20
6.499999909101064
 11
-7.999999021366804
 21
5.633876130311293
  0
LINE
  8
0
  6
CONTINUOUS
 62
3
 10
-7.499997911632022
 20
-6.499999445138201
 11
-7.999998623386432
 21
-5.634070287011241
  0
LINE
  8
0
  6
CONTINUOUS
 62
3
 10
-7.499999046325684
 20
6.500000000000000
 11
-7.499999046325684
 21
-6.500000000000000
  0
ENDBLK
  8
0
  0
BLOCK
  8
0
  2
SYM7
 70
64
 10
0.000000000000000
 20
0.000000000000000
  0
POINT
  8
0
  6
CONTINUOUS
 62
3
 10
0.000000000000000
 20
0.000000000000000
  0
LINE
  8
0
  6
CONTINUOUS
 62
3
 10
0.000000000000000
 20
-6.500000000000000
 11
-0.000000000000000
 21
6.500000000000000
  0
LINE
  8
0
  6
CONTINUOUS
 62
3
 10
-7.999999046325684
 20
5.633875846862793
 11
-7.999999046325684
 21
-5.634070396423340
  0
LINE
  8
0
  6
CONTINUOUS
 62
3
 10
0.000000000000000
 20
6.500000000000000
 11
-7.499999046325684
 21
6.500000000000000
  0
LINE
  8
0
  6
CONTINUOUS
 62
3
 10
-0.000000000000000
 20
-6.500000000000000
 11
-7.499998092651367
 21
-6.500000000000000
  0
LINE
  8
0
  6
CONTINUOUS
 62
3
 10
-7.499999203818277
 20
6.499999909101064
 11
-7.999999021366804
 21
5.633876130311293
  0
LINE
  8
0
  6
CONTINUOUS
 62
3
 10
-7.499997911632022
 20
-6.499999445138201
 11
-7.999998623386432
 21
-5.634070287011241
  0
LINE
  8
0
  6
CONTINUOUS
 62
3
 10
-7.499999046325684
 20
6.500000000000000
 11
-7.499999046325684
 21
-6.500000000000000
  0
ENDBLK
  8
0
  0
BLOCK
  8
0
  2
SYM8
 70
64
 10
0.000000000000000
 20
0.000000000000000
  0
POINT
  8
0
  6
CONTINUOUS
 62
3
 10
0.000000000000000
 20
0.000000000000000
  0
LINE
  8
0
  6
CONTINUOUS
 62
3
 10
-0.000027060931608
 20
-5.749995231614290
 11
-3.250020760774497
 21
-5.749981880178368
  0
LINE
  8
0
  6
CONTINUOUS
 62
3
 10
-3.250024308998832
 20
-5.749987011620533
 11
-4.000020133420207
 21
-4.899982163000686
  0
LINE
  8
0
  6
CONTINUOUS
 62
3
 10
-4.000014781949545
 20
-4.899978112209579
 11
-3.999973773958658
 21
4.900011588107803
  0
LINE
  8
0
  6
CONTINUOUS
 62
3
 10
-3.999972830514309
 20
4.900008662670757
 11
-3.249970339875063
 21
5.750006850331147
  0
LINE
  8
0
  6
CONTINUOUS
 62
3
 10
-3.249972343459831
 20
5.750005722029982
 11
0.000027906669402
 21
5.749993324257003
  0
LINE
  8
0
  6
CONTINUOUS
 62
3
 10
0.000023687533422
 20
5.749999046325684
 11
-0.000023687533422
 21
-5.749999046325684
  0
LINE
  8
0
  6
CONTINUOUS
 62
3
 10
-3.250009052584916
 20
-2.899986267083180
 11
-0.000013285950788
 21
-2.899999618524636
  0
LINE
  8
0
  6
CONTINUOUS
 62
3
 10
-3.249984168999890
 20
2.900012016287064
 11
0.000013133145058
 21
2.899999618522375
  0
ARC
  8
0
  6
CONTINUOUS
 62
3
 10
-2.270017623901367
 20
-4.324990272521973
 40
1.729999542236328
 50
124.499759285265280
 51
179.999745461767870
  0
ARC
  8
0
  6
CONTINUOUS
 62
3
 10
-2.269982337951660
 20
4.325008392333984
 40
1.729999542236328
 50
179.999745461767870
 51
235.499786279783790
  0
ARC
  8
0
  6
CONTINUOUS
 62
3
 10
1.981662750244141
 20
-0.000008163610801
 40
5.981661796569824
 50
150.999363302540700
 51
209.000072979481700
  0
ENDBLK
  8
0
  0
BLOCK
  8
0
  2
SYM9
 70
64
 10
0.000000000000000
 20
0.000000000000000
  0
POINT
  8
0
  6
CONTINUOUS
 62
3
 10
0.000000000000000
 20
0.000000000000000
  0
LINE
  8
0
  6
CONTINUOUS
 62
3
 10
-0.000027060931608
 20
-5.749995231614290
 11
-3.250020760774497
 21
-5.749981880178368
  0
LINE
  8
0
  6
CONTINUOUS
 62
3
 10
-3.250024308998832
 20
-5.749987011620533
 11
-4.000020133420207
 21
-4.899982163000686
  0
LINE
  8
0
  6
CONTINUOUS
 62
3
 10
-4.000014781949545
 20
-4.899978112209579
 11
-3.999973773958658
 21
4.900011588107803
  0
LINE
  8
0
  6
CONTINUOUS
 62
3
 10
-3.999972830514309
 20
4.900008662670757
 11
-3.249970339875063
 21
5.750006850331147
  0
LINE
  8
0
  6
CONTINUOUS
 62
3
 10
-3.249972343459831
 20
5.750005722029982
 11
0.000027906669402
 21
5.749993324257003
  0
LINE
  8
0
  6
CONTINUOUS
 62
3
 10
0.000023687533422
 20
5.749999046325684
 11
-0.000023687533422
 21
-5.749999046325684
  0
LINE
  8
0
  6
CONTINUOUS
 62
3
 10
-3.250009052584916
 20
-2.899986267083180
 11
-0.000013285950788
 21
-2.899999618524636
  0
LINE
  8
0
  6
CONTINUOUS
 62
3
 10
-3.249984168999890
 20
2.900012016287064
 11
0.000013133145058
 21
2.899999618522375
  0
ARC
  8
0
  6
CONTINUOUS
 62
3
 10
-2.270017623901367
 20
-4.324990272521973
 40
1.729999542236328
 50
124.499759285265280
 51
179.999745461767870
  0
ARC
  8
0
  6
CONTINUOUS
 62
3
 10
-2.269982337951660
 20
4.325008392333984
 40
1.729999542236328
 50
179.999745461767870
 51
235.499786279783790
  0
ARC
  8
0
  6
CONTINUOUS
 62
3
 10
1.981662750244141
 20
-0.000008163610801
 40
5.981661796569824
 50
150.999363302540700
 51
209.000072979481700
  0
ENDBLK
  8
0
  0
BLOCK
  8
0
  2
SYM10
 70
64
 10
0.000000000000000
 20
0.000000000000000
  0
LINE
  8
0
  6
CONTINUOUS
 62
3
 10
-7.499999046325684
 20
6.500000000000000
 11
-7.499999046325684
 21
-6.500000000000000
  0
LINE
  8
0
  6
CONTINUOUS
 62
3
 10
-7.499997911632022
 20
-6.499999445138201
 11
-7.999998623386432
 21
-5.634070287011241
  0
LINE
  8
0
  6
CONTINUOUS
 62
3
 10
-7.499999203818277
 20
6.499999909101064
 11
-7.999999021366804
 21
5.633876130311293
  0
LINE
  8
0
  6
CONTINUOUS
 62
3
 10
-0.000000000000000
 20
-6.500000000000000
 11
-7.499998092651367
 21
-6.500000000000000
  0
LINE
  8
0
  6
CONTINUOUS
 62
3
 10
0.000000000000000
 20
6.500000000000000
 11
-7.499999046325684
 21
6.500000000000000
  0
LINE
  8
0
  6
CONTINUOUS
 62
3
 10
-7.999999046325684
 20
5.633875846862793
 11
-7.999999046325684
 21
-5.634070396423340
  0
LINE
  8
0
  6
CONTINUOUS
 62
3
 10
0.000000000000000
 20
-6.500000000000000
 11
-0.000000000000000
 21
6.500000000000000
  0
POINT
  8
0
  6
CONTINUOUS
 62
3
 10
0.000000000000000
 20
0.000000000000000
  0
ENDBLK
  8
0
  0
BLOCK
  8
0
  2
SYM11
 70
64
 10
0.000000000000000
 20
0.000000000000000
  0
LINE
  8
0
  6
CONTINUOUS
 62
3
 10
-7.499999046325684
 20
6.500000000000000
 11
-7.499999046325684
 21
-6.500000000000000
  0
LINE
  8
0
  6
CONTINUOUS
 62
3
 10
-7.499997911632022
 20
-6.499999445138201
 11
-7.999998623386432
 21
-5.634070287011241
  0
LINE
  8
0
  6
CONTINUOUS
 62
3
 10
-7.499999203818277
 20
6.499999909101064
 11
-7.999999021366804
 21
5.633876130311293
  0
LINE
  8
0
  6
CONTINUOUS
 62
3
 10
-0.000000000000000
 20
-6.500000000000000
 11
-7.499998092651367
 21
-6.500000000000000
  0
LINE
  8
0
  6
CONTINUOUS
 62
3
 10
0.000000000000000
 20
6.500000000000000
 11
-7.499999046325684
 21
6.500000000000000
  0
LINE
  8
0
  6
CONTINUOUS
 62
3
 10
-7.999999046325684
 20
5.633875846862793
 11
-7.999999046325684
 21
-5.634070396423340
  0
LINE
  8
0
  6
CONTINUOUS
 62
3
 10
0.000000000000000
 20
-6.500000000000000
 11
-0.000000000000000
 21
6.500000000000000
  0
POINT
  8
0
  6
CONTINUOUS
 62
3
 10
0.000000000000000
 20
0.000000000000000
  0
ENDBLK
  8
0
  0
BLOCK
  8
0
  2
SYM12
 70
64
 10
0.000000000000000
 20
0.000000000000000
  0
LINE
  8
0
  6
CONTINUOUS
 62
3
 10
-7.499999046325684
 20
6.500000000000000
 11
-7.499999046325684
 21
-6.500000000000000
  0
LINE
  8
0
  6
CONTINUOUS
 62
3
 10
-7.499997911632022
 20
-6.499999445138201
 11
-7.999998623386432
 21
-5.634070287011241
  0
LINE
  8
0
  6
CONTINUOUS
 62
3
 10
-7.499999203818277
 20
6.499999909101064
 11
-7.999999021366804
 21
5.633876130311293
  0
LINE
  8
0
  6
CONTINUOUS
 62
3
 10
-0.000000000000000
 20
-6.500000000000000
 11
-7.499998092651367
 21
-6.500000000000000
  0
LINE
  8
0
  6
CONTINUOUS
 62
3
 10
0.000000000000000
 20
6.500000000000000
 11
-7.499999046325684
 21
6.500000000000000
  0
LINE
  8
0
  6
CONTINUOUS
 62
3
 10
-7.999999046325684
 20
5.633875846862793
 11
-7.999999046325684
 21
-5.634070396423340
  0
LINE
  8
0
  6
CONTINUOUS
 62
3
 10
0.000000000000000
 20
-6.500000000000000
 11
-0.000000000000000
 21
6.500000000000000
  0
POINT
  8
0
  6
CONTINUOUS
 62
3
 10
0.000000000000000
 20
0.000000000000000
  0
ENDBLK
  8
0
  0
BLOCK
  8
0
  2
SYM13
 70
64
 10
0.000000000000000
 20
0.000000000000000
  0
LINE
  8
0
  6
CONTINUOUS
 62
3
 10
-7.499999046325684
 20
6.500000000000000
 11
-7.499999046325684
 21
-6.500000000000000
  0
LINE
  8
0
  6
CONTINUOUS
 62
3
 10
-7.499997911632022
 20
-6.499999445138201
 11
-7.999998623386432
 21
-5.634070287011241
  0
LINE
  8
0
  6
CONTINUOUS
 62
3
 10
-7.499999203818277
 20
6.499999909101064
 11
-7.999999021366804
 21
5.633876130311293
  0
LINE
  8
0
  6
CONTINUOUS
 62
3
 10
-0.000000000000000
 20
-6.500000000000000
 11
-7.499998092651367
 21
-6.500000000000000
  0
LINE
  8
0
  6
CONTINUOUS
 62
3
 10
0.000000000000000
 20
6.500000000000000
 11
-7.499999046325684
 21
6.500000000000000
  0
LINE
  8
0
  6
CONTINUOUS
 62
3
 10
-7.999999046325684
 20
5.633875846862793
 11
-7.999999046325684
 21
-5.634070396423340
  0
LINE
  8
0
  6
CONTINUOUS
 62
3
 10
0.000000000000000
 20
-6.500000000000000
 11
-0.000000000000000
 21
6.500000000000000
  0
POINT
  8
0
  6
CONTINUOUS
 62
3
 10
0.000000000000000
 20
0.000000000000000
  0
ENDBLK
  8
0
  0
BLOCK
  8
0
  2
SYM14
 70
64
 10
0.000000000000000
 20
0.000000000000000
  0
CIRCLE
  8
0
  6
CONTINUOUS
 62
3
 10
0.000000000000000
 20
0.000000000000000
 40
5.000000000000000
  0
LINE
  8
0
  6
CONTINUOUS
 62
3
 10
4.989816965891634
 20
-2.892629271321994
 11
0.010171343047148
 21
-5.767622431692701
  0
LINE
  8
0
  6
CONTINUOUS
 62
3
 10
4.979648434603448
 20
2.874994693650046
 11
4.989821279270270
 21
-2.892629961559101
  0
LINE
  8
0
  6
CONTINUOUS
 62
3
 10
-0.010171198458579
 20
5.767622839547471
 11
4.979645433681753
 21
2.874994469174567
  0
LINE
  8
0
  6
CONTINUOUS
 62
3
 10
-4.989816965891634
 20
2.892629271321994
 11
-0.010171343047148
 21
5.767622431692701
  0
LINE
  8
0
  6
CONTINUOUS
 62
3
 10
-4.979648434603448
 20
-2.874994693650046
 11
-4.989821279270270
 21
2.892629961559101
  0
LINE
  8
0
  6
CONTINUOUS
 62
3
 10
0.010171198458579
 20
-5.767622839547471
 11
-4.979645433681753
 21
-2.874994469174567
  0
POINT
  8
0
  6
CONTINUOUS
 62
3
 10
0.000000000000000
 20
0.000000000000000
  0
ENDBLK
  8
0
  0
BLOCK
  8
0
  2
SYM15
 70
64
 10
0.000000000000000
 20
0.000000000000000
  0
CIRCLE
  8
0
  6
CONTINUOUS
 62
3
 10
0.000000000000000
 20
0.000000000000000
 40
5.000000000000000
  0
LINE
  8
0
  6
CONTINUOUS
 62
3
 10
4.989816965891634
 20
-2.892629271321994
 11
0.010171343047148
 21
-5.767622431692701
  0
LINE
  8
0
  6
CONTINUOUS
 62
3
 10
4.979648434603448
 20
2.874994693650046
 11
4.989821279270270
 21
-2.892629961559101
  0
LINE
  8
0
  6
CONTINUOUS
 62
3
 10
-0.010171198458579
 20
5.767622839547471
 11
4.979645433681753
 21
2.874994469174567
  0
LINE
  8
0
  6
CONTINUOUS
 62
3
 10
-4.989816965891634
 20
2.892629271321994
 11
-0.010171343047148
 21
5.767622431692701
  0
LINE
  8
0
  6
CONTINUOUS
 62
3
 10
-4.979648434603448
 20
-2.874994693650046
 11
-4.989821279270270
 21
2.892629961559101
  0
LINE
  8
0
  6
CONTINUOUS
 62
3
 10
0.010171198458579
 20
-5.767622839547471
 11
-4.979645433681753
 21
-2.874994469174567
  0
POINT
  8
0
  6
CONTINUOUS
 62
3
 10
0.000000000000000
 20
0.000000000000000
  0
ENDBLK
  8
0
  0
BLOCK
  8
0
  2
SYM16
 70
64
 10
0.000000000000000
 20
0.000000000000000
  0
POINT
  8
0
  6
CONTINUOUS
 62
3
 10
0.000000000000000
 20
5.633955001831055
  0
POINT
  8
0
  6
CONTINUOUS
 62
3
 10
0.500000119209290
 20
6.500000000000000
  0
LINE
  8
0
  6
CONTINUOUS
 62
3
 10
-0.000004704988612
 20
-3.464098175748802
 11
-2.999997577100373
 21
-1.732046218032735
  0
LINE
  8
0
  6
CONTINUOUS
 62
3
 10
0.000006618601731
 20
3.464096896385627
 11
2.999997425948948
 21
1.732046782136365
  0
LINE
  8
0
  6
CONTINUOUS
 62
3
 10
2.999998112093635
 20
-1.732051392778772
 11
-0.000004464412200
 21
-3.464098365415111
  0
LINE
  8
0
  6
CONTINUOUS
 62
3
 10
0.000006701720849
 20
3.464096999935236
 11
-2.999997939551520
 21
1.732051821705568
  0
LINE
  8
0
  6
CONTINUOUS
 62
3
 10
2.999996662140697
 20
1.732046953225571
 11
2.999997615814979
 21
-1.732051023458999
  0
LINE
  8
0
  6
CONTINUOUS
 62
3
 10
-2.999996662140960
 20
-1.732045999551255
 11
-2.999997615815242
 21
1.732051977133316
  0
POINT
  8
0
  6
CONTINUOUS
 62
3
 10
0.000000000000000
 20
0.000000000000000
  0
CIRCLE
  8
0
  6
CONTINUOUS
 62
3
 10
0.000000000000000
 20
0.000000000000000
 40
6.500000000000000
  0
CIRCLE
  8
0
  6
CONTINUOUS
 62
3
 10
0.000000000000000
 20
0.000000000000000
 40
5.633955001831055
  0
ENDBLK
  8
0
  0
BLOCK
  8
0
  2
SYM17
 70
64
 10
0.000000000000000
 20
0.000000000000000
  0
POINT
  8
0
  6
CONTINUOUS
 62
3
 10
0.000000000000000
 20
5.633955001831055
  0
POINT
  8
0
  6
CONTINUOUS
 62
3
 10
0.500000119209290
 20
6.500000000000000
  0
LINE
  8
0
  6
CONTINUOUS
 62
3
 10
-0.000004704988612
 20
-3.464098175748802
 11
-2.999997577100373
 21
-1.732046218032735
  0
LINE
  8
0
  6
CONTINUOUS
 62
3
 10
0.000006618601731
 20
3.464096896385627
 11
2.999997425948948
 21
1.732046782136365
  0
LINE
  8
0
  6
CONTINUOUS
 62
3
 10
2.999998112093635
 20
-1.732051392778772
 11
-0.000004464412200
 21
-3.464098365415111
  0
LINE
  8
0
  6
CONTINUOUS
 62
3
 10
0.000006701720849
 20
3.464096999935236
 11
-2.999997939551520
 21
1.732051821705568
  0
LINE
  8
0
  6
CONTINUOUS
 62
3
 10
2.999996662140697
 20
1.732046953225571
 11
2.999997615814979
 21
-1.732051023458999
  0
LINE
  8
0
  6
CONTINUOUS
 62
3
 10
-2.999996662140960
 20
-1.732045999551255
 11
-2.999997615815242
 21
1.732051977133316
  0
POINT
  8
0
  6
CONTINUOUS
 62
3
 10
0.000000000000000
 20
0.000000000000000
  0
CIRCLE
  8
0
  6
CONTINUOUS
 62
3
 10
0.000000000000000
 20
0.000000000000000
 40
6.500000000000000
  0
CIRCLE
  8
0
  6
CONTINUOUS
 62
3
 10
0.000000000000000
 20
0.000000000000000
 40
5.633955001831055
  0
ENDBLK
  8
0
  0
BLOCK
  8
0
  2
SYM18
 70
64
 10
0.000000000000000
 20
0.000000000000000
  0
POINT
  8
0
  6
CONTINUOUS
 62
3
 10
0.000000000000000
 20
5.633955001831055
  0
POINT
  8
0
  6
CONTINUOUS
 62
3
 10
0.500000119209290
 20
6.500000000000000
  0
LINE
  8
0
  6
CONTINUOUS
 62
3
 10
-0.000004704988612
 20
-3.464098175748802
 11
-2.999997577100373
 21
-1.732046218032735
  0
LINE
  8
0
  6
CONTINUOUS
 62
3
 10
0.000006618601731
 20
3.464096896385627
 11
2.999997425948948
 21
1.732046782136365
  0
LINE
  8
0
  6
CONTINUOUS
 62
3
 10
2.999998112093635
 20
-1.732051392778772
 11
-0.000004464412200
 21
-3.464098365415111
  0
LINE
  8
0
  6
CONTINUOUS
 62
3
 10
0.000006701720849
 20
3.464096999935236
 11
-2.999997939551520
 21
1.732051821705568
  0
LINE
  8
0
  6
CONTINUOUS
 62
3
 10
2.999996662140697
 20
1.732046953225571
 11
2.999997615814979
 21
-1.732051023458999
  0
LINE
  8
0
  6
CONTINUOUS
 62
3
 10
-2.999996662140960
 20
-1.732045999551255
 11
-2.999997615815242
 21
1.732051977133316
  0
POINT
  8
0
  6
CONTINUOUS
 62
3
 10
0.000000000000000
 20
0.000000000000000
  0
CIRCLE
  8
0
  6
CONTINUOUS
 62
3
 10
0.000000000000000
 20
0.000000000000000
 40
6.500000000000000
  0
CIRCLE
  8
0
  6
CONTINUOUS
 62
3
 10
0.000000000000000
 20
0.000000000000000
 40
5.633955001831055
  0
ENDBLK
  8
0
  0
BLOCK
  8
0
  2
SYM19
 70
64
 10
0.000000000000000
 20
0.000000000000000
  0
POINT
  8
0
  6
CONTINUOUS
 62
3
 10
0.000000000000000
 20
5.633955001831055
  0
POINT
  8
0
  6
CONTINUOUS
 62
3
 10
0.500000119209290
 20
6.500000000000000
  0
LINE
  8
0
  6
CONTINUOUS
 62
3
 10
-0.000004704988612
 20
-3.464098175748802
 11
-2.999997577100373
 21
-1.732046218032735
  0
LINE
  8
0
  6
CONTINUOUS
 62
3
 10
0.000006618601731
 20
3.464096896385627
 11
2.999997425948948
 21
1.732046782136365
  0
LINE
  8
0
  6
CONTINUOUS
 62
3
 10
2.999998112093635
 20
-1.732051392778772
 11
-0.000004464412200
 21
-3.464098365415111
  0
LINE
  8
0
  6
CONTINUOUS
 62
3
 10
0.000006701720849
 20
3.464096999935236
 11
-2.999997939551520
 21
1.732051821705568
  0
LINE
  8
0
  6
CONTINUOUS
 62
3
 10
2.999996662140697
 20
1.732046953225571
 11
2.999997615814979
 21
-1.732051023458999
  0
LINE
  8
0
  6
CONTINUOUS
 62
3
 10
-2.999996662140960
 20
-1.732045999551255
 11
-2.999997615815242
 21
1.732051977133316
  0
POINT
  8
0
  6
CONTINUOUS
 62
3
 10
0.000000000000000
 20
0.000000000000000
  0
CIRCLE
  8
0
  6
CONTINUOUS
 62
3
 10
0.000000000000000
 20
0.000000000000000
 40
6.500000000000000
  0
CIRCLE
  8
0
  6
CONTINUOUS
 62
3
 10
0.000000000000000
 20
0.000000000000000
 40
5.633955001831055
  0
ENDBLK
  8
0
  0
BLOCK
  8
0
  2
SYM20
 70
64
 10
0.000000000000000
 20
0.000000000000000
  0
POINT
  8
0
  6
CONTINUOUS
 62
3
 10
0.000000000000000
 20
5.633955001831055
  0
POINT
  8
0
  6
CONTINUOUS
 62
3
 10
0.500000119209290
 20
6.500000000000000
  0
LINE
  8
0
  6
CONTINUOUS
 62
3
 10
-0.000004704988612
 20
-3.464098175748802
 11
-2.999997577100373
 21
-1.732046218032735
  0
LINE
  8
0
  6
CONTINUOUS
 62
3
 10
0.000006618601731
 20
3.464096896385627
 11
2.999997425948948
 21
1.732046782136365
  0
LINE
  8
0
  6
CONTINUOUS
 62
3
 10
2.999998112093635
 20
-1.732051392778772
 11
-0.000004464412200
 21
-3.464098365415111
  0
LINE
  8
0
  6
CONTINUOUS
 62
3
 10
0.000006701720849
 20
3.464096999935236
 11
-2.999997939551520
 21
1.732051821705568
  0
LINE
  8
0
  6
CONTINUOUS
 62
3
 10
2.999996662140697
 20
1.732046953225571
 11
2.999997615814979
 21
-1.732051023458999
  0
LINE
  8
0
  6
CONTINUOUS
 62
3
 10
-2.999996662140960
 20
-1.732045999551255
 11
-2.999997615815242
 21
1.732051977133316
  0
POINT
  8
0
  6
CONTINUOUS
 62
3
 10
0.000000000000000
 20
0.000000000000000
  0
CIRCLE
  8
0
  6
CONTINUOUS
 62
3
 10
0.000000000000000
 20
0.000000000000000
 40
6.500000000000000
  0
CIRCLE
  8
0
  6
CONTINUOUS
 62
3
 10
0.000000000000000
 20
0.000000000000000
 40
5.633955001831055
  0
ENDBLK
  8
0
  0
BLOCK
  8
0
  2
SYM21
 70
64
 10
0.000000000000000
 20
0.000000000000000
  0
POINT
  8
0
  6
CONTINUOUS
 62
3
 10
0.000000000000000
 20
5.633955001831055
  0
POINT
  8
0
  6
CONTINUOUS
 62
3
 10
0.500000119209290
 20
6.500000000000000
  0
LINE
  8
0
  6
CONTINUOUS
 62
3
 10
-0.000004704988612
 20
-3.464098175748802
 11
-2.999997577100373
 21
-1.732046218032735
  0
LINE
  8
0
  6
CONTINUOUS
 62
3
 10
0.000006618601731
 20
3.464096896385627
 11
2.999997425948948
 21
1.732046782136365
  0
LINE
  8
0
  6
CONTINUOUS
 62
3
 10
2.999998112093635
 20
-1.732051392778772
 11
-0.000004464412200
 21
-3.464098365415111
  0
LINE
  8
0
  6
CONTINUOUS
 62
3
 10
0.000006701720849
 20
3.464096999935236
 11
-2.999997939551520
 21
1.732051821705568
  0
LINE
  8
0
  6
CONTINUOUS
 62
3
 10
2.999996662140697
 20
1.732046953225571
 11
2.999997615814979
 21
-1.732051023458999
  0
LINE
  8
0
  6
CONTINUOUS
 62
3
 10
-2.999996662140960
 20
-1.732045999551255
 11
-2.999997615815242
 21
1.732051977133316
  0
POINT
  8
0
  6
CONTINUOUS
 62
3
 10
0.000000000000000
 20
0.000000000000000
  0
CIRCLE
  8
0
  6
CONTINUOUS
 62
3
 10
0.000000000000000
 20
0.000000000000000
 40
6.500000000000000
  0
CIRCLE
  8
0
  6
CONTINUOUS
 62
3
 10
0.000000000000000
 20
0.000000000000000
 40
5.633955001831055
  0
ENDBLK
  8
0
  0
BLOCK
  8
0
  2
SYM22
 70
64
 10
0.000000000000000
 20
0.000000000000000
  0
POINT
  8
0
  6
CONTINUOUS
 62
3
 10
0.000000000000000
 20
5.633955001831055
  0
POINT
  8
0
  6
CONTINUOUS
 62
3
 10
0.500000119209290
 20
6.500000000000000
  0
LINE
  8
0
  6
CONTINUOUS
 62
3
 10
-0.000004704988612
 20
-3.464098175748802
 11
-2.999997577100373
 21
-1.732046218032735
  0
LINE
  8
0
  6
CONTINUOUS
 62
3
 10
0.000006618601731
 20
3.464096896385627
 11
2.999997425948948
 21
1.732046782136365
  0
LINE
  8
0
  6
CONTINUOUS
 62
3
 10
2.999998112093635
 20
-1.732051392778772
 11
-0.000004464412200
 21
-3.464098365415111
  0
LINE
  8
0
  6
CONTINUOUS
 62
3
 10
0.000006701720849
 20
3.464096999935236
 11
-2.999997939551520
 21
1.732051821705568
  0
LINE
  8
0
  6
CONTINUOUS
 62
3
 10
2.999996662140697
 20
1.732046953225571
 11
2.999997615814979
 21
-1.732051023458999
  0
LINE
  8
0
  6
CONTINUOUS
 62
3
 10
-2.999996662140960
 20
-1.732045999551255
 11
-2.999997615815242
 21
1.732051977133316
  0
POINT
  8
0
  6
CONTINUOUS
 62
3
 10
0.000000000000000
 20
0.000000000000000
  0
CIRCLE
  8
0
  6
CONTINUOUS
 62
3
 10
0.000000000000000
 20
0.000000000000000
 40
6.500000000000000
  0
CIRCLE
  8
0
  6
CONTINUOUS
 62
3
 10
0.000000000000000
 20
0.000000000000000
 40
5.633955001831055
  0
ENDBLK
  8
0
  0
BLOCK
  8
0
  2
SYM23
 70
64
 10
0.000000000000000
 20
0.000000000000000
  0
POINT
  8
0
  6
CONTINUOUS
 62
3
 10
0.000000000000000
 20
5.633955001831055
  0
POINT
  8
0
  6
CONTINUOUS
 62
3
 10
0.500000119209290
 20
6.500000000000000
  0
LINE
  8
0
  6
CONTINUOUS
 62
3
 10
-0.000004704988612
 20
-3.464098175748802
 11
-2.999997577100373
 21
-1.732046218032735
  0
LINE
  8
0
  6
CONTINUOUS
 62
3
 10
0.000006618601731
 20
3.464096896385627
 11
2.999997425948948
 21
1.732046782136365
  0
LINE
  8
0
  6
CONTINUOUS
 62
3
 10
2.999998112093635
 20
-1.732051392778772
 11
-0.000004464412200
 21
-3.464098365415111
  0
LINE
  8
0
  6
CONTINUOUS
 62
3
 10
0.000006701720849
 20
3.464096999935236
 11
-2.999997939551520
 21
1.732051821705568
  0
LINE
  8
0
  6
CONTINUOUS
 62
3
 10
2.999996662140697
 20
1.732046953225571
 11
2.999997615814979
 21
-1.732051023458999
  0
LINE
  8
0
  6
CONTINUOUS
 62
3
 10
-2.999996662140960
 20
-1.732045999551255
 11
-2.999997615815242
 21
1.732051977133316
  0
POINT
  8
0
  6
CONTINUOUS
 62
3
 10
0.000000000000000
 20
0.000000000000000
  0
CIRCLE
  8
0
  6
CONTINUOUS
 62
3
 10
0.000000000000000
 20
0.000000000000000
 40
6.500000000000000
  0
CIRCLE
  8
0
  6
CONTINUOUS
 62
3
 10
0.000000000000000
 20
0.000000000000000
 40
5.633955001831055
  0
ENDBLK
  8
0
  0
BLOCK
  8
0
  2
SYM24
 70
64
 10
0.000000000000000
 20
0.000000000000000
  0
POINT
  8
0
  6
CONTINUOUS
 62
3
 10
0.000000000000000
 20
5.633955001831055
  0
POINT
  8
0
  6
CONTINUOUS
 62
3
 10
0.500000119209290
 20
6.500000000000000
  0
LINE
  8
0
  6
CONTINUOUS
 62
3
 10
-0.000004704988612
 20
-3.464098175748802
 11
-2.999997577100373
 21
-1.732046218032735
  0
LINE
  8
0
  6
CONTINUOUS
 62
3
 10
0.000006618601731
 20
3.464096896385627
 11
2.999997425948948
 21
1.732046782136365
  0
LINE
  8
0
  6
CONTINUOUS
 62
3
 10
2.999998112093635
 20
-1.732051392778772
 11
-0.000004464412200
 21
-3.464098365415111
  0
LINE
  8
0
  6
CONTINUOUS
 62
3
 10
0.000006701720849
 20
3.464096999935236
 11
-2.999997939551520
 21
1.732051821705568
  0
LINE
  8
0
  6
CONTINUOUS
 62
3
 10
2.999996662140697
 20
1.732046953225571
 11
2.999997615814979
 21
-1.732051023458999
  0
LINE
  8
0
  6
CONTINUOUS
 62
3
 10
-2.999996662140960
 20
-1.732045999551255
 11
-2.999997615815242
 21
1.732051977133316
  0
POINT
  8
0
  6
CONTINUOUS
 62
3
 10
0.000000000000000
 20
0.000000000000000
  0
CIRCLE
  8
0
  6
CONTINUOUS
 62
3
 10
0.000000000000000
 20
0.000000000000000
 40
6.500000000000000
  0
CIRCLE
  8
0
  6
CONTINUOUS
 62
3
 10
0.000000000000000
 20
0.000000000000000
 40
5.633955001831055
  0
ENDBLK
  8
0
  0
BLOCK
  8
0
  2
SYM25
 70
64
 10
0.000000000000000
 20
0.000000000000000
  0
POINT
  8
0
  6
CONTINUOUS
 62
3
 10
0.000000000000000
 20
5.633955001831055
  0
POINT
  8
0
  6
CONTINUOUS
 62
3
 10
0.500000119209290
 20
6.500000000000000
  0
LINE
  8
0
  6
CONTINUOUS
 62
3
 10
-0.000004704988612
 20
-3.464098175748802
 11
-2.999997577100373
 21
-1.732046218032735
  0
LINE
  8
0
  6
CONTINUOUS
 62
3
 10
0.000006618601731
 20
3.464096896385627
 11
2.999997425948948
 21
1.732046782136365
  0
LINE
  8
0
  6
CONTINUOUS
 62
3
 10
2.999998112093635
 20
-1.732051392778772
 11
-0.000004464412200
 21
-3.464098365415111
  0
LINE
  8
0
  6
CONTINUOUS
 62
3
 10
0.000006701720849
 20
3.464096999935236
 11
-2.999997939551520
 21
1.732051821705568
  0
LINE
  8
0
  6
CONTINUOUS
 62
3
 10
2.999996662140697
 20
1.732046953225571
 11
2.999997615814979
 21
-1.732051023458999
  0
LINE
  8
0
  6
CONTINUOUS
 62
3
 10
-2.999996662140960
 20
-1.732045999551255
 11
-2.999997615815242
 21
1.732051977133316
  0
POINT
  8
0
  6
CONTINUOUS
 62
3
 10
0.000000000000000
 20
0.000000000000000
  0
CIRCLE
  8
0
  6
CONTINUOUS
 62
3
 10
0.000000000000000
 20
0.000000000000000
 40
6.500000000000000
  0
CIRCLE
  8
0
  6
CONTINUOUS
 62
3
 10
0.000000000000000
 20
0.000000000000000
 40
5.633955001831055
  0
ENDBLK
  8
0
  0
BLOCK
  8
0
  2
SYM26
 70
64
 10
0.000000000000000
 20
0.000000000000000
  0
ARC
  8
0
  6
CONTINUOUS
 62
3
 10
6.399999618530273
 20
0.000000000000000
 40
9.000000000000000
 50
163.398451589674950
 51
196.601531107481040
  0
POINT
  8
0
  6
CONTINUOUS
 62
3
 10
0.000000000000000
 20
0.000000000000000
  0
LINE
  8
0
  6
CONTINUOUS
 62
3
 10
0.000000000000000
 20
-3.500000000000000
 11
-0.000000000000000
 21
3.500000000000000
  0
LINE
  8
0
  6
CONTINUOUS
 62
3
 10
0.000000000000000
 20
-3.500000000000000
 11
-0.000000000000000
 21
3.500000000000000
  0
LINE
  8
0
  6
CONTINUOUS
 62
3
 10
0.000000000000000
 20
3.500000000000000
 11
-0.979025304317474
 21
3.500000000000000
  0
LINE
  8
0
  6
CONTINUOUS
 62
3
 10
-0.000000000000000
 20
-3.500000000000000
 11
-0.979025304317474
 21
-3.500000000000000
  0
ARC
  8
0
  6
CONTINUOUS
 62
3
 10
-0.979025304317474
 20
2.200000762939453
 40
1.299999237060547
 50
90.000000000000000
 51
163.398451589674950
  0
ARC
  8
0
  6
CONTINUOUS
 62
3
 10
-0.979025304317474
 20
-2.200000762939453
 40
1.299999237060547
 50
196.601531107481040
 51
270.000000000000000
  0
ENDBLK
  8
0
  0
BLOCK
  8
0
  2
SYM27
 70
64
 10
0.000000000000000
 20
0.000000000000000
  0
ARC
  8
0
  6
CONTINUOUS
 62
3
 10
-0.979025304317474
 20
-2.200000762939453
 40
1.299999237060547
 50
196.601531107481040
 51
270.000000000000000
  0
ARC
  8
0
  6
CONTINUOUS
 62
3
 10
-0.979025304317474
 20
2.200000762939453
 40
1.299999237060547
 50
90.000000000000000
 51
163.398451589674950
  0
LINE
  8
0
  6
CONTINUOUS
 62
3
 10
-0.000000000000000
 20
-3.500000000000000
 11
-0.979025304317474
 21
-3.500000000000000
  0
LINE
  8
0
  6
CONTINUOUS
 62
3
 10
0.000000000000000
 20
3.500000000000000
 11
-0.979025304317474
 21
3.500000000000000
  0
LINE
  8
0
  6
CONTINUOUS
 62
3
 10
0.000000000000000
 20
-3.500000000000000
 11
-0.000000000000000
 21
3.500000000000000
  0
LINE
  8
0
  6
CONTINUOUS
 62
3
 10
0.000000000000000
 20
-3.500000000000000
 11
-0.000000000000000
 21
3.500000000000000
  0
POINT
  8
0
  6
CONTINUOUS
 62
3
 10
0.000000000000000
 20
0.000000000000000
  0
ARC
  8
0
  6
CONTINUOUS
 62
3
 10
6.399999618530273
 20
0.000000000000000
 40
9.000000000000000
 50
163.398451589674950
 51
196.601531107481040
  0
ENDBLK
  8
0
  0
ENDSEC
  0
SECTION
  2
ENTITIES
  0
LINE
  8
0
  6
CONTINUOUS
 62
3
 10
359.326811858421480
 20
-308.327726371506740
 11
345.771086206761420
 21
-308.327726371506740
  0
LINE
  8
0
  6
CONTINUOUS
 62
3
 10
479.771086206761480
 20
-308.327726371506740
 11
493.326811858421540
 21
-308.327726371506740
  0
LINE
  8
0
  6
CONTINUOUS
 62
3
 10
396.548949032591510
 20
-168.327726371506710
 11
404.548949032591510
 21
-168.327726371506710
  0
LINE
  8
0
  6
CONTINUOUS
 62
3
 10
396.548949032591510
 20
-156.327726371506710
 11
404.548949032591510
 21
-156.327726371506710
  0
ARC
  8
0
  6
CONTINUOUS
 62
3
 10
195.725949669269310
 20
-162.327726371506710
 40
6.000000000000000
 50
180.000000000000000
 51
270.000000000000000
  0
LINE
  8
0
  6
CONTINUOUS
 62
3
 10
195.725949669269310
 20
-168.327726371506710
 11
244.725949669269340
 21
-168.327726371506710
  0
ARC
  8
0
  6
CONTINUOUS
 62
3
 10
195.725949669269310
 20
-162.327726371506710
 40
6.000000000000000
 50
90.000000000000000
 51
180.000000000000000
  0
LINE
  8
0
  6
CONTINUOUS
 62
3
 10
195.725949669269310
 20
-156.327726371506710
 11
244.725949669269310
 21
-156.327726371506710
  0
LINE
  8
0
  6
CONTINUOUS
 62
3
 10
-468.811168367538700
 20
-213.597636261823570
 11
-469.297971759244320
 21
-214.084439653529190
  0
LINE
  8
0
  6
CONTINUOUS
 62
3
 10
-462.164364894125010
 20
-220.244439735237310
 11
-462.651168285830640
 21
-220.731243126942900
  0
LINE
  8
0
  6
CONTINUOUS
 62
3
 10
-469.124306976507510
 20
-213.850183212673950
 11
-462.447207674034590
 21
-220.527282515146880
  0
LINE
  8
0
  6
CONTINUOUS
 62
3
 10
-468.811168367538700
 20
-213.597636261823570
 11
-462.164364894125010
 21
-220.244439735237310
  0
POINT
  8
0
  6
CONTINUOUS
 62
3
 10
-465.487766630831860
 20
-216.921037998530440
  0
ARC
  8
0
  6
CONTINUOUS
 62
3
 10
-463.225025065904840
 20
-214.658296433603400
 40
6.099999427795398
 50
174.601910595264880
 51
275.398072101891500
  0
LINE
  8
0
  6
CONTINUOUS
 62
3
 10
-367.977741640077170
 20
-213.597636261823570
 11
-367.490938248371550
 21
-214.084439653529190
  0
LINE
  8
0
  6
CONTINUOUS
 62
3
 10
-374.624545113490850
 20
-220.244439735237310
 11
-374.137741721785230
 21
-220.731243126942900
  0
LINE
  8
0
  6
CONTINUOUS
 62
3
 10
-367.664603031108360
 20
-213.850183212673950
 11
-374.341702333581280
 21
-220.527282515146880
  0
LINE
  8
0
  6
CONTINUOUS
 62
3
 10
-367.977741640077170
 20
-213.597636261823570
 11
-374.624545113490850
 21
-220.244439735237310
  0
POINT
  8
0
  6
CONTINUOUS
 62
3
 10
-371.301143376784010
 20
-216.921037998530440
  0
ARC
  8
0
  6
CONTINUOUS
 62
3
 10
-373.563884941711020
 20
-214.658296433603400
 40
6.099999427795406
 50
264.601927898108500
 51
5.398089404735109
  0
LINE
  8
0
  6
CONTINUOUS
 62
3
 10
-367.977741640077170
 20
-126.057816481189220
 11
-367.490938248371550
 21
-125.571013089483600
  0
LINE
  8
0
  6
CONTINUOUS
 62
3
 10
-374.624545113490850
 20
-119.411013007775500
 11
-374.137741721785230
 21
-118.924209616069880
  0
LINE
  8
0
  6
CONTINUOUS
 62
3
 10
-367.664603031108360
 20
-125.805269530338840
 11
-374.341702333581280
 21
-119.128170227865930
  0
LINE
  8
0
  6
CONTINUOUS
 62
3
 10
-367.977741640077170
 20
-126.057816481189220
 11
-374.624545113490850
 21
-119.411013007775500
  0
POINT
  8
0
  6
CONTINUOUS
 62
3
 10
-371.301143376784010
 20
-122.734414744482360
  0
ARC
  8
0
  6
CONTINUOUS
 62
3
 10
-373.563884941711020
 20
-124.997156309409400
 40
6.099999427795398
 50
354.601910595264880
 51
95.398072101891515
  0
ARC
  8
0
  6
CONTINUOUS
 62
3
 10
-428.894455003807930
 20
-90.327714361615989
 40
10.000000000000000
 50
180.000000000000000
 51
270.000000000000000
  0
ARC
  8
0
  6
CONTINUOUS
 62
3
 10
-407.894455003807930
 20
-90.327714361615989
 40
10.000000000000000
 50
270.000000000000000
 51
0.000000000000000
  0
LINE
  8
0
  6
CONTINUOUS
 62
3
 10
-428.894455003807930
 20
-100.327714361615980
 11
-407.894455003807930
 21
-100.327714361615980
  0
LINE
  8
0
  6
DASHDOT
 62
4
 10
179.274090322789760
 20
-282.535879173229200
 11
125.342530928807000
 21
-282.535879173229200
  0
LINE
  8
0
  6
DASHDOT
 62
4
 10
179.274090322789760
 20
-42.119573569803357
 11
125.342530928807000
 21
-42.119573569803357
  0
LINE
  8
0
  6
CONTINUOUS
 62
3
 10
170.225949669269970
 20
-302.327726371506740
 11
155.225949669269970
 21
-302.327726371506740
  0
LINE
  8
0
  6
CONTINUOUS
 62
3
 10
174.225949669270190
 20
-33.327740036093907
 11
174.225949669270420
 21
-162.327726371506710
  0
LINE
  8
0
  6
CONTINUOUS
 62
3
 10
152.225949669270190
 20
-25.327740036093907
 11
152.225949669270190
 21
-299.327712706919560
  0
LINE
  8
0
  6
CONTINUOUS
 62
3
 10
170.225949669270190
 20
-22.327740036093907
 11
170.225949669273380
 21
-162.327726371506710
  0
LINE
  8
0
  6
CONTINUOUS
 62
3
 10
170.225949669270190
 20
-22.327740036093907
 11
155.225949669269970
 21
-22.327740036093907
  0
LINE
  8
0
  6
CONTINUOUS
 62
3
 10
173.225949669270190
 20
-32.327740036093907
 11
170.225949669270420
 21
-32.327740036093907
  0
LINE
  8
0
  6
CONTINUOUS
 62
3
 10
174.225949669270420
 20
-108.986850106486570
 11
177.882957488179470
 21
-109.178505765096100
  0
LINE
  8
0
  6
CONTINUOUS
 62
3
 10
180.725949619450570
 20
-112.174394369359980
 11
180.725949619450570
 21
-162.327726371506710
  0
LINE
  8
0
  6
CONTINUOUS
 62
3
 10
182.725949669270190
 20
-121.327740036093900
 11
182.725949669270190
 21
-203.327740036093900
  0
LINE
  8
0
  6
CONTINUOUS
 62
3
 10
180.725949619450570
 20
-212.480860000536470
 11
180.725949619450570
 21
-162.327726371506710
  0
LINE
  8
0
  6
CONTINUOUS
 62
3
 10
174.225949669270420
 20
-291.327726371506740
 11
174.225949669270420
 21
-162.327726371506710
  0
LINE
  8
0
  6
CONTINUOUS
 62
3
 10
177.882957488179470
 20
-215.476748604800350
 11
174.225949669270420
 21
-215.668404263409880
  0
LINE
  8
0
  6
CONTINUOUS
 62
3
 10
170.225949669269970
 20
-302.327726371506740
 11
170.225949669269970
 21
-162.327726371506710
  0
LINE
  8
0
  6
CONTINUOUS
 62
3
 10
173.225949669270420
 20
-292.327726371506740
 11
170.225949669269970
 21
-292.327726371506740
  0
LINE
  8
0
  6
CONTINUOUS
 62
3
 10
173.225949669270190
 20
-32.327740036093907
 11
174.225949669270190
 21
-33.327740036093907
  0
LINE
  8
0
  6
CONTINUOUS
 62
3
 10
181.725949644360720
 20
-203.327740036093900
 11
182.725949669270190
 21
-203.327740036093900
  0
LINE
  8
0
  6
CONTINUOUS
 62
3
 10
174.225949669270420
 20
-291.327726371506740
 11
173.225949669270420
 21
-292.327726371506740
  0
LINE
  8
0
  6
CONTINUOUS
 62
3
 10
181.725949644360720
 20
-121.327740036093900
 11
182.725949669270190
 21
-121.327740036093900
  0
LINE
  8
0
  6
CONTINUOUS
 62
3
 10
151.824025880623570
 20
-38.023913368465834
 11
131.535560232968890
 21
-73.164566677819465
  0
LINE
  8
0
  6
CONTINUOUS
 62
3
 10
131.603755003090980
 20
-83.425541942398212
 11
151.533175942336100
 21
-59.445200516343427
  0
LINE
  8
0
  6
CONTINUOUS
 62
3
 10
131.603755003090980
 20
-89.264376707230184
 11
151.533175942336100
 21
-65.284035281175392
  0
LINE
  8
0
  6
CONTINUOUS
 62
3
 10
148.922825516200160
 20
-90.346902607046530
 11
133.752064418122670
 21
-90.346902607046530
  0
LINE
  8
0
  6
CONTINUOUS
 62
3
 10
187.785764416273390
 20
-182.327740036093900
 11
187.225956795137990
 21
-182.177740036094260
  0
LINE
  8
0
  6
CONTINUOUS
 62
3
 10
244.325949669269220
 20
-182.327740036093900
 11
187.785764416273850
 21
-182.327740036093900
  0
LINE
  8
0
  6
CONTINUOUS
 62
3
 10
184.725949669269280
 20
-162.327740036093900
 11
184.725949669269280
 21
-184.427740036094260
  0
LINE
  8
0
  6
CONTINUOUS
 62
3
 10
184.325949669269190
 20
-184.827740036093900
 11
184.725949669269280
 21
-184.427740036094260
  0
LINE
  8
0
  6
CONTINUOUS
 62
3
 10
187.225956795137990
 20
-182.177740036094260
 11
186.325949669269190
 21
-182.177740036094260
  0
LINE
  8
0
  6
CONTINUOUS
 62
3
 10
187.785764416273390
 20
-142.327740036093900
 11
187.225956795137990
 21
-142.477740036094450
  0
LINE
  8
0
  6
CONTINUOUS
 62
3
 10
184.725949669269280
 20
-162.327740036093900
 11
184.725949669269280
 21
-140.227740036094450
  0
LINE
  8
0
  6
CONTINUOUS
 62
3
 10
184.325949669269190
 20
-139.827740036093900
 11
184.725949669269280
 21
-140.227740036094450
  0
LINE
  8
0
  6
CONTINUOUS
 62
3
 10
187.225956795137990
 20
-142.477740036094450
 11
186.325949669269190
 21
-142.477740036094450
  0
LINE
  8
0
  6
CONTINUOUS
 62
3
 10
244.325949669269220
 20
-142.327740036093900
 11
187.785764416273850
 21
-142.327740036093900
  0
LINE
  8
0
  6
CONTINUOUS
 62
3
 10
184.325949669269190
 20
-139.827740036093900
 11
182.725949669270190
 21
-139.827740036093900
  0
LINE
  8
0
  6
CONTINUOUS
 62
3
 10
184.325949669269190
 20
-184.827740036093900
 11
182.725949669270190
 21
-184.827740036093900
  0
ARC
  8
0
  6
CONTINUOUS
 62
3
 10
155.225949669269970
 20
-25.327740036093907
 40
3.000000000000000
 50
90.000000000000000
 51
180.000000000000000
  0
ARC
  8
0
  6
CONTINUOUS
 62
3
 10
181.725949644360720
 20
-120.327740011184650
 40
1.000000024909241
 50
180.000000000000000
 51
270.000000000000000
  0
ARC
  8
0
  6
CONTINUOUS
 62
3
 10
181.725949644360720
 20
-204.327740061003140
 40
1.000000024909241
 50
90.000000000000000
 51
180.000000000000000
  0
ARC
  8
0
  6
CONTINUOUS
 62
3
 10
177.725949619450570
 20
-212.480860000536470
 40
3.000000000000164
 50
273.000000000001080
 51
0.000000000000000
  0
ARC
  8
0
  6
CONTINUOUS
 62
3
 10
155.225949669269970
 20
-305.326445184604380
 40
3.000000000000011
 50
268.323529052110760
 51
0.000000000000000
  0
ARC
  8
0
  6
CONTINUOUS
 62
3
 10
161.225949669269970
 20
-305.327726371506740
 40
3.000000000000000
 50
90.000000000000000
 51
180.000000000000000
  0
ARC
  8
0
  6
CONTINUOUS
 62
3
 10
177.725949619450570
 20
-112.174394369359980
 40
3.000000000000000
 50
0.000000000000000
 51
86.999999999998920
  0
ARC
  8
0
  6
CONTINUOUS
 62
3
 10
149.225949669270190
 20
-36.523913368465834
 40
3.000000000000049
 50
330.000000000000570
 51
0.000000000000000
  0
ARC
  8
0
  6
CONTINUOUS
 62
3
 10
128.937484021615520
 20
-71.664566677819465
 40
2.999999999999993
 50
271.999999999999320
 51
330.000000000000570
  0
ARC
  8
0
  6
CONTINUOUS
 62
3
 10
129.296528730024620
 20
-87.346902607046303
 40
3.000000000000227
 50
270.000000000000000
 51
320.270935214703170
  0
ARC
  8
0
  6
CONTINUOUS
 62
3
 10
149.225949669270190
 20
-63.366561180991972
 40
2.999999999999968
 50
320.270935214704370
 51
0.000000000000000
  0
ARC
  8
0
  6
CONTINUOUS
 62
3
 10
129.296528730024620
 20
-81.508067842214331
 40
3.000000000000227
 50
270.000000000000000
 51
320.270935214703170
  0
ARC
  8
0
  6
CONTINUOUS
 62
3
 10
149.225949669270190
 20
-57.527726416160000
 40
2.999999999999973
 50
320.270935214704250
 51
0.000000000000000
  0
ARC
  8
0
  6
CONTINUOUS
 62
3
 10
155.225949669269970
 20
-299.327712706919560
 40
2.999999999999773
 50
180.000000000000000
 51
270.000000000000000
  0
ARC
  8
0
  6
CONTINUOUS
 62
3
 10
186.325949669269190
 20
-183.777740036093720
 40
1.599999999999454
 50
90.000000000000000
 51
180.000000000000000
  0
ARC
  8
0
  6
CONTINUOUS
 62
3
 10
186.325949669269190
 20
-140.877740036094080
 40
1.599999999999909
 50
180.000000000000000
 51
270.000000000000000
  0
LINE
  8
0
  6
CONTINUOUS
 62
3
 10
166.225949669273180
 20
-157.327726371506710
 11
170.225949669273260
 21
-157.327726371506710
  0
LINE
  8
0
  6
CONTINUOUS
 62
3
 10
170.225949669271560
 20
-82.063824052750448
 11
166.225949669271590
 21
-82.063824052750448
  0
LINE
  8
0
  6
CONTINUOUS
 62
3
 10
170.225949669270850
 20
-50.611997618988383
 11
166.225949669270880
 21
-50.611997618988383
  0
LINE
  8
0
  6
CONTINUOUS
 62
3
 10
163.225949669270900
 20
-53.611997618988454
 11
163.225949669273210
 21
-154.327726371506800
  0
ARC
  8
0
  6
CONTINUOUS
 62
3
 10
166.225949669270880
 20
-53.611997618988383
 40
3.000000000000000
 50
90.000000000000000
 51
180.000000000001340
  0
ARC
  8
0
  6
CONTINUOUS
 62
3
 10
166.225949669273180
 20
-154.327726371506710
 40
2.999999999999972
 50
180.000000000001620
 51
270.000000000000000
  0
ARC
  8
0
  6
CONTINUOUS
 62
3
 10
166.225949669271590
 20
-85.063824052750448
 40
3.000000000000000
 50
90.000000000000000
 51
180.000000000001080
  0
LINE
  8
0
  6
CONTINUOUS
 62
3
 10
166.225949669273180
 20
-167.327726371506710
 11
170.225949669273260
 21
-167.327726371506710
  0
LINE
  8
0
  6
CONTINUOUS
 62
3
 10
170.225949669271560
 20
-242.591628690262980
 11
166.225949669271590
 21
-242.591628690262980
  0
LINE
  8
0
  6
CONTINUOUS
 62
3
 10
170.225949669270850
 20
-274.043455124025060
 11
166.225949669270880
 21
-274.043455124025060
  0
ARC
  8
0
  6
CONTINUOUS
 62
3
 10
166.225949669271590
 20
-239.591628690262980
 40
2.999999999999972
 50
179.999999999998890
 51
270.000000000000000
  0
ARC
  8
0
  6
CONTINUOUS
 62
3
 10
166.225949669273180
 20
-170.327726371506710
 40
3.000000000000000
 50
90.000000000000000
 51
179.999999999998890
  0
LINE
  8
0
  6
CONTINUOUS
 62
3
 10
163.225949669270900
 20
-271.043455124025000
 11
163.225949669273210
 21
-170.327726371506660
  0
ARC
  8
0
  6
CONTINUOUS
 62
3
 10
166.225949669270880
 20
-271.043455124025060
 40
2.999999999999972
 50
179.999999999998890
 51
270.000000000000000
  0
LINE
  8
0
  6
DASHDOT
 62
4
 10
122.286549532314630
 20
-162.327726371506710
 11
258.843368392275580
 21
-162.327726371506710
  0
LINE
  8
0
  6
DASHDOT
 62
4
 10
179.274090322789820
 20
50.518370320407051
 11
125.342530928807060
 21
50.518370320407051
  0
LINE
  8
0
  6
DASHDOT
 62
4
 10
179.274090322789820
 20
290.934675923832860
 11
125.342530928807060
 21
290.934675923832860
  0
LINE
  8
0
  6
CONTINUOUS
 62
3
 10
170.225949669270250
 20
310.726509457542310
 11
155.225949669270020
 21
310.726509457542310
  0
LINE
  8
0
  6
CONTINUOUS
 62
3
 10
173.225949669270250
 20
300.726509457542310
 11
170.225949669270480
 21
300.726509457542310
  0
LINE
  8
0
  6
CONTINUOUS
 62
3
 10
182.725949669270250
 20
211.726509457542330
 11
182.725949669270250
 21
129.726509457542330
  0
LINE
  8
0
  6
CONTINUOUS
 62
3
 10
173.225949669270480
 20
40.726523122129514
 11
170.225949669270020
 21
40.726523122129514
  0
LINE
  8
0
  6
CONTINUOUS
 62
3
 10
173.225949669270250
 20
300.726509457542310
 11
174.225949669270250
 21
299.726509457542310
  0
LINE
  8
0
  6
CONTINUOUS
 62
3
 10
181.725949644360780
 20
129.726509457542330
 11
182.725949669270250
 21
129.726509457542330
  0
LINE
  8
0
  6
CONTINUOUS
 62
3
 10
174.225949669270480
 20
41.726523122129514
 11
173.225949669270480
 21
40.726523122129514
  0
LINE
  8
0
  6
CONTINUOUS
 62
3
 10
181.725949644360780
 20
211.726509457542330
 11
182.725949669270250
 21
211.726509457542330
  0
ARC
  8
0
  6
CONTINUOUS
 62
3
 10
155.225949669270020
 20
307.726509457542310
 40
3.000000000000000
 50
90.000000000000000
 51
180.000000000000000
  0
ARC
  8
0
  6
CONTINUOUS
 62
3
 10
146.225949669270250
 20
296.995272546713300
 40
5.999999999999986
 50
271.999999999999320
 51
0.000000000000000
  0
ARC
  8
0
  6
CONTINUOUS
 62
3
 10
181.725949644360780
 20
212.726509482451580
 40
1.000000024909241
 50
180.000000000000000
 51
270.000000000000000
  0
ARC
  8
0
  6
CONTINUOUS
 62
3
 10
181.725949644360780
 20
128.726509432633090
 40
1.000000024909241
 50
90.000000000000000
 51
180.000000000000000
  0
ARC
  8
0
  6
CONTINUOUS
 62
3
 10
177.725949619450630
 20
120.573389493099540
 40
2.999999999999937
 50
273.000000000001360
 51
0.000000000000000
  0
ARC
  8
0
  6
CONTINUOUS
 62
3
 10
177.725949619450630
 20
220.879855124276250
 40
3.000000000000000
 50
0.000000000000000
 51
86.999999999998678
  0
LINE
  8
0
  6
CONTINUOUS
 62
3
 10
177.882957488179530
 20
117.577500888835880
 11
174.225949669270480
 21
117.385845230226120
  0
ARC
  8
0
  6
CONTINUOUS
 62
3
 10
155.225949669270020
 20
33.726536786716700
 40
2.999999999999773
 50
180.000000000000000
 51
270.000000000000000
  0
LINE
  8
0
  6
CONTINUOUS
 62
3
 10
170.225949669270020
 20
30.726523122129514
 11
155.225949669270020
 21
30.726523122129514
  0
LINE
  8
0
  6
CONTINUOUS
 62
3
 10
152.225949669270250
 20
307.726509457542310
 11
152.225949669270250
 21
33.726536786716700
  0
LINE
  8
0
  6
CONTINUOUS
 62
3
 10
174.225949669270480
 20
224.067399387149660
 11
177.882957488179530
 21
223.875743728539900
  0
LINE
  8
0
  6
CONTINUOUS
 62
3
 10
174.225949669270250
 20
299.726509457542310
 11
174.225949669270480
 21
170.726523122129520
  0
LINE
  8
0
  6
CONTINUOUS
 62
3
 10
170.225949669270250
 20
310.726509457542310
 11
170.225949669273430
 21
170.726523122129520
  0
LINE
  8
0
  6
CONTINUOUS
 62
3
 10
180.725949619450630
 20
220.879855124276250
 11
180.725949619450630
 21
170.726523122129520
  0
LINE
  8
0
  6
CONTINUOUS
 62
3
 10
180.725949619450630
 20
120.573389493099540
 11
180.725949619450630
 21
170.726523122129520
  0
LINE
  8
0
  6
CONTINUOUS
 62
3
 10
174.225949669270480
 20
41.726523122129514
 11
174.225949669270480
 21
170.726523122129520
  0
LINE
  8
0
  6
CONTINUOUS
 62
3
 10
170.225949669270020
 20
30.726523122129514
 11
170.225949669270020
 21
170.726523122129520
  0
ARC
  8
0
  6
CONTINUOUS
 62
3
 10
149.225949669270250
 20
71.839605845777925
 40
3.000000000000000
 50
0.000000000000000
 51
37.200872172621111
  0
LINE
  8
0
  6
CONTINUOUS
 62
3
 10
131.604474326353540
 20
100.016174540286580
 11
151.615511812927740
 21
73.653439565168384
  0
ARC
  8
0
  6
CONTINUOUS
 62
3
 10
129.214912182695830
 20
98.202340820895671
 40
3.000000000000254
 50
37.200872172625409
 51
90.000000000000000
  0
ARC
  8
0
  6
CONTINUOUS
 62
3
 10
129.214912182695830
 20
92.363506056063244
 40
3.000000000000254
 50
37.200872172625409
 51
90.000000000000000
  0
ARC
  8
0
  6
CONTINUOUS
 62
3
 10
149.225949669270250
 20
66.000771080945498
 40
3.000000000000000
 50
0.000000000000000
 51
37.200872172621111
  0
LINE
  8
0
  6
CONTINUOUS
 62
3
 10
131.604474326353540
 20
94.177339775454158
 11
151.615511812927740
 21
67.814604800335957
  0
LINE
  8
0
  6
CONTINUOUS
 62
3
 10
149.193967516638200
 20
101.202340820895670
 11
133.597145713973560
 21
101.202340820895670
  0
ARC
  8
0
  6
CONTINUOUS
 62
3
 10
129.214912182695830
 20
243.250705423363370
 40
3.000000000000000
 50
270.000000000000000
 51
322.799127827374600
  0
ARC
  8
0
  6
CONTINUOUS
 62
3
 10
149.225949669270250
 20
269.613440398481090
 40
2.999999999999797
 50
322.799127827378920
 51
0.000000000000000
  0
ARC
  8
0
  6
CONTINUOUS
 62
3
 10
129.214912182695830
 20
249.089540188195800
 40
3.000000000000000
 50
270.000000000000000
 51
322.799127827374600
  0
ARC
  8
0
  6
CONTINUOUS
 62
3
 10
149.225949669270250
 20
275.452275163313520
 40
2.999999999999797
 50
322.799127827378920
 51
0.000000000000000
  0
LINE
  8
0
  6
CONTINUOUS
 62
3
 10
131.604474326353540
 20
247.275706468804880
 11
151.615511812927740
 21
273.638441443923060
  0
ARC
  8
0
  6
CONTINUOUS
 62
3
 10
133.704096655789980
 20
176.976523122129520
 40
3.000000000000000
 50
180.000000000000000
 51
270.000000000000000
  0
LINE
  8
0
  6
CONTINUOUS
 62
3
 10
131.604474326353540
 20
241.436871703972460
 11
151.615511812927740
 21
267.799606679090630
  0
ARC
  8
0
  6
CONTINUOUS
 62
3
 10
133.704096655789980
 20
164.476523122129520
 40
3.000000000000000
 50
90.000000000000000
 51
180.000000000000000
  0
ARC
  8
0
  6
CONTINUOUS
 62
3
 10
149.225949669270250
 20
164.476523122129520
 40
3.000000000000000
 50
0.000000000000000
 51
90.000000000000000
  0
ARC
  8
0
  6
CONTINUOUS
 62
3
 10
149.225949669270250
 20
176.976523122129520
 40
3.000000000000000
 50
270.000000000000000
 51
0.000000000000000
  0
LINE
  8
0
  6
CONTINUOUS
 62
3
 10
149.193967516638200
 20
240.250705423363370
 11
133.597145713973560
 21
240.250705423363370
  0
LINE
  8
0
  6
CONTINUOUS
 62
3
 10
133.704096655789980
 20
167.476523122129520
 11
149.225949669270250
 21
167.476523122129520
  0
LINE
  8
0
  6
CONTINUOUS
 62
3
 10
133.704096655789980
 20
173.976523122129520
 11
149.225949669270250
 21
173.976523122129520
  0
ARC
  8
0
  6
CONTINUOUS
 62
3
 10
146.225949669270250
 20
44.457773697545711
 40
6.000000000000000
 50
0.000000000000000
 51
88.000000000000682
  0
LINE
  8
0
  6
CONTINUOUS
 62
3
 10
189.725949669269340
 20
150.726509457542330
 11
189.725949669269340
 21
147.726509457542330
  0
ARC
  8
0
  6
CONTINUOUS
 62
3
 10
186.325949669269250
 20
192.176509457542150
 40
1.599999999999909
 50
180.000000000000000
 51
270.000000000000000
  0
LINE
  8
0
  6
CONTINUOUS
 62
3
 10
187.225956795138050
 20
190.576509457541790
 11
186.325949669269250
 21
190.576509457541790
  0
LINE
  8
0
  6
CONTINUOUS
 62
3
 10
184.325949669269250
 20
193.226509457542330
 11
184.725949669269340
 21
192.826509457541790
  0
LINE
  8
0
  6
CONTINUOUS
 62
3
 10
184.325949669269250
 20
193.226509457542330
 11
182.725949669270250
 21
193.226509457542330
  0
LINE
  8
0
  6
CONTINUOUS
 62
3
 10
184.725949669269340
 20
170.726509457542330
 11
184.725949669269340
 21
192.826509457541790
  0
LINE
  8
0
  6
CONTINUOUS
 62
3
 10
187.785764416273450
 20
190.726509457541430
 11
187.225956795138050
 21
190.576509457541790
  0
LINE
  8
0
  6
CONTINUOUS
 62
3
 10
184.325949669269250
 20
148.226509457542330
 11
182.725949669270250
 21
148.226509457542330
  0
ARC
  8
0
  6
CONTINUOUS
 62
3
 10
186.325949669269250
 20
149.276509457542520
 40
1.599999999999454
 50
90.000000000000000
 51
180.000000000000000
  0
LINE
  8
0
  6
CONTINUOUS
 62
3
 10
187.225956795138050
 20
150.876509457541970
 11
186.325949669269250
 21
150.876509457541970
  0
LINE
  8
0
  6
CONTINUOUS
 62
3
 10
184.325949669269250
 20
148.226509457542330
 11
184.725949669269340
 21
148.626509457541970
  0
LINE
  8
0
  6
CONTINUOUS
 62
3
 10
184.725949669269340
 20
170.726509457542330
 11
184.725949669269340
 21
148.626509457541970
  0
LINE
  8
0
  6
CONTINUOUS
 62
3
 10
187.785764416273450
 20
150.726509457542330
 11
187.225956795138050
 21
150.876509457541970
  0
LINE
  8
0
  6
CONTINUOUS
 62
3
 10
244.725956795138020
 20
147.726509457542330
 11
189.725956795138050
 21
147.726509457542330
  0
LINE
  8
0
  6
CONTINUOUS
 62
3
 10
244.325949669269220
 20
190.726509457542330
 11
187.785764416273910
 21
190.726509457541430
  0
LINE
  8
0
  6
CONTINUOUS
 62
3
 10
244.325949669269220
 20
150.726509457542330
 11
187.785764416273910
 21
150.726509457542330
  0
LINE
  8
0
  6
CONTINUOUS
 62
3
 10
170.225949669271610
 20
250.990425440885730
 11
166.225949669271610
 21
250.990425440885730
  0
LINE
  8
0
  6
CONTINUOUS
 62
3
 10
170.225949669270930
 20
282.442251874647810
 11
166.225949669270930
 21
282.442251874647810
  0
ARC
  8
0
  6
CONTINUOUS
 62
3
 10
166.225949669271610
 20
247.990425440885730
 40
3.000000000000000
 50
90.000000000000000
 51
180.000000000000000
  0
LINE
  8
0
  6
CONTINUOUS
 62
3
 10
163.225949669270930
 20
279.442251874647810
 11
163.225949669273430
 21
170.726523122129520
  0
ARC
  8
0
  6
CONTINUOUS
 62
3
 10
166.225949669270930
 20
279.442251874647810
 40
3.000000000000000
 50
90.000000000000000
 51
180.000000000000000
  0
LINE
  8
0
  6
CONTINUOUS
 62
3
 10
170.225949669271610
 20
90.462620803373255
 11
166.225949669271610
 21
90.462620803373255
  0
LINE
  8
0
  6
CONTINUOUS
 62
3
 10
170.225949669270930
 20
59.010794369611197
 11
166.225949669270930
 21
59.010794369611197
  0
ARC
  8
0
  6
CONTINUOUS
 62
3
 10
166.225949669271610
 20
93.462620803373255
 40
3.000000000000000
 50
179.999999999998890
 51
270.000000000000000
  0
LINE
  8
0
  6
CONTINUOUS
 62
3
 10
163.225949669270930
 20
62.010794369611261
 11
163.225949669273430
 21
170.726523122129520
  0
ARC
  8
0
  6
CONTINUOUS
 62
3
 10
166.225949669270930
 20
62.010794369611205
 40
3.000000000000000
 50
179.999999999998890
 51
270.000000000000000
  0
INSERT
  8
0
  2
SYM1
 10
24.725943618060882
 20
-90.327714361616444
  0
INSERT
  8
0
  2
SYM2
 10
41.225943618063610
 20
-97.820273870277987
  0
INSERT
  8
0
  2
SYM3
 10
5.725943618062701
 20
-139.526950829549350
  0
INSERT
  8
0
  2
SYM4
 10
41.225943618064065
 20
-297.327714361615050
  0
INSERT
  8
0
  2
SYM5
 10
5.725943618062701
 20
-249.128501913464050
  0
INSERT
  8
0
  2
SYM6
 10
41.225943618063610
 20
-239.327714361615510
  0
INSERT
  8
0
  2
SYM7
 10
41.225943618063610
 20
-173.327714361615530
  0
LINE
  8
0
  6
CONTINUOUS
 62
3
 10
15.725943618063155
 20
-110.827726371506710
 11
15.725943618063155
 21
-277.827726371506740
  0
LINE
  8
0
  6
CONTINUOUS
 62
3
 10
52.725943618064065
 20
-305.327729858822980
 11
155.138182380529290
 21
-308.325161060279700
  0
LINE
  8
0
  6
CONTINUOUS
 62
3
 10
52.725943618064065
 20
-77.327760945759081
 11
139.180518152006670
 21
-74.308700676952384
  0
LINE
  8
0
  6
CONTINUOUS
 62
3
 10
52.725943618064065
 20
-77.327760945759081
 11
52.725943618064065
 21
-305.327729858822980
  0
LINE
  8
0
  6
DASHDOT
 62
4
 10
9.425490829773679
 20
-90.327714361615989
 11
32.501299276286062
 21
-90.327714361615989
  0
LINE
  8
0
  6
CONTINUOUS
 62
3
 10
24.725943618060427
 20
-100.327714361615980
 11
24.725943618064065
 21
-42.327714361615996
  0
LINE
  8
0
  6
CONTINUOUS
 62
3
 10
29.225943618064065
 20
-42.327714361615996
 11
29.225943618064065
 21
-100.327714361615980
  0
LINE
  8
0
  6
CONTINUOUS
 62
3
 10
24.725943618064065
 20
-42.327714361615996
 11
29.225943618064065
 21
-42.327714361615996
  0
LINE
  8
0
  6
DASHDOT
 62
4
 10
18.995696217247513
 20
-62.327714361615996
 11
37.094962232539018
 21
-62.327714361615996
  0
LINE
  8
0
  6
CONTINUOUS
 62
3
 10
24.725943618060427
 20
-100.327714361615980
 11
29.225943618060427
 21
-100.327714361615980
  0
LINE
  8
0
  6
CONTINUOUS
 62
3
 10
29.225943618064065
 20
-80.327705461841532
 11
29.225943618064065
 21
-97.327693451950807
  0
LINE
  8
0
  6
CONTINUOUS
 62
3
 10
29.225943618064065
 20
-80.327726371507168
 11
29.225943618064065
 21
-97.327714361616444
  0
LINE
  8
0
  6
CONTINUOUS
 62
3
 10
52.725943618064065
 20
-77.327726371506714
 11
32.225943618064065
 21
-77.327726371506714
  0
LINE
  8
0
  6
CONTINUOUS
 62
3
 10
15.725943618057698
 20
-110.897535788034900
 11
36.400441101576888
 21
-110.175566427055370
  0
LINE
  8
0
  6
CONTINUOUS
 62
3
 10
41.225943618064065
 20
-162.059765169184600
 11
41.225943618064065
 21
-194.327726371506710
  0
LINE
  8
0
  6
CONTINUOUS
 62
3
 10
41.225943618064065
 20
-80.327726371506714
 11
41.225943618064065
 21
-132.595663554046470
  0
LINE
  8
0
  6
CONTINUOUS
 62
3
 10
39.225943618064065
 20
-134.595663554046470
 11
36.225943618064065
 21
-134.595663554046470
  0
LINE
  8
0
  6
CONTINUOUS
 62
3
 10
34.225943618064065
 20
-136.595663554046470
 11
34.225943618064065
 21
-158.059765169184600
  0
LINE
  8
0
  6
CONTINUOUS
 62
3
 10
39.225943618064065
 20
-160.059765169184600
 11
36.225943618064065
 21
-160.059765169184600
  0
LINE
  8
0
  6
CONTINUOUS
 62
3
 10
41.225943618064065
 20
-301.327729061721580
 11
41.225943618064065
 21
-194.327726371506710
  0
LINE
  8
0
  6
CONTINUOUS
 62
3
 10
52.225943618064065
 20
-77.327747281171895
 11
52.225943618064065
 21
-194.327726371506710
  0
LINE
  8
0
  6
CONTINUOUS
 62
3
 10
52.725943618064065
 20
-305.327729061721580
 11
44.225943618064065
 21
-305.327729061721580
  0
LINE
  8
0
  6
CONTINUOUS
 62
3
 10
52.225943618064065
 20
-305.327729061721580
 11
52.225943618064065
 21
-194.327726371506710
  0
LINE
  8
0
  6
CONTINUOUS
 62
3
 10
15.725943618057698
 20
-277.757852710067710
 11
36.400441101576888
 21
-278.479822071048150
  0
ARC
  8
0
  6
CONTINUOUS
 62
3
 10
32.225943618064065
 20
-80.327705461841532
 40
3.000000000000000
 50
90.000000000000000
 51
180.000000000000000
  0
ARC
  8
0
  6
CONTINUOUS
 62
3
 10
36.225943618064065
 20
-105.178612291959750
 40
5.000000000000153
 50
272.000000000003580
 51
356.081795638019740
  0
ARC
  8
0
  6
CONTINUOUS
 62
3
 10
36.225943618064065
 20
-283.476776206142860
 40
5.000000000000000
 50
0.000000000000000
 51
87.999999999996049
  0
ARC
  8
0
  6
CONTINUOUS
 62
3
 10
36.225943618064065
 20
-136.595663554046470
 40
2.000000000000000
 50
90.000000000000000
 51
180.000000000000000
  0
ARC
  8
0
  6
CONTINUOUS
 62
3
 10
36.225943618064065
 20
-158.059765169184600
 40
2.000000000000000
 50
180.000000000000000
 51
270.000000000000000
  0
ARC
  8
0
  6
CONTINUOUS
 62
3
 10
39.225943618064065
 20
-162.059765169184600
 40
2.000000000000000
 50
0.000000000000000
 51
90.000000000000000
  0
ARC
  8
0
  6
CONTINUOUS
 62
3
 10
39.225943618064065
 20
-132.595663554046470
 40
2.000000000000000
 50
270.000000000000000
 51
0.000000000000000
  0
ARC
  8
0
  6
CONTINUOUS
 62
3
 10
44.225943618064065
 20
-80.327726371506714
 40
3.000000000000000
 50
90.000000000000000
 51
180.000000000000000
  0
ARC
  8
0
  6
CONTINUOUS
 62
3
 10
44.225943618064065
 20
-302.327729061721580
 40
3.000000000000000
 50
180.000000000000000
 51
270.000000000000000
  0
LINE
  8
0
  6
CONTINUOUS
 62
3
 10
-232.594591274021720
 20
-119.553194259153230
 11
-240.165370470610500
 21
-124.854310922725770
  0
LINE
  8
0
  6
CONTINUOUS
 62
3
 10
-241.274071736097570
 20
-126.984106237877220
 11
-241.274071736097570
 21
-169.827726371506770
  0
ARC
  8
0
  6
CONTINUOUS
 62
3
 10
-238.674071736097660
 20
-126.984106237877220
 40
2.600000000000131
 50
125.000000000001180
 51
180.000000000000000
  0
LINE
  8
0
  6
CONTINUOUS
 62
3
 10
-232.594591274021720
 20
-220.102258483860200
 11
-240.165370470610500
 21
-214.801141820287650
  0
LINE
  8
0
  6
CONTINUOUS
 62
3
 10
-241.274071736097570
 20
-212.671346505136310
 11
-241.274071736097570
 21
-169.827726371506770
  0
ARC
  8
0
  6
CONTINUOUS
 62
3
 10
-238.674071736097660
 20
-212.671346505136310
 40
2.599999999999909
 50
180.000000000000000
 51
234.999999999997390
  0
ARC
  8
0
  6
CONTINUOUS
 62
3
 10
32.225943618063610
 20
-97.327693451951262
 40
3.000000000000000
 50
180.000000000000000
 51
239.999999999989710
  0
ARC
  8
0
  6
CONTINUOUS
 62
3
 10
29.225943618063610
 20
-102.523866784322730
 40
3.000000000000000
 50
0.000000000000000
 51
59.999999999998380
  0
LINE
  8
0
  6
CONTINUOUS
 62
3
 10
32.225943618063610
 20
-102.523866784322730
 11
32.225943618063610
 21
-107.424276766999780
  0
ARC
  8
0
  6
CONTINUOUS
 62
3
 10
29.225943618063610
 20
-107.424276766999780
 40
3.000000000000455
 50
272.000000000003350
 51
0.000000000000000
  0
LINE
  8
0
  6
CONTINUOUS
 62
3
 10
-125.274071736076190
 20
-140.827726371506770
 11
-125.274071736076190
 21
-169.827726371506770
  0
LINE
  8
0
  6
CONTINUOUS
 62
3
 10
-124.274071736076190
 20
-169.827726371506770
 11
-124.274071736076190
 21
-140.327726371506770
  0
ARC
  8
0
  6
CONTINUOUS
 62
3
 10
-126.274071736076190
 20
-140.827726371506770
 40
1.000000000000000
 50
0.000000000000000
 51
90.000000000000000
  0
ARC
  8
0
  6
CONTINUOUS
 62
3
 10
-126.274071736076190
 20
-140.327726371506770
 40
2.000000000000000
 50
0.000000000000000
 51
90.000000000000000
  0
LINE
  8
0
  6
CONTINUOUS
 62
3
 10
-126.274071736076190
 20
-139.827726371506770
 11
-197.274071736076190
 21
-139.827726371506770
  0
ARC
  8
0
  6
CONTINUOUS
 62
3
 10
-126.274071736076190
 20
-198.827726371506770
 40
1.000000000000000
 50
270.000000000000000
 51
0.000000000000000
  0
ARC
  8
0
  6
CONTINUOUS
 62
3
 10
-126.274071736076190
 20
-199.327726371506770
 40
2.000000000000000
 50
270.000000000000000
 51
0.000000000000000
  0
LINE
  8
0
  6
CONTINUOUS
 62
3
 10
-126.274071736076190
 20
-199.827726371506770
 11
-197.274071736076190
 21
-199.827726371506770
  0
LINE
  8
0
  6
CONTINUOUS
 62
3
 10
-125.274071736076190
 20
-198.827726371506770
 11
-125.274071736076190
 21
-169.827726371506770
  0
LINE
  8
0
  6
CONTINUOUS
 62
3
 10
-124.274071736076190
 20
-169.827726371506770
 11
-124.274071736076190
 21
-199.327726371506770
  0
LINE
  8
0
  6
CONTINUOUS
 62
3
 10
-126.274071736076190
 20
-201.327726371506770
 11
-197.274071736076190
 21
-201.327726371506770
  0
LINE
  8
0
  6
CONTINUOUS
 62
3
 10
-198.274071736076190
 20
-169.827726371506770
 11
-198.274071736076190
 21
-198.827726371506770
  0
ARC
  8
0
  6
CONTINUOUS
 62
3
 10
-197.274071736076190
 20
-198.827726371506770
 40
1.000000000000000
 50
180.000000000000000
 51
270.000000000000000
  0
ARC
  8
0
  6
CONTINUOUS
 62
3
 10
-197.274071736076190
 20
-199.327726371506770
 40
2.000000000000000
 50
180.000000000000000
 51
270.000000000000000
  0
LINE
  8
0
  6
CONTINUOUS
 62
3
 10
-199.274071736076190
 20
-169.827726371506770
 11
-199.274071736076190
 21
-199.327726371506770
  0
LINE
  8
0
  6
CONTINUOUS
 62
3
 10
-198.274071736076190
 20
-169.827726371506770
 11
-198.274071736076190
 21
-140.827726371506770
  0
LINE
  8
0
  6
CONTINUOUS
 62
3
 10
-199.274071736076190
 20
-169.827726371506770
 11
-199.274071736076190
 21
-140.327726371506770
  0
LINE
  8
0
  6
CONTINUOUS
 62
3
 10
-126.274071736076190
 20
-138.327726371506770
 11
-197.274071736076190
 21
-138.327726371506770
  0
ARC
  8
0
  6
CONTINUOUS
 62
3
 10
-197.274071736076190
 20
-140.827726371506770
 40
1.000000000000000
 50
90.000000000000000
 51
180.000000000000000
  0
ARC
  8
0
  6
CONTINUOUS
 62
3
 10
-197.274071736076190
 20
-140.327726371506770
 40
2.000000000000000
 50
90.000000000000000
 51
180.000000000000000
  0
LINE
  8
0
  6
CONTINUOUS
 62
3
 10
-201.274071736097340
 20
-169.827726371506770
 11
-201.274071736097340
 21
-204.827726371506770
  0
LINE
  8
0
  6
CONTINUOUS
 62
3
 10
-194.274071736097340
 20
-207.827726371506770
 11
-198.274071736097340
 21
-207.827726371506770
  0
ARC
  8
0
  6
CONTINUOUS
 62
3
 10
-198.274071736097340
 20
-204.827726371506770
 40
3.000000000000000
 50
180.000000000000000
 51
270.000000000000000
  0
LINE
  8
0
  6
CONTINUOUS
 62
3
 10
-191.274071736097340
 20
-223.827726371507000
 11
-191.274071736097340
 21
-210.827726371506770
  0
ARC
  8
0
  6
CONTINUOUS
 62
3
 10
-194.274071736097340
 20
-210.827726371506770
 40
3.000000000000000
 50
0.000000000000000
 51
90.000000000000000
  0
POLYLINE
  8
0
  6
CONTINUOUS
 62
3
 66
1
 70
1
  0
VERTEX
  8
0
  6
CONTINUOUS
 62
3
 10
-197.574071736097120
 20
-217.155057325854300
  0
VERTEX
  8
0
  6
CONTINUOUS
 62
3
 10
-197.664380918201940
 20
-216.452100359653940
  0
VERTEX
  8
0
  6
CONTINUOUS
 62
3
 10
-197.931837933294080
 20
-215.776157635441850
  0
VERTEX
  8
0
  6
CONTINUOUS
 62
3
 10
-198.366164558275160
 20
-215.153205253036450
  0
VERTEX
  8
0
  6
CONTINUOUS
 62
3
 10
-198.950669864520340
 20
-214.607182923137880
  0
VERTEX
  8
0
  6
CONTINUOUS
 62
3
 10
-199.662891640905000
 20
-214.159073977671260
  0
VERTEX
  8
0
  6
CONTINUOUS
 62
3
 10
-200.475459603981190
 20
-213.826098992108510
  0
VERTEX
  8
0
  6
CONTINUOUS
 62
3
 10
-201.357147222621310
 20
-213.621054008410250
  0
VERTEX
  8
0
  6
CONTINUOUS
 62
3
 10
-202.274071736097110
 20
-213.551818790309480
  0
VERTEX
  8
0
  6
CONTINUOUS
 62
3
 10
-203.190996249572920
 20
-213.621054008410250
  0
VERTEX
  8
0
  6
CONTINUOUS
 62
3
 10
-204.072683868213030
 20
-213.826098992108510
  0
VERTEX
  8
0
  6
CONTINUOUS
 62
3
 10
-204.885251831289220
 20
-214.159073977671260
  0
VERTEX
  8
0
  6
CONTINUOUS
 62
3
 10
-205.597473607673890
 20
-214.607182923137880
  0
VERTEX
  8
0
  6
CONTINUOUS
 62
3
 10
-206.181978913919070
 20
-215.153205253036450
  0
VERTEX
  8
0
  6
CONTINUOUS
 62
3
 10
-206.616305538900150
 20
-215.776157635441850
  0
VERTEX
  8
0
  6
CONTINUOUS
 62
3
 10
-206.883762553992280
 20
-216.452100359653940
  0
VERTEX
  8
0
  6
CONTINUOUS
 62
3
 10
-206.974071736097100
 20
-217.155057325854300
  0
VERTEX
  8
0
  6
CONTINUOUS
 62
3
 10
-206.883762553992280
 20
-217.858014292054660
  0
VERTEX
  8
0
  6
CONTINUOUS
 62
3
 10
-206.616305538900150
 20
-218.533957016266750
  0
VERTEX
  8
0
  6
CONTINUOUS
 62
3
 10
-206.181978913919070
 20
-219.156909398672160
  0
VERTEX
  8
0
  6
CONTINUOUS
 62
3
 10
-205.597473607673860
 20
-219.702931728570720
  0
VERTEX
  8
0
  6
CONTINUOUS
 62
3
 10
-204.885251831289220
 20
-220.151040674037350
  0
VERTEX
  8
0
  6
CONTINUOUS
 62
3
 10
-204.072683868213030
 20
-220.484015659600090
  0
VERTEX
  8
0
  6
CONTINUOUS
 62
3
 10
-203.190996249572920
 20
-220.689060643298350
  0
VERTEX
  8
0
  6
CONTINUOUS
 62
3
 10
-202.274071736097110
 20
-220.758295861399120
  0
VERTEX
  8
0
  6
CONTINUOUS
 62
3
 10
-201.357147222621310
 20
-220.689060643298350
  0
VERTEX
  8
0
  6
CONTINUOUS
 62
3
 10
-200.475459603981190
 20
-220.484015659600090
  0
VERTEX
  8
0
  6
CONTINUOUS
 62
3
 10
-199.662891640905000
 20
-220.151040674037350
  0
VERTEX
  8
0
  6
CONTINUOUS
 62
3
 10
-198.950669864520360
 20
-219.702931728570720
  0
VERTEX
  8
0
  6
CONTINUOUS
 62
3
 10
-198.366164558275160
 20
-219.156909398672160
  0
VERTEX
  8
0
  6
CONTINUOUS
 62
3
 10
-197.931837933294080
 20
-218.533957016266750
  0
VERTEX
  8
0
  6
CONTINUOUS
 62
3
 10
-197.664380918201940
 20
-217.858014292054660
  0
SEQEND
  8
0
  6
CONTINUOUS
 62
3
  0
LINE
  8
0
  6
CONTINUOUS
 62
3
 10
-204.274071736097340
 20
-220.147432879854730
 11
-202.274071736097570
 21
-218.971647394231840
  0
LINE
  8
0
  6
CONTINUOUS
 62
3
 10
-202.274071736097570
 20
-218.971647394231840
 11
-200.274071736097340
 21
-217.319005755108520
  0
LINE
  8
0
  6
CONTINUOUS
 62
3
 10
-200.274071736097340
 20
-220.147432879854730
 11
-202.274071736097570
 21
-218.971647394231840
  0
LINE
  8
0
  6
CONTINUOUS
 62
3
 10
-202.274071736097570
 20
-218.971647394231840
 11
-204.274071736097340
 21
-217.319005755108520
  0
LINE
  8
0
  6
CONTINUOUS
 62
4
 10
-201.274071736097340
 20
-198.584121922143850
 11
-199.274071736076190
 21
-198.584121922143850
  0
LINE
  8
0
  6
CONTINUOUS
 62
4
 10
-201.274071736097340
 20
-197.105098768666750
 11
-199.274071736076190
 21
-197.105098768666750
  0
LINE
  8
0
  6
CONTINUOUS
 62
4
 10
-201.274071736097340
 20
-194.012367777001510
 11
-199.274071736076190
 21
-194.012367777001510
  0
LINE
  8
0
  6
CONTINUOUS
 62
4
 10
-201.274071736097340
 20
-192.665966051502920
 11
-199.274071736076190
 21
-192.665966051502920
  0
LINE
  8
0
  6
CONTINUOUS
 62
4
 10
-201.274071736097340
 20
-189.827726371506770
 11
-199.274071736076190
 21
-189.827726371506770
  0
LINE
  8
0
  6
CONTINUOUS
 62
3
 10
-191.274071736097340
 20
-223.827726371507000
 11
-220.778916685190350
 21
-223.827726371507000
  0
ARC
  8
0
  6
CONTINUOUS
 62
3
 10
-220.778916685190350
 20
-203.227726371506980
 40
20.599999999999891
 50
235.000000000000400
 51
270.000000000000000
  0
LINE
  8
0
  6
CONTINUOUS
 62
3
 10
-201.274071736097340
 20
-169.827726371506770
 11
-201.274071736097340
 21
-134.827726371506770
  0
LINE
  8
0
  6
CONTINUOUS
 62
3
 10
-194.274071736097340
 20
-131.827726371506770
 11
-198.274071736097340
 21
-131.827726371506770
  0
ARC
  8
0
  6
CONTINUOUS
 62
3
 10
-198.274071736097340
 20
-134.827726371506770
 40
3.000000000000000
 50
90.000000000000000
 51
180.000000000000000
  0
LINE
  8
0
  6
CONTINUOUS
 62
3
 10
-191.274071736097340
 20
-115.827726371506540
 11
-191.274071736097340
 21
-128.827726371506770
  0
ARC
  8
0
  6
CONTINUOUS
 62
3
 10
-194.274071736097340
 20
-128.827726371506770
 40
3.000000000000000
 50
270.000000000000000
 51
0.000000000000000
  0
POLYLINE
  8
0
  6
CONTINUOUS
 62
3
 66
1
 70
1
  0
VERTEX
  8
0
  6
CONTINUOUS
 62
3
 10
-197.574071736097120
 20
-122.500395417159120
  0
VERTEX
  8
0
  6
CONTINUOUS
 62
3
 10
-197.664380918201940
 20
-121.797438450958760
  0
VERTEX
  8
0
  6
CONTINUOUS
 62
3
 10
-197.931837933294080
 20
-121.121495726746670
  0
VERTEX
  8
0
  6
CONTINUOUS
 62
3
 10
-198.366164558275160
 20
-120.498543344341270
  0
VERTEX
  8
0
  6
CONTINUOUS
 62
3
 10
-198.950669864520340
 20
-119.952521014442690
  0
VERTEX
  8
0
  6
CONTINUOUS
 62
3
 10
-199.662891640905000
 20
-119.504412068976080
  0
VERTEX
  8
0
  6
CONTINUOUS
 62
3
 10
-200.475459603981190
 20
-119.171437083413300
  0
VERTEX
  8
0
  6
CONTINUOUS
 62
3
 10
-201.357147222621310
 20
-118.966392099715060
  0
VERTEX
  8
0
  6
CONTINUOUS
 62
3
 10
-202.274071736097110
 20
-118.897156881614290
  0
VERTEX
  8
0
  6
CONTINUOUS
 62
3
 10
-203.190996249572920
 20
-118.966392099715060
  0
VERTEX
  8
0
  6
CONTINUOUS
 62
3
 10
-204.072683868213030
 20
-119.171437083413300
  0
VERTEX
  8
0
  6
CONTINUOUS
 62
3
 10
-204.885251831289220
 20
-119.504412068976080
  0
VERTEX
  8
0
  6
CONTINUOUS
 62
3
 10
-205.597473607673890
 20
-119.952521014442690
  0
VERTEX
  8
0
  6
CONTINUOUS
 62
3
 10
-206.181978913919070
 20
-120.498543344341270
  0
VERTEX
  8
0
  6
CONTINUOUS
 62
3
 10
-206.616305538900150
 20
-121.121495726746670
  0
VERTEX
  8
0
  6
CONTINUOUS
 62
3
 10
-206.883762553992280
 20
-121.797438450958760
  0
VERTEX
  8
0
  6
CONTINUOUS
 62
3
 10
-206.974071736097100
 20
-122.500395417159120
  0
VERTEX
  8
0
  6
CONTINUOUS
 62
3
 10
-206.883762553992280
 20
-123.203352383359480
  0
VERTEX
  8
0
  6
CONTINUOUS
 62
3
 10
-206.616305538900150
 20
-123.879295107571570
  0
VERTEX
  8
0
  6
CONTINUOUS
 62
3
 10
-206.181978913919070
 20
-124.502247489976980
  0
VERTEX
  8
0
  6
CONTINUOUS
 62
3
 10
-205.597473607673860
 20
-125.048269819875550
  0
VERTEX
  8
0
  6
CONTINUOUS
 62
3
 10
-204.885251831289220
 20
-125.496378765342170
  0
VERTEX
  8
0
  6
CONTINUOUS
 62
3
 10
-204.072683868213030
 20
-125.829353750904940
  0
VERTEX
  8
0
  6
CONTINUOUS
 62
3
 10
-203.190996249572920
 20
-126.034398734603180
  0
VERTEX
  8
0
  6
CONTINUOUS
 62
3
 10
-202.274071736097110
 20
-126.103633952703950
  0
VERTEX
  8
0
  6
CONTINUOUS
 62
3
 10
-201.357147222621310
 20
-126.034398734603180
  0
VERTEX
  8
0
  6
CONTINUOUS
 62
3
 10
-200.475459603981190
 20
-125.829353750904940
  0
VERTEX
  8
0
  6
CONTINUOUS
 62
3
 10
-199.662891640905000
 20
-125.496378765342170
  0
VERTEX
  8
0
  6
CONTINUOUS
 62
3
 10
-198.950669864520360
 20
-125.048269819875550
  0
VERTEX
  8
0
  6
CONTINUOUS
 62
3
 10
-198.366164558275160
 20
-124.502247489976980
  0
VERTEX
  8
0
  6
CONTINUOUS
 62
3
 10
-197.931837933294080
 20
-123.879295107571570
  0
VERTEX
  8
0
  6
CONTINUOUS
 62
3
 10
-197.664380918201940
 20
-123.203352383359480
  0
SEQEND
  8
0
  6
CONTINUOUS
 62
3
  0
LINE
  8
0
  6
CONTINUOUS
 62
3
 10
-204.274071736097340
 20
-119.508019863158800
 11
-202.274071736097570
 21
-120.683805348781590
  0
LINE
  8
0
  6
CONTINUOUS
 62
3
 10
-202.274071736097570
 20
-120.683805348781590
 11
-200.274071736097340
 21
-122.336446987905020
  0
LINE
  8
0
  6
CONTINUOUS
 62
3
 10
-200.274071736097340
 20
-119.508019863158800
 11
-202.274071736097570
 21
-120.683805348781590
  0
LINE
  8
0
  6
CONTINUOUS
 62
3
 10
-202.274071736097570
 20
-120.683805348781590
 11
-204.274071736097340
 21
-122.336446987905020
  0
ARC
  8
0
  6
CONTINUOUS
 62
3
 10
-220.778916685190350
 20
-136.427726371506570
 40
20.600000000000023
 50
90.000000000000000
 51
124.999999999999600
  0
LINE
  8
0
  6
CONTINUOUS
 62
3
 10
-191.274071736097340
 20
-115.827726371506540
 11
-220.778916685190350
 21
-115.827726371506540
  0
LINE
  8
0
  6
CONTINUOUS
 62
4
 10
-201.274071736097340
 20
-149.827726371506770
 11
-199.274071736076190
 21
-149.827726371506770
  0
LINE
  8
0
  6
CONTINUOUS
 62
4
 10
-201.274071736097340
 20
-141.071330820869690
 11
-199.274071736076190
 21
-141.071330820869690
  0
LINE
  8
0
  6
CONTINUOUS
 62
4
 10
-201.274071736097340
 20
-142.550353974346790
 11
-199.274071736076190
 21
-142.550353974346790
  0
LINE
  8
0
  6
CONTINUOUS
 62
4
 10
-201.274071736097340
 20
-145.643084966012030
 11
-199.274071736076190
 21
-145.643084966012030
  0
LINE
  8
0
  6
CONTINUOUS
 62
4
 10
-201.274071736097340
 20
-146.989486691510620
 11
-199.274071736076190
 21
-146.989486691510620
  0
LINE
  8
0
  6
CONTINUOUS
 62
4
 10
-124.274071736076190
 20
-141.071330820869690
 11
-50.774071736076422
 21
-141.071330820869690
  0
LINE
  8
0
  6
CONTINUOUS
 62
4
 10
-124.274071736076190
 20
-142.550353974346790
 11
-50.774071736076422
 21
-142.550353974346790
  0
LINE
  8
0
  6
CONTINUOUS
 62
4
 10
-124.274071736076190
 20
-145.643084966012030
 11
-50.774071736076422
 21
-145.643084966012030
  0
LINE
  8
0
  6
CONTINUOUS
 62
4
 10
-124.274071736076190
 20
-146.989486691510620
 11
-50.774071736076422
 21
-146.989486691510620
  0
LINE
  8
0
  6
CONTINUOUS
 62
4
 10
-124.274071736076190
 20
-149.827726371506770
 11
-50.774071736076422
 21
-149.827726371506770
  0
LINE
  8
0
  6
CONTINUOUS
 62
4
 10
-191.431672082468620
 20
-129.787290964982300
 11
-50.774071736076422
 21
-129.787290964982300
  0
LINE
  8
0
  6
CONTINUOUS
 62
4
 10
-191.274071736097340
 20
-125.323070844401880
 11
-50.774071736076422
 21
-125.323070844401880
  0
LINE
  8
0
  6
CONTINUOUS
 62
4
 10
-201.274071736097340
 20
-138.113335212736760
 11
-50.774071736076422
 21
-138.113335212736760
  0
LINE
  8
0
  6
CONTINUOUS
 62
4
 10
-201.274071736097340
 20
-136.524125419998000
 11
-50.774071736076422
 21
-136.524125419998000
  0
LINE
  8
0
  6
CONTINUOUS
 62
4
 10
-191.274071736097340
 20
-128.785812601167010
 11
-50.774071736076422
 21
-128.785812601167010
  0
LINE
  8
0
  6
CONTINUOUS
 62
4
 10
-191.274071736097340
 20
-123.694643776624070
 11
-50.774071736076422
 21
-123.694643776624070
  0
LINE
  8
0
  6
CONTINUOUS
 62
4
 10
-191.274071736097340
 20
-118.827726371506650
 11
-50.774071736076422
 21
-118.827726371506650
  0
LINE
  8
0
  6
CONTINUOUS
 62
4
 10
-191.274071736097340
 20
-119.327726371506770
 11
-50.774071736076422
 21
-119.327726371506770
  0
LINE
  8
0
  6
CONTINUOUS
 62
3
 10
-50.774071736076422
 20
-117.327726371506770
 11
-191.274071736097340
 21
-117.327726371506770
  0
LINE
  8
0
  6
CONTINUOUS
 62
4
 10
-201.274071736097340
 20
-201.542117530276780
 11
-50.774071736076422
 21
-201.542117530276780
  0
LINE
  8
0
  6
CONTINUOUS
 62
4
 10
-201.274071736097340
 20
-203.131327323015430
 11
-50.774071736076422
 21
-203.131327323015430
  0
LINE
  8
0
  6
CONTINUOUS
 62
4
 10
-191.431672082468620
 20
-209.868161778031120
 11
-50.774071736076422
 21
-209.868161778031120
  0
LINE
  8
0
  6
CONTINUOUS
 62
4
 10
-191.274071736097340
 20
-210.869640141846420
 11
-50.774071736076422
 21
-210.869640141846420
  0
LINE
  8
0
  6
CONTINUOUS
 62
4
 10
-191.274071736097340
 20
-214.332381898611660
 11
-50.774071736076422
 21
-214.332381898611660
  0
LINE
  8
0
  6
CONTINUOUS
 62
4
 10
-191.274071736097340
 20
-215.960808966389460
 11
-50.774071736076422
 21
-215.960808966389460
  0
LINE
  8
0
  6
CONTINUOUS
 62
4
 10
-191.274071736097340
 20
-220.827726371506770
 11
-50.774071736076422
 21
-220.827726371506770
  0
LINE
  8
0
  6
CONTINUOUS
 62
4
 10
-191.274071736097340
 20
-220.327726371506770
 11
-50.774071736076422
 21
-220.327726371506770
  0
LINE
  8
0
  6
CONTINUOUS
 62
3
 10
-50.774071736076422
 20
-222.327726371506770
 11
-191.274071736097340
 21
-222.327726371506770
  0
LINE
  8
0
  6
CONTINUOUS
 62
4
 10
-124.274071736076190
 20
-198.584121922143850
 11
-50.774071736076422
 21
-198.584121922143850
  0
LINE
  8
0
  6
CONTINUOUS
 62
4
 10
-124.274071736076190
 20
-197.105098768666750
 11
-50.774071736076422
 21
-197.105098768666750
  0
LINE
  8
0
  6
CONTINUOUS
 62
4
 10
-124.274071736076190
 20
-194.012367777001510
 11
-50.774071736076422
 21
-194.012367777001510
  0
LINE
  8
0
  6
CONTINUOUS
 62
4
 10
-124.274071736076190
 20
-192.665966051502920
 11
-50.774071736076422
 21
-192.665966051502920
  0
LINE
  8
0
  6
CONTINUOUS
 62
4
 10
-124.274071736076190
 20
-189.827726371506770
 11
-50.774071736076422
 21
-189.827726371506770
  0
LINE
  8
0
  6
CONTINUOUS
 62
3
 10
15.725943618058039
 20
-112.101019470886880
 11
15.725943618058039
 21
-277.827726371506800
  0
LINE
  8
0
  6
CONTINUOUS
 62
3
 10
-50.774071736078014
 20
-149.827726371504500
 11
-34.274071736076309
 21
-149.827726371504500
  0
LINE
  8
0
  6
CONTINUOUS
 62
3
 10
2.725943618058039
 20
-154.327726371506880
 11
-31.274071736076309
 21
-154.327726371506880
  0
LINE
  8
0
  6
CONTINUOUS
 62
3
 10
2.725943618058039
 20
-128.327726371507000
 11
-31.274071736076991
 21
-128.327726371507000
  0
ARC
  8
0
  6
CONTINUOUS
 62
3
 10
-31.274071736076309
 20
-151.327726371506880
 40
3.000000000000000
 50
180.000000000002160
 51
270.000000000000000
  0
LINE
  8
0
  6
CONTINUOUS
 62
3
 10
-34.274071736077104
 20
-122.327726371506650
 11
-34.274071736076309
 21
-151.327726371507000
  0
ARC
  8
0
  6
CONTINUOUS
 62
3
 10
-39.274071736077104
 20
-122.327726371506770
 40
5.000000000000000
 50
0.000000000001303
 51
90.000000000000000
  0
LINE
  8
0
  6
CONTINUOUS
 62
3
 10
-35.274084679693630
 20
-132.827726371507230
 11
-35.274086136544071
 21
-132.827726371507230
  0
LINE
  8
0
  6
CONTINUOUS
 62
3
 10
4.725943618058039
 20
-117.327726371506770
 11
-50.774071736076422
 21
-117.327726371506770
  0
ARC
  8
0
  6
CONTINUOUS
 62
3
 10
-31.274071736076991
 20
-125.327726371506990
 40
3.000000000000000
 50
180.000000000002160
 51
270.000000000000000
  0
LINE
  8
0
  6
DASHDOT
 62
4
 10
-15.274056381941961
 20
-142.071838363225910
 11
-15.274056381941961
 21
-110.894787362789850
  0
LINE
  8
0
  6
CONTINUOUS
 62
3
 10
-50.774071736076422
 20
-117.327726371506770
 11
-50.774071736081765
 21
-222.336453635963410
  0
LINE
  8
0
  6
CONTINUOUS
 62
3
 10
2.725943618058039
 20
-189.827726371504500
 11
-50.774071736080060
 21
-189.827726371504500
  0
LINE
  8
0
  6
CONTINUOUS
 62
3
 10
-50.774071736080856
 20
-205.827726371504270
 11
-44.274071736081083
 21
-205.827726371504270
  0
LINE
  8
0
  6
CONTINUOUS
 62
3
 10
-39.274071736081083
 20
-210.827726371504500
 11
-39.274071736081765
 21
-222.537186882637940
  0
ARC
  8
0
  6
CONTINUOUS
 62
3
 10
-44.274071736081083
 20
-210.827726371504270
 40
5.000000000000000
 50
359.999999999997390
 51
90.000000000000000
  0
LINE
  8
0
  6
CONTINUOUS
 62
3
 10
-6.978928911914664
 20
-223.100900697499610
 11
-50.774056381941961
 21
-222.336453903970920
  0
ARC
  8
0
  6
CONTINUOUS
 62
3
 10
-42.274071736077673
 20
-225.485278671985070
 40
3.000000000000009
 50
43.255878794206197
 51
89.000000000000412
  0
LINE
  8
0
  6
CONTINUOUS
 62
3
 10
4.392020359669999
 20
-271.389482973075760
 11
-40.095287324536031
 21
-223.423022992389780
  0
LINE
  8
0
  6
CONTINUOUS
 62
3
 10
15.725943618058039
 20
-124.707581591186020
 11
5.725943618058039
 21
-124.707581591186020
  0
LINE
  8
0
  6
CONTINUOUS
 62
3
 10
15.725943618058039
 20
-115.317557509011550
 11
5.725943618058039
 21
-115.317557509011550
  0
ARC
  8
0
  6
CONTINUOUS
 62
3
 10
2.725943618058039
 20
-125.327726371506990
 40
3.000000000000000
 50
270.000000000000000
 51
0.000000000000000
  0
LINE
  8
0
  6
CONTINUOUS
 62
3
 10
5.725943618058039
 20
-115.101019470886880
 11
5.725943618058039
 21
-119.327726371506770
  0
LINE
  8
0
  6
CONTINUOUS
 62
3
 10
5.725943618058039
 20
-119.327726371506770
 11
5.725943618058039
 21
-262.119963455659270
  0
ARC
  8
0
  6
CONTINUOUS
 62
3
 10
4.725943618058039
 20
-118.327726371506770
 40
1.000000000000000
 50
0.000000000000000
 51
90.000000000000000
  0
ARC
  8
0
  6
CONTINUOUS
 62
3
 10
8.725943618058039
 20
-115.101019470886880
 40
3.000000000000000
 50
90.000000000000000
 51
180.000000000000000
  0
LINE
  8
0
  6
CONTINUOUS
 62
3
 10
15.725943212164879
 20
-112.101019470886880
 11
8.725943618058039
 21
-112.101019470886880
  0
LINE
  8
0
  6
CONTINUOUS
 62
3
 10
15.725943618058039
 20
-179.341037157554210
 11
5.725943618058039
 21
-179.341037157554210
  0
ARC
  8
0
  6
CONTINUOUS
 62
3
 10
2.725943618058039
 20
-151.327726371506880
 40
3.000000000000000
 50
270.000000000000000
 51
0.000000000000000
  0
LINE
  8
0
  6
CONTINUOUS
 62
3
 10
5.725943618058039
 20
-199.315218549225880
 11
15.725943618058039
 21
-199.315218549225880
  0
ARC
  8
0
  6
CONTINUOUS
 62
3
 10
2.725943618058039
 20
-192.827726371504500
 40
3.000000000000000
 50
0.000000000000000
 51
90.000000000000000
  0
ARC
  8
0
  6
CONTINUOUS
 62
3
 10
-7.031286131226494
 20
-226.100443782968820
 40
2.999999999999952
 50
14.999999999999208
 51
89.000000000000412
  0
LINE
  8
0
  6
CONTINUOUS
 62
3
 10
0.905146027171355
 20
-244.128501913464050
 11
-4.133508652359325
 21
-225.323986647661310
  0
POINT
  8
0
  6
CONTINUOUS
 62
3
 10
5.725943618058039
 20
-272.827726371506800
  0
POINT
  8
0
  6
CONTINUOUS
 62
3
 10
5.725943618058039
 20
-274.827726371506800
  0
LINE
  8
0
  6
CONTINUOUS
 62
3
 10
15.725943618058039
 20
-265.400233609620100
 11
5.725943618058039
 21
-265.400233609620100
  0
LINE
  8
0
  6
CONTINUOUS
 62
3
 10
15.725943618058039
 20
-272.118308242304410
 11
5.725943618058039
 21
-272.118308242304410
  0
LINE
  8
0
  6
CONTINUOUS
 62
3
 10
5.725943618058039
 20
-262.119963455659270
 11
5.725943618058039
 21
-274.827726371506800
  0
ARC
  8
0
  6
CONTINUOUS
 62
3
 10
8.725943618058039
 20
-274.827726371506800
 40
3.000000000000000
 50
180.000000000000000
 51
270.000000000000000
  0
LINE
  8
0
  6
CONTINUOUS
 62
3
 10
8.725943618058039
 20
-277.827726371506800
 11
15.725943618058039
 21
-277.827726371506800
  0
ARC
  8
0
  6
CONTINUOUS
 62
3
 10
0.726034643076417
 20
-274.789563667078880
 40
4.999999999999987
 50
359.726678726056040
 51
42.844904199250664
  0
LINE
  8
0
  6
CONTINUOUS
 62
3
 10
5.725943618058039
 20
-262.119963455659270
 11
3.584637951482392
 21
-254.128501913464050
  0
LINE
  8
0
  6
DASHDOT
 62
4
 10
-20.651174291170065
 20
-169.827726371506770
 11
-253.478126052830960
 21
-169.827726371506770
  0
INSERT
  8
0
  2
SYM8
 10
5.725943618063212
 20
115.925747580172270
  0
INSERT
  8
0
  2
SYM9
 10
5.725943618063212
 20
225.527298664087110
 41
-1.000000000000000
 50
180.000000000000000
  0
INSERT
  8
0
  2
SYM10
 10
24.725943618054117
 20
160.226523122129290
 50
0.000000000000014
  0
INSERT
  8
0
  2
SYM11
 10
41.225943618064576
 20
103.726523122129290
 50
0.000000000000014
  0
INSERT
  8
0
  2
SYM12
 10
24.725943618054117
 20
181.226523122129290
 41
-1.000000000000000
 50
180.000000000000000
  0
INSERT
  8
0
  2
SYM13
 10
41.225943618064576
 20
237.726523122129290
 41
-1.000000000000000
 50
180.000000000000000
  0
ARC
  8
0
  6
DASHED
 62
4
 10
-186.774071736084320
 20
98.726523122129521
 40
7.000000000000000
 50
180.000000000000000
 51
0.000000000000000
  0
LINE
  8
0
  6
DASHED
 62
4
 10
-179.774071736084320
 20
98.726523122129521
 11
-179.774071736084320
 21
113.226523122129520
  0
LINE
  8
0
  6
DASHED
 62
4
 10
-193.774071736084320
 20
98.726523122129521
 11
-193.774071736084320
 21
113.226523122129520
  0
LINE
  8
0
  6
DASHDOT
 62
4
 10
-195.859760842667900
 20
98.726523122129521
 11
-175.373172608958580
 21
98.726523122129521
  0
LINE
  8
0
  6
DASHDOT
 62
4
 10
-186.774071736084320
 20
89.782365864453396
 11
-186.774071736084320
 21
111.330854844985450
  0
CIRCLE
  8
0
  6
DASHED
 62
4
 10
-136.774071736084320
 20
98.726523122129521
 40
6.000000000000000
  0
ARC
  8
0
  6
DASHED
 62
4
 10
-136.774071736084320
 20
98.726523122129521
 40
7.000000000000000
 50
180.000000000000000
 51
0.000000000000000
  0
LINE
  8
0
  6
DASHED
 62
4
 10
-143.774071736084320
 20
98.726523122129521
 11
-143.774071736084320
 21
113.226523122129520
  0
LINE
  8
0
  6
DASHED
 62
4
 10
-129.774071736084320
 20
98.726523122129521
 11
-129.774071736084320
 21
113.226523122129520
  0
LINE
  8
0
  6
DASHDOT
 62
4
 10
-148.057601151810990
 20
98.726523122129521
 11
-126.290623743282680
 21
98.726523122129521
  0
LINE
  8
0
  6
DASHDOT
 62
4
 10
-136.774071736084320
 20
89.782365864453396
 11
-136.774071736084320
 21
111.761867996988740
  0
LINE
  8
0
  6
CONTINUOUS
 62
3
 10
-50.774071736084551
 20
117.226523122129520
 11
-50.774071736084551
 21
170.726523122129520
  0
LINE
  8
0
  6
CONTINUOUS
 62
3
 10
-50.774071736084551
 20
224.226523122129520
 11
-50.774071736084551
 21
170.726523122129520
  0
LINE
  8
0
  6
CONTINUOUS
 62
3
 10
-50.774071736084551
 20
117.226523122129520
 11
-124.274071736084320
 21
117.226523122129520
  0
LINE
  8
0
  6
CONTINUOUS
 62
3
 10
-50.774071736084551
 20
224.226523122129520
 11
-191.274071736105470
 21
224.226523122129520
  0
LINE
  8
0
  6
CONTINUOUS
 62
4
 10
-191.274071736105470
 20
221.726523122129520
 11
-50.774071736084551
 21
221.726523122129520
  0
LINE
  8
0
  6
CONTINUOUS
 62
4
 10
-191.274071736105470
 20
221.226523122129520
 11
-50.774071736084551
 21
221.226523122129520
  0
LINE
  8
0
  6
CONTINUOUS
 62
4
 10
-191.274071736105470
 20
216.859605717012220
 11
-50.774071736084551
 21
216.859605717012220
  0
LINE
  8
0
  6
CONTINUOUS
 62
4
 10
-191.274071736105470
 20
211.768436892469280
 11
-50.774071736084551
 21
211.768436892469280
  0
LINE
  8
0
  6
CONTINUOUS
 62
4
 10
-191.274071736105470
 20
204.030124073638290
 11
-50.774071736084551
 21
204.030124073638290
  0
LINE
  8
0
  6
CONTINUOUS
 62
4
 10
-191.274071736105470
 20
202.440914280899530
 11
-50.774071736084551
 21
202.440914280899530
  0
LINE
  8
0
  6
CONTINUOUS
 62
4
 10
-191.274071736105470
 20
199.482918672766600
 11
-50.774071736084551
 21
199.482918672766600
  0
LINE
  8
0
  6
CONTINUOUS
 62
4
 10
-191.274071736105470
 20
198.003895519289610
 11
-50.774071736084551
 21
198.003895519289610
  0
LINE
  8
0
  6
CONTINUOUS
 62
4
 10
-191.274071736105470
 20
194.911164527624270
 11
-50.774071736084551
 21
194.911164527624270
  0
LINE
  8
0
  6
CONTINUOUS
 62
4
 10
-191.274071736105470
 20
193.564762802125670
 11
-50.774071736084551
 21
193.564762802125670
  0
LINE
  8
0
  6
CONTINUOUS
 62
4
 10
-191.274071736105470
 20
190.354557778767370
 11
-50.774071736084551
 21
190.354557778767370
  0
LINE
  8
0
  6
CONTINUOUS
 62
4
 10
-191.274071736105470
 20
189.112637913879470
 11
-50.774071736084551
 21
189.112637913879470
  0
LINE
  8
0
  6
CONTINUOUS
 62
4
 10
-191.274071736105470
 20
184.726523122129520
 11
-50.774071736084551
 21
184.726523122129520
  0
LINE
  8
0
  6
CONTINUOUS
 62
4
 10
-191.274071736105240
 20
156.726523122129520
 11
-50.774071736084551
 21
156.726523122129520
  0
LINE
  8
0
  6
CONTINUOUS
 62
4
 10
-191.274071736105240
 20
152.340408330379570
 11
-50.774071736084551
 21
152.340408330379570
  0
LINE
  8
0
  6
CONTINUOUS
 62
4
 10
-191.274071736105240
 20
151.098488465491670
 11
-50.774071736084551
 21
151.098488465491670
  0
LINE
  8
0
  6
CONTINUOUS
 62
4
 10
-191.274071736105240
 20
147.888283442133370
 11
-50.774071736084551
 21
147.888283442133370
  0
LINE
  8
0
  6
CONTINUOUS
 62
4
 10
-191.274071736105240
 20
146.541881716634780
 11
-50.774071736084551
 21
146.541881716634780
  0
LINE
  8
0
  6
CONTINUOUS
 62
4
 10
-191.274071736105240
 20
143.449150724969540
 11
-50.774071736084551
 21
143.449150724969540
  0
LINE
  8
0
  6
CONTINUOUS
 62
4
 10
-191.274071736105240
 20
141.970127571492440
 11
-50.774071736084551
 21
141.970127571492440
  0
LINE
  8
0
  6
CONTINUOUS
 62
4
 10
-191.274071736105240
 20
137.422922170620860
 11
-50.774071736084551
 21
137.422922170620860
  0
LINE
  8
0
  6
CONTINUOUS
 62
4
 10
-191.274071736105240
 20
139.012131963359510
 11
-50.774071736084551
 21
139.012131963359510
  0
LINE
  8
0
  6
CONTINUOUS
 62
4
 10
-191.274071736105240
 20
129.684609351789760
 11
-50.774071736084551
 21
129.684609351789760
  0
LINE
  8
0
  6
CONTINUOUS
 62
4
 10
-191.274071736105240
 20
124.593440527246820
 11
-50.774071736084551
 21
124.593440527246940
  0
LINE
  8
0
  6
CONTINUOUS
 62
4
 10
-191.274071736105240
 20
120.226523122129520
 11
-50.774071736084551
 21
120.226523122129520
  0
LINE
  8
0
  6
CONTINUOUS
 62
4
 10
-191.274071736105240
 20
119.726523122129520
 11
-50.774071736084551
 21
119.726523122129520
  0
LINE
  8
0
  6
CONTINUOUS
 62
3
 10
-241.274071736105920
 20
218.570143255758840
 11
-241.274071736105700
 21
170.726523122129520
  0
LINE
  8
0
  6
CONTINUOUS
 62
3
 10
-232.594591274029850
 20
226.001055234482830
 11
-240.165370470618630
 21
220.699938570910180
  0
ARC
  8
0
  6
CONTINUOUS
 62
3
 10
-238.674071736105790
 20
218.570143255758840
 40
2.600000000000131
 50
125.000000000001180
 51
180.000000000000000
  0
ARC
  8
0
  6
CONTINUOUS
 62
3
 10
-220.778916685198480
 20
209.126523122129500
 40
20.600000000000023
 50
90.000000000000000
 51
124.999999999999600
  0
LINE
  8
0
  6
CONTINUOUS
 62
3
 10
-241.274071736105920
 20
122.882902988500200
 11
-241.274071736105920
 21
170.726523122129520
  0
LINE
  8
0
  6
CONTINUOUS
 62
3
 10
-232.594591274029850
 20
115.451991009776320
 11
-240.165370470618630
 21
120.753107673348860
  0
ARC
  8
0
  6
CONTINUOUS
 62
3
 10
-238.674071736105790
 20
122.882902988500200
 40
2.600000000000136
 50
180.000000000000000
 51
234.999999999997390
  0
ARC
  8
0
  6
CONTINUOUS
 62
3
 10
-220.778916685198480
 20
132.326523122129540
 40
20.599999999999891
 50
235.000000000000400
 51
270.000000000000000
  0
LINE
  8
0
  6
CONTINUOUS
 62
3
 10
-191.274071736105700
 20
229.726523122129520
 11
-220.778916685198480
 21
229.726523122129520
  0
LINE
  8
0
  6
CONTINUOUS
 62
3
 10
-201.274071736105700
 20
111.726523122129520
 11
-220.778916685198480
 21
111.726523122129520
  0
LINE
  8
0
  6
CONTINUOUS
 62
3
 10
-199.274071736084320
 20
113.226523122129520
 11
-199.274071736084320
 21
116.215253886074180
  0
LINE
  8
0
  6
CONTINUOUS
 62
3
 10
-124.274071736084320
 20
118.226523122129630
 11
-191.507540430502980
 21
118.226523122129630
  0
LINE
  8
0
  6
CONTINUOUS
 62
3
 10
-202.274071736105700
 20
219.870444144854700
 11
-204.274071736105700
 21
218.217802505731270
  0
LINE
  8
0
  6
CONTINUOUS
 62
3
 10
-200.274071736105700
 20
221.046229630477480
 11
-202.274071736105700
 21
219.870444144854700
  0
LINE
  8
0
  6
CONTINUOUS
 62
3
 10
-202.274071736105700
 20
219.870444144854700
 11
-200.274071736105700
 21
218.217802505731270
  0
LINE
  8
0
  6
CONTINUOUS
 62
3
 10
-204.274071736105700
 20
221.046229630477480
 11
-202.274071736105700
 21
219.870444144854700
  0
POLYLINE
  8
0
  6
CONTINUOUS
 62
3
 66
1
 70
1
  0
VERTEX
  8
0
  6
CONTINUOUS
 62
3
 10
-197.574071736105480
 20
218.053854076477050
  0
VERTEX
  8
0
  6
CONTINUOUS
 62
3
 10
-197.664380918210300
 20
218.756811042677410
  0
VERTEX
  8
0
  6
CONTINUOUS
 62
3
 10
-197.931837933302430
 20
219.432753766889500
  0
VERTEX
  8
0
  6
CONTINUOUS
 62
3
 10
-198.366164558283510
 20
220.055706149294910
  0
VERTEX
  8
0
  6
CONTINUOUS
 62
3
 10
-198.950669864528690
 20
220.601728479193470
  0
VERTEX
  8
0
  6
CONTINUOUS
 62
3
 10
-199.662891640913360
 20
221.049837424660100
  0
VERTEX
  8
0
  6
CONTINUOUS
 62
3
 10
-200.475459603989550
 20
221.382812410222840
  0
VERTEX
  8
0
  6
CONTINUOUS
 62
3
 10
-201.357147222629660
 20
221.587857393921100
  0
VERTEX
  8
0
  6
CONTINUOUS
 62
3
 10
-202.274071736105470
 20
221.657092612021870
  0
VERTEX
  8
0
  6
CONTINUOUS
 62
3
 10
-203.190996249581270
 20
221.587857393921100
  0
VERTEX
  8
0
  6
CONTINUOUS
 62
3
 10
-204.072683868221390
 20
221.382812410222840
  0
VERTEX
  8
0
  6
CONTINUOUS
 62
3
 10
-204.885251831297580
 20
221.049837424660100
  0
VERTEX
  8
0
  6
CONTINUOUS
 62
3
 10
-205.597473607682250
 20
220.601728479193470
  0
VERTEX
  8
0
  6
CONTINUOUS
 62
3
 10
-206.181978913927420
 20
220.055706149294910
  0
VERTEX
  8
0
  6
CONTINUOUS
 62
3
 10
-206.616305538908510
 20
219.432753766889500
  0
VERTEX
  8
0
  6
CONTINUOUS
 62
3
 10
-206.883762554000640
 20
218.756811042677410
  0
VERTEX
  8
0
  6
CONTINUOUS
 62
3
 10
-206.974071736105460
 20
218.053854076477050
  0
VERTEX
  8
0
  6
CONTINUOUS
 62
3
 10
-206.883762554000640
 20
217.350897110276690
  0
VERTEX
  8
0
  6
CONTINUOUS
 62
3
 10
-206.616305538908510
 20
216.674954386064600
  0
VERTEX
  8
0
  6
CONTINUOUS
 62
3
 10
-206.181978913927420
 20
216.052002003659200
  0
VERTEX
  8
0
  6
CONTINUOUS
 62
3
 10
-205.597473607682220
 20
215.505979673760630
  0
VERTEX
  8
0
  6
CONTINUOUS
 62
3
 10
-204.885251831297580
 20
215.057870728294010
  0
VERTEX
  8
0
  6
CONTINUOUS
 62
3
 10
-204.072683868221390
 20
214.724895742731260
  0
VERTEX
  8
0
  6
CONTINUOUS
 62
3
 10
-203.190996249581270
 20
214.519850759033010
  0
VERTEX
  8
0
  6
CONTINUOUS
 62
3
 10
-202.274071736105470
 20
214.450615540932230
  0
VERTEX
  8
0
  6
CONTINUOUS
 62
3
 10
-201.357147222629660
 20
214.519850759033010
  0
VERTEX
  8
0
  6
CONTINUOUS
 62
3
 10
-200.475459603989550
 20
214.724895742731260
  0
VERTEX
  8
0
  6
CONTINUOUS
 62
3
 10
-199.662891640913360
 20
215.057870728294010
  0
VERTEX
  8
0
  6
CONTINUOUS
 62
3
 10
-198.950669864528720
 20
215.505979673760630
  0
VERTEX
  8
0
  6
CONTINUOUS
 62
3
 10
-198.366164558283510
 20
216.052002003659200
  0
VERTEX
  8
0
  6
CONTINUOUS
 62
3
 10
-197.931837933302430
 20
216.674954386064600
  0
VERTEX
  8
0
  6
CONTINUOUS
 62
3
 10
-197.664380918210300
 20
217.350897110276690
  0
SEQEND
  8
0
  6
CONTINUOUS
 62
3
  0
LINE
  8
0
  6
CONTINUOUS
 62
3
 10
-191.274071736105700
 20
229.726523122129520
 11
-191.274071736105470
 21
170.726523122129520
  0
LINE
  8
0
  6
CONTINUOUS
 62
3
 10
-201.274071736105700
 20
111.726523122129520
 11
-201.274071736105700
 21
113.386826761320570
  0
ARC
  8
0
  6
CONTINUOUS
 62
3
 10
-198.274071736105700
 20
113.386826761320570
 40
3.000000000000000
 50
90.000000000000000
 51
180.000000000000000
  0
LINE
  8
0
  6
CONTINUOUS
 62
3
 10
-202.274071736105700
 20
121.582602099404450
 11
-204.274071736105700
 21
123.235243738527770
  0
LINE
  8
0
  6
CONTINUOUS
 62
3
 10
-200.274071736105700
 20
120.406816613781550
 11
-202.274071736105700
 21
121.582602099404450
  0
LINE
  8
0
  6
CONTINUOUS
 62
3
 10
-202.274071736105700
 20
121.582602099404450
 11
-200.274071736105700
 21
123.235243738527770
  0
LINE
  8
0
  6
CONTINUOUS
 62
3
 10
-204.274071736105700
 20
120.406816613781550
 11
-202.274071736105700
 21
121.582602099404450
  0
POLYLINE
  8
0
  6
CONTINUOUS
 62
3
 66
1
 70
1
  0
VERTEX
  8
0
  6
CONTINUOUS
 62
3
 10
-197.574071736105480
 20
123.399192167781990
  0
VERTEX
  8
0
  6
CONTINUOUS
 62
3
 10
-197.664380918210300
 20
124.102149133982350
  0
VERTEX
  8
0
  6
CONTINUOUS
 62
3
 10
-197.931837933302430
 20
124.778091858194440
  0
VERTEX
  8
0
  6
CONTINUOUS
 62
3
 10
-198.366164558283510
 20
125.401044240599840
  0
VERTEX
  8
0
  6
CONTINUOUS
 62
3
 10
-198.950669864528690
 20
125.947066570498420
  0
VERTEX
  8
0
  6
CONTINUOUS
 62
3
 10
-199.662891640913360
 20
126.395175515965030
  0
VERTEX
  8
0
  6
CONTINUOUS
 62
3
 10
-200.475459603989550
 20
126.728150501527800
  0
VERTEX
  8
0
  6
CONTINUOUS
 62
3
 10
-201.357147222629660
 20
126.933195485226050
  0
VERTEX
  8
0
  6
CONTINUOUS
 62
3
 10
-202.274071736105470
 20
127.002430703326820
  0
VERTEX
  8
0
  6
CONTINUOUS
 62
3
 10
-203.190996249581270
 20
126.933195485226050
  0
VERTEX
  8
0
  6
CONTINUOUS
 62
3
 10
-204.072683868221390
 20
126.728150501527800
  0
VERTEX
  8
0
  6
CONTINUOUS
 62
3
 10
-204.885251831297580
 20
126.395175515965030
  0
VERTEX
  8
0
  6
CONTINUOUS
 62
3
 10
-205.597473607682250
 20
125.947066570498420
  0
VERTEX
  8
0
  6
CONTINUOUS
 62
3
 10
-206.181978913927420
 20
125.401044240599840
  0
VERTEX
  8
0
  6
CONTINUOUS
 62
3
 10
-206.616305538908510
 20
124.778091858194440
  0
VERTEX
  8
0
  6
CONTINUOUS
 62
3
 10
-206.883762554000640
 20
124.102149133982350
  0
VERTEX
  8
0
  6
CONTINUOUS
 62
3
 10
-206.974071736105460
 20
123.399192167781990
  0
VERTEX
  8
0
  6
CONTINUOUS
 62
3
 10
-206.883762554000640
 20
122.696235201581620
  0
VERTEX
  8
0
  6
CONTINUOUS
 62
3
 10
-206.616305538908510
 20
122.020292477369530
  0
VERTEX
  8
0
  6
CONTINUOUS
 62
3
 10
-206.181978913927420
 20
121.397340094964130
  0
VERTEX
  8
0
  6
CONTINUOUS
 62
3
 10
-205.597473607682220
 20
120.851317765065550
  0
VERTEX
  8
0
  6
CONTINUOUS
 62
3
 10
-204.885251831297580
 20
120.403208819598940
  0
VERTEX
  8
0
  6
CONTINUOUS
 62
3
 10
-204.072683868221390
 20
120.070233834036170
  0
VERTEX
  8
0
  6
CONTINUOUS
 62
3
 10
-203.190996249581270
 20
119.865188850337930
  0
VERTEX
  8
0
  6
CONTINUOUS
 62
3
 10
-202.274071736105470
 20
119.795953632237150
  0
VERTEX
  8
0
  6
CONTINUOUS
 62
3
 10
-201.357147222629660
 20
119.865188850337930
  0
VERTEX
  8
0
  6
CONTINUOUS
 62
3
 10
-200.475459603989550
 20
120.070233834036170
  0
VERTEX
  8
0
  6
CONTINUOUS
 62
3
 10
-199.662891640913360
 20
120.403208819598940
  0
VERTEX
  8
0
  6
CONTINUOUS
 62
3
 10
-198.950669864528720
 20
120.851317765065550
  0
VERTEX
  8
0
  6
CONTINUOUS
 62
3
 10
-198.366164558283510
 20
121.397340094964130
  0
VERTEX
  8
0
  6
CONTINUOUS
 62
3
 10
-197.931837933302430
 20
122.020292477369530
  0
VERTEX
  8
0
  6
CONTINUOUS
 62
3
 10
-197.664380918210300
 20
122.696235201581620
  0
SEQEND
  8
0
  6
CONTINUOUS
 62
3
  0
LINE
  8
0
  6
CONTINUOUS
 62
3
 10
-198.274071736105700
 20
116.386826761320570
 11
-194.274071736105700
 21
116.386826761320570
  0
ARC
  8
0
  6
CONTINUOUS
 62
3
 10
-194.274071736105700
 20
119.386826761320570
 40
3.000000000000000
 50
270.000000000000000
 51
0.000000000000000
  0
LINE
  8
0
  6
CONTINUOUS
 62
3
 10
-191.274071736105700
 20
119.386826761320570
 11
-191.274071736105470
 21
170.726523122129520
  0
LINE
  8
0
  6
CONTINUOUS
 62
3
 10
-126.274071736084320
 20
83.726523122129521
 11
-197.274071736084320
 21
83.726523122129521
  0
LINE
  8
0
  6
CONTINUOUS
 62
3
 10
-140.274071736084320
 20
83.226523122129521
 11
-140.274071736084320
 21
83.726523122129521
  0
LINE
  8
0
  6
CONTINUOUS
 62
3
 10
-140.274071736084320
 20
83.226523122129521
 11
-132.274071736084320
 21
83.226523122129521
  0
LINE
  8
0
  6
CONTINUOUS
 62
3
 10
-132.274071736084320
 20
83.226523122129521
 11
-132.274071736084320
 21
83.726523122129521
  0
ARC
  8
0
  6
CONTINUOUS
 62
3
 10
-126.274071736084320
 20
84.726523122129521
 40
1.000000000000000
 50
270.000000000000000
 51
0.000000000000000
  0
ARC
  8
0
  6
CONTINUOUS
 62
3
 10
-197.274071736084320
 20
84.726523122129521
 40
1.000000000000000
 50
180.000000000000000
 51
270.000000000000000
  0
LINE
  8
0
  6
CONTINUOUS
 62
3
 10
-198.274071736084320
 20
84.726523122129521
 11
-198.274071736084320
 21
113.226523122129520
  0
LINE
  8
0
  6
CONTINUOUS
 62
3
 10
-125.274071736084320
 20
84.726523122129521
 11
-125.274071736084320
 21
113.226523122129520
  0
LINE
  8
0
  6
CONTINUOUS
 62
3
 10
-124.274071736084320
 20
113.226523122129520
 11
-124.274071736084320
 21
118.226523122129630
  0
LINE
  8
0
  6
CONTINUOUS
 62
3
 10
-199.274071736084320
 20
113.226523122129520
 11
-124.274071736084320
 21
113.226523122129520
  0
LINE
  8
0
  6
CONTINUOUS
 62
3
 10
-77.274071736084551
 20
247.887548181816360
 11
-180.274071736084550
 21
247.887548181816360
  0
ARC
  8
0
  6
CONTINUOUS
 62
3
 10
-71.774071736084551
 20
252.887548181816360
 40
5.000000000000072
 50
287.457603123721870
 51
0.000000000000000
  0
ARC
  8
0
  6
CONTINUOUS
 62
3
 10
-71.574071736084733
 20
248.564094307558690
 40
1.300000000000182
 50
0.000000000000000
 51
73.398450400977637
  0
ARC
  8
0
  6
CONTINUOUS
 62
3
 10
-73.774071736084551
 20
241.185069981809220
 40
9.000000000000123
 50
73.398450400980877
 51
106.601549599019120
  0
ARC
  8
0
  6
CONTINUOUS
 62
3
 10
-75.974071736084369
 20
248.564094307558690
 40
1.300000000000019
 50
106.601549599022360
 51
180.000000000000000
  0
LINE
  8
0
  6
CONTINUOUS
 62
3
 10
-70.274071736084551
 20
248.564094307558690
 11
-70.274071736084551
 21
247.577084569634310
  0
POLYLINE
  8
0
  6
CONTINUOUS
 62
3
 66
1
  0
VERTEX
  8
0
  6
CONTINUOUS
 62
3
 10
-77.274071736084551
 20
247.577084569634310
  0
VERTEX
  8
0
  6
CONTINUOUS
 62
3
 10
-77.206820217495860
 20
247.542986359438320
  0
VERTEX
  8
0
  6
CONTINUOUS
 62
3
 10
-77.007650099874056
 20
247.510198524337680
  0
VERTEX
  8
0
  6
CONTINUOUS
 62
3
 10
-76.684215379143453
 20
247.479981082447670
  0
VERTEX
  8
0
  6
CONTINUOUS
 62
3
 10
-76.248945470237473
 20
247.453495273113960
  0
VERTEX
  8
0
  6
CONTINUOUS
 62
3
 10
-75.718567551653166
 20
247.431758931135870
  0
VERTEX
  8
0
  6
CONTINUOUS
 62
3
 10
-75.113463749362367
 20
247.415607371945700
  0
VERTEX
  8
0
  6
CONTINUOUS
 62
3
 10
-74.456887863141006
 20
247.405661290905240
  0
VERTEX
  8
0
  6
CONTINUOUS
 62
3
 10
-73.774071736084551
 20
247.402302910331090
  0
VERTEX
  8
0
  6
CONTINUOUS
 62
3
 10
-73.091255609028110
 20
247.405661290905240
  0
VERTEX
  8
0
  6
CONTINUOUS
 62
3
 10
-72.434679722806735
 20
247.415607371945700
  0
VERTEX
  8
0
  6
CONTINUOUS
 62
3
 10
-71.829575920515950
 20
247.431758931135870
  0
VERTEX
  8
0
  6
CONTINUOUS
 62
3
 10
-71.299198001931643
 20
247.453495273113960
  0
VERTEX
  8
0
  6
CONTINUOUS
 62
3
 10
-70.863928093025649
 20
247.479981082447670
  0
VERTEX
  8
0
  6
CONTINUOUS
 62
3
 10
-70.540493372295046
 20
247.510198524337680
  0
VERTEX
  8
0
  6
CONTINUOUS
 62
3
 10
-70.341323254673242
 20
247.542986359438320
  0
VERTEX
  8
0
  6
CONTINUOUS
 62
3
 10
-70.274071736084551
 20
247.577084569634310
  0
SEQEND
  8
0
  6
CONTINUOUS
 62
3
  0
LINE
  8
0
  6
CONTINUOUS
 62
3
 10
-77.274071736084551
 20
248.564094307558690
 11
-77.274071736084551
 21
247.577084569634310
  0
LINE
  8
0
  6
CONTINUOUS
 62
3
 10
-190.774071736084550
 20
224.226523122129520
 11
-190.774071736084550
 21
229.226523122129520
  0
LINE
  8
0
  6
DASHDOT
 62
3
 10
-66.774071736084551
 20
224.226523122129520
 11
-66.774071736084551
 21
229.226523122129520
  0
LINE
  8
0
  6
DASHDOT
 62
3
 10
-66.774071736084551
 20
224.226523122129520
 11
-66.774071736084551
 21
229.226523122129520
  0
LINE
  8
0
  6
CONTINUOUS
 62
3
 10
-190.774071736084550
 20
229.226523122129520
 11
-66.774071736084551
 21
229.226523122129520
  0
ARC
  8
0
  6
CONTINUOUS
 62
3
 10
-185.774071736084550
 20
252.887548181816360
 40
5.000000000000000
 50
180.000000000000000
 51
252.542396876278160
  0
LINE
  8
0
  6
CONTINUOUS
 62
3
 10
-187.274071736084550
 20
248.564094307558690
 11
-187.274071736084550
 21
247.577084569634310
  0
LINE
  8
0
  6
CONTINUOUS
 62
3
 10
-180.274071736084550
 20
248.564094307558690
 11
-180.274071736084550
 21
247.577084569634310
  0
ARC
  8
0
  6
CONTINUOUS
 62
3
 10
-185.974071736084370
 20
248.564094307558690
 40
1.300000000000019
 50
106.601549599022360
 51
180.000000000000000
  0
ARC
  8
0
  6
CONTINUOUS
 62
3
 10
-183.774071736084550
 20
241.185069981809220
 40
9.000000000000123
 50
73.398450400980877
 51
106.601549599019120
  0
ARC
  8
0
  6
CONTINUOUS
 62
3
 10
-181.574071736084730
 20
248.564094307558690
 40
1.300000000000182
 50
0.000000000000000
 51
73.398450400977637
  0
POLYLINE
  8
0
  6
CONTINUOUS
 62
3
 66
1
  0
VERTEX
  8
0
  6
CONTINUOUS
 62
3
 10
-187.274071736084550
 20
247.577084569634310
  0
VERTEX
  8
0
  6
CONTINUOUS
 62
3
 10
-187.206820217495850
 20
247.542986359438320
  0
VERTEX
  8
0
  6
CONTINUOUS
 62
3
 10
-187.007650099874040
 20
247.510198524337680
  0
VERTEX
  8
0
  6
CONTINUOUS
 62
3
 10
-186.684215379143470
 20
247.479981082447670
  0
VERTEX
  8
0
  6
CONTINUOUS
 62
3
 10
-186.248945470237460
 20
247.453495273113960
  0
VERTEX
  8
0
  6
CONTINUOUS
 62
3
 10
-185.718567551653170
 20
247.431758931135870
  0
VERTEX
  8
0
  6
CONTINUOUS
 62
3
 10
-185.113463749362350
 20
247.415607371945700
  0
VERTEX
  8
0
  6
CONTINUOUS
 62
3
 10
-184.456887863140990
 20
247.405661290905240
  0
VERTEX
  8
0
  6
CONTINUOUS
 62
3
 10
-183.774071736084550
 20
247.402302910331090
  0
VERTEX
  8
0
  6
CONTINUOUS
 62
3
 10
-183.091255609028110
 20
247.405661290905240
  0
VERTEX
  8
0
  6
CONTINUOUS
 62
3
 10
-182.434679722806750
 20
247.415607371945700
  0
VERTEX
  8
0
  6
CONTINUOUS
 62
3
 10
-181.829575920515940
 20
247.431758931135870
  0
VERTEX
  8
0
  6
CONTINUOUS
 62
3
 10
-181.299198001931640
 20
247.453495273113960
  0
VERTEX
  8
0
  6
CONTINUOUS
 62
3
 10
-180.863928093025630
 20
247.479981082447670
  0
VERTEX
  8
0
  6
CONTINUOUS
 62
3
 10
-180.540493372295060
 20
247.510198524337680
  0
VERTEX
  8
0
  6
CONTINUOUS
 62
3
 10
-180.341323254673260
 20
247.542986359438320
  0
VERTEX
  8
0
  6
CONTINUOUS
 62
3
 10
-180.274071736084550
 20
247.577084569634310
  0
SEQEND
  8
0
  6
CONTINUOUS
 62
3
  0
LINE
  8
0
  6
CONTINUOUS
 62
3
 10
-66.774071736084551
 20
252.887548181816360
 11
-66.774071736084551
 21
265.826523122129400
  0
ARC
  8
0
  6
CONTINUOUS
 62
3
 10
-71.774071736084551
 20
234.226523122129520
 40
5.000000000000000
 50
270.000000000000000
 51
0.000000000000000
  0
LINE
  8
0
  6
CONTINUOUS
 62
3
 10
-190.774071736084550
 20
252.887548181816360
 11
-190.774071736084550
 21
265.826523122129400
  0
LINE
  8
0
  6
CONTINUOUS
 62
3
 10
-190.774071736084550
 20
252.421033413191740
 11
-191.774071736084550
 21
252.421033413191740
  0
LINE
  8
0
  6
CONTINUOUS
 62
3
 10
-65.774071736084551
 20
247.327396484914540
 11
-191.774071736084550
 21
247.327396484914540
  0
ARC
  8
0
  6
CONTINUOUS
 62
3
 10
-185.774071736084550
 20
234.226523122129520
 40
5.000000000000000
 50
180.000000000000000
 51
270.000000000000000
  0
ARC
  8
0
  6
CONTINUOUS
 62
3
 10
-185.774071736084550
 20
265.826523122129400
 40
5.000000000000000
 50
90.000000000000000
 51
180.000000000000000
  0
ARC
  8
0
  6
CONTINUOUS
 62
3
 10
-191.774071736084550
 20
250.421033413191740
 40
2.000000000000000
 50
90.000000000000000
 51
180.000000000000000
  0
ARC
  8
0
  6
CONTINUOUS
 62
3
 10
-191.774071736084550
 20
249.327396484914540
 40
2.000000000000000
 50
180.000000000000000
 51
270.000000000000000
  0
ARC
  8
0
  6
CONTINUOUS
 62
3
 10
-191.774071736084550
 20
248.528394613829310
 40
2.000000000000000
 50
180.000000000000000
 51
270.000000000000000
  0
LINE
  8
0
  6
CONTINUOUS
 62
3
 10
-193.774071736084550
 20
250.421033413191740
 11
-193.774071736084550
 21
247.729392742710420
  0
ARC
  8
0
  6
CONTINUOUS
 62
3
 10
-191.774071736084550
 20
247.729392742710420
 40
2.000000000000000
 50
180.000000000000000
 51
270.000000000000000
  0
LINE
  8
0
  6
CONTINUOUS
 62
3
 10
-190.774071736084550
 20
234.226523122129520
 11
-190.774071736084550
 21
245.729392742710420
  0
ARC
  8
0
  6
CONTINUOUS
 62
3
 10
-71.774071736084551
 20
265.826523122129400
 40
5.000000000000000
 50
0.000000000000000
 51
90.000000000000000
  0
LINE
  8
0
  6
CONTINUOUS
 62
3
 10
-185.774071736084550
 20
270.826523122129400
 11
-71.774071736084551
 21
270.826523122129400
  0
LINE
  8
0
  6
CONTINUOUS
 62
3
 10
-66.774071736084551
 20
234.226523122129520
 11
-66.774071736084551
 21
245.528394613829310
  0
LINE
  8
0
  6
CONTINUOUS
 62
3
 10
-63.774071736084551
 20
250.421033413191740
 11
-63.774071736084551
 21
247.729392742710420
  0
LINE
  8
0
  6
CONTINUOUS
 62
3
 10
-65.774071736084551
 20
246.528394613812480
 11
-191.774071736084550
 21
246.528394613812480
  0
LINE
  8
0
  6
CONTINUOUS
 62
3
 10
-65.774071736084551
 20
245.729392742710420
 11
-191.774071736084550
 21
245.729392742710420
  0
LINE
  8
0
  6
CONTINUOUS
 62
3
 10
-66.774071736084551
 20
252.421033413191740
 11
-65.774071736084551
 21
252.421033413191740
  0
ARC
  8
0
  6
CONTINUOUS
 62
3
 10
-65.774071736084551
 20
250.421033413191740
 40
2.000000000000000
 50
0.000000000000000
 51
90.000000000000000
  0
ARC
  8
0
  6
CONTINUOUS
 62
3
 10
-65.774071736084551
 20
249.327396484914540
 40
2.000000000000000
 50
270.000000000000000
 51
0.000000000000000
  0
ARC
  8
0
  6
CONTINUOUS
 62
3
 10
-65.774071736084551
 20
248.528394613829310
 40
2.000000000000000
 50
270.000000000000000
 51
0.000000000000000
  0
ARC
  8
0
  6
CONTINUOUS
 62
3
 10
-65.774071736084551
 20
247.729392742710420
 40
2.000000000000000
 50
270.000000000000000
 51
0.000000000000000
  0
LINE
  8
0
  6
CONTINUOUS
 62
3
 10
5.725943618063212
 20
170.726523122129520
 11
5.725943618063212
 21
90.226523122129635
  0
ARC
  8
0
  6
CONTINUOUS
 62
3
 10
8.725943618063212
 20
90.226523122129635
 40
3.000000000000000
 50
180.000000000000000
 51
270.000000000000000
  0
LINE
  8
0
  6
CONTINUOUS
 62
3
 10
8.725943618063212
 20
87.226523122129635
 11
15.725943618063212
 21
87.226523122129635
  0
LINE
  8
0
  6
CONTINUOUS
 62
3
 10
5.725943618063212
 20
170.726523122129520
 11
5.725943618063212
 21
251.226523122129520
  0
ARC
  8
0
  6
CONTINUOUS
 62
3
 10
8.725943618063212
 20
251.226523122129520
 40
2.999999999999972
 50
90.000000000000000
 51
180.000000000000000
  0
LINE
  8
0
  6
CONTINUOUS
 62
3
 10
8.725943618063212
 20
254.226523122129490
 11
15.725943618063212
 21
254.226523122129490
  0
LINE
  8
0
  6
CONTINUOUS
 62
3
 10
52.225943618064576
 20
53.726523122129741
 11
52.225943618064122
 21
170.726523122129290
  0
ARC
  8
0
  6
CONTINUOUS
 62
3
 10
36.225943618064576
 20
79.726523122129294
 40
2.000000000000000
 50
90.000000000000000
 51
180.000000000000000
  0
LINE
  8
0
  6
CONTINUOUS
 62
3
 10
39.225943618064576
 20
81.726523122128839
 11
36.225943618064576
 21
81.726523122129294
  0
ARC
  8
0
  6
CONTINUOUS
 62
3
 10
39.225943618064576
 20
83.726523122128839
 40
2.000000000000000
 50
270.000000000000000
 51
0.000000000000000
  0
LINE
  8
0
  6
CONTINUOUS
 62
3
 10
34.225943618064576
 20
79.726523122129294
 11
34.225943618064576
 21
56.726523122129286
  0
LINE
  8
0
  6
CONTINUOUS
 62
3
 10
52.725943618064235
 20
53.726523122129741
 11
37.225943618064576
 21
53.726523122129286
  0
ARC
  8
0
  6
CONTINUOUS
 62
3
 10
37.225943618064576
 20
56.726523122129286
 40
3.000000000000000
 50
180.000000000000000
 51
270.000000000000000
  0
LINE
  8
0
  6
CONTINUOUS
 62
3
 10
33.225944571738893
 20
70.360398968992087
 11
33.225944571738893
 21
59.092452725705947
  0
LINE
  8
0
  6
CONTINUOUS
 62
3
 10
33.725945209596631
 20
71.226523146197707
 11
33.225945183449568
 21
70.360399006063545
  0
LINE
  8
0
  6
CONTINUOUS
 62
3
 10
33.725945836223929
 20
58.226523144830274
 11
33.225944886030703
 21
59.092452715898865
  0
LINE
  8
0
  6
CONTINUOUS
 62
3
 10
33.725944571738893
 20
71.226523122129294
 11
33.725944571738893
 21
58.226523122129286
  0
LINE
  8
0
  6
CONTINUOUS
 62
3
 10
34.225943618064576
 20
58.226523122129286
 11
33.725945525413209
 21
58.226523122129286
  0
LINE
  8
0
  6
CONTINUOUS
 62
3
 10
34.225943618064576
 20
71.226523122129407
 11
33.725944571738893
 21
71.226523122129294
  0
ARC
  8
0
  6
CONTINUOUS
 62
3
 10
44.225943618064576
 20
56.726523122129286
 40
3.000000000000000
 50
180.000000000000000
 51
270.000000000000000
  0
ARC
  8
0
  6
CONTINUOUS
 62
3
 10
38.225943618064576
 20
147.226523122129290
 40
3.000000000000000
 50
0.000000000000000
 51
90.000000000000000
  0
ARC
  8
0
  6
CONTINUOUS
 62
3
 10
32.225943618064576
 20
153.226523122129290
 40
3.000000000000000
 50
180.000000000000000
 51
270.000000000000000
  0
LINE
  8
0
  6
CONTINUOUS
 62
3
 10
29.225943618064576
 20
170.726523122129290
 11
29.225943618064576
 21
150.226523122129290
  0
LINE
  8
0
  6
CONTINUOUS
 62
3
 10
24.725943618053662
 20
150.226523122129290
 11
24.725943618055027
 21
170.726523122129290
  0
LINE
  8
0
  6
CONTINUOUS
 62
3
 10
24.725943618053662
 20
150.226523122129290
 11
29.225943618064576
 21
150.226523122129290
  0
LINE
  8
0
  6
CONTINUOUS
 62
3
 10
32.225943618064576
 20
150.226523122129290
 11
38.225943618064576
 21
150.226523122129290
  0
LINE
  8
0
  6
CONTINUOUS
 62
3
 10
41.225943618064576
 20
56.726523122129286
 11
41.225943618064576
 21
147.226523122129290
  0
LINE
  8
0
  6
CONTINUOUS
 62
3
 10
15.725943618057755
 20
87.296396783568326
 11
36.400441101576945
 21
86.574427422587888
  0
LINE
  8
0
  6
CONTINUOUS
 62
3
 10
15.725943618057755
 20
87.296396783568326
 11
15.725943618063212
 21
170.726523122129520
  0
ARC
  8
0
  6
CONTINUOUS
 62
3
 10
36.225943618064122
 20
81.577473287493177
 40
4.999999999999970
 50
15.348930286009365
 51
87.999999999996049
  0
LINE
  8
0
  6
CONTINUOUS
 62
3
 10
52.225943618064349
 20
287.726523122128810
 11
52.225943618064122
 21
170.726523122129290
  0
ARC
  8
0
  6
CONTINUOUS
 62
3
 10
36.225943618064576
 20
261.726523122129270
 40
2.000000000000000
 50
180.000000000000000
 51
270.000000000000000
  0
LINE
  8
0
  6
CONTINUOUS
 62
3
 10
39.225943618064576
 20
259.726523122129720
 11
36.225943618064576
 21
259.726523122129270
  0
ARC
  8
0
  6
CONTINUOUS
 62
3
 10
39.225943618064576
 20
257.726523122129720
 40
2.000000000000000
 50
0.000000000000000
 51
90.000000000000000
  0
LINE
  8
0
  6
CONTINUOUS
 62
3
 10
34.225943618064576
 20
261.726523122129270
 11
34.225943618064349
 21
284.726523122129270
  0
LINE
  8
0
  6
CONTINUOUS
 62
3
 10
52.725943618064235
 20
287.726523122128810
 11
37.225943618064349
 21
287.726523122129270
  0
ARC
  8
0
  6
CONTINUOUS
 62
3
 10
37.225943618064349
 20
284.726523122129270
 40
3.000000000000000
 50
90.000000000000000
 51
180.000000000000000
  0
LINE
  8
0
  6
CONTINUOUS
 62
3
 10
33.225944571738665
 20
271.092647275266470
 11
33.225944571738665
 21
282.360593518552610
  0
LINE
  8
0
  6
CONTINUOUS
 62
3
 10
33.725945209596404
 20
270.226523098060850
 11
33.225945183449340
 21
271.092647238195010
  0
LINE
  8
0
  6
CONTINUOUS
 62
3
 10
33.725945836223701
 20
283.226523099428280
 11
33.225944886030476
 21
282.360593528359690
  0
LINE
  8
0
  6
CONTINUOUS
 62
3
 10
33.725944571738665
 20
270.226523122129270
 11
33.725944571738665
 21
283.226523122129270
  0
LINE
  8
0
  6
CONTINUOUS
 62
3
 10
34.225943618064349
 20
283.226523122129270
 11
33.725945525412982
 21
283.226523122129270
  0
LINE
  8
0
  6
CONTINUOUS
 62
3
 10
34.225943618064463
 20
270.226523122129270
 11
33.725944571738665
 21
270.226523122129270
  0
ARC
  8
0
  6
CONTINUOUS
 62
3
 10
44.225943618064349
 20
284.726523122129270
 40
3.000000000000000
 50
90.000000000000000
 51
180.000000000000000
  0
ARC
  8
0
  6
CONTINUOUS
 62
3
 10
38.225943618064576
 20
194.226523122129290
 40
3.000000000000000
 50
270.000000000000000
 51
0.000000000000000
  0
ARC
  8
0
  6
CONTINUOUS
 62
3
 10
32.225943618064576
 20
188.226523122129290
 40
3.000000000000000
 50
90.000000000000000
 51
180.000000000000000
  0
LINE
  8
0
  6
CONTINUOUS
 62
3
 10
29.225943618064576
 20
170.726523122129290
 11
29.225943618064576
 21
191.226523122129290
  0
LINE
  8
0
  6
CONTINUOUS
 62
3
 10
24.725943618053662
 20
191.226523122129290
 11
24.725943618055027
 21
170.726523122129290
  0
LINE
  8
0
  6
CONTINUOUS
 62
3
 10
24.725943618053662
 20
191.226523122129290
 11
29.225943618064576
 21
191.226523122129290
  0
LINE
  8
0
  6
CONTINUOUS
 62
3
 10
32.225943618064576
 20
191.226523122129290
 11
38.225943618064576
 21
191.226523122129290
  0
LINE
  8
0
  6
CONTINUOUS
 62
3
 10
41.225943618064349
 20
284.726523122129270
 11
41.225943618064576
 21
194.226523122129290
  0
LINE
  8
0
  6
CONTINUOUS
 62
3
 10
15.725943618057755
 20
254.156649460690230
 11
36.400441101576945
 21
254.878618821670670
  0
LINE
  8
0
  6
CONTINUOUS
 62
3
 10
15.725943618057755
 20
254.156649460690230
 11
15.725943618063098
 21
170.726523122129520
  0
ARC
  8
0
  6
CONTINUOUS
 62
3
 10
36.225943618064122
 20
259.875572956765380
 40
4.999999999999244
 50
272.000000000003920
 51
344.651069713990640
  0
LINE
  8
0
  6
CONTINUOUS
 62
3
 10
52.725943618064122
 20
287.726523122129490
 11
146.435346649485180
 21
290.998927584598730
  0
LINE
  8
0
  6
CONTINUOUS
 62
3
 10
52.725943618064122
 20
287.726523122129950
 11
52.725943618064122
 21
53.726523122129514
  0
LINE
  8
0
  6
CONTINUOUS
 62
3
 10
52.725943618064122
 20
53.726523122129514
 11
146.435346649485180
 21
50.454118659660274
  0
LINE
  8
0
  6
DASHDOT
 62
4
 10
-266.477786259944990
 20
170.726523122129520
 11
261.672000919514630
 21
170.726523122129520
  0
LINE
  8
0
  6
CONTINUOUS
 62
3
 10
-34.274071736080003
 20
188.726523122129520
 11
-34.274071736080003
 21
219.226523122129520
  0
ARC
  8
0
  6
CONTINUOUS
 62
3
 10
-39.274071736080003
 20
219.226523122129520
 40
5.000000000000000
 50
0.000000000000000
 51
90.000000000000000
  0
LINE
  8
0
  6
CONTINUOUS
 62
3
 10
-31.274071736080003
 20
185.726523122129520
 11
2.725943618057755
 21
185.726523122129520
  0
ARC
  8
0
  6
CONTINUOUS
 62
3
 10
-31.274071736080003
 20
188.726523122129520
 40
3.000000000000000
 50
180.000000000000000
 51
270.000000000000000
  0
ARC
  8
0
  6
CONTINUOUS
 62
3
 10
2.725943618057755
 20
188.726523122129520
 40
3.000000000000000
 50
270.000000000000000
 51
0.000000000000000
  0
LINE
  8
0
  6
DASHDOT
 62
4
 10
-15.274056381942245
 20
156.975758313979700
 11
-15.274056381942245
 21
184.751841085620780
  0
LINE
  8
0
  6
CONTINUOUS
 62
3
 10
-31.274071736080003
 20
155.726523122129520
 11
2.725943618057755
 21
155.726523122129520
  0
ARC
  8
0
  6
CONTINUOUS
 62
3
 10
-31.274071736080003
 20
152.726523122129520
 40
3.000000000000000
 50
90.000000000000000
 51
180.000000000000000
  0
CIRCLE
  8
0
  6
CONTINUOUS
 62
3
 10
-15.274056381942245
 20
170.726523122129520
 40
10.500000000000000
  0
LINE
  8
0
  6
CONTINUOUS
 62
3
 10
-34.274071736080003
 20
152.726523122129520
 11
-34.274071736080003
 21
122.226523122129520
  0
ARC
  8
0
  6
CONTINUOUS
 62
3
 10
2.725943618057755
 20
152.726523122129520
 40
3.000000000000000
 50
0.000000000000000
 51
90.000000000000000
  0
ARC
  8
0
  6
CONTINUOUS
 62
3
 10
-39.274071736080003
 20
122.226523122129520
 40
5.000000000000000
 50
270.000000000000000
 51
0.000000000000000
  0
LINE
  8
0
  6
CONTINUOUS
 62
3
 10
-50.774071736084551
 20
117.226523122129520
 11
-50.774071736084551
 21
170.726523122129520
  0
LINE
  8
0
  6
CONTINUOUS
 62
3
 10
1.725954783120216
 20
224.226523122129520
 11
-50.774071736090008
 21
224.226523122129520
  0
LINE
  8
0
  6
CONTINUOUS
 62
3
 10
1.726402523901498
 20
117.226523122129520
 11
-50.774071736090008
 21
117.226523122129520
  0
LINE
  8
0
  6
CONTINUOUS
 62
3
 10
-50.774071736079094
 20
170.726523122129630
 11
-50.774071736084551
 21
224.226523122129520
  0
LINE
  8
0
  6
CONTINUOUS
 62
3
 10
5.725943618063212
 20
194.226523122129520
 11
15.725943618061621
 21
194.226523122129520
  0
LINE
  8
0
  6
CONTINUOUS
 62
3
 10
5.725943618063212
 20
208.892523122129460
 11
15.725943618060654
 21
208.892523122129460
  0
LINE
  8
0
  6
CONTINUOUS
 62
3
 10
5.725943618063212
 20
225.540523122129600
 11
15.725943618059574
 21
225.540523122129600
  0
LINE
  8
0
  6
CONTINUOUS
 62
3
 10
5.725943618063212
 20
115.912523122129440
 11
15.725943618059574
 21
115.912523122129440
  0
LINE
  8
0
  6
CONTINUOUS
 62
3
 10
5.725943618063212
 20
132.560523122129580
 11
15.725943618060654
 21
132.560523122129580
  0
LINE
  8
0
  6
CONTINUOUS
 62
3
 10
5.725943618063212
 20
147.226523122129520
 11
15.725943618061621
 21
147.226523122129520
  0
INSERT
  8
0
  2
SYM14
 10
-473.195230545765530
 20
-249.128501913466040
  0
INSERT
  8
0
  2
SYM15
 10
-363.593679461850120
 20
-249.128501913466040
  0
INSERT
  8
0
  2
SYM16
 10
-407.894455003807930
 20
-90.327726371507993
  0
INSERT
  8
0
  2
SYM17
 10
-351.394455003807930
 20
-97.327726371507765
  0
INSERT
  8
0
  2
SYM18
 10
-312.394455003807930
 20
-173.327726371507770
  0
INSERT
  8
0
  2
SYM19
 10
-311.394455003807930
 20
-239.327726371507990
  0
INSERT
  8
0
  2
SYM20
 10
-351.394455003807930
 20
-297.327726371507990
  0
INSERT
  8
0
  2
SYM21
 10
-485.394455003807930
 20
-297.327726371507990
 41
-1.000000000000000
  0
INSERT
  8
0
  2
SYM22
 10
-525.394455003807930
 20
-239.327726371507990
 41
-1.000000000000000
  0
INSERT
  8
0
  2
SYM23
 10
-524.394455003807930
 20
-173.327726371507770
 41
-1.000000000000000
  0
INSERT
  8
0
  2
SYM24
 10
-485.394455003807930
 20
-97.327726371507765
 41
-1.000000000000000
  0
INSERT
  8
0
  2
SYM25
 10
-428.894455003807930
 20
-90.327726371507993
 41
-1.000000000000000
  0
INSERT
  8
0
  2
SYM26
 10
-499.839277210151290
 20
-210.746682982766970
 41
1.000000000000000
 42
1.000000000000000
 43
1.000000000000000
 50
357.137594773886350
  0
LINE
  8
0
  6
CONTINUOUS
 62
3
 10
-501.894455003807930
 20
-204.241775158969890
 11
-501.894455003807930
 21
-207.827726371508670
  0
LINE
  8
0
  6
CONTINUOUS
 62
3
 10
-334.894455003807710
 20
-199.121919712630500
 11
-334.894455003807710
 21
-207.827726371508670
  0
LINE
  8
0
  6
CONTINUOUS
 62
3
 10
-404.894455003807710
 20
-110.827726371508670
 11
-431.894455003807710
 21
-110.827726371508670
  0
ARC
  8
0
  6
CONTINUOUS
 62
3
 10
-392.894455003807710
 20
-223.827726371506170
 40
3.000000000000763
 50
167.756347132299030
 51
180.000000000000000
  0
ARC
  8
0
  6
CONTINUOUS
 62
3
 10
-403.894455003807710
 20
-224.301987829974560
 40
3.000000000000000
 50
0.000000000000000
 51
16.485334242759059
  0
ARC
  8
0
  6
CONTINUOUS
 62
3
 10
-432.894455003807710
 20
-224.301987829974560
 40
2.999999999999749
 50
163.514665757240950
 51
180.000000000000000
  0
ARC
  8
0
  6
CONTINUOUS
 62
3
 10
-443.894455003807710
 20
-223.827726371506400
 40
3.000000000000000
 50
0.000000000000000
 51
12.243652867704698
  0
ARC
  8
0
  6
CONTINUOUS
 62
3
 10
-478.551139278906020
 20
-147.068617862924500
 40
3.000000000000228
 50
54.618555413447936
 51
56.479995948265923
  0
ARC
  8
0
  6
CONTINUOUS
 62
3
 10
-473.195230545765530
 20
-139.526950829551310
 40
6.249999999999694
 50
234.618555413461590
 51
239.573505486895330
  0
LINE
  8
0
  6
CONTINUOUS
 62
3
 10
-440.894455003807710
 20
-223.827726371506400
 11
-440.894455003807710
 21
-270.944340362216850
  0
LINE
  8
0
  6
CONTINUOUS
 62
3
 10
-435.894455003807710
 20
-224.301987829974560
 11
-435.894455003807710
 21
-272.027726371508720
  0
LINE
  8
0
  6
CONTINUOUS
 62
3
 10
-400.894455003807710
 20
-224.301987829974560
 11
-400.894455003807710
 21
-272.027726371508720
  0
LINE
  8
0
  6
CONTINUOUS
 62
3
 10
-395.894455003807710
 20
-223.827726371506170
 11
-395.894455003807710
 21
-270.944340362216850
  0
ARC
  8
0
  6
CONTINUOUS
 62
3
 10
-403.894455003807710
 20
-272.027726371508720
 40
3.000000000000000
 50
270.000000000000000
 51
0.000000000000000
  0
ARC
  8
0
  6
CONTINUOUS
 62
3
 10
-392.894455003807710
 20
-270.944340362216850
 40
3.000000000000000
 50
180.000000000000000
 51
280.317602512868580
  0
ARC
  8
0
  6
CONTINUOUS
 62
3
 10
-432.894455003807710
 20
-272.027726371508720
 40
3.000000000000000
 50
180.000000000000000
 51
270.000000000000000
  0
ARC
  8
0
  6
CONTINUOUS
 62
3
 10
-443.894455003807710
 20
-270.944340362216850
 40
2.999999999999893
 50
259.682397487131420
 51
0.000000000000000
  0
ARC
  8
0
  6
CONTINUOUS
 62
3
 10
-404.894455003807710
 20
-180.827726371508670
 40
70.000000000000043
 50
35.853467063468088
 51
59.666372164055055
  0
ARC
  8
0
  6
CONTINUOUS
 62
3
 10
-364.080252477319850
 20
-127.693924774720580
 40
2.999999999999952
 50
52.470689430266106
 51
106.715133671082380
  0
ARC
  8
0
  6
CONTINUOUS
 62
3
 10
-368.394455003807710
 20
-113.327726371508780
 40
12.000000000000204
 50
196.481075114644030
 51
201.440250913326930
  0
ARC
  8
0
  6
CONTINUOUS
 62
3
 10
-382.778157402928630
 20
-117.583205814947170
 40
2.999999999999918
 50
16.481075114643080
 51
70.725519355451723
  0
ARC
  8
0
  6
CONTINUOUS
 62
3
 10
-391.894455003807710
 20
-115.101019470888900
 40
3.000000000000028
 50
78.811944248677634
 51
180.000000000000000
  0
LINE
  8
0
  6
CONTINUOUS
 62
3
 10
-394.894455003807710
 20
-116.517598967861090
 11
-394.894455003807710
 21
-115.101019470888900
  0
ARC
  8
0
  6
CONTINUOUS
 62
3
 10
-444.894455003807710
 20
-115.101019470888900
 40
3.000000000000000
 50
0.000000000000000
 51
101.188055751322360
  0
LINE
  8
0
  6
CONTINUOUS
 62
3
 10
-441.894455003807710
 20
-116.517598967861090
 11
-441.894455003807710
 21
-115.101019470888900
  0
ARC
  8
0
  6
CONTINUOUS
 62
3
 10
-454.010752604686790
 20
-117.583205814947170
 40
3.000000000000082
 50
109.274480644548270
 51
163.518924885356910
  0
ARC
  8
0
  6
CONTINUOUS
 62
3
 10
-468.394455003807930
 20
-113.327726371508780
 40
11.999999999999977
 50
253.284866328922110
 51
265.586570225724530
  0
ARC
  8
0
  6
CONTINUOUS
 62
3
 10
-472.708657530295800
 20
-127.693924774720580
 40
3.000000000000005
 50
73.284866328917616
 51
127.529310569726980
  0
ARC
  8
0
  6
CONTINUOUS
 62
3
 10
-431.894455003807710
 20
-180.827726371508670
 40
70.000000000000000
 50
90.000000000000000
 51
118.266240031649040
  0
ARC
  8
0
  6
CONTINUOUS
 62
3
 10
-431.894455003807710
 20
-207.827726371508670
 40
70.000000000000227
 50
180.000000000000000
 51
180.116959156176790
  0
ARC
  8
0
  6
CONTINUOUS
 62
3
 10
-470.394455003807930
 20
-277.327726371508670
 40
12.000000000000282
 50
30.268861166778397
 51
91.762018045748349
  0
ARC
  8
0
  6
CONTINUOUS
 62
3
 10
-470.855677541403790
 20
-262.334818922624320
 40
3.000000000000193
 50
234.443126549156720
 51
271.762018045752540
  0
ARC
  8
0
  6
CONTINUOUS
 62
3
 10
-457.439410684032740
 20
-269.766851642175310
 40
3.000000000000099
 50
210.268861166779320
 51
247.587752663367470
  0
LINE
  8
0
  6
CONTINUOUS
 62
3
 10
-404.894455003807710
 20
-277.827726371508670
 11
-431.894455003807710
 21
-277.827726371508670
  0
ARC
  8
0
  6
CONTINUOUS
 62
3
 10
-366.394455003807710
 20
-277.327726371508670
 40
12.000000000000021
 50
88.237981954247360
 51
149.731138833220510
  0
ARC
  8
0
  6
CONTINUOUS
 62
3
 10
-379.349499323582220
 20
-269.766851642175310
 40
2.999999999999907
 50
292.412247336624550
 51
329.731138833218490
  0
ARC
  8
0
  6
CONTINUOUS
 62
3
 10
-337.894455003807710
 20
-201.847710397057770
 40
3.000000000000000
 50
0.000000000000000
 51
48.904592888801552
  0
ARC
  8
0
  6
CONTINUOUS
 62
3
 10
-404.894455003807710
 20
-207.827726371508670
 40
70.000000000000000
 50
270.000000000000000
 51
0.000000000000000
  0
LINE
  8
0
  6
CONTINUOUS
 62
3
 10
-334.894455003807710
 20
-201.847710397057770
 11
-334.894455003807710
 21
-207.827726371508670
  0
ARC
  8
0
  6
CONTINUOUS
 62
3
 10
-365.933232466211390
 20
-262.334818922624320
 40
2.999999999999935
 50
268.237981954255990
 51
305.556873450843280
  0
ARC
  8
0
  6
CONTINUOUS
 62
3
 10
-418.394455003807710
 20
-194.327726371508670
 40
29.999999999999975
 50
259.111672490974460
 51
280.888327509025540
  0
ARC
  8
0
  6
CONTINUOUS
 62
3
 10
-363.593679461850120
 20
-249.128501913466270
 40
6.249999999999958
 50
54.618555413458211
 51
215.381444586544720
  0
ARC
  8
0
  6
CONTINUOUS
 62
3
 10
-371.135346495223530
 20
-254.484410646606990
 40
3.000000000000133
 50
308.153187915560180
 51
35.381444586539963
  0
ARC
  8
0
  6
CONTINUOUS
 62
3
 10
-358.237770728709620
 20
-241.586834880093080
 40
2.999999999999964
 50
234.618555413455030
 51
321.846812084445900
  0
ARC
  8
0
  6
CONTINUOUS
 62
3
 10
-478.551139278906020
 20
-241.586834880093080
 40
2.999999999999813
 50
218.153187915559470
 51
305.381444586552050
  0
ARC
  8
0
  6
CONTINUOUS
 62
3
 10
-473.195230545765530
 20
-249.128501913466270
 40
6.250000000000274
 50
324.618555413457670
 51
125.381444586538400
  0
ARC
  8
0
  6
CONTINUOUS
 62
3
 10
-465.653563512392110
 20
-254.484410646606990
 40
2.999999999999964
 50
144.618555413455000
 51
231.846812084446610
  0
LINE
  8
0
  6
CONTINUOUS
 62
3
 10
-478.185047511657330
 20
-136.634321558229320
 11
-474.708814138067280
 21
-134.627321877956210
  0
LINE
  8
0
  6
CONTINUOUS
 62
3
 10
-478.184360103907580
 20
-137.026501026602380
 11
-478.185051825036000
 21
-136.634320867992190
  0
LINE
  8
0
  6
CONTINUOUS
 62
3
 10
-476.241300926738060
 20
-143.522851028544840
 11
-476.908801979771400
 21
-143.135896431692340
  0
LINE
  8
0
  6
CONTINUOUS
 62
3
 10
-358.614031027246710
 20
-136.651956135901290
 11
-358.608429654196810
 21
-139.827726371506510
  0
LINE
  8
0
  6
CONTINUOUS
 62
3
 10
-362.072903291751230
 20
-134.646827895974750
 11
-358.614034028168130
 21
-136.651956360376740
  0
ARC
  8
0
  6
CONTINUOUS
 62
3
 10
-363.593679461850120
 20
-139.526950829551310
 40
4.999999999999980
 50
356.551284094674600
 51
71.710142504453358
  0
ARC
  8
0
  6
CONTINUOUS
 62
3
 10
-473.195230545765530
 20
-139.526950829551310
 40
4.999999999999998
 50
108.289857495549320
 51
160.034302033855710
  0
LINE
  8
0
  6
CONTINUOUS
 62
3
 10
-421.644455003807930
 20
-42.327726371508000
 11
-421.644455003807930
 21
-40.327760945760367
  0
LINE
  8
0
  6
CONTINUOUS
 62
3
 10
-415.144455003807930
 20
-42.327726371508000
 11
-415.144455003807930
 21
-40.327760945760367
  0
LINE
  8
0
  6
CONTINUOUS
 62
3
 10
-497.092793189540540
 20
-88.225582263487922
 11
-519.989249737773890
 21
-65.329125715254577
  0
LINE
  8
0
  6
CONTINUOUS
 62
3
 10
-490.039957648601330
 20
-86.086029649001944
 11
-515.393055660061460
 21
-60.732931637541817
  0
LINE
  8
0
  6
CONTINUOUS
 62
3
 10
-548.394455003807930
 20
-302.327726371507880
 11
-494.054709041652360
 21
-302.327726371507880
  0
LINE
  8
0
  6
CONTINUOUS
 62
3
 10
-558.394455003807930
 20
-292.327726371507880
 11
-558.394455003807930
 21
-32.327726371508000
  0
LINE
  8
0
  6
CONTINUOUS
 62
3
 10
-342.734200965963510
 20
-302.327726371507880
 11
-288.394455003807930
 21
-302.327726371507880
  0
LINE
  8
0
  6
CONTINUOUS
 62
3
 10
-278.394455003807930
 20
-292.327726371507880
 11
-278.394455003807930
 21
-32.327726371508000
  0
LINE
  8
0
  6
CONTINUOUS
 62
3
 10
-548.394455003807930
 20
-22.327726371508000
 11
-288.394455003807930
 21
-22.327726371508000
  0
LINE
  8
0
  6
CONTINUOUS
 62
3
 10
-346.748952359014540
 20
-86.086029649001944
 11
-321.395854347554400
 21
-60.732931637541817
  0
LINE
  8
0
  6
CONTINUOUS
 62
3
 10
-339.696116818075320
 20
-88.225582263487922
 11
-316.799660269841980
 21
-65.329125715254577
  0
ARC
  8
0
  6
CONTINUOUS
 62
3
 10
-424.644455003807930
 20
-40.327760945760367
 40
3.000000000000000
 50
0.000000000000000
 51
90.000000000000000
  0
ARC
  8
0
  6
CONTINUOUS
 62
3
 10
-548.394455003807930
 20
-292.327726371507880
 40
10.000000000000000
 50
180.000000000000000
 51
270.000000000000000
  0
CIRCLE
  8
0
  6
CONTINUOUS
 62
3
 10
-538.602607805511300
 20
-282.535879173230800
 40
9.500000000000000
  0
ARC
  8
0
  6
CONTINUOUS
 62
3
 10
-288.394455003807930
 20
-292.327726371507880
 40
10.000000000000000
 50
270.000000000000000
 51
0.000000000000000
  0
CIRCLE
  8
0
  6
CONTINUOUS
 62
3
 10
-298.186302202085020
 20
-282.535879173211700
 40
9.500000000000000
  0
ARC
  8
0
  6
CONTINUOUS
 62
3
 10
-548.394455003807930
 20
-32.327726371508000
 40
10.000000000000000
 50
90.000000000000000
 51
180.000000000000000
  0
CIRCLE
  8
0
  6
CONTINUOUS
 62
3
 10
-538.602607805530400
 20
-42.119573569804636
 40
9.500000000000000
  0
ARC
  8
0
  6
CONTINUOUS
 62
3
 10
-487.918637305041780
 20
-83.964709305442398
 40
2.999999999999864
 50
225.000000000000000
 51
295.240018135852320
  0
ARC
  8
0
  6
CONTINUOUS
 62
3
 10
-288.394455003807930
 20
-32.327726371508000
 40
10.000000000000000
 50
0.000000000000000
 51
90.000000000000000
  0
CIRCLE
  8
0
  6
CONTINUOUS
 62
3
 10
-298.186302202104120
 20
-42.119573569785537
 40
9.500000000000000
  0
ARC
  8
0
  6
CONTINUOUS
 62
3
 10
-513.271735316501460
 20
-58.611611293982158
 40
3.000000000000009
 50
132.451607436421090
 51
224.999999999995400
  0
ARC
  8
0
  6
CONTINUOUS
 62
3
 10
-522.110570081333440
 20
-67.450446058814123
 40
2.999999999999864
 50
45.000000000000000
 51
137.548392563578910
  0
ARC
  8
0
  6
CONTINUOUS
 62
3
 10
-323.517174691114410
 20
-58.611611293982158
 40
3.000000000000265
 50
315.000000000004600
 51
47.548392563578922
  0
ARC
  8
0
  6
CONTINUOUS
 62
3
 10
-348.870272702574080
 20
-83.964709305442398
 40
3.000000000000066
 50
244.759981864147700
 51
315.000000000000000
  0
ARC
  8
0
  6
CONTINUOUS
 62
3
 10
-314.678339926282430
 20
-67.450446058814123
 40
2.999999999999933
 50
42.451607436419486
 51
135.000000000000000
  0
ARC
  8
0
  6
CONTINUOUS
 62
3
 10
-499.214113533100090
 20
-90.346902607047696
 40
2.999999999999895
 50
303.694795008801920
 51
45.000000000003077
  0
ARC
  8
0
  6
CONTINUOUS
 62
3
 10
-337.574796474515780
 20
-90.346902607047696
 40
3.000000000000024
 50
134.999999999996930
 51
236.305204991199280
  0
ARC
  8
0
  6
CONTINUOUS
 62
3
 10
-412.144455003807930
 20
-40.327760945760367
 40
3.000000000000000
 50
90.000000000000000
 51
180.000000000000000
  0
LINE
  8
0
  6
CONTINUOUS
 62
3
 10
-421.644455003807930
 20
-71.784866531196826
 11
-421.644455003807930
 21
-52.870586211819166
  0
LINE
  8
0
  6
CONTINUOUS
 62
3
 10
-415.144455003807930
 20
-71.784866531196826
 11
-415.144455003807930
 21
-52.870586211819166
  0
LINE
  8
0
  6
CONTINUOUS
 62
3
 10
-535.394455003807930
 20
-239.923779629320620
 11
-535.394455003807930
 21
-163.563300641117280
  0
ARC
  8
0
  6
CONTINUOUS
 62
3
 10
-533.394455003807930
 20
-162.327726371507770
 40
2.000000000000000
 50
90.000000000000000
 51
180.000000000000000
  0
ARC
  8
0
  6
CONTINUOUS
 62
3
 10
-529.394455003807930
 20
-239.923779629320620
 40
6.000000000000000
 50
180.000000000000000
 51
202.331645009221920
  0
LINE
  8
0
  6
CONTINUOUS
 62
3
 10
-520.394455003807930
 20
-160.327726371507770
 11
-533.394455003807930
 21
-160.327726371507770
  0
LINE
  8
0
  6
CONTINUOUS
 62
3
 10
-520.394455003807930
 20
-134.327726371507770
 11
-527.292692305112040
 21
-134.327726371507770
  0
LINE
  8
0
  6
CONTINUOUS
 62
3
 10
-316.394455003807930
 20
-160.327726371507770
 11
-304.394455003807930
 21
-160.327726371507770
  0
LINE
  8
0
  6
CONTINUOUS
 62
3
 10
-316.394455003807930
 20
-134.327726371507770
 11
-310.996393016058620
 21
-134.327726371507770
  0
LINE
  8
0
  6
CONTINUOUS
 62
3
 10
-418.394455003807930
 20
-304.327729858824450
 11
-358.535880014095480
 21
-304.327729858824450
  0
LINE
  8
0
  6
CONTINUOUS
 62
3
 10
-418.394455003807930
 20
-304.327729858824450
 11
-478.253029993520840
 21
-304.327729858824450
  0
LINE
  8
0
  6
CONTINUOUS
 62
3
 10
-301.394455003807930
 20
-239.923779629320620
 11
-301.394455003807930
 21
-162.327726371507770
  0
LINE
  8
0
  6
CONTINUOUS
 62
3
 10
-357.394450354049920
 20
-305.327729858824450
 11
-345.394459653565950
 21
-305.327729858824450
  0
LINE
  8
0
  6
CONTINUOUS
 62
3
 10
-479.394459653565950
 20
-305.327729858824450
 11
-491.394450354049920
 21
-305.327729858824450
  0
LINE
  8
0
  6
CONTINUOUS
 62
3
 10
-418.394455003807930
 20
-102.327726371507990
 11
-400.894455003807930
 21
-102.327726371507990
  0
LINE
  8
0
  6
CONTINUOUS
 62
3
 10
-418.394455003807930
 20
-102.327726371507990
 11
-435.894455003807930
 21
-102.327726371507990
  0
LINE
  8
0
  6
CONTINUOUS
 62
3
 10
-421.644455003807930
 20
-107.827727168608700
 11
-421.644455003807930
 21
-105.327726371507990
  0
LINE
  8
0
  6
CONTINUOUS
 62
3
 10
-415.144455003807930
 20
-107.827727168608700
 11
-415.144455003807930
 21
-105.327726371507990
  0
LINE
  8
0
  6
CONTINUOUS
 62
3
 10
-351.167098296937870
 20
-131.696564539451290
 11
-326.856149536922890
 21
-107.385615779436760
  0
LINE
  8
0
  6
CONTINUOUS
 62
3
 10
-355.763292374650290
 20
-127.100370461738630
 11
-331.546798594240730
 21
-102.883876681329520
  0
LINE
  8
0
  6
CONTINUOUS
 62
3
 10
-481.025617632965580
 20
-127.100370461738630
 11
-493.434517823035890
 21
-114.691470271668260
  0
LINE
  8
0
  6
CONTINUOUS
 62
3
 10
-491.851101687711890
 20
-125.467274562417450
 11
-493.872250592341970
 21
-123.446125657787430
  0
LINE
  8
0
  6
CONTINUOUS
 62
3
 10
-485.621811710678000
 20
-256.958889797766350
 11
-507.554331612277340
 21
-278.891409699365230
  0
LINE
  8
0
  6
CONTINUOUS
 62
3
 10
-481.025617632965580
 20
-261.555083875478770
 11
-502.958137534564460
 21
-283.487603777077650
  0
LINE
  8
0
  6
CONTINUOUS
 62
3
 10
-347.357801174351380
 20
-260.768186920352600
 11
-329.234578395338530
 21
-278.891409699365000
  0
LINE
  8
0
  6
CONTINUOUS
 62
3
 10
-351.258247761411670
 20
-266.060128488717170
 11
-333.830772473051410
 21
-283.487603777077650
  0
ARC
  8
0
  6
CONTINUOUS
 62
3
 10
-520.394455003807930
 20
-147.327726371507770
 40
13.000000000000000
 50
270.000000000000000
 51
288.973483096825870
  0
ARC
  8
0
  6
CONTINUOUS
 62
3
 10
-527.292692305112040
 20
-132.327726371507770
 40
2.000000000000116
 50
157.893323870137750
 51
270.000000000000000
  0
ARC
  8
0
  6
CONTINUOUS
 62
3
 10
-316.394455003807930
 20
-147.327726371507770
 40
13.000000000000000
 50
90.000000000000000
 51
270.000000000000000
  0
ARC
  8
0
  6
CONTINUOUS
 62
3
 10
-418.394455003807930
 20
-194.327727168608700
 40
125.999999999999870
 50
309.364679251356730
 51
337.668354990778480
  0
ARC
  8
0
  6
CONTINUOUS
 62
3
 10
-307.394455003807930
 20
-239.923779629320620
 40
6.000000000000214
 50
337.668354990778080
 51
0.000000000000000
  0
ARC
  8
0
  6
CONTINUOUS
 62
3
 10
-418.394455003807930
 20
-194.327727168608700
 40
126.000000000000180
 50
202.331645009221490
 51
230.635320748643100
  0
ARC
  8
0
  6
CONTINUOUS
 62
3
 10
-386.394455003807930
 20
-163.563300641117280
 40
85.000000000000000
 50
0.000000000000000
 51
85.577622414021803
  0
ARC
  8
0
  6
CONTINUOUS
 62
3
 10
-333.404414891156880
 20
-297.926438944624460
 40
8.000000000000215
 50
129.364679251358580
 51
178.093887109017460
  0
ARC
  8
0
  6
CONTINUOUS
 62
3
 10
-485.394455003807930
 20
-297.327726371507990
 40
10.000000000000053
 50
306.869864344412290
 51
315.572968020398260
  0
ARC
  8
0
  6
CONTINUOUS
 62
3
 10
-503.384495116458990
 20
-297.926438944624460
 40
7.999999999999923
 50
1.906112890982627
 51
50.635320748643942
  0
ARC
  8
0
  6
CONTINUOUS
 62
3
 10
-485.394455003807930
 20
-297.327726371507990
 40
10.000000000000130
 50
181.906112890982260
 51
233.130135655587680
  0
ARC
  8
0
  6
CONTINUOUS
 62
3
 10
-351.394455003807930
 20
-297.327726371507990
 40
10.000000000000158
 50
224.427031979599950
 51
233.130135655587680
  0
ARC
  8
0
  6
CONTINUOUS
 62
3
 10
-351.394455003807930
 20
-297.327726371507990
 40
10.000000000000053
 50
306.869864344412290
 51
358.093887109017660
  0
ARC
  8
0
  6
CONTINUOUS
 62
3
 10
-400.894455003807930
 20
-99.327726371507993
 40
3.000000000000000
 50
270.000000000000000
 51
0.000000000000000
  0
ARC
  8
0
  6
CONTINUOUS
 62
3
 10
-435.894455003807930
 20
-99.327726371507993
 40
3.000000000000000
 50
180.000000000000000
 51
270.000000000000000
  0
ARC
  8
0
  6
CONTINUOUS
 62
3
 10
-380.118376281172690
 20
-237.100326952326330
 40
37.999999999999936
 50
264.588104602568250
 51
355.900478402576140
  0
ARC
  8
0
  6
CONTINUOUS
 62
3
 10
-337.228396946401740
 20
-240.174358940274150
 40
4.999999999999917
 50
154.450645436618710
 51
175.900478402575570
  0
ARC
  8
0
  6
CONTINUOUS
 62
3
 10
-384.173921442088390
 20
-279.908650365510650
 40
5.000000000000205
 50
84.588104602569331
 51
106.037937568522150
  0
ARC
  8
0
  6
CONTINUOUS
 62
3
 10
-412.144455003807930
 20
-107.827727168608700
 40
3.000000000000000
 50
180.000000000000000
 51
270.000000000000000
  0
ARC
  8
0
  6
CONTINUOUS
 62
3
 10
-412.144455003807930
 20
-105.327726371507990
 40
3.000000000000000
 50
90.000000000000000
 51
180.000000000000000
  0
ARC
  8
0
  6
CONTINUOUS
 62
3
 10
-424.644455003807930
 20
-105.327726371507990
 40
3.000000000000000
 50
0.000000000000000
 51
90.000000000000000
  0
ARC
  8
0
  6
CONTINUOUS
 62
3
 10
-424.644455003807930
 20
-107.827727168608700
 40
3.000000000000000
 50
270.000000000000000
 51
0.000000000000000
  0
ARC
  8
0
  6
CONTINUOUS
 62
3
 10
-349.045777953378320
 20
-133.817884883010830
 40
2.999999999999864
 50
135.000000000000000
 51
220.088526589902530
  0
ARC
  8
0
  6
CONTINUOUS
 62
3
 10
-324.734829193363340
 20
-109.506936122996300
 40
3.000000000000097
 50
41.240714208219508
 51
135.000000000000000
  0
ARC
  8
0
  6
CONTINUOUS
 62
3
 10
-357.884612718209840
 20
-124.979050118179080
 40
3.000000000000124
 50
229.911473410096960
 51
315.000000000000000
  0
ARC
  8
0
  6
CONTINUOUS
 62
3
 10
-333.668118937800270
 20
-100.762556337769750
 40
3.000000000000024
 50
314.999999999996870
 51
49.983805954135455
  0
ARC
  8
0
  6
CONTINUOUS
 62
3
 10
-503.120791069815600
 20
-100.762556337769750
 40
2.999999999999794
 50
130.016194045864520
 51
225.000000000003070
  0
ARC
  8
0
  6
CONTINUOUS
 62
3
 10
-478.904297289406030
 20
-124.979050118179080
 40
2.999999999999864
 50
225.000000000000000
 51
310.088526589903040
  0
ARC
  8
0
  6
CONTINUOUS
 62
3
 10
-512.054080814252530
 20
-109.506936122996300
 40
2.999999999999864
 50
45.000000000000000
 51
138.759285791780480
  0
ARC
  8
0
  6
CONTINUOUS
 62
3
 10
-310.996393016058620
 20
-131.327726371507770
 40
3.000000000000000
 50
270.000000000000000
 51
23.148572820069919
  0
ARC
  8
0
  6
CONTINUOUS
 62
3
 10
-304.394455003807930
 20
-163.327726371507770
 40
3.000000000000000
 50
0.000000000000000
 51
90.000000000000000
  0
ARC
  8
0
  6
CONTINUOUS
 62
3
 10
-487.743132054237550
 20
-254.837569454206570
 40
3.000000000000024
 50
314.999999999996870
 51
40.088526589902528
  0
ARC
  8
0
  6
CONTINUOUS
 62
3
 10
-478.904297289406030
 20
-263.676404219038320
 40
3.000000000000124
 50
49.911473410096967
 51
135.000000000000000
  0
ARC
  8
0
  6
CONTINUOUS
 62
3
 10
-509.675651955836880
 20
-276.770089355805450
 40
3.000000000000218
 50
222.087374790476100
 51
314.999999999996870
  0
ARC
  8
0
  6
CONTINUOUS
 62
3
 10
-500.836817191004910
 20
-285.608924120637430
 40
3.000000000000024
 50
134.999999999996930
 51
227.912625209521000
  0
ARC
  8
0
  6
CONTINUOUS
 62
3
 10
-335.952092816610960
 20
-285.608924120637200
 40
3.000000000000218
 50
312.087374790476080
 51
45.000000000000000
  0
ARC
  8
0
  6
CONTINUOUS
 62
3
 10
-327.113258051778980
 20
-276.770089355805450
 40
2.999999999999864
 50
225.000000000000000
 51
317.912625209518070
  0
ARC
  8
0
  6
CONTINUOUS
 62
3
 10
-353.379568104971670
 20
-268.181448832276710
 40
3.000000000000185
 50
44.999999999993868
 51
130.705112768216340
  0
ARC
  8
0
  6
CONTINUOUS
 62
3
 10
-345.236480830791830
 20
-258.646866576792830
 40
2.999999999999677
 50
148.296383256597580
 51
225.000000000003070
  0
ARC
  8
0
  6
CONTINUOUS
 62
3
 10
-450.394455003807930
 20
-163.563300641117280
 40
84.999999999999972
 50
94.422377585978197
 51
180.000000000000000
  0
LINE
  8
0
  6
CONTINUOUS
 62
3
 10
-397.894455003807930
 20
-77.748153130167452
 11
-397.894455003807930
 21
-99.327726371507993
  0
LINE
  8
0
  6
CONTINUOUS
 62
3
 10
-438.894455003807930
 20
-77.748153130167452
 11
-438.894455003807930
 21
-99.327726371507993
  0
ARC
  8
0
  6
CONTINUOUS
 62
3
 10
-418.394455003807930
 20
-577.327726371507990
 40
499.999999999999940
 50
92.349785605460426
 51
94.422377585978055
  0
ARC
  8
0
  6
CONTINUOUS
 62
3
 10
-418.394455003807930
 20
-577.327726371507990
 40
499.999999999999940
 50
85.577622414021945
 51
87.650214394539574
  0
ARC
  8
0
  6
CONTINUOUS
 62
3
 10
-407.894455003807930
 20
-52.327726371508000
 40
10.000000000000000
 50
0.000000000000000
 51
90.000000000000000
  0
LINE
  8
0
  6
CONTINUOUS
 62
3
 10
-397.894455003807930
 20
-52.327726371508000
 11
-397.894455003807930
 21
-77.748153130167225
  0
LINE
  8
0
  6
CONTINUOUS
 62
3
 10
-407.894455003807930
 20
-42.327726371508000
 11
-428.894455003807930
 21
-42.327726371508000
  0
ARC
  8
0
  6
CONTINUOUS
 62
3
 10
-428.894455003807930
 20
-52.327726371508000
 40
10.000000000000000
 50
90.000000000000000
 51
180.000000000000000
  0
LINE
  8
0
  6
DASHDOT
 62
4
 10
-395.226542004926390
 20
-62.327726371508000
 11
-442.249055906461080
 21
-62.327726371508000
  0
CIRCLE
  8
0
  6
CONTINUOUS
 62
3
 10
-418.394455003807930
 20
-62.327726371508000
 40
10.000000000000000
  0
LINE
  8
0
  6
CONTINUOUS
 62
3
 10
-438.894455003807930
 20
-52.327726371508000
 11
-438.894455003807930
 21
-77.748153130167225
  0
ARC
  8
0
  6
CONTINUOUS
 62
3
 10
-404.894455003807710
 20
-180.827726371508670
 40
69.999999999999986
 50
61.733759968350427
 51
90.000000000000000
  0
ARC
  8
0
  6
CONTINUOUS
 62
3
 10
-368.394455003807710
 20
-113.327726371508780
 40
11.999999999999977
 50
274.413429774274390
 51
286.715133671077920
  0
ARC
  8
0
  6
CONTINUOUS
 62
3
 10
-431.894455003807710
 20
-180.827726371508670
 40
70.000000000000028
 50
120.333627835946110
 51
135.181622685887930
  0
ARC
  8
0
  6
CONTINUOUS
 62
3
 10
-468.394455003807930
 20
-113.327726371508780
 40
12.000000000000043
 50
338.559749086673040
 51
343.518924885356280
  0
ARC
  8
0
  6
CONTINUOUS
 62
3
 10
-473.195230545765530
 20
-139.526950829551310
 40
5.000000000000003
 50
221.817788613224310
 51
232.504024278707390
  0
LINE
  8
0
  6
CONTINUOUS
 62
3
 10
-494.219490068167030
 20
-113.906498026537460
 11
-505.242111413375140
 21
-102.883876681329520
  0
LINE
  8
0
  6
CONTINUOUS
 62
3
 10
-497.848362366878060
 20
-119.470013883251450
 11
-509.932760470692980
 21
-107.385615779436760
  0
ARC
  8
0
  6
CONTINUOUS
 62
3
 10
-520.394455003807930
 20
-147.327726371507770
 40
13.000000000000011
 50
55.527136891666437
 51
90.000000000000000
  0
ARC
  8
0
  6
CONTINUOUS
 62
3
 10
-431.894455003807710
 20
-207.827726371508670
 40
70.000000000000014
 50
185.192316552097110
 51
270.000000000000000
  0
ARC
  8
0
  6
CONTINUOUS
 62
3
 10
-497.694455003807890
 20
-183.870226371506530
 40
20.799999999999986
 50
174.275189547776620
 51
205.640070215894870
  0
POINT
  8
0
  6
DASHDOT
 62
4
 10
-476.894455003807930
 20
-169.841456864632510
  0
ARC
  8
0
  6
CONTINUOUS
 62
3
 10
-497.694455003807890
 20
-183.870226371506530
 40
20.799999999999926
 50
205.640070215894870
 51
260.083463391769440
  0
POINT
  8
0
  6
DASHDOT
 62
4
 10
-476.894455003807930
 20
-169.841456864632510
  0
ARC
  8
0
  6
CONTINUOUS
 62
3
 10
-497.694455003807890
 20
-183.870226371506530
 40
20.799999999999986
 50
174.275189547776620
 51
205.640070215894870
  0
ARC
  8
0
  6
CONTINUOUS
 62
3
 10
-495.694455003807890
 20
-143.870226371506530
 40
18.799999999999955
 50
0.000000000000000
 51
79.401214733933941
  0
ARC
  8
0
  6
CONTINUOUS
 62
3
 10
-491.868700369720950
 20
-123.425089994368810
 40
1.999999999999927
 50
177.137594773887290
 51
259.401214733934010
  0
ARC
  8
0
  6
CONTINUOUS
 62
3
 10
-497.461713467436770
 20
-123.145439339483000
 40
1.999999999999928
 50
274.873974813840960
 51
357.137594773887320
  0
ARC
  8
0
  6
CONTINUOUS
 62
3
 10
-496.027907737424360
 20
-206.609237348435840
 40
1.999999999999962
 50
94.191726156001650
 51
177.137594773887290
  0
LINE
  8
0
  6
CONTINUOUS
 62
3
 10
-494.196326495491120
 20
-113.907656205171290
 11
-499.289963423768090
 21
-215.780394770711380
  0
ARC
  8
0
  6
CONTINUOUS
 62
3
 10
-501.620920835140170
 20
-206.329586693550030
 40
2.000000000000154
 50
357.137594773887600
 51
80.083463391767268
  0
LINE
  8
0
  6
CONTINUOUS
 62
3
 10
-518.390714355428830
 20
-181.795413403925520
 11
-514.400689417772810
 21
-141.994914650808250
  0
ARC
  8
0
  6
CONTINUOUS
 62
3
 10
-497.694455003807890
 20
-183.870226371506530
 40
20.800000000000082
 50
274.191726156007460
 51
354.952683218992150
  0
ARC
  8
0
  6
CONTINUOUS
 62
3
 10
-495.694455003807890
 20
-143.870226371506530
 40
18.800000000000036
 50
94.873974813842736
 51
144.191373186504250
  0
ARC
  8
0
  6
CONTINUOUS
 62
3
 10
-495.694455003807890
 20
-143.870226371506530
 40
18.799999999999933
 50
144.191373186504250
 51
174.275189547776390
  0
LINE
  8
0
  6
CONTINUOUS
 62
3
 10
-494.995328366593410
 20
-113.867706111616140
 11
-493.397324624388830
 21
-113.947606298726320
  0
LINE
  8
0
  6
CONTINUOUS
 62
3
 10
-476.894455003807930
 20
-152.497117611286970
 11
-476.894455003807930
 21
-143.870226371506530
  0
ARC
  8
0
  6
CONTINUOUS
 62
3
 10
-488.853001863487860
 20
-119.181068535396430
 40
9.000000000000060
 50
160.536063666407810
 51
193.739143184213500
  0
POINT
  8
0
  6
CONTINUOUS
 62
3
 10
-495.245016451312270
 20
-118.861467806005180
  0
LINE
  8
0
  6
CONTINUOUS
 62
3
 10
-495.070234792008700
 20
-115.365834619932790
 11
-495.419798110615830
 21
-122.357100992077670
  0
LINE
  8
0
  6
CONTINUOUS
 62
3
 10
-495.070234792008700
 20
-115.365834619932790
 11
-495.419798110615830
 21
-122.357100992077670
  0
LINE
  8
0
  6
CONTINUOUS
 62
3
 10
-495.419798110615830
 20
-122.357100992077670
 11
-496.397601923123600
 21
-122.308210801452330
  0
LINE
  8
0
  6
CONTINUOUS
 62
3
 10
-495.070234792008700
 20
-115.365834619932790
 11
-496.048038604516250
 21
-115.316944429307450
  0
ARC
  8
0
  6
CONTINUOUS
 62
3
 10
-496.332683059195920
 20
-121.009833522898700
 40
1.299999237060493
 50
193.739143184211430
 51
267.137612759980240
  0
ARC
  8
0
  6
CONTINUOUS
 62
3
 10
-496.112957468443940
 20
-116.615321707860970
 40
1.299999237060474
 50
87.137594090651831
 51
160.536063666412870
  0
LINE
  8
0
  6
CONTINUOUS
 62
3
 10
-494.995328366593410
 20
-113.867706111616140
 11
-500.088965294870380
 21
-215.740444677156120
  0
LINE
  8
0
  6
CONTINUOUS
 62
3
 10
-498.490961552665790
 20
-215.820344864267100
 11
-500.088965294870380
 21
-215.740444677156120
  0
LINE
  8
0
  6
CONTINUOUS
 62
3
 10
-493.397324624388830
 20
-113.947606298726320
 11
-498.490961552665790
 21
-215.820344864267100
  0
LINE
  8
0
  6
CONTINUOUS
 62
3
 10
-330.894455003807930
 20
-172.327726371506510
 11
-330.894455003807930
 21
-167.327726371506510
  0
LINE
  8
0
  6
CONTINUOUS
 62
3
 10
-331.404871851325650
 20
-172.327726371506510
 11
-330.894455003807930
 21
-172.327726371506510
  0
LINE
  8
0
  6
CONTINUOUS
 62
3
 10
-331.404871851325650
 20
-167.327726371506510
 11
-330.894455003807930
 21
-167.327726371506510
  0
ARC
  8
0
  6
CONTINUOUS
 62
3
 10
-631.394455003807930
 20
-169.827726371506510
 40
300.000000000000170
 50
355.138594604201960
 51
4.861405395798036
  0
LINE
  8
0
  6
CONTINUOUS
 62
3
 10
-360.894455003807930
 20
-139.827726371506510
 11
-337.455685869826310
 21
-139.827726371506510
  0
LINE
  8
0
  6
CONTINUOUS
 62
3
 10
-360.894455003807930
 20
-199.827726371506510
 11
-337.455685869826310
 21
-199.827726371506510
  0
ARC
  8
0
  6
CONTINUOUS
 62
3
 10
-337.455685869826310
 20
-144.827726371506510
 40
4.999999999999893
 50
4.861405395798621
 51
90.000000000000000
  0
ARC
  8
0
  6
CONTINUOUS
 62
3
 10
-337.455685869826310
 20
-194.827726371506510
 40
5.000000000000000
 50
270.000000000000000
 51
355.138594604201330
  0
ARC
  8
0
  6
CONTINUOUS
 62
4
 10
-176.794455003807830
 20
-169.827726371506510
 40
290.796999999999910
 50
174.998349729065040
 51
180.000000000000000
  0
LINE
  8
0
  6
CONTINUOUS
 62
4
 10
-460.472045319663950
 20
-131.582228985257870
 11
-457.131740286386280
 21
-128.241923951979970
  0
ARC
  8
0
  6
CONTINUOUS
 62
4
 10
-445.766345591327310
 20
-146.287928713594510
 40
20.797000000000015
 50
135.000000000000000
 51
174.998349729064670
  0
ARC
  8
0
  6
CONTINUOUS
 62
4
 10
-418.394455003807930
 20
-516.427726371506650
 40
390.797000000000030
 50
90.000000000000000
 51
95.417963762360529
  0
ARC
  8
0
  6
CONTINUOUS
 62
4
 10
-455.010419942826270
 20
-130.363244295539740
 40
3.000000000000067
 50
95.417963762365673
 51
135.000000000003040
  0
ARC
  8
0
  6
CONTINUOUS
 62
4
 10
-176.794455003807830
 20
-169.827726371506510
 40
290.797000000000250
 50
180.000000000000000
 51
185.001650270934930
  0
LINE
  8
0
  6
CONTINUOUS
 62
4
 10
-460.472045319663950
 20
-208.073223757755160
 11
-457.131740286386280
 21
-211.413528791033060
  0
ARC
  8
0
  6
CONTINUOUS
 62
4
 10
-445.766345591327310
 20
-193.367524029418520
 40
20.796999999999880
 50
185.001650270935330
 51
225.000000000000000
  0
ARC
  8
0
  6
CONTINUOUS
 62
4
 10
-418.394455003807930
 20
176.772273628493620
 40
390.797000000000030
 50
264.582036237639500
 51
270.000000000000000
  0
ARC
  8
0
  6
CONTINUOUS
 62
4
 10
-455.010419942826270
 20
-209.292208447473290
 40
3.000000000000346
 50
224.999999999996960
 51
264.582036237634270
  0
ARC
  8
0
  6
CONTINUOUS
 62
4
 10
-659.994455003808300
 20
-169.827726371506510
 40
290.797000000000140
 50
354.998349729065010
 51
0.000000000000000
  0
LINE
  8
0
  6
CONTINUOUS
 62
4
 10
-376.316864687951920
 20
-208.073223757755160
 11
-379.657169721229590
 21
-211.413528791033060
  0
ARC
  8
0
  6
CONTINUOUS
 62
4
 10
-391.022564416288560
 20
-193.367524029418520
 40
20.797000000000015
 50
315.000000000000000
 51
354.998349729064670
  0
ARC
  8
0
  6
CONTINUOUS
 62
4
 10
-418.394455003807930
 20
176.772273628493620
 40
390.797000000000030
 50
270.000000000000000
 51
275.417963762360500
  0
ARC
  8
0
  6
CONTINUOUS
 62
4
 10
-381.778490064789590
 20
-209.292208447473290
 40
3.000000000000067
 50
275.417963762365730
 51
315.000000000003070
  0
ARC
  8
0
  6
CONTINUOUS
 62
4
 10
-659.994455003808300
 20
-169.827726371506510
 40
290.797000000000480
 50
0.000000000000000
 51
5.752282731536624
  0
ARC
  8
0
  6
CONTINUOUS
 62
4
 10
-381.778490064789590
 20
-130.363244295539740
 40
3.000000000000346
 50
44.999999999996930
 51
84.582036237634313
  0
ARC
  8
0
  6
CONTINUOUS
 62
4
 10
-418.394455003807930
 20
-516.427726371506650
 40
390.797000000000030
 50
84.582036237639471
 51
90.000000000000000
  0
LINE
  8
0
  6
CONTINUOUS
 62
4
 10
-373.769755849190230
 20
-134.129337824020010
 11
-379.657169721229590
 21
-128.241923951979970
  0
ARC
  8
0
  6
CONTINUOUS
 62
3
 10
-457.825322003895280
 20
-124.405779629208150
 40
6.600000000000009
 50
95.743681810995099
 51
135.000000000002790
  0
ARC
  8
0
  6
CONTINUOUS
 62
3
 10
-457.825322003895280
 20
-215.249673113804870
 40
6.600000000000278
 50
224.999999999997190
 51
264.256318189004900
  0
ARC
  8
0
  6
CONTINUOUS
 62
3
 10
-378.963588003720590
 20
-215.249673113804870
 40
6.600000000000009
 50
275.743681810995100
 51
315.000000000002790
  0
ARC
  8
0
  6
CONTINUOUS
 62
3
 10
-378.963588003720590
 20
-124.405779629208150
 40
6.600000000000278
 50
44.999999999997215
 51
84.256318189004901
  0
ARC
  8
0
  6
CONTINUOUS
 62
3
 10
-418.394455003807930
 20
-516.427726371506650
 40
400.599999999999910
 50
90.000000000000000
 51
95.743681810993436
  0
ARC
  8
0
  6
CONTINUOUS
 62
3
 10
-418.394455003807930
 20
176.772273628493620
 40
400.599999999999910
 50
264.256318189006550
 51
270.000000000000000
  0
ARC
  8
0
  6
CONTINUOUS
 62
3
 10
-418.394455003807930
 20
176.772273628493620
 40
400.599999999999910
 50
270.000000000000000
 51
275.743681810993450
  0
ARC
  8
0
  6
CONTINUOUS
 62
3
 10
-418.394455003807930
 20
-516.427726371506650
 40
400.599999999999910
 50
84.256318189006564
 51
90.000000000000000
  0
ARC
  8
0
  6
CONTINUOUS
 62
3
 10
-176.794455003807600
 20
-169.827726371506510
 40
300.599999999999910
 50
174.247717268463390
 51
180.000000000000000
  0
ARC
  8
0
  6
CONTINUOUS
 62
3
 10
-176.794455003807600
 20
-169.827726371506510
 40
300.600000000000360
 50
180.000000000000000
 51
185.752282731536610
  0
ARC
  8
0
  6
CONTINUOUS
 62
3
 10
-659.994455003808300
 20
-169.827726371506510
 40
300.599999999999910
 50
354.247717268463420
 51
0.000000000000000
  0
ARC
  8
0
  6
CONTINUOUS
 62
3
 10
-659.994455003808300
 20
-169.827726371506510
 40
300.600000000000360
 50
0.000000000000000
 51
5.752282731536604
  0
ARC
  8
0
  6
CONTINUOUS
 62
3
 10
-421.894455003807930
 20
-204.652286670238250
 40
1.000000000000000
 50
0.000000000000000
 51
84.260829522738291
  0
ARC
  8
0
  6
CONTINUOUS
 62
3
 10
-421.894455003807930
 20
-207.666198856531540
 40
1.000000000000042
 50
264.715267045464260
 51
0.000000000000000
  0
ARC
  8
0
  6
CONTINUOUS
 62
3
 10
-421.894455003807930
 20
-199.119363403260190
 40
1.000000000000077
 50
263.186145655820330
 51
0.000000000000000
  0
LINE
  8
0
  6
CONTINUOUS
 62
3
 10
-420.894455003807930
 20
-207.666198856531540
 11
-420.894455003807930
 21
-204.652286670238250
  0
ARC
  8
0
  6
CONTINUOUS
 62
3
 10
-435.435383687180770
 20
-175.624859249765680
 40
0.999999999999885
 50
300.000000000003810
 51
18.787728582346993
  0
LINE
  8
0
  6
CONTINUOUS
 62
3
 10
-437.576618844237370
 20
-178.015802482469550
 11
-434.935383687180770
 21
-176.490884653549980
  0
ARC
  8
0
  6
CONTINUOUS
 62
3
 10
-438.076618844237370
 20
-177.149777078685250
 40
1.000000000000094
 50
200.405931773138690
 51
300.000000000003810
  0
ARC
  8
0
  6
CONTINUOUS
 62
3
 10
-442.893081335962280
 20
-179.930562994824870
 40
1.000000000000082
 50
299.999999999997270
 51
22.410457608146043
  0
ARC
  8
0
  6
CONTINUOUS
 62
3
 10
-450.303408898132370
 20
-184.208917607626740
 40
1.000000000000082
 50
299.999999999997270
 51
24.260829522733715
  0
LINE
  8
0
  6
CONTINUOUS
 62
3
 10
-445.011756791739800
 20
-182.308481377922360
 11
-442.393081335962280
 21
-180.796588398609400
  0
ARC
  8
0
  6
CONTINUOUS
 62
3
 10
-445.511756791739800
 20
-181.442455974137830
 40
0.999999999999730
 50
203.186145655819840
 51
299.999999999997270
  0
LINE
  8
0
  6
CONTINUOUS
 62
3
 10
-452.413533416238120
 20
-186.581899104557810
 11
-449.803408898132370
 21
-185.074943011411280
  0
ARC
  8
0
  6
CONTINUOUS
 62
3
 10
-452.913533416238120
 20
-185.715873700773500
 40
1.000000000000248
 50
204.715267045455480
 51
300.000000000003810
  0
ARC
  8
0
  6
CONTINUOUS
 62
3
 10
-449.413533416238120
 20
-191.778051527264780
 40
1.000000000000082
 50
119.999999999997270
 51
215.284732954534320
  0
ARC
  8
0
  6
CONTINUOUS
 62
3
 10
-446.803408898132370
 20
-190.271095434117800
 40
0.999999999999807
 50
35.739170477263521
 51
120.000000000003780
  0
ARC
  8
0
  6
CONTINUOUS
 62
3
 10
-421.894455003807930
 20
-196.095577444633820
 40
1.000000000000000
 50
0.000000000000000
 51
82.410457608145762
  0
ARC
  8
0
  6
CONTINUOUS
 62
3
 10
-442.011756791739800
 20
-187.504633800628650
 40
0.999999999999885
 50
120.000000000003780
 51
216.813854344197100
  0
ARC
  8
0
  6
CONTINUOUS
 62
3
 10
-439.393081335962730
 20
-185.992740821315690
 40
1.000000000000194
 50
37.589542391851793
 51
119.999999999997270
  0
ARC
  8
0
  6
CONTINUOUS
 62
3
 10
-421.894455003807930
 20
-190.534005612355030
 40
1.000000000000268
 50
260.405931773124510
 51
0.000000000000000
  0
ARC
  8
0
  6
CONTINUOUS
 62
3
 10
-421.894455003807930
 20
-187.484169954516120
 40
1.000000000000000
 50
0.000000000000000
 51
78.787728582355996
  0
ARC
  8
0
  6
CONTINUOUS
 62
3
 10
-434.576618844236920
 20
-183.211954905176300
 40
0.999999999999885
 50
120.000000000003780
 51
219.594068226860460
  0
ARC
  8
0
  6
CONTINUOUS
 62
3
 10
-431.935383687180770
 20
-181.687037076256960
 40
1.000000000000165
 50
41.212271417643841
 51
119.999999999997270
  0
ARC
  8
0
  6
CONTINUOUS
 62
3
 10
-427.036759849221430
 20
-178.858815284751930
 40
0.999999999999885
 50
120.000000000003780
 51
226.260204708328700
  0
ARC
  8
0
  6
CONTINUOUS
 62
3
 10
-421.894455003807930
 20
-181.827726371506510
 40
0.999999999999964
 50
253.739795291702650
 51
0.000000000000000
  0
ARC
  8
0
  6
CONTINUOUS
 62
3
 10
-421.894455003807930
 20
-178.659487237834360
 40
1.000000000000000
 50
0.000000000000000
 51
68.381727577838021
  0
ARC
  8
0
  6
CONTINUOUS
 62
3
 10
-424.292984274197120
 20
-177.274695717915850
 40
0.999999999999961
 50
51.618272422159777
 51
120.000000000003780
  0
ARC
  8
0
  6
CONTINUOUS
 62
3
 10
-418.394455003807930
 20
-169.827726371506510
 40
38.999999999999865
 50
215.284732954534800
 51
264.715267045465400
  0
ARC
  8
0
  6
CONTINUOUS
 62
3
 10
-418.394455003807930
 20
-169.827726371506510
 40
30.499999999999964
 50
216.813854344181070
 51
263.186145655818960
  0
ARC
  8
0
  6
CONTINUOUS
 62
3
 10
-418.394455003807930
 20
-169.827726371506510
 40
33.999999999999964
 50
215.739170477266950
 51
264.260829522733050
  0
ARC
  8
0
  6
CONTINUOUS
 62
3
 10
-418.394455003807930
 20
-169.827726371506510
 40
25.499999999999890
 50
217.589542391857950
 51
262.410457608141830
  0
ARC
  8
0
  6
CONTINUOUS
 62
3
 10
-418.394455003807930
 20
-169.827726371506510
 40
22.000000000000025
 50
219.594068226860800
 51
260.405931773138780
  0
ARC
  8
0
  6
CONTINUOUS
 62
3
 10
-418.394455003807930
 20
-169.827726371506510
 40
16.999999999999773
 50
221.212271417650780
 51
258.787728582349980
  0
ARC
  8
0
  6
CONTINUOUS
 62
3
 10
-418.394455003807930
 20
-169.827726371506510
 40
13.499999999999927
 50
226.260204708312130
 51
253.739795291689150
  0
ARC
  8
0
  6
CONTINUOUS
 62
3
 10
-418.394455003807930
 20
-169.827726371506510
 40
8.499999999999948
 50
231.618272422157330
 51
248.381727577842330
  0
LINE
  8
0
  6
CONTINUOUS
 62
3
 10
-442.511756791739800
 20
-186.638608396844350
 11
-439.893081335962730
 21
-185.126715417531160
  0
LINE
  8
0
  6
CONTINUOUS
 62
3
 10
-449.913533416238120
 20
-190.912026123480250
 11
-447.303408898132370
 21
-189.405070030333490
  0
LINE
  8
0
  6
CONTINUOUS
 62
3
 10
-435.076618844236920
 20
-182.345929501391990
 11
-432.435383687180770
 21
-180.821011672472420
  0
LINE
  8
0
  6
CONTINUOUS
 62
3
 10
-427.536759849221430
 20
-177.992789880967620
 11
-424.792984274197120
 21
-176.408670314131540
  0
LINE
  8
0
  6
CONTINUOUS
 62
3
 10
-420.894455003807930
 20
-181.827726371506510
 11
-420.894455003807930
 21
-178.659487237834360
  0
LINE
  8
0
  6
CONTINUOUS
 62
3
 10
-420.894455003807930
 20
-190.534005612355030
 11
-420.894455003807930
 21
-187.484169954516120
  0
LINE
  8
0
  6
CONTINUOUS
 62
3
 10
-420.894455003807930
 20
-199.119363403260190
 11
-420.894455003807930
 21
-196.095577444633820
  0
ARC
  8
0
  6
CONTINUOUS
 62
3
 10
-427.792984274197120
 20
-171.212517891425020
 40
0.999999999999885
 50
300.000000000003810
 51
8.381727577845549
  0
ARC
  8
0
  6
CONTINUOUS
 62
3
 10
-418.394455003807930
 20
-169.827726371506510
 40
8.499999999999972
 50
171.618272422157790
 51
188.381727577842210
  0
LINE
  8
0
  6
CONTINUOUS
 62
3
 10
-430.036759849221430
 20
-173.662662862045410
 11
-427.292984274197120
 21
-172.078543295209330
  0
ARC
  8
0
  6
CONTINUOUS
 62
3
 10
-430.536759849221430
 20
-172.796637458261100
 40
0.999999999999879
 50
193.739795291686050
 51
300.000000000003810
  0
ARC
  8
0
  6
CONTINUOUS
 62
3
 10
-421.894455003807930
 20
-152.171282788496910
 40
0.999999999999982
 50
281.212271417643990
 51
0.000000000000000
  0
LINE
  8
0
  6
CONTINUOUS
 62
3
 10
-420.894455003807930
 20
-149.121447130658000
 11
-420.894455003807930
 21
-152.171282788496910
  0
ARC
  8
0
  6
CONTINUOUS
 62
3
 10
-421.894455003807930
 20
-149.121447130658000
 40
1.000000000000000
 50
0.000000000000000
 51
99.594068226875478
  0
ARC
  8
0
  6
CONTINUOUS
 62
3
 10
-421.894455003807930
 20
-143.559875298379210
 40
0.999999999999749
 50
277.589542391855960
 51
0.000000000013028
  0
LINE
  8
0
  6
CONTINUOUS
 62
3
 10
-420.894455003807930
 20
-140.536089339752830
 11
-420.894455003807930
 21
-143.559875298378980
  0
ARC
  8
0
  6
CONTINUOUS
 62
3
 10
-421.894455003807930
 20
-140.536089339752830
 40
1.000000000000000
 50
0.000000000000000
 51
96.813854344179688
  0
ARC
  8
0
  6
CONTINUOUS
 62
3
 10
-421.894455003807930
 20
-135.003166072774770
 40
0.999999999999973
 50
275.739170477261670
 51
0.000000000000000
  0
LINE
  8
0
  6
CONTINUOUS
 62
3
 10
-420.894455003807930
 20
-131.989253886481490
 11
-420.894455003807930
 21
-135.003166072774770
  0
ARC
  8
0
  6
CONTINUOUS
 62
3
 10
-421.894455003807930
 20
-131.989253886481490
 40
1.000000000000000
 50
0.000000000000000
 51
95.284732954535698
  0
ARC
  8
0
  6
CONTINUOUS
 62
3
 10
-442.011756791739800
 20
-152.150818942384150
 40
0.999999999999774
 50
143.186145655813330
 51
240.000000000002730
  0
LINE
  8
0
  6
CONTINUOUS
 62
3
 10
-442.511756791739800
 20
-153.016844346168680
 11
-439.893081335962280
 21
-154.528737325481870
  0
ARC
  8
0
  6
CONTINUOUS
 62
3
 10
-439.393081335962280
 20
-153.662711921697340
 40
1.000000000000082
 50
240.000000000002730
 51
322.410457608132330
  0
ARC
  8
0
  6
CONTINUOUS
 62
3
 10
-449.413533416238120
 20
-147.877401215748480
 40
0.999999999999908
 50
144.715267045455050
 51
239.999999999996220
  0
LINE
  8
0
  6
CONTINUOUS
 62
3
 10
-449.913533416238120
 20
-148.743426619532780
 11
-447.303408898132370
 21
-150.250382712679540
  0
ARC
  8
0
  6
CONTINUOUS
 62
3
 10
-446.803408898132370
 20
-149.384357308895230
 40
0.999999999999885
 50
239.999999999996220
 51
324.260829522725940
  0
ARC
  8
0
  6
CONTINUOUS
 62
3
 10
-424.292984274197120
 20
-162.380757025096950
 40
1.000000000000082
 50
240.000000000002730
 51
308.381727577840190
  0
LINE
  8
0
  6
CONTINUOUS
 62
3
 10
-427.536759849221430
 20
-161.662662862045410
 11
-424.792984274197120
 21
-163.246782428881490
  0
ARC
  8
0
  6
CONTINUOUS
 62
3
 10
-431.935383687180770
 20
-157.968415666756300
 40
0.999999999999885
 50
239.999999999996220
 51
318.787728582348790
  0
LINE
  8
0
  6
CONTINUOUS
 62
3
 10
-435.076618844236920
 20
-157.309523241621040
 11
-432.435383687180770
 21
-158.834441070540610
  0
ARC
  8
0
  6
CONTINUOUS
 62
3
 10
-434.576618844236920
 20
-156.443497837836500
 40
1.000000000000173
 50
140.405931773149600
 51
240.000000000002730
  0
ARC
  8
0
  6
CONTINUOUS
 62
3
 10
-421.894455003807930
 20
-160.995965505178670
 40
1.000000000000090
 50
291.618272422161970
 51
0.000000000000000
  0
ARC
  8
0
  6
CONTINUOUS
 62
3
 10
-418.394455003807930
 20
-169.827726371506510
 40
8.499999999999904
 50
111.618272422157710
 51
128.381727577841670
  0
ARC
  8
0
  6
CONTINUOUS
 62
3
 10
-427.036759849221430
 20
-160.796637458261100
 40
0.999999999999858
 50
133.739795291671300
 51
239.999999999996220
  0
LINE
  8
0
  6
CONTINUOUS
 62
3
 10
-420.894455003807930
 20
-157.827726371506510
 11
-420.894455003807930
 21
-160.995965505178670
  0
ARC
  8
0
  6
CONTINUOUS
 62
3
 10
-421.894455003807930
 20
-157.827726371506510
 40
1.000000000000000
 50
0.000000000000000
 51
106.260204708297360
  0
ARC
  8
0
  6
CONTINUOUS
 62
3
 10
-418.394455003807930
 20
-169.827726371506510
 40
13.499999999999963
 50
106.260204708310860
 51
133.739795291687870
  0
ARC
  8
0
  6
CONTINUOUS
 62
3
 10
-418.394455003807930
 20
-169.827726371506510
 40
17.000000000000046
 50
101.212271417650010
 51
138.787728582350240
  0
ARC
  8
0
  6
CONTINUOUS
 62
3
 10
-418.394455003807930
 20
-169.827726371506510
 40
22.000000000000131
 50
99.594068226861211
 51
140.405931773139200
  0
ARC
  8
0
  6
CONTINUOUS
 62
3
 10
-418.394455003807930
 20
-169.827726371506510
 40
30.500000000000135
 50
96.813854344181038
 51
143.186145655818930
  0
ARC
  8
0
  6
CONTINUOUS
 62
3
 10
-418.394455003807930
 20
-169.827726371506510
 40
25.500000000000160
 50
97.589542391858117
 51
142.410457608142050
  0
ARC
  8
0
  6
CONTINUOUS
 62
3
 10
-418.394455003807930
 20
-169.827726371506510
 40
34.000000000000071
 50
95.739170477266924
 51
144.260829522733360
  0
ARC
  8
0
  6
CONTINUOUS
 62
3
 10
-418.394455003807930
 20
-169.827726371506510
 40
38.999999999999986
 50
95.284732954534590
 51
144.715267045465200
  0
ARC
  8
0
  6
CONTINUOUS
 62
3
 10
-445.511756791739800
 20
-158.212996768875200
 40
1.000000000000082
 50
60.000000000002721
 51
156.813854344180160
  0
LINE
  8
0
  6
CONTINUOUS
 62
3
 10
-445.011756791739800
 20
-157.346971365090670
 11
-442.393081335962280
 21
-158.858864344403860
  0
ARC
  8
0
  6
CONTINUOUS
 62
3
 10
-442.893081335962280
 20
-159.724889748188390
 40
0.999999999999701
 50
337.589542391853970
 51
60.000000000002721
  0
ARC
  8
0
  6
CONTINUOUS
 62
3
 10
-452.913533416238120
 20
-153.939579042239530
 40
1.000000000000082
 50
60.000000000002721
 51
155.284732954544520
  0
LINE
  8
0
  6
CONTINUOUS
 62
3
 10
-452.413533416238120
 20
-153.073553638455000
 11
-449.803408898132370
 21
-154.580509731601750
  0
ARC
  8
0
  6
CONTINUOUS
 62
3
 10
-450.303408898132370
 20
-155.446535135386060
 40
0.999999999999863
 50
335.739170477254390
 51
59.999999999996206
  0
ARC
  8
0
  6
CONTINUOUS
 62
3
 10
-427.792984274197120
 20
-168.442934851588230
 40
1.000000000000026
 50
351.618272422167310
 51
60.000000000002721
  0
LINE
  8
0
  6
CONTINUOUS
 62
3
 10
-430.036759849221430
 20
-165.992789880967620
 11
-427.292984274197120
 21
-167.576909447803700
  0
ARC
  8
0
  6
CONTINUOUS
 62
3
 10
-435.435383687180770
 20
-164.030593493247350
 40
1.000000000000076
 50
341.212271417652970
 51
60.000000000002721
  0
LINE
  8
0
  6
CONTINUOUS
 62
3
 10
-437.576618844237370
 20
-161.639650260543480
 11
-434.935383687180770
 21
-163.164568089462820
  0
ARC
  8
0
  6
CONTINUOUS
 62
3
 10
-438.076618844237370
 20
-162.505675664327780
 40
0.999999999999885
 50
59.999999999996206
 51
159.594068226861310
  0
ARC
  8
0
  6
CONTINUOUS
 62
3
 10
-430.536759849221430
 20
-166.858815284751930
 40
0.999999999999885
 50
59.999999999996206
 51
166.260204708307780
  0
ARC
  8
0
  6
CONTINUOUS
 62
3
 10
-418.394455003807930
 20
-169.827726371506510
 40
13.499999999999687
 50
166.260204708311360
 51
193.739795291688180
  0
ARC
  8
0
  6
CONTINUOUS
 62
3
 10
-418.394455003807930
 20
-169.827726371506510
 40
16.999999999999716
 50
161.212271417649560
 51
198.787728582350440
  0
ARC
  8
0
  6
CONTINUOUS
 62
3
 10
-418.394455003807930
 20
-169.827726371506510
 40
22.000000000000206
 50
159.594068226860770
 51
200.405931773139230
  0
ARC
  8
0
  6
CONTINUOUS
 62
3
 10
-418.394455003807930
 20
-169.827726371506510
 40
30.499999999999947
 50
156.813854344181150
 51
203.186145655818850
  0
ARC
  8
0
  6
CONTINUOUS
 62
3
 10
-418.394455003807930
 20
-169.827726371506510
 40
25.500000000000000
 50
157.589542391857980
 51
202.410457608142480
  0
ARC
  8
0
  6
CONTINUOUS
 62
3
 10
-418.394455003807930
 20
-169.827726371506510
 40
34.000000000000007
 50
155.739170477266780
 51
204.260829522733220
  0
ARC
  8
0
  6
CONTINUOUS
 62
3
 10
-418.394455003807930
 20
-169.827726371506510
 40
39.000000000000220
 50
155.284732954534800
 51
204.715267045465200
  0
LINE
  8
0
  6
CONTINUOUS
 62
3
 10
-415.894455003807930
 20
-199.119363403260190
 11
-415.894455003807930
 21
-196.095577444633820
  0
LINE
  8
0
  6
CONTINUOUS
 62
3
 10
-415.894455003807930
 20
-190.534005612355030
 11
-415.894455003807930
 21
-187.484169954516120
  0
LINE
  8
0
  6
CONTINUOUS
 62
3
 10
-415.894455003807930
 20
-181.827726371506510
 11
-415.894455003807930
 21
-178.659487237834360
  0
LINE
  8
0
  6
CONTINUOUS
 62
3
 10
-409.252150158394440
 20
-177.992789880967620
 11
-411.995925733418740
 21
-176.408670314131540
  0
LINE
  8
0
  6
CONTINUOUS
 62
3
 10
-401.712291163378950
 20
-182.345929501391990
 11
-404.353526320435090
 21
-180.821011672472420
  0
LINE
  8
0
  6
CONTINUOUS
 62
3
 10
-386.875376591377740
 20
-190.912026123480250
 11
-389.485501109483490
 21
-189.405070030333490
  0
LINE
  8
0
  6
CONTINUOUS
 62
3
 10
-415.894455003807930
 20
-207.666198856531540
 11
-415.894455003807930
 21
-204.652286670238250
  0
LINE
  8
0
  6
CONTINUOUS
 62
3
 10
-394.277153215876070
 20
-186.638608396844350
 11
-396.895828671653130
 21
-185.126715417531160
  0
ARC
  8
0
  6
CONTINUOUS
 62
3
 10
-418.394455003807930
 20
-169.827726371506510
 40
8.499999999999904
 50
291.618272422157700
 51
308.381727577842640
  0
ARC
  8
0
  6
CONTINUOUS
 62
3
 10
-418.394455003807930
 20
-169.827726371506510
 40
13.499999999999963
 50
286.260204708310820
 51
313.739795291687870
  0
ARC
  8
0
  6
CONTINUOUS
 62
3
 10
-418.394455003807930
 20
-169.827726371506510
 40
17.000000000000046
 50
281.212271417650020
 51
318.787728582350210
  0
ARC
  8
0
  6
CONTINUOUS
 62
3
 10
-418.394455003807930
 20
-169.827726371506510
 40
22.000000000000131
 50
279.594068226861170
 51
320.405931773139170
  0
ARC
  8
0
  6
CONTINUOUS
 62
3
 10
-418.394455003807930
 20
-169.827726371506510
 40
25.499999999999932
 50
277.589542391858170
 51
322.410457608142050
  0
ARC
  8
0
  6
CONTINUOUS
 62
3
 10
-418.394455003807930
 20
-169.827726371506510
 40
34.000000000000071
 50
275.739170477266950
 51
324.260829522733050
  0
ARC
  8
0
  6
CONTINUOUS
 62
3
 10
-418.394455003807930
 20
-169.827726371506510
 40
30.500000000000135
 50
276.813854344181040
 51
323.186145655818900
  0
ARC
  8
0
  6
CONTINUOUS
 62
3
 10
-418.394455003807930
 20
-169.827726371506510
 40
38.999999999999986
 50
275.284732954534600
 51
324.715267045465230
  0
ARC
  8
0
  6
CONTINUOUS
 62
3
 10
-412.495925733418740
 20
-177.274695717915850
 40
0.999999999999885
 50
59.999999999996206
 51
128.381727577840220
  0
ARC
  8
0
  6
CONTINUOUS
 62
3
 10
-414.894455003807930
 20
-178.659487237834360
 40
1.000000000000090
 50
111.618272422161970
 51
180.000000000000000
  0
ARC
  8
0
  6
CONTINUOUS
 62
3
 10
-414.894455003807930
 20
-181.827726371506510
 40
1.000000000000000
 50
180.000000000000000
 51
286.260204708297350
  0
ARC
  8
0
  6
CONTINUOUS
 62
3
 10
-409.752150158394440
 20
-178.858815284751930
 40
0.999999999999858
 50
313.739795291671330
 51
59.999999999996206
  0
ARC
  8
0
  6
CONTINUOUS
 62
3
 10
-404.853526320435090
 20
-181.687037076256960
 40
1.000000000000082
 50
60.000000000002721
 51
138.787728582338990
  0
ARC
  8
0
  6
CONTINUOUS
 62
3
 10
-402.212291163378950
 20
-183.211954905176300
 40
1.000000000000318
 50
320.405931773139570
 51
59.999999999996206
  0
ARC
  8
0
  6
CONTINUOUS
 62
3
 10
-414.894455003807930
 20
-187.484169954516120
 40
0.999999999999982
 50
101.212271417644000
 51
180.000000000000000
  0
ARC
  8
0
  6
CONTINUOUS
 62
3
 10
-414.894455003807930
 20
-190.534005612355030
 40
1.000000000000000
 50
180.000000000000000
 51
279.594068226875490
  0
ARC
  8
0
  6
CONTINUOUS
 62
3
 10
-414.894455003807930
 20
-199.119363403260190
 40
1.000000000000000
 50
180.000000000000000
 51
276.813854344179670
  0
ARC
  8
0
  6
CONTINUOUS
 62
3
 10
-397.395828671653130
 20
-185.992740821315690
 40
1.000000000000082
 50
60.000000000002721
 51
142.410457608148220
  0
ARC
  8
0
  6
CONTINUOUS
 62
3
 10
-394.777153215876070
 20
-187.504633800628650
 40
0.999999999999911
 50
323.186145655802870
 51
59.999999999996206
  0
ARC
  8
0
  6
CONTINUOUS
 62
3
 10
-414.894455003807930
 20
-196.095577444633820
 40
0.999999999999975
 50
97.589542391854238
 51
180.000000000000000
  0
ARC
  8
0
  6
CONTINUOUS
 62
3
 10
-414.894455003807930
 20
-207.666198856531540
 40
1.000000000000000
 50
180.000000000000000
 51
275.284732954535740
  0
ARC
  8
0
  6
CONTINUOUS
 62
3
 10
-414.894455003807930
 20
-204.652286670238250
 40
0.999999999999973
 50
95.739170477261709
 51
180.000000000000000
  0
ARC
  8
0
  6
CONTINUOUS
 62
3
 10
-389.985501109483490
 20
-190.271095434117800
 40
0.999999999999885
 50
59.999999999996206
 51
144.260829522736490
  0
ARC
  8
0
  6
CONTINUOUS
 62
3
 10
-387.375376591377740
 20
-191.778051527264780
 40
0.999999999999776
 50
324.715267045465680
 51
60.000000000002721
  0
CIRCLE
  8
0
  6
CONTINUOUS
 62
3
 10
-418.394455003807930
 20
-169.827726371506510
 40
5.000000000000000
  0
ARC
  8
0
  6
CONTINUOUS
 62
3
 10
-383.875376591377740
 20
-185.715873700773500
 40
0.999999999999885
 50
239.999999999996220
 51
335.284732954544490
  0
LINE
  8
0
  6
CONTINUOUS
 62
3
 10
-384.375376591377740
 20
-186.581899104557810
 11
-386.985501109483490
 21
-185.074943011411280
  0
ARC
  8
0
  6
CONTINUOUS
 62
3
 10
-418.394455003807930
 20
-169.827726371506510
 40
39.000000000000220
 50
335.284732954534830
 51
24.715267045465190
  0
ARC
  8
0
  6
CONTINUOUS
 62
3
 10
-418.394455003807930
 20
-169.827726371506510
 40
34.000000000000007
 50
335.739170477266780
 51
24.260829522733218
  0
ARC
  8
0
  6
CONTINUOUS
 62
3
 10
-418.394455003807930
 20
-169.827726371506510
 40
25.500000000000085
 50
337.589542391857490
 51
22.410457608142021
  0
ARC
  8
0
  6
CONTINUOUS
 62
3
 10
-418.394455003807930
 20
-169.827726371506510
 40
30.499999999999947
 50
336.813854344181150
 51
23.186145655818844
  0
ARC
  8
0
  6
CONTINUOUS
 62
3
 10
-391.277153215876070
 20
-181.442455974137830
 40
1.000000000000082
 50
240.000000000002730
 51
336.813854344180130
  0
LINE
  8
0
  6
CONTINUOUS
 62
3
 10
-391.777153215876070
 20
-182.308481377922360
 11
-394.395828671653590
 21
-180.796588398609400
  0
ARC
  8
0
  6
CONTINUOUS
 62
3
 10
-418.394455003807930
 20
-169.827726371506510
 40
22.000000000000206
 50
339.594068226860770
 51
20.405931773139226
  0
ARC
  8
0
  6
CONTINUOUS
 62
3
 10
-386.485501109483490
 20
-184.208917607626740
 40
0.999999999999769
 50
155.739170477266270
 51
240.000000000002730
  0
ARC
  8
0
  6
CONTINUOUS
 62
3
 10
-393.895828671653590
 20
-179.930562994824870
 40
0.999999999999701
 50
157.589542391853940
 51
240.000000000002730
  0
ARC
  8
0
  6
CONTINUOUS
 62
3
 10
-398.712291163378500
 20
-177.149777078685250
 40
0.999999999999885
 50
239.999999999996220
 51
339.594068226861340
  0
ARC
  8
0
  6
CONTINUOUS
 62
3
 10
-418.394455003807930
 20
-169.827726371506510
 40
17.000000000000146
 50
341.212271417650070
 51
18.787728582350418
  0
LINE
  8
0
  6
CONTINUOUS
 62
3
 10
-399.212291163378500
 20
-178.015802482469550
 11
-401.853526320435090
 21
-176.490884653549980
  0
ARC
  8
0
  6
CONTINUOUS
 62
3
 10
-401.353526320435090
 20
-175.624859249765680
 40
0.999999999999646
 50
161.212271417644620
 51
239.999999999996220
  0
ARC
  8
0
  6
CONTINUOUS
 62
3
 10
-418.394455003807930
 20
-169.827726371506510
 40
13.500000000000130
 50
346.260204708311850
 51
13.739795291688171
  0
ARC
  8
0
  6
CONTINUOUS
 62
3
 10
-406.252150158394440
 20
-172.796637458261100
 40
0.999999999999885
 50
239.999999999996220
 51
346.260204708314010
  0
LINE
  8
0
  6
CONTINUOUS
 62
3
 10
-406.752150158394440
 20
-173.662662862045410
 11
-409.495925733418740
 21
-172.078543295209330
  0
ARC
  8
0
  6
CONTINUOUS
 62
3
 10
-406.252150158394440
 20
-166.858815284751930
 40
0.999999999999879
 50
13.739795291686027
 51
120.000000000003780
  0
ARC
  8
0
  6
CONTINUOUS
 62
3
 10
-418.394455003807930
 20
-169.827726371506510
 40
8.499999999999972
 50
351.618272422157820
 51
8.381727577842204
  0
ARC
  8
0
  6
CONTINUOUS
 62
3
 10
-408.995925733418740
 20
-171.212517891425020
 40
1.000000000000059
 50
171.618272422154460
 51
239.999999999996220
  0
ARC
  8
0
  6
CONTINUOUS
 62
3
 10
-398.712291163378500
 20
-162.505675664327780
 40
1.000000000000094
 50
20.405931773138686
 51
120.000000000003780
  0
LINE
  8
0
  6
CONTINUOUS
 62
3
 10
-399.212291163378500
 20
-161.639650260543480
 11
-401.853526320435090
 21
-163.164568089462820
  0
ARC
  8
0
  6
CONTINUOUS
 62
3
 10
-401.353526320435090
 20
-164.030593493247350
 40
1.000000000000082
 50
119.999999999997270
 51
198.787728582347000
  0
LINE
  8
0
  6
CONTINUOUS
 62
3
 10
-406.752150158394440
 20
-165.992789880967620
 11
-409.495925733418740
 21
-167.576909447803700
  0
ARC
  8
0
  6
CONTINUOUS
 62
3
 10
-408.995925733418740
 20
-168.442934851588230
 40
1.000000000000082
 50
119.999999999997270
 51
188.381727577832660
  0
ARC
  8
0
  6
CONTINUOUS
 62
3
 10
-386.485501109483490
 20
-155.446535135386060
 40
0.999999999999885
 50
120.000000000003780
 51
204.260829522745610
  0
LINE
  8
0
  6
CONTINUOUS
 62
3
 10
-384.375376591377740
 20
-153.073553638455000
 11
-386.985501109483490
 21
-154.580509731601750
  0
ARC
  8
0
  6
CONTINUOUS
 62
3
 10
-383.875376591377740
 20
-153.939579042239530
 40
1.000000000000248
 50
24.715267045455477
 51
119.999999999997270
  0
ARC
  8
0
  6
CONTINUOUS
 62
3
 10
-393.895828671653590
 20
-159.724889748188390
 40
1.000000000000082
 50
119.999999999997270
 51
202.410457608146060
  0
LINE
  8
0
  6
CONTINUOUS
 62
3
 10
-391.777153215876070
 20
-157.346971365090670
 11
-394.395828671653590
 21
-158.858864344403860
  0
ARC
  8
0
  6
CONTINUOUS
 62
3
 10
-391.277153215876070
 20
-158.212996768875200
 40
0.999999999999730
 50
23.186145655819850
 51
119.999999999997270
  0
ARC
  8
0
  6
CONTINUOUS
 62
3
 10
-418.394455003807930
 20
-169.827726371506510
 40
38.999999999999865
 50
35.284732954534789
 51
84.715267045465410
  0
ARC
  8
0
  6
CONTINUOUS
 62
3
 10
-418.394455003807930
 20
-169.827726371506510
 40
33.999999999999829
 50
35.739170477266640
 51
84.260829522733076
  0
ARC
  8
0
  6
CONTINUOUS
 62
3
 10
-418.394455003807930
 20
-169.827726371506510
 40
25.499999999999890
 50
37.589542391857961
 51
82.410457608141883
  0
ARC
  8
0
  6
CONTINUOUS
 62
3
 10
-418.394455003807930
 20
-169.827726371506510
 40
30.499999999999964
 50
36.813854344181067
 51
83.186145655818962
  0
ARC
  8
0
  6
CONTINUOUS
 62
3
 10
-418.394455003807930
 20
-169.827726371506510
 40
22.000000000000025
 50
39.594068226860820
 51
80.405931773138789
  0
ARC
  8
0
  6
CONTINUOUS
 62
3
 10
-418.394455003807930
 20
-169.827726371506510
 40
17.000000000000114
 50
41.212271417649760
 51
78.787728582349985
  0
ARC
  8
0
  6
CONTINUOUS
 62
3
 10
-418.394455003807930
 20
-169.827726371506510
 40
13.499999999999927
 50
46.260204708312145
 51
73.739795291689134
  0
ARC
  8
0
  6
CONTINUOUS
 62
3
 10
-414.894455003807930
 20
-157.827726371506510
 40
0.999999999999964
 50
73.739795291702634
 51
180.000000000000000
  0
LINE
  8
0
  6
CONTINUOUS
 62
3
 10
-415.894455003807930
 20
-157.827726371506510
 11
-415.894455003807930
 21
-160.995965505178670
  0
ARC
  8
0
  6
CONTINUOUS
 62
3
 10
-409.752150158394440
 20
-160.796637458261100
 40
0.999999999999885
 50
300.000000000003810
 51
46.260204708328693
  0
ARC
  8
0
  6
CONTINUOUS
 62
3
 10
-418.394455003807930
 20
-169.827726371506510
 40
8.500000000000128
 50
51.618272422158320
 51
68.381727577842284
  0
ARC
  8
0
  6
CONTINUOUS
 62
3
 10
-414.894455003807930
 20
-160.995965505178670
 40
1.000000000000000
 50
180.000000000000000
 51
248.381727577838030
  0
ARC
  8
0
  6
CONTINUOUS
 62
3
 10
-402.212291163378950
 20
-156.443497837836500
 40
1.000000000000082
 50
299.999999999997270
 51
39.594068226850403
  0
LINE
  8
0
  6
CONTINUOUS
 62
3
 10
-401.712291163378950
 20
-157.309523241621040
 11
-404.353526320435090
 21
-158.834441070540610
  0
ARC
  8
0
  6
CONTINUOUS
 62
3
 10
-404.853526320435090
 20
-157.968415666756300
 40
0.999999999999673
 50
221.212271417651210
 51
300.000000000003810
  0
LINE
  8
0
  6
CONTINUOUS
 62
3
 10
-409.252150158394440
 20
-161.662662862045410
 11
-411.995925733418740
 21
-163.246782428881490
  0
ARC
  8
0
  6
CONTINUOUS
 62
3
 10
-412.495925733418740
 20
-162.380757025096950
 40
0.999999999999961
 50
231.618272422159780
 51
299.999999999997270
  0
ARC
  8
0
  6
CONTINUOUS
 62
3
 10
-389.985501109483490
 20
-149.384357308895230
 40
0.999999999999940
 50
215.739170477274090
 51
300.000000000003810
  0
LINE
  8
0
  6
CONTINUOUS
 62
3
 10
-386.875376591377740
 20
-148.743426619532780
 11
-389.485501109483490
 21
-150.250382712679540
  0
ARC
  8
0
  6
CONTINUOUS
 62
3
 10
-387.375376591377740
 20
-147.877401215748480
 40
0.999999999999885
 50
300.000000000003810
 51
35.284732954544943
  0
ARC
  8
0
  6
CONTINUOUS
 62
3
 10
-397.395828671653590
 20
-153.662711921697340
 40
0.999999999999834
 50
217.589542391867670
 51
299.999999999997270
  0
LINE
  8
0
  6
CONTINUOUS
 62
3
 10
-394.277153215876070
 20
-153.016844346168680
 11
-396.895828671653590
 21
-154.528737325481870
  0
ARC
  8
0
  6
CONTINUOUS
 62
3
 10
-394.777153215876070
 20
-152.150818942384150
 40
1.000000000000082
 50
299.999999999997270
 51
36.813854344186687
  0
ARC
  8
0
  6
CONTINUOUS
 62
3
 10
-414.894455003807930
 20
-131.989253886481490
 40
1.000000000000042
 50
84.715267045464302
 51
180.000000000000000
  0
LINE
  8
0
  6
CONTINUOUS
 62
3
 10
-415.894455003807930
 20
-131.989253886481490
 11
-415.894455003807930
 21
-135.003166072774770
  0
ARC
  8
0
  6
CONTINUOUS
 62
3
 10
-414.894455003807930
 20
-135.003166072774770
 40
1.000000000000000
 50
180.000000000000000
 51
264.260829522738280
  0
ARC
  8
0
  6
CONTINUOUS
 62
3
 10
-414.894455003807930
 20
-140.536089339752830
 40
1.000000000000077
 50
83.186145655820312
 51
180.000000000000000
  0
LINE
  8
0
  6
CONTINUOUS
 62
3
 10
-415.894455003807930
 20
-140.536089339752830
 11
-415.894455003807930
 21
-143.559875298378980
  0
ARC
  8
0
  6
CONTINUOUS
 62
3
 10
-414.894455003807930
 20
-143.559875298379210
 40
1.000000000000000
 50
179.999999999986980
 51
262.410457608144040
  0
ARC
  8
0
  6
CONTINUOUS
 62
3
 10
-414.894455003807930
 20
-149.121447130658000
 40
1.000000000000268
 50
80.405931773124522
 51
180.000000000000000
  0
LINE
  8
0
  6
CONTINUOUS
 62
3
 10
-415.894455003807930
 20
-149.121447130658000
 11
-415.894455003807930
 21
-152.171282788496910
  0
ARC
  8
0
  6
CONTINUOUS
 62
3
 10
-414.894455003807930
 20
-152.171282788496910
 40
1.000000000000000
 50
180.000000000000000
 51
258.787728582356010
  0
LINE
  8
0
  6
CONTINUOUS
 62
3
 10
-469.950921934397910
 20
-127.197570048048640
 11
-462.492226759726920
 21
-119.738874873376970
  0
LINE
  8
0
  6
CONTINUOUS
 62
3
 10
-469.950921934397910
 20
-212.457882694964380
 11
-462.492226759726920
 21
-219.916577869636060
  0
LINE
  8
0
  6
CONTINUOUS
 62
3
 10
-366.837988073217960
 20
-212.457882694964380
 11
-374.296683247888950
 21
-219.916577869636060
  0
LINE
  8
0
  6
CONTINUOUS
 62
3
 10
-366.837988073217960
 20
-127.197570048048640
 11
-374.296683247888950
 21
-119.738874873376970
  0
LINE
  8
0
  6
CONTINUOUS
 62
3
 10
-360.894455003807930
 20
-201.327726371506510
 11
-360.894455003807930
 21
-199.815712225936750
  0
LINE
  8
0
  6
CONTINUOUS
 62
3
 10
-360.894455003807930
 20
-139.835227309244370
 11
-360.894455003807930
 21
-138.327726371506510
  0
LINE
  8
0
  6
CONTINUOUS
 62
3
 10
-361.093005943906750
 20
-138.327726371506510
 11
-360.894455003807930
 21
-138.327726371506510
  0
LINE
  8
0
  6
CONTINUOUS
 62
3
 10
-361.093005943906750
 20
-201.327726371506510
 11
-360.894455003807930
 21
-201.327726371506510
  0
ARC
  8
0
  6
CONTINUOUS
 62
3
 10
-455.384522241954300
 20
-141.763969740490890
 40
20.600000000000069
 50
135.000000000002670
 51
174.247717268463500
  0
ARC
  8
0
  6
CONTINUOUS
 62
3
 10
-455.384522241954300
 20
-197.891483002522140
 40
20.599999999999916
 50
185.752282731536500
 51
224.999999999997330
  0
ARC
  8
0
  6
CONTINUOUS
 62
3
 10
-381.404387765661570
 20
-197.891483002522140
 40
20.600000000000069
 50
315.000000000002670
 51
354.247717268463480
  0
ARC
  8
0
  6
CONTINUOUS
 62
3
 10
-381.404387765661570
 20
-141.763969740490890
 40
20.599999999999916
 50
5.752282731536487
 51
44.999999999997321
  0
ARC
  8
0
  6
CONTINUOUS
 62
4
 10
-381.404387765661570
 20
-141.763969740490890
 40
10.797000000000011
 50
5.752282731536912
 51
44.999999999998295
  0
ARC
  8
0
  6
CONTINUOUS
 62
3
 10
-463.225025065904790
 20
-124.997156309409370
 40
6.099999427795394
 50
84.601927898109537
 51
185.398089404735370
  0
POINT
  8
0
  6
CONTINUOUS
 62
3
 10
-465.487766630831860
 20
-122.734414744482360
  0
LINE
  8
0
  6
CONTINUOUS
 62
3
 10
-468.811168367538700
 20
-126.057816481189200
 11
-462.164364894125010
 21
-119.411013007775520
  0
LINE
  8
0
  6
CONTINUOUS
 62
3
 10
-469.124306976507460
 20
-125.805269530338870
 11
-462.447207674034530
 21
-119.128170227865950
  0
LINE
  8
0
  6
CONTINUOUS
 62
3
 10
-462.164364894125010
 20
-119.411013007775520
 11
-462.651168285830640
 21
-118.924209616069900
  0
LINE
  8
0
  6
CONTINUOUS
 62
3
 10
-468.811168367538700
 20
-126.057816481189200
 11
-469.297971759244320
 21
-125.571013089483580
  0
LINE
  8
0
  6
DASHDOT
 62
4
 10
-573.097887058809870
 20
-169.827726371506260
 11
-264.671260940637010
 21
-169.827726371506800
  0
LINE
  8
0
  6
DASHDOT
 62
4
 10
-418.394455003807930
 20
-319.162174415445750
 11
-418.394455003807930
 21
-4.420540618537764
  0
LINE
  8
0
  6
DASHDOT
 62
4
 10
-390.555130710441740
 20
-162.327726371507990
 11
-446.448199068703840
 21
-162.327726371507990
  0
ARC
  8
0
  6
DASHDOT
 62
4
 10
-418.394455003808390
 20
-162.327726371508450
 40
169.999999999999940
 50
309.197472993147980
 51
320.505602321965060
  0
LINE
  8
0
  6
DASHDOT
 62
4
 10
-310.469248602854010
 20
-270.252932772445380
 11
-284.357758842780870
 21
-296.364422532514370
  0
LINE
  8
0
  6
DASHDOT
 62
4
 10
-526.035726393595950
 20
-269.968997761312950
 11
-552.313672312250450
 21
-296.246943679971760
  0
ARC
  8
0
  6
DASHDOT
 62
4
 10
-418.394455003808390
 20
-162.327726371507990
 40
170.000000000000000
 50
219.214155039136780
 51
230.868862927009620
  0
LINE
  8
0
  6
DASHDOT
 62
4
 10
-526.580684797225330
 20
-54.141496578107251
 11
-552.431151164835000
 21
-28.291030210501624
  0
ARC
  8
0
  6
DASHDOT
 62
4
 10
-418.394455003807930
 20
-162.327726371507990
 40
169.999999999999910
 50
129.269696474314600
 51
140.661103668020840
  0
LINE
  8
0
  6
DASHDOT
 62
4
 10
-311.943149736199980
 20
-55.876421103916392
 11
-284.357758842780870
 21
-28.291030210501624
  0
ARC
  8
0
  6
DASHDOT
 62
4
 10
-418.394455003807930
 20
-162.327726371507990
 40
169.999999999999860
 50
39.533642170253138
 51
50.893481665567094
  0
TEXT
  8
0
  6
CONTINUOUS
 62
3
 10
-482.923492431640620
 20
208.281646728515620
 40
12.458159446716309
  1
Ｓ１４８
 50
0.000002504478167
 41
0.984848589235091
  7
STANDARD1
  0
TEXT
  8
0
  6
CONTINUOUS
 62
3
 10
-482.923492431640620
 20
188.273086547851560
 40
12.458159446716309
  1
三菱ギヤードモートル
 50
0.000002504478167
 41
0.984848589235090
  7
STANDARD1
  0
TEXT
  8
0
  6
CONTINUOUS
 62
3
 10
-482.923492431640620
 20
168.264526367187500
 40
12.458159446716309
  1
ＧＭ－ＳＦＳ
 50
0.000002504478167
 41
0.984848589235091
  7
STANDARD1
  0
TEXT
  8
0
  6
CONTINUOUS
 62
3
 10
-482.923492431640620
 20
148.255966186523440
 40
12.458159446716309
  1
０．２ｋＷ
 50
0.000002504478167
 41
0.984848589235090
  7
STANDARD1
  0
TEXT
  8
0
  6
CONTINUOUS
 62
3
 10
-482.923492431640620
 20
128.247406005859380
 40
12.458159446716309
  1
１／５４０～１／９００
 50
0.000002504478167
 41
0.984848589235091
  7
STANDARD1
  0
TEXT
  8
0
  6
CONTINUOUS
 62
3
 10
-482.923492431640620
 20
108.238845825195310
 40
12.458159446716309
  1
ＳＣＡＬＥ１／１
 50
0.000002504478167
 41
0.984848589235091
  7
STANDARD1
  0
ARC
  8
0
  6
CONTINUOUS
 62
3
 10
244.325949669269220
 20
151.126509457541970
 40
0.399999999999636
 50
270.000000000000000
 51
0.000000000000000
  0
LINE
  8
0
  6
CONTINUOUS
 62
3
 10
244.725949669269310
 20
170.726509457542330
 11
244.725949669269310
 21
147.726509457542330
  0
LINE
  8
0
  6
CONTINUOUS
 62
3
 10
244.725949669269310
 20
170.726509457542330
 11
244.725949669269310
 21
190.326509457541790
  0
ARC
  8
0
  6
CONTINUOUS
 62
3
 10
244.325949669269220
 20
190.326509457541790
 40
0.400000000000091
 50
0.000000000000000
 51
90.000000000000000
  0
LINE
  8
0
  6
DASHDOT
 62
4
 10
265.033692608789120
 20
-162.327726371506710
 11
577.031135353597390
 21
-162.327726371506710
  0
LINE
  8
0
  6
CONTINUOUS
 62
3
 10
299.211143252363170
 20
-165.577726371506710
 11
363.898800511370380
 21
-165.577726371506710
  0
LINE
  8
0
  6
CONTINUOUS
 62
3
 10
299.211143252363170
 20
-159.077726371506710
 11
363.898800511370380
 21
-159.077726371506710
  0
LINE
  8
0
  6
DASHDOT
 62
4
 10
376.223496502517950
 20
-169.827726371506940
 11
462.878491937191710
 21
-169.827726371506940
  0
LINE
  8
0
  6
CONTINUOUS
 62
3
 10
281.548949032591510
 20
-167.327726371506710
 11
281.781028238235420
 21
-167.327726371506710
  0
LINE
  8
0
  6
CONTINUOUS
 62
3
 10
281.548949032591510
 20
-157.327726371506710
 11
281.781028238235420
 21
-157.327726371506710
  0
LINE
  8
0
  6
CONTINUOUS
 62
3
 10
305.360630816889400
 20
-170.577726371506710
 11
305.360630816889400
 21
-208.372934213654590
  0
LINE
  8
0
  6
CONTINUOUS
 62
3
 10
534.003097895010110
 20
-76.157848756534321
 11
558.084482938524390
 21
-52.076463713016416
  0
LINE
  8
0
  6
CONTINUOUS
 62
3
 10
279.548949032591510
 20
-292.327726371506740
 11
279.548949032591510
 21
-32.327726371506721
  0
LINE
  8
0
  6
CONTINUOUS
 62
3
 10
533.737267248293160
 20
-170.577726371506940
 11
533.737267248293160
 21
-208.372934213654590
  0
LINE
  8
0
  6
CONTINUOUS
 62
3
 10
539.886754812819620
 20
-159.077726371506710
 11
475.199097553812410
 21
-159.077726371506710
  0
LINE
  8
0
  6
CONTINUOUS
 62
3
 10
539.886754812819620
 20
-165.577726371506710
 11
475.199097553812410
 21
-165.577726371506710
  0
LINE
  8
0
  6
CONTINUOUS
 62
3
 10
416.298949032591510
 20
-41.989920591278384
 11
416.298949032591510
 21
-106.677577850285810
  0
LINE
  8
0
  6
CONTINUOUS
 62
3
 10
422.798949032591510
 20
-41.989920591278384
 11
422.798949032591510
 21
-106.677577850285810
  0
LINE
  8
0
  6
CONTINUOUS
 62
3
 10
404.548949032591510
 20
-156.327726371506710
 11
404.548949032591510
 21
-168.327726371506710
  0
LINE
  8
0
  6
CONTINUOUS
 62
3
 10
396.548949032591510
 20
-156.327726371506710
 11
396.548949032591510
 21
-168.327726371506710
  0
CIRCLE
  8
0
  6
CONTINUOUS
 62
3
 10
419.548949032591510
 20
-162.327726371506710
 40
123.500000000000000
  0
ARC
  8
0
  6
CONTINUOUS
 62
3
 10
381.272870309955810
 20
-237.100326952325280
 40
44.000000000000121
 50
111.461978362654540
 51
171.603097720444280
  0
ARC
  8
0
  6
CONTINUOUS
 62
3
 10
387.548949032591510
 20
-163.563300641116230
 40
82.197605165243203
 50
94.422377585978424
 51
172.942004709553000
  0
ARC
  8
0
  6
CONTINUOUS
 62
3
 10
381.272870309955810
 20
-237.100326952325280
 40
50.500000000000078
 50
111.298869871463080
 51
165.196482760921950
  0
ARC
  8
0
  6
CONTINUOUS
 62
3
 10
419.548949032591510
 20
-162.327726371506710
 40
41.000000000000000
 50
0.000000000000000
 51
180.000000000000000
  0
ARC
  8
0
  6
CONTINUOUS
 62
3
 10
359.297282685771730
 20
-180.732574215748830
 40
10.000000000000039
 50
291.298869871463920
 51
16.986140903216128
  0
ARC
  8
0
  6
CONTINUOUS
 62
3
 10
361.515149515979830
 20
-186.844655938724340
 40
9.999999999999874
 50
291.461978362654920
 51
22.902088473504499
  0
CIRCLE
  8
0
  6
CONTINUOUS
 62
3
 10
419.548949032591510
 20
-162.327726371506710
 40
53.000013664587186
  0
ARC
  8
0
  6
CONTINUOUS
 62
3
 10
363.898800511370380
 20
-156.077726371506710
 40
3.000000000000000
 50
270.000000000000000
 51
353.592032960371110
  0
ARC
  8
0
  6
CONTINUOUS
 62
3
 10
363.898800511370380
 20
-168.577726371506710
 40
3.000000000000179
 50
6.407967039624588
 51
90.000000000000000
  0
ARC
  8
0
  6
CONTINUOUS
 62
3
 10
419.548949032591510
 20
-162.327726371506710
 40
134.999999999999830
 50
183.323357673986610
 51
213.059456039395680
  0
ARC
  8
0
  6
CONTINUOUS
 62
3
 10
419.548949032591510
 20
-162.327726371506710
 40
135.000000000000030
 50
3.323357673986484
 51
33.059456039395677
  0
ARC
  8
0
  6
CONTINUOUS
 62
3
 10
281.548949032591510
 20
-165.327726371506710
 40
2.000000000000000
 50
180.000000000000000
 51
270.000000000000000
  0
ARC
  8
0
  6
CONTINUOUS
 62
3
 10
281.781028238235420
 20
-170.327726371506940
 40
3.000000000000096
 50
3.323357673986185
 51
90.000000000000000
  0
ARC
  8
0
  6
CONTINUOUS
 62
3
 10
281.548949032591510
 20
-159.327726371506710
 40
2.000000000000000
 50
90.000000000000000
 51
180.000000000000000
  0
ARC
  8
0
  6
CONTINUOUS
 62
3
 10
322.781004119267210
 20
-221.642267904353700
 40
10.000000000000037
 50
211.506485838553940
 51
345.196482760921980
  0
ARC
  8
0
  6
CONTINUOUS
 62
3
 10
419.548949032591510
 20
-162.327726371506710
 40
41.000000000000000
 50
180.000000000000000
 51
0.000000000000000
  0
ARC
  8
0
  6
CONTINUOUS
 62
3
 10
419.548949032591510
 20
-577.327726371506740
 40
497.197605165242980
 50
90.960411656887317
 51
94.422377585978097
  0
ARC
  8
0
  6
CONTINUOUS
 62
3
 10
419.548949032591510
 20
-162.327726371506710
 40
31.000000000000000
 50
0.000000000000000
 51
180.000000000000000
  0
ARC
  8
0
  6
CONTINUOUS
 62
3
 10
419.548949032591510
 20
-162.327726371506710
 40
31.000000000000000
 50
180.000000000000000
 51
0.000000000000000
  0
ARC
  8
0
  6
CONTINUOUS
 62
3
 10
419.548949032591510
 20
-162.327726371506710
 40
135.000000000000260
 50
326.940543960613130
 51
356.676642326013450
  0
ARC
  8
0
  6
CONTINUOUS
 62
3
 10
541.074165706876330
 20
-83.228916568399171
 40
10.000000000000082
 50
135.000000000005510
 51
213.059456039395710
  0
ARC
  8
0
  6
CONTINUOUS
 62
3
 10
419.548949032591280
 20
-577.327726371506740
 40
497.197605165242980
 50
85.577622414021931
 51
89.039588343112683
  0
ARC
  8
0
  6
CONTINUOUS
 62
3
 10
427.798949032591510
 20
-85.199267500857303
 40
4.999999999999934
 50
89.039588343113039
 51
180.000000000000000
  0
ARC
  8
0
  6
CONTINUOUS
 62
3
 10
451.548949032591280
 20
-163.563300641116230
 40
82.197605165243033
 50
7.057995290447003
 51
85.577622414021747
  0
ARC
  8
0
  6
CONTINUOUS
 62
3
 10
298.023732358293960
 20
-83.228916568418271
 40
10.000000000000053
 50
326.940543960613700
 51
45.000000000001855
  0
ARC
  8
0
  6
CONTINUOUS
 62
3
 10
327.851737913846820
 20
-229.214731634445090
 40
10.000000000000107
 50
216.108259096316600
 51
351.603097720444510
  0
ARC
  8
0
  6
CONTINUOUS
 62
3
 10
528.161572822829160
 20
-154.077726371506940
 40
5.000000000000000
 50
270.000000000000000
 51
7.057995290449153
  0
ARC
  8
0
  6
CONTINUOUS
 62
3
 10
419.548949032591510
 20
-162.327726371506710
 40
134.999999999999740
 50
146.940543960613410
 51
176.676642326013510
  0
ARC
  8
0
  6
CONTINUOUS
 62
3
 10
528.737267248293160
 20
-208.372934213654590
 40
5.000000000000118
 50
337.134627072876410
 51
0.000000000000000
  0
ARC
  8
0
  6
CONTINUOUS
 62
3
 10
472.205658838868200
 20
-196.914900787982760
 40
9.999999999999941
 50
146.701382572444940
 51
241.540294027493160
  0
ARC
  8
0
  6
CONTINUOUS
 62
3
 10
448.140358419652560
 20
-241.312100201153920
 40
34.000000000000107
 50
348.145311946518920
 51
62.705659254348859
  0
ARC
  8
0
  6
CONTINUOUS
 62
3
 10
448.140358419652560
 20
-241.312100201153920
 40
40.499999999999986
 50
357.185211996778430
 51
61.540294027493751
  0
ARC
  8
0
  6
CONTINUOUS
 62
3
 10
468.317076792166290
 20
-202.210948866234470
 40
10.000000000000023
 50
140.723243944674460
 51
242.705659254349090
  0
ARC
  8
0
  6
CONTINUOUS
 62
3
 10
528.737267248293160
 20
-170.577726371506940
 40
5.000000000000000
 50
0.000000000000000
 51
90.000000000000000
  0
ARC
  8
0
  6
CONTINUOUS
 62
3
 10
411.298949032591510
 20
-85.199267500857303
 40
5.000000000000000
 50
0.000000000000000
 51
90.960411656889562
  0
ARC
  8
0
  6
CONTINUOUS
 62
3
 10
539.886754812819620
 20
-156.077726371506710
 40
3.000000000000000
 50
270.000000000000000
 51
2.973106860036494
  0
ARC
  8
0
  6
CONTINUOUS
 62
3
 10
539.886754812819620
 20
-168.577726371506710
 40
2.999999999999917
 50
357.026893139963530
 51
90.000000000000000
  0
ARC
  8
0
  6
CONTINUOUS
 62
3
 10
475.199097553812410
 20
-168.577726371506940
 40
3.000000000000227
 50
90.000000000000000
 51
173.592032960374920
  0
ARC
  8
0
  6
CONTINUOUS
 62
3
 10
475.199097553812410
 20
-156.077726371506710
 40
2.999999999999978
 50
186.407967039629400
 51
270.000000000000000
  0
ARC
  8
0
  6
CONTINUOUS
 62
3
 10
310.360630816889620
 20
-208.372934213654590
 40
5.000000000000227
 50
180.000000000000000
 51
202.865372927123560
  0
ARC
  8
0
  6
CONTINUOUS
 62
3
 10
425.798949032591510
 20
-106.677577850285810
 40
3.000000000000000
 50
180.000000000000000
 51
263.592032960370600
  0
ARC
  8
0
  6
CONTINUOUS
 62
3
 10
310.360630816889400
 20
-170.577726371506710
 40
5.000000000000000
 50
90.000000000000000
 51
180.000000000000000
  0
ARC
  8
0
  6
CONTINUOUS
 62
3
 10
299.211143252363170
 20
-168.577726371506710
 40
3.000000000000000
 50
90.000000000000000
 51
182.973106860036270
  0
ARC
  8
0
  6
CONTINUOUS
 62
3
 10
413.298949032591510
 20
-106.677577850285810
 40
2.999999999999952
 50
276.407967039625080
 51
0.000000000000000
  0
ARC
  8
0
  6
CONTINUOUS
 62
3
 10
299.211143252363170
 20
-156.077726371506710
 40
3.000000000000144
 50
177.026893139963730
 51
270.000000000000000
  0
ARC
  8
0
  6
CONTINUOUS
 62
3
 10
310.936325242353860
 20
-154.077726371506710
 40
5.000000000000173
 50
172.942004709554080
 51
270.000000000000000
  0
ARC
  8
0
  6
CONTINUOUS
 62
3
 10
419.548949032591510
 20
-162.327726371506710
 40
20.000000000000000
 50
197.457608829573300
 51
162.542396876277930
  0
CIRCLE
  8
0
  6
CONTINUOUS
 62
3
 10
419.548949032591510
 20
-162.327726371506710
 40
31.000000000000057
  0
ARC
  8
0
  6
CONTINUOUS
 62
3
 10
419.548949032591510
 20
-162.327726371506710
 40
31.000000000000256
 50
70.008590721901967
 51
180.000000000000000
  0
CIRCLE
  8
0
  6
CONTINUOUS
 62
4
 10
419.548949032591510
 20
-162.327726371506710
 40
4.000000000000000
  0
CIRCLE
  8
0
  6
CONTINUOUS
 62
3
 10
419.548949032591510
 20
-162.327726371506710
 40
3.324999999999989
  0
ARC
  8
0
  6
CONTINUOUS
 62
3
 10
281.781028238235420
 20
-154.327726371506710
 40
3.000000000000000
 50
270.000000000000000
 51
356.676642326013850
  0
CIRCLE
  8
0
  6
CONTINUOUS
 62
3
 10
419.548949032591510
 20
-162.327726371506710
 40
130.000000000000000
  0
LINE
  8
0
  6
DASHDOT
 62
4
 10
419.548949032591510
 20
-324.781720917379520
 11
419.548949032591510
 21
-13.358132858697424
  0
ARC
  8
0
  6
DASHED
 62
3
 10
496.848949032591460
 20
-143.870226371506960
 40
18.799999999999983
 50
100.598785266066050
 51
180.000000000000000
  0
ARC
  8
0
  6
DASHED
 62
3
 10
493.023194398504530
 20
-123.425089994369240
 40
1.999999999999958
 50
280.598785266065990
 51
2.862405226112724
  0
ARC
  8
0
  6
DASHED
 62
3
 10
498.616207496220340
 20
-123.145439339483430
 40
1.999999999999927
 50
182.862405226112710
 51
265.126025186159040
  0
LINE
  8
0
  6
DASHED
 62
3
 10
495.350820524274700
 20
-113.907656205171710
 11
500.444457452551660
 21
-215.780394770711810
  0
ARC
  8
0
  6
DASHED
 62
3
 10
496.848949032591460
 20
-143.870226371506960
 40
18.799999999999933
 50
35.808626813495749
 51
85.126025186157264
  0
LINE
  8
0
  6
DASHED
 62
3
 10
496.149822395376990
 20
-113.867706111616570
 11
494.551818653172400
 21
-113.947606298726750
  0
ARC
  8
0
  6
DASHED
 62
3
 10
490.007495892271440
 20
-119.181068535396860
 40
8.999999999999948
 50
346.260856815786500
 51
19.463936333592187
  0
LINE
  8
0
  6
DASHED
 62
3
 10
496.224728820792280
 20
-115.365834619933220
 11
496.574292139399400
 21
-122.357100992078100
  0
LINE
  8
0
  6
DASHED
 62
3
 10
496.224728820792280
 20
-115.365834619933220
 11
496.574292139399400
 21
-122.357100992078100
  0
LINE
  8
0
  6
DASHED
 62
3
 10
496.574292139399400
 20
-122.357100992078100
 11
497.552095951907180
 21
-122.308210801452750
  0
LINE
  8
0
  6
DASHED
 62
3
 10
496.224728820792280
 20
-115.365834619933220
 11
497.202532633299820
 21
-115.316944429307880
  0
ARC
  8
0
  6
DASHED
 62
3
 10
497.487177087979490
 20
-121.009833522899120
 40
1.299999237060550
 50
272.862387240019760
 51
346.260856815788600
  0
ARC
  8
0
  6
DASHED
 62
3
 10
497.267451497227510
 20
-116.615321707861390
 40
1.299999237060645
 50
19.463936333587132
 51
92.862405909348169
  0
LINE
  8
0
  6
DASHED
 62
3
 10
496.149822395376990
 20
-113.867706111616570
 11
501.243459323653950
 21
-215.740444677156550
  0
LINE
  8
0
  6
DASHED
 62
3
 10
494.551818653172400
 20
-113.947606298726750
 11
499.645455581449370
 21
-215.820344864267530
  0
LINE
  8
0
  6
DASHED
 62
3
 10
519.545208384212400
 20
-181.795413403925950
 11
515.555183446556380
 21
-141.994914650808680
  0
LINE
  8
0
  6
DASHED
 62
3
 10
478.048949032591510
 20
-183.870226371506960
 11
478.048949032591510
 21
-143.870226371506960
  0
ARC
  8
0
  6
DASHED
 62
3
 10
496.848949032591460
 20
-143.870226371506960
 40
18.799999999999837
 50
5.724810452223617
 51
35.808626813495749
  0
ARC
  8
0
  6
DASHED
 62
3
 10
498.848949032591460
 20
-183.870226371506960
 40
20.799999999999926
 50
334.359929784105190
 51
5.724810452223396
  0
ARC
  8
0
  6
DASHED
 62
3
 10
498.848949032591460
 20
-183.870226371506960
 40
20.800000000000040
 50
279.916536608230560
 51
334.359929784105190
  0
ARC
  8
0
  6
DASHED
 62
3
 10
498.848949032591460
 20
-183.870226371506960
 40
20.799999999999926
 50
334.359929784105190
 51
5.724810452223396
  0
ARC
  8
0
  6
DASHED
 62
3
 10
497.182401766207930
 20
-206.609237348436270
 40
1.999999999999927
 50
2.862405226112724
 51
85.808273843998350
  0
ARC
  8
0
  6
DASHED
 62
3
 10
502.775414863923740
 20
-206.329586693550450
 40
1.999999999999995
 50
99.916536608232732
 51
182.862405226112400
  0
ARC
  8
0
  6
DASHED
 62
3
 10
498.848949032591460
 20
-183.870226371506960
 40
20.799999999999955
 50
180.000000000000000
 51
265.808273843992540
  0
INSERT
  8
0
  2
SYM27
 10
500.993771238934870
 20
-210.746682982767400
 41
-1.000000000000000
 42
1.000000000000000
 43
1.000000000000000
 50
2.862405226113666
  0
LINE
  8
0
  6
DASHED
 62
3
 10
499.645455581449370
 20
-215.820344864267530
 11
501.243459323653950
 21
-215.740444677156550
  0
ARC
  8
0
  6
DASHED
 62
3
 10
365.748949032591330
 20
-149.527726371506990
 40
0.200000000000045
 50
90.000000000000000
 51
180.000000000000000
  0
ARC
  8
0
  6
DASHED
 62
3
 10
632.548949032591510
 20
-169.827726371506940
 40
300.000000000000170
 50
175.138594604201960
 51
180.000000000000000
  0
ARC
  8
0
  6
DASHED
 62
3
 10
338.610179898609890
 20
-144.827726371506940
 40
5.000000000000000
 50
90.000000000000000
 51
175.138594604201390
  0
LINE
  8
0
  6
DASHED
 62
3
 10
362.048949032591510
 20
-201.327726371506940
 11
362.048949032591510
 21
-138.327726371506940
  0
LINE
  8
0
  6
DASHED
 62
3
 10
367.048949032591510
 20
-138.327726371506940
 11
362.048949032591510
 21
-138.327726371506940
  0
LINE
  8
0
  6
DASHED
 62
3
 10
365.548949032591510
 20
-169.827726371506940
 11
365.548949032591510
 21
-149.527726371506990
  0
LINE
  8
0
  6
DASHED
 62
3
 10
367.048949032591510
 20
-149.327726371506940
 11
365.748949032591330
 21
-149.327726371506940
  0
LINE
  8
0
  6
DASHED
 62
3
 10
367.048949032591510
 20
-149.327726371506940
 11
367.048949032591510
 21
-138.327726371506940
  0
LINE
  8
0
  6
DASHED
 62
3
 10
338.610179898609890
 20
-139.827726371506940
 11
362.048949032591510
 21
-139.827726371506940
  0
ARC
  8
0
  6
DASHED
 62
3
 10
632.548949032591510
 20
-169.827726371506940
 40
300.000000000000000
 50
180.000000000000000
 51
184.861405395798040
  0
LINE
  8
0
  6
DASHED
 62
3
 10
332.048949032591510
 20
-172.327726371506940
 11
332.048949032591510
 21
-167.327726371506940
  0
LINE
  8
0
  6
DASHED
 62
3
 10
332.048949032591510
 20
-172.327726371506940
 11
332.559365880109230
 21
-172.327726371506940
  0
LINE
  8
0
  6
DASHED
 62
3
 10
332.048949032591510
 20
-167.327726371506940
 11
332.559365880109230
 21
-167.327726371506940
  0
ARC
  8
0
  6
DASHED
 62
3
 10
365.748949032591330
 20
-190.127726371506900
 40
0.199999999999818
 50
180.000000000000000
 51
270.000000000000000
  0
ARC
  8
0
  6
DASHED
 62
3
 10
338.610179898609890
 20
-194.827726371506940
 40
4.999999999999893
 50
184.861405395798610
 51
270.000000000000000
  0
LINE
  8
0
  6
DASHED
 62
3
 10
367.048949032591510
 20
-201.327726371506940
 11
362.048949032591510
 21
-201.327726371506940
  0
LINE
  8
0
  6
DASHED
 62
3
 10
367.048949032591510
 20
-190.327726371506940
 11
367.048949032591510
 21
-201.327726371506940
  0
LINE
  8
0
  6
DASHED
 62
3
 10
365.548949032591510
 20
-169.827726371506940
 11
365.548949032591510
 21
-190.127726371506900
  0
LINE
  8
0
  6
DASHED
 62
3
 10
367.048949032591510
 20
-190.327726371506940
 11
365.748949032591330
 21
-190.327726371506940
  0
LINE
  8
0
  6
DASHED
 62
3
 10
338.610179898609890
 20
-199.827726371506940
 11
362.048949032591510
 21
-199.827726371506940
  0
LINE
  8
0
  6
CONTINUOUS
 62
3
 10
305.094800170159260
 20
-76.157848756552511
 11
281.013415126658860
 21
-52.076463713055524
  0
ARC
  8
0
  6
CONTINUOUS
 62
3
 10
244.325949669269220
 20
-142.727740036094450
 40
0.400000000000091
 50
0.000000000000000
 51
90.000000000000000
  0
ARC
  8
0
  6
CONTINUOUS
 62
3
 10
244.325949669269220
 20
-181.927740036094260
 40
0.399999999999636
 50
270.000000000000000
 51
0.000000000000000
  0
ARC
  8
0
  6
CONTINUOUS
 62
3
 10
425.798949032591510
 20
-41.989920591278384
 40
2.999999999999690
 50
87.026893139963278
 51
180.000000000000000
  0
ARC
  8
0
  6
CONTINUOUS
 62
3
 10
413.298949032591510
 20
-41.989920591278384
 40
3.000000000000000
 50
0.000000000000000
 51
92.973106860036722
  0
ARC
  8
0
  6
CONTINUOUS
 62
3
 10
491.201915602483270
 20
-250.351032272466880
 40
10.000000000000044
 50
168.145311946518550
 51
309.146370585137620
  0
ARC
  8
0
  6
CONTINUOUS
 62
3
 10
498.579429966646100
 20
-243.792031949668370
 40
10.000000000000245
 50
177.185211996777720
 51
314.131204225173580
  0
ARC
  8
0
  6
CONTINUOUS
 62
3
 10
289.548949032591510
 20
-292.327726371506740
 40
10.000000000000000
 50
180.000000000000000
 51
270.000000000000000
  0
CIRCLE
  8
0
  6
CONTINUOUS
 62
3
 10
299.340796230888150
 20
-282.535879173229660
 40
9.500000000000000
  0
ARC
  8
0
  6
CONTINUOUS
 62
3
 10
298.023732358306230
 20
-241.426536174614260
 40
10.000000000000401
 50
315.000000000003640
 51
33.059456039395712
  0
ARC
  8
0
  6
CONTINUOUS
 62
3
 10
340.450139229502610
 20
-283.852943045804300
 40
10.000000000000053
 50
56.940543960613702
 51
135.000000000001820
  0
ARC
  8
0
  6
CONTINUOUS
 62
3
 10
486.548949032591510
 20
-297.327726371506740
 40
12.920504033735240
 50
301.640102641906310
 51
337.233171499442110
  0
ARC
  8
0
  6
CONTINUOUS
 62
3
 10
486.548949032591510
 20
-297.327726371506740
 40
12.920504033735355
 50
231.330182039103220
 51
238.359897358093660
  0
ARC
  8
0
  6
CONTINUOUS
 62
3
 10
419.548949032591510
 20
-162.327726371506710
 40
135.000000000000030
 50
236.940543960613270
 51
303.059456039395510
  0
ARC
  8
0
  6
CONTINUOUS
 62
3
 10
498.647758835698600
 20
-283.852943045792020
 40
10.000000000000401
 50
45.000000000003688
 51
123.059456039393490
  0
ARC
  8
0
  6
CONTINUOUS
 62
3
 10
549.548949032591510
 20
-292.327726371506740
 40
10.000000000000000
 50
270.000000000000000
 51
0.000000000000000
  0
CIRCLE
  8
0
  6
CONTINUOUS
 62
3
 10
539.757101834314430
 20
-282.535879173210560
 40
9.500000000000000
  0
ARC
  8
0
  6
DASHDOT
 62
4
 10
419.548949032591050
 20
-162.327726371507170
 40
169.999999999999970
 50
309.197472993147980
 51
320.505602321965060
  0
ARC
  8
0
  6
CONTINUOUS
 62
3
 10
541.074165706888610
 20
-241.426536174595610
 40
10.000000000000053
 50
146.940543960613670
 51
225.000000000003690
  0
ARC
  8
0
  6
CONTINUOUS
 62
3
 10
289.548949032591510
 20
-32.327726371506721
 40
10.000000000000000
 50
90.000000000000000
 51
180.000000000000000
  0
CIRCLE
  8
0
  6
CONTINUOUS
 62
3
 10
299.340796230869050
 20
-42.119573569803357
 40
9.500000000000000
  0
ARC
  8
0
  6
CONTINUOUS
 62
3
 10
340.450139229483970
 20
-40.802509697221900
 40
10.000000000000401
 50
225.000000000003690
 51
303.059456039395680
  0
ARC
  8
0
  6
DASHDOT
 62
4
 10
419.548949032591510
 20
-162.327726371506710
 40
169.999999999999970
 50
129.269696474314660
 51
140.661103668020840
  0
ARC
  8
0
  6
CONTINUOUS
 62
3
 10
419.548949032591510
 20
-162.327726371506710
 40
135.000000000000000
 50
56.940543960613276
 51
123.059456039395760
  0
ARC
  8
0
  6
CONTINUOUS
 62
3
 10
549.548949032591510
 20
-32.327726371506721
 40
10.000000000000000
 50
0.000000000000000
 51
90.000000000000000
  0
CIRCLE
  8
0
  6
CONTINUOUS
 62
3
 10
539.757101834295330
 20
-42.119573569784258
 40
9.500000000000000
  0
ARC
  8
0
  6
CONTINUOUS
 62
3
 10
498.647758835679950
 20
-40.802509697209622
 40
10.000000000000053
 50
236.940543960613670
 51
315.000000000003640
  0
ARC
  8
0
  6
CONTINUOUS
 62
3
 10
533.335745596975580
 20
-27.327726371506721
 40
5.000000000000000
 50
90.000000000000000
 51
135.000000000003670
  0
ARC
  8
0
  6
CONTINUOUS
 62
3
 10
554.548949032591510
 20
-48.540929807083991
 40
4.999999999999879
 50
315.000000000003640
 51
0.000000000000000
  0
ARC
  8
0
  6
CONTINUOUS
 62
3
 10
305.762152468168320
 20
-27.327726371506721
 40
4.999999999999879
 50
45.000000000003688
 51
90.000000000000000
  0
ARC
  8
0
  6
CONTINUOUS
 62
3
 10
352.548949032591280
 20
-297.327726371506740
 40
12.920504033735304
 50
300.889832511576690
 51
308.669817960896750
  0
ARC
  8
0
  6
CONTINUOUS
 62
3
 10
352.548949032591280
 20
-297.327726371506740
 40
12.920504033734950
 50
202.766828500557860
 51
239.110167488423290
  0
ARC
  8
0
  6
CONTINUOUS
 62
3
 10
284.548949032591510
 20
-48.540929807122644
 40
5.000000000000000
 50
180.000000000000000
 51
225.000000000003690
  0
ARC
  8
0
  6
CONTINUOUS
 62
3
 10
557.316869826947370
 20
-170.327726371506940
 40
3.000000000000000
 50
90.000000000000000
 51
176.676642326013820
  0
ARC
  8
0
  6
CONTINUOUS
 62
3
 10
284.548949032591510
 20
-276.114522935929930
 40
5.000000000000041
 50
135.000000000005510
 51
180.000000000000000
  0
ARC
  8
0
  6
CONTINUOUS
 62
3
 10
305.762152468207200
 20
-297.327726371506740
 40
5.000000000000000
 50
270.000000000000000
 51
315.000000000003640
  0
ARC
  8
0
  6
CONTINUOUS
 62
3
 10
533.335745597014240
 20
-297.327726371506740
 40
5.000000000000041
 50
225.000000000005540
 51
270.000000000000000
  0
ARC
  8
0
  6
CONTINUOUS
 62
3
 10
554.548949032591510
 20
-276.114522935891050
 40
5.000000000000000
 50
0.000000000000000
 51
45.000000000003688
  0
ARC
  8
0
  6
CONTINUOUS
 62
3
 10
554.548949032591510
 20
-48.540929807083991
 40
4.999999999999879
 50
315.000000000003640
 51
0.000000000000000
  0
ARC
  8
0
  6
CONTINUOUS
 62
3
 10
533.335745596975580
 20
-27.327726371506721
 40
5.000000000000000
 50
90.000000000000000
 51
135.000000000003670
  0
ARC
  8
0
  6
CONTINUOUS
 62
3
 10
557.548949032591510
 20
-165.327726371506940
 40
2.000000000000000
 50
270.000000000000000
 51
0.000000000000000
  0
ARC
  8
0
  6
CONTINUOUS
 62
3
 10
557.316869826947370
 20
-154.327726371506710
 40
3.000000000000096
 50
183.323357673986180
 51
270.000000000000000
  0
ARC
  8
0
  6
CONTINUOUS
 62
3
 10
557.548949032591510
 20
-159.327726371506710
 40
2.000000000000000
 50
0.000000000000000
 51
90.000000000000000
  0
ARC
  8
0
  6
DASHDOT
 62
4
 10
419.548949032591510
 20
-162.327726371506710
 40
169.999999999999860
 50
39.533642170253138
 51
50.893481665567094
  0
ARC
  8
0
  6
DASHDOT
 62
4
 10
419.548949032591050
 20
-162.327726371506710
 40
170.000000000000000
 50
219.214155039136780
 51
230.868862927009620
  0
LINE
  8
0
  6
CONTINUOUS
 62
3
 10
244.725949669269310
 20
-162.327740036093900
 11
244.725949669269310
 21
-142.727740036094450
  0
LINE
  8
0
  6
CONTINUOUS
 62
3
 10
244.725949669269310
 20
-162.327740036093900
 11
244.725949669269310
 21
-181.927740036094260
  0
LINE
  8
0
  6
CONTINUOUS
 62
3
 10
305.094800170172450
 20
-248.497603986479560
 11
281.013415126658170
 21
-272.578989029997270
  0
LINE
  8
0
  6
CONTINUOUS
 62
3
 10
333.379071417636850
 20
-276.781875233938990
 11
309.297686374140310
 21
-300.863260277439390
  0
LINE
  8
0
  6
CONTINUOUS
 62
3
 10
289.548949032591510
 20
-302.327726371506740
 11
419.548949032591510
 21
-302.327726371506740
  0
LINE
  8
0
  6
CONTINUOUS
 62
3
 10
419.548949032591280
 20
-307.415534731688240
 11
478.475811663883860
 21
-307.415534731688240
  0
LINE
  8
0
  6
CONTINUOUS
 62
3
 10
505.718826647563900
 20
-276.781875233925800
 11
529.800211691081810
 21
-300.863260277440080
  0
LINE
  8
0
  6
CONTINUOUS
 62
3
 10
419.548949032591510
 20
-302.327726371506740
 11
549.548949032591510
 21
-302.327726371506740
  0
LINE
  8
0
  6
CONTINUOUS
 62
3
 10
559.548949032591510
 20
-292.327726371506740
 11
559.548949032591510
 21
-32.327726371506721
  0
LINE
  8
0
  6
CONTINUOUS
 62
3
 10
534.003097895023760
 20
-248.497603986461370
 11
558.084482938523710
 21
-272.578989029958170
  0
LINE
  8
0
  6
CONTINUOUS
 62
3
 10
333.379071417618660
 20
-47.873577509088115
 11
309.297686374100980
 21
-23.792192465573841
  0
LINE
  8
0
  6
CONTINUOUS
 62
3
 10
289.548949032591510
 20
-22.327726371506721
 11
549.548949032591510
 21
-22.327726371506721
  0
LINE
  8
0
  6
CONTINUOUS
 62
3
 10
505.718826647546170
 20
-47.873577509074927
 11
529.800211691042700
 21
-23.792192465574296
  0
LINE
  8
0
  6
CONTINUOUS
 62
3
 10
419.548949032591510
 20
-307.415534731688240
 11
360.622086401298930
 21
-307.415534731688240
  0
LINE
  8
0
  6
CONTINUOUS
 62
3
 10
557.548949032591510
 20
-167.327726371506940
 11
557.316869826947370
 21
-167.327726371506940
  0
LINE
  8
0
  6
CONTINUOUS
 62
3
 10
557.548949032591510
 20
-157.327726371506710
 11
557.316869826947370
 21
-157.327726371506710
  0
LINE
  8
0
  6
DASHDOT
 62
4
 10
527.474155433545430
 20
-270.252932772444130
 11
553.585645193618570
 21
-296.364422532513120
  0
LINE
  8
0
  6
DASHDOT
 62
4
 10
311.907677642803490
 20
-269.968997761311700
 11
285.629731724149000
 21
-296.246943679970510
  0
LINE
  8
0
  6
DASHDOT
 62
4
 10
526.000254300199460
 20
-55.876421103915114
 11
553.585645193618570
 21
-28.291030210500345
  0
LINE
  8
0
  6
DASHDOT
 62
4
 10
311.362719239174110
 20
-54.141496578105972
 11
285.512252871564440
 21
-28.291030210500345
  0
ENDSEC
  0
EOF
