  0
SECTION
  2
HEADER
  9
$FILLMODE
 70
1
  9
$TEXTSTYLE
  7
STANDARD1
  9
$ACADVER
  1
AC1009
  9
$DIMASZ
 40
1.931851648807023
  9
$DIMEXE
 40
2.000000000000000
  9
$DIMEXO
 40
1.000000000000000
  9
$DIMLFAC
 40
1.000000000000000
  9
$DIMSCALE
 40
1.000000000000000
  9
$DIMTAD
 70
1
  9
$DIMTFAC
 40
0.714285731315613
  9
$DIMTXT
 40
3.200000047683716
  9
$LUPREC
 70
3
  9
$TEXTSIZE
 40
3.299999952316284
  9
$REGENMODE
 70
1
  0
ENDSEC
  0
SECTION
  2
TABLES
  0
TABLE
  2
LTYPE
 70
4
  0
LTYPE
  2
CONTINUOUS
 70
64
  3
Solid line
 72
65
 73
0
 40
0.0
  0
LTYPE
  2
DASHED
 70
64
  3
-- -- -- -- -- -- -- -- -- -- -- -- -- -- --
 72
65
 73
2
 40
0.75
 49
0.5
 49
-0.25
  0
LTYPE
  2
DASHDOT
 70
64
  3
__ . __ . __ . __ . __ . __ . __ . __ . __ . __
 72
65
 73
4
 40
1.0
 49
0.5
 49
-0.25
 49
0.0
 49
-0.25
  0
LTYPE
  2
DIVIDE
 70
64
  3
__ . . __ . . __ . . __ . . __ . . __ . . __
 72
65
 73
6
 40
1.25
 49
0.5
 49
-0.25
 49
0.0
 49
-0.25
 49
0.0
 49
-0.25
  0
ENDTAB
  0
TABLE
  2
LAYER
 70
1
  0
LAYER
  2
0
 70
64
 62
2
  6
CONTINUOUS
  0
ENDTAB
  0
TABLE
  2
STYLE
 70
4
  0
STYLE
  2
STANDARD1
 70
64
 40
0.0
 41
1.0
 50
0.0
 71
0
 42
3.299999952316284
  3
MONOTXT
  4
BIGFONT
  0
STYLE
  2
STANDARD2
 70
68
 40
0.0
 41
1.0
 50
0.0
 71
0
 42
3.299999952316284
  3
MONOTXT
  4
BIGFONT
  0
STYLE
  2
STANDARD3
 70
64
 40
0.0
 41
1.0
 50
0.0
 71
0
 42
3.299999952316284
  3
MONOTXT
  4

  0
STYLE
  2
STANDARD4
 70
68
 40
0.0
 41
1.0
 50
0.0
 71
0
 42
3.299999952316284
  3
MONOTXT
  4

  0
ENDTAB
  0
TABLE
  2
VIEW
 70
0
  0
ENDTAB
  0
ENDSEC
  0
SECTION
  2
BLOCKS
  0
BLOCK
  8
0
  2
SYM1
 70
64
 10
0.000000000000000
 20
0.000000000000000
  0
POINT
  8
0
  6
CONTINUOUS
 62
3
 10
0.000000000000000
 20
0.000000000000000
  0
LINE
  8
0
  6
CONTINUOUS
 62
3
 10
0.000000000000000
 20
-6.500000000000000
 11
-0.000000000000000
 21
6.500000000000000
  0
LINE
  8
0
  6
CONTINUOUS
 62
3
 10
-7.999999046325684
 20
5.633875846862793
 11
-7.999999046325684
 21
-5.634070396423340
  0
LINE
  8
0
  6
CONTINUOUS
 62
3
 10
0.000000000000000
 20
6.500000000000000
 11
-7.499999046325684
 21
6.500000000000000
  0
LINE
  8
0
  6
CONTINUOUS
 62
3
 10
-0.000000000000000
 20
-6.500000000000000
 11
-7.499998092651367
 21
-6.500000000000000
  0
LINE
  8
0
  6
CONTINUOUS
 62
3
 10
-7.499999203818277
 20
6.499999909101064
 11
-7.999999021366804
 21
5.633876130311293
  0
LINE
  8
0
  6
CONTINUOUS
 62
3
 10
-7.499997911632022
 20
-6.499999445138201
 11
-7.999998623386432
 21
-5.634070287011241
  0
LINE
  8
0
  6
CONTINUOUS
 62
3
 10
-7.499999046325684
 20
6.500000000000000
 11
-7.499999046325684
 21
-6.500000000000000
  0
ENDBLK
  8
0
  0
BLOCK
  8
0
  2
SYM2
 70
64
 10
0.000000000000000
 20
0.000000000000000
  0
POINT
  8
0
  6
CONTINUOUS
 62
3
 10
0.000000000000000
 20
0.000000000000000
  0
LINE
  8
0
  6
CONTINUOUS
 62
3
 10
0.000000000000000
 20
-6.500000000000000
 11
-0.000000000000000
 21
6.500000000000000
  0
LINE
  8
0
  6
CONTINUOUS
 62
3
 10
-7.999999046325684
 20
5.633875846862793
 11
-7.999999046325684
 21
-5.634070396423340
  0
LINE
  8
0
  6
CONTINUOUS
 62
3
 10
0.000000000000000
 20
6.500000000000000
 11
-7.499999046325684
 21
6.500000000000000
  0
LINE
  8
0
  6
CONTINUOUS
 62
3
 10
-0.000000000000000
 20
-6.500000000000000
 11
-7.499998092651367
 21
-6.500000000000000
  0
LINE
  8
0
  6
CONTINUOUS
 62
3
 10
-7.499999203818277
 20
6.499999909101064
 11
-7.999999021366804
 21
5.633876130311293
  0
LINE
  8
0
  6
CONTINUOUS
 62
3
 10
-7.499997911632022
 20
-6.499999445138201
 11
-7.999998623386432
 21
-5.634070287011241
  0
LINE
  8
0
  6
CONTINUOUS
 62
3
 10
-7.499999046325684
 20
6.500000000000000
 11
-7.499999046325684
 21
-6.500000000000000
  0
ENDBLK
  8
0
  0
BLOCK
  8
0
  2
SYM3
 70
64
 10
0.000000000000000
 20
0.000000000000000
  0
POINT
  8
0
  6
CONTINUOUS
 62
3
 10
0.000000000000000
 20
0.000000000000000
  0
LINE
  8
0
  6
CONTINUOUS
 62
3
 10
0.000000000000000
 20
5.000000000000000
 11
0.000000000000000
 21
-5.000000000000000
  0
LINE
  8
0
  6
CONTINUOUS
 62
3
 10
-6.000000000000000
 20
-5.000000000000000
 11
-6.000000000000000
 21
5.000000000000000
  0
LINE
  8
0
  6
CONTINUOUS
 62
3
 10
0.000000000000000
 20
5.000000000000000
 11
-6.000000000000000
 21
5.000000000000000
  0
LINE
  8
0
  6
CONTINUOUS
 62
3
 10
-0.000000000000000
 20
-5.000000000000000
 11
-6.000000000000000
 21
-5.000000000000000
  0
ENDBLK
  8
0
  0
BLOCK
  8
0
  2
SYM4
 70
64
 10
0.000000000000000
 20
0.000000000000000
  0
POINT
  8
0
  6
CONTINUOUS
 62
3
 10
0.000000000000000
 20
0.000000000000000
  0
LINE
  8
0
  6
CONTINUOUS
 62
3
 10
0.000000000000000
 20
-6.500000000000000
 11
-0.000000000000000
 21
6.500000000000000
  0
LINE
  8
0
  6
CONTINUOUS
 62
3
 10
-7.999999046325684
 20
5.633875846862793
 11
-7.999999046325684
 21
-5.634070396423340
  0
LINE
  8
0
  6
CONTINUOUS
 62
3
 10
0.000000000000000
 20
6.500000000000000
 11
-7.499999046325684
 21
6.500000000000000
  0
LINE
  8
0
  6
CONTINUOUS
 62
3
 10
-0.000000000000000
 20
-6.500000000000000
 11
-7.499998092651367
 21
-6.500000000000000
  0
LINE
  8
0
  6
CONTINUOUS
 62
3
 10
-7.499999203818277
 20
6.499999909101064
 11
-7.999999021366804
 21
5.633876130311293
  0
LINE
  8
0
  6
CONTINUOUS
 62
3
 10
-7.499997911632022
 20
-6.499999445138201
 11
-7.999998623386432
 21
-5.634070287011241
  0
LINE
  8
0
  6
CONTINUOUS
 62
3
 10
-7.499999046325684
 20
6.500000000000000
 11
-7.499999046325684
 21
-6.500000000000000
  0
ENDBLK
  8
0
  0
BLOCK
  8
0
  2
SYM5
 70
64
 10
0.000000000000000
 20
0.000000000000000
  0
POINT
  8
0
  6
CONTINUOUS
 62
3
 10
0.000000000000000
 20
0.000000000000000
  0
LINE
  8
0
  6
CONTINUOUS
 62
3
 10
0.000000000000000
 20
5.000000000000000
 11
0.000000000000000
 21
-5.000000000000000
  0
LINE
  8
0
  6
CONTINUOUS
 62
3
 10
-6.000000000000000
 20
-5.000000000000000
 11
-6.000000000000000
 21
5.000000000000000
  0
LINE
  8
0
  6
CONTINUOUS
 62
3
 10
0.000000000000000
 20
5.000000000000000
 11
-6.000000000000000
 21
5.000000000000000
  0
LINE
  8
0
  6
CONTINUOUS
 62
3
 10
-0.000000000000000
 20
-5.000000000000000
 11
-6.000000000000000
 21
-5.000000000000000
  0
ENDBLK
  8
0
  0
BLOCK
  8
0
  2
SYM6
 70
64
 10
0.000000000000000
 20
0.000000000000000
  0
POINT
  8
0
  6
CONTINUOUS
 62
3
 10
0.000000000000000
 20
0.000000000000000
  0
LINE
  8
0
  6
CONTINUOUS
 62
3
 10
0.000000000000000
 20
-6.500000000000000
 11
-0.000000000000000
 21
6.500000000000000
  0
LINE
  8
0
  6
CONTINUOUS
 62
3
 10
-7.999999046325684
 20
5.633875846862793
 11
-7.999999046325684
 21
-5.634070396423340
  0
LINE
  8
0
  6
CONTINUOUS
 62
3
 10
0.000000000000000
 20
6.500000000000000
 11
-7.499999046325684
 21
6.500000000000000
  0
LINE
  8
0
  6
CONTINUOUS
 62
3
 10
-0.000000000000000
 20
-6.500000000000000
 11
-7.499998092651367
 21
-6.500000000000000
  0
LINE
  8
0
  6
CONTINUOUS
 62
3
 10
-7.499999203818277
 20
6.499999909101064
 11
-7.999999021366804
 21
5.633876130311293
  0
LINE
  8
0
  6
CONTINUOUS
 62
3
 10
-7.499997911632022
 20
-6.499999445138201
 11
-7.999998623386432
 21
-5.634070287011241
  0
LINE
  8
0
  6
CONTINUOUS
 62
3
 10
-7.499999046325684
 20
6.500000000000000
 11
-7.499999046325684
 21
-6.500000000000000
  0
ENDBLK
  8
0
  0
BLOCK
  8
0
  2
SYM7
 70
64
 10
0.000000000000000
 20
0.000000000000000
  0
POINT
  8
0
  6
CONTINUOUS
 62
3
 10
0.000000000000000
 20
0.000000000000000
  0
LINE
  8
0
  6
CONTINUOUS
 62
3
 10
0.000000000000000
 20
-6.500000000000000
 11
-0.000000000000000
 21
6.500000000000000
  0
LINE
  8
0
  6
CONTINUOUS
 62
3
 10
-7.999999046325684
 20
5.633875846862793
 11
-7.999999046325684
 21
-5.634070396423340
  0
LINE
  8
0
  6
CONTINUOUS
 62
3
 10
0.000000000000000
 20
6.500000000000000
 11
-7.499999046325684
 21
6.500000000000000
  0
LINE
  8
0
  6
CONTINUOUS
 62
3
 10
-0.000000000000000
 20
-6.500000000000000
 11
-7.499998092651367
 21
-6.500000000000000
  0
LINE
  8
0
  6
CONTINUOUS
 62
3
 10
-7.499999203818277
 20
6.499999909101064
 11
-7.999999021366804
 21
5.633876130311293
  0
LINE
  8
0
  6
CONTINUOUS
 62
3
 10
-7.499997911632022
 20
-6.499999445138201
 11
-7.999998623386432
 21
-5.634070287011241
  0
LINE
  8
0
  6
CONTINUOUS
 62
3
 10
-7.499999046325684
 20
6.500000000000000
 11
-7.499999046325684
 21
-6.500000000000000
  0
ENDBLK
  8
0
  0
BLOCK
  8
0
  2
SYM8
 70
64
 10
0.000000000000000
 20
0.000000000000000
  0
POINT
  8
0
  6
CONTINUOUS
 62
3
 10
0.000000000000000
 20
0.000000000000000
  0
LINE
  8
0
  6
CONTINUOUS
 62
3
 10
-0.000027060931608
 20
-5.749995231614290
 11
-3.250020760774497
 21
-5.749981880178368
  0
LINE
  8
0
  6
CONTINUOUS
 62
3
 10
-3.250024308998832
 20
-5.749987011620533
 11
-4.000020133420207
 21
-4.899982163000686
  0
LINE
  8
0
  6
CONTINUOUS
 62
3
 10
-4.000014781949545
 20
-4.899978112209579
 11
-3.999973773958658
 21
4.900011588107803
  0
LINE
  8
0
  6
CONTINUOUS
 62
3
 10
-3.999972830514309
 20
4.900008662670757
 11
-3.249970339875063
 21
5.750006850331147
  0
LINE
  8
0
  6
CONTINUOUS
 62
3
 10
-3.249972343459831
 20
5.750005722029982
 11
0.000027906669402
 21
5.749993324257003
  0
LINE
  8
0
  6
CONTINUOUS
 62
3
 10
0.000023687533422
 20
5.749999046325684
 11
-0.000023687533422
 21
-5.749999046325684
  0
LINE
  8
0
  6
CONTINUOUS
 62
3
 10
-3.250009052584916
 20
-2.899986267083180
 11
-0.000013285950788
 21
-2.899999618524636
  0
LINE
  8
0
  6
CONTINUOUS
 62
3
 10
-3.249984168999890
 20
2.900012016287064
 11
0.000013133145058
 21
2.899999618522375
  0
ARC
  8
0
  6
CONTINUOUS
 62
3
 10
-2.270017623901367
 20
-4.324990272521973
 40
1.729999542236328
 50
124.499759285265280
 51
179.999745461767870
  0
ARC
  8
0
  6
CONTINUOUS
 62
3
 10
-2.269982337951660
 20
4.325008392333984
 40
1.729999542236328
 50
179.999745461767870
 51
235.499786279783790
  0
ARC
  8
0
  6
CONTINUOUS
 62
3
 10
1.981662750244141
 20
-0.000008163610801
 40
5.981661796569824
 50
150.999363302540700
 51
209.000072979481700
  0
ENDBLK
  8
0
  0
BLOCK
  8
0
  2
SYM9
 70
64
 10
0.000000000000000
 20
0.000000000000000
  0
POINT
  8
0
  6
CONTINUOUS
 62
3
 10
0.000000000000000
 20
0.000000000000000
  0
LINE
  8
0
  6
CONTINUOUS
 62
3
 10
-0.000027060931608
 20
-5.749995231614290
 11
-3.250020760774497
 21
-5.749981880178368
  0
LINE
  8
0
  6
CONTINUOUS
 62
3
 10
-3.250024308998832
 20
-5.749987011620533
 11
-4.000020133420207
 21
-4.899982163000686
  0
LINE
  8
0
  6
CONTINUOUS
 62
3
 10
-4.000014781949545
 20
-4.899978112209579
 11
-3.999973773958658
 21
4.900011588107803
  0
LINE
  8
0
  6
CONTINUOUS
 62
3
 10
-3.999972830514309
 20
4.900008662670757
 11
-3.249970339875063
 21
5.750006850331147
  0
LINE
  8
0
  6
CONTINUOUS
 62
3
 10
-3.249972343459831
 20
5.750005722029982
 11
0.000027906669402
 21
5.749993324257003
  0
LINE
  8
0
  6
CONTINUOUS
 62
3
 10
0.000023687533422
 20
5.749999046325684
 11
-0.000023687533422
 21
-5.749999046325684
  0
LINE
  8
0
  6
CONTINUOUS
 62
3
 10
-3.250009052584916
 20
-2.899986267083180
 11
-0.000013285950788
 21
-2.899999618524636
  0
LINE
  8
0
  6
CONTINUOUS
 62
3
 10
-3.249984168999890
 20
2.900012016287064
 11
0.000013133145058
 21
2.899999618522375
  0
ARC
  8
0
  6
CONTINUOUS
 62
3
 10
-2.270017623901367
 20
-4.324990272521973
 40
1.729999542236328
 50
124.499759285265280
 51
179.999745461767870
  0
ARC
  8
0
  6
CONTINUOUS
 62
3
 10
-2.269982337951660
 20
4.325008392333984
 40
1.729999542236328
 50
179.999745461767870
 51
235.499786279783790
  0
ARC
  8
0
  6
CONTINUOUS
 62
3
 10
1.981662750244141
 20
-0.000008163610801
 40
5.981661796569824
 50
150.999363302540700
 51
209.000072979481700
  0
ENDBLK
  8
0
  0
BLOCK
  8
0
  2
SYM10
 70
64
 10
0.000000000000000
 20
0.000000000000000
  0
LINE
  8
0
  6
CONTINUOUS
 62
3
 10
-7.499999046325684
 20
6.500000000000000
 11
-7.499999046325684
 21
-6.500000000000000
  0
LINE
  8
0
  6
CONTINUOUS
 62
3
 10
-7.499997911632022
 20
-6.499999445138201
 11
-7.999998623386432
 21
-5.634070287011241
  0
LINE
  8
0
  6
CONTINUOUS
 62
3
 10
-7.499999203818277
 20
6.499999909101064
 11
-7.999999021366804
 21
5.633876130311293
  0
LINE
  8
0
  6
CONTINUOUS
 62
3
 10
-0.000000000000000
 20
-6.500000000000000
 11
-7.499998092651367
 21
-6.500000000000000
  0
LINE
  8
0
  6
CONTINUOUS
 62
3
 10
0.000000000000000
 20
6.500000000000000
 11
-7.499999046325684
 21
6.500000000000000
  0
LINE
  8
0
  6
CONTINUOUS
 62
3
 10
-7.999999046325684
 20
5.633875846862793
 11
-7.999999046325684
 21
-5.634070396423340
  0
LINE
  8
0
  6
CONTINUOUS
 62
3
 10
0.000000000000000
 20
-6.500000000000000
 11
-0.000000000000000
 21
6.500000000000000
  0
POINT
  8
0
  6
CONTINUOUS
 62
3
 10
0.000000000000000
 20
0.000000000000000
  0
ENDBLK
  8
0
  0
BLOCK
  8
0
  2
SYM11
 70
64
 10
0.000000000000000
 20
0.000000000000000
  0
LINE
  8
0
  6
CONTINUOUS
 62
3
 10
-7.499999046325684
 20
6.500000000000000
 11
-7.499999046325684
 21
-6.500000000000000
  0
LINE
  8
0
  6
CONTINUOUS
 62
3
 10
-7.499997911632022
 20
-6.499999445138201
 11
-7.999998623386432
 21
-5.634070287011241
  0
LINE
  8
0
  6
CONTINUOUS
 62
3
 10
-7.499999203818277
 20
6.499999909101064
 11
-7.999999021366804
 21
5.633876130311293
  0
LINE
  8
0
  6
CONTINUOUS
 62
3
 10
-0.000000000000000
 20
-6.500000000000000
 11
-7.499998092651367
 21
-6.500000000000000
  0
LINE
  8
0
  6
CONTINUOUS
 62
3
 10
0.000000000000000
 20
6.500000000000000
 11
-7.499999046325684
 21
6.500000000000000
  0
LINE
  8
0
  6
CONTINUOUS
 62
3
 10
-7.999999046325684
 20
5.633875846862793
 11
-7.999999046325684
 21
-5.634070396423340
  0
LINE
  8
0
  6
CONTINUOUS
 62
3
 10
0.000000000000000
 20
-6.500000000000000
 11
-0.000000000000000
 21
6.500000000000000
  0
POINT
  8
0
  6
CONTINUOUS
 62
3
 10
0.000000000000000
 20
0.000000000000000
  0
ENDBLK
  8
0
  0
BLOCK
  8
0
  2
SYM12
 70
64
 10
0.000000000000000
 20
0.000000000000000
  0
LINE
  8
0
  6
CONTINUOUS
 62
3
 10
-7.499999046325684
 20
6.500000000000000
 11
-7.499999046325684
 21
-6.500000000000000
  0
LINE
  8
0
  6
CONTINUOUS
 62
3
 10
-7.499997911632022
 20
-6.499999445138201
 11
-7.999998623386432
 21
-5.634070287011241
  0
LINE
  8
0
  6
CONTINUOUS
 62
3
 10
-7.499999203818277
 20
6.499999909101064
 11
-7.999999021366804
 21
5.633876130311293
  0
LINE
  8
0
  6
CONTINUOUS
 62
3
 10
-0.000000000000000
 20
-6.500000000000000
 11
-7.499998092651367
 21
-6.500000000000000
  0
LINE
  8
0
  6
CONTINUOUS
 62
3
 10
0.000000000000000
 20
6.500000000000000
 11
-7.499999046325684
 21
6.500000000000000
  0
LINE
  8
0
  6
CONTINUOUS
 62
3
 10
-7.999999046325684
 20
5.633875846862793
 11
-7.999999046325684
 21
-5.634070396423340
  0
LINE
  8
0
  6
CONTINUOUS
 62
3
 10
0.000000000000000
 20
-6.500000000000000
 11
-0.000000000000000
 21
6.500000000000000
  0
POINT
  8
0
  6
CONTINUOUS
 62
3
 10
0.000000000000000
 20
0.000000000000000
  0
ENDBLK
  8
0
  0
BLOCK
  8
0
  2
SYM13
 70
64
 10
0.000000000000000
 20
0.000000000000000
  0
LINE
  8
0
  6
CONTINUOUS
 62
3
 10
-7.499999046325684
 20
6.500000000000000
 11
-7.499999046325684
 21
-6.500000000000000
  0
LINE
  8
0
  6
CONTINUOUS
 62
3
 10
-7.499997911632022
 20
-6.499999445138201
 11
-7.999998623386432
 21
-5.634070287011241
  0
LINE
  8
0
  6
CONTINUOUS
 62
3
 10
-7.499999203818277
 20
6.499999909101064
 11
-7.999999021366804
 21
5.633876130311293
  0
LINE
  8
0
  6
CONTINUOUS
 62
3
 10
-0.000000000000000
 20
-6.500000000000000
 11
-7.499998092651367
 21
-6.500000000000000
  0
LINE
  8
0
  6
CONTINUOUS
 62
3
 10
0.000000000000000
 20
6.500000000000000
 11
-7.499999046325684
 21
6.500000000000000
  0
LINE
  8
0
  6
CONTINUOUS
 62
3
 10
-7.999999046325684
 20
5.633875846862793
 11
-7.999999046325684
 21
-5.634070396423340
  0
LINE
  8
0
  6
CONTINUOUS
 62
3
 10
0.000000000000000
 20
-6.500000000000000
 11
-0.000000000000000
 21
6.500000000000000
  0
POINT
  8
0
  6
CONTINUOUS
 62
3
 10
0.000000000000000
 20
0.000000000000000
  0
ENDBLK
  8
0
  0
BLOCK
  8
0
  2
SYM14
 70
64
 10
0.000000000000000
 20
0.000000000000000
  0
CIRCLE
  8
0
  6
CONTINUOUS
 62
3
 10
0.000000000000000
 20
0.000000000000000
 40
5.000000000000000
  0
LINE
  8
0
  6
CONTINUOUS
 62
3
 10
4.989816965891634
 20
-2.892629271321994
 11
0.010171343047148
 21
-5.767622431692701
  0
LINE
  8
0
  6
CONTINUOUS
 62
3
 10
4.979648434603448
 20
2.874994693650046
 11
4.989821279270270
 21
-2.892629961559101
  0
LINE
  8
0
  6
CONTINUOUS
 62
3
 10
-0.010171198458579
 20
5.767622839547471
 11
4.979645433681753
 21
2.874994469174567
  0
LINE
  8
0
  6
CONTINUOUS
 62
3
 10
-4.989816965891634
 20
2.892629271321994
 11
-0.010171343047148
 21
5.767622431692701
  0
LINE
  8
0
  6
CONTINUOUS
 62
3
 10
-4.979648434603448
 20
-2.874994693650046
 11
-4.989821279270270
 21
2.892629961559101
  0
LINE
  8
0
  6
CONTINUOUS
 62
3
 10
0.010171198458579
 20
-5.767622839547471
 11
-4.979645433681753
 21
-2.874994469174567
  0
POINT
  8
0
  6
CONTINUOUS
 62
3
 10
0.000000000000000
 20
0.000000000000000
  0
ENDBLK
  8
0
  0
BLOCK
  8
0
  2
SYM15
 70
64
 10
0.000000000000000
 20
0.000000000000000
  0
CIRCLE
  8
0
  6
CONTINUOUS
 62
3
 10
0.000000000000000
 20
0.000000000000000
 40
5.000000000000000
  0
LINE
  8
0
  6
CONTINUOUS
 62
3
 10
4.989816965891634
 20
-2.892629271321994
 11
0.010171343047148
 21
-5.767622431692701
  0
LINE
  8
0
  6
CONTINUOUS
 62
3
 10
4.979648434603448
 20
2.874994693650046
 11
4.989821279270270
 21
-2.892629961559101
  0
LINE
  8
0
  6
CONTINUOUS
 62
3
 10
-0.010171198458579
 20
5.767622839547471
 11
4.979645433681753
 21
2.874994469174567
  0
LINE
  8
0
  6
CONTINUOUS
 62
3
 10
-4.989816965891634
 20
2.892629271321994
 11
-0.010171343047148
 21
5.767622431692701
  0
LINE
  8
0
  6
CONTINUOUS
 62
3
 10
-4.979648434603448
 20
-2.874994693650046
 11
-4.989821279270270
 21
2.892629961559101
  0
LINE
  8
0
  6
CONTINUOUS
 62
3
 10
0.010171198458579
 20
-5.767622839547471
 11
-4.979645433681753
 21
-2.874994469174567
  0
POINT
  8
0
  6
CONTINUOUS
 62
3
 10
0.000000000000000
 20
0.000000000000000
  0
ENDBLK
  8
0
  0
BLOCK
  8
0
  2
SYM16
 70
64
 10
0.000000000000000
 20
0.000000000000000
  0
POINT
  8
0
  6
CONTINUOUS
 62
3
 10
0.000000000000000
 20
5.633955001831055
  0
POINT
  8
0
  6
CONTINUOUS
 62
3
 10
0.500000119209290
 20
6.500000000000000
  0
LINE
  8
0
  6
CONTINUOUS
 62
3
 10
-0.000004704988612
 20
-3.464098175748802
 11
-2.999997577100373
 21
-1.732046218032735
  0
LINE
  8
0
  6
CONTINUOUS
 62
3
 10
0.000006618601731
 20
3.464096896385627
 11
2.999997425948948
 21
1.732046782136365
  0
LINE
  8
0
  6
CONTINUOUS
 62
3
 10
2.999998112093635
 20
-1.732051392778772
 11
-0.000004464412200
 21
-3.464098365415111
  0
LINE
  8
0
  6
CONTINUOUS
 62
3
 10
0.000006701720849
 20
3.464096999935236
 11
-2.999997939551520
 21
1.732051821705568
  0
LINE
  8
0
  6
CONTINUOUS
 62
3
 10
2.999996662140697
 20
1.732046953225571
 11
2.999997615814979
 21
-1.732051023458999
  0
LINE
  8
0
  6
CONTINUOUS
 62
3
 10
-2.999996662140960
 20
-1.732045999551255
 11
-2.999997615815242
 21
1.732051977133316
  0
POINT
  8
0
  6
CONTINUOUS
 62
3
 10
0.000000000000000
 20
0.000000000000000
  0
CIRCLE
  8
0
  6
CONTINUOUS
 62
3
 10
0.000000000000000
 20
0.000000000000000
 40
6.500000000000000
  0
CIRCLE
  8
0
  6
CONTINUOUS
 62
3
 10
0.000000000000000
 20
0.000000000000000
 40
5.633955001831055
  0
ENDBLK
  8
0
  0
BLOCK
  8
0
  2
SYM17
 70
64
 10
0.000000000000000
 20
0.000000000000000
  0
POINT
  8
0
  6
CONTINUOUS
 62
3
 10
0.000000000000000
 20
5.633955001831055
  0
POINT
  8
0
  6
CONTINUOUS
 62
3
 10
0.500000119209290
 20
6.500000000000000
  0
LINE
  8
0
  6
CONTINUOUS
 62
3
 10
-0.000004704988612
 20
-3.464098175748802
 11
-2.999997577100373
 21
-1.732046218032735
  0
LINE
  8
0
  6
CONTINUOUS
 62
3
 10
0.000006618601731
 20
3.464096896385627
 11
2.999997425948948
 21
1.732046782136365
  0
LINE
  8
0
  6
CONTINUOUS
 62
3
 10
2.999998112093635
 20
-1.732051392778772
 11
-0.000004464412200
 21
-3.464098365415111
  0
LINE
  8
0
  6
CONTINUOUS
 62
3
 10
0.000006701720849
 20
3.464096999935236
 11
-2.999997939551520
 21
1.732051821705568
  0
LINE
  8
0
  6
CONTINUOUS
 62
3
 10
2.999996662140697
 20
1.732046953225571
 11
2.999997615814979
 21
-1.732051023458999
  0
LINE
  8
0
  6
CONTINUOUS
 62
3
 10
-2.999996662140960
 20
-1.732045999551255
 11
-2.999997615815242
 21
1.732051977133316
  0
POINT
  8
0
  6
CONTINUOUS
 62
3
 10
0.000000000000000
 20
0.000000000000000
  0
CIRCLE
  8
0
  6
CONTINUOUS
 62
3
 10
0.000000000000000
 20
0.000000000000000
 40
6.500000000000000
  0
CIRCLE
  8
0
  6
CONTINUOUS
 62
3
 10
0.000000000000000
 20
0.000000000000000
 40
5.633955001831055
  0
ENDBLK
  8
0
  0
BLOCK
  8
0
  2
SYM18
 70
64
 10
0.000000000000000
 20
0.000000000000000
  0
POINT
  8
0
  6
CONTINUOUS
 62
3
 10
0.000000000000000
 20
5.633955001831055
  0
POINT
  8
0
  6
CONTINUOUS
 62
3
 10
0.500000119209290
 20
6.500000000000000
  0
LINE
  8
0
  6
CONTINUOUS
 62
3
 10
-0.000004704988612
 20
-3.464098175748802
 11
-2.999997577100373
 21
-1.732046218032735
  0
LINE
  8
0
  6
CONTINUOUS
 62
3
 10
0.000006618601731
 20
3.464096896385627
 11
2.999997425948948
 21
1.732046782136365
  0
LINE
  8
0
  6
CONTINUOUS
 62
3
 10
2.999998112093635
 20
-1.732051392778772
 11
-0.000004464412200
 21
-3.464098365415111
  0
LINE
  8
0
  6
CONTINUOUS
 62
3
 10
0.000006701720849
 20
3.464096999935236
 11
-2.999997939551520
 21
1.732051821705568
  0
LINE
  8
0
  6
CONTINUOUS
 62
3
 10
2.999996662140697
 20
1.732046953225571
 11
2.999997615814979
 21
-1.732051023458999
  0
LINE
  8
0
  6
CONTINUOUS
 62
3
 10
-2.999996662140960
 20
-1.732045999551255
 11
-2.999997615815242
 21
1.732051977133316
  0
POINT
  8
0
  6
CONTINUOUS
 62
3
 10
0.000000000000000
 20
0.000000000000000
  0
CIRCLE
  8
0
  6
CONTINUOUS
 62
3
 10
0.000000000000000
 20
0.000000000000000
 40
6.500000000000000
  0
CIRCLE
  8
0
  6
CONTINUOUS
 62
3
 10
0.000000000000000
 20
0.000000000000000
 40
5.633955001831055
  0
ENDBLK
  8
0
  0
BLOCK
  8
0
  2
SYM19
 70
64
 10
0.000000000000000
 20
0.000000000000000
  0
POINT
  8
0
  6
CONTINUOUS
 62
3
 10
0.000000000000000
 20
5.633955001831055
  0
POINT
  8
0
  6
CONTINUOUS
 62
3
 10
0.500000119209290
 20
6.500000000000000
  0
LINE
  8
0
  6
CONTINUOUS
 62
3
 10
-0.000004704988612
 20
-3.464098175748802
 11
-2.999997577100373
 21
-1.732046218032735
  0
LINE
  8
0
  6
CONTINUOUS
 62
3
 10
0.000006618601731
 20
3.464096896385627
 11
2.999997425948948
 21
1.732046782136365
  0
LINE
  8
0
  6
CONTINUOUS
 62
3
 10
2.999998112093635
 20
-1.732051392778772
 11
-0.000004464412200
 21
-3.464098365415111
  0
LINE
  8
0
  6
CONTINUOUS
 62
3
 10
0.000006701720849
 20
3.464096999935236
 11
-2.999997939551520
 21
1.732051821705568
  0
LINE
  8
0
  6
CONTINUOUS
 62
3
 10
2.999996662140697
 20
1.732046953225571
 11
2.999997615814979
 21
-1.732051023458999
  0
LINE
  8
0
  6
CONTINUOUS
 62
3
 10
-2.999996662140960
 20
-1.732045999551255
 11
-2.999997615815242
 21
1.732051977133316
  0
POINT
  8
0
  6
CONTINUOUS
 62
3
 10
0.000000000000000
 20
0.000000000000000
  0
CIRCLE
  8
0
  6
CONTINUOUS
 62
3
 10
0.000000000000000
 20
0.000000000000000
 40
6.500000000000000
  0
CIRCLE
  8
0
  6
CONTINUOUS
 62
3
 10
0.000000000000000
 20
0.000000000000000
 40
5.633955001831055
  0
ENDBLK
  8
0
  0
BLOCK
  8
0
  2
SYM20
 70
64
 10
0.000000000000000
 20
0.000000000000000
  0
POINT
  8
0
  6
CONTINUOUS
 62
3
 10
0.000000000000000
 20
5.633955001831055
  0
POINT
  8
0
  6
CONTINUOUS
 62
3
 10
0.500000119209290
 20
6.500000000000000
  0
LINE
  8
0
  6
CONTINUOUS
 62
3
 10
-0.000004704988612
 20
-3.464098175748802
 11
-2.999997577100373
 21
-1.732046218032735
  0
LINE
  8
0
  6
CONTINUOUS
 62
3
 10
0.000006618601731
 20
3.464096896385627
 11
2.999997425948948
 21
1.732046782136365
  0
LINE
  8
0
  6
CONTINUOUS
 62
3
 10
2.999998112093635
 20
-1.732051392778772
 11
-0.000004464412200
 21
-3.464098365415111
  0
LINE
  8
0
  6
CONTINUOUS
 62
3
 10
0.000006701720849
 20
3.464096999935236
 11
-2.999997939551520
 21
1.732051821705568
  0
LINE
  8
0
  6
CONTINUOUS
 62
3
 10
2.999996662140697
 20
1.732046953225571
 11
2.999997615814979
 21
-1.732051023458999
  0
LINE
  8
0
  6
CONTINUOUS
 62
3
 10
-2.999996662140960
 20
-1.732045999551255
 11
-2.999997615815242
 21
1.732051977133316
  0
POINT
  8
0
  6
CONTINUOUS
 62
3
 10
0.000000000000000
 20
0.000000000000000
  0
CIRCLE
  8
0
  6
CONTINUOUS
 62
3
 10
0.000000000000000
 20
0.000000000000000
 40
6.500000000000000
  0
CIRCLE
  8
0
  6
CONTINUOUS
 62
3
 10
0.000000000000000
 20
0.000000000000000
 40
5.633955001831055
  0
ENDBLK
  8
0
  0
BLOCK
  8
0
  2
SYM21
 70
64
 10
0.000000000000000
 20
0.000000000000000
  0
POINT
  8
0
  6
CONTINUOUS
 62
3
 10
0.000000000000000
 20
5.633955001831055
  0
POINT
  8
0
  6
CONTINUOUS
 62
3
 10
0.500000119209290
 20
6.500000000000000
  0
LINE
  8
0
  6
CONTINUOUS
 62
3
 10
-0.000004704988612
 20
-3.464098175748802
 11
-2.999997577100373
 21
-1.732046218032735
  0
LINE
  8
0
  6
CONTINUOUS
 62
3
 10
0.000006618601731
 20
3.464096896385627
 11
2.999997425948948
 21
1.732046782136365
  0
LINE
  8
0
  6
CONTINUOUS
 62
3
 10
2.999998112093635
 20
-1.732051392778772
 11
-0.000004464412200
 21
-3.464098365415111
  0
LINE
  8
0
  6
CONTINUOUS
 62
3
 10
0.000006701720849
 20
3.464096999935236
 11
-2.999997939551520
 21
1.732051821705568
  0
LINE
  8
0
  6
CONTINUOUS
 62
3
 10
2.999996662140697
 20
1.732046953225571
 11
2.999997615814979
 21
-1.732051023458999
  0
LINE
  8
0
  6
CONTINUOUS
 62
3
 10
-2.999996662140960
 20
-1.732045999551255
 11
-2.999997615815242
 21
1.732051977133316
  0
POINT
  8
0
  6
CONTINUOUS
 62
3
 10
0.000000000000000
 20
0.000000000000000
  0
CIRCLE
  8
0
  6
CONTINUOUS
 62
3
 10
0.000000000000000
 20
0.000000000000000
 40
6.500000000000000
  0
CIRCLE
  8
0
  6
CONTINUOUS
 62
3
 10
0.000000000000000
 20
0.000000000000000
 40
5.633955001831055
  0
ENDBLK
  8
0
  0
BLOCK
  8
0
  2
SYM22
 70
64
 10
0.000000000000000
 20
0.000000000000000
  0
POINT
  8
0
  6
CONTINUOUS
 62
3
 10
0.000000000000000
 20
5.633955001831055
  0
POINT
  8
0
  6
CONTINUOUS
 62
3
 10
0.500000119209290
 20
6.500000000000000
  0
LINE
  8
0
  6
CONTINUOUS
 62
3
 10
-0.000004704988612
 20
-3.464098175748802
 11
-2.999997577100373
 21
-1.732046218032735
  0
LINE
  8
0
  6
CONTINUOUS
 62
3
 10
0.000006618601731
 20
3.464096896385627
 11
2.999997425948948
 21
1.732046782136365
  0
LINE
  8
0
  6
CONTINUOUS
 62
3
 10
2.999998112093635
 20
-1.732051392778772
 11
-0.000004464412200
 21
-3.464098365415111
  0
LINE
  8
0
  6
CONTINUOUS
 62
3
 10
0.000006701720849
 20
3.464096999935236
 11
-2.999997939551520
 21
1.732051821705568
  0
LINE
  8
0
  6
CONTINUOUS
 62
3
 10
2.999996662140697
 20
1.732046953225571
 11
2.999997615814979
 21
-1.732051023458999
  0
LINE
  8
0
  6
CONTINUOUS
 62
3
 10
-2.999996662140960
 20
-1.732045999551255
 11
-2.999997615815242
 21
1.732051977133316
  0
POINT
  8
0
  6
CONTINUOUS
 62
3
 10
0.000000000000000
 20
0.000000000000000
  0
CIRCLE
  8
0
  6
CONTINUOUS
 62
3
 10
0.000000000000000
 20
0.000000000000000
 40
6.500000000000000
  0
CIRCLE
  8
0
  6
CONTINUOUS
 62
3
 10
0.000000000000000
 20
0.000000000000000
 40
5.633955001831055
  0
ENDBLK
  8
0
  0
BLOCK
  8
0
  2
SYM23
 70
64
 10
0.000000000000000
 20
0.000000000000000
  0
POINT
  8
0
  6
CONTINUOUS
 62
3
 10
0.000000000000000
 20
5.633955001831055
  0
POINT
  8
0
  6
CONTINUOUS
 62
3
 10
0.500000119209290
 20
6.500000000000000
  0
LINE
  8
0
  6
CONTINUOUS
 62
3
 10
-0.000004704988612
 20
-3.464098175748802
 11
-2.999997577100373
 21
-1.732046218032735
  0
LINE
  8
0
  6
CONTINUOUS
 62
3
 10
0.000006618601731
 20
3.464096896385627
 11
2.999997425948948
 21
1.732046782136365
  0
LINE
  8
0
  6
CONTINUOUS
 62
3
 10
2.999998112093635
 20
-1.732051392778772
 11
-0.000004464412200
 21
-3.464098365415111
  0
LINE
  8
0
  6
CONTINUOUS
 62
3
 10
0.000006701720849
 20
3.464096999935236
 11
-2.999997939551520
 21
1.732051821705568
  0
LINE
  8
0
  6
CONTINUOUS
 62
3
 10
2.999996662140697
 20
1.732046953225571
 11
2.999997615814979
 21
-1.732051023458999
  0
LINE
  8
0
  6
CONTINUOUS
 62
3
 10
-2.999996662140960
 20
-1.732045999551255
 11
-2.999997615815242
 21
1.732051977133316
  0
POINT
  8
0
  6
CONTINUOUS
 62
3
 10
0.000000000000000
 20
0.000000000000000
  0
CIRCLE
  8
0
  6
CONTINUOUS
 62
3
 10
0.000000000000000
 20
0.000000000000000
 40
6.500000000000000
  0
CIRCLE
  8
0
  6
CONTINUOUS
 62
3
 10
0.000000000000000
 20
0.000000000000000
 40
5.633955001831055
  0
ENDBLK
  8
0
  0
BLOCK
  8
0
  2
SYM24
 70
64
 10
0.000000000000000
 20
0.000000000000000
  0
POINT
  8
0
  6
CONTINUOUS
 62
3
 10
0.000000000000000
 20
5.633955001831055
  0
POINT
  8
0
  6
CONTINUOUS
 62
3
 10
0.500000119209290
 20
6.500000000000000
  0
LINE
  8
0
  6
CONTINUOUS
 62
3
 10
-0.000004704988612
 20
-3.464098175748802
 11
-2.999997577100373
 21
-1.732046218032735
  0
LINE
  8
0
  6
CONTINUOUS
 62
3
 10
0.000006618601731
 20
3.464096896385627
 11
2.999997425948948
 21
1.732046782136365
  0
LINE
  8
0
  6
CONTINUOUS
 62
3
 10
2.999998112093635
 20
-1.732051392778772
 11
-0.000004464412200
 21
-3.464098365415111
  0
LINE
  8
0
  6
CONTINUOUS
 62
3
 10
0.000006701720849
 20
3.464096999935236
 11
-2.999997939551520
 21
1.732051821705568
  0
LINE
  8
0
  6
CONTINUOUS
 62
3
 10
2.999996662140697
 20
1.732046953225571
 11
2.999997615814979
 21
-1.732051023458999
  0
LINE
  8
0
  6
CONTINUOUS
 62
3
 10
-2.999996662140960
 20
-1.732045999551255
 11
-2.999997615815242
 21
1.732051977133316
  0
POINT
  8
0
  6
CONTINUOUS
 62
3
 10
0.000000000000000
 20
0.000000000000000
  0
CIRCLE
  8
0
  6
CONTINUOUS
 62
3
 10
0.000000000000000
 20
0.000000000000000
 40
6.500000000000000
  0
CIRCLE
  8
0
  6
CONTINUOUS
 62
3
 10
0.000000000000000
 20
0.000000000000000
 40
5.633955001831055
  0
ENDBLK
  8
0
  0
BLOCK
  8
0
  2
SYM25
 70
64
 10
0.000000000000000
 20
0.000000000000000
  0
ARC
  8
0
  6
CONTINUOUS
 62
3
 10
6.399999618530273
 20
0.000000000000000
 40
9.000000000000000
 50
163.398451589674950
 51
196.601531107481040
  0
POINT
  8
0
  6
CONTINUOUS
 62
3
 10
0.000000000000000
 20
0.000000000000000
  0
LINE
  8
0
  6
CONTINUOUS
 62
3
 10
0.000000000000000
 20
-3.500000000000000
 11
-0.000000000000000
 21
3.500000000000000
  0
LINE
  8
0
  6
CONTINUOUS
 62
3
 10
0.000000000000000
 20
-3.500000000000000
 11
-0.000000000000000
 21
3.500000000000000
  0
LINE
  8
0
  6
CONTINUOUS
 62
3
 10
0.000000000000000
 20
3.500000000000000
 11
-0.979025304317474
 21
3.500000000000000
  0
LINE
  8
0
  6
CONTINUOUS
 62
3
 10
-0.000000000000000
 20
-3.500000000000000
 11
-0.979025304317474
 21
-3.500000000000000
  0
ARC
  8
0
  6
CONTINUOUS
 62
3
 10
-0.979025304317474
 20
2.200000762939453
 40
1.299999237060547
 50
90.000000000000000
 51
163.398451589674950
  0
ARC
  8
0
  6
CONTINUOUS
 62
3
 10
-0.979025304317474
 20
-2.200000762939453
 40
1.299999237060547
 50
196.601531107481040
 51
270.000000000000000
  0
ENDBLK
  8
0
  0
BLOCK
  8
0
  2
SYM26
 70
64
 10
0.000000000000000
 20
0.000000000000000
  0
ARC
  8
0
  6
CONTINUOUS
 62
3
 10
-0.979025304317474
 20
-2.200000762939453
 40
1.299999237060547
 50
196.601531107481040
 51
270.000000000000000
  0
ARC
  8
0
  6
CONTINUOUS
 62
3
 10
-0.979025304317474
 20
2.200000762939453
 40
1.299999237060547
 50
90.000000000000000
 51
163.398451589674950
  0
LINE
  8
0
  6
CONTINUOUS
 62
3
 10
-0.000000000000000
 20
-3.500000000000000
 11
-0.979025304317474
 21
-3.500000000000000
  0
LINE
  8
0
  6
CONTINUOUS
 62
3
 10
0.000000000000000
 20
3.500000000000000
 11
-0.979025304317474
 21
3.500000000000000
  0
LINE
  8
0
  6
CONTINUOUS
 62
3
 10
0.000000000000000
 20
-3.500000000000000
 11
-0.000000000000000
 21
3.500000000000000
  0
LINE
  8
0
  6
CONTINUOUS
 62
3
 10
0.000000000000000
 20
-3.500000000000000
 11
-0.000000000000000
 21
3.500000000000000
  0
POINT
  8
0
  6
CONTINUOUS
 62
3
 10
0.000000000000000
 20
0.000000000000000
  0
ARC
  8
0
  6
CONTINUOUS
 62
3
 10
6.399999618530273
 20
0.000000000000000
 40
9.000000000000000
 50
163.398451589674950
 51
196.601531107481040
  0
ENDBLK
  8
0
  0
ENDSEC
  0
SECTION
  2
ENTITIES
  0
LINE
  8
0
  6
CONTINUOUS
 62
3
 10
375.146479045580010
 20
-304.915160548404400
 11
361.590753393920180
 21
-304.915160548404400
  0
LINE
  8
0
  6
CONTINUOUS
 62
3
 10
495.590753393920010
 20
-304.915160548404400
 11
509.146479045579840
 21
-304.915160548404400
  0
LINE
  8
0
  6
CONTINUOUS
 62
3
 10
412.368616219750040
 20
-164.915160548404400
 11
420.368616219750040
 21
-164.915160548404400
  0
LINE
  8
0
  6
CONTINUOUS
 62
3
 10
412.368616219750040
 20
-152.915160548404400
 11
420.368616219750040
 21
-152.915160548404400
  0
ARC
  8
0
  6
CONTINUOUS
 62
3
 10
214.545616856427870
 20
-158.915160548404400
 40
6.000000000000028
 50
180.000000000000000
 51
270.000000000000000
  0
LINE
  8
0
  6
CONTINUOUS
 62
3
 10
214.545616856427870
 20
-164.915160548404400
 11
263.545616856427840
 21
-164.915160548404400
  0
ARC
  8
0
  6
CONTINUOUS
 62
3
 10
214.545616856427870
 20
-158.915160548404400
 40
6.000000000000000
 50
90.000000000000000
 51
180.000000000000000
  0
LINE
  8
0
  6
CONTINUOUS
 62
3
 10
208.545616856427840
 20
-158.915174212991590
 11
208.545616856427840
 21
-158.915160548404400
  0
LINE
  8
0
  6
CONTINUOUS
 62
3
 10
214.545616856427870
 20
-152.915160548404400
 11
263.545616856427840
 21
-152.915160548404400
  0
LINE
  8
0
  6
CONTINUOUS
 62
3
 10
-448.997678478448620
 20
-116.145250658087220
 11
-449.484481870154240
 21
-115.658447266381600
  0
LINE
  8
0
  6
CONTINUOUS
 62
3
 10
-442.350875005034940
 20
-109.498447184673500
 11
-442.837678396740560
 21
-109.011643792967880
  0
LINE
  8
0
  6
CONTINUOUS
 62
3
 10
-449.310817087417430
 20
-115.892703707236840
 11
-442.633717784944510
 21
-109.215604404763930
  0
LINE
  8
0
  6
CONTINUOUS
 62
3
 10
-448.997678478448620
 20
-116.145250658087220
 11
-442.350875005034940
 21
-109.498447184673500
  0
POINT
  8
0
  6
CONTINUOUS
 62
3
 10
-445.674276741741780
 20
-112.821848921380360
  0
ARC
  8
0
  6
CONTINUOUS
 62
3
 10
-443.411535176814770
 20
-115.084590486307400
 40
6.099999427795419
 50
84.601927898108485
 51
185.398089404735120
  0
LINE
  8
0
  6
CONTINUOUS
 62
3
 10
-448.997678478448620
 20
-203.685070438721570
 11
-449.484481870154240
 21
-204.171873830427190
  0
LINE
  8
0
  6
CONTINUOUS
 62
3
 10
-442.350875005034940
 20
-210.331873912135310
 11
-442.837678396740560
 21
-210.818677303840900
  0
LINE
  8
0
  6
CONTINUOUS
 62
3
 10
-449.310817087417430
 20
-203.937617389571950
 11
-442.633717784944510
 21
-210.614716692044880
  0
LINE
  8
0
  6
CONTINUOUS
 62
3
 10
-448.997678478448620
 20
-203.685070438721570
 11
-442.350875005034940
 21
-210.331873912135310
  0
POINT
  8
0
  6
CONTINUOUS
 62
3
 10
-445.674276741741780
 20
-207.008472175428440
  0
ARC
  8
0
  6
CONTINUOUS
 62
3
 10
-443.411535176814770
 20
-204.745730610501400
 40
6.099999427795398
 50
174.601910595264880
 51
275.398072101891500
  0
LINE
  8
0
  6
CONTINUOUS
 62
3
 10
-348.164251750987090
 20
-203.685070438721570
 11
-347.677448359281470
 21
-204.171873830427190
  0
LINE
  8
0
  6
CONTINUOUS
 62
3
 10
-354.811055224400770
 20
-210.331873912135310
 11
-354.324251832695150
 21
-210.818677303840900
  0
LINE
  8
0
  6
CONTINUOUS
 62
3
 10
-347.851113142018280
 20
-203.937617389571950
 11
-354.528212444491200
 21
-210.614716692044880
  0
LINE
  8
0
  6
CONTINUOUS
 62
3
 10
-348.164251750987090
 20
-203.685070438721570
 11
-354.811055224400770
 21
-210.331873912135310
  0
POINT
  8
0
  6
CONTINUOUS
 62
3
 10
-351.487653487693930
 20
-207.008472175428440
  0
ARC
  8
0
  6
CONTINUOUS
 62
3
 10
-353.750395052620950
 20
-204.745730610501400
 40
6.099999427795406
 50
264.601927898108500
 51
5.398089404735109
  0
LINE
  8
0
  6
CONTINUOUS
 62
3
 10
-348.164251750987090
 20
-116.145250658087220
 11
-347.677448359281470
 21
-115.658447266381600
  0
LINE
  8
0
  6
CONTINUOUS
 62
3
 10
-354.811055224400770
 20
-109.498447184673500
 11
-354.324251832695150
 21
-109.011643792967880
  0
LINE
  8
0
  6
CONTINUOUS
 62
3
 10
-347.851113142018280
 20
-115.892703707236840
 11
-354.528212444491200
 21
-109.215604404763930
  0
LINE
  8
0
  6
CONTINUOUS
 62
3
 10
-348.164251750987090
 20
-116.145250658087220
 11
-354.811055224400770
 21
-109.498447184673500
  0
POINT
  8
0
  6
CONTINUOUS
 62
3
 10
-351.487653487693930
 20
-112.821848921380360
  0
ARC
  8
0
  6
CONTINUOUS
 62
3
 10
-353.750395052620950
 20
-115.084590486307400
 40
6.099999427795398
 50
354.601910595264880
 51
95.398072101891515
  0
ARC
  8
0
  6
CONTINUOUS
 62
3
 10
-409.080965114717860
 20
-86.915148538513677
 40
10.000000000000000
 50
180.000000000000000
 51
270.000000000000000
  0
ARC
  8
0
  6
CONTINUOUS
 62
3
 10
-388.080965114717860
 20
-86.915148538513677
 40
10.000000000000000
 50
270.000000000000000
 51
0.000000000000000
  0
LINE
  8
0
  6
CONTINUOUS
 62
3
 10
-409.080965114717860
 20
-96.915148538513677
 11
-388.080965114717860
 21
-96.915148538513677
  0
INSERT
  8
0
  2
SYM1
 10
43.545610805219439
 20
-86.915148538514131
  0
INSERT
  8
0
  2
SYM2
 10
60.045610805222168
 20
-94.407708047175674
  0
INSERT
  8
0
  2
SYM3
 10
24.545610805221258
 20
-136.114385006447040
  0
INSERT
  8
0
  2
SYM4
 10
60.045610805222168
 20
-169.915148538513220
  0
INSERT
  8
0
  2
SYM5
 10
24.545610805221258
 20
-245.715936090361770
  0
INSERT
  8
0
  2
SYM6
 10
60.045610805222168
 20
-235.915148538513220
  0
INSERT
  8
0
  2
SYM7
 10
60.045610805222623
 20
-293.915148538512770
  0
LINE
  8
0
  6
DASHDOT
 62
4
 10
198.093757509948320
 20
-279.123313350126860
 11
144.162198115965570
 21
-279.123313350126860
  0
LINE
  8
0
  6
DASHDOT
 62
4
 10
198.093757509948320
 20
-38.707007746701038
 11
144.162198115965570
 21
-38.707007746701038
  0
ARC
  8
0
  6
CONTINUOUS
 62
3
 10
263.145616856427750
 20
-178.515174212991950
 40
0.399999999999636
 50
270.000000000000000
 51
0.000000000000000
  0
LINE
  8
0
  6
CONTINUOUS
 62
3
 10
263.545616856427840
 20
-158.915174212991590
 11
263.545616856427840
 21
-178.515174212991950
  0
ARC
  8
0
  6
CONTINUOUS
 62
3
 10
263.145616856427750
 20
-139.315174212992130
 40
0.400000000000091
 50
0.000000000000000
 51
90.000000000000000
  0
LINE
  8
0
  6
CONTINUOUS
 62
3
 10
263.545616856427840
 20
-158.915174212991590
 11
263.545616856427840
 21
-139.315174212992130
  0
LINE
  8
0
  6
CONTINUOUS
 62
3
 10
71.545610805222623
 20
-301.915164035720640
 11
173.957849567687840
 21
-304.912595237177360
  0
LINE
  8
0
  6
CONTINUOUS
 62
3
 10
71.545610805222623
 20
-73.915195122656769
 11
158.000185339165230
 21
-70.896134853850072
  0
LINE
  8
0
  6
CONTINUOUS
 62
3
 10
71.545610805222623
 20
-73.915195122656769
 11
71.545610805222623
 21
-301.915164035720640
  0
LINE
  8
0
  6
CONTINUOUS
 62
3
 10
189.045616856428520
 20
-298.915160548404400
 11
174.045616856428520
 21
-298.915160548404400
  0
LINE
  8
0
  6
CONTINUOUS
 62
3
 10
193.045616856428750
 20
-29.915174212991587
 11
193.045616856428980
 21
-158.915160548404400
  0
LINE
  8
0
  6
CONTINUOUS
 62
3
 10
171.045616856428750
 20
-21.915174212991587
 11
171.045616856428750
 21
-295.915146883817210
  0
LINE
  8
0
  6
CONTINUOUS
 62
3
 10
189.045616856428750
 20
-18.915174212991587
 11
189.045616856431930
 21
-158.915160548404400
  0
LINE
  8
0
  6
CONTINUOUS
 62
3
 10
189.045616856428750
 20
-18.915174212991587
 11
174.045616856428520
 21
-18.915174212991587
  0
LINE
  8
0
  6
CONTINUOUS
 62
3
 10
192.045616856428750
 20
-28.915174212991587
 11
189.045616856428980
 21
-28.915174212991587
  0
LINE
  8
0
  6
CONTINUOUS
 62
3
 10
193.045616856428980
 20
-105.574284283384250
 11
196.702624675338030
 21
-105.765939941993790
  0
LINE
  8
0
  6
CONTINUOUS
 62
3
 10
199.545616806609130
 20
-108.761828546257670
 11
199.545616806609130
 21
-158.915160548404400
  0
LINE
  8
0
  6
CONTINUOUS
 62
3
 10
201.545616856428750
 20
-117.915174212991580
 11
201.545616856428750
 21
-199.915174212991590
  0
LINE
  8
0
  6
CONTINUOUS
 62
3
 10
199.545616806609130
 20
-209.068294177434150
 11
199.545616806609130
 21
-158.915160548404400
  0
LINE
  8
0
  6
CONTINUOUS
 62
3
 10
193.045616856428980
 20
-287.915160548404400
 11
193.045616856428980
 21
-158.915160548404400
  0
LINE
  8
0
  6
CONTINUOUS
 62
3
 10
196.702624675338030
 20
-212.064182781698040
 11
193.045616856428980
 21
-212.255838440307570
  0
LINE
  8
0
  6
CONTINUOUS
 62
3
 10
189.045616856428520
 20
-298.915160548404400
 11
189.045616856428520
 21
-158.915160548404400
  0
LINE
  8
0
  6
CONTINUOUS
 62
3
 10
192.045616856428980
 20
-288.915160548404400
 11
189.045616856428520
 21
-288.915160548404400
  0
LINE
  8
0
  6
CONTINUOUS
 62
3
 10
192.045616856428750
 20
-28.915174212991587
 11
193.045616856428750
 21
-29.915174212991587
  0
LINE
  8
0
  6
CONTINUOUS
 62
3
 10
200.545616831519280
 20
-199.915174212991590
 11
201.545616856428750
 21
-199.915174212991590
  0
LINE
  8
0
  6
CONTINUOUS
 62
3
 10
193.045616856428980
 20
-287.915160548404400
 11
192.045616856428980
 21
-288.915160548404400
  0
LINE
  8
0
  6
CONTINUOUS
 62
3
 10
200.545616831519280
 20
-117.915174212991580
 11
201.545616856428750
 21
-117.915174212991580
  0
LINE
  8
0
  6
CONTINUOUS
 62
3
 10
170.643693067782120
 20
-34.611347545363515
 11
150.355227420127450
 21
-69.752000854717153
  0
ARC
  8
0
  6
CONTINUOUS
 62
3
 10
174.045616856428520
 20
-21.915174212991587
 40
3.000000000000000
 50
90.000000000000000
 51
180.000000000000000
  0
ARC
  8
0
  6
CONTINUOUS
 62
3
 10
200.545616831519280
 20
-116.915174188082340
 40
1.000000024909241
 50
180.000000000000000
 51
270.000000000000000
  0
ARC
  8
0
  6
CONTINUOUS
 62
3
 10
200.545616831519280
 20
-200.915174237900830
 40
1.000000024909241
 50
90.000000000000000
 51
180.000000000000000
  0
ARC
  8
0
  6
CONTINUOUS
 62
3
 10
196.545616806609130
 20
-209.068294177434150
 40
3.000000000000164
 50
273.000000000001080
 51
0.000000000000000
  0
ARC
  8
0
  6
CONTINUOUS
 62
3
 10
174.045616856428520
 20
-301.913879361502040
 40
3.000000000000011
 50
268.323529052110760
 51
0.000000000000000
  0
ARC
  8
0
  6
CONTINUOUS
 62
3
 10
180.045616856428520
 20
-301.915160548404400
 40
3.000000000000000
 50
90.000000000000000
 51
180.000000000000000
  0
ARC
  8
0
  6
CONTINUOUS
 62
3
 10
196.545616806609130
 20
-108.761828546257670
 40
3.000000000000000
 50
0.000000000000000
 51
86.999999999998920
  0
ARC
  8
0
  6
CONTINUOUS
 62
3
 10
168.045616856428750
 20
-33.111347545363515
 40
3.000000000000049
 50
330.000000000000570
 51
0.000000000000000
  0
ARC
  8
0
  6
CONTINUOUS
 62
3
 10
147.757151208774080
 20
-68.252000854717153
 40
2.999999999999993
 50
271.999999999999320
 51
330.000000000000570
  0
ARC
  8
0
  6
CONTINUOUS
 62
3
 10
148.116195917183180
 20
-83.934336783943991
 40
3.000000000000227
 50
270.000000000000000
 51
320.270935214703170
  0
ARC
  8
0
  6
CONTINUOUS
 62
3
 10
168.045616856428750
 20
-59.953995357889653
 40
2.999999999999973
 50
320.270935214704250
 51
0.000000000000000
  0
ARC
  8
0
  6
CONTINUOUS
 62
3
 10
148.116195917183180
 20
-78.095502019112018
 40
3.000000000000227
 50
270.000000000000000
 51
320.270935214703170
  0
ARC
  8
0
  6
CONTINUOUS
 62
3
 10
168.045616856428750
 20
-54.115160593057681
 40
2.999999999999973
 50
320.270935214704250
 51
0.000000000000000
  0
LINE
  8
0
  6
CONTINUOUS
 62
3
 10
150.423422190249540
 20
-80.012976119295899
 11
170.352843129494660
 21
-56.032634693241107
  0
LINE
  8
0
  6
CONTINUOUS
 62
3
 10
150.423422190249540
 20
-85.851810884127872
 11
170.352843129494660
 21
-61.871469458073079
  0
LINE
  8
0
  6
CONTINUOUS
 62
3
 10
167.742492703358720
 20
-86.934336783944218
 11
152.571731605281230
 21
-86.934336783944218
  0
ARC
  8
0
  6
CONTINUOUS
 62
3
 10
174.045616856428520
 20
-295.915146883817210
 40
2.999999999999773
 50
180.000000000000000
 51
270.000000000000000
  0
LINE
  8
0
  6
CONTINUOUS
 62
3
 10
206.605431603431950
 20
-178.915174212991590
 11
206.045623982296550
 21
-178.765174212991950
  0
LINE
  8
0
  6
CONTINUOUS
 62
3
 10
263.145616856427750
 20
-178.915174212991590
 11
206.605431603432410
 21
-178.915174212991590
  0
LINE
  8
0
  6
CONTINUOUS
 62
3
 10
203.545616856427840
 20
-158.915174212991590
 11
203.545616856427840
 21
-181.015174212991950
  0
LINE
  8
0
  6
CONTINUOUS
 62
3
 10
203.145616856427750
 20
-181.415174212991590
 11
203.545616856427840
 21
-181.015174212991950
  0
LINE
  8
0
  6
CONTINUOUS
 62
3
 10
206.045623982296550
 20
-178.765174212991950
 11
205.145616856427750
 21
-178.765174212991950
  0
ARC
  8
0
  6
CONTINUOUS
 62
3
 10
205.145616856427750
 20
-180.365174212991410
 40
1.599999999999454
 50
90.000000000000000
 51
180.000000000000000
  0
LINE
  8
0
  6
CONTINUOUS
 62
3
 10
206.605431603431950
 20
-138.915174212991590
 11
206.045623982296550
 21
-139.065174212992130
  0
LINE
  8
0
  6
CONTINUOUS
 62
3
 10
203.545616856427840
 20
-158.915174212991590
 11
203.545616856427840
 21
-136.815174212992130
  0
LINE
  8
0
  6
CONTINUOUS
 62
3
 10
203.145616856427750
 20
-136.415174212991590
 11
203.545616856427840
 21
-136.815174212992130
  0
LINE
  8
0
  6
CONTINUOUS
 62
3
 10
206.045623982296550
 20
-139.065174212992130
 11
205.145616856427750
 21
-139.065174212992130
  0
ARC
  8
0
  6
CONTINUOUS
 62
3
 10
205.145616856427750
 20
-137.465174212991770
 40
1.599999999999909
 50
180.000000000000000
 51
270.000000000000000
  0
LINE
  8
0
  6
CONTINUOUS
 62
3
 10
263.145616856427750
 20
-138.915174212991590
 11
206.605431603432410
 21
-138.915174212991590
  0
LINE
  8
0
  6
CONTINUOUS
 62
3
 10
203.145616856427750
 20
-136.415174212991590
 11
201.545616856428750
 21
-136.415174212991590
  0
LINE
  8
0
  6
CONTINUOUS
 62
3
 10
203.145616856427750
 20
-181.415174212991590
 11
201.545616856428750
 21
-181.415174212991590
  0
ARC
  8
0
  6
CONTINUOUS
 62
3
 10
51.045610805222623
 20
-76.915139638739220
 40
3.000000000000000
 50
90.000000000000000
 51
180.000000000000000
  0
LINE
  8
0
  6
DASHDOT
 62
4
 10
28.245158016932237
 20
-86.915148538513677
 11
51.320966463444620
 21
-86.915148538513677
  0
LINE
  8
0
  6
CONTINUOUS
 62
3
 10
43.545610805218985
 20
-96.915148538513677
 11
43.545610805222623
 21
-38.915148538513677
  0
LINE
  8
0
  6
CONTINUOUS
 62
3
 10
48.045610805222623
 20
-38.915148538513677
 11
48.045610805222623
 21
-96.915148538513677
  0
LINE
  8
0
  6
CONTINUOUS
 62
3
 10
43.545610805222623
 20
-38.915148538513677
 11
48.045610805222623
 21
-38.915148538513677
  0
LINE
  8
0
  6
DASHDOT
 62
4
 10
37.815363404406071
 20
-58.915148538513677
 11
55.914629419697576
 21
-58.915148538513677
  0
LINE
  8
0
  6
CONTINUOUS
 62
3
 10
43.545610805218985
 20
-96.915148538513677
 11
48.045610805218985
 21
-96.915148538513677
  0
LINE
  8
0
  6
CONTINUOUS
 62
3
 10
48.045610805222623
 20
-76.915139638739220
 11
48.045610805222623
 21
-93.915127628848495
  0
LINE
  8
0
  6
CONTINUOUS
 62
3
 10
48.045610805222623
 20
-76.915160548404856
 11
48.045610805222623
 21
-93.915148538514131
  0
LINE
  8
0
  6
CONTINUOUS
 62
3
 10
71.545610805222623
 20
-73.915160548404401
 11
51.045610805222623
 21
-73.915160548404401
  0
ARC
  8
0
  6
CONTINUOUS
 62
3
 10
55.045610805222623
 20
-101.766046468857430
 40
5.000000000000153
 50
272.000000000003580
 51
356.081795638019740
  0
LINE
  8
0
  6
CONTINUOUS
 62
3
 10
34.545610805216256
 20
-107.484969964932580
 11
34.545610805223532
 21
-190.915160548404400
  0
LINE
  8
0
  6
CONTINUOUS
 62
3
 10
34.545610805216256
 20
-107.484969964932580
 11
55.220108288735446
 21
-106.763000603953060
  0
ARC
  8
0
  6
CONTINUOUS
 62
3
 10
55.045610805222623
 20
-280.064210383040520
 40
5.000000000000000
 50
0.000000000000000
 51
87.999999999996049
  0
LINE
  8
0
  6
CONTINUOUS
 62
3
 10
34.545610805216256
 20
-274.345286886965370
 11
34.545610805221713
 21
-190.915160548404400
  0
LINE
  8
0
  6
CONTINUOUS
 62
3
 10
60.045610805222623
 20
-158.647199346082290
 11
60.045610805222623
 21
-190.915160548404400
  0
LINE
  8
0
  6
CONTINUOUS
 62
3
 10
60.045610805222623
 20
-76.915160548404401
 11
60.045610805222623
 21
-129.183097730944160
  0
ARC
  8
0
  6
CONTINUOUS
 62
3
 10
55.045610805222623
 20
-133.183097730944160
 40
2.000000000000000
 50
90.000000000000000
 51
180.000000000000000
  0
LINE
  8
0
  6
CONTINUOUS
 62
3
 10
58.045610805222623
 20
-131.183097730944160
 11
55.045610805222623
 21
-131.183097730944160
  0
LINE
  8
0
  6
CONTINUOUS
 62
3
 10
53.045610805222623
 20
-133.183097730944160
 11
53.045610805222623
 21
-154.647199346082290
  0
ARC
  8
0
  6
CONTINUOUS
 62
3
 10
55.045610805222623
 20
-154.647199346082290
 40
2.000000000000000
 50
180.000000000000000
 51
270.000000000000000
  0
LINE
  8
0
  6
CONTINUOUS
 62
3
 10
58.045610805222623
 20
-156.647199346082290
 11
55.045610805222623
 21
-156.647199346082290
  0
ARC
  8
0
  6
CONTINUOUS
 62
3
 10
58.045610805222623
 20
-158.647199346082290
 40
2.000000000000000
 50
0.000000000000000
 51
90.000000000000000
  0
ARC
  8
0
  6
CONTINUOUS
 62
3
 10
58.045610805222623
 20
-129.183097730944160
 40
2.000000000000000
 50
270.000000000000000
 51
0.000000000000000
  0
ARC
  8
0
  6
CONTINUOUS
 62
3
 10
63.045610805222623
 20
-76.915160548404401
 40
3.000000000000000
 50
90.000000000000000
 51
180.000000000000000
  0
ARC
  8
0
  6
CONTINUOUS
 62
3
 10
63.045610805222623
 20
-298.915163238619240
 40
3.000000000000000
 50
180.000000000000000
 51
270.000000000000000
  0
LINE
  8
0
  6
CONTINUOUS
 62
3
 10
60.045610805222623
 20
-297.915163238619240
 11
60.045610805222623
 21
-190.915160548404400
  0
LINE
  8
0
  6
CONTINUOUS
 62
3
 10
71.045610805222623
 20
-73.915181458069583
 11
71.045610805222623
 21
-190.915160548404400
  0
LINE
  8
0
  6
CONTINUOUS
 62
3
 10
71.545610805222623
 20
-301.915163238619240
 11
63.045610805222623
 21
-301.915163238619240
  0
LINE
  8
0
  6
CONTINUOUS
 62
3
 10
71.045610805222623
 20
-301.915163238619240
 11
71.045610805222623
 21
-190.915160548404400
  0
LINE
  8
0
  6
CONTINUOUS
 62
3
 10
34.545610805216256
 20
-274.345286886965370
 11
55.220108288735446
 21
-275.067256247945810
  0
ARC
  8
0
  6
CONTINUOUS
 62
3
 10
48.045610805222168
 20
-99.111300961220422
 40
3.000000000000000
 50
0.000000000000000
 51
59.999999999998380
  0
ARC
  8
0
  6
CONTINUOUS
 62
3
 10
48.045610805222168
 20
-104.011710943897460
 40
3.000000000000455
 50
272.000000000003350
 51
0.000000000000000
  0
LINE
  8
0
  6
CONTINUOUS
 62
3
 10
51.045610805222168
 20
-99.111300961220422
 11
51.045610805222168
 21
-104.011710943897460
  0
ARC
  8
0
  6
CONTINUOUS
 62
3
 10
51.045610805222168
 20
-93.915127628848950
 40
3.000000000000000
 50
180.000000000000000
 51
239.999999999989710
  0
LINE
  8
0
  6
CONTINUOUS
 62
3
 10
-105.454389194778050
 20
-159.915160548404510
 11
-105.454389194778050
 21
-189.415160548404510
  0
LINE
  8
0
  6
CONTINUOUS
 62
3
 10
-106.454389194778050
 20
-188.915160548404510
 11
-106.454389194778050
 21
-159.915160548404510
  0
ARC
  8
0
  6
CONTINUOUS
 62
3
 10
-107.454389194778050
 20
-188.915160548404510
 40
1.000000000000000
 50
270.000000000000000
 51
0.000000000000000
  0
ARC
  8
0
  6
CONTINUOUS
 62
3
 10
-107.454389194778050
 20
-189.415160548404510
 40
2.000000000000000
 50
270.000000000000000
 51
0.000000000000000
  0
LINE
  8
0
  6
CONTINUOUS
 62
3
 10
-107.454389194778050
 20
-189.915160548404510
 11
-178.454389194778060
 21
-189.915160548404510
  0
LINE
  8
0
  6
CONTINUOUS
 62
3
 10
-180.454389194778060
 20
-159.915160548404510
 11
-180.454389194778060
 21
-189.415160548404510
  0
ARC
  8
0
  6
CONTINUOUS
 62
3
 10
-178.454389194778060
 20
-189.415160548404510
 40
2.000000000000000
 50
180.000000000000000
 51
270.000000000000000
  0
LINE
  8
0
  6
CONTINUOUS
 62
3
 10
-107.454389194778050
 20
-191.415160548404510
 11
-178.454389194778060
 21
-191.415160548404510
  0
LINE
  8
0
  6
CONTINUOUS
 62
3
 10
-179.454389194778060
 20
-159.915160548404510
 11
-179.454389194778060
 21
-188.915160548404510
  0
ARC
  8
0
  6
CONTINUOUS
 62
3
 10
-178.454389194778060
 20
-188.915160548404510
 40
1.000000000000000
 50
180.000000000000000
 51
270.000000000000000
  0
LINE
  8
0
  6
CONTINUOUS
 62
3
 10
-105.454389194778050
 20
-159.915160548404510
 11
-105.454389194778050
 21
-130.415160548404510
  0
ARC
  8
0
  6
CONTINUOUS
 62
3
 10
-107.454389194778050
 20
-130.915160548404510
 40
1.000000000000000
 50
0.000000000000000
 51
90.000000000000000
  0
LINE
  8
0
  6
CONTINUOUS
 62
3
 10
-106.454389194778050
 20
-130.915160548404510
 11
-106.454389194778050
 21
-159.915160548404510
  0
ARC
  8
0
  6
CONTINUOUS
 62
3
 10
-107.454389194778050
 20
-130.415160548404510
 40
2.000000000000000
 50
0.000000000000000
 51
90.000000000000000
  0
LINE
  8
0
  6
CONTINUOUS
 62
3
 10
-107.454389194778050
 20
-129.915160548404510
 11
-178.454389194778060
 21
-129.915160548404510
  0
LINE
  8
0
  6
CONTINUOUS
 62
3
 10
-179.454389194778060
 20
-159.915160548404510
 11
-179.454389194778060
 21
-130.915160548404510
  0
LINE
  8
0
  6
CONTINUOUS
 62
3
 10
-107.454389194778050
 20
-128.415160548404510
 11
-178.454389194778060
 21
-128.415160548404510
  0
ARC
  8
0
  6
CONTINUOUS
 62
3
 10
-178.454389194778060
 20
-130.915160548404510
 40
1.000000000000000
 50
90.000000000000000
 51
180.000000000000000
  0
ARC
  8
0
  6
CONTINUOUS
 62
3
 10
-178.454389194778060
 20
-130.415160548404510
 40
2.000000000000000
 50
90.000000000000000
 51
180.000000000000000
  0
LINE
  8
0
  6
CONTINUOUS
 62
3
 10
-180.454389194778060
 20
-159.915160548404510
 11
-180.454389194778060
 21
-130.415160548404510
  0
LINE
  8
0
  6
CONTINUOUS
 62
3
 10
-182.454389194799210
 20
-159.915160548404510
 11
-182.454389194799210
 21
-194.915160548404510
  0
LINE
  8
0
  6
CONTINUOUS
 62
3
 10
-175.454389194799210
 20
-197.915160548404510
 11
-179.454389194799210
 21
-197.915160548404510
  0
ARC
  8
0
  6
CONTINUOUS
 62
3
 10
-179.454389194799210
 20
-194.915160548404510
 40
3.000000000000000
 50
180.000000000000000
 51
270.000000000000000
  0
LINE
  8
0
  6
CONTINUOUS
 62
3
 10
-172.454389194799210
 20
-213.915160548404740
 11
-172.454389194799210
 21
-200.915160548404510
  0
ARC
  8
0
  6
CONTINUOUS
 62
3
 10
-175.454389194799210
 20
-200.915160548404510
 40
3.000000000000000
 50
0.000000000000000
 51
90.000000000000000
  0
POLYLINE
  8
0
  6
CONTINUOUS
 62
3
 66
1
 70
1
  0
VERTEX
  8
0
  6
CONTINUOUS
 62
3
 10
-178.754389194798990
 20
-207.242491502752050
  0
VERTEX
  8
0
  6
CONTINUOUS
 62
3
 10
-178.844698376903810
 20
-206.539534536551680
  0
VERTEX
  8
0
  6
CONTINUOUS
 62
3
 10
-179.112155391995940
 20
-205.863591812339590
  0
VERTEX
  8
0
  6
CONTINUOUS
 62
3
 10
-179.546482016977020
 20
-205.240639429934190
  0
VERTEX
  8
0
  6
CONTINUOUS
 62
3
 10
-180.130987323222200
 20
-204.694617100035600
  0
VERTEX
  8
0
  6
CONTINUOUS
 62
3
 10
-180.843209099606870
 20
-204.246508154568970
  0
VERTEX
  8
0
  6
CONTINUOUS
 62
3
 10
-181.655777062683060
 20
-203.913533169006230
  0
VERTEX
  8
0
  6
CONTINUOUS
 62
3
 10
-182.537464681323170
 20
-203.708488185307970
  0
VERTEX
  8
0
  6
CONTINUOUS
 62
3
 10
-183.454389194798980
 20
-203.639252967207200
  0
VERTEX
  8
0
  6
CONTINUOUS
 62
3
 10
-184.371313708274780
 20
-203.708488185307970
  0
VERTEX
  8
0
  6
CONTINUOUS
 62
3
 10
-185.253001326914900
 20
-203.913533169006230
  0
VERTEX
  8
0
  6
CONTINUOUS
 62
3
 10
-186.065569289991090
 20
-204.246508154568970
  0
VERTEX
  8
0
  6
CONTINUOUS
 62
3
 10
-186.777791066375760
 20
-204.694617100035600
  0
VERTEX
  8
0
  6
CONTINUOUS
 62
3
 10
-187.362296372620930
 20
-205.240639429934190
  0
VERTEX
  8
0
  6
CONTINUOUS
 62
3
 10
-187.796622997602010
 20
-205.863591812339590
  0
VERTEX
  8
0
  6
CONTINUOUS
 62
3
 10
-188.064080012694150
 20
-206.539534536551680
  0
VERTEX
  8
0
  6
CONTINUOUS
 62
3
 10
-188.154389194798970
 20
-207.242491502752050
  0
VERTEX
  8
0
  6
CONTINUOUS
 62
3
 10
-188.064080012694150
 20
-207.945448468952410
  0
VERTEX
  8
0
  6
CONTINUOUS
 62
3
 10
-187.796622997602010
 20
-208.621391193164500
  0
VERTEX
  8
0
  6
CONTINUOUS
 62
3
 10
-187.362296372620930
 20
-209.244343575569900
  0
VERTEX
  8
0
  6
CONTINUOUS
 62
3
 10
-186.777791066375730
 20
-209.790365905468490
  0
VERTEX
  8
0
  6
CONTINUOUS
 62
3
 10
-186.065569289991090
 20
-210.238474850935120
  0
VERTEX
  8
0
  6
CONTINUOUS
 62
3
 10
-185.253001326914900
 20
-210.571449836497860
  0
VERTEX
  8
0
  6
CONTINUOUS
 62
3
 10
-184.371313708274780
 20
-210.776494820196120
  0
VERTEX
  8
0
  6
CONTINUOUS
 62
3
 10
-183.454389194798980
 20
-210.845730038296890
  0
VERTEX
  8
0
  6
CONTINUOUS
 62
3
 10
-182.537464681323170
 20
-210.776494820196120
  0
VERTEX
  8
0
  6
CONTINUOUS
 62
3
 10
-181.655777062683060
 20
-210.571449836497860
  0
VERTEX
  8
0
  6
CONTINUOUS
 62
3
 10
-180.843209099606870
 20
-210.238474850935120
  0
VERTEX
  8
0
  6
CONTINUOUS
 62
3
 10
-180.130987323222230
 20
-209.790365905468490
  0
VERTEX
  8
0
  6
CONTINUOUS
 62
3
 10
-179.546482016977020
 20
-209.244343575569900
  0
VERTEX
  8
0
  6
CONTINUOUS
 62
3
 10
-179.112155391995940
 20
-208.621391193164500
  0
VERTEX
  8
0
  6
CONTINUOUS
 62
3
 10
-178.844698376903810
 20
-207.945448468952410
  0
SEQEND
  8
0
  6
CONTINUOUS
 62
3
  0
LINE
  8
0
  6
CONTINUOUS
 62
3
 10
-185.454389194799210
 20
-210.234867056752480
 11
-183.454389194799430
 21
-209.059081571129580
  0
LINE
  8
0
  6
CONTINUOUS
 62
3
 10
-183.454389194799430
 20
-209.059081571129580
 11
-181.454389194799210
 21
-207.406439932006260
  0
LINE
  8
0
  6
CONTINUOUS
 62
3
 10
-181.454389194799210
 20
-210.234867056752480
 11
-183.454389194799430
 21
-209.059081571129580
  0
LINE
  8
0
  6
CONTINUOUS
 62
3
 10
-183.454389194799430
 20
-209.059081571129580
 11
-185.454389194799210
 21
-207.406439932006260
  0
LINE
  8
0
  6
CONTINUOUS
 62
4
 10
-182.454389194799210
 20
-188.671556099041600
 11
-180.454389194778060
 21
-188.671556099041600
  0
LINE
  8
0
  6
CONTINUOUS
 62
4
 10
-182.454389194799210
 20
-187.192532945564490
 11
-180.454389194778060
 21
-187.192532945564490
  0
LINE
  8
0
  6
CONTINUOUS
 62
4
 10
-182.454389194799210
 20
-184.099801953899260
 11
-180.454389194778060
 21
-184.099801953899260
  0
LINE
  8
0
  6
CONTINUOUS
 62
4
 10
-182.454389194799210
 20
-182.753400228400660
 11
-180.454389194778060
 21
-182.753400228400660
  0
LINE
  8
0
  6
CONTINUOUS
 62
4
 10
-182.454389194799210
 20
-179.915160548404510
 11
-180.454389194778060
 21
-179.915160548404510
  0
LINE
  8
0
  6
CONTINUOUS
 62
3
 10
-172.454389194799210
 20
-213.915160548404740
 11
-201.959234143892220
 21
-213.915160548404740
  0
ARC
  8
0
  6
CONTINUOUS
 62
3
 10
-201.959234143892220
 20
-193.315160548404720
 40
20.599999999999891
 50
235.000000000000400
 51
270.000000000000000
  0
ARC
  8
0
  6
CONTINUOUS
 62
3
 10
-219.854389194799520
 20
-202.758780682034060
 40
2.599999999999909
 50
180.000000000000000
 51
234.999999999997390
  0
LINE
  8
0
  6
CONTINUOUS
 62
3
 10
-222.454389194799430
 20
-202.758780682034060
 11
-222.454389194799430
 21
-159.915160548404510
  0
LINE
  8
0
  6
CONTINUOUS
 62
3
 10
-213.774908732723590
 20
-210.189692660757940
 11
-221.345687929312360
 21
-204.888575997185400
  0
LINE
  8
0
  6
CONTINUOUS
 62
3
 10
-182.454389194799210
 20
-159.915160548404510
 11
-182.454389194799210
 21
-124.915160548404510
  0
LINE
  8
0
  6
CONTINUOUS
 62
3
 10
-175.454389194799210
 20
-121.915160548404510
 11
-179.454389194799210
 21
-121.915160548404510
  0
ARC
  8
0
  6
CONTINUOUS
 62
3
 10
-179.454389194799210
 20
-124.915160548404510
 40
3.000000000000000
 50
90.000000000000000
 51
180.000000000000000
  0
LINE
  8
0
  6
CONTINUOUS
 62
3
 10
-172.454389194799210
 20
-105.915160548404280
 11
-172.454389194799210
 21
-118.915160548404510
  0
ARC
  8
0
  6
CONTINUOUS
 62
3
 10
-175.454389194799210
 20
-118.915160548404510
 40
3.000000000000000
 50
270.000000000000000
 51
0.000000000000000
  0
POLYLINE
  8
0
  6
CONTINUOUS
 62
3
 66
1
 70
1
  0
VERTEX
  8
0
  6
CONTINUOUS
 62
3
 10
-178.754389194798990
 20
-112.587829594056870
  0
VERTEX
  8
0
  6
CONTINUOUS
 62
3
 10
-178.844698376903810
 20
-111.884872627856510
  0
VERTEX
  8
0
  6
CONTINUOUS
 62
3
 10
-179.112155391995940
 20
-111.208929903644410
  0
VERTEX
  8
0
  6
CONTINUOUS
 62
3
 10
-179.546482016977020
 20
-110.585977521239010
  0
VERTEX
  8
0
  6
CONTINUOUS
 62
3
 10
-180.130987323222200
 20
-110.039955191340430
  0
VERTEX
  8
0
  6
CONTINUOUS
 62
3
 10
-180.843209099606870
 20
-109.591846245873820
  0
VERTEX
  8
0
  6
CONTINUOUS
 62
3
 10
-181.655777062683060
 20
-109.258871260311050
  0
VERTEX
  8
0
  6
CONTINUOUS
 62
3
 10
-182.537464681323170
 20
-109.053826276612810
  0
VERTEX
  8
0
  6
CONTINUOUS
 62
3
 10
-183.454389194798980
 20
-108.984591058512030
  0
VERTEX
  8
0
  6
CONTINUOUS
 62
3
 10
-184.371313708274780
 20
-109.053826276612810
  0
VERTEX
  8
0
  6
CONTINUOUS
 62
3
 10
-185.253001326914900
 20
-109.258871260311050
  0
VERTEX
  8
0
  6
CONTINUOUS
 62
3
 10
-186.065569289991090
 20
-109.591846245873820
  0
VERTEX
  8
0
  6
CONTINUOUS
 62
3
 10
-186.777791066375760
 20
-110.039955191340430
  0
VERTEX
  8
0
  6
CONTINUOUS
 62
3
 10
-187.362296372620930
 20
-110.585977521239010
  0
VERTEX
  8
0
  6
CONTINUOUS
 62
3
 10
-187.796622997602010
 20
-111.208929903644410
  0
VERTEX
  8
0
  6
CONTINUOUS
 62
3
 10
-188.064080012694150
 20
-111.884872627856510
  0
VERTEX
  8
0
  6
CONTINUOUS
 62
3
 10
-188.154389194798970
 20
-112.587829594056870
  0
VERTEX
  8
0
  6
CONTINUOUS
 62
3
 10
-188.064080012694150
 20
-113.290786560257230
  0
VERTEX
  8
0
  6
CONTINUOUS
 62
3
 10
-187.796622997602010
 20
-113.966729284469320
  0
VERTEX
  8
0
  6
CONTINUOUS
 62
3
 10
-187.362296372620930
 20
-114.589681666874720
  0
VERTEX
  8
0
  6
CONTINUOUS
 62
3
 10
-186.777791066375730
 20
-115.135703996773300
  0
VERTEX
  8
0
  6
CONTINUOUS
 62
3
 10
-186.065569289991090
 20
-115.583812942239910
  0
VERTEX
  8
0
  6
CONTINUOUS
 62
3
 10
-185.253001326914900
 20
-115.916787927802680
  0
VERTEX
  8
0
  6
CONTINUOUS
 62
3
 10
-184.371313708274780
 20
-116.121832911500930
  0
VERTEX
  8
0
  6
CONTINUOUS
 62
3
 10
-183.454389194798980
 20
-116.191068129601700
  0
VERTEX
  8
0
  6
CONTINUOUS
 62
3
 10
-182.537464681323170
 20
-116.121832911500930
  0
VERTEX
  8
0
  6
CONTINUOUS
 62
3
 10
-181.655777062683060
 20
-115.916787927802680
  0
VERTEX
  8
0
  6
CONTINUOUS
 62
3
 10
-180.843209099606870
 20
-115.583812942239910
  0
VERTEX
  8
0
  6
CONTINUOUS
 62
3
 10
-180.130987323222230
 20
-115.135703996773300
  0
VERTEX
  8
0
  6
CONTINUOUS
 62
3
 10
-179.546482016977020
 20
-114.589681666874720
  0
VERTEX
  8
0
  6
CONTINUOUS
 62
3
 10
-179.112155391995940
 20
-113.966729284469320
  0
VERTEX
  8
0
  6
CONTINUOUS
 62
3
 10
-178.844698376903810
 20
-113.290786560257230
  0
SEQEND
  8
0
  6
CONTINUOUS
 62
3
  0
LINE
  8
0
  6
CONTINUOUS
 62
3
 10
-185.454389194799210
 20
-109.595454040056550
 11
-183.454389194799430
 21
-110.771239525679330
  0
LINE
  8
0
  6
CONTINUOUS
 62
3
 10
-183.454389194799430
 20
-110.771239525679330
 11
-181.454389194799210
 21
-112.423881164802760
  0
LINE
  8
0
  6
CONTINUOUS
 62
3
 10
-181.454389194799210
 20
-109.595454040056550
 11
-183.454389194799430
 21
-110.771239525679330
  0
LINE
  8
0
  6
CONTINUOUS
 62
3
 10
-183.454389194799430
 20
-110.771239525679330
 11
-185.454389194799210
 21
-112.423881164802760
  0
ARC
  8
0
  6
CONTINUOUS
 62
3
 10
-201.959234143892220
 20
-126.515160548404310
 40
20.600000000000023
 50
90.000000000000000
 51
124.999999999999600
  0
ARC
  8
0
  6
CONTINUOUS
 62
3
 10
-219.854389194799520
 20
-117.071540414774970
 40
2.600000000000131
 50
125.000000000001180
 51
180.000000000000000
  0
LINE
  8
0
  6
CONTINUOUS
 62
3
 10
-222.454389194799430
 20
-117.071540414774970
 11
-222.454389194799430
 21
-159.915160548404510
  0
LINE
  8
0
  6
CONTINUOUS
 62
3
 10
-213.774908732723590
 20
-109.640628436050970
 11
-221.345687929312360
 21
-114.941745099623510
  0
LINE
  8
0
  6
CONTINUOUS
 62
3
 10
-172.454389194799210
 20
-105.915160548404280
 11
-201.959234143892220
 21
-105.915160548404280
  0
LINE
  8
0
  6
CONTINUOUS
 62
4
 10
-182.454389194799210
 20
-139.915160548404510
 11
-180.454389194778060
 21
-139.915160548404510
  0
LINE
  8
0
  6
CONTINUOUS
 62
4
 10
-182.454389194799210
 20
-131.158764997767430
 11
-180.454389194778060
 21
-131.158764997767430
  0
LINE
  8
0
  6
CONTINUOUS
 62
4
 10
-182.454389194799210
 20
-132.637788151244540
 11
-180.454389194778060
 21
-132.637788151244540
  0
LINE
  8
0
  6
CONTINUOUS
 62
4
 10
-182.454389194799210
 20
-135.730519142909770
 11
-180.454389194778060
 21
-135.730519142909770
  0
LINE
  8
0
  6
CONTINUOUS
 62
4
 10
-182.454389194799210
 20
-137.076920868408370
 11
-180.454389194778060
 21
-137.076920868408370
  0
LINE
  8
0
  6
CONTINUOUS
 62
4
 10
-105.454389194778050
 20
-131.158764997767430
 11
-31.954389194778287
 21
-131.158764997767430
  0
LINE
  8
0
  6
CONTINUOUS
 62
4
 10
-105.454389194778050
 20
-132.637788151244540
 11
-31.954389194778287
 21
-132.637788151244540
  0
LINE
  8
0
  6
CONTINUOUS
 62
4
 10
-105.454389194778050
 20
-135.730519142909770
 11
-31.954389194778287
 21
-135.730519142909770
  0
LINE
  8
0
  6
CONTINUOUS
 62
4
 10
-105.454389194778050
 20
-137.076920868408370
 11
-31.954389194778287
 21
-137.076920868408370
  0
LINE
  8
0
  6
CONTINUOUS
 62
4
 10
-105.454389194778050
 20
-139.915160548404510
 11
-31.954389194778287
 21
-139.915160548404510
  0
LINE
  8
0
  6
CONTINUOUS
 62
4
 10
-172.611989541170490
 20
-119.874725141880040
 11
-31.954389194778287
 21
-119.874725141880040
  0
LINE
  8
0
  6
CONTINUOUS
 62
4
 10
-172.454389194799210
 20
-115.410505021299620
 11
-31.954389194778287
 21
-115.410505021299620
  0
LINE
  8
0
  6
CONTINUOUS
 62
4
 10
-182.454389194799210
 20
-128.200769389634500
 11
-31.954389194778287
 21
-128.200769389634500
  0
LINE
  8
0
  6
CONTINUOUS
 62
4
 10
-182.454389194799210
 20
-126.611559596895740
 11
-31.954389194778287
 21
-126.611559596895740
  0
LINE
  8
0
  6
CONTINUOUS
 62
4
 10
-172.454389194799210
 20
-118.873246778064750
 11
-31.954389194778287
 21
-118.873246778064750
  0
LINE
  8
0
  6
CONTINUOUS
 62
4
 10
-172.454389194799210
 20
-113.782077953521820
 11
-31.954389194778287
 21
-113.782077953521820
  0
LINE
  8
0
  6
CONTINUOUS
 62
4
 10
-172.454389194799210
 20
-108.915160548404400
 11
-31.954389194778287
 21
-108.915160548404400
  0
LINE
  8
0
  6
CONTINUOUS
 62
4
 10
-172.454389194799210
 20
-109.415160548404510
 11
-31.954389194778287
 21
-109.415160548404510
  0
LINE
  8
0
  6
CONTINUOUS
 62
3
 10
-31.954389194778287
 20
-107.415160548404510
 11
-172.454389194799210
 21
-107.415160548404510
  0
LINE
  8
0
  6
CONTINUOUS
 62
4
 10
-182.454389194799210
 20
-191.629551707174530
 11
-31.954389194778287
 21
-191.629551707174530
  0
LINE
  8
0
  6
CONTINUOUS
 62
4
 10
-182.454389194799210
 20
-193.218761499913170
 11
-31.954389194778287
 21
-193.218761499913170
  0
LINE
  8
0
  6
CONTINUOUS
 62
4
 10
-172.611989541170490
 20
-199.955595954928870
 11
-31.954389194778287
 21
-199.955595954928870
  0
LINE
  8
0
  6
CONTINUOUS
 62
4
 10
-172.454389194799210
 20
-200.957074318744160
 11
-31.954389194778287
 21
-200.957074318744160
  0
LINE
  8
0
  6
CONTINUOUS
 62
4
 10
-172.454389194799210
 20
-204.419816075509400
 11
-31.954389194778287
 21
-204.419816075509400
  0
LINE
  8
0
  6
CONTINUOUS
 62
4
 10
-172.454389194799210
 20
-206.048243143287210
 11
-31.954389194778287
 21
-206.048243143287210
  0
LINE
  8
0
  6
CONTINUOUS
 62
4
 10
-172.454389194799210
 20
-210.915160548404510
 11
-31.954389194778287
 21
-210.915160548404510
  0
LINE
  8
0
  6
CONTINUOUS
 62
4
 10
-172.454389194799210
 20
-210.415160548404510
 11
-31.954389194778287
 21
-210.415160548404510
  0
LINE
  8
0
  6
CONTINUOUS
 62
3
 10
-31.954389194778287
 20
-212.415160548404510
 11
-172.454389194799210
 21
-212.415160548404510
  0
LINE
  8
0
  6
CONTINUOUS
 62
4
 10
-105.454389194778050
 20
-188.671556099041600
 11
-31.954389194778287
 21
-188.671556099041600
  0
LINE
  8
0
  6
CONTINUOUS
 62
4
 10
-105.454389194778050
 20
-187.192532945564490
 11
-31.954389194778287
 21
-187.192532945564490
  0
LINE
  8
0
  6
CONTINUOUS
 62
4
 10
-105.454389194778050
 20
-184.099801953899260
 11
-31.954389194778287
 21
-184.099801953899260
  0
LINE
  8
0
  6
CONTINUOUS
 62
4
 10
-105.454389194778050
 20
-182.753400228400660
 11
-31.954389194778287
 21
-182.753400228400660
  0
LINE
  8
0
  6
CONTINUOUS
 62
4
 10
-105.454389194778050
 20
-179.915160548404510
 11
-31.954389194778287
 21
-179.915160548404510
  0
LINE
  8
0
  6
CONTINUOUS
 62
3
 10
34.545626159356175
 20
-274.415160548404510
 11
34.545626159356175
 21
-108.688453647784510
  0
ARC
  8
0
  6
CONTINUOUS
 62
3
 10
-11.086892197181783
 20
-108.915160548404510
 40
4.999999999999967
 50
200.487315114722800
 51
270.000000000000000
  0
ARC
  8
0
  6
CONTINUOUS
 62
3
 10
-20.454389194779310
 20
-112.415160548404510
 40
5.000000000000000
 50
0.000000000002606
 51
90.000000000000000
  0
LINE
  8
0
  6
CONTINUOUS
 62
3
 10
-20.454389194779310
 20
-107.415160548404510
 11
-31.954389194778287
 21
-107.415160548404510
  0
LINE
  8
0
  6
CONTINUOUS
 62
3
 10
-15.454389194779310
 20
-112.415160548404280
 11
-15.454389194777548
 21
-144.915160548404630
  0
ARC
  8
0
  6
CONTINUOUS
 62
3
 10
-12.454389194778798
 20
-121.915160548404740
 40
3.000000000000000
 50
180.000000000004350
 51
270.000000000000000
  0
LINE
  8
0
  6
CONTINUOUS
 62
3
 10
20.041704159166500
 20
-113.915160548404510
 11
-11.086892197181783
 21
-113.915160548404510
  0
LINE
  8
0
  6
DASHDOT
 62
4
 10
3.545626159356175
 20
-138.659272540123650
 11
3.545626159356175
 21
-110.019370279308190
  0
LINE
  8
0
  6
CONTINUOUS
 62
3
 10
21.545626159356175
 20
-124.915160548404740
 11
-12.454389194778798
 21
-124.915160548404740
  0
LINE
  8
0
  6
CONTINUOUS
 62
3
 10
-12.454389194777548
 20
-147.915160548404510
 11
21.545626159356175
 21
-147.915160548404510
  0
ARC
  8
0
  6
CONTINUOUS
 62
3
 10
-12.454389194777548
 20
-144.915160548404510
 40
3.000000000000000
 50
180.000000000002160
 51
270.000000000000000
  0
LINE
  8
0
  6
CONTINUOUS
 62
3
 10
-31.954389194779935
 20
-139.915160548404510
 11
-15.454389194777832
 21
-139.915160548404510
  0
ARC
  8
0
  6
CONTINUOUS
 62
3
 10
21.545626159356175
 20
-121.915160548404740
 40
3.000000000000000
 50
270.000000000000000
 51
0.000000000000000
  0
LINE
  8
0
  6
CONTINUOUS
 62
3
 10
34.545626656037939
 20
-108.688453647784510
 11
27.545626159356175
 21
-108.688453647784510
  0
ARC
  8
0
  6
CONTINUOUS
 62
3
 10
27.545626159356175
 20
-111.688453647784510
 40
3.000000000000000
 50
90.000000000000000
 51
180.000000000000000
  0
LINE
  8
0
  6
CONTINUOUS
 62
3
 10
24.545626159356175
 20
-111.688453647784510
 11
24.545626159356175
 21
-258.707397632556880
  0
ARC
  8
0
  6
CONTINUOUS
 62
3
 10
20.041704159166500
 20
-108.915160548404510
 40
5.000000000000000
 50
270.000000000000000
 51
339.716738662470730
  0
ARC
  8
0
  6
CONTINUOUS
 62
3
 10
21.545626159356175
 20
-144.915160548404510
 40
3.000000000000000
 50
270.000000000000000
 51
0.000000000000000
  0
LINE
  8
0
  6
CONTINUOUS
 62
3
 10
21.545626159356175
 20
-179.915160548404510
 11
-31.954389194781982
 21
-179.915160548404510
  0
ARC
  8
0
  6
CONTINUOUS
 62
3
 10
21.545626159356175
 20
-182.915160548404510
 40
3.000000000000000
 50
0.000000000000000
 51
90.000000000000000
  0
LINE
  8
0
  6
CONTINUOUS
 62
3
 10
-31.954389194778287
 20
-107.415160548404510
 11
-31.954389194783573
 21
-212.423887812860930
  0
ARC
  8
0
  6
CONTINUOUS
 62
3
 10
-25.454389194779651
 20
-217.538107375114240
 40
5.000000000000000
 50
0.000000000002606
 51
88.999999999999545
  0
LINE
  8
0
  6
CONTINUOUS
 62
3
 10
-25.367127162593079
 20
-212.538868899332210
 11
-31.954373840643825
 21
-212.423888080868550
  0
LINE
  8
0
  6
CONTINUOUS
 62
3
 10
-20.454389194779651
 20
-217.538107375114010
 11
-20.454389194779537
 21
-221.086716674369310
  0
LINE
  8
0
  6
CONTINUOUS
 62
3
 10
-10.675565853092337
 20
-226.256644584220000
 11
-15.628886678292076
 21
-226.083670809464590
  0
ARC
  8
0
  6
CONTINUOUS
 62
3
 10
-15.454389194779537
 20
-221.086716674369090
 40
5.000000000000000
 50
180.000000000002590
 51
267.999999999999600
  0
LINE
  8
0
  6
CONTINUOUS
 62
3
 10
-31.954389194782777
 20
-195.915160548404510
 11
-25.454389194783005
 21
-195.915160548404510
  0
LINE
  8
0
  6
CONTINUOUS
 62
3
 10
-20.454389194783005
 20
-200.915160548404740
 11
-20.454389194783857
 21
-217.538107375114460
  0
ARC
  8
0
  6
CONTINUOUS
 62
3
 10
-25.454389194783005
 20
-200.915160548404510
 40
5.000000000000000
 50
359.999999999997390
 51
90.000000000000000
  0
LINE
  8
0
  6
CONTINUOUS
 62
3
 10
-16.738102845626884
 20
-218.827875578239510
 11
23.419382792006445
 21
-268.035110937018770
  0
ARC
  8
0
  6
CONTINUOUS
 62
3
 10
-19.062356825217080
 20
-220.724673785313480
 40
2.999999999999983
 50
39.217507581692963
 51
90.000000000000000
  0
LINE
  8
0
  6
CONTINUOUS
 62
3
 10
-12.023714324671460
 20
-217.724673785313480
 11
19.813653266587494
 21
-217.724673785313480
  0
ARC
  8
0
  6
CONTINUOUS
 62
3
 10
19.545626159356175
 20
-271.196441282142250
 40
5.000000000000000
 50
0.000000000000000
 51
39.217507581695052
  0
POINT
  8
0
  6
CONTINUOUS
 62
3
 10
24.545626159356175
 20
-269.415160548404510
  0
ARC
  8
0
  6
CONTINUOUS
 62
3
 10
27.545626159356175
 20
-271.415160548404510
 40
3.000000000000003
 50
179.993727629290820
 51
270.000000000000000
  0
LINE
  8
0
  6
CONTINUOUS
 62
3
 10
24.545626159356175
 20
-258.707397632556760
 11
24.545626159356175
 21
-271.421355277137990
  0
LINE
  8
0
  6
CONTINUOUS
 62
3
 10
27.545626159356175
 20
-274.415160548404510
 11
34.545626159356175
 21
-274.415160548404510
  0
LINE
  8
0
  6
CONTINUOUS
 62
3
 10
189.045616856430120
 20
-78.651258229648121
 11
185.045616856430200
 21
-78.651258229648136
  0
LINE
  8
0
  6
CONTINUOUS
 62
3
 10
189.045616856429380
 20
-47.199431795886092
 11
185.045616856429490
 21
-47.199431795886092
  0
LINE
  8
0
  6
CONTINUOUS
 62
3
 10
185.045616856431740
 20
-153.915160548404400
 11
189.045616856431820
 21
-153.915160548404400
  0
LINE
  8
0
  6
CONTINUOUS
 62
3
 10
182.045616856429460
 20
-50.199431795886156
 11
182.045616856431760
 21
-150.915160548404460
  0
ARC
  8
0
  6
CONTINUOUS
 62
3
 10
185.045616856429460
 20
-50.199431795886092
 40
3.000000000000000
 50
90.000000000000000
 51
180.000000000001220
  0
ARC
  8
0
  6
CONTINUOUS
 62
3
 10
185.045616856431740
 20
-150.915160548404400
 40
2.999999999999972
 50
180.000000000001080
 51
270.000000000000000
  0
ARC
  8
0
  6
CONTINUOUS
 62
3
 10
185.045616856430170
 20
-81.651258229648136
 40
3.000000000000000
 50
90.000000000000000
 51
180.000000000001080
  0
LINE
  8
0
  6
CONTINUOUS
 62
3
 10
185.045616856431740
 20
-163.915160548404400
 11
189.045616856431820
 21
-163.915160548404400
  0
LINE
  8
0
  6
CONTINUOUS
 62
3
 10
189.045616856430120
 20
-239.179062867160670
 11
185.045616856430200
 21
-239.179062867160670
  0
LINE
  8
0
  6
CONTINUOUS
 62
3
 10
189.045616856429380
 20
-270.630889300922720
 11
185.045616856429490
 21
-270.630889300922720
  0
ARC
  8
0
  6
CONTINUOUS
 62
3
 10
185.045616856430170
 20
-236.179062867160670
 40
3.000000000000000
 50
179.999999999998890
 51
270.000000000000000
  0
ARC
  8
0
  6
CONTINUOUS
 62
3
 10
185.045616856431740
 20
-166.915160548404400
 40
3.000000000000000
 50
90.000000000000000
 51
179.999999999998890
  0
LINE
  8
0
  6
CONTINUOUS
 62
3
 10
182.045616856429460
 20
-267.630889300922600
 11
182.045616856431760
 21
-166.915160548404340
  0
ARC
  8
0
  6
CONTINUOUS
 62
3
 10
185.045616856429460
 20
-267.630889300922720
 40
3.000000000000000
 50
179.999999999997840
 51
270.000000000000000
  0
LINE
  8
0
  6
DASHDOT
 62
4
 10
141.871211911912720
 20
-158.915160548404400
 11
273.104018601255120
 21
-158.915160548404400
  0
LINE
  8
0
  6
DASHDOT
 62
4
 10
-22.725538058064330
 20
-159.915160548404510
 11
-236.370881744142930
 21
-159.915160548404510
  0
INSERT
  8
0
  2
SYM8
 10
24.545610805221713
 20
117.679531941402530
  0
INSERT
  8
0
  2
SYM9
 10
24.545610805221713
 20
227.281083025317230
  0
INSERT
  8
0
  2
SYM10
 10
60.045610805223077
 20
239.480307483359640
 41
-1.000000000000000
 50
180.000000000000000
  0
INSERT
  8
0
  2
SYM11
 10
43.545610805212618
 20
182.980307483359640
 41
-1.000000000000000
 50
180.000000000000000
  0
INSERT
  8
0
  2
SYM12
 10
60.045610805223077
 20
105.480307483359630
 50
0.000000000000014
  0
INSERT
  8
0
  2
SYM13
 10
43.545610805212618
 20
161.980307483359640
 50
0.000000000000014
  0
ARC
  8
0
  6
DASHED
 62
4
 10
-167.954389194778060
 20
100.480307483359860
 40
7.000000000000000
 50
180.000000000000000
 51
0.000000000000000
  0
LINE
  8
0
  6
DASHED
 62
4
 10
-160.954389194778060
 20
100.480307483359860
 11
-160.954389194778060
 21
114.980307483359860
  0
LINE
  8
0
  6
DASHED
 62
4
 10
-174.954389194778060
 20
100.480307483359860
 11
-174.954389194778060
 21
114.980307483359860
  0
LINE
  8
0
  6
DASHDOT
 62
4
 10
-177.040078301361630
 20
100.480307483359860
 11
-156.553490067652320
 21
100.480307483359860
  0
LINE
  8
0
  6
DASHDOT
 62
4
 10
-167.954389194778060
 20
91.536150225683741
 11
-167.954389194778060
 21
113.084639206215790
  0
CIRCLE
  8
0
  6
DASHED
 62
4
 10
-117.954389194778050
 20
100.480307483359860
 40
6.000000000000000
  0
ARC
  8
0
  6
DASHED
 62
4
 10
-117.954389194778050
 20
100.480307483359860
 40
7.000000000000000
 50
180.000000000000000
 51
0.000000000000000
  0
LINE
  8
0
  6
DASHED
 62
4
 10
-124.954389194778050
 20
100.480307483359860
 11
-124.954389194778050
 21
114.980307483359860
  0
LINE
  8
0
  6
DASHED
 62
4
 10
-110.954389194778050
 20
100.480307483359860
 11
-110.954389194778050
 21
114.980307483359860
  0
LINE
  8
0
  6
DASHDOT
 62
4
 10
-129.237918610504720
 20
100.480307483359860
 11
-107.470941201976410
 21
100.480307483359860
  0
LINE
  8
0
  6
DASHDOT
 62
4
 10
-117.954389194778050
 20
91.536150225683741
 11
-117.954389194778050
 21
113.515652358219080
  0
LINE
  8
0
  6
CONTINUOUS
 62
3
 10
-31.954389194778287
 20
118.980307483359860
 11
-31.954389194778287
 21
172.480307483359870
  0
LINE
  8
0
  6
CONTINUOUS
 62
3
 10
-31.954389194778287
 20
225.980307483359870
 11
-31.954389194778287
 21
172.480307483359870
  0
LINE
  8
0
  6
CONTINUOUS
 62
3
 10
-31.954389194778287
 20
118.980307483359860
 11
-105.454389194778050
 21
118.980307483359860
  0
LINE
  8
0
  6
CONTINUOUS
 62
3
 10
-31.954389194778287
 20
225.980307483359870
 11
-172.454389194799210
 21
225.980307483359870
  0
LINE
  8
0
  6
CONTINUOUS
 62
4
 10
-172.454389194799210
 20
223.480307483359870
 11
-31.954389194778287
 21
223.480307483359870
  0
LINE
  8
0
  6
CONTINUOUS
 62
4
 10
-172.454389194799210
 20
222.980307483359870
 11
-31.954389194778287
 21
222.980307483359870
  0
LINE
  8
0
  6
CONTINUOUS
 62
4
 10
-172.454389194799210
 20
218.613390078242560
 11
-31.954389194778287
 21
218.613390078242560
  0
LINE
  8
0
  6
CONTINUOUS
 62
4
 10
-172.454389194799210
 20
213.522221253699630
 11
-31.954389194778287
 21
213.522221253699630
  0
LINE
  8
0
  6
CONTINUOUS
 62
4
 10
-172.454389194799210
 20
205.783908434868640
 11
-31.954389194778287
 21
205.783908434868640
  0
LINE
  8
0
  6
CONTINUOUS
 62
4
 10
-172.454389194799210
 20
204.194698642129880
 11
-31.954389194778287
 21
204.194698642129880
  0
LINE
  8
0
  6
CONTINUOUS
 62
4
 10
-172.454389194799210
 20
201.236703033996950
 11
-31.954389194778287
 21
201.236703033996950
  0
LINE
  8
0
  6
CONTINUOUS
 62
4
 10
-172.454389194799210
 20
199.757679880519960
 11
-31.954389194778287
 21
199.757679880519960
  0
LINE
  8
0
  6
CONTINUOUS
 62
4
 10
-172.454389194799210
 20
196.664948888854610
 11
-31.954389194778287
 21
196.664948888854610
  0
LINE
  8
0
  6
CONTINUOUS
 62
4
 10
-172.454389194799210
 20
195.318547163356020
 11
-31.954389194778287
 21
195.318547163356020
  0
LINE
  8
0
  6
CONTINUOUS
 62
4
 10
-172.454389194799210
 20
192.108342139997720
 11
-31.954389194778287
 21
192.108342139997720
  0
LINE
  8
0
  6
CONTINUOUS
 62
4
 10
-172.454389194799210
 20
190.866422275109810
 11
-31.954389194778287
 21
190.866422275109810
  0
LINE
  8
0
  6
CONTINUOUS
 62
4
 10
-172.454389194799210
 20
186.480307483359870
 11
-31.954389194778287
 21
186.480307483359870
  0
LINE
  8
0
  6
CONTINUOUS
 62
4
 10
-172.454389194798980
 20
158.480307483359870
 11
-31.954389194778287
 21
158.480307483359870
  0
LINE
  8
0
  6
CONTINUOUS
 62
4
 10
-172.454389194798980
 20
154.094192691609920
 11
-31.954389194778287
 21
154.094192691609920
  0
LINE
  8
0
  6
CONTINUOUS
 62
4
 10
-172.454389194798980
 20
152.852272826722010
 11
-31.954389194778287
 21
152.852272826722010
  0
LINE
  8
0
  6
CONTINUOUS
 62
4
 10
-172.454389194798980
 20
149.642067803363720
 11
-31.954389194778287
 21
149.642067803363720
  0
LINE
  8
0
  6
CONTINUOUS
 62
4
 10
-172.454389194798980
 20
148.295666077865120
 11
-31.954389194778287
 21
148.295666077865120
  0
LINE
  8
0
  6
CONTINUOUS
 62
4
 10
-172.454389194798980
 20
145.202935086199890
 11
-31.954389194778287
 21
145.202935086199890
  0
LINE
  8
0
  6
CONTINUOUS
 62
4
 10
-172.454389194798980
 20
143.723911932722790
 11
-31.954389194778287
 21
143.723911932722790
  0
LINE
  8
0
  6
CONTINUOUS
 62
4
 10
-172.454389194798980
 20
139.176706531851210
 11
-31.954389194778287
 21
139.176706531851210
  0
LINE
  8
0
  6
CONTINUOUS
 62
4
 10
-172.454389194798980
 20
140.765916324589850
 11
-31.954389194778287
 21
140.765916324589850
  0
LINE
  8
0
  6
CONTINUOUS
 62
4
 10
-172.454389194798980
 20
131.438393713020100
 11
-31.954389194778287
 21
131.438393713020100
  0
LINE
  8
0
  6
CONTINUOUS
 62
4
 10
-172.454389194798980
 20
126.347224888477170
 11
-31.954389194778287
 21
126.347224888477280
  0
LINE
  8
0
  6
CONTINUOUS
 62
4
 10
-172.454389194798980
 20
121.980307483359860
 11
-31.954389194778287
 21
121.980307483359860
  0
LINE
  8
0
  6
CONTINUOUS
 62
4
 10
-172.454389194798980
 20
121.480307483359860
 11
-31.954389194778287
 21
121.480307483359860
  0
LINE
  8
0
  6
CONTINUOUS
 62
3
 10
-222.454389194799660
 20
220.323927616989180
 11
-222.454389194799430
 21
172.480307483359870
  0
LINE
  8
0
  6
CONTINUOUS
 62
3
 10
-213.774908732723590
 20
227.754839595713180
 11
-221.345687929312360
 21
222.453722932140520
  0
ARC
  8
0
  6
CONTINUOUS
 62
3
 10
-219.854389194799520
 20
220.323927616989180
 40
2.600000000000131
 50
125.000000000001180
 51
180.000000000000000
  0
ARC
  8
0
  6
CONTINUOUS
 62
3
 10
-201.959234143892220
 20
210.880307483359840
 40
20.600000000000023
 50
90.000000000000000
 51
124.999999999999600
  0
LINE
  8
0
  6
CONTINUOUS
 62
3
 10
-222.454389194799660
 20
124.636687349730550
 11
-222.454389194799660
 21
172.480307483359870
  0
LINE
  8
0
  6
CONTINUOUS
 62
3
 10
-213.774908732723590
 20
117.205775371006660
 11
-221.345687929312360
 21
122.506892034579200
  0
ARC
  8
0
  6
CONTINUOUS
 62
3
 10
-219.854389194799520
 20
124.636687349730550
 40
2.600000000000136
 50
180.000000000000000
 51
234.999999999997390
  0
ARC
  8
0
  6
CONTINUOUS
 62
3
 10
-201.959234143892220
 20
134.080307483359890
 40
20.599999999999891
 50
235.000000000000400
 51
270.000000000000000
  0
LINE
  8
0
  6
CONTINUOUS
 62
3
 10
-172.454389194799430
 20
231.480307483359870
 11
-201.959234143892220
 21
231.480307483359870
  0
LINE
  8
0
  6
CONTINUOUS
 62
3
 10
-182.454389194799430
 20
113.480307483359860
 11
-201.959234143892220
 21
113.480307483359860
  0
LINE
  8
0
  6
CONTINUOUS
 62
3
 10
-180.454389194778060
 20
114.980307483359860
 11
-180.454389194778060
 21
117.969038247304520
  0
LINE
  8
0
  6
CONTINUOUS
 62
3
 10
-105.454389194778050
 20
119.980307483359970
 11
-172.687857889196720
 21
119.980307483359970
  0
LINE
  8
0
  6
CONTINUOUS
 62
3
 10
-183.454389194799430
 20
221.624228506085050
 11
-185.454389194799430
 21
219.971586866961620
  0
LINE
  8
0
  6
CONTINUOUS
 62
3
 10
-181.454389194799430
 20
222.800013991707830
 11
-183.454389194799430
 21
221.624228506085050
  0
LINE
  8
0
  6
CONTINUOUS
 62
3
 10
-183.454389194799430
 20
221.624228506085050
 11
-181.454389194799430
 21
219.971586866961620
  0
LINE
  8
0
  6
CONTINUOUS
 62
3
 10
-185.454389194799430
 20
222.800013991707830
 11
-183.454389194799430
 21
221.624228506085050
  0
POLYLINE
  8
0
  6
CONTINUOUS
 62
3
 66
1
 70
1
  0
VERTEX
  8
0
  6
CONTINUOUS
 62
3
 10
-178.754389194799220
 20
219.807638437707400
  0
VERTEX
  8
0
  6
CONTINUOUS
 62
3
 10
-178.844698376904030
 20
220.510595403907760
  0
VERTEX
  8
0
  6
CONTINUOUS
 62
3
 10
-179.112155391996170
 20
221.186538128119850
  0
VERTEX
  8
0
  6
CONTINUOUS
 62
3
 10
-179.546482016977250
 20
221.809490510525250
  0
VERTEX
  8
0
  6
CONTINUOUS
 62
3
 10
-180.130987323222430
 20
222.355512840423840
  0
VERTEX
  8
0
  6
CONTINUOUS
 62
3
 10
-180.843209099607090
 20
222.803621785890470
  0
VERTEX
  8
0
  6
CONTINUOUS
 62
3
 10
-181.655777062683280
 20
223.136596771453210
  0
VERTEX
  8
0
  6
CONTINUOUS
 62
3
 10
-182.537464681323400
 20
223.341641755151470
  0
VERTEX
  8
0
  6
CONTINUOUS
 62
3
 10
-183.454389194799210
 20
223.410876973252240
  0
VERTEX
  8
0
  6
CONTINUOUS
 62
3
 10
-184.371313708275010
 20
223.341641755151470
  0
VERTEX
  8
0
  6
CONTINUOUS
 62
3
 10
-185.253001326915130
 20
223.136596771453210
  0
VERTEX
  8
0
  6
CONTINUOUS
 62
3
 10
-186.065569289991320
 20
222.803621785890470
  0
VERTEX
  8
0
  6
CONTINUOUS
 62
3
 10
-186.777791066375980
 20
222.355512840423840
  0
VERTEX
  8
0
  6
CONTINUOUS
 62
3
 10
-187.362296372621160
 20
221.809490510525250
  0
VERTEX
  8
0
  6
CONTINUOUS
 62
3
 10
-187.796622997602240
 20
221.186538128119850
  0
VERTEX
  8
0
  6
CONTINUOUS
 62
3
 10
-188.064080012694380
 20
220.510595403907760
  0
VERTEX
  8
0
  6
CONTINUOUS
 62
3
 10
-188.154389194799190
 20
219.807638437707400
  0
VERTEX
  8
0
  6
CONTINUOUS
 62
3
 10
-188.064080012694380
 20
219.104681471507040
  0
VERTEX
  8
0
  6
CONTINUOUS
 62
3
 10
-187.796622997602240
 20
218.428738747294940
  0
VERTEX
  8
0
  6
CONTINUOUS
 62
3
 10
-187.362296372621160
 20
217.805786364889540
  0
VERTEX
  8
0
  6
CONTINUOUS
 62
3
 10
-186.777791066375950
 20
217.259764034990950
  0
VERTEX
  8
0
  6
CONTINUOUS
 62
3
 10
-186.065569289991320
 20
216.811655089524320
  0
VERTEX
  8
0
  6
CONTINUOUS
 62
3
 10
-185.253001326915130
 20
216.478680103961580
  0
VERTEX
  8
0
  6
CONTINUOUS
 62
3
 10
-184.371313708275010
 20
216.273635120263320
  0
VERTEX
  8
0
  6
CONTINUOUS
 62
3
 10
-183.454389194799210
 20
216.204399902162550
  0
VERTEX
  8
0
  6
CONTINUOUS
 62
3
 10
-182.537464681323400
 20
216.273635120263320
  0
VERTEX
  8
0
  6
CONTINUOUS
 62
3
 10
-181.655777062683280
 20
216.478680103961580
  0
VERTEX
  8
0
  6
CONTINUOUS
 62
3
 10
-180.843209099607090
 20
216.811655089524320
  0
VERTEX
  8
0
  6
CONTINUOUS
 62
3
 10
-180.130987323222460
 20
217.259764034990950
  0
VERTEX
  8
0
  6
CONTINUOUS
 62
3
 10
-179.546482016977250
 20
217.805786364889540
  0
VERTEX
  8
0
  6
CONTINUOUS
 62
3
 10
-179.112155391996170
 20
218.428738747294940
  0
VERTEX
  8
0
  6
CONTINUOUS
 62
3
 10
-178.844698376904030
 20
219.104681471507040
  0
SEQEND
  8
0
  6
CONTINUOUS
 62
3
  0
LINE
  8
0
  6
CONTINUOUS
 62
3
 10
-172.454389194799430
 20
231.480307483359870
 11
-172.454389194799210
 21
172.480307483359870
  0
LINE
  8
0
  6
CONTINUOUS
 62
3
 10
-182.454389194799430
 20
113.480307483359860
 11
-182.454389194799430
 21
115.140611122550920
  0
ARC
  8
0
  6
CONTINUOUS
 62
3
 10
-179.454389194799430
 20
115.140611122550920
 40
3.000000000000000
 50
90.000000000000000
 51
180.000000000000000
  0
LINE
  8
0
  6
CONTINUOUS
 62
3
 10
-183.454389194799430
 20
123.336386460634790
 11
-185.454389194799430
 21
124.989028099758110
  0
LINE
  8
0
  6
CONTINUOUS
 62
3
 10
-181.454389194799430
 20
122.160600975011900
 11
-183.454389194799430
 21
123.336386460634790
  0
LINE
  8
0
  6
CONTINUOUS
 62
3
 10
-183.454389194799430
 20
123.336386460634790
 11
-181.454389194799430
 21
124.989028099758110
  0
LINE
  8
0
  6
CONTINUOUS
 62
3
 10
-185.454389194799430
 20
122.160600975011900
 11
-183.454389194799430
 21
123.336386460634790
  0
POLYLINE
  8
0
  6
CONTINUOUS
 62
3
 66
1
 70
1
  0
VERTEX
  8
0
  6
CONTINUOUS
 62
3
 10
-178.754389194799220
 20
125.152976529012330
  0
VERTEX
  8
0
  6
CONTINUOUS
 62
3
 10
-178.844698376904030
 20
125.855933495212690
  0
VERTEX
  8
0
  6
CONTINUOUS
 62
3
 10
-179.112155391996170
 20
126.531876219424800
  0
VERTEX
  8
0
  6
CONTINUOUS
 62
3
 10
-179.546482016977250
 20
127.154828601830180
  0
VERTEX
  8
0
  6
CONTINUOUS
 62
3
 10
-180.130987323222430
 20
127.700850931728780
  0
VERTEX
  8
0
  6
CONTINUOUS
 62
3
 10
-180.843209099607090
 20
128.148959877195410
  0
VERTEX
  8
0
  6
CONTINUOUS
 62
3
 10
-181.655777062683280
 20
128.481934862758150
  0
VERTEX
  8
0
  6
CONTINUOUS
 62
3
 10
-182.537464681323400
 20
128.686979846456410
  0
VERTEX
  8
0
  6
CONTINUOUS
 62
3
 10
-183.454389194799210
 20
128.756215064557180
  0
VERTEX
  8
0
  6
CONTINUOUS
 62
3
 10
-184.371313708275010
 20
128.686979846456410
  0
VERTEX
  8
0
  6
CONTINUOUS
 62
3
 10
-185.253001326915130
 20
128.481934862758150
  0
VERTEX
  8
0
  6
CONTINUOUS
 62
3
 10
-186.065569289991320
 20
128.148959877195410
  0
VERTEX
  8
0
  6
CONTINUOUS
 62
3
 10
-186.777791066375980
 20
127.700850931728780
  0
VERTEX
  8
0
  6
CONTINUOUS
 62
3
 10
-187.362296372621160
 20
127.154828601830180
  0
VERTEX
  8
0
  6
CONTINUOUS
 62
3
 10
-187.796622997602240
 20
126.531876219424800
  0
VERTEX
  8
0
  6
CONTINUOUS
 62
3
 10
-188.064080012694380
 20
125.855933495212690
  0
VERTEX
  8
0
  6
CONTINUOUS
 62
3
 10
-188.154389194799190
 20
125.152976529012330
  0
VERTEX
  8
0
  6
CONTINUOUS
 62
3
 10
-188.064080012694380
 20
124.450019562811970
  0
VERTEX
  8
0
  6
CONTINUOUS
 62
3
 10
-187.796622997602240
 20
123.774076838599860
  0
VERTEX
  8
0
  6
CONTINUOUS
 62
3
 10
-187.362296372621160
 20
123.151124456194480
  0
VERTEX
  8
0
  6
CONTINUOUS
 62
3
 10
-186.777791066375950
 20
122.605102126295890
  0
VERTEX
  8
0
  6
CONTINUOUS
 62
3
 10
-186.065569289991320
 20
122.156993180829270
  0
VERTEX
  8
0
  6
CONTINUOUS
 62
3
 10
-185.253001326915130
 20
121.824018195266510
  0
VERTEX
  8
0
  6
CONTINUOUS
 62
3
 10
-184.371313708275010
 20
121.618973211568260
  0
VERTEX
  8
0
  6
CONTINUOUS
 62
3
 10
-183.454389194799210
 20
121.549737993467480
  0
VERTEX
  8
0
  6
CONTINUOUS
 62
3
 10
-182.537464681323400
 20
121.618973211568260
  0
VERTEX
  8
0
  6
CONTINUOUS
 62
3
 10
-181.655777062683280
 20
121.824018195266510
  0
VERTEX
  8
0
  6
CONTINUOUS
 62
3
 10
-180.843209099607090
 20
122.156993180829270
  0
VERTEX
  8
0
  6
CONTINUOUS
 62
3
 10
-180.130987323222460
 20
122.605102126295890
  0
VERTEX
  8
0
  6
CONTINUOUS
 62
3
 10
-179.546482016977250
 20
123.151124456194480
  0
VERTEX
  8
0
  6
CONTINUOUS
 62
3
 10
-179.112155391996170
 20
123.774076838599860
  0
VERTEX
  8
0
  6
CONTINUOUS
 62
3
 10
-178.844698376904030
 20
124.450019562811970
  0
SEQEND
  8
0
  6
CONTINUOUS
 62
3
  0
LINE
  8
0
  6
CONTINUOUS
 62
3
 10
-179.454389194799430
 20
118.140611122550920
 11
-175.454389194799430
 21
118.140611122550920
  0
ARC
  8
0
  6
CONTINUOUS
 62
3
 10
-175.454389194799430
 20
121.140611122550920
 40
3.000000000000000
 50
270.000000000000000
 51
0.000000000000000
  0
LINE
  8
0
  6
CONTINUOUS
 62
3
 10
-172.454389194799430
 20
121.140611122550920
 11
-172.454389194799210
 21
172.480307483359870
  0
LINE
  8
0
  6
CONTINUOUS
 62
3
 10
-107.454389194778050
 20
85.480307483359866
 11
-178.454389194778060
 21
85.480307483359866
  0
LINE
  8
0
  6
CONTINUOUS
 62
3
 10
-121.454389194778050
 20
84.980307483359866
 11
-121.454389194778050
 21
85.480307483359866
  0
LINE
  8
0
  6
CONTINUOUS
 62
3
 10
-121.454389194778050
 20
84.980307483359866
 11
-113.454389194778050
 21
84.980307483359866
  0
LINE
  8
0
  6
CONTINUOUS
 62
3
 10
-113.454389194778050
 20
84.980307483359866
 11
-113.454389194778050
 21
85.480307483359866
  0
ARC
  8
0
  6
CONTINUOUS
 62
3
 10
-107.454389194778050
 20
86.480307483359866
 40
1.000000000000000
 50
270.000000000000000
 51
0.000000000000000
  0
ARC
  8
0
  6
CONTINUOUS
 62
3
 10
-178.454389194778060
 20
86.480307483359866
 40
1.000000000000000
 50
180.000000000000000
 51
270.000000000000000
  0
LINE
  8
0
  6
CONTINUOUS
 62
3
 10
-179.454389194778060
 20
86.480307483359866
 11
-179.454389194778060
 21
114.980307483359860
  0
LINE
  8
0
  6
CONTINUOUS
 62
3
 10
-106.454389194778050
 20
86.480307483359866
 11
-106.454389194778050
 21
114.980307483359860
  0
LINE
  8
0
  6
CONTINUOUS
 62
3
 10
-105.454389194778050
 20
114.980307483359860
 11
-105.454389194778050
 21
119.980307483359970
  0
LINE
  8
0
  6
CONTINUOUS
 62
3
 10
-180.454389194778060
 20
114.980307483359860
 11
-105.454389194778050
 21
114.980307483359860
  0
LINE
  8
0
  6
CONTINUOUS
 62
3
 10
-58.454389194778287
 20
249.641332543046700
 11
-161.454389194778290
 21
249.641332543046700
  0
ARC
  8
0
  6
CONTINUOUS
 62
3
 10
-52.954389194778287
 20
254.641332543046700
 40
5.000000000000072
 50
287.457603123721870
 51
0.000000000000000
  0
ARC
  8
0
  6
CONTINUOUS
 62
3
 10
-52.754389194778469
 20
250.317878668789040
 40
1.300000000000182
 50
0.000000000000000
 51
73.398450400977637
  0
ARC
  8
0
  6
CONTINUOUS
 62
3
 10
-54.954389194778287
 20
242.938854343039570
 40
9.000000000000123
 50
73.398450400980877
 51
106.601549599019120
  0
ARC
  8
0
  6
CONTINUOUS
 62
3
 10
-57.154389194778105
 20
250.317878668789040
 40
1.300000000000019
 50
106.601549599022360
 51
180.000000000000000
  0
LINE
  8
0
  6
CONTINUOUS
 62
3
 10
-51.454389194778287
 20
250.317878668789040
 11
-51.454389194778287
 21
249.330868930864650
  0
POLYLINE
  8
0
  6
CONTINUOUS
 62
3
 66
1
  0
VERTEX
  8
0
  6
CONTINUOUS
 62
3
 10
-58.454389194778287
 20
249.330868930864650
  0
VERTEX
  8
0
  6
CONTINUOUS
 62
3
 10
-58.387137676189596
 20
249.296770720668660
  0
VERTEX
  8
0
  6
CONTINUOUS
 62
3
 10
-58.187967558567792
 20
249.263982885568030
  0
VERTEX
  8
0
  6
CONTINUOUS
 62
3
 10
-57.864532837837196
 20
249.233765443678010
  0
VERTEX
  8
0
  6
CONTINUOUS
 62
3
 10
-57.429262928931202
 20
249.207279634344300
  0
VERTEX
  8
0
  6
CONTINUOUS
 62
3
 10
-56.898885010346895
 20
249.185543292366220
  0
VERTEX
  8
0
  6
CONTINUOUS
 62
3
 10
-56.293781208056103
 20
249.169391733176040
  0
VERTEX
  8
0
  6
CONTINUOUS
 62
3
 10
-55.637205321834735
 20
249.159445652135590
  0
VERTEX
  8
0
  6
CONTINUOUS
 62
3
 10
-54.954389194778287
 20
249.156087271561430
  0
VERTEX
  8
0
  6
CONTINUOUS
 62
3
 10
-54.271573067721839
 20
249.159445652135590
  0
VERTEX
  8
0
  6
CONTINUOUS
 62
3
 10
-53.614997181500470
 20
249.169391733176040
  0
VERTEX
  8
0
  6
CONTINUOUS
 62
3
 10
-53.009893379209679
 20
249.185543292366220
  0
VERTEX
  8
0
  6
CONTINUOUS
 62
3
 10
-52.479515460625372
 20
249.207279634344300
  0
VERTEX
  8
0
  6
CONTINUOUS
 62
3
 10
-52.044245551719378
 20
249.233765443678010
  0
VERTEX
  8
0
  6
CONTINUOUS
 62
3
 10
-51.720810830988782
 20
249.263982885568030
  0
VERTEX
  8
0
  6
CONTINUOUS
 62
3
 10
-51.521640713366985
 20
249.296770720668660
  0
VERTEX
  8
0
  6
CONTINUOUS
 62
3
 10
-51.454389194778287
 20
249.330868930864650
  0
SEQEND
  8
0
  6
CONTINUOUS
 62
3
  0
LINE
  8
0
  6
CONTINUOUS
 62
3
 10
-58.454389194778287
 20
250.317878668789040
 11
-58.454389194778287
 21
249.330868930864650
  0
LINE
  8
0
  6
CONTINUOUS
 62
3
 10
-171.954389194778290
 20
225.980307483359870
 11
-171.954389194778290
 21
230.980307483359870
  0
LINE
  8
0
  6
DASHDOT
 62
3
 10
-47.954389194778287
 20
225.980307483359870
 11
-47.954389194778287
 21
230.980307483359870
  0
LINE
  8
0
  6
DASHDOT
 62
3
 10
-47.954389194778287
 20
225.980307483359870
 11
-47.954389194778287
 21
230.980307483359870
  0
LINE
  8
0
  6
CONTINUOUS
 62
3
 10
-171.954389194778290
 20
230.980307483359870
 11
-47.954389194778287
 21
230.980307483359870
  0
ARC
  8
0
  6
CONTINUOUS
 62
3
 10
-166.954389194778290
 20
254.641332543046700
 40
5.000000000000000
 50
180.000000000000000
 51
252.542396876278160
  0
LINE
  8
0
  6
CONTINUOUS
 62
3
 10
-168.454389194778290
 20
250.317878668789040
 11
-168.454389194778290
 21
249.330868930864650
  0
LINE
  8
0
  6
CONTINUOUS
 62
3
 10
-161.454389194778290
 20
250.317878668789040
 11
-161.454389194778290
 21
249.330868930864650
  0
ARC
  8
0
  6
CONTINUOUS
 62
3
 10
-167.154389194778100
 20
250.317878668789040
 40
1.300000000000019
 50
106.601549599022360
 51
180.000000000000000
  0
ARC
  8
0
  6
CONTINUOUS
 62
3
 10
-164.954389194778290
 20
242.938854343039570
 40
9.000000000000123
 50
73.398450400980877
 51
106.601549599019120
  0
ARC
  8
0
  6
CONTINUOUS
 62
3
 10
-162.754389194778470
 20
250.317878668789040
 40
1.300000000000182
 50
0.000000000000000
 51
73.398450400977637
  0
POLYLINE
  8
0
  6
CONTINUOUS
 62
3
 66
1
  0
VERTEX
  8
0
  6
CONTINUOUS
 62
3
 10
-168.454389194778290
 20
249.330868930864650
  0
VERTEX
  8
0
  6
CONTINUOUS
 62
3
 10
-168.387137676189580
 20
249.296770720668660
  0
VERTEX
  8
0
  6
CONTINUOUS
 62
3
 10
-168.187967558567780
 20
249.263982885568030
  0
VERTEX
  8
0
  6
CONTINUOUS
 62
3
 10
-167.864532837837200
 20
249.233765443678010
  0
VERTEX
  8
0
  6
CONTINUOUS
 62
3
 10
-167.429262928931190
 20
249.207279634344300
  0
VERTEX
  8
0
  6
CONTINUOUS
 62
3
 10
-166.898885010346900
 20
249.185543292366220
  0
VERTEX
  8
0
  6
CONTINUOUS
 62
3
 10
-166.293781208056090
 20
249.169391733176040
  0
VERTEX
  8
0
  6
CONTINUOUS
 62
3
 10
-165.637205321834730
 20
249.159445652135590
  0
VERTEX
  8
0
  6
CONTINUOUS
 62
3
 10
-164.954389194778290
 20
249.156087271561430
  0
VERTEX
  8
0
  6
CONTINUOUS
 62
3
 10
-164.271573067721850
 20
249.159445652135590
  0
VERTEX
  8
0
  6
CONTINUOUS
 62
3
 10
-163.614997181500480
 20
249.169391733176040
  0
VERTEX
  8
0
  6
CONTINUOUS
 62
3
 10
-163.009893379209670
 20
249.185543292366220
  0
VERTEX
  8
0
  6
CONTINUOUS
 62
3
 10
-162.479515460625380
 20
249.207279634344300
  0
VERTEX
  8
0
  6
CONTINUOUS
 62
3
 10
-162.044245551719370
 20
249.233765443678010
  0
VERTEX
  8
0
  6
CONTINUOUS
 62
3
 10
-161.720810830988800
 20
249.263982885568030
  0
VERTEX
  8
0
  6
CONTINUOUS
 62
3
 10
-161.521640713366990
 20
249.296770720668660
  0
VERTEX
  8
0
  6
CONTINUOUS
 62
3
 10
-161.454389194778290
 20
249.330868930864650
  0
SEQEND
  8
0
  6
CONTINUOUS
 62
3
  0
LINE
  8
0
  6
CONTINUOUS
 62
3
 10
-47.954389194778287
 20
254.641332543046700
 11
-47.954389194778287
 21
267.580307483359770
  0
ARC
  8
0
  6
CONTINUOUS
 62
3
 10
-52.954389194778287
 20
235.980307483359870
 40
5.000000000000000
 50
270.000000000000000
 51
0.000000000000000
  0
LINE
  8
0
  6
CONTINUOUS
 62
3
 10
-171.954389194778290
 20
254.641332543046700
 11
-171.954389194778290
 21
267.580307483359770
  0
LINE
  8
0
  6
CONTINUOUS
 62
3
 10
-171.954389194778290
 20
254.174817774422080
 11
-172.954389194778290
 21
254.174817774422080
  0
LINE
  8
0
  6
CONTINUOUS
 62
3
 10
-46.954389194778287
 20
249.081180846144890
 11
-172.954389194778290
 21
249.081180846144890
  0
ARC
  8
0
  6
CONTINUOUS
 62
3
 10
-166.954389194778290
 20
235.980307483359870
 40
5.000000000000000
 50
180.000000000000000
 51
270.000000000000000
  0
ARC
  8
0
  6
CONTINUOUS
 62
3
 10
-166.954389194778290
 20
267.580307483359770
 40
5.000000000000000
 50
90.000000000000000
 51
180.000000000000000
  0
ARC
  8
0
  6
CONTINUOUS
 62
3
 10
-172.954389194778290
 20
252.174817774422080
 40
2.000000000000000
 50
90.000000000000000
 51
180.000000000000000
  0
ARC
  8
0
  6
CONTINUOUS
 62
3
 10
-172.954389194778290
 20
251.081180846144890
 40
2.000000000000000
 50
180.000000000000000
 51
270.000000000000000
  0
ARC
  8
0
  6
CONTINUOUS
 62
3
 10
-172.954389194778290
 20
250.282178975059650
 40
2.000000000000000
 50
180.000000000000000
 51
270.000000000000000
  0
LINE
  8
0
  6
CONTINUOUS
 62
3
 10
-174.954389194778290
 20
252.174817774422080
 11
-174.954389194778290
 21
249.483177103940760
  0
ARC
  8
0
  6
CONTINUOUS
 62
3
 10
-172.954389194778290
 20
249.483177103940760
 40
2.000000000000000
 50
180.000000000000000
 51
270.000000000000000
  0
LINE
  8
0
  6
CONTINUOUS
 62
3
 10
-171.954389194778290
 20
235.980307483359870
 11
-171.954389194778290
 21
247.483177103940760
  0
ARC
  8
0
  6
CONTINUOUS
 62
3
 10
-52.954389194778287
 20
267.580307483359770
 40
5.000000000000000
 50
0.000000000000000
 51
90.000000000000000
  0
LINE
  8
0
  6
CONTINUOUS
 62
3
 10
-166.954389194778290
 20
272.580307483359770
 11
-52.954389194778287
 21
272.580307483359770
  0
LINE
  8
0
  6
CONTINUOUS
 62
3
 10
-47.954389194778287
 20
235.980307483359870
 11
-47.954389194778287
 21
247.282178975059650
  0
LINE
  8
0
  6
CONTINUOUS
 62
3
 10
-44.954389194778287
 20
252.174817774422080
 11
-44.954389194778287
 21
249.483177103940760
  0
LINE
  8
0
  6
CONTINUOUS
 62
3
 10
-46.954389194778287
 20
248.282178975042830
 11
-172.954389194778290
 21
248.282178975042830
  0
LINE
  8
0
  6
CONTINUOUS
 62
3
 10
-46.954389194778287
 20
247.483177103940760
 11
-172.954389194778290
 21
247.483177103940760
  0
LINE
  8
0
  6
CONTINUOUS
 62
3
 10
-47.954389194778287
 20
254.174817774422080
 11
-46.954389194778287
 21
254.174817774422080
  0
ARC
  8
0
  6
CONTINUOUS
 62
3
 10
-46.954389194778287
 20
252.174817774422080
 40
2.000000000000000
 50
0.000000000000000
 51
90.000000000000000
  0
ARC
  8
0
  6
CONTINUOUS
 62
3
 10
-46.954389194778287
 20
251.081180846144890
 40
2.000000000000000
 50
270.000000000000000
 51
0.000000000000000
  0
ARC
  8
0
  6
CONTINUOUS
 62
3
 10
-46.954389194778287
 20
250.282178975059650
 40
2.000000000000000
 50
270.000000000000000
 51
0.000000000000000
  0
ARC
  8
0
  6
CONTINUOUS
 62
3
 10
-46.954389194778287
 20
249.483177103940760
 40
2.000000000000000
 50
270.000000000000000
 51
0.000000000000000
  0
ARC
  8
0
  6
CONTINUOUS
 62
3
 10
27.545610805221713
 20
91.980307483359837
 40
3.000000000000000
 50
180.000000000000000
 51
270.000000000000000
  0
LINE
  8
0
  6
CONTINUOUS
 62
3
 10
27.545610805221713
 20
88.980307483359837
 11
34.545610805221713
 21
88.980307483359837
  0
LINE
  8
0
  6
CONTINUOUS
 62
3
 10
24.545610805221713
 20
172.480307483359870
 11
24.545610805221713
 21
91.980307483359837
  0
LINE
  8
0
  6
CONTINUOUS
 62
3
 10
27.545610805221713
 20
255.980307483359870
 11
34.545610805221713
 21
255.980307483359870
  0
LINE
  8
0
  6
CONTINUOUS
 62
3
 10
24.545610805221713
 20
172.480307483359810
 11
24.545610805221713
 21
252.980307483359870
  0
ARC
  8
0
  6
CONTINUOUS
 62
3
 10
27.545610805221713
 20
252.980307483359870
 40
3.000000000000000
 50
90.000000000000000
 51
180.000000000000000
  0
LINE
  8
0
  6
DASHDOT
 62
4
 10
-249.467479259324140
 20
172.480307483359870
 11
280.491668106673160
 21
172.480307483359870
  0
LINE
  8
0
  6
CONTINUOUS
 62
3
 10
263.145616856427750
 20
152.480293818772680
 11
206.605431603432410
 21
152.480293818772680
  0
LINE
  8
0
  6
CONTINUOUS
 62
3
 10
263.145616856427750
 20
192.480293818772680
 11
206.605431603432410
 21
192.480293818771770
  0
LINE
  8
0
  6
CONTINUOUS
 62
3
 10
263.545623982296550
 20
149.480293818772680
 11
208.545623982296550
 21
149.480293818772680
  0
LINE
  8
0
  6
CONTINUOUS
 62
3
 10
206.605431603431950
 20
152.480293818772680
 11
206.045623982296550
 21
152.630293818772320
  0
LINE
  8
0
  6
CONTINUOUS
 62
3
 10
203.545616856427840
 20
172.480293818772680
 11
203.545616856427840
 21
150.380293818772320
  0
LINE
  8
0
  6
CONTINUOUS
 62
3
 10
203.145616856427750
 20
149.980293818772680
 11
203.545616856427840
 21
150.380293818772320
  0
LINE
  8
0
  6
CONTINUOUS
 62
3
 10
206.045623982296550
 20
152.630293818772320
 11
205.145616856427750
 21
152.630293818772320
  0
ARC
  8
0
  6
CONTINUOUS
 62
3
 10
205.145616856427750
 20
151.030293818772860
 40
1.599999999999454
 50
90.000000000000000
 51
180.000000000000000
  0
LINE
  8
0
  6
CONTINUOUS
 62
3
 10
203.145616856427750
 20
149.980293818772680
 11
201.545616856428750
 21
149.980293818772680
  0
LINE
  8
0
  6
CONTINUOUS
 62
3
 10
206.605431603431950
 20
192.480293818771770
 11
206.045623982296550
 21
192.330293818772130
  0
LINE
  8
0
  6
CONTINUOUS
 62
3
 10
203.545616856427840
 20
172.480293818772680
 11
203.545616856427840
 21
194.580293818772130
  0
LINE
  8
0
  6
CONTINUOUS
 62
3
 10
203.145616856427750
 20
194.980293818772680
 11
201.545616856428750
 21
194.980293818772680
  0
LINE
  8
0
  6
CONTINUOUS
 62
3
 10
203.145616856427750
 20
194.980293818772680
 11
203.545616856427840
 21
194.580293818772130
  0
LINE
  8
0
  6
CONTINUOUS
 62
3
 10
206.045623982296550
 20
192.330293818772130
 11
205.145616856427750
 21
192.330293818772130
  0
ARC
  8
0
  6
CONTINUOUS
 62
3
 10
205.145616856427750
 20
193.930293818772500
 40
1.599999999999909
 50
180.000000000000000
 51
270.000000000000000
  0
LINE
  8
0
  6
CONTINUOUS
 62
3
 10
208.545616856427840
 20
152.480293818772680
 11
208.545616856427840
 21
149.480293818772680
  0
ARC
  8
0
  6
CONTINUOUS
 62
3
 10
165.045616856428750
 20
46.211558058776063
 40
6.000000000000000
 50
0.000000000000000
 51
88.000000000000682
  0
LINE
  8
0
  6
CONTINUOUS
 62
3
 10
71.545610805222623
 20
55.480307483359866
 11
165.255013836643680
 21
52.207903020890626
  0
LINE
  8
0
  6
CONTINUOUS
 62
3
 10
152.523763842948480
 20
175.730307483359870
 11
168.045616856428750
 21
175.730307483359870
  0
LINE
  8
0
  6
CONTINUOUS
 62
3
 10
152.523763842948480
 20
169.230307483359870
 11
168.045616856428750
 21
169.230307483359870
  0
LINE
  8
0
  6
CONTINUOUS
 62
3
 10
168.013634703796700
 20
242.004489784593720
 11
152.416812901132060
 21
242.004489784593720
  0
ARC
  8
0
  6
CONTINUOUS
 62
3
 10
168.045616856428750
 20
178.730307483359870
 40
3.000000000000000
 50
270.000000000000000
 51
0.000000000000000
  0
ARC
  8
0
  6
CONTINUOUS
 62
3
 10
168.045616856428750
 20
166.230307483359870
 40
3.000000000000000
 50
0.000000000000000
 51
90.000000000000000
  0
ARC
  8
0
  6
CONTINUOUS
 62
3
 10
152.523763842948480
 20
166.230307483359870
 40
3.000000000000000
 50
90.000000000000000
 51
180.000000000000000
  0
LINE
  8
0
  6
CONTINUOUS
 62
3
 10
150.424141513512040
 20
243.190656065202800
 11
170.435179000086240
 21
269.553391040321000
  0
ARC
  8
0
  6
CONTINUOUS
 62
3
 10
152.523763842948480
 20
178.730307483359870
 40
3.000000000000000
 50
180.000000000000000
 51
270.000000000000000
  0
LINE
  8
0
  6
CONTINUOUS
 62
3
 10
150.424141513512040
 20
249.029490830035230
 11
170.435179000086240
 21
275.392225805153430
  0
ARC
  8
0
  6
CONTINUOUS
 62
3
 10
168.045616856428750
 20
277.206059524543890
 40
2.999999999999797
 50
322.799127827378920
 51
0.000000000000000
  0
ARC
  8
0
  6
CONTINUOUS
 62
3
 10
148.034579369854330
 20
250.843324549426140
 40
3.000000000000000
 50
270.000000000000000
 51
322.799127827374600
  0
ARC
  8
0
  6
CONTINUOUS
 62
3
 10
168.045616856428750
 20
271.367224759711460
 40
2.999999999999797
 50
322.799127827378920
 51
0.000000000000000
  0
ARC
  8
0
  6
CONTINUOUS
 62
3
 10
148.034579369854330
 20
245.004489784593720
 40
3.000000000000000
 50
270.000000000000000
 51
322.799127827374600
  0
LINE
  8
0
  6
CONTINUOUS
 62
3
 10
168.013634703796700
 20
102.956125182126010
 11
152.416812901132060
 21
102.956125182126010
  0
LINE
  8
0
  6
CONTINUOUS
 62
3
 10
150.424141513512040
 20
95.931124136684502
 11
170.435179000086240
 21
69.568389161566301
  0
ARC
  8
0
  6
CONTINUOUS
 62
3
 10
168.045616856428750
 20
67.754555442175842
 40
3.000000000000000
 50
0.000000000000000
 51
37.200872172621111
  0
ARC
  8
0
  6
CONTINUOUS
 62
3
 10
148.034579369854330
 20
94.117290417293589
 40
3.000000000000254
 50
37.200872172625409
 51
90.000000000000000
  0
ARC
  8
0
  6
CONTINUOUS
 62
3
 10
148.034579369854330
 20
99.956125182126016
 40
3.000000000000254
 50
37.200872172625409
 51
90.000000000000000
  0
LINE
  8
0
  6
CONTINUOUS
 62
3
 10
150.424141513512040
 20
101.769958901516920
 11
170.435179000086240
 21
75.407223926398729
  0
ARC
  8
0
  6
CONTINUOUS
 62
3
 10
168.045616856428750
 20
73.593390207008269
 40
3.000000000000000
 50
0.000000000000000
 51
37.200872172621111
  0
LINE
  8
0
  6
CONTINUOUS
 62
3
 10
189.045616856428520
 20
32.480307483359866
 11
189.045616856428520
 21
172.480307483359870
  0
LINE
  8
0
  6
CONTINUOUS
 62
3
 10
193.045616856428980
 20
43.480307483359866
 11
193.045616856428980
 21
172.480307483359870
  0
LINE
  8
0
  6
CONTINUOUS
 62
3
 10
199.545616806609130
 20
122.327173854329880
 11
199.545616806609130
 21
172.480307483359870
  0
LINE
  8
0
  6
CONTINUOUS
 62
3
 10
199.545616806609130
 20
222.633639485506590
 11
199.545616806609130
 21
172.480307483359870
  0
LINE
  8
0
  6
CONTINUOUS
 62
3
 10
189.045616856428750
 20
312.480293818772680
 11
189.045616856431930
 21
172.480307483359870
  0
LINE
  8
0
  6
CONTINUOUS
 62
3
 10
193.045616856428750
 20
301.480293818772680
 11
193.045616856428980
 21
172.480307483359870
  0
LINE
  8
0
  6
CONTINUOUS
 62
3
 10
193.045616856428980
 20
225.821183748380010
 11
196.702624675338030
 21
225.629528089770250
  0
LINE
  8
0
  6
CONTINUOUS
 62
3
 10
171.045616856428750
 20
309.480293818772680
 11
171.045616856428750
 21
35.480321147947052
  0
LINE
  8
0
  6
CONTINUOUS
 62
3
 10
189.045616856428520
 20
32.480307483359866
 11
174.045616856428520
 21
32.480307483359866
  0
ARC
  8
0
  6
CONTINUOUS
 62
3
 10
174.045616856428520
 20
35.480321147947052
 40
2.999999999999773
 50
180.000000000000000
 51
270.000000000000000
  0
LINE
  8
0
  6
CONTINUOUS
 62
3
 10
196.702624675338030
 20
119.331285250066230
 11
193.045616856428980
 21
119.139629591456460
  0
ARC
  8
0
  6
CONTINUOUS
 62
3
 10
196.545616806609130
 20
222.633639485506590
 40
3.000000000000000
 50
0.000000000000000
 51
86.999999999998678
  0
ARC
  8
0
  6
CONTINUOUS
 62
3
 10
196.545616806609130
 20
122.327173854329880
 40
2.999999999999937
 50
273.000000000001360
 51
0.000000000000000
  0
ARC
  8
0
  6
CONTINUOUS
 62
3
 10
200.545616831519280
 20
130.480293793863440
 40
1.000000024909241
 50
90.000000000000000
 51
180.000000000000000
  0
ARC
  8
0
  6
CONTINUOUS
 62
3
 10
200.545616831519280
 20
214.480293843681920
 40
1.000000024909241
 50
180.000000000000000
 51
270.000000000000000
  0
ARC
  8
0
  6
CONTINUOUS
 62
3
 10
165.045616856428750
 20
298.749056907943670
 40
5.999999999999986
 50
271.999999999999320
 51
0.000000000000000
  0
ARC
  8
0
  6
CONTINUOUS
 62
3
 10
174.045616856428520
 20
309.480293818772680
 40
3.000000000000000
 50
90.000000000000000
 51
180.000000000000000
  0
LINE
  8
0
  6
CONTINUOUS
 62
3
 10
200.545616831519280
 20
213.480293818772680
 11
201.545616856428750
 21
213.480293818772680
  0
LINE
  8
0
  6
CONTINUOUS
 62
3
 10
193.045616856428980
 20
43.480307483359866
 11
192.045616856428980
 21
42.480307483359866
  0
LINE
  8
0
  6
CONTINUOUS
 62
3
 10
200.545616831519280
 20
131.480293818772680
 11
201.545616856428750
 21
131.480293818772680
  0
LINE
  8
0
  6
CONTINUOUS
 62
3
 10
192.045616856428750
 20
302.480293818772680
 11
193.045616856428750
 21
301.480293818772680
  0
LINE
  8
0
  6
CONTINUOUS
 62
3
 10
192.045616856428980
 20
42.480307483359866
 11
189.045616856428520
 21
42.480307483359866
  0
LINE
  8
0
  6
CONTINUOUS
 62
3
 10
201.545616856428750
 20
213.480293818772680
 11
201.545616856428750
 21
131.480293818772680
  0
LINE
  8
0
  6
CONTINUOUS
 62
3
 10
192.045616856428750
 20
302.480293818772680
 11
189.045616856428980
 21
302.480293818772680
  0
LINE
  8
0
  6
CONTINUOUS
 62
3
 10
189.045616856428750
 20
312.480293818772680
 11
174.045616856428520
 21
312.480293818772680
  0
LINE
  8
0
  6
CONTINUOUS
 62
3
 10
71.545610805222623
 20
289.480307483360320
 11
71.545610805222623
 21
55.480307483359866
  0
LINE
  8
0
  6
CONTINUOUS
 62
3
 10
71.545610805222623
 20
289.480307483359870
 11
165.255013836643680
 21
292.752711945829110
  0
ARC
  8
0
  6
CONTINUOUS
 62
3
 10
263.145616856427750
 20
152.880293818772320
 40
0.399999999999636
 50
270.000000000000000
 51
0.000000000000000
  0
LINE
  8
0
  6
CONTINUOUS
 62
3
 10
263.545616856427840
 20
172.480293818772680
 11
263.545616856427840
 21
149.480293818772680
  0
LINE
  8
0
  6
CONTINUOUS
 62
3
 10
263.545616856427840
 20
172.480293818772680
 11
263.545616856427840
 21
192.080293818772130
  0
ARC
  8
0
  6
CONTINUOUS
 62
3
 10
263.145616856427750
 20
192.080293818772130
 40
0.400000000000091
 50
0.000000000000000
 51
90.000000000000000
  0
LINE
  8
0
  6
DASHDOT
 62
4
 10
198.093757509948320
 20
292.688460285063230
 11
144.162198115965570
 21
292.688460285063230
  0
LINE
  8
0
  6
DASHDOT
 62
4
 10
198.093757509948320
 20
52.272154681637403
 11
144.162198115965570
 21
52.272154681637403
  0
ARC
  8
0
  6
CONTINUOUS
 62
3
 10
55.045610805222623
 20
261.629357317995750
 40
4.999999999999244
 50
272.000000000003920
 51
344.651069713990640
  0
LINE
  8
0
  6
CONTINUOUS
 62
3
 10
34.545610805216256
 20
255.910433821920610
 11
34.545610805221713
 21
172.480307483359870
  0
LINE
  8
0
  6
CONTINUOUS
 62
3
 10
34.545610805216256
 20
255.910433821920610
 11
55.220108288735446
 21
256.632403182901040
  0
LINE
  8
0
  6
CONTINUOUS
 62
3
 10
60.045610805223077
 20
286.480307483359640
 11
60.045610805223077
 21
195.980307483359640
  0
LINE
  8
0
  6
CONTINUOUS
 62
3
 10
51.045610805223077
 20
192.980307483359640
 11
57.045610805223077
 21
192.980307483359640
  0
LINE
  8
0
  6
CONTINUOUS
 62
3
 10
43.545610805212164
 20
192.980307483359640
 11
48.045610805223077
 21
192.980307483359640
  0
LINE
  8
0
  6
CONTINUOUS
 62
3
 10
43.545610805212164
 20
192.980307483359640
 11
43.545610805213528
 21
172.480307483359640
  0
LINE
  8
0
  6
CONTINUOUS
 62
3
 10
48.045610805223077
 20
172.480307483359640
 11
48.045610805223077
 21
192.980307483359640
  0
ARC
  8
0
  6
CONTINUOUS
 62
3
 10
51.045610805223077
 20
189.980307483359640
 40
3.000000000000000
 50
90.000000000000000
 51
180.000000000000000
  0
ARC
  8
0
  6
CONTINUOUS
 62
3
 10
57.045610805223077
 20
195.980307483359640
 40
3.000000000000000
 50
270.000000000000000
 51
0.000000000000000
  0
ARC
  8
0
  6
CONTINUOUS
 62
3
 10
63.045610805223077
 20
286.480307483359640
 40
3.000000000000000
 50
90.000000000000000
 51
180.000000000000000
  0
LINE
  8
0
  6
CONTINUOUS
 62
3
 10
53.045610805223077
 20
271.980307483359640
 11
52.545611758897394
 21
271.980307483359640
  0
LINE
  8
0
  6
CONTINUOUS
 62
3
 10
53.045610805223077
 20
284.980307483359640
 11
52.545612712571710
 21
284.980307483359640
  0
LINE
  8
0
  6
CONTINUOUS
 62
3
 10
52.545611758897394
 20
271.980307483359640
 11
52.545611758897394
 21
284.980307483359640
  0
LINE
  8
0
  6
CONTINUOUS
 62
3
 10
52.545613023382430
 20
284.980307460658650
 11
52.045612073188749
 21
284.114377889590060
  0
LINE
  8
0
  6
CONTINUOUS
 62
3
 10
52.545612396755132
 20
271.980307459291230
 11
52.045612370608069
 21
272.846431599425390
  0
LINE
  8
0
  6
CONTINUOUS
 62
3
 10
52.045611758897394
 20
272.846431636496850
 11
52.045611758897394
 21
284.114377879782980
  0
ARC
  8
0
  6
CONTINUOUS
 62
3
 10
56.045610805223077
 20
286.480307483359640
 40
3.000000000000000
 50
90.000000000000000
 51
180.000000000000000
  0
LINE
  8
0
  6
CONTINUOUS
 62
3
 10
71.545610805222623
 20
289.480307483359180
 11
56.045610805223077
 21
289.480307483359640
  0
LINE
  8
0
  6
CONTINUOUS
 62
3
 10
53.045610805223077
 20
263.480307483359640
 11
53.045610805223077
 21
286.480307483359640
  0
ARC
  8
0
  6
CONTINUOUS
 62
3
 10
58.045610805223077
 20
259.480307483360090
 40
2.000000000000000
 50
0.000000000000000
 51
90.000000000000000
  0
LINE
  8
0
  6
CONTINUOUS
 62
3
 10
58.045610805223077
 20
261.480307483360090
 11
55.045610805223077
 21
261.480307483359640
  0
ARC
  8
0
  6
CONTINUOUS
 62
3
 10
55.045610805223077
 20
263.480307483359640
 40
2.000000000000000
 50
180.000000000000000
 51
270.000000000000000
  0
LINE
  8
0
  6
CONTINUOUS
 62
3
 10
71.045610805223077
 20
289.480307483359180
 11
71.045610805222623
 21
172.480307483359640
  0
ARC
  8
0
  6
CONTINUOUS
 62
3
 10
55.045610805222623
 20
83.331257648723522
 40
4.999999999999970
 50
15.348930286009365
 51
87.999999999996049
  0
LINE
  8
0
  6
CONTINUOUS
 62
3
 10
34.545610805216256
 20
89.050181144798671
 11
34.545610805221713
 21
172.480307483359870
  0
LINE
  8
0
  6
CONTINUOUS
 62
3
 10
34.545610805216256
 20
89.050181144798671
 11
55.220108288735446
 21
88.328211783818233
  0
LINE
  8
0
  6
CONTINUOUS
 62
3
 10
60.045610805223077
 20
58.480307483359638
 11
60.045610805223077
 21
148.980307483359640
  0
LINE
  8
0
  6
CONTINUOUS
 62
3
 10
51.045610805223077
 20
151.980307483359640
 11
57.045610805223077
 21
151.980307483359640
  0
LINE
  8
0
  6
CONTINUOUS
 62
3
 10
43.545610805212164
 20
151.980307483359640
 11
48.045610805223077
 21
151.980307483359640
  0
LINE
  8
0
  6
CONTINUOUS
 62
3
 10
43.545610805212164
 20
151.980307483359640
 11
43.545610805213528
 21
172.480307483359640
  0
LINE
  8
0
  6
CONTINUOUS
 62
3
 10
48.045610805223077
 20
172.480307483359640
 11
48.045610805223077
 21
151.980307483359640
  0
ARC
  8
0
  6
CONTINUOUS
 62
3
 10
51.045610805223077
 20
154.980307483359640
 40
3.000000000000000
 50
180.000000000000000
 51
270.000000000000000
  0
ARC
  8
0
  6
CONTINUOUS
 62
3
 10
57.045610805223077
 20
148.980307483359640
 40
3.000000000000000
 50
0.000000000000000
 51
90.000000000000000
  0
ARC
  8
0
  6
CONTINUOUS
 62
3
 10
63.045610805223077
 20
58.480307483359638
 40
3.000000000000000
 50
180.000000000000000
 51
270.000000000000000
  0
LINE
  8
0
  6
CONTINUOUS
 62
3
 10
53.045610805223077
 20
72.980307483359638
 11
52.545611758897394
 21
72.980307483359638
  0
LINE
  8
0
  6
CONTINUOUS
 62
3
 10
53.045610805223077
 20
59.980307483359638
 11
52.545612712571710
 21
59.980307483359638
  0
LINE
  8
0
  6
CONTINUOUS
 62
3
 10
52.545611758897394
 20
72.980307483359638
 11
52.545611758897394
 21
59.980307483359638
  0
LINE
  8
0
  6
CONTINUOUS
 62
3
 10
52.545613023382430
 20
59.980307506060626
 11
52.045612073189204
 21
60.846237077129217
  0
LINE
  8
0
  6
CONTINUOUS
 62
3
 10
52.545612396755132
 20
72.980307507428051
 11
52.045612370608069
 21
72.114183367293890
  0
LINE
  8
0
  6
CONTINUOUS
 62
3
 10
52.045611758897394
 20
72.114183330222431
 11
52.045611758897394
 21
60.846237086936299
  0
ARC
  8
0
  6
CONTINUOUS
 62
3
 10
56.045610805223077
 20
58.480307483359638
 40
3.000000000000000
 50
180.000000000000000
 51
270.000000000000000
  0
LINE
  8
0
  6
CONTINUOUS
 62
3
 10
71.545610805222623
 20
55.480307483360122
 11
56.045610805223077
 21
55.480307483359638
  0
LINE
  8
0
  6
CONTINUOUS
 62
3
 10
53.045610805223077
 20
81.480307483359638
 11
53.045610805223077
 21
58.480307483359638
  0
ARC
  8
0
  6
CONTINUOUS
 62
3
 10
58.045610805223077
 20
85.480307483359184
 40
2.000000000000000
 50
270.000000000000000
 51
0.000000000000000
  0
LINE
  8
0
  6
CONTINUOUS
 62
3
 10
58.045610805223077
 20
83.480307483359184
 11
55.045610805223077
 21
83.480307483359638
  0
ARC
  8
0
  6
CONTINUOUS
 62
3
 10
55.045610805223077
 20
81.480307483359638
 40
2.000000000000000
 50
90.000000000000000
 51
180.000000000000000
  0
LINE
  8
0
  6
CONTINUOUS
 62
3
 10
71.045610805223077
 20
55.480307483360093
 11
71.045610805222623
 21
172.480307483359640
  0
LINE
  8
0
  6
DASHDOT
 62
4
 10
3.545610805221713
 20
150.901324251612890
 11
3.545610805221713
 21
189.951409502825190
  0
ARC
  8
0
  6
CONTINUOUS
 62
3
 10
-10.454404548913317
 20
152.480307483359750
 40
5.000000000000000
 50
90.000000000000000
 51
180.000000000000000
  0
LINE
  8
0
  6
CONTINUOUS
 62
3
 10
-15.454404548913317
 20
123.980307483359750
 11
-15.454404548913317
 21
172.480307483359870
  0
LINE
  8
0
  6
CONTINUOUS
 62
3
 10
19.545610805221713
 20
157.480307483359750
 11
-10.454404548913317
 21
157.480307483359750
  0
CIRCLE
  8
0
  6
CONTINUOUS
 62
3
 10
3.545610805221713
 20
172.480307483359870
 40
10.500000000000000
  0
ARC
  8
0
  6
CONTINUOUS
 62
3
 10
-10.454404548913317
 20
192.480307483359870
 40
5.000000000000000
 50
180.000000000000000
 51
270.000000000000000
  0
LINE
  8
0
  6
CONTINUOUS
 62
3
 10
-15.454404548913317
 20
220.980307483359870
 11
-15.454404548913317
 21
172.480307483359870
  0
ARC
  8
0
  6
CONTINUOUS
 62
3
 10
-20.454404548913317
 20
220.980307483359870
 40
5.000000000000000
 50
0.000000000000000
 51
90.000000000000000
  0
LINE
  8
0
  6
CONTINUOUS
 62
3
 10
19.545610805221713
 20
187.480307483359870
 11
-10.454404548913317
 21
187.480307483359870
  0
LINE
  8
0
  6
CONTINUOUS
 62
3
 10
-31.954389194778287
 20
225.980307483359870
 11
20.545611084110760
 21
225.980307483359870
  0
ARC
  8
0
  6
CONTINUOUS
 62
3
 10
19.545610805221713
 20
192.480307483359870
 40
5.000000000000000
 50
270.000000000000000
 51
0.000000000000000
  0
ARC
  8
0
  6
CONTINUOUS
 62
3
 10
19.545610805221713
 20
152.480307483359750
 40
5.000000000000000
 50
0.000000000000000
 51
90.000000000000000
  0
ARC
  8
0
  6
CONTINUOUS
 62
3
 10
-20.454404548913317
 20
123.980307483359750
 40
5.000000000000000
 50
270.000000000000000
 51
0.000000000000000
  0
LINE
  8
0
  6
CONTINUOUS
 62
3
 10
-31.954389194778287
 20
118.980307483359750
 11
20.545163343329705
 21
118.980307483359750
  0
LINE
  8
0
  6
CONTINUOUS
 62
3
 10
-31.954389194778287
 20
118.980307483359750
 11
-31.954389194778287
 21
172.480307483359870
  0
LINE
  8
0
  6
CONTINUOUS
 62
3
 10
-31.954389194778287
 20
225.980307483359870
 11
-31.954389194778287
 21
172.480307483359870
  0
ARC
  8
0
  6
CONTINUOUS
 62
3
 10
185.045616856430120
 20
249.744209802116130
 40
3.000000000000000
 50
90.000000000000000
 51
180.000000000001080
  0
LINE
  8
0
  6
CONTINUOUS
 62
3
 10
182.045616856429430
 20
281.196036235878130
 11
182.045616856431930
 21
172.480307483359840
  0
ARC
  8
0
  6
CONTINUOUS
 62
3
 10
185.045616856429430
 20
281.196036235878180
 40
3.000000000000000
 50
90.000000000000000
 51
180.000000000001080
  0
LINE
  8
0
  6
CONTINUOUS
 62
3
 10
189.045616856430120
 20
252.744209802116130
 11
185.045616856430230
 21
252.744209802116130
  0
LINE
  8
0
  6
CONTINUOUS
 62
3
 10
189.045616856429430
 20
284.196036235878180
 11
185.045616856429430
 21
284.196036235878180
  0
LINE
  8
0
  6
CONTINUOUS
 62
3
 10
189.045616856430120
 20
92.216405164603600
 11
185.045616856430230
 21
92.216405164603600
  0
LINE
  8
0
  6
CONTINUOUS
 62
3
 10
189.045616856429430
 20
60.764578730841549
 11
185.045616856429430
 21
60.764578730841549
  0
ARC
  8
0
  6
CONTINUOUS
 62
3
 10
185.045616856430120
 20
95.216405164603600
 40
3.000000000000000
 50
179.999999999998890
 51
270.000000000000000
  0
LINE
  8
0
  6
CONTINUOUS
 62
3
 10
182.045616856429430
 20
63.764578730841635
 11
182.045616856431820
 21
172.480307483359840
  0
ARC
  8
0
  6
CONTINUOUS
 62
3
 10
185.045616856429430
 20
63.764578730841549
 40
3.000000000000000
 50
179.999999999998380
 51
270.000000000000000
  0
INSERT
  8
0
  2
SYM14
 10
-343.780189572760040
 20
-245.715936090361820
  0
INSERT
  8
0
  2
SYM15
 10
-453.381740656675450
 20
-245.715936090361940
  0
INSERT
  8
0
  2
SYM16
 10
-388.080965114717860
 20
-86.915160548403776
  0
INSERT
  8
0
  2
SYM17
 10
-331.580965114717860
 20
-93.915160548403549
  0
INSERT
  8
0
  2
SYM18
 10
-292.580965114717860
 20
-169.915160548403550
  0
INSERT
  8
0
  2
SYM19
 10
-291.580965114717860
 20
-235.915160548403780
  0
INSERT
  8
0
  2
SYM20
 10
-331.580965114717860
 20
-293.915160548403780
  0
INSERT
  8
0
  2
SYM21
 10
-465.580965114717860
 20
-293.915160548403780
 41
-1.000000000000000
  0
INSERT
  8
0
  2
SYM22
 10
-505.580965114717860
 20
-235.915160548403780
 41
-1.000000000000000
  0
INSERT
  8
0
  2
SYM23
 10
-465.580965114717860
 20
-93.915160548403549
 41
-1.000000000000000
  0
INSERT
  8
0
  2
SYM24
 10
-409.080965114717860
 20
-86.915160548403776
 41
-1.000000000000000
  0
INSERT
  8
0
  2
SYM25
 10
-480.025787321061220
 20
-200.834117159664970
 41
1.000000000000000
 42
1.000000000000000
 43
1.000000000000000
 50
357.137594773886350
  0
LINE
  8
0
  6
CONTINUOUS
 62
3
 10
-315.080965114717630
 20
-189.209353889528500
 11
-315.080965114717630
 21
-204.415160548404460
  0
LINE
  8
0
  6
CONTINUOUS
 62
3
 10
-482.080965114717860
 20
-194.329209335867890
 11
-482.080965114717860
 21
-198.058379848579450
  0
LINE
  8
0
  6
CONTINUOUS
 62
3
 10
-456.909279098420030
 20
-139.831175114892120
 11
-457.080965114717970
 21
-139.731647641609640
  0
LINE
  8
0
  6
CONTINUOUS
 62
3
 10
-457.136869474696480
 20
-132.508909832189060
 11
-456.283502839621970
 21
-132.016219503408990
  0
ARC
  8
0
  6
CONTINUOUS
 62
3
 10
-453.381740656675450
 20
-136.114385006447210
 40
4.999999999999680
 50
125.512329309462330
 51
138.339300641719320
  0
ARC
  8
0
  6
CONTINUOUS
 62
3
 10
-385.080965114717630
 20
-177.415160548404510
 40
69.999999999999957
 50
42.732110042602208
 51
54.533060358986283
  0
LINE
  8
0
  6
CONTINUOUS
 62
3
 10
-315.080965114717630
 20
-198.435144573953440
 11
-315.080965114717630
 21
-204.415160548404510
  0
LINE
  8
0
  6
CONTINUOUS
 62
3
 10
-482.080965114717860
 20
-203.850768613952540
 11
-482.080965114717860
 21
-204.415160548404510
  0
ARC
  8
0
  6
CONTINUOUS
 62
3
 10
-412.080965114717630
 20
-177.415160548404510
 40
70.000000000000000
 50
125.466939641014630
 51
132.169547802798090
  0
LINE
  8
0
  6
CONTINUOUS
 62
3
 10
-416.080965114717630
 20
-226.039938127771450
 11
-416.080965114717630
 21
-268.615160548404500
  0
LINE
  8
0
  6
CONTINUOUS
 62
3
 10
-381.080965114717630
 20
-226.039938127771450
 11
-381.080965114717630
 21
-268.615160548404500
  0
LINE
  8
0
  6
CONTINUOUS
 62
3
 10
-385.080965114717630
 20
-274.415160548404510
 11
-412.080965114717630
 21
-274.415160548404510
  0
ARC
  8
0
  6
CONTINUOUS
 62
3
 10
-412.080965114717630
 20
-204.415160548404510
 40
70.000000000000227
 50
180.000000000000000
 51
270.000000000000000
  0
ARC
  8
0
  6
CONTINUOUS
 62
3
 10
-385.080965114717630
 20
-204.415160548404510
 40
70.000000000000000
 50
270.000000000000000
 51
0.000000000000000
  0
ARC
  8
0
  6
CONTINUOUS
 62
3
 10
-384.080965114717630
 20
-226.039938127771450
 40
3.000000000000000
 50
0.000000000000000
 51
112.431520635376250
  0
ARC
  8
0
  6
CONTINUOUS
 62
3
 10
-413.080965114717630
 20
-226.039938127771450
 40
3.000000000000022
 50
67.568479364623741
 51
180.000000000000000
  0
LINE
  8
0
  6
CONTINUOUS
 62
3
 10
-421.080965114717630
 20
-219.088729722366110
 11
-421.080965114717630
 21
-267.531774539112460
  0
ARC
  8
0
  6
CONTINUOUS
 62
3
 10
-424.080965114717630
 20
-219.088729722366110
 40
3.000000000000000
 50
0.000000000000000
 51
47.851640517492825
  0
ARC
  8
0
  6
CONTINUOUS
 62
3
 10
-398.580965114717630
 20
-190.915160548404510
 40
34.999999999999886
 50
219.109992212758300
 51
320.890007787241760
  0
ARC
  8
0
  6
CONTINUOUS
 62
3
 10
-373.080965114717630
 20
-219.088729722366110
 40
2.999999999999853
 50
132.148359482507170
 51
180.000000000000000
  0
LINE
  8
0
  6
CONTINUOUS
 62
3
 10
-376.080965114717630
 20
-219.088729722366110
 11
-376.080965114717630
 21
-267.531774539112460
  0
ARC
  8
0
  6
CONTINUOUS
 62
3
 10
-373.080965114717630
 20
-267.531774539112460
 40
3.000000000000000
 50
180.000000000000000
 51
280.317602512868230
  0
ARC
  8
0
  6
CONTINUOUS
 62
3
 10
-384.080965114717630
 20
-268.615160548404500
 40
3.000000000000000
 50
270.000000000000000
 51
0.000000000000000
  0
ARC
  8
0
  6
CONTINUOUS
 62
3
 10
-413.080965114717630
 20
-268.615160548404500
 40
3.000000000000000
 50
180.000000000000000
 51
270.000000000000000
  0
ARC
  8
0
  6
CONTINUOUS
 62
3
 10
-424.080965114717630
 20
-267.531774539112460
 40
3.000000000000005
 50
259.682397487131770
 51
0.000000000000000
  0
ARC
  8
0
  6
CONTINUOUS
 62
3
 10
-343.780189572760040
 20
-245.715936090361880
 40
6.249999999999818
 50
54.618555413457301
 51
215.381444586545570
  0
ARC
  8
0
  6
CONTINUOUS
 62
3
 10
-338.424280839619540
 20
-238.174269056988810
 40
3.000000000000011
 50
234.618555413455650
 51
321.846812084447610
  0
ARC
  8
0
  6
CONTINUOUS
 62
3
 10
-351.321856606133450
 20
-251.071844823502720
 40
3.000000000000222
 50
308.153187915558870
 51
35.381444586539963
  0
ARC
  8
0
  6
CONTINUOUS
 62
3
 10
-458.737649389815940
 20
-238.174269056988860
 40
2.999999999999743
 50
218.153187915557770
 51
305.381444586552050
  0
ARC
  8
0
  6
CONTINUOUS
 62
3
 10
-453.381740656675450
 20
-245.715936090361940
 40
6.250000000000307
 50
324.618555413457270
 51
125.381444586539010
  0
ARC
  8
0
  6
CONTINUOUS
 62
3
 10
-445.840073623302030
 20
-251.071844823502720
 40
2.999999999999964
 50
144.618555413455000
 51
231.846812084448000
  0
LINE
  8
0
  6
CONTINUOUS
 62
3
 10
-515.580965114717860
 20
-236.511213806216400
 11
-515.580965114717860
 21
-160.150734818013060
  0
ARC
  8
0
  6
CONTINUOUS
 62
3
 10
-513.580965114717860
 20
-158.915160548403550
 40
2.000000000000000
 50
90.000000000000000
 51
180.000000000000000
  0
ARC
  8
0
  6
CONTINUOUS
 62
3
 10
-509.580965114717860
 20
-236.511213806216400
 40
6.000000000000000
 50
180.000000000000000
 51
202.331645009221920
  0
LINE
  8
0
  6
CONTINUOUS
 62
3
 10
-500.580965114717860
 20
-156.915160548403550
 11
-513.580965114717860
 21
-156.915160548403550
  0
LINE
  8
0
  6
CONTINUOUS
 62
3
 10
-500.580965114717860
 20
-130.915160548403550
 11
-507.479202416021960
 21
-130.915160548403550
  0
LINE
  8
0
  6
CONTINUOUS
 62
3
 10
-296.580965114717860
 20
-156.915160548403550
 11
-284.580965114717860
 21
-156.915160548403550
  0
LINE
  8
0
  6
CONTINUOUS
 62
3
 10
-296.580965114717860
 20
-130.915160548403550
 11
-291.182903126968540
 21
-130.915160548403550
  0
LINE
  8
0
  6
CONTINUOUS
 62
3
 10
-398.580965114717860
 20
-300.915164035720240
 11
-338.722390125005400
 21
-300.915164035720240
  0
LINE
  8
0
  6
CONTINUOUS
 62
3
 10
-398.580965114717860
 20
-300.915164035720240
 11
-458.439540104430760
 21
-300.915164035720240
  0
LINE
  8
0
  6
CONTINUOUS
 62
3
 10
-281.580965114717860
 20
-236.511213806216400
 11
-281.580965114717860
 21
-158.915160548403550
  0
LINE
  8
0
  6
CONTINUOUS
 62
3
 10
-337.580960464959840
 20
-301.915164035720240
 11
-325.580969764475870
 21
-301.915164035720240
  0
LINE
  8
0
  6
CONTINUOUS
 62
3
 10
-459.580969764475870
 20
-301.915164035720240
 11
-471.580960464959840
 21
-301.915164035720240
  0
LINE
  8
0
  6
CONTINUOUS
 62
3
 10
-398.580965114717860
 20
-98.915160548403776
 11
-381.080965114717860
 21
-98.915160548403776
  0
LINE
  8
0
  6
CONTINUOUS
 62
3
 10
-398.580965114717860
 20
-98.915160548403776
 11
-416.080965114717860
 21
-98.915160548403776
  0
LINE
  8
0
  6
CONTINUOUS
 62
3
 10
-401.830965114717860
 20
-104.415161345504480
 11
-401.830965114717860
 21
-101.915160548403770
  0
LINE
  8
0
  6
CONTINUOUS
 62
3
 10
-395.330965114717860
 20
-104.415161345504480
 11
-395.330965114717860
 21
-101.915160548403770
  0
LINE
  8
0
  6
CONTINUOUS
 62
3
 10
-331.353608407847790
 20
-128.283998716347070
 11
-307.042659647832810
 21
-103.973049956332540
  0
LINE
  8
0
  6
CONTINUOUS
 62
3
 10
-335.949802485560210
 20
-123.687804638634410
 11
-311.733308705150650
 21
-99.471310858225308
  0
LINE
  8
0
  6
CONTINUOUS
 62
3
 10
-468.019806227084700
 20
-116.880126155425340
 11
-473.930551743469440
 21
-110.969380639040720
  0
LINE
  8
0
  6
CONTINUOUS
 62
3
 10
-478.719183553360610
 20
-115.373136984574640
 11
-490.119270581602900
 21
-103.973049956332540
  0
LINE
  8
0
  6
CONTINUOUS
 62
3
 10
-465.808321821587920
 20
-253.546323974662130
 11
-487.740841723187260
 21
-275.478843876261010
  0
LINE
  8
0
  6
CONTINUOUS
 62
3
 10
-461.212127743875500
 20
-258.142518052374560
 11
-483.144647645474380
 21
-280.075037953973440
  0
LINE
  8
0
  6
CONTINUOUS
 62
3
 10
-327.544311285261300
 20
-257.355621097248390
 11
-309.421088506248450
 21
-275.478843876260780
  0
LINE
  8
0
  6
CONTINUOUS
 62
3
 10
-331.444757872321590
 20
-262.647562665612950
 11
-314.017282583961330
 21
-280.075037953973440
  0
ARC
  8
0
  6
CONTINUOUS
 62
3
 10
-500.580965114717860
 20
-143.915160548403550
 40
13.000000000000000
 50
270.000000000000000
 51
285.865339476343880
  0
ARC
  8
0
  6
CONTINUOUS
 62
3
 10
-507.479202416021960
 20
-128.915160548403550
 40
2.000000000000116
 50
157.893323870137750
 51
270.000000000000000
  0
ARC
  8
0
  6
CONTINUOUS
 62
3
 10
-296.580965114717860
 20
-143.915160548403550
 40
13.000000000000000
 50
90.000000000000000
 51
270.000000000000000
  0
ARC
  8
0
  6
CONTINUOUS
 62
3
 10
-398.580965114717860
 20
-190.915161345504490
 40
125.999999999999870
 50
309.364679251356730
 51
337.668354990778480
  0
ARC
  8
0
  6
CONTINUOUS
 62
3
 10
-287.580965114717860
 20
-236.511213806216400
 40
6.000000000000214
 50
337.668354990778080
 51
0.000000000000000
  0
ARC
  8
0
  6
CONTINUOUS
 62
3
 10
-398.580965114717860
 20
-190.915161345504490
 40
126.000000000000180
 50
202.331645009221490
 51
230.635320748643100
  0
ARC
  8
0
  6
CONTINUOUS
 62
3
 10
-366.580965114717860
 20
-160.150734818013060
 40
85.000000000000000
 50
0.000000000000000
 51
85.577622414021803
  0
ARC
  8
0
  6
CONTINUOUS
 62
3
 10
-313.590925002066800
 20
-294.513873121520250
 40
8.000000000000215
 50
129.364679251358580
 51
178.093887109017460
  0
ARC
  8
0
  6
CONTINUOUS
 62
3
 10
-465.580965114717860
 20
-293.915160548403780
 40
10.000000000000053
 50
306.869864344412290
 51
315.572968020398260
  0
ARC
  8
0
  6
CONTINUOUS
 62
3
 10
-483.571005227368910
 20
-294.513873121520250
 40
7.999999999999923
 50
1.906112890982627
 51
50.635320748643942
  0
ARC
  8
0
  6
CONTINUOUS
 62
3
 10
-465.580965114717860
 20
-293.915160548403780
 40
10.000000000000130
 50
181.906112890982260
 51
233.130135655587680
  0
ARC
  8
0
  6
CONTINUOUS
 62
3
 10
-331.580965114717860
 20
-293.915160548403780
 40
10.000000000000158
 50
224.427031979599950
 51
233.130135655587680
  0
ARC
  8
0
  6
CONTINUOUS
 62
3
 10
-331.580965114717860
 20
-293.915160548403780
 40
10.000000000000053
 50
306.869864344412290
 51
358.093887109017660
  0
ARC
  8
0
  6
CONTINUOUS
 62
3
 10
-381.080965114717860
 20
-95.915160548403776
 40
3.000000000000000
 50
270.000000000000000
 51
0.000000000000000
  0
ARC
  8
0
  6
CONTINUOUS
 62
3
 10
-416.080965114717860
 20
-95.915160548403776
 40
3.000000000000000
 50
180.000000000000000
 51
270.000000000000000
  0
ARC
  8
0
  6
CONTINUOUS
 62
3
 10
-360.304886392082610
 20
-233.687761129222110
 40
37.999999999999936
 50
264.588104602568250
 51
355.900478402576140
  0
ARC
  8
0
  6
CONTINUOUS
 62
3
 10
-317.414907057311670
 20
-236.761793117169930
 40
4.999999999999917
 50
154.450645436618710
 51
175.900478402575570
  0
ARC
  8
0
  6
CONTINUOUS
 62
3
 10
-364.360431552998310
 20
-276.496084542406440
 40
5.000000000000205
 50
84.588104602569331
 51
106.037937568522150
  0
ARC
  8
0
  6
CONTINUOUS
 62
3
 10
-392.330965114717860
 20
-104.415161345504480
 40
3.000000000000000
 50
180.000000000000000
 51
210.369731441688460
  0
ARC
  8
0
  6
CONTINUOUS
 62
3
 10
-392.330965114717860
 20
-101.915160548403770
 40
3.000000000000000
 50
90.000000000000000
 51
180.000000000000000
  0
ARC
  8
0
  6
CONTINUOUS
 62
3
 10
-404.830965114717860
 20
-101.915160548403770
 40
3.000000000000000
 50
0.000000000000000
 51
90.000000000000000
  0
ARC
  8
0
  6
CONTINUOUS
 62
3
 10
-404.830965114717860
 20
-104.415161345504480
 40
3.000000000000769
 50
329.630268558311570
 51
0.000000000000000
  0
ARC
  8
0
  6
CONTINUOUS
 62
3
 10
-329.232288064288240
 20
-130.405319059906620
 40
2.999999999999864
 50
135.000000000000000
 51
170.596503350996730
  0
ARC
  8
0
  6
CONTINUOUS
 62
3
 10
-304.921339304273260
 20
-106.094370299892090
 40
3.000000000000097
 50
41.240714208219508
 51
135.000000000000000
  0
ARC
  8
0
  6
CONTINUOUS
 62
3
 10
-338.071122829119760
 20
-121.566484295074870
 40
3.000000000000124
 50
229.911473410096960
 51
315.000000000000000
  0
ARC
  8
0
  6
CONTINUOUS
 62
3
 10
-313.854629048710190
 20
-97.349990514665535
 40
3.000000000000024
 50
314.999999999996870
 51
49.983805954135455
  0
ARC
  8
0
  6
CONTINUOUS
 62
3
 10
-483.307301180725520
 20
-97.349990514665535
 40
2.999999999999794
 50
130.016194045864520
 51
225.000000000003070
  0
ARC
  8
0
  6
CONTINUOUS
 62
3
 10
-459.090807400315950
 20
-121.566484295074870
 40
2.999999999999982
 50
259.800724178982650
 51
310.088526589903040
  0
ARC
  8
0
  6
CONTINUOUS
 62
3
 10
-492.240590925162450
 20
-106.094370299892090
 40
2.999999999999864
 50
45.000000000000000
 51
138.759285791780480
  0
ARC
  8
0
  6
CONTINUOUS
 62
3
 10
-291.182903126968540
 20
-127.915160548403540
 40
3.000000000000000
 50
270.000000000000000
 51
23.148572820069919
  0
ARC
  8
0
  6
CONTINUOUS
 62
3
 10
-284.580965114717860
 20
-159.915160548403550
 40
3.000000000000000
 50
0.000000000000000
 51
90.000000000000000
  0
ARC
  8
0
  6
CONTINUOUS
 62
3
 10
-467.929642165147470
 20
-251.425003631102360
 40
3.000000000000024
 50
314.999999999996870
 51
40.088526589902528
  0
ARC
  8
0
  6
CONTINUOUS
 62
3
 10
-459.090807400315950
 20
-260.263838395934100
 40
3.000000000000124
 50
49.911473410096967
 51
135.000000000000000
  0
ARC
  8
0
  6
CONTINUOUS
 62
3
 10
-489.862162066746810
 20
-273.357523532701240
 40
3.000000000000218
 50
222.087374790476100
 51
314.999999999996870
  0
ARC
  8
0
  6
CONTINUOUS
 62
3
 10
-481.023327301914830
 20
-282.196358297533210
 40
3.000000000000024
 50
134.999999999996930
 51
227.912625209521000
  0
ARC
  8
0
  6
CONTINUOUS
 62
3
 10
-316.138602927520880
 20
-282.196358297532980
 40
3.000000000000218
 50
312.087374790476080
 51
45.000000000000000
  0
ARC
  8
0
  6
CONTINUOUS
 62
3
 10
-307.299768162688910
 20
-273.357523532701240
 40
2.999999999999864
 50
225.000000000000000
 51
317.912625209518070
  0
ARC
  8
0
  6
CONTINUOUS
 62
3
 10
-333.566078215881590
 20
-264.768883009172500
 40
3.000000000000185
 50
44.999999999993868
 51
130.705112768216340
  0
ARC
  8
0
  6
CONTINUOUS
 62
3
 10
-325.422990941701760
 20
-255.234300753688610
 40
2.999999999999677
 50
148.296383256597580
 51
225.000000000003070
  0
ARC
  8
0
  6
CONTINUOUS
 62
3
 10
-430.580965114717860
 20
-160.150734818013060
 40
84.999999999999972
 50
94.422377585978197
 51
180.000000000000000
  0
LINE
  8
0
  6
CONTINUOUS
 62
3
 10
-378.080965114717860
 20
-74.335587307063236
 11
-378.080965114717860
 21
-95.915160548403776
  0
LINE
  8
0
  6
CONTINUOUS
 62
3
 10
-419.080965114717860
 20
-74.335587307063236
 11
-419.080965114717860
 21
-95.915160548403776
  0
ARC
  8
0
  6
CONTINUOUS
 62
3
 10
-398.580965114717860
 20
-573.915160548403830
 40
500.000000000000000
 50
92.349785605460426
 51
94.422377585978055
  0
ARC
  8
0
  6
CONTINUOUS
 62
3
 10
-398.580965114717860
 20
-573.915160548403830
 40
500.000000000000060
 50
85.577622414021945
 51
87.650214394539574
  0
ARC
  8
0
  6
CONTINUOUS
 62
3
 10
-388.080965114717860
 20
-48.915160548403776
 40
10.000000000000000
 50
0.000000000000000
 51
90.000000000000000
  0
LINE
  8
0
  6
CONTINUOUS
 62
3
 10
-378.080965114717860
 20
-48.915160548403776
 11
-378.080965114717860
 21
-74.335587307063008
  0
LINE
  8
0
  6
CONTINUOUS
 62
3
 10
-388.080965114717860
 20
-38.915160548403776
 11
-409.080965114717860
 21
-38.915160548403776
  0
ARC
  8
0
  6
CONTINUOUS
 62
3
 10
-409.080965114717860
 20
-48.915160548403776
 40
10.000000000000000
 50
90.000000000000000
 51
180.000000000000000
  0
LINE
  8
0
  6
DASHDOT
 62
4
 10
-375.413052115836310
 20
-58.915160548403776
 11
-422.435566017371000
 21
-58.915160548403776
  0
CIRCLE
  8
0
  6
CONTINUOUS
 62
3
 10
-398.580965114717860
 20
-58.915160548403776
 40
10.000000000000000
  0
LINE
  8
0
  6
CONTINUOUS
 62
3
 10
-419.080965114717860
 20
-48.915160548403776
 11
-419.080965114717860
 21
-74.335587307063008
  0
LINE
  8
0
  6
CONTINUOUS
 62
3
 10
-477.279303300450470
 20
-84.813016440383706
 11
-500.175759848683810
 21
-61.916559892150360
  0
LINE
  8
0
  6
CONTINUOUS
 62
3
 10
-470.226467759511250
 20
-82.673463825897727
 11
-495.579565770971390
 21
-57.320365814437594
  0
LINE
  8
0
  6
CONTINUOUS
 62
3
 10
-528.580965114717860
 20
-298.915160548403660
 11
-474.241219152562280
 21
-298.915160548403660
  0
LINE
  8
0
  6
CONTINUOUS
 62
3
 10
-538.580965114717860
 20
-288.915160548403660
 11
-538.580965114717860
 21
-28.915160548403776
  0
LINE
  8
0
  6
CONTINUOUS
 62
3
 10
-322.920711076873430
 20
-298.915160548403660
 11
-268.580965114717860
 21
-298.915160548403660
  0
LINE
  8
0
  6
CONTINUOUS
 62
3
 10
-258.580965114717860
 20
-288.915160548403660
 11
-258.580965114717860
 21
-28.915160548403776
  0
LINE
  8
0
  6
CONTINUOUS
 62
3
 10
-528.580965114717860
 20
-18.915160548403776
 11
-268.580965114717860
 21
-18.915160548403776
  0
LINE
  8
0
  6
CONTINUOUS
 62
3
 10
-326.935462469924460
 20
-82.673463825897727
 11
-301.582364458464330
 21
-57.320365814437594
  0
LINE
  8
0
  6
CONTINUOUS
 62
3
 10
-319.882626928985250
 20
-84.813016440383706
 11
-296.986170380751900
 21
-61.916559892150360
  0
ARC
  8
0
  6
CONTINUOUS
 62
3
 10
-404.830965114717860
 20
-36.915195122656144
 40
3.000000000000000
 50
0.000000000000000
 51
90.000000000000000
  0
ARC
  8
0
  6
CONTINUOUS
 62
3
 10
-528.580965114717860
 20
-288.915160548403660
 40
10.000000000000000
 50
180.000000000000000
 51
270.000000000000000
  0
CIRCLE
  8
0
  6
CONTINUOUS
 62
3
 10
-518.789117916421220
 20
-279.123313350126580
 40
9.500000000000000
  0
ARC
  8
0
  6
CONTINUOUS
 62
3
 10
-268.580965114717860
 20
-288.915160548403660
 40
10.000000000000000
 50
270.000000000000000
 51
0.000000000000000
  0
CIRCLE
  8
0
  6
CONTINUOUS
 62
3
 10
-278.372812312994940
 20
-279.123313350107480
 40
9.500000000000000
  0
ARC
  8
0
  6
CONTINUOUS
 62
3
 10
-528.580965114717860
 20
-28.915160548403776
 40
10.000000000000000
 50
90.000000000000000
 51
180.000000000000000
  0
CIRCLE
  8
0
  6
CONTINUOUS
 62
3
 10
-518.789117916440320
 20
-38.707007746700413
 40
9.500000000000000
  0
ARC
  8
0
  6
CONTINUOUS
 62
3
 10
-468.105147415951710
 20
-80.552143482338181
 40
2.999999999999864
 50
225.000000000000000
 51
295.240018135852320
  0
ARC
  8
0
  6
CONTINUOUS
 62
3
 10
-268.580965114717860
 20
-28.915160548403776
 40
10.000000000000000
 50
0.000000000000000
 51
90.000000000000000
  0
CIRCLE
  8
0
  6
CONTINUOUS
 62
3
 10
-278.372812313014040
 20
-38.707007746681313
 40
9.500000000000000
  0
ARC
  8
0
  6
CONTINUOUS
 62
3
 10
-493.458245427411380
 20
-55.199045470877934
 40
3.000000000000009
 50
132.451607436421090
 51
224.999999999995400
  0
ARC
  8
0
  6
CONTINUOUS
 62
3
 10
-502.297080192243360
 20
-64.037880235709906
 40
2.999999999999864
 50
45.000000000000000
 51
137.548392563578910
  0
ARC
  8
0
  6
CONTINUOUS
 62
3
 10
-303.703684802024330
 20
-55.199045470877934
 40
3.000000000000265
 50
315.000000000004600
 51
47.548392563578922
  0
ARC
  8
0
  6
CONTINUOUS
 62
3
 10
-329.056782813484010
 20
-80.552143482338181
 40
3.000000000000066
 50
244.759981864147700
 51
315.000000000000000
  0
ARC
  8
0
  6
CONTINUOUS
 62
3
 10
-294.864850037192350
 20
-64.037880235709906
 40
2.999999999999933
 50
42.451607436419486
 51
135.000000000000000
  0
ARC
  8
0
  6
CONTINUOUS
 62
3
 10
-479.400623644010010
 20
-86.934336783943479
 40
2.999999999999895
 50
303.694795008801920
 51
45.000000000003077
  0
ARC
  8
0
  6
CONTINUOUS
 62
3
 10
-317.761306585425700
 20
-86.934336783943479
 40
3.000000000000024
 50
134.999999999996930
 51
236.305204991199280
  0
ARC
  8
0
  6
CONTINUOUS
 62
3
 10
-392.330965114717860
 20
-36.915195122656144
 40
3.000000000000000
 50
90.000000000000000
 51
180.000000000000000
  0
LINE
  8
0
  6
CONTINUOUS
 62
3
 10
-395.330965114717860
 20
-38.915160548403776
 11
-395.330965114717860
 21
-36.915195122656144
  0
LINE
  8
0
  6
CONTINUOUS
 62
3
 10
-401.830965114717860
 20
-38.915160548403776
 11
-401.830965114717860
 21
-36.915195122656144
  0
LINE
  8
0
  6
CONTINUOUS
 62
3
 10
-395.330965114717860
 20
-68.372300708092610
 11
-395.330965114717860
 21
-49.458020388714942
  0
LINE
  8
0
  6
CONTINUOUS
 62
3
 10
-401.830965114717860
 20
-68.372300708092610
 11
-401.830965114717860
 21
-49.458020388714942
  0
LINE
  8
0
  6
CONTINUOUS
 62
3
 10
-477.779426670115410
 20
-107.120505712394710
 11
-485.428621524285060
 21
-99.471310858225308
  0
ARC
  8
0
  6
CONTINUOUS
 62
3
 10
-500.580965114717860
 20
-143.915160548403550
 40
13.000000000000041
 50
62.674827096403881
 51
90.000000000000000
  0
CIRCLE
  8
0
  6
CONTINUOUS
 62
3
 10
-504.580965114717860
 20
-169.915160548403550
 40
5.633955001831055
  0
ARC
  8
0
  6
CONTINUOUS
 62
3
 10
-504.580965114717860
 20
-169.915160548403550
 40
6.499999999999925
 50
12.608589304570613
 51
336.232417485113270
  0
POINT
  8
0
  6
CONTINUOUS
 62
3
 10
-504.580965114717860
 20
-169.915160548403550
  0
LINE
  8
0
  6
CONTINUOUS
 62
3
 10
-501.580968452576830
 20
-171.647206547954800
 11
-501.580967498902510
 21
-168.183108571270220
  0
LINE
  8
0
  6
CONTINUOUS
 62
3
 10
-507.580961776858660
 20
-168.183113595177990
 11
-507.580962730532750
 21
-171.647211571862560
  0
LINE
  8
0
  6
CONTINUOUS
 62
3
 10
-504.580971816438700
 20
-166.451063548468310
 11
-501.580967175166280
 21
-168.183108726697980
  0
LINE
  8
0
  6
CONTINUOUS
 62
3
 10
-507.580963226811490
 20
-171.647211941182320
 11
-504.580960650305770
 21
-173.379258913818660
  0
LINE
  8
0
  6
CONTINUOUS
 62
3
 10
-504.580971733319530
 20
-166.451063652017920
 11
-507.580962540666860
 21
-168.183113766267180
  0
LINE
  8
0
  6
CONTINUOUS
 62
3
 10
-504.580960409729190
 20
-173.379258724152350
 11
-501.580967537617430
 21
-171.647206766436280
  0
ARC
  8
0
  6
CONTINUOUS
 62
3
 10
-477.880965114717810
 20
-173.957660548404530
 40
20.799999999999986
 50
174.275189547776620
 51
205.640070215894870
  0
POINT
  8
0
  6
DASHDOT
 62
4
 10
-457.080965114717860
 20
-159.928891041530510
  0
ARC
  8
0
  6
CONTINUOUS
 62
3
 10
-477.880965114717810
 20
-173.957660548404530
 40
20.799999999999926
 50
205.640070215894870
 51
260.083463391769440
  0
POINT
  8
0
  6
DASHDOT
 62
4
 10
-457.080965114717860
 20
-159.928891041530510
  0
ARC
  8
0
  6
CONTINUOUS
 62
3
 10
-477.880965114717810
 20
-173.957660548404530
 40
20.799999999999986
 50
174.275189547776620
 51
205.640070215894870
  0
ARC
  8
0
  6
CONTINUOUS
 62
3
 10
-475.880965114717810
 20
-133.957660548404530
 40
18.799999999999955
 50
0.000000000000000
 51
79.401214733933941
  0
ARC
  8
0
  6
CONTINUOUS
 62
3
 10
-472.055210480630880
 20
-113.512524171266810
 40
1.999999999999927
 50
177.137594773887290
 51
259.401214733934010
  0
ARC
  8
0
  6
CONTINUOUS
 62
3
 10
-477.648223578346690
 20
-113.232873516381000
 40
1.999999999999928
 50
274.873974813840960
 51
357.137594773887320
  0
ARC
  8
0
  6
CONTINUOUS
 62
3
 10
-476.214417848334280
 20
-196.696671525333840
 40
1.999999999999962
 50
94.191726156001650
 51
177.137594773887290
  0
LINE
  8
0
  6
CONTINUOUS
 62
3
 10
-474.382836606401040
 20
-103.995090382069290
 11
-479.476473534678010
 21
-205.867828947609380
  0
ARC
  8
0
  6
CONTINUOUS
 62
3
 10
-481.807430946050090
 20
-196.417020870448030
 40
2.000000000000154
 50
357.137594773887600
 51
80.083463391767268
  0
LINE
  8
0
  6
CONTINUOUS
 62
3
 10
-498.577224466338750
 20
-171.882847580823520
 11
-494.587199528682730
 21
-132.082348827706260
  0
ARC
  8
0
  6
CONTINUOUS
 62
3
 10
-477.880965114717810
 20
-173.957660548404530
 40
20.800000000000082
 50
274.191726156007460
 51
354.952683218992210
  0
ARC
  8
0
  6
CONTINUOUS
 62
3
 10
-475.880965114717810
 20
-133.957660548404530
 40
18.800000000000036
 50
94.873974813842736
 51
144.191373186504250
  0
ARC
  8
0
  6
CONTINUOUS
 62
3
 10
-475.880965114717810
 20
-133.957660548404530
 40
18.799999999999933
 50
144.191373186504250
 51
174.275189547776390
  0
LINE
  8
0
  6
CONTINUOUS
 62
3
 10
-475.181838477503330
 20
-103.955140288514140
 11
-473.583834735298750
 21
-104.035040475624320
  0
LINE
  8
0
  6
CONTINUOUS
 62
3
 10
-457.080965114717860
 20
-142.584551788184970
 11
-457.080965114717860
 21
-133.957660548404530
  0
ARC
  8
0
  6
CONTINUOUS
 62
3
 10
-469.039511974397780
 20
-109.268502712294430
 40
9.000000000000060
 50
160.536063666407810
 51
193.739143184213500
  0
POINT
  8
0
  6
CONTINUOUS
 62
3
 10
-475.431526562222190
 20
-108.948901982903180
  0
LINE
  8
0
  6
CONTINUOUS
 62
3
 10
-475.256744902918630
 20
-105.453268796830790
 11
-475.606308221525750
 21
-112.444535168975670
  0
LINE
  8
0
  6
CONTINUOUS
 62
3
 10
-475.256744902918630
 20
-105.453268796830790
 11
-475.606308221525750
 21
-112.444535168975670
  0
LINE
  8
0
  6
CONTINUOUS
 62
3
 10
-475.606308221525750
 20
-112.444535168975670
 11
-476.584112034033520
 21
-112.395644978350330
  0
LINE
  8
0
  6
CONTINUOUS
 62
3
 10
-475.256744902918630
 20
-105.453268796830790
 11
-476.234548715426170
 21
-105.404378606205450
  0
ARC
  8
0
  6
CONTINUOUS
 62
3
 10
-476.519193170105840
 20
-111.097267699796700
 40
1.299999237060493
 50
193.739143184211430
 51
267.137612759980240
  0
ARC
  8
0
  6
CONTINUOUS
 62
3
 10
-476.299467579353860
 20
-106.702755884758970
 40
1.299999237060474
 50
87.137594090651831
 51
160.536063666412870
  0
LINE
  8
0
  6
CONTINUOUS
 62
3
 10
-475.181838477503330
 20
-103.955140288514140
 11
-480.275475405780300
 21
-205.827878854054120
  0
LINE
  8
0
  6
CONTINUOUS
 62
3
 10
-478.677471663575720
 20
-205.907779041165100
 11
-480.275475405780300
 21
-205.827878854054120
  0
LINE
  8
0
  6
CONTINUOUS
 62
3
 10
-473.583834735298750
 20
-104.035040475624320
 11
-478.677471663575720
 21
-205.907779041165100
  0
LINE
  8
0
  6
CONTINUOUS
 62
3
 10
-311.080965114717860
 20
-162.415160548404510
 11
-311.080965114717860
 21
-157.415160548404510
  0
LINE
  8
0
  6
CONTINUOUS
 62
3
 10
-311.591381962235570
 20
-162.415160548404510
 11
-311.080965114717860
 21
-162.415160548404510
  0
LINE
  8
0
  6
CONTINUOUS
 62
3
 10
-311.591381962235570
 20
-157.415160548404510
 11
-311.080965114717860
 21
-157.415160548404510
  0
ARC
  8
0
  6
CONTINUOUS
 62
3
 10
-611.580965114717860
 20
-159.915160548404510
 40
300.000000000000170
 50
355.138594604201960
 51
4.861405395798036
  0
LINE
  8
0
  6
CONTINUOUS
 62
3
 10
-341.080965114717860
 20
-129.915160548404510
 11
-317.642195980736230
 21
-129.915160548404510
  0
LINE
  8
0
  6
CONTINUOUS
 62
3
 10
-341.080965114717860
 20
-189.915160548404510
 11
-317.642195980736230
 21
-189.915160548404510
  0
ARC
  8
0
  6
CONTINUOUS
 62
3
 10
-317.642195980736230
 20
-134.915160548404510
 40
4.999999999999893
 50
4.861405395798621
 51
90.000000000000000
  0
ARC
  8
0
  6
CONTINUOUS
 62
3
 10
-317.642195980736230
 20
-184.915160548404510
 40
5.000000000000000
 50
270.000000000000000
 51
355.138594604201330
  0
ARC
  8
0
  6
CONTINUOUS
 62
4
 10
-156.980965114717720
 20
-159.915160548404510
 40
290.796999999999910
 50
174.998349729065040
 51
180.000000000000000
  0
LINE
  8
0
  6
CONTINUOUS
 62
4
 10
-440.658555430573870
 20
-121.669663162155870
 11
-437.318250397296200
 21
-118.329358128877970
  0
ARC
  8
0
  6
CONTINUOUS
 62
4
 10
-425.952855702237230
 20
-136.375362890492510
 40
20.797000000000015
 50
135.000000000000000
 51
174.998349729064670
  0
ARC
  8
0
  6
CONTINUOUS
 62
4
 10
-398.580965114717860
 20
-506.515160548404590
 40
390.796999999999970
 50
90.000000000000000
 51
95.417963762360529
  0
ARC
  8
0
  6
CONTINUOUS
 62
4
 10
-435.196930053736200
 20
-120.450678472437740
 40
3.000000000000067
 50
95.417963762365673
 51
135.000000000003040
  0
ARC
  8
0
  6
CONTINUOUS
 62
4
 10
-156.980965114717720
 20
-159.915160548404510
 40
290.797000000000250
 50
180.000000000000000
 51
185.001650270934930
  0
LINE
  8
0
  6
CONTINUOUS
 62
4
 10
-440.658555430573870
 20
-198.160657934653160
 11
-437.318250397296200
 21
-201.500962967931060
  0
ARC
  8
0
  6
CONTINUOUS
 62
4
 10
-425.952855702237230
 20
-183.454958206316520
 40
20.796999999999880
 50
185.001650270935330
 51
225.000000000000000
  0
ARC
  8
0
  6
CONTINUOUS
 62
4
 10
-398.580965114717860
 20
186.684839451595650
 40
390.797000000000030
 50
264.582036237639500
 51
270.000000000000000
  0
ARC
  8
0
  6
CONTINUOUS
 62
4
 10
-435.196930053736200
 20
-199.379642624371290
 40
3.000000000000346
 50
224.999999999996960
 51
264.582036237634270
  0
ARC
  8
0
  6
CONTINUOUS
 62
4
 10
-640.180965114718220
 20
-159.915160548404510
 40
290.797000000000140
 50
354.998349729065010
 51
0.000000000000000
  0
LINE
  8
0
  6
CONTINUOUS
 62
4
 10
-356.503374798861840
 20
-198.160657934653160
 11
-359.843679832139510
 21
-201.500962967931060
  0
ARC
  8
0
  6
CONTINUOUS
 62
4
 10
-371.209074527198480
 20
-183.454958206316520
 40
20.797000000000015
 50
315.000000000000000
 51
354.998349729064670
  0
ARC
  8
0
  6
CONTINUOUS
 62
4
 10
-398.580965114717860
 20
186.684839451595650
 40
390.797000000000030
 50
270.000000000000000
 51
275.417963762360500
  0
ARC
  8
0
  6
CONTINUOUS
 62
4
 10
-361.965000175699520
 20
-199.379642624371290
 40
3.000000000000067
 50
275.417963762365730
 51
315.000000000003070
  0
ARC
  8
0
  6
CONTINUOUS
 62
4
 10
-640.180965114718220
 20
-159.915160548404510
 40
290.797000000000480
 50
0.000000000000000
 51
5.752282731536624
  0
ARC
  8
0
  6
CONTINUOUS
 62
4
 10
-361.965000175699520
 20
-120.450678472437740
 40
3.000000000000346
 50
44.999999999996930
 51
84.582036237634313
  0
ARC
  8
0
  6
CONTINUOUS
 62
4
 10
-398.580965114717860
 20
-506.515160548404590
 40
390.797000000000030
 50
84.582036237639471
 51
90.000000000000000
  0
LINE
  8
0
  6
CONTINUOUS
 62
4
 10
-353.956265960100150
 20
-124.216772000918010
 11
-359.843679832139510
 21
-118.329358128877970
  0
ARC
  8
0
  6
CONTINUOUS
 62
3
 10
-438.011832114805200
 20
-114.493213806106150
 40
6.600000000000009
 50
95.743681810995099
 51
135.000000000002790
  0
ARC
  8
0
  6
CONTINUOUS
 62
3
 10
-438.011832114805200
 20
-205.337107290702870
 40
6.600000000000278
 50
224.999999999997190
 51
264.256318189004900
  0
ARC
  8
0
  6
CONTINUOUS
 62
3
 10
-359.150098114630510
 20
-205.337107290702870
 40
6.600000000000009
 50
275.743681810995100
 51
315.000000000002790
  0
ARC
  8
0
  6
CONTINUOUS
 62
3
 10
-359.150098114630510
 20
-114.493213806106150
 40
6.600000000000278
 50
44.999999999997215
 51
84.256318189004901
  0
ARC
  8
0
  6
CONTINUOUS
 62
3
 10
-398.580965114717860
 20
-506.515160548404590
 40
400.599999999999850
 50
90.000000000000000
 51
95.743681810993436
  0
ARC
  8
0
  6
CONTINUOUS
 62
3
 10
-398.580965114717860
 20
186.684839451595650
 40
400.599999999999910
 50
264.256318189006550
 51
270.000000000000000
  0
ARC
  8
0
  6
CONTINUOUS
 62
3
 10
-398.580965114717860
 20
186.684839451595650
 40
400.599999999999910
 50
270.000000000000000
 51
275.743681810993450
  0
ARC
  8
0
  6
CONTINUOUS
 62
3
 10
-398.580965114717860
 20
-506.515160548404590
 40
400.599999999999850
 50
84.256318189006564
 51
90.000000000000000
  0
ARC
  8
0
  6
CONTINUOUS
 62
3
 10
-156.980965114717490
 20
-159.915160548404510
 40
300.599999999999910
 50
174.247717268463390
 51
180.000000000000000
  0
ARC
  8
0
  6
CONTINUOUS
 62
3
 10
-156.980965114717490
 20
-159.915160548404510
 40
300.600000000000360
 50
180.000000000000000
 51
185.752282731536610
  0
ARC
  8
0
  6
CONTINUOUS
 62
3
 10
-640.180965114718220
 20
-159.915160548404510
 40
300.599999999999910
 50
354.247717268463420
 51
0.000000000000000
  0
ARC
  8
0
  6
CONTINUOUS
 62
3
 10
-640.180965114718220
 20
-159.915160548404510
 40
300.600000000000360
 50
0.000000000000000
 51
5.752282731536604
  0
ARC
  8
0
  6
CONTINUOUS
 62
3
 10
-402.080965114717860
 20
-194.739720847136250
 40
1.000000000000000
 50
0.000000000000000
 51
84.260829522738291
  0
ARC
  8
0
  6
CONTINUOUS
 62
3
 10
-402.080965114717860
 20
-197.753633033429540
 40
1.000000000000042
 50
264.715267045464260
 51
0.000000000000000
  0
ARC
  8
0
  6
CONTINUOUS
 62
3
 10
-402.080965114717860
 20
-189.206797580158200
 40
1.000000000000077
 50
263.186145655820330
 51
0.000000000000000
  0
LINE
  8
0
  6
CONTINUOUS
 62
3
 10
-401.080965114717860
 20
-197.753633033429540
 11
-401.080965114717860
 21
-194.739720847136250
  0
ARC
  8
0
  6
CONTINUOUS
 62
3
 10
-415.621893798090700
 20
-165.712293426663680
 40
0.999999999999885
 50
300.000000000003810
 51
18.787728582346993
  0
LINE
  8
0
  6
CONTINUOUS
 62
3
 10
-417.763128955147290
 20
-168.103236659367550
 11
-415.121893798090700
 21
-166.578318830447980
  0
ARC
  8
0
  6
CONTINUOUS
 62
3
 10
-418.263128955147290
 20
-167.237211255583250
 40
1.000000000000094
 50
200.405931773138690
 51
300.000000000003810
  0
ARC
  8
0
  6
CONTINUOUS
 62
3
 10
-423.079591446872200
 20
-170.017997171722870
 40
1.000000000000082
 50
299.999999999997270
 51
22.410457608146043
  0
ARC
  8
0
  6
CONTINUOUS
 62
3
 10
-430.489919009042300
 20
-174.296351784524750
 40
1.000000000000082
 50
299.999999999997270
 51
24.260829522733715
  0
LINE
  8
0
  6
CONTINUOUS
 62
3
 10
-425.198266902649720
 20
-172.395915554820360
 11
-422.579591446872200
 21
-170.884022575507400
  0
ARC
  8
0
  6
CONTINUOUS
 62
3
 10
-425.698266902649720
 20
-171.529890151035830
 40
0.999999999999730
 50
203.186145655819840
 51
299.999999999997270
  0
LINE
  8
0
  6
CONTINUOUS
 62
3
 10
-432.600043527148050
 20
-176.669333281455810
 11
-429.989919009042300
 21
-175.162377188309280
  0
ARC
  8
0
  6
CONTINUOUS
 62
3
 10
-433.100043527148050
 20
-175.803307877671500
 40
1.000000000000248
 50
204.715267045455480
 51
300.000000000003810
  0
ARC
  8
0
  6
CONTINUOUS
 62
3
 10
-429.600043527148050
 20
-181.865485704162780
 40
1.000000000000082
 50
119.999999999997270
 51
215.284732954534320
  0
ARC
  8
0
  6
CONTINUOUS
 62
3
 10
-426.989919009042300
 20
-180.358529611015800
 40
0.999999999999807
 50
35.739170477263521
 51
120.000000000003780
  0
ARC
  8
0
  6
CONTINUOUS
 62
3
 10
-402.080965114717860
 20
-186.183011621531820
 40
1.000000000000000
 50
0.000000000000000
 51
82.410457608145762
  0
ARC
  8
0
  6
CONTINUOUS
 62
3
 10
-422.198266902649720
 20
-177.592067977526650
 40
0.999999999999885
 50
120.000000000003780
 51
216.813854344197100
  0
ARC
  8
0
  6
CONTINUOUS
 62
3
 10
-419.579591446872660
 20
-176.080174998213690
 40
1.000000000000194
 50
37.589542391851793
 51
119.999999999997270
  0
ARC
  8
0
  6
CONTINUOUS
 62
3
 10
-402.080965114717860
 20
-180.621439789253030
 40
1.000000000000268
 50
260.405931773124510
 51
0.000000000000000
  0
ARC
  8
0
  6
CONTINUOUS
 62
3
 10
-402.080965114717860
 20
-177.571604131414120
 40
1.000000000000000
 50
0.000000000000000
 51
78.787728582355996
  0
ARC
  8
0
  6
CONTINUOUS
 62
3
 10
-414.763128955146840
 20
-173.299389082074300
 40
0.999999999999885
 50
120.000000000003780
 51
219.594068226860460
  0
ARC
  8
0
  6
CONTINUOUS
 62
3
 10
-412.121893798090700
 20
-171.774471253154960
 40
1.000000000000165
 50
41.212271417643841
 51
119.999999999997270
  0
ARC
  8
0
  6
CONTINUOUS
 62
3
 10
-407.223269960131350
 20
-168.946249461649930
 40
0.999999999999885
 50
120.000000000003780
 51
226.260204708328700
  0
ARC
  8
0
  6
CONTINUOUS
 62
3
 10
-402.080965114717860
 20
-171.915160548404510
 40
0.999999999999964
 50
253.739795291702650
 51
0.000000000000000
  0
ARC
  8
0
  6
CONTINUOUS
 62
3
 10
-402.080965114717860
 20
-168.746921414732360
 40
1.000000000000000
 50
0.000000000000000
 51
68.381727577838021
  0
ARC
  8
0
  6
CONTINUOUS
 62
3
 10
-404.479494385107050
 20
-167.362129894813850
 40
0.999999999999961
 50
51.618272422159777
 51
120.000000000003780
  0
ARC
  8
0
  6
CONTINUOUS
 62
3
 10
-398.580965114717860
 20
-159.915160548404510
 40
38.999999999999865
 50
215.284732954534800
 51
264.715267045465400
  0
ARC
  8
0
  6
CONTINUOUS
 62
3
 10
-398.580965114717860
 20
-159.915160548404510
 40
30.499999999999964
 50
216.813854344181070
 51
263.186145655818960
  0
ARC
  8
0
  6
CONTINUOUS
 62
3
 10
-398.580965114717860
 20
-159.915160548404510
 40
33.999999999999964
 50
215.739170477266950
 51
264.260829522733050
  0
ARC
  8
0
  6
CONTINUOUS
 62
3
 10
-398.580965114717860
 20
-159.915160548404510
 40
25.499999999999890
 50
217.589542391857950
 51
262.410457608141830
  0
ARC
  8
0
  6
CONTINUOUS
 62
3
 10
-398.580965114717860
 20
-159.915160548404510
 40
22.000000000000025
 50
219.594068226860800
 51
260.405931773138780
  0
ARC
  8
0
  6
CONTINUOUS
 62
3
 10
-398.580965114717860
 20
-159.915160548404510
 40
16.999999999999773
 50
221.212271417650780
 51
258.787728582349980
  0
ARC
  8
0
  6
CONTINUOUS
 62
3
 10
-398.580965114717860
 20
-159.915160548404510
 40
13.499999999999927
 50
226.260204708312130
 51
253.739795291689150
  0
ARC
  8
0
  6
CONTINUOUS
 62
3
 10
-398.580965114717860
 20
-159.915160548404510
 40
8.499999999999948
 50
231.618272422157330
 51
248.381727577842330
  0
LINE
  8
0
  6
CONTINUOUS
 62
3
 10
-422.698266902649720
 20
-176.726042573742350
 11
-420.079591446872660
 21
-175.214149594429160
  0
LINE
  8
0
  6
CONTINUOUS
 62
3
 10
-430.100043527148050
 20
-180.999460300378250
 11
-427.489919009042300
 21
-179.492504207231490
  0
LINE
  8
0
  6
CONTINUOUS
 62
3
 10
-415.263128955146840
 20
-172.433363678289990
 11
-412.621893798090700
 21
-170.908445849370420
  0
LINE
  8
0
  6
CONTINUOUS
 62
3
 10
-407.723269960131350
 20
-168.080224057865620
 11
-404.979494385107050
 21
-166.496104491029540
  0
LINE
  8
0
  6
CONTINUOUS
 62
3
 10
-401.080965114717860
 20
-171.915160548404510
 11
-401.080965114717860
 21
-168.746921414732360
  0
LINE
  8
0
  6
CONTINUOUS
 62
3
 10
-401.080965114717860
 20
-180.621439789253030
 11
-401.080965114717860
 21
-177.571604131414120
  0
LINE
  8
0
  6
CONTINUOUS
 62
3
 10
-401.080965114717860
 20
-189.206797580158200
 11
-401.080965114717860
 21
-186.183011621531820
  0
ARC
  8
0
  6
CONTINUOUS
 62
3
 10
-407.979494385107050
 20
-161.299952068323020
 40
0.999999999999885
 50
300.000000000003810
 51
8.381727577845549
  0
ARC
  8
0
  6
CONTINUOUS
 62
3
 10
-398.580965114717860
 20
-159.915160548404510
 40
8.499999999999972
 50
171.618272422157790
 51
188.381727577842210
  0
LINE
  8
0
  6
CONTINUOUS
 62
3
 10
-410.223269960131350
 20
-163.750097038943410
 11
-407.479494385107050
 21
-162.165977472107330
  0
ARC
  8
0
  6
CONTINUOUS
 62
3
 10
-410.723269960131350
 20
-162.884071635159100
 40
0.999999999999879
 50
193.739795291686050
 51
300.000000000003810
  0
ARC
  8
0
  6
CONTINUOUS
 62
3
 10
-402.080965114717860
 20
-142.258716965394910
 40
0.999999999999982
 50
281.212271417643990
 51
0.000000000000000
  0
LINE
  8
0
  6
CONTINUOUS
 62
3
 10
-401.080965114717860
 20
-139.208881307556000
 11
-401.080965114717860
 21
-142.258716965394910
  0
ARC
  8
0
  6
CONTINUOUS
 62
3
 10
-402.080965114717860
 20
-139.208881307556000
 40
1.000000000000000
 50
0.000000000000000
 51
99.594068226875478
  0
ARC
  8
0
  6
CONTINUOUS
 62
3
 10
-402.080965114717860
 20
-133.647309475277210
 40
0.999999999999749
 50
277.589542391855960
 51
0.000000000013028
  0
LINE
  8
0
  6
CONTINUOUS
 62
3
 10
-401.080965114717860
 20
-130.623523516650830
 11
-401.080965114717860
 21
-133.647309475276980
  0
ARC
  8
0
  6
CONTINUOUS
 62
3
 10
-402.080965114717860
 20
-130.623523516650830
 40
1.000000000000000
 50
0.000000000000000
 51
96.813854344179688
  0
ARC
  8
0
  6
CONTINUOUS
 62
3
 10
-402.080965114717860
 20
-125.090600249672770
 40
0.999999999999973
 50
275.739170477261670
 51
0.000000000000000
  0
LINE
  8
0
  6
CONTINUOUS
 62
3
 10
-401.080965114717860
 20
-122.076688063379490
 11
-401.080965114717860
 21
-125.090600249672770
  0
ARC
  8
0
  6
CONTINUOUS
 62
3
 10
-402.080965114717860
 20
-122.076688063379490
 40
1.000000000000000
 50
0.000000000000000
 51
95.284732954535698
  0
ARC
  8
0
  6
CONTINUOUS
 62
3
 10
-422.198266902649720
 20
-142.238253119282150
 40
0.999999999999774
 50
143.186145655813330
 51
240.000000000002730
  0
LINE
  8
0
  6
CONTINUOUS
 62
3
 10
-422.698266902649720
 20
-143.104278523066680
 11
-420.079591446872200
 21
-144.616171502379870
  0
ARC
  8
0
  6
CONTINUOUS
 62
3
 10
-419.579591446872200
 20
-143.750146098595340
 40
1.000000000000082
 50
240.000000000002730
 51
322.410457608132330
  0
ARC
  8
0
  6
CONTINUOUS
 62
3
 10
-429.600043527148050
 20
-137.964835392646480
 40
0.999999999999908
 50
144.715267045455050
 51
239.999999999996220
  0
LINE
  8
0
  6
CONTINUOUS
 62
3
 10
-430.100043527148050
 20
-138.830860796430780
 11
-427.489919009042300
 21
-140.337816889577540
  0
ARC
  8
0
  6
CONTINUOUS
 62
3
 10
-426.989919009042300
 20
-139.471791485793230
 40
0.999999999999885
 50
239.999999999996220
 51
324.260829522725940
  0
ARC
  8
0
  6
CONTINUOUS
 62
3
 10
-404.479494385107050
 20
-152.468191201994960
 40
1.000000000000082
 50
240.000000000002730
 51
308.381727577840190
  0
LINE
  8
0
  6
CONTINUOUS
 62
3
 10
-407.723269960131350
 20
-151.750097038943410
 11
-404.979494385107050
 21
-153.334216605779490
  0
ARC
  8
0
  6
CONTINUOUS
 62
3
 10
-412.121893798090700
 20
-148.055849843654300
 40
0.999999999999885
 50
239.999999999996220
 51
318.787728582348790
  0
LINE
  8
0
  6
CONTINUOUS
 62
3
 10
-415.263128955146840
 20
-147.396957418519040
 11
-412.621893798090700
 21
-148.921875247438610
  0
ARC
  8
0
  6
CONTINUOUS
 62
3
 10
-414.763128955146840
 20
-146.530932014734500
 40
1.000000000000173
 50
140.405931773149600
 51
240.000000000002730
  0
ARC
  8
0
  6
CONTINUOUS
 62
3
 10
-402.080965114717860
 20
-151.083399682076670
 40
1.000000000000090
 50
291.618272422161970
 51
0.000000000000000
  0
ARC
  8
0
  6
CONTINUOUS
 62
3
 10
-398.580965114717860
 20
-159.915160548404510
 40
8.499999999999904
 50
111.618272422157710
 51
128.381727577841670
  0
ARC
  8
0
  6
CONTINUOUS
 62
3
 10
-407.223269960131350
 20
-150.884071635159100
 40
0.999999999999858
 50
133.739795291671300
 51
239.999999999996220
  0
LINE
  8
0
  6
CONTINUOUS
 62
3
 10
-401.080965114717860
 20
-147.915160548404510
 11
-401.080965114717860
 21
-151.083399682076670
  0
ARC
  8
0
  6
CONTINUOUS
 62
3
 10
-402.080965114717860
 20
-147.915160548404510
 40
1.000000000000000
 50
0.000000000000000
 51
106.260204708297360
  0
ARC
  8
0
  6
CONTINUOUS
 62
3
 10
-398.580965114717860
 20
-159.915160548404510
 40
13.499999999999963
 50
106.260204708310860
 51
133.739795291687870
  0
ARC
  8
0
  6
CONTINUOUS
 62
3
 10
-398.580965114717860
 20
-159.915160548404510
 40
17.000000000000046
 50
101.212271417650010
 51
138.787728582350240
  0
ARC
  8
0
  6
CONTINUOUS
 62
3
 10
-398.580965114717860
 20
-159.915160548404510
 40
22.000000000000131
 50
99.594068226861211
 51
140.405931773139200
  0
ARC
  8
0
  6
CONTINUOUS
 62
3
 10
-398.580965114717860
 20
-159.915160548404510
 40
30.500000000000135
 50
96.813854344181038
 51
143.186145655818930
  0
ARC
  8
0
  6
CONTINUOUS
 62
3
 10
-398.580965114717860
 20
-159.915160548404510
 40
25.500000000000160
 50
97.589542391858117
 51
142.410457608142050
  0
ARC
  8
0
  6
CONTINUOUS
 62
3
 10
-398.580965114717860
 20
-159.915160548404510
 40
34.000000000000071
 50
95.739170477266924
 51
144.260829522733360
  0
ARC
  8
0
  6
CONTINUOUS
 62
3
 10
-398.580965114717860
 20
-159.915160548404510
 40
38.999999999999986
 50
95.284732954534590
 51
144.715267045465200
  0
ARC
  8
0
  6
CONTINUOUS
 62
3
 10
-425.698266902649720
 20
-148.300430945773200
 40
1.000000000000082
 50
60.000000000002721
 51
156.813854344180160
  0
LINE
  8
0
  6
CONTINUOUS
 62
3
 10
-425.198266902649720
 20
-147.434405541988670
 11
-422.579591446872200
 21
-148.946298521301860
  0
ARC
  8
0
  6
CONTINUOUS
 62
3
 10
-423.079591446872200
 20
-149.812323925086390
 40
0.999999999999701
 50
337.589542391853970
 51
60.000000000002721
  0
ARC
  8
0
  6
CONTINUOUS
 62
3
 10
-433.100043527148050
 20
-144.027013219137530
 40
1.000000000000082
 50
60.000000000002721
 51
155.284732954544520
  0
LINE
  8
0
  6
CONTINUOUS
 62
3
 10
-432.600043527148050
 20
-143.160987815353000
 11
-429.989919009042300
 21
-144.667943908499750
  0
ARC
  8
0
  6
CONTINUOUS
 62
3
 10
-430.489919009042300
 20
-145.533969312284060
 40
0.999999999999863
 50
335.739170477254390
 51
59.999999999996206
  0
ARC
  8
0
  6
CONTINUOUS
 62
3
 10
-407.979494385107050
 20
-158.530369028486230
 40
1.000000000000026
 50
351.618272422167310
 51
60.000000000002721
  0
LINE
  8
0
  6
CONTINUOUS
 62
3
 10
-410.223269960131350
 20
-156.080224057865620
 11
-407.479494385107050
 21
-157.664343624701700
  0
ARC
  8
0
  6
CONTINUOUS
 62
3
 10
-415.621893798090700
 20
-154.118027670145350
 40
1.000000000000076
 50
341.212271417652970
 51
60.000000000002721
  0
LINE
  8
0
  6
CONTINUOUS
 62
3
 10
-417.763128955147290
 20
-151.727084437441480
 11
-415.121893798090700
 21
-153.252002266360820
  0
ARC
  8
0
  6
CONTINUOUS
 62
3
 10
-418.263128955147290
 20
-152.593109841225780
 40
0.999999999999885
 50
59.999999999996206
 51
159.594068226861310
  0
ARC
  8
0
  6
CONTINUOUS
 62
3
 10
-410.723269960131350
 20
-156.946249461649930
 40
0.999999999999885
 50
59.999999999996206
 51
166.260204708307780
  0
ARC
  8
0
  6
CONTINUOUS
 62
3
 10
-398.580965114717860
 20
-159.915160548404510
 40
13.499999999999687
 50
166.260204708311360
 51
193.739795291688180
  0
ARC
  8
0
  6
CONTINUOUS
 62
3
 10
-398.580965114717860
 20
-159.915160548404510
 40
16.999999999999716
 50
161.212271417649560
 51
198.787728582350440
  0
ARC
  8
0
  6
CONTINUOUS
 62
3
 10
-398.580965114717860
 20
-159.915160548404510
 40
22.000000000000206
 50
159.594068226860770
 51
200.405931773139230
  0
ARC
  8
0
  6
CONTINUOUS
 62
3
 10
-398.580965114717860
 20
-159.915160548404510
 40
30.499999999999947
 50
156.813854344181150
 51
203.186145655818850
  0
ARC
  8
0
  6
CONTINUOUS
 62
3
 10
-398.580965114717860
 20
-159.915160548404510
 40
25.500000000000000
 50
157.589542391857980
 51
202.410457608142480
  0
ARC
  8
0
  6
CONTINUOUS
 62
3
 10
-398.580965114717860
 20
-159.915160548404510
 40
34.000000000000007
 50
155.739170477266780
 51
204.260829522733220
  0
ARC
  8
0
  6
CONTINUOUS
 62
3
 10
-398.580965114717860
 20
-159.915160548404510
 40
39.000000000000220
 50
155.284732954534800
 51
204.715267045465200
  0
LINE
  8
0
  6
CONTINUOUS
 62
3
 10
-396.080965114717860
 20
-189.206797580158200
 11
-396.080965114717860
 21
-186.183011621531820
  0
LINE
  8
0
  6
CONTINUOUS
 62
3
 10
-396.080965114717860
 20
-180.621439789253030
 11
-396.080965114717860
 21
-177.571604131414120
  0
LINE
  8
0
  6
CONTINUOUS
 62
3
 10
-396.080965114717860
 20
-171.915160548404510
 11
-396.080965114717860
 21
-168.746921414732360
  0
LINE
  8
0
  6
CONTINUOUS
 62
3
 10
-389.438660269304360
 20
-168.080224057865620
 11
-392.182435844328670
 21
-166.496104491029540
  0
LINE
  8
0
  6
CONTINUOUS
 62
3
 10
-381.898801274288870
 20
-172.433363678289990
 11
-384.540036431345020
 21
-170.908445849370420
  0
LINE
  8
0
  6
CONTINUOUS
 62
3
 10
-367.061886702287670
 20
-180.999460300378250
 11
-369.672011220393410
 21
-179.492504207231490
  0
LINE
  8
0
  6
CONTINUOUS
 62
3
 10
-396.080965114717860
 20
-197.753633033429540
 11
-396.080965114717860
 21
-194.739720847136250
  0
LINE
  8
0
  6
CONTINUOUS
 62
3
 10
-374.463663326785990
 20
-176.726042573742350
 11
-377.082338782563060
 21
-175.214149594429160
  0
ARC
  8
0
  6
CONTINUOUS
 62
3
 10
-398.580965114717860
 20
-159.915160548404510
 40
8.499999999999904
 50
291.618272422157700
 51
308.381727577842640
  0
ARC
  8
0
  6
CONTINUOUS
 62
3
 10
-398.580965114717860
 20
-159.915160548404510
 40
13.499999999999963
 50
286.260204708310820
 51
313.739795291687870
  0
ARC
  8
0
  6
CONTINUOUS
 62
3
 10
-398.580965114717860
 20
-159.915160548404510
 40
17.000000000000046
 50
281.212271417650020
 51
318.787728582350210
  0
ARC
  8
0
  6
CONTINUOUS
 62
3
 10
-398.580965114717860
 20
-159.915160548404510
 40
22.000000000000131
 50
279.594068226861170
 51
320.405931773139170
  0
ARC
  8
0
  6
CONTINUOUS
 62
3
 10
-398.580965114717860
 20
-159.915160548404510
 40
25.499999999999932
 50
277.589542391858170
 51
322.410457608142050
  0
ARC
  8
0
  6
CONTINUOUS
 62
3
 10
-398.580965114717860
 20
-159.915160548404510
 40
34.000000000000071
 50
275.739170477266950
 51
324.260829522733050
  0
ARC
  8
0
  6
CONTINUOUS
 62
3
 10
-398.580965114717860
 20
-159.915160548404510
 40
30.500000000000135
 50
276.813854344181040
 51
323.186145655818900
  0
ARC
  8
0
  6
CONTINUOUS
 62
3
 10
-398.580965114717860
 20
-159.915160548404510
 40
38.999999999999986
 50
275.284732954534600
 51
324.715267045465230
  0
ARC
  8
0
  6
CONTINUOUS
 62
3
 10
-392.682435844328670
 20
-167.362129894813850
 40
0.999999999999885
 50
59.999999999996206
 51
128.381727577840220
  0
ARC
  8
0
  6
CONTINUOUS
 62
3
 10
-395.080965114717860
 20
-168.746921414732360
 40
1.000000000000090
 50
111.618272422161970
 51
180.000000000000000
  0
ARC
  8
0
  6
CONTINUOUS
 62
3
 10
-395.080965114717860
 20
-171.915160548404510
 40
1.000000000000000
 50
180.000000000000000
 51
286.260204708297350
  0
ARC
  8
0
  6
CONTINUOUS
 62
3
 10
-389.938660269304360
 20
-168.946249461649930
 40
0.999999999999858
 50
313.739795291671330
 51
59.999999999996206
  0
ARC
  8
0
  6
CONTINUOUS
 62
3
 10
-385.040036431345020
 20
-171.774471253154960
 40
1.000000000000082
 50
60.000000000002721
 51
138.787728582338990
  0
ARC
  8
0
  6
CONTINUOUS
 62
3
 10
-382.398801274288870
 20
-173.299389082074300
 40
1.000000000000318
 50
320.405931773139570
 51
59.999999999996206
  0
ARC
  8
0
  6
CONTINUOUS
 62
3
 10
-395.080965114717860
 20
-177.571604131414120
 40
0.999999999999982
 50
101.212271417644000
 51
180.000000000000000
  0
ARC
  8
0
  6
CONTINUOUS
 62
3
 10
-395.080965114717860
 20
-180.621439789253030
 40
1.000000000000000
 50
180.000000000000000
 51
279.594068226875490
  0
ARC
  8
0
  6
CONTINUOUS
 62
3
 10
-395.080965114717860
 20
-189.206797580158200
 40
1.000000000000000
 50
180.000000000000000
 51
276.813854344179670
  0
ARC
  8
0
  6
CONTINUOUS
 62
3
 10
-377.582338782563060
 20
-176.080174998213690
 40
1.000000000000082
 50
60.000000000002721
 51
142.410457608148220
  0
ARC
  8
0
  6
CONTINUOUS
 62
3
 10
-374.963663326785990
 20
-177.592067977526650
 40
0.999999999999911
 50
323.186145655802870
 51
59.999999999996206
  0
ARC
  8
0
  6
CONTINUOUS
 62
3
 10
-395.080965114717860
 20
-186.183011621531820
 40
0.999999999999975
 50
97.589542391854238
 51
180.000000000000000
  0
ARC
  8
0
  6
CONTINUOUS
 62
3
 10
-395.080965114717860
 20
-197.753633033429540
 40
1.000000000000000
 50
180.000000000000000
 51
275.284732954535740
  0
ARC
  8
0
  6
CONTINUOUS
 62
3
 10
-395.080965114717860
 20
-194.739720847136250
 40
0.999999999999973
 50
95.739170477261709
 51
180.000000000000000
  0
ARC
  8
0
  6
CONTINUOUS
 62
3
 10
-370.172011220393410
 20
-180.358529611015800
 40
0.999999999999885
 50
59.999999999996206
 51
144.260829522736490
  0
ARC
  8
0
  6
CONTINUOUS
 62
3
 10
-367.561886702287670
 20
-181.865485704162780
 40
0.999999999999776
 50
324.715267045465680
 51
60.000000000002721
  0
CIRCLE
  8
0
  6
CONTINUOUS
 62
3
 10
-398.580965114717860
 20
-159.915160548404510
 40
5.000000000000000
  0
ARC
  8
0
  6
CONTINUOUS
 62
3
 10
-364.061886702287670
 20
-175.803307877671500
 40
0.999999999999885
 50
239.999999999996220
 51
335.284732954544490
  0
LINE
  8
0
  6
CONTINUOUS
 62
3
 10
-364.561886702287670
 20
-176.669333281455810
 11
-367.172011220393410
 21
-175.162377188309280
  0
ARC
  8
0
  6
CONTINUOUS
 62
3
 10
-398.580965114717860
 20
-159.915160548404510
 40
39.000000000000220
 50
335.284732954534830
 51
24.715267045465190
  0
ARC
  8
0
  6
CONTINUOUS
 62
3
 10
-398.580965114717860
 20
-159.915160548404510
 40
34.000000000000007
 50
335.739170477266780
 51
24.260829522733218
  0
ARC
  8
0
  6
CONTINUOUS
 62
3
 10
-398.580965114717860
 20
-159.915160548404510
 40
25.500000000000085
 50
337.589542391857490
 51
22.410457608142021
  0
ARC
  8
0
  6
CONTINUOUS
 62
3
 10
-398.580965114717860
 20
-159.915160548404510
 40
30.499999999999947
 50
336.813854344181150
 51
23.186145655818844
  0
ARC
  8
0
  6
CONTINUOUS
 62
3
 10
-371.463663326785990
 20
-171.529890151035830
 40
1.000000000000082
 50
240.000000000002730
 51
336.813854344180130
  0
LINE
  8
0
  6
CONTINUOUS
 62
3
 10
-371.963663326785990
 20
-172.395915554820360
 11
-374.582338782563510
 21
-170.884022575507400
  0
ARC
  8
0
  6
CONTINUOUS
 62
3
 10
-398.580965114717860
 20
-159.915160548404510
 40
22.000000000000206
 50
339.594068226860770
 51
20.405931773139226
  0
ARC
  8
0
  6
CONTINUOUS
 62
3
 10
-366.672011220393410
 20
-174.296351784524750
 40
0.999999999999769
 50
155.739170477266270
 51
240.000000000002730
  0
ARC
  8
0
  6
CONTINUOUS
 62
3
 10
-374.082338782563510
 20
-170.017997171722870
 40
0.999999999999701
 50
157.589542391853940
 51
240.000000000002730
  0
ARC
  8
0
  6
CONTINUOUS
 62
3
 10
-378.898801274288420
 20
-167.237211255583250
 40
0.999999999999885
 50
239.999999999996220
 51
339.594068226861340
  0
ARC
  8
0
  6
CONTINUOUS
 62
3
 10
-398.580965114717860
 20
-159.915160548404510
 40
17.000000000000146
 50
341.212271417650070
 51
18.787728582350418
  0
LINE
  8
0
  6
CONTINUOUS
 62
3
 10
-379.398801274288420
 20
-168.103236659367550
 11
-382.040036431345020
 21
-166.578318830447980
  0
ARC
  8
0
  6
CONTINUOUS
 62
3
 10
-381.540036431345020
 20
-165.712293426663680
 40
0.999999999999646
 50
161.212271417644620
 51
239.999999999996220
  0
ARC
  8
0
  6
CONTINUOUS
 62
3
 10
-398.580965114717860
 20
-159.915160548404510
 40
13.500000000000130
 50
346.260204708311850
 51
13.739795291688171
  0
ARC
  8
0
  6
CONTINUOUS
 62
3
 10
-386.438660269304360
 20
-162.884071635159100
 40
0.999999999999885
 50
239.999999999996220
 51
346.260204708314010
  0
LINE
  8
0
  6
CONTINUOUS
 62
3
 10
-386.938660269304360
 20
-163.750097038943410
 11
-389.682435844328670
 21
-162.165977472107330
  0
ARC
  8
0
  6
CONTINUOUS
 62
3
 10
-386.438660269304360
 20
-156.946249461649930
 40
0.999999999999879
 50
13.739795291686027
 51
120.000000000003780
  0
ARC
  8
0
  6
CONTINUOUS
 62
3
 10
-398.580965114717860
 20
-159.915160548404510
 40
8.499999999999972
 50
351.618272422157820
 51
8.381727577842204
  0
ARC
  8
0
  6
CONTINUOUS
 62
3
 10
-389.182435844328670
 20
-161.299952068323020
 40
1.000000000000059
 50
171.618272422154460
 51
239.999999999996220
  0
ARC
  8
0
  6
CONTINUOUS
 62
3
 10
-378.898801274288420
 20
-152.593109841225780
 40
1.000000000000094
 50
20.405931773138686
 51
120.000000000003780
  0
LINE
  8
0
  6
CONTINUOUS
 62
3
 10
-379.398801274288420
 20
-151.727084437441480
 11
-382.040036431345020
 21
-153.252002266360820
  0
ARC
  8
0
  6
CONTINUOUS
 62
3
 10
-381.540036431345020
 20
-154.118027670145350
 40
1.000000000000082
 50
119.999999999997270
 51
198.787728582347000
  0
LINE
  8
0
  6
CONTINUOUS
 62
3
 10
-386.938660269304360
 20
-156.080224057865620
 11
-389.682435844328670
 21
-157.664343624701700
  0
ARC
  8
0
  6
CONTINUOUS
 62
3
 10
-389.182435844328670
 20
-158.530369028486230
 40
1.000000000000082
 50
119.999999999997270
 51
188.381727577832660
  0
ARC
  8
0
  6
CONTINUOUS
 62
3
 10
-366.672011220393410
 20
-145.533969312284060
 40
0.999999999999885
 50
120.000000000003780
 51
204.260829522745610
  0
LINE
  8
0
  6
CONTINUOUS
 62
3
 10
-364.561886702287670
 20
-143.160987815353000
 11
-367.172011220393410
 21
-144.667943908499750
  0
ARC
  8
0
  6
CONTINUOUS
 62
3
 10
-364.061886702287670
 20
-144.027013219137530
 40
1.000000000000248
 50
24.715267045455477
 51
119.999999999997270
  0
ARC
  8
0
  6
CONTINUOUS
 62
3
 10
-374.082338782563510
 20
-149.812323925086390
 40
1.000000000000082
 50
119.999999999997270
 51
202.410457608146060
  0
LINE
  8
0
  6
CONTINUOUS
 62
3
 10
-371.963663326785990
 20
-147.434405541988670
 11
-374.582338782563510
 21
-148.946298521301860
  0
ARC
  8
0
  6
CONTINUOUS
 62
3
 10
-371.463663326785990
 20
-148.300430945773200
 40
0.999999999999730
 50
23.186145655819850
 51
119.999999999997270
  0
ARC
  8
0
  6
CONTINUOUS
 62
3
 10
-398.580965114717860
 20
-159.915160548404510
 40
38.999999999999865
 50
35.284732954534789
 51
84.715267045465410
  0
ARC
  8
0
  6
CONTINUOUS
 62
3
 10
-398.580965114717860
 20
-159.915160548404510
 40
33.999999999999829
 50
35.739170477266640
 51
84.260829522733076
  0
ARC
  8
0
  6
CONTINUOUS
 62
3
 10
-398.580965114717860
 20
-159.915160548404510
 40
25.499999999999890
 50
37.589542391857961
 51
82.410457608141883
  0
ARC
  8
0
  6
CONTINUOUS
 62
3
 10
-398.580965114717860
 20
-159.915160548404510
 40
30.499999999999964
 50
36.813854344181067
 51
83.186145655818962
  0
ARC
  8
0
  6
CONTINUOUS
 62
3
 10
-398.580965114717860
 20
-159.915160548404510
 40
22.000000000000025
 50
39.594068226860820
 51
80.405931773138789
  0
ARC
  8
0
  6
CONTINUOUS
 62
3
 10
-398.580965114717860
 20
-159.915160548404510
 40
17.000000000000114
 50
41.212271417649760
 51
78.787728582349985
  0
ARC
  8
0
  6
CONTINUOUS
 62
3
 10
-398.580965114717860
 20
-159.915160548404510
 40
13.499999999999927
 50
46.260204708312145
 51
73.739795291689134
  0
ARC
  8
0
  6
CONTINUOUS
 62
3
 10
-395.080965114717860
 20
-147.915160548404510
 40
0.999999999999964
 50
73.739795291702634
 51
180.000000000000000
  0
LINE
  8
0
  6
CONTINUOUS
 62
3
 10
-396.080965114717860
 20
-147.915160548404510
 11
-396.080965114717860
 21
-151.083399682076670
  0
ARC
  8
0
  6
CONTINUOUS
 62
3
 10
-389.938660269304360
 20
-150.884071635159100
 40
0.999999999999885
 50
300.000000000003810
 51
46.260204708328693
  0
ARC
  8
0
  6
CONTINUOUS
 62
3
 10
-398.580965114717860
 20
-159.915160548404510
 40
8.500000000000128
 50
51.618272422158320
 51
68.381727577842284
  0
ARC
  8
0
  6
CONTINUOUS
 62
3
 10
-395.080965114717860
 20
-151.083399682076670
 40
1.000000000000000
 50
180.000000000000000
 51
248.381727577838030
  0
ARC
  8
0
  6
CONTINUOUS
 62
3
 10
-382.398801274288870
 20
-146.530932014734500
 40
1.000000000000082
 50
299.999999999997270
 51
39.594068226850403
  0
LINE
  8
0
  6
CONTINUOUS
 62
3
 10
-381.898801274288870
 20
-147.396957418519040
 11
-384.540036431345020
 21
-148.921875247438610
  0
ARC
  8
0
  6
CONTINUOUS
 62
3
 10
-385.040036431345020
 20
-148.055849843654300
 40
0.999999999999673
 50
221.212271417651210
 51
300.000000000003810
  0
LINE
  8
0
  6
CONTINUOUS
 62
3
 10
-389.438660269304360
 20
-151.750097038943410
 11
-392.182435844328670
 21
-153.334216605779490
  0
ARC
  8
0
  6
CONTINUOUS
 62
3
 10
-392.682435844328670
 20
-152.468191201994960
 40
0.999999999999961
 50
231.618272422159780
 51
299.999999999997270
  0
ARC
  8
0
  6
CONTINUOUS
 62
3
 10
-370.172011220393410
 20
-139.471791485793230
 40
0.999999999999940
 50
215.739170477274090
 51
300.000000000003810
  0
LINE
  8
0
  6
CONTINUOUS
 62
3
 10
-367.061886702287670
 20
-138.830860796430780
 11
-369.672011220393410
 21
-140.337816889577540
  0
ARC
  8
0
  6
CONTINUOUS
 62
3
 10
-367.561886702287670
 20
-137.964835392646480
 40
0.999999999999885
 50
300.000000000003810
 51
35.284732954544943
  0
ARC
  8
0
  6
CONTINUOUS
 62
3
 10
-377.582338782563510
 20
-143.750146098595340
 40
0.999999999999834
 50
217.589542391867670
 51
299.999999999997270
  0
LINE
  8
0
  6
CONTINUOUS
 62
3
 10
-374.463663326785990
 20
-143.104278523066680
 11
-377.082338782563510
 21
-144.616171502379870
  0
ARC
  8
0
  6
CONTINUOUS
 62
3
 10
-374.963663326785990
 20
-142.238253119282150
 40
1.000000000000082
 50
299.999999999997270
 51
36.813854344186687
  0
ARC
  8
0
  6
CONTINUOUS
 62
3
 10
-395.080965114717860
 20
-122.076688063379490
 40
1.000000000000042
 50
84.715267045464302
 51
180.000000000000000
  0
LINE
  8
0
  6
CONTINUOUS
 62
3
 10
-396.080965114717860
 20
-122.076688063379490
 11
-396.080965114717860
 21
-125.090600249672770
  0
ARC
  8
0
  6
CONTINUOUS
 62
3
 10
-395.080965114717860
 20
-125.090600249672770
 40
1.000000000000000
 50
180.000000000000000
 51
264.260829522738280
  0
ARC
  8
0
  6
CONTINUOUS
 62
3
 10
-395.080965114717860
 20
-130.623523516650830
 40
1.000000000000077
 50
83.186145655820312
 51
180.000000000000000
  0
LINE
  8
0
  6
CONTINUOUS
 62
3
 10
-396.080965114717860
 20
-130.623523516650830
 11
-396.080965114717860
 21
-133.647309475276980
  0
ARC
  8
0
  6
CONTINUOUS
 62
3
 10
-395.080965114717860
 20
-133.647309475277210
 40
1.000000000000000
 50
179.999999999986980
 51
262.410457608144040
  0
ARC
  8
0
  6
CONTINUOUS
 62
3
 10
-395.080965114717860
 20
-139.208881307556000
 40
1.000000000000268
 50
80.405931773124522
 51
180.000000000000000
  0
LINE
  8
0
  6
CONTINUOUS
 62
3
 10
-396.080965114717860
 20
-139.208881307556000
 11
-396.080965114717860
 21
-142.258716965394910
  0
ARC
  8
0
  6
CONTINUOUS
 62
3
 10
-395.080965114717860
 20
-142.258716965394910
 40
1.000000000000000
 50
180.000000000000000
 51
258.787728582356010
  0
LINE
  8
0
  6
CONTINUOUS
 62
3
 10
-450.137432045307830
 20
-117.285004224946640
 11
-442.678736870636840
 21
-109.826309050274970
  0
LINE
  8
0
  6
CONTINUOUS
 62
3
 10
-450.137432045307830
 20
-202.545316871862380
 11
-442.678736870636840
 21
-210.004012046534060
  0
LINE
  8
0
  6
CONTINUOUS
 62
3
 10
-347.024498184127880
 20
-202.545316871862380
 11
-354.483193358798870
 21
-210.004012046534060
  0
LINE
  8
0
  6
CONTINUOUS
 62
3
 10
-347.024498184127880
 20
-117.285004224946640
 11
-354.483193358798870
 21
-109.826309050274970
  0
LINE
  8
0
  6
CONTINUOUS
 62
3
 10
-341.080965114717860
 20
-191.415160548404510
 11
-341.080965114717860
 21
-189.903146402834750
  0
LINE
  8
0
  6
CONTINUOUS
 62
3
 10
-341.080965114717860
 20
-129.922661486142370
 11
-341.080965114717860
 21
-128.415160548404510
  0
LINE
  8
0
  6
CONTINUOUS
 62
3
 10
-341.279516054816670
 20
-128.415160548404510
 11
-341.080965114717860
 21
-128.415160548404510
  0
LINE
  8
0
  6
CONTINUOUS
 62
3
 10
-341.279516054816670
 20
-191.415160548404510
 11
-341.080965114717860
 21
-191.415160548404510
  0
ARC
  8
0
  6
CONTINUOUS
 62
3
 10
-435.571032352864220
 20
-131.851403917388890
 40
20.600000000000069
 50
135.000000000002670
 51
174.247717268463500
  0
ARC
  8
0
  6
CONTINUOUS
 62
3
 10
-435.571032352864220
 20
-187.978917179420140
 40
20.599999999999916
 50
185.752282731536500
 51
224.999999999997330
  0
ARC
  8
0
  6
CONTINUOUS
 62
3
 10
-361.590897876571490
 20
-187.978917179420140
 40
20.600000000000069
 50
315.000000000002670
 51
354.247717268463480
  0
ARC
  8
0
  6
CONTINUOUS
 62
3
 10
-361.590897876571490
 20
-131.851403917388890
 40
20.599999999999916
 50
5.752282731536487
 51
44.999999999997321
  0
ARC
  8
0
  6
CONTINUOUS
 62
4
 10
-361.590897876571490
 20
-131.851403917388890
 40
10.797000000000011
 50
5.752282731536912
 51
44.999999999998295
  0
LINE
  8
0
  6
DASHDOT
 62
4
 10
-554.980329818153220
 20
-159.915160548404510
 11
-243.802305852007520
 21
-159.915160548404510
  0
LINE
  8
0
  6
DASHDOT
 62
4
 10
-371.034229475916620
 20
-158.915160548403780
 11
-426.203556617917460
 21
-158.915160548403780
  0
LINE
  8
0
  6
DASHDOT
 62
4
 10
-398.580965114717860
 20
-316.243212786693110
 11
-398.580965114717860
 21
-4.304701666952383
  0
ARC
  8
0
  6
DASHDOT
 62
4
 10
-398.580965114718310
 20
-158.915160548403800
 40
169.999999999999940
 50
219.065659645557670
 51
230.833214242354020
  0
LINE
  8
0
  6
DASHDOT
 62
4
 10
-506.222236504505870
 20
-266.556431938208790
 11
-531.905390284837720
 21
-292.239585718544840
  0
LINE
  8
0
  6
DASHDOT
 62
4
 10
-507.090513811878280
 20
-50.405611851260090
 11
-532.617661275744920
 21
-24.878464387397429
  0
ARC
  8
0
  6
DASHDOT
 62
4
 10
-398.580965114717860
 20
-158.915160548403800
 40
169.999999999999910
 50
129.388518142880000
 51
140.490498547150790
  0
ARC
  8
0
  6
DASHDOT
 62
4
 10
-398.580965114717860
 20
-158.915160548403800
 40
169.999999999999970
 50
39.257794099575825
 51
50.701157425923185
  0
LINE
  8
0
  6
DASHDOT
 62
4
 10
-291.416373590923170
 20
-51.750569024625634
 11
-264.544268953690790
 21
-24.878464387397429
  0
LINE
  8
0
  6
DASHDOT
 62
4
 10
-291.117499522629150
 20
-266.378626140475940
 11
-265.771178616535110
 21
-291.724947046566060
  0
ARC
  8
0
  6
DASHDOT
 62
4
 10
-398.580965114718310
 20
-158.915160548404260
 40
169.999999999999940
 50
309.347118343174370
 51
320.891960247494410
  0
TEXT
  8
0
  6
CONTINUOUS
 62
3
 10
-456.565307617187500
 20
195.247589111328120
 40
11.860991477966309
  1
Ｓ１４９
 50
0.000002504478167
 41
0.984848606673131
  7
STANDARD1
  0
TEXT
  8
0
  6
CONTINUOUS
 62
3
 10
-456.565307617187500
 20
176.198120117187500
 40
11.860991477966309
  1
三菱ギヤードモートル
 50
0.000002504478167
 41
0.984848606673131
  7
STANDARD1
  0
TEXT
  8
0
  6
CONTINUOUS
 62
3
 10
-456.565307617187500
 20
157.148651123046880
 40
11.860991477966309
  1
ＧＭ－ＳＦＳ
 50
0.000002504478167
 41
0.984848606673131
  7
STANDARD1
  0
TEXT
  8
0
  6
CONTINUOUS
 62
3
 10
-456.565307617187500
 20
138.099182128906250
 40
11.860991477966309
  1
０．２ｋＷ
 50
0.000002504478167
 41
0.984848606673131
  7
STANDARD1
  0
TEXT
  8
0
  6
CONTINUOUS
 62
3
 10
-456.565307617187500
 20
119.049705505371090
 40
11.860991477966309
  1
１／１２００
 50
0.000002504478167
 41
0.984848606673131
  7
STANDARD1
  0
TEXT
  8
0
  6
CONTINUOUS
 62
3
 10
-456.565307617187500
 20
100.000236511230460
 40
11.860991477966309
  1
ＳＣＡＬＥ１／１
 50
0.000002504478167
 41
0.984848606673131
  7
STANDARD1
  0
ARC
  8
0
  6
CONTINUOUS
 62
3
 10
397.092537497114340
 20
-233.687761129222960
 40
44.000000000000121
 50
111.461978362654540
 51
171.603097720444280
  0
ARC
  8
0
  6
CONTINUOUS
 62
3
 10
375.116949872930260
 20
-177.320008392646510
 40
10.000000000000039
 50
291.298869871463920
 51
16.986140903216128
  0
ARC
  8
0
  6
CONTINUOUS
 62
3
 10
377.334816703138360
 20
-183.432090115622030
 40
9.999999999999874
 50
291.461978362654920
 51
22.902088473504499
  0
ARC
  8
0
  6
CONTINUOUS
 62
3
 10
397.092537497114340
 20
-233.687761129222960
 40
50.500000000000078
 50
111.298869871463080
 51
165.196482760921950
  0
ARC
  8
0
  6
CONTINUOUS
 62
3
 10
379.718467698528910
 20
-152.665160548404400
 40
3.000000000000000
 50
270.000000000000000
 51
353.592032960371110
  0
ARC
  8
0
  6
CONTINUOUS
 62
3
 10
379.718467698528910
 20
-165.165160548404400
 40
3.000000000000179
 50
6.407967039624588
 51
90.000000000000000
  0
LINE
  8
0
  6
CONTINUOUS
 62
3
 10
315.030810439521700
 20
-155.665160548404400
 11
379.718467698528910
 21
-155.665160548404400
  0
ARC
  8
0
  6
CONTINUOUS
 62
3
 10
435.368616219750040
 20
-158.915160548404400
 40
134.999999999999740
 50
146.940543960613410
 51
176.676642326013510
  0
ARC
  8
0
  6
DASHDOT
 62
4
 10
435.368616219750040
 20
-158.915160548404400
 40
169.999999999999970
 50
39.257794099575825
 51
50.701157425923185
  0
LINE
  8
0
  6
DASHDOT
 62
4
 10
326.859067522589610
 20
-50.405611851260687
 11
301.331920058722970
 21
-24.878464387398026
  0
LINE
  8
0
  6
DASHDOT
 62
4
 10
542.533207743544720
 20
-51.750569024626230
 11
569.405312380777100
 21
-24.878464387398026
  0
ARC
  8
0
  6
CONTINUOUS
 62
3
 10
435.368616219750040
 20
-158.915160548404400
 40
134.999999999999830
 50
183.323357673986610
 51
213.059456039395680
  0
ARC
  8
0
  6
CONTINUOUS
 62
3
 10
435.368616219750040
 20
-158.915160548404400
 40
135.000000000000030
 50
3.323357673986484
 51
33.059456039395677
  0
ARC
  8
0
  6
CONTINUOUS
 62
3
 10
573.368616219750040
 20
-155.915160548404400
 40
2.000000000000000
 50
0.000000000000000
 51
90.000000000000000
  0
ARC
  8
0
  6
CONTINUOUS
 62
3
 10
573.136537014105900
 20
-150.915160548404400
 40
3.000000000000096
 50
183.323357673986180
 51
270.000000000000000
  0
ARC
  8
0
  6
CONTINUOUS
 62
3
 10
573.368616219750040
 20
-161.915160548404630
 40
2.000000000000000
 50
270.000000000000000
 51
0.000000000000000
  0
ARC
  8
0
  6
CONTINUOUS
 62
3
 10
573.136537014105900
 20
-166.915160548404630
 40
3.000000000000000
 50
90.000000000000000
 51
176.676642326013820
  0
ARC
  8
0
  6
CONTINUOUS
 62
3
 10
297.368616219750040
 20
-161.915160548404400
 40
2.000000000000000
 50
180.000000000000000
 51
270.000000000000000
  0
ARC
  8
0
  6
CONTINUOUS
 62
3
 10
297.600695425393950
 20
-166.915160548404630
 40
3.000000000000096
 50
3.323357673986185
 51
90.000000000000000
  0
ARC
  8
0
  6
CONTINUOUS
 62
3
 10
297.600695425393950
 20
-150.915160548404400
 40
3.000000000000000
 50
270.000000000000000
 51
356.676642326013850
  0
ARC
  8
0
  6
CONTINUOUS
 62
3
 10
297.368616219750040
 20
-155.915160548404400
 40
2.000000000000000
 50
90.000000000000000
 51
180.000000000000000
  0
ARC
  8
0
  6
CONTINUOUS
 62
3
 10
338.600671306425740
 20
-218.229702081251390
 40
10.000000000000037
 50
211.506485838553940
 51
345.196482760921980
  0
ARC
  8
0
  6
CONTINUOUS
 62
3
 10
403.368616219750040
 20
-160.150734818013920
 40
82.197605165243203
 50
94.422377585978424
 51
172.942004709553000
  0
ARC
  8
0
  6
CONTINUOUS
 62
3
 10
435.368616219750040
 20
-573.915160548404400
 40
497.197605165242980
 50
90.960411656887317
 51
94.422377585978097
  0
ARC
  8
0
  6
CONTINUOUS
 62
3
 10
435.368616219750040
 20
-158.915160548404400
 40
135.000000000000260
 50
326.940543960613130
 51
356.676642326013450
  0
ARC
  8
0
  6
CONTINUOUS
 62
3
 10
556.893832894034860
 20
-79.816350745296859
 40
10.000000000000082
 50
135.000000000005510
 51
213.059456039395710
  0
ARC
  8
0
  6
CONTINUOUS
 62
3
 10
435.368616219749810
 20
-573.915160548404400
 40
497.197605165242980
 50
85.577622414021931
 51
89.039588343112683
  0
ARC
  8
0
  6
CONTINUOUS
 62
3
 10
443.618616219750040
 20
-81.786701677754991
 40
4.999999999999934
 50
89.039588343113039
 51
180.000000000000000
  0
ARC
  8
0
  6
DASHDOT
 62
4
 10
435.368616219750040
 20
-158.915160548404400
 40
169.999999999999910
 50
129.388518142880000
 51
140.490498547150790
  0
ARC
  8
0
  6
CONTINUOUS
 62
3
 10
313.843399545452480
 20
-79.816350745315958
 40
10.000000000000053
 50
326.940543960613700
 51
45.000000000001855
  0
ARC
  8
0
  6
CONTINUOUS
 62
3
 10
343.671405101005350
 20
-225.802165811342770
 40
10.000000000000107
 50
216.108259096316600
 51
351.603097720444510
  0
ARC
  8
0
  6
CONTINUOUS
 62
3
 10
543.981240009987690
 20
-150.665160548404630
 40
5.000000000000000
 50
270.000000000000000
 51
7.057995290449153
  0
ARC
  8
0
  6
CONTINUOUS
 62
3
 10
544.556934435451690
 20
-204.960368390552280
 40
5.000000000000118
 50
337.134627072876410
 51
0.000000000000000
  0
ARC
  8
0
  6
CONTINUOUS
 62
3
 10
556.893832894047140
 20
-238.013970351493300
 40
10.000000000000053
 50
146.940543960613670
 51
225.000000000003690
  0
CIRCLE
  8
0
  6
CONTINUOUS
 62
3
 10
435.368616219750040
 20
-158.915160548404400
 40
123.500000000000000
  0
ARC
  8
0
  6
CONTINUOUS
 62
3
 10
313.843399545464760
 20
-238.013970351511940
 40
10.000000000000401
 50
315.000000000003640
 51
33.059456039395712
  0
ARC
  8
0
  6
CONTINUOUS
 62
3
 10
514.399097153804630
 20
-240.379466126566060
 40
10.000000000000245
 50
177.185211996777720
 51
314.131204225173580
  0
ARC
  8
0
  6
CONTINUOUS
 62
3
 10
507.021582789641800
 20
-246.938466449364570
 40
10.000000000000044
 50
168.145311946518550
 51
309.146370585137730
  0
ARC
  8
0
  6
CONTINUOUS
 62
3
 10
544.556934435451690
 20
-167.165160548404630
 40
5.000000000000000
 50
0.000000000000000
 51
90.000000000000000
  0
ARC
  8
0
  6
CONTINUOUS
 62
3
 10
427.118616219750040
 20
-81.786701677754991
 40
5.000000000000000
 50
0.000000000000000
 51
90.960411656889562
  0
ARC
  8
0
  6
CONTINUOUS
 62
3
 10
555.706421999978150
 20
-152.665160548404400
 40
3.000000000000000
 50
270.000000000000000
 51
2.973106860036494
  0
ARC
  8
0
  6
CONTINUOUS
 62
3
 10
555.706421999978150
 20
-165.165160548404400
 40
2.999999999999917
 50
357.026893139963530
 51
90.000000000000000
  0
ARC
  8
0
  6
CONTINUOUS
 62
3
 10
326.180298004048150
 20
-204.960368390552280
 40
5.000000000000227
 50
180.000000000000000
 51
202.865372927123560
  0
ARC
  8
0
  6
CONTINUOUS
 62
3
 10
441.618616219750040
 20
-103.265012027183500
 40
3.000000000000000
 50
180.000000000000000
 51
263.592032960370600
  0
ARC
  8
0
  6
CONTINUOUS
 62
3
 10
326.180298004047930
 20
-167.165160548404400
 40
5.000000000000000
 50
90.000000000000000
 51
180.000000000000000
  0
ARC
  8
0
  6
CONTINUOUS
 62
3
 10
315.030810439521700
 20
-165.165160548404400
 40
3.000000000000000
 50
90.000000000000000
 51
182.973106860036270
  0
ARC
  8
0
  6
CONTINUOUS
 62
3
 10
429.118616219750040
 20
-103.265012027183500
 40
2.999999999999952
 50
276.407967039625080
 51
0.000000000000000
  0
ARC
  8
0
  6
CONTINUOUS
 62
3
 10
315.030810439521700
 20
-152.665160548404400
 40
3.000000000000144
 50
177.026893139963730
 51
270.000000000000000
  0
ARC
  8
0
  6
CONTINUOUS
 62
3
 10
326.755992429512390
 20
-150.665160548404400
 40
5.000000000000173
 50
172.942004709554080
 51
270.000000000000000
  0
LINE
  8
0
  6
CONTINUOUS
 62
3
 10
573.368616219750040
 20
-153.915160548404400
 11
573.136537014105900
 21
-153.915160548404400
  0
LINE
  8
0
  6
CONTINUOUS
 62
3
 10
573.368616219750040
 20
-163.915160548404630
 11
573.136537014105900
 21
-163.915160548404630
  0
LINE
  8
0
  6
CONTINUOUS
 62
3
 10
297.368616219750040
 20
-163.915160548404400
 11
297.600695425393950
 21
-163.915160548404400
  0
LINE
  8
0
  6
CONTINUOUS
 62
3
 10
297.368616219750040
 20
-153.915160548404400
 11
297.600695425393950
 21
-153.915160548404400
  0
LINE
  8
0
  6
CONTINUOUS
 62
3
 10
321.180298004047930
 20
-167.165160548404400
 11
321.180298004047930
 21
-204.960368390552280
  0
LINE
  8
0
  6
CONTINUOUS
 62
3
 10
549.822765082168640
 20
-72.745282933432009
 11
573.904150125682920
 21
-48.663897889914097
  0
LINE
  8
0
  6
CONTINUOUS
 62
3
 10
320.914467357317790
 20
-72.745282933450198
 11
296.833082313817390
 21
-48.663897889953205
  0
LINE
  8
0
  6
CONTINUOUS
 62
3
 10
549.822765082182290
 20
-245.085038163359060
 11
573.904150125682240
 21
-269.166423206855820
  0
LINE
  8
0
  6
CONTINUOUS
 62
3
 10
575.368616219750040
 20
-288.915160548404400
 11
575.368616219750040
 21
-28.915160548404401
  0
LINE
  8
0
  6
CONTINUOUS
 62
3
 10
295.368616219750040
 20
-288.915160548404400
 11
295.368616219750040
 21
-28.915160548404401
  0
LINE
  8
0
  6
CONTINUOUS
 62
3
 10
320.914467357330980
 20
-245.085038163377250
 11
296.833082313816700
 21
-269.166423206894930
  0
LINE
  8
0
  6
DASHDOT
 62
4
 10
435.368616219750040
 20
-318.411859849932170
 11
435.368616219750040
 21
-1.797960343321847
  0
LINE
  8
0
  6
CONTINUOUS
 62
3
 10
549.556934435451690
 20
-167.165160548404630
 11
549.556934435451690
 21
-204.960368390552280
  0
LINE
  8
0
  6
CONTINUOUS
 62
3
 10
432.118616219750040
 20
-38.577354768176065
 11
432.118616219750040
 21
-103.265012027183500
  0
LINE
  8
0
  6
CONTINUOUS
 62
3
 10
438.618616219750040
 20
-38.577354768176065
 11
438.618616219750040
 21
-103.265012027183500
  0
ARC
  8
0
  6
CONTINUOUS
 62
3
 10
435.368616219750040
 20
-158.915160548404400
 40
20.000000000000014
 50
197.457603123722070
 51
162.542396876277930
  0
LINE
  8
0
  6
CONTINUOUS
 62
3
 10
420.368616219750040
 20
-152.915160548404400
 11
420.368616219750040
 21
-164.915160548404400
  0
ARC
  8
0
  6
CONTINUOUS
 62
3
 10
435.368616219750040
 20
-158.915160548404400
 40
31.000000000000256
 50
70.008590721901967
 51
180.000000000000000
  0
LINE
  8
0
  6
CONTINUOUS
 62
3
 10
412.368616219750040
 20
-152.915160548404400
 11
412.368616219750040
 21
-164.915160548404400
  0
CIRCLE
  8
0
  6
CONTINUOUS
 62
4
 10
435.368616219750040
 20
-158.915160548404400
 40
4.000000000000000
  0
CIRCLE
  8
0
  6
CONTINUOUS
 62
3
 10
435.368616219750040
 20
-158.915160548404400
 40
3.324999999999989
  0
LINE
  8
0
  6
DASHDOT
 62
4
 10
473.579908714397790
 20
-159.915160548404400
 11
396.691678334763310
 21
-159.915160548404400
  0
CIRCLE
  8
0
  6
CONTINUOUS
 62
3
 10
435.368616219750040
 20
-158.915160548404400
 40
130.000000000000000
  0
CIRCLE
  8
0
  6
CONTINUOUS
 62
3
 10
435.368616219750040
 20
-158.915160548404400
 40
31.000000000000057
  0
LINE
  8
0
  6
CONTINUOUS
 62
3
 10
555.706421999978150
 20
-162.165160548404400
 11
491.018764740970940
 21
-162.165160548404400
  0
LINE
  8
0
  6
CONTINUOUS
 62
3
 10
555.706421999978150
 20
-155.665160548404400
 11
491.018764740970940
 21
-155.665160548404400
  0
ARC
  8
0
  6
CONTINUOUS
 62
3
 10
491.018764740970940
 20
-152.665160548404400
 40
2.999999999999978
 50
186.407967039629400
 51
270.000000000000000
  0
ARC
  8
0
  6
CONTINUOUS
 62
3
 10
491.018764740970940
 20
-165.165160548404630
 40
3.000000000000227
 50
90.000000000000000
 51
173.592032960374920
  0
ARC
  8
0
  6
CONTINUOUS
 62
3
 10
484.136743979324820
 20
-198.798383043132160
 40
10.000000000000023
 50
140.723243944674460
 51
242.705659254349090
  0
ARC
  8
0
  6
CONTINUOUS
 62
3
 10
463.960025606811090
 20
-237.899534378051610
 40
40.499999999999986
 50
357.185211996778430
 51
61.540294027493751
  0
ARC
  8
0
  6
CONTINUOUS
 62
3
 10
463.960025606811090
 20
-237.899534378051610
 40
34.000000000000107
 50
348.145311946518920
 51
62.705659254348859
  0
ARC
  8
0
  6
CONTINUOUS
 62
3
 10
488.025326026026730
 20
-193.502334964880450
 40
9.999999999999941
 50
146.701382572444940
 51
241.540294027493160
  0
ARC
  8
0
  6
CONTINUOUS
 62
3
 10
467.368616219749810
 20
-160.150734818013920
 40
82.197605165243033
 50
7.057995290447003
 51
85.577622414021747
  0
ARC
  8
0
  6
CONTINUOUS
 62
3
 10
435.368616219750040
 20
-158.915160548404400
 40
31.000000000000000
 50
180.000000000000000
 51
0.000000000000000
  0
ARC
  8
0
  6
CONTINUOUS
 62
3
 10
435.368616219750040
 20
-158.915160548404400
 40
31.000000000000000
 50
0.000000000000000
 51
180.000000000000000
  0
ARC
  8
0
  6
CONTINUOUS
 62
3
 10
435.368616219750040
 20
-158.915160548404400
 40
41.000000000000000
 50
0.000000000000000
 51
180.000000000000000
  0
ARC
  8
0
  6
CONTINUOUS
 62
3
 10
435.368616219750040
 20
-158.915160548404400
 40
41.000000000000000
 50
180.000000000000000
 51
0.000000000000000
  0
LINE
  8
0
  6
DASHDOT
 62
4
 10
280.671810551682030
 20
-158.915160548404400
 11
592.850802540755920
 21
-158.915160548404400
  0
CIRCLE
  8
0
  6
CONTINUOUS
 62
3
 10
435.368616219750040
 20
-158.915160548404400
 40
53.000013664587186
  0
LINE
  8
0
  6
CONTINUOUS
 62
3
 10
315.030810439521700
 20
-162.165160548404400
 11
379.718467698528910
 21
-162.165160548404400
  0
ARC
  8
0
  6
DASHED
 62
3
 10
512.668616219749990
 20
-133.957660548404420
 40
18.799999999999983
 50
100.598785266066050
 51
180.000000000000000
  0
ARC
  8
0
  6
DASHED
 62
3
 10
508.842861585663060
 20
-113.512524171266700
 40
1.999999999999958
 50
280.598785266065990
 51
2.862405226112724
  0
ARC
  8
0
  6
DASHED
 62
3
 10
514.435874683378870
 20
-113.232873516380890
 40
1.999999999999927
 50
182.862405226112710
 51
265.126025186159040
  0
LINE
  8
0
  6
DASHED
 62
3
 10
511.170487711433220
 20
-103.995090382069170
 11
516.264124639710190
 21
-205.867828947609270
  0
ARC
  8
0
  6
DASHED
 62
3
 10
512.668616219749990
 20
-133.957660548404420
 40
18.799999999999933
 50
35.808626813495749
 51
85.126025186157264
  0
LINE
  8
0
  6
DASHED
 62
3
 10
511.969489582535520
 20
-103.955140288514030
 11
510.371485840330930
 21
-104.035040475624210
  0
ARC
  8
0
  6
DASHED
 62
3
 10
505.827163079429970
 20
-109.268502712294320
 40
8.999999999999948
 50
346.260856815786500
 51
19.463936333592187
  0
LINE
  8
0
  6
DASHED
 62
3
 10
512.044396007950810
 20
-105.453268796830680
 11
512.393959326557930
 21
-112.444535168975560
  0
LINE
  8
0
  6
DASHED
 62
3
 10
512.044396007950810
 20
-105.453268796830680
 11
512.393959326557930
 21
-112.444535168975560
  0
LINE
  8
0
  6
DASHED
 62
3
 10
512.393959326557930
 20
-112.444535168975560
 11
513.371763139065710
 21
-112.395644978350210
  0
LINE
  8
0
  6
DASHED
 62
3
 10
512.044396007950810
 20
-105.453268796830680
 11
513.022199820458350
 21
-105.404378606205340
  0
ARC
  8
0
  6
DASHED
 62
3
 10
513.306844275138020
 20
-111.097267699796580
 40
1.299999237060550
 50
272.862387240019760
 51
346.260856815788600
  0
ARC
  8
0
  6
DASHED
 62
3
 10
513.087118684386040
 20
-106.702755884758850
 40
1.299999237060645
 50
19.463936333587132
 51
92.862405909348169
  0
LINE
  8
0
  6
DASHED
 62
3
 10
511.969489582535520
 20
-103.955140288514030
 11
517.063126510812480
 21
-205.827878854054010
  0
LINE
  8
0
  6
DASHED
 62
3
 10
510.371485840330930
 20
-104.035040475624210
 11
515.465122768607900
 21
-205.907779041164990
  0
LINE
  8
0
  6
DASHED
 62
3
 10
493.868616219750040
 20
-173.957660548404420
 11
493.868616219750040
 21
-133.957660548404420
  0
LINE
  8
0
  6
DASHED
 62
3
 10
535.364875571370930
 20
-171.882847580823410
 11
531.374850633714910
 21
-132.082348827706140
  0
ARC
  8
0
  6
DASHED
 62
3
 10
512.668616219749990
 20
-133.957660548404420
 40
18.799999999999837
 50
5.724810452223617
 51
35.808626813495749
  0
INSERT
  8
0
  2
SYM26
 10
516.813438426093400
 20
-200.834117159664860
 41
-1.000000000000000
 42
1.000000000000000
 43
1.000000000000000
 50
2.862405226113666
  0
ARC
  8
0
  6
DASHED
 62
3
 10
514.668616219749990
 20
-173.957660548404420
 40
20.799999999999926
 50
334.359929784105190
 51
5.724810452223396
  0
ARC
  8
0
  6
DASHED
 62
3
 10
514.668616219749990
 20
-173.957660548404420
 40
20.800000000000040
 50
279.916536608230560
 51
334.359929784105190
  0
ARC
  8
0
  6
DASHED
 62
3
 10
514.668616219749990
 20
-173.957660548404420
 40
20.799999999999926
 50
334.359929784105190
 51
5.724810452223396
  0
ARC
  8
0
  6
DASHED
 62
3
 10
513.002068953366460
 20
-196.696671525333730
 40
1.999999999999927
 50
2.862405226112724
 51
85.808273843998350
  0
ARC
  8
0
  6
DASHED
 62
3
 10
518.595082051082270
 20
-196.417020870447910
 40
1.999999999999995
 50
99.916536608232732
 51
182.862405226112400
  0
ARC
  8
0
  6
DASHED
 62
3
 10
514.668616219749990
 20
-173.957660548404420
 40
20.799999999999955
 50
180.000000000000000
 51
265.808273843992540
  0
LINE
  8
0
  6
DASHED
 62
3
 10
515.465122768607900
 20
-205.907779041164990
 11
517.063126510812480
 21
-205.827878854054010
  0
LINE
  8
0
  6
DASHED
 62
3
 10
382.868616219750040
 20
-139.415160548404400
 11
382.868616219750040
 21
-128.415160548404400
  0
LINE
  8
0
  6
DASHED
 62
3
 10
382.868616219750040
 20
-139.415160548404400
 11
381.568616219749860
 21
-139.415160548404400
  0
LINE
  8
0
  6
DASHED
 62
3
 10
381.368616219750040
 20
-159.915160548404400
 11
381.368616219750040
 21
-139.615160548404450
  0
ARC
  8
0
  6
DASHED
 62
3
 10
381.568616219749860
 20
-139.615160548404450
 40
0.200000000000045
 50
90.000000000000000
 51
180.000000000000000
  0
LINE
  8
0
  6
DASHED
 62
3
 10
382.868616219750040
 20
-128.415160548404400
 11
377.868616219750040
 21
-128.415160548404400
  0
LINE
  8
0
  6
DASHED
 62
3
 10
377.868616219750040
 20
-191.415160548404400
 11
377.868616219750040
 21
-128.415160548404400
  0
ARC
  8
0
  6
DASHED
 62
3
 10
354.429847085768420
 20
-134.915160548404400
 40
5.000000000000000
 50
90.000000000000000
 51
175.138594604201390
  0
LINE
  8
0
  6
DASHED
 62
3
 10
354.429847085768420
 20
-129.915160548404400
 11
377.868616219750040
 21
-129.915160548404400
  0
ARC
  8
0
  6
DASHED
 62
3
 10
648.368616219750040
 20
-159.915160548404400
 40
300.000000000000170
 50
175.138594604201960
 51
180.000000000000000
  0
ARC
  8
0
  6
DASHED
 62
3
 10
648.368616219750040
 20
-159.915160548404400
 40
300.000000000000000
 50
180.000000000000000
 51
184.861405395798040
  0
LINE
  8
0
  6
DASHED
 62
3
 10
354.429847085768420
 20
-189.915160548404400
 11
377.868616219750040
 21
-189.915160548404400
  0
ARC
  8
0
  6
DASHED
 62
3
 10
354.429847085768420
 20
-184.915160548404400
 40
4.999999999999893
 50
184.861405395798610
 51
270.000000000000000
  0
LINE
  8
0
  6
DASHED
 62
3
 10
347.868616219750040
 20
-157.415160548404400
 11
348.379033067267760
 21
-157.415160548404400
  0
LINE
  8
0
  6
DASHED
 62
3
 10
347.868616219750040
 20
-162.415160548404400
 11
348.379033067267760
 21
-162.415160548404400
  0
LINE
  8
0
  6
DASHED
 62
3
 10
347.868616219750040
 20
-162.415160548404400
 11
347.868616219750040
 21
-157.415160548404400
  0
LINE
  8
0
  6
DASHED
 62
3
 10
382.868616219750040
 20
-180.415160548404400
 11
381.568616219749860
 21
-180.415160548404400
  0
LINE
  8
0
  6
DASHED
 62
3
 10
381.368616219750040
 20
-159.915160548404400
 11
381.368616219750040
 21
-180.215160548404360
  0
ARC
  8
0
  6
DASHED
 62
3
 10
381.568616219749860
 20
-180.215160548404360
 40
0.199999999999818
 50
180.000000000000000
 51
270.000000000000000
  0
LINE
  8
0
  6
DASHED
 62
3
 10
382.868616219750040
 20
-180.415160548404400
 11
382.868616219750040
 21
-191.415160548404400
  0
LINE
  8
0
  6
DASHED
 62
3
 10
382.868616219750040
 20
-191.415160548404400
 11
377.868616219750040
 21
-191.415160548404400
  0
LINE
  8
0
  6
CONTINUOUS
 62
3
 10
349.198738604795380
 20
-273.369309410836650
 11
325.117353561298840
 21
-297.450694454337050
  0
LINE
  8
0
  6
CONTINUOUS
 62
3
 10
305.368616219750040
 20
-298.915160548404400
 11
435.368616219750040
 21
-298.915160548404400
  0
LINE
  8
0
  6
CONTINUOUS
 62
3
 10
435.368616219749810
 20
-304.002968908585900
 11
494.295478851042390
 21
-304.002968908585900
  0
LINE
  8
0
  6
CONTINUOUS
 62
3
 10
521.538493834722430
 20
-273.369309410823460
 11
545.619878878240340
 21
-297.450694454337740
  0
LINE
  8
0
  6
CONTINUOUS
 62
3
 10
435.368616219750040
 20
-298.915160548404400
 11
565.368616219750040
 21
-298.915160548404400
  0
LINE
  8
0
  6
CONTINUOUS
 62
3
 10
349.198738604777190
 20
-44.461011685985795
 11
325.117353561259510
 21
-20.379626642471521
  0
LINE
  8
0
  6
CONTINUOUS
 62
3
 10
305.368616219750040
 20
-18.915160548404401
 11
565.368616219750040
 21
-18.915160548404401
  0
LINE
  8
0
  6
CONTINUOUS
 62
3
 10
521.538493834704700
 20
-44.461011685972608
 11
545.619878878201230
 21
-20.379626642471976
  0
LINE
  8
0
  6
CONTINUOUS
 62
3
 10
435.368616219750040
 20
-304.002968908585900
 11
376.441753588457460
 21
-304.002968908585900
  0
ARC
  8
0
  6
CONTINUOUS
 62
3
 10
441.618616219750040
 20
-38.577354768176065
 40
2.999999999999690
 50
87.026893139963278
 51
180.000000000000000
  0
ARC
  8
0
  6
CONTINUOUS
 62
3
 10
429.118616219750040
 20
-38.577354768176065
 40
3.000000000000000
 50
0.000000000000000
 51
92.973106860036722
  0
ARC
  8
0
  6
CONTINUOUS
 62
3
 10
305.368616219750040
 20
-288.915160548404400
 40
10.000000000000000
 50
180.000000000000000
 51
270.000000000000000
  0
CIRCLE
  8
0
  6
CONTINUOUS
 62
3
 10
315.160463418046670
 20
-279.123313350127320
 40
9.500000000000000
  0
ARC
  8
0
  6
CONTINUOUS
 62
3
 10
356.269806416661140
 20
-280.440377222701950
 40
10.000000000000053
 50
56.940543960613702
 51
135.000000000001820
  0
ARC
  8
0
  6
CONTINUOUS
 62
3
 10
502.368616219750040
 20
-293.915160548404400
 40
12.920504033735240
 50
301.640102641906310
 51
337.233171499442110
  0
ARC
  8
0
  6
CONTINUOUS
 62
3
 10
502.368616219750040
 20
-293.915160548404400
 40
12.920504033735355
 50
231.330182039103220
 51
238.359897358093660
  0
ARC
  8
0
  6
CONTINUOUS
 62
3
 10
435.368616219750040
 20
-158.915160548404400
 40
135.000000000000000
 50
236.940543960613270
 51
303.059456039395570
  0
ARC
  8
0
  6
CONTINUOUS
 62
3
 10
514.467426022857130
 20
-280.440377222689680
 40
10.000000000000401
 50
45.000000000003688
 51
123.059456039393490
  0
ARC
  8
0
  6
CONTINUOUS
 62
3
 10
565.368616219750040
 20
-288.915160548404400
 40
10.000000000000000
 50
270.000000000000000
 51
0.000000000000000
  0
CIRCLE
  8
0
  6
CONTINUOUS
 62
3
 10
555.576769021472960
 20
-279.123313350108220
 40
9.500000000000000
  0
ARC
  8
0
  6
DASHDOT
 62
4
 10
435.368616219749580
 20
-158.915160548404860
 40
169.999999999999860
 50
309.347118343174320
 51
320.891960247494470
  0
ARC
  8
0
  6
CONTINUOUS
 62
3
 10
305.368616219750040
 20
-28.915160548404401
 40
10.000000000000000
 50
90.000000000000000
 51
180.000000000000000
  0
CIRCLE
  8
0
  6
CONTINUOUS
 62
3
 10
315.160463418027580
 20
-38.707007746701038
 40
9.500000000000000
  0
ARC
  8
0
  6
CONTINUOUS
 62
3
 10
356.269806416642500
 20
-37.389943874119581
 40
10.000000000000401
 50
225.000000000003690
 51
303.059456039395680
  0
ARC
  8
0
  6
CONTINUOUS
 62
3
 10
435.368616219750040
 20
-158.915160548404400
 40
135.000000000000000
 50
56.940543960613276
 51
123.059456039395760
  0
ARC
  8
0
  6
CONTINUOUS
 62
3
 10
565.368616219750040
 20
-28.915160548404401
 40
10.000000000000000
 50
0.000000000000000
 51
90.000000000000000
  0
CIRCLE
  8
0
  6
CONTINUOUS
 62
3
 10
555.576769021453860
 20
-38.707007746681938
 40
9.500000000000000
  0
ARC
  8
0
  6
CONTINUOUS
 62
3
 10
514.467426022838480
 20
-37.389943874107303
 40
10.000000000000053
 50
236.940543960613670
 51
315.000000000003640
  0
ARC
  8
0
  6
CONTINUOUS
 62
3
 10
549.155412784134110
 20
-23.915160548404401
 40
5.000000000000000
 50
90.000000000000000
 51
135.000000000003670
  0
ARC
  8
0
  6
CONTINUOUS
 62
3
 10
570.368616219750040
 20
-45.128363983981671
 40
4.999999999999879
 50
315.000000000003640
 51
0.000000000000000
  0
ARC
  8
0
  6
CONTINUOUS
 62
3
 10
321.581819655326850
 20
-23.915160548404401
 40
4.999999999999879
 50
45.000000000003688
 51
90.000000000000000
  0
ARC
  8
0
  6
CONTINUOUS
 62
3
 10
368.368616219749810
 20
-293.915160548404400
 40
12.920504033735121
 50
301.640102641905460
 51
308.669817960896750
  0
ARC
  8
0
  6
CONTINUOUS
 62
3
 10
368.368616219749810
 20
-293.915160548404400
 40
12.920504033734950
 50
202.766828500557860
 51
238.359897358094540
  0
ARC
  8
0
  6
CONTINUOUS
 62
3
 10
300.368616219750040
 20
-45.128363984020325
 40
5.000000000000000
 50
180.000000000000000
 51
225.000000000003690
  0
ARC
  8
0
  6
CONTINUOUS
 62
3
 10
300.368616219750040
 20
-272.701957112827590
 40
5.000000000000041
 50
135.000000000005510
 51
180.000000000000000
  0
ARC
  8
0
  6
CONTINUOUS
 62
3
 10
321.581819655365730
 20
-293.915160548404400
 40
5.000000000000000
 50
270.000000000000000
 51
315.000000000003640
  0
ARC
  8
0
  6
CONTINUOUS
 62
3
 10
549.155412784172770
 20
-293.915160548404400
 40
5.000000000000041
 50
225.000000000005540
 51
270.000000000000000
  0
ARC
  8
0
  6
CONTINUOUS
 62
3
 10
570.368616219750040
 20
-272.701957112788700
 40
5.000000000000000
 50
0.000000000000000
 51
45.000000000003688
  0
ARC
  8
0
  6
CONTINUOUS
 62
3
 10
570.368616219750040
 20
-45.128363983981671
 40
4.999999999999879
 50
315.000000000003640
 51
0.000000000000000
  0
ARC
  8
0
  6
CONTINUOUS
 62
3
 10
549.155412784134110
 20
-23.915160548404401
 40
5.000000000000000
 50
90.000000000000000
 51
135.000000000003670
  0
LINE
  8
0
  6
DASHDOT
 62
4
 10
542.832081811838750
 20
-266.378626140476570
 11
568.178402717932840
 21
-291.724947046566680
  0
LINE
  8
0
  6
DASHDOT
 62
4
 10
327.727344829962020
 20
-266.556431938209360
 11
302.044191049630170
 21
-292.239585718545410
  0
ARC
  8
0
  6
DASHDOT
 62
4
 10
435.368616219749580
 20
-158.915160548404400
 40
169.999999999999910
 50
219.065659645557640
 51
230.833214242354020
  0
ENDSEC
  0
EOF
