  0
SECTION
  2
HEADER
  9
$TEXTSIZE
 40
2.5
  9
$ACADVER
  1
AC1009
  9
$DIMASZ
 40
3.863703297614046
  9
$DIMEXE
 40
2.000000000000000
  9
$DIMEXO
 40
1.000000000000000
  9
$DIMLFAC
 40
1.000000000000000
  9
$DIMSCALE
 40
1.000000000000000
  9
$DIMTAD
 70
1
  9
$DIMTFAC
 40
0.625000000000000
  9
$DIMTXT
 40
3.200000047683716
  9
$LUPREC
 70
3
  9
$REGENMODE
 70
1
  9
$TEXTSTYLE
  7
STANDARD1
  0
ENDSEC
  0
SECTION
  2
TABLES
  0
TABLE
  2
LTYPE
 70
4
  0
LTYPE
  2
CONTINUOUS
 70
64
  3
Solid line
 72
65
 73
0
 40
0.0
  0
LTYPE
  2
DASHED
 70
64
  3
-- -- -- -- -- -- -- -- -- -- -- -- -- -- --
 72
65
 73
2
 40
0.75
 49
0.5
 49
-0.25
  0
LTYPE
  2
DASHDOT
 70
64
  3
__ . __ . __ . __ . __ . __ . __ . __ . __ . __
 72
65
 73
4
 40
1.0
 49
0.5
 49
-0.25
 49
0.0
 49
-0.25
  0
LTYPE
  2
DIVIDE
 70
64
  3
__ . . __ . . __ . . __ . . __ . . __ . . __
 72
65
 73
6
 40
1.25
 49
0.5
 49
-0.25
 49
0.0
 49
-0.25
 49
0.0
 49
-0.25
  0
ENDTAB
  0
TABLE
  2
LAYER
 70
1
  0
LAYER
  2
0
 70
64
 62
2
  6
CONTINUOUS
  0
ENDTAB
  0
TABLE
  2
STYLE
 70
4
  0
STYLE
  2
STANDARD1
 70
64
 40
0.0
 41
1.0
 50
0.0
 71
0
 42
3.200000047683716
  3
MONOTXT
  4
BIGFONT
  0
STYLE
  2
STANDARD2
 70
68
 40
0.0
 41
1.0
 50
0.0
 71
0
 42
3.200000047683716
  3
MONOTXT
  4
BIGFONT
  0
STYLE
  2
STANDARD3
 70
64
 40
0.0
 41
1.0
 50
0.0
 71
0
 42
3.200000047683716
  3
MONOTXT
  4

  0
STYLE
  2
STANDARD4
 70
68
 40
0.0
 41
1.0
 50
0.0
 71
0
 42
3.200000047683716
  3
MONOTXT
  4

  0
ENDTAB
  0
TABLE
  2
VIEW
 70
0
  0
ENDTAB
  0
ENDSEC
  0
SECTION
  2
BLOCKS
  0
BLOCK
  8
0
  2
ZU_SYM_1
 70
64
 10
0.000000000000000
 20
0.000000000000000
  0
ARC
  8
0
  6
CONTINUOUS
 62
256
 10
-0.979025304317474
 20
-2.200000762939453
 40
1.299999237060547
 50
196.601531107481040
 51
270.000000000000000
  0
ARC
  8
0
  6
CONTINUOUS
 62
256
 10
-0.979025304317474
 20
2.200000762939453
 40
1.299999237060547
 50
90.000000000000000
 51
163.398451589674950
  0
LINE
  8
0
  6
CONTINUOUS
 62
256
 10
0.000000000000000
 20
-3.500000000000000
 11
-0.979025304317474
 21
-3.500000000000000
  0
LINE
  8
0
  6
CONTINUOUS
 62
256
 10
0.000000000000000
 20
3.500000000000000
 11
-0.979025304317474
 21
3.500000000000000
  0
LINE
  8
0
  6
CONTINUOUS
 62
256
 10
0.000000000000000
 20
-3.500000000000000
 11
0.000000000000000
 21
3.500000000000000
  0
LINE
  8
0
  6
CONTINUOUS
 62
256
 10
0.000000000000000
 20
-3.500000000000000
 11
0.000000000000000
 21
3.500000000000000
  0
POINT
  8
0
  6
CONTINUOUS
 62
256
 10
0.000000000000000
 20
0.000000000000000
  0
ARC
  8
0
  6
CONTINUOUS
 62
256
 10
6.399999618530273
 20
0.000000000000000
 40
9.000000000000000
 50
163.398451589674950
 51
196.601531107481040
  0
ENDBLK
  8
0
  0
BLOCK
  8
0
  2
ZU_SYM_2
 70
64
 10
0.000000000000000
 20
0.000000000000000
  0
ARC
  8
0
  6
CONTINUOUS
 62
256
 10
-0.979025304317474
 20
-2.200000762939453
 40
1.299999237060547
 50
196.601531107481040
 51
270.000000000000000
  0
ARC
  8
0
  6
CONTINUOUS
 62
256
 10
-0.979025304317474
 20
2.200000762939453
 40
1.299999237060547
 50
90.000000000000000
 51
163.398451589674950
  0
LINE
  8
0
  6
CONTINUOUS
 62
256
 10
0.000000000000000
 20
-3.500000000000000
 11
-0.979025304317474
 21
-3.500000000000000
  0
LINE
  8
0
  6
CONTINUOUS
 62
256
 10
0.000000000000000
 20
3.500000000000000
 11
-0.979025304317474
 21
3.500000000000000
  0
LINE
  8
0
  6
CONTINUOUS
 62
256
 10
0.000000000000000
 20
-3.500000000000000
 11
0.000000000000000
 21
3.500000000000000
  0
LINE
  8
0
  6
CONTINUOUS
 62
256
 10
0.000000000000000
 20
-3.500000000000000
 11
0.000000000000000
 21
3.500000000000000
  0
POINT
  8
0
  6
CONTINUOUS
 62
256
 10
0.000000000000000
 20
0.000000000000000
  0
ARC
  8
0
  6
CONTINUOUS
 62
256
 10
6.399999618530273
 20
0.000000000000000
 40
9.000000000000000
 50
163.398451589674950
 51
196.601531107481040
  0
ENDBLK
  8
0
  0
ENDSEC
  0
SECTION
  2
ENTITIES
  0
ARC
  8
0
  6
CONTINUOUS
 62
256
 10
142.221602502900620
 20
-100.183170326236000
 40
0.399999999999636
 50
180.000000000000000
 51
270.000000000000000
  0
LINE
  8
0
  6
CONTINUOUS
 62
256
 10
144.381410124035940
 20
-100.433170326236000
 11
143.821602502900530
 21
-100.583170326235650
  0
LINE
  8
0
  6
CONTINUOUS
 62
256
 10
143.821602502900530
 20
-100.583170326235650
 11
142.221602502900620
 21
-100.583170326235650
  0
LINE
  8
0
  6
CONTINUOUS
 62
256
 10
169.421602502900440
 20
-100.433170326236000
 11
144.381410124035940
 21
-100.433170326236000
  0
ARC
  8
0
  6
CONTINUOUS
 62
256
 10
169.421602502900440
 20
-100.833170326235650
 40
0.399999999999636
 50
0.000000000000000
 51
90.000000000000000
  0
LINE
  8
0
  6
CONTINUOUS
 62
256
 10
169.821602502900530
 20
-109.933170326236000
 11
169.821602502900530
 21
-100.833170326235650
  0
LINE
  8
0
  6
CONTINUOUS
 62
256
 10
169.821602502900500
 20
110.694656553855570
 11
169.821602502900500
 21
98.622733033805162
  0
LINE
  8
0
  6
CONTINUOUS
 62
256
 10
169.821602502900500
 20
98.694656553855580
 11
144.821603516765180
 21
98.694656553855580
  0
LINE
  8
0
  6
CONTINUOUS
 62
256
 10
144.821602502900500
 20
101.194656553855580
 11
144.821602502900500
 21
98.694656553855580
  0
LINE
  8
0
  6
CONTINUOUS
 62
256
 10
144.381410124035910
 20
101.194656553855570
 11
143.821602502900500
 21
101.344656553855200
  0
LINE
  8
0
  6
CONTINUOUS
 62
256
 10
143.821602502900500
 20
101.344656553855200
 11
142.221602502900590
 21
101.344656553855200
  0
LINE
  8
0
  6
CONTINUOUS
 62
256
 10
169.421602502900410
 20
101.194656553855570
 11
144.381410124035910
 21
101.194656553855570
  0
ARC
  8
0
  6
CONTINUOUS
 62
256
 10
142.221602502900590
 20
100.944656553855110
 40
0.400000000000091
 50
90.000000000000000
 51
180.000000000000000
  0
ARC
  8
0
  6
CONTINUOUS
 62
256
 10
169.421602502900410
 20
101.594656553855200
 40
0.400000000000091
 50
270.000000000000000
 51
0.000000000000000
  0
LINE
  8
0
  6
CONTINUOUS
 62
256
 10
147.709647611488890
 20
-106.932926185611000
 11
169.821602502900530
 21
-106.932926185611000
  0
ARC
  8
0
  6
CONTINUOUS
 62
256
 10
147.709647611488890
 20
-109.820971294198900
 40
2.888045108587903
 50
90.000000000000000
 51
182.226471171998070
  0
LINE
  8
0
  6
CONTINUOUS
 62
256
 10
40.821585610190596
 20
-127.933170326236000
 11
40.821585610190596
 21
-69.433170326236052
  0
LINE
  8
0
  6
CONTINUOUS
 62
256
 10
40.821585610191505
 20
-127.933170326236000
 11
40.821585610191505
 21
-186.433170326236050
  0
LINE
  8
0
  6
CONTINUOUS
 62
256
 10
40.821585610191505
 20
-186.441897858700140
 11
41.821585610191050
 21
-186.459352923628440
  0
LINE
  8
0
  6
CONTINUOUS
 62
256
 10
211.333569252101600
 20
-97.933170326235768
 11
225.772338386082990
 21
-97.933170326235768
  0
LINE
  8
0
  6
CONTINUOUS
 62
256
 10
204.772338386082990
 20
-130.433170326235540
 11
204.772338386082990
 21
-125.433170326235540
  0
LINE
  8
0
  6
CONTINUOUS
 62
256
 10
204.772338386082990
 20
-130.433170326235540
 11
205.282755233600710
 21
-130.433170326235540
  0
LINE
  8
0
  6
CONTINUOUS
 62
256
 10
204.772338386082990
 20
-125.433170326235540
 11
205.282755233600710
 21
-125.433170326235540
  0
ARC
  8
0
  6
CONTINUOUS
 62
256
 10
505.272338386082990
 20
-127.933170326235540
 40
300.000000000000110
 50
175.138594604202010
 51
180.000000000000000
  0
ARC
  8
0
  6
CONTINUOUS
 62
256
 10
211.333569252101600
 20
-102.933170326235750
 40
5.000000000000000
 50
90.000000000000000
 51
175.138594604201670
  0
ARC
  8
0
  6
CONTINUOUS
 62
256
 10
211.333569252101600
 20
-152.933170326235510
 40
5.000000000000139
 50
184.861405395800970
 51
270.000000000000000
  0
LINE
  8
0
  6
CONTINUOUS
 62
256
 10
211.333569252101600
 20
-157.933170326235510
 11
225.772338386082990
 21
-157.933170326235510
  0
ARC
  8
0
  6
CONTINUOUS
 62
256
 10
505.272338386082990
 20
-127.933170326235540
 40
300.000000000000000
 50
180.000000000000000
 51
184.861405395798040
  0
LINE
  8
0
  6
DASHDOT
 62
256
 10
298.272338386082990
 20
-198.342567045347830
 11
298.272338386082990
 21
-30.007040363509077
  0
LINE
  8
0
  6
CONTINUOUS
 62
256
 10
292.272338386082990
 20
-106.933170326236000
 11
286.272338386082990
 21
-106.933170326236000
  0
LINE
  8
0
  6
CONTINUOUS
 62
256
 10
292.272338386082990
 20
-112.933170326236000
 11
286.272338386082990
 21
-112.933170326236000
  0
LINE
  8
0
  6
CONTINUOUS
 62
256
 10
286.272338386082990
 20
-112.933170326236000
 11
286.272338386082990
 21
-106.933170326236000
  0
LINE
  8
0
  6
CONTINUOUS
 62
256
 10
292.272338386082990
 20
-112.933170326236000
 11
292.272338386082990
 21
-106.933170326236000
  0
ARC
  8
0
  6
CONTINUOUS
 62
256
 10
298.272338386082990
 20
-109.933170326236000
 40
9.500000000000016
 50
198.434948822922880
 51
161.591512067616610
  0
CIRCLE
  8
0
  6
CONTINUOUS
 62
256
 10
298.272338386082990
 20
-109.933170326236000
 40
3.000000000000000
  0
CIRCLE
  8
0
  6
CONTINUOUS
 62
256
 10
298.272338386082990
 20
-109.933170326236000
 40
2.458500000000015
  0
LINE
  8
0
  6
CONTINUOUS
 62
256
 10
368.772338386082990
 20
-114.933170326236000
 11
367.921458983546470
 21
-114.933170326236000
  0
LINE
  8
0
  6
CONTINUOUS
 62
256
 10
368.772338386082990
 20
-104.933170326236000
 11
367.921458983546470
 21
-104.933170326236000
  0
LINE
  8
0
  6
CONTINUOUS
 62
256
 10
227.772338386082990
 20
-114.933170326236000
 11
228.623217788619510
 21
-114.933170326236000
  0
LINE
  8
0
  6
CONTINUOUS
 62
256
 10
227.772338386082990
 20
-104.933170326236000
 11
228.623217788619510
 21
-104.933170326236000
  0
LINE
  8
0
  6
DASHDOT
 62
256
 10
195.735746348589600
 20
-109.933170326236000
 11
413.492083203105720
 21
-109.933170326236000
  0
LINE
  8
0
  6
CONTINUOUS
 62
256
 10
225.772338386082990
 20
-173.933170326236000
 11
225.772338386082990
 21
-45.933170326235995
  0
LINE
  8
0
  6
DASHDOT
 62
256
 10
356.255094443380130
 20
-51.950414268939312
 11
367.568802942364980
 21
-40.636705769954460
  0
LINE
  8
0
  6
DASHDOT
 62
256
 10
240.289582328785850
 20
-51.950414268939312
 11
228.975873829801000
 21
-40.636705769954460
  0
LINE
  8
0
  6
DASHDOT
 62
256
 10
240.289582328785850
 20
-167.915926383532680
 11
228.975873829801000
 21
-179.229634882517530
  0
LINE
  8
0
  6
DASHDOT
 62
256
 10
356.255094443380130
 20
-167.915926383532680
 11
367.568802942364980
 21
-179.229634882517530
  0
LINE
  8
0
  6
CONTINUOUS
 62
256
 10
234.272338386082990
 20
-37.433170326235995
 11
362.272338386082990
 21
-37.433170326235995
  0
LINE
  8
0
  6
CONTINUOUS
 62
256
 10
342.702083233136360
 20
-48.532862730706256
 11
353.215989199979500
 21
-38.018956763862661
  0
LINE
  8
0
  6
CONTINUOUS
 62
256
 10
359.672645981613640
 20
-65.503425479182624
 11
370.186551948455870
 21
-54.989519512340848
  0
LINE
  8
0
  6
CONTINUOUS
 62
256
 10
370.772338386082990
 20
-173.933170326236000
 11
370.772338386082990
 21
-45.933170326235995
  0
LINE
  8
0
  6
CONTINUOUS
 62
256
 10
252.772338386082990
 20
-182.433170326236000
 11
234.272338386082990
 21
-182.433170326236000
  0
LINE
  8
0
  6
CONTINUOUS
 62
256
 10
340.772338386082990
 20
-187.933170326236000
 11
340.772338386082990
 21
-185.433170326236000
  0
LINE
  8
0
  6
CONTINUOUS
 62
256
 10
298.272338386082990
 20
-189.933170326236000
 11
338.772338386082990
 21
-189.933170326236000
  0
LINE
  8
0
  6
CONTINUOUS
 62
256
 10
298.272338386082990
 20
-189.933170326236000
 11
257.772338386082990
 21
-189.933170326236000
  0
LINE
  8
0
  6
CONTINUOUS
 62
256
 10
255.772338386082990
 20
-187.933170326236000
 11
255.772338386082990
 21
-185.433170326236000
  0
LINE
  8
0
  6
CONTINUOUS
 62
256
 10
343.772338386082990
 20
-182.433170326236000
 11
362.272338386082990
 21
-182.433170326236000
  0
LINE
  8
0
  6
DASHDOT
 62
256
 10
315.138286574012450
 20
-127.933170326236000
 11
281.734579721596670
 21
-127.933170326236000
  0
LINE
  8
0
  6
CONTINUOUS
 62
256
 10
236.872030790552340
 20
-65.503425479182624
 11
226.358124823710110
 21
-54.989519512340848
  0
LINE
  8
0
  6
CONTINUOUS
 62
256
 10
253.842593539029170
 20
-48.532862730706256
 11
243.328687572186480
 21
-38.018956763862661
  0
LINE
  8
0
  6
CONTINUOUS
 62
256
 10
236.872030790552340
 20
-154.362915173289370
 11
226.358124823710110
 21
-164.876821140131140
  0
LINE
  8
0
  6
CONTINUOUS
 62
256
 10
253.842593539029170
 20
-171.333477921765730
 11
243.328687572186480
 21
-181.847383888609330
  0
LINE
  8
0
  6
CONTINUOUS
 62
256
 10
359.672645981613640
 20
-154.362915173289370
 11
370.186551948455870
 21
-164.876821140131140
  0
LINE
  8
0
  6
CONTINUOUS
 62
256
 10
342.702083233136360
 20
-171.333477921765730
 11
353.215989199979500
 21
-181.847383888609330
  0
ARC
  8
0
  6
CONTINUOUS
 62
256
 10
368.772338386082990
 20
-112.933170326236000
 40
2.000000000000000
 50
270.000000000000000
 51
0.000000000000000
  0
ARC
  8
0
  6
CONTINUOUS
 62
256
 10
367.921458983546470
 20
-116.933170326236000
 40
2.000000000000000
 50
90.000000000000000
 51
174.260829522738450
  0
ARC
  8
0
  6
CONTINUOUS
 62
256
 10
368.772338386082990
 20
-106.933170326236000
 40
2.000000000000000
 50
0.000000000000000
 51
90.000000000000000
  0
ARC
  8
0
  6
CONTINUOUS
 62
256
 10
367.921458983546470
 20
-102.933170326236000
 40
1.999999999999945
 50
185.739170477261690
 51
270.000000000000000
  0
ARC
  8
0
  6
CONTINUOUS
 62
256
 10
228.623217788619510
 20
-102.933170326236000
 40
2.000000000000000
 50
270.000000000000000
 51
354.260829522738450
  0
ARC
  8
0
  6
CONTINUOUS
 62
256
 10
228.623217788619510
 20
-116.933170326236000
 40
1.999999999999945
 50
5.739170477261706
 51
90.000000000000000
  0
ARC
  8
0
  6
CONTINUOUS
 62
256
 10
227.772338386082990
 20
-112.933170326236000
 40
2.000000000000000
 50
180.000000000000000
 51
270.000000000000000
  0
ARC
  8
0
  6
CONTINUOUS
 62
256
 10
227.772338386082990
 20
-106.933170326236000
 40
2.000000000000000
 50
90.000000000000000
 51
180.000000000000000
  0
ARC
  8
0
  6
CONTINUOUS
 62
256
 10
298.272338386082990
 20
-109.933170326236000
 40
68.000000000000142
 50
5.739170477266929
 51
28.617330145899032
  0
ARC
  8
0
  6
CONTINUOUS
 62
256
 10
298.272338386082990
 20
-109.933170326236000
 40
68.000000000000142
 50
185.739170477266900
 51
208.617330145899020
  0
CIRCLE
  8
0
  6
CONTINUOUS
 62
256
 10
361.911948692872560
 20
-173.572780633025100
 40
5.300000000000011
  0
CIRCLE
  8
0
  6
CONTINUOUS
 62
256
 10
234.632728079293430
 20
-173.572780633025100
 40
5.300000000000011
  0
CIRCLE
  8
0
  6
CONTINUOUS
 62
256
 10
234.632728079293430
 20
-46.293560019446886
 40
5.300000000000011
  0
ARC
  8
0
  6
CONTINUOUS
 62
256
 10
298.272338386082990
 20
-462.433170326236050
 40
398.525806533542890
 50
86.806152787379048
 51
90.000000000000000
  0
ARC
  8
0
  6
CONTINUOUS
 62
256
 10
298.272338386082990
 20
-462.433170326236050
 40
398.525806533542950
 50
90.000000000000000
 51
93.193847212620952
  0
ARC
  8
0
  6
CONTINUOUS
 62
256
 10
278.772338386082540
 20
-112.976806812849650
 40
48.525806533542799
 50
93.193847212620526
 51
107.911740528482510
  0
ARC
  8
0
  6
CONTINUOUS
 62
256
 10
317.772338386082990
 20
-112.976806812849650
 40
48.525806533542294
 50
72.088259471517517
 51
86.806152787378920
  0
ARC
  8
0
  6
CONTINUOUS
 62
256
 10
333.619182801461190
 20
-63.948383821621064
 40
3.000000000000047
 50
252.088259471516470
 51
52.451819439402151
  0
ARC
  8
0
  6
CONTINUOUS
 62
256
 10
262.925493970704790
 20
-63.948383821621064
 40
3.000000000000072
 50
127.548180560597600
 51
287.911740528475380
  0
ARC
  8
0
  6
DASHDOT
 62
256
 10
298.272338386082990
 20
-109.933170326236000
 40
89.999999999999972
 50
39.384795970640099
 51
50.093367670272883
  0
ARC
  8
0
  6
DASHDOT
 62
256
 10
298.272338386082990
 20
-109.933170326236000
 40
89.999999999999872
 50
129.906632329727100
 51
140.093367670275740
  0
ARC
  8
0
  6
DASHDOT
 62
256
 10
298.272338386082990
 20
-109.933170326236000
 40
90.000000000000242
 50
219.906632329724230
 51
230.093367670272840
  0
ARC
  8
0
  6
DASHDOT
 62
256
 10
298.272338386082990
 20
-109.933170326236000
 40
89.999999999999886
 50
309.906632329727130
 51
320.093367670275710
  0
ARC
  8
0
  6
CONTINUOUS
 62
256
 10
362.272338386082990
 20
-173.933170326236000
 40
8.500000000000000
 50
270.000000000000000
 51
0.000000000000000
  0
CIRCLE
  8
0
  6
CONTINUOUS
 62
256
 10
298.272338386082990
 20
-109.933170326236000
 40
26.956362337679252
  0
ARC
  8
0
  6
CONTINUOUS
 62
256
 10
362.272338386082990
 20
-45.933170326235995
 40
8.500000000000000
 50
0.000000000000000
 51
90.000000000000000
  0
ARC
  8
0
  6
CONTINUOUS
 62
256
 10
234.272338386082990
 20
-173.933170326236000
 40
8.500000000000000
 50
180.000000000000000
 51
270.000000000000000
  0
ARC
  8
0
  6
CONTINUOUS
 62
256
 10
298.272338386082990
 20
-109.933170326236000
 40
68.000000000000185
 50
61.382669854100463
 51
118.617330145899560
  0
ARC
  8
0
  6
CONTINUOUS
 62
256
 10
252.772338386082990
 20
-185.433170326236000
 40
3.000000000000000
 50
0.000000000000000
 51
90.000000000000000
  0
ARC
  8
0
  6
CONTINUOUS
 62
256
 10
234.272338386082990
 20
-45.933170326235995
 40
8.500000000000000
 50
90.000000000000000
 51
180.000000000000000
  0
ARC
  8
0
  6
CONTINUOUS
 62
256
 10
338.772338386082990
 20
-187.933170326236000
 40
2.000000000000000
 50
270.000000000000000
 51
0.000000000000000
  0
ARC
  8
0
  6
CONTINUOUS
 62
256
 10
257.772338386082990
 20
-187.933170326236000
 40
2.000000000000000
 50
180.000000000000000
 51
270.000000000000000
  0
ARC
  8
0
  6
CONTINUOUS
 62
256
 10
343.772338386082990
 20
-185.433170326236000
 40
3.000000000000000
 50
90.000000000000000
 51
180.000000000000000
  0
ARC
  8
0
  6
CONTINUOUS
 62
256
 10
368.772338386082990
 20
-53.575305949967515
 40
2.000000000000016
 50
314.999999999990790
 51
0.000000000000000
  0
ARC
  8
0
  6
CONTINUOUS
 62
256
 10
335.631015421271060
 20
-41.461794918840496
 40
9.999999999999638
 50
241.382669854100750
 51
314.999999999998010
  0
ARC
  8
0
  6
CONTINUOUS
 62
256
 10
227.772338386082990
 20
-53.575305949967515
 40
2.000000000000000
 50
180.000000000000000
 51
225.000000000008920
  0
ARC
  8
0
  6
CONTINUOUS
 62
256
 10
366.743713793478950
 20
-72.574493291048384
 40
10.000000000000082
 50
134.999999999998180
 51
208.617330145899250
  0
ARC
  8
0
  6
CONTINUOUS
 62
256
 10
241.914474009813150
 20
-39.433170326235995
 40
2.000000000000338
 50
45.000000000000000
 51
90.000000000000000
  0
ARC
  8
0
  6
CONTINUOUS
 62
256
 10
298.272338386082990
 20
-109.933170326236000
 40
68.000000000000355
 50
331.382669854100980
 51
354.260829522733050
  0
ARC
  8
0
  6
CONTINUOUS
 62
256
 10
260.913661350894930
 20
-41.461794918840496
 40
10.000000000000401
 50
225.000000000000000
 51
298.617330145899130
  0
ARC
  8
0
  6
CONTINUOUS
 62
256
 10
229.800962978687040
 20
-72.574493291048384
 40
9.999999999999638
 50
331.382669854100700
 51
45.000000000001847
  0
ARC
  8
0
  6
CONTINUOUS
 62
256
 10
354.630202762352840
 20
-39.433170326235995
 40
2.000000000000000
 50
90.000000000000000
 51
135.000000000000310
  0
ARC
  8
0
  6
CONTINUOUS
 62
256
 10
227.772338386082990
 20
-166.291034702504480
 40
2.000000000000016
 50
134.999999999990790
 51
180.000000000000000
  0
ARC
  8
0
  6
CONTINUOUS
 62
256
 10
241.914474009813150
 20
-180.433170326236000
 40
2.000000000000000
 50
270.000000000000000
 51
315.000000000000000
  0
ARC
  8
0
  6
CONTINUOUS
 62
256
 10
260.913661350894930
 20
-178.404545733631490
 40
9.999999999999638
 50
61.382669854100726
 51
135.000000000000000
  0
ARC
  8
0
  6
CONTINUOUS
 62
256
 10
229.800962978687040
 20
-147.291847361423610
 40
10.000000000000082
 50
314.999999999998180
 51
28.617330145899331
  0
ARC
  8
0
  6
CONTINUOUS
 62
256
 10
368.772338386082990
 20
-166.291034702504480
 40
2.000000000000000
 50
0.000000000000000
 51
45.000000000009209
  0
ARC
  8
0
  6
CONTINUOUS
 62
256
 10
354.630202762352840
 20
-180.433170326236000
 40
2.000000000000338
 50
225.000000000000000
 51
270.000000000000000
  0
ARC
  8
0
  6
CONTINUOUS
 62
256
 10
335.631015421271060
 20
-178.404545733631490
 40
10.000000000000082
 50
45.000000000001847
 51
118.617330145899320
  0
ARC
  8
0
  6
CONTINUOUS
 62
256
 10
366.743713793478950
 20
-147.291847361423610
 40
9.999999999999638
 50
151.382669854100730
 51
225.000000000001960
  0
ARC
  8
0
  6
CONTINUOUS
 62
256
 10
298.272338386082990
 20
-109.933170326236000
 40
68.000000000000185
 50
241.382669854100440
 51
298.617330145899530
  0
ARC
  8
0
  6
CONTINUOUS
 62
256
 10
298.272338386082990
 20
-109.933170326236000
 40
68.000000000000369
 50
151.382669854100980
 51
174.260829522733080
  0
CIRCLE
  8
0
  6
CONTINUOUS
 62
256
 10
298.272338386082990
 20
-109.933170326236000
 40
22.000000000000000
  0
CIRCLE
  8
0
  6
CONTINUOUS
 62
256
 10
298.272338386082990
 20
-109.933170326236000
 40
61.000000000000000
  0
CIRCLE
  8
0
  6
CONTINUOUS
 62
256
 10
298.272338386082990
 20
-109.933170326236000
 40
17.500000000000000
  0
LINE
  8
0
  6
DASHDOT
 62
256
 10
182.161449180394360
 20
-109.933170326236000
 11
93.913420257240432
 21
-109.933170326236000
  0
ARC
  8
0
  6
CONTINUOUS
 62
256
 10
169.421602502900440
 20
-119.033170326236340
 40
0.399999999999636
 50
270.000000000000000
 51
0.000000000000000
  0
LINE
  8
0
  6
CONTINUOUS
 62
256
 10
141.621602502900710
 20
-98.861246806185591
 11
141.821602502900530
 21
-99.061246806185409
  0
LINE
  8
0
  6
CONTINUOUS
 62
256
 10
141.821602502900530
 20
-109.861246806185590
 11
141.821602502900530
 21
-99.061246806185409
  0
LINE
  8
0
  6
CONTINUOUS
 62
256
 10
169.421602502900440
 20
-119.433170326236000
 11
144.381410124035940
 21
-119.433170326236000
  0
LINE
  8
0
  6
CONTINUOUS
 62
256
 10
141.621602502900710
 20
-120.933170326236000
 11
141.821602502900530
 21
-120.733170326236180
  0
LINE
  8
0
  6
CONTINUOUS
 62
256
 10
143.821602502900530
 20
-119.283170326236340
 11
142.221602502900620
 21
-119.283170326236340
  0
LINE
  8
0
  6
CONTINUOUS
 62
256
 10
144.381410124035940
 20
-119.433170326236000
 11
143.821602502900530
 21
-119.283170326236340
  0
LINE
  8
0
  6
CONTINUOUS
 62
256
 10
141.821602502900530
 20
-109.933170326236000
 11
141.821602502900530
 21
-120.733170326236180
  0
ARC
  8
0
  6
CONTINUOUS
 62
256
 10
142.221602502900620
 20
-119.683170326236000
 40
0.399999999999636
 50
90.000000000000000
 51
180.000000000000000
  0
LINE
  8
0
  6
CONTINUOUS
 62
256
 10
141.621602502900710
 20
-98.861246806185591
 11
139.321585610192410
 21
-98.861246806185591
  0
LINE
  8
0
  6
CONTINUOUS
 62
256
 10
141.621602502900710
 20
-120.933170326236000
 11
139.321585610192410
 21
-120.933170326236000
  0
LINE
  8
0
  6
CONTINUOUS
 62
256
 10
169.821602502900530
 20
-109.933170326236000
 11
169.821602502900530
 21
-119.033170326236340
  0
LINE
  8
0
  6
CONTINUOUS
 62
256
 10
147.709647611488890
 20
-112.933414466861000
 11
169.821602502900530
 21
-112.933414466861000
  0
ARC
  8
0
  6
CONTINUOUS
 62
256
 10
147.709647611488890
 20
-110.045369358273090
 40
2.888045108587921
 50
177.773528828001930
 51
270.000000000000000
  0
LINE
  8
0
  6
CONTINUOUS
 62
256
 10
112.329034329079600
 20
-61.813385503413883
 11
76.821585610192415
 21
-62.433170326235995
  0
LINE
  8
0
  6
CONTINUOUS
 62
256
 10
119.111889291313200
 20
-69.171630552137685
 11
110.481167650933000
 21
-69.171630552137685
  0
ARC
  8
0
  6
CONTINUOUS
 62
256
 10
117.321585610192410
 20
-51.514189970111147
 40
3.000000000000531
 50
318.942708126113530
 51
0.000000000000000
  0
LINE
  8
0
  6
CONTINUOUS
 62
256
 10
119.583745176355020
 20
-53.484630047155406
 11
110.001752595093420
 21
-64.485216379686790
  0
ARC
  8
0
  6
CONTINUOUS
 62
256
 10
107.739593028930810
 20
-62.514776302643440
 40
3.000000000000000
 50
270.000000000000000
 51
318.942708126126600
  0
ARC
  8
0
  6
CONTINUOUS
 62
256
 10
107.739593028930810
 20
-66.171630552137685
 40
3.000000000000000
 50
270.000000000000000
 51
318.942708126126600
  0
LINE
  8
0
  6
CONTINUOUS
 62
256
 10
119.583745176355020
 20
-57.141484296649651
 11
110.001752595093420
 21
-68.142070629181035
  0
ARC
  8
0
  6
CONTINUOUS
 62
256
 10
117.321585610192410
 20
-55.171044219605392
 40
3.000000000000531
 50
318.942708126113530
 51
0.000000000000000
  0
ARC
  8
0
  6
CONTINUOUS
 62
256
 10
128.321585610192410
 20
-117.933170326236000
 40
3.000000000000000
 50
90.000000000000000
 51
180.000000000000000
  0
ARC
  8
0
  6
CONTINUOUS
 62
256
 10
128.321585610192410
 20
-101.933170326236000
 40
3.000000000000000
 50
180.000000000000000
 51
270.000000000000000
  0
LINE
  8
0
  6
CONTINUOUS
 62
256
 10
128.321585610192410
 20
-114.933170326236000
 11
132.321585610192410
 21
-114.933170326236000
  0
LINE
  8
0
  6
CONTINUOUS
 62
256
 10
128.321585610192410
 20
-104.933170326236000
 11
132.321585610192410
 21
-104.933170326236000
  0
LINE
  8
0
  6
CONTINUOUS
 62
256
 10
128.243054765273430
 20
-148.669727127971780
 11
132.321585610196510
 21
-148.776527216794420
  0
ARC
  8
0
  6
CONTINUOUS
 62
256
 10
128.321585610196510
 20
-145.670755153044410
 40
3.000000000000000
 50
180.000000000000000
 51
268.500000000010860
  0
LINE
  8
0
  6
CONTINUOUS
 62
256
 10
128.243054765268880
 20
-165.355807488935170
 11
132.321585610192410
 21
-165.462607577757810
  0
ARC
  8
0
  6
CONTINUOUS
 62
256
 10
128.321585610192410
 20
-162.356835514008710
 40
3.000000000000000
 50
180.000000000000000
 51
268.500000000001590
  0
LINE
  8
0
  6
CONTINUOUS
 62
256
 10
125.321585610192410
 20
-162.356835514008710
 11
125.321585610192410
 21
-117.933170326236000
  0
LINE
  8
0
  6
CONTINUOUS
 62
256
 10
125.321585610192410
 20
-57.509505138463282
 11
125.321585610192410
 21
-101.933170326236000
  0
LINE
  8
0
  6
CONTINUOUS
 62
256
 10
128.243054765268880
 20
-54.510533163536820
 11
132.321585610192410
 21
-54.403733074714182
  0
ARC
  8
0
  6
CONTINUOUS
 62
256
 10
128.321585610192410
 20
-57.509505138463282
 40
2.999999999999788
 50
91.499999999998479
 51
180.000000000000000
  0
LINE
  8
0
  6
CONTINUOUS
 62
256
 10
128.243054765273430
 20
-71.196613524500208
 11
132.321585610196510
 21
-71.089813435677570
  0
LINE
  8
0
  6
CONTINUOUS
 62
256
 10
124.821585610192410
 20
-37.236775914467216
 11
132.321585610192410
 21
-37.433170326235995
  0
LINE
  8
0
  6
CONTINUOUS
 62
256
 10
124.811278522508910
 20
-189.922648530613510
 11
76.821585610192415
 21
-188.933170326236000
  0
LINE
  8
0
  6
CONTINUOUS
 62
256
 10
121.295408661884270
 20
-37.329112107474430
 11
124.808497136038110
 21
-37.237118648225078
  0
LINE
  8
0
  6
CONTINUOUS
 62
256
 10
109.953619969145170
 20
-60.399741120122599
 11
119.919661821546010
 21
-43.138050281406322
  0
LINE
  8
0
  6
CONTINUOUS
 62
256
 10
139.321585610192410
 20
-109.933170326236000
 11
139.321585610192410
 21
-88.665786029131596
  0
LINE
  8
0
  6
CONTINUOUS
 62
256
 10
135.321585610192410
 20
-45.733170326236177
 11
134.542260113455090
 21
-44.933170326235995
  0
LINE
  8
0
  6
CONTINUOUS
 62
256
 10
135.321585610192410
 20
-174.133170326235810
 11
134.542260113455090
 21
-174.933170326236000
  0
LINE
  8
0
  6
CONTINUOUS
 62
256
 10
139.321585610192410
 20
-109.933170326236000
 11
139.321585610192410
 21
-131.200554623340390
  0
ARC
  8
0
  6
CONTINUOUS
 62
256
 10
128.321585610196510
 20
-74.195585499427580
 40
3.000000000000686
 50
91.499999999989342
 51
180.000000000000000
  0
ARC
  8
0
  6
CONTINUOUS
 62
256
 10
124.821585610192410
 20
-189.422754777958290
 40
0.500000000000239
 50
268.818811086687840
 51
0.000000000000000
  0
ARC
  8
0
  6
CONTINUOUS
 62
256
 10
121.321585610192410
 20
-38.328769432449917
 40
0.999999999999937
 50
91.500000000015845
 51
180.000000000000000
  0
ARC
  8
0
  6
CONTINUOUS
 62
256
 10
137.321585610192410
 20
-88.665786029131596
 40
2.000000000000000
 50
0.000000000000000
 51
40.236358309266507
  0
ARC
  8
0
  6
CONTINUOUS
 62
256
 10
137.321585610192410
 20
-131.200554623340390
 40
1.999999999999609
 50
319.763641690733830
 51
0.000000000000000
  0
ARC
  8
0
  6
CONTINUOUS
 62
256
 10
117.321585610192410
 20
-41.638050281406322
 40
3.000000000000247
 50
330.000000000002730
 51
0.000000000000000
  0
ARC
  8
0
  6
CONTINUOUS
 62
256
 10
107.355543757791570
 20
-58.899741120122599
 40
3.000000000000496
 50
271.000000000001590
 51
330.000000000002610
  0
LINE
  8
0
  6
CONTINUOUS
 62
256
 10
76.321585610192415
 20
-109.933170326236000
 11
76.321585610192415
 21
-62.441897858700031
  0
LINE
  8
0
  6
CONTINUOUS
 62
256
 10
134.542260113455090
 20
-44.933170326235995
 11
132.321585610192410
 21
-44.933170326235995
  0
LINE
  8
0
  6
CONTINUOUS
 62
256
 10
134.542260113455090
 20
-174.933170326236000
 11
132.321585610192410
 21
-174.933170326236000
  0
LINE
  8
0
  6
CONTINUOUS
 62
256
 10
76.321585610192415
 20
-188.922861047885820
 11
76.321585610192415
 21
-109.933170326236000
  0
LINE
  8
0
  6
CONTINUOUS
 62
256
 10
132.321585610192410
 20
-109.933170326236000
 11
132.321585610192410
 21
-37.433170326235995
  0
LINE
  8
0
  6
CONTINUOUS
 62
256
 10
138.848358180930520
 20
-132.492439106272290
 11
135.321585610192410
 21
-136.660443053508970
  0
LINE
  8
0
  6
CONTINUOUS
 62
256
 10
138.848358180930520
 20
-87.373901546199704
 11
135.321585610192410
 21
-83.205897598963020
  0
LINE
  8
0
  6
CONTINUOUS
 62
256
 10
132.321585610192410
 20
-109.933170326236000
 11
132.321585610192410
 21
-182.433170326236000
  0
LINE
  8
0
  6
CONTINUOUS
 62
256
 10
135.321585610192410
 20
-109.933170326236000
 11
135.321585610192410
 21
-45.733170326236177
  0
LINE
  8
0
  6
CONTINUOUS
 62
256
 10
135.321585610192410
 20
-109.933170326236000
 11
135.321585610192410
 21
-174.133170326235810
  0
LINE
  8
0
  6
CONTINUOUS
 62
256
 10
124.821585610189000
 20
-182.629564738004770
 11
132.321585610192410
 21
-182.433170326236000
  0
LINE
  8
0
  6
CONTINUOUS
 62
256
 10
120.321585610192410
 20
-181.537571220022070
 11
120.321585610192410
 21
-38.328769432449917
  0
LINE
  8
0
  6
CONTINUOUS
 62
256
 10
125.321585610192410
 20
-182.616471777219890
 11
125.321585610192410
 21
-189.422754777958290
  0
LINE
  8
0
  6
CONTINUOUS
 62
256
 10
66.321585610192415
 20
-181.351932878000300
 11
66.321585610192415
 21
-129.183169372561680
  0
LINE
  8
0
  6
CONTINUOUS
 62
256
 10
76.321585610192415
 20
-62.398260196379852
 11
66.821585610192415
 21
-62.398260196379852
  0
LINE
  8
0
  6
CONTINUOUS
 62
256
 10
40.821585610191505
 20
-69.424442793771959
 11
66.321585610192415
 21
-68.979338638102092
  0
LINE
  8
0
  6
CONTINUOUS
 62
256
 10
40.821585610192415
 20
-186.441897858700030
 11
65.691996691228994
 21
-186.853320914504370
  0
LINE
  8
0
  6
CONTINUOUS
 62
256
 10
76.321585610192415
 20
-188.933170326236000
 11
66.821585610192415
 21
-188.933170326236000
  0
ARC
  8
0
  6
CONTINUOUS
 62
256
 10
66.821585610192415
 20
-62.898260196379852
 40
0.500000000000000
 50
90.000000000000000
 51
180.000000000000000
  0
ARC
  8
0
  6
CONTINUOUS
 62
256
 10
66.821585610192415
 20
-188.433170326236000
 40
0.499999999999768
 50
209.999873810925780
 51
270.000000000000000
  0
ARC
  8
0
  6
CONTINUOUS
 62
256
 10
65.657091878354365
 20
-188.853016304817170
 40
2.000000000000183
 50
70.594768855185322
 51
88.999999999998309
  0
LINE
  8
0
  6
CONTINUOUS
 62
256
 10
40.821585610191505
 20
-127.933170326236000
 11
40.821585610191505
 21
-69.433170326235995
  0
LINE
  8
0
  6
CONTINUOUS
 62
256
 10
76.821585610192415
 20
-127.933170326236000
 11
76.821585610192415
 21
-62.389532663915816
  0
LINE
  8
0
  6
CONTINUOUS
 62
256
 10
76.821585610192415
 20
-188.933170326236000
 11
76.821585610192415
 21
-127.933170326236000
  0
LINE
  8
0
  6
CONTINUOUS
 62
256
 10
40.821585610192415
 20
-127.933170326236000
 11
40.821585610192415
 21
-186.433170326236000
  0
LINE
  8
0
  6
CONTINUOUS
 62
256
 10
66.321585610192415
 20
-120.683171279910310
 11
66.321585610192415
 21
-62.898260196379852
  0
LINE
  8
0
  6
CONTINUOUS
 62
256
 10
70.921585610192778
 20
-66.843235395592274
 11
67.321585610192415
 21
-66.843235395592274
  0
ARC
  8
0
  6
CONTINUOUS
 62
256
 10
70.921585610192778
 20
-66.443235395592637
 40
0.399999999999636
 50
270.000000000000000
 51
0.000000000000000
  0
ARC
  8
0
  6
CONTINUOUS
 62
256
 10
67.321585610192415
 20
-67.843235395592274
 40
1.000000000000000
 50
90.000000000000000
 51
180.000000000000000
  0
LINE
  8
0
  6
CONTINUOUS
 62
256
 10
70.921585610192778
 20
-63.372034839968364
 11
67.321585610192415
 21
-63.372034839968364
  0
ARC
  8
0
  6
CONTINUOUS
 62
256
 10
67.321585610192415
 20
-64.372034839968364
 40
1.000000000000000
 50
90.000000000000000
 51
180.000000000000000
  0
LINE
  8
0
  6
CONTINUOUS
 62
256
 10
71.321585610192415
 20
-63.772034839968001
 11
71.321585610192415
 21
-66.443235395592637
  0
ARC
  8
0
  6
CONTINUOUS
 62
256
 10
70.921585610191869
 20
-63.772034839968001
 40
0.400000000000546
 50
0.000000000000000
 51
90.000000000000000
  0
LINE
  8
0
  6
CONTINUOUS
 62
256
 10
70.921585610192778
 20
-119.683170326236000
 11
67.321585610192415
 21
-119.683170326236000
  0
ARC
  8
0
  6
CONTINUOUS
 62
256
 10
70.921585610192778
 20
-120.083170326235630
 40
0.399999999999636
 50
0.000000000000000
 51
90.000000000000000
  0
ARC
  8
0
  6
CONTINUOUS
 62
256
 10
67.321585610192415
 20
-118.683170326236000
 40
1.000000000000000
 50
180.000000000000000
 51
270.000000000000000
  0
LINE
  8
0
  6
CONTINUOUS
 62
256
 10
70.921585610192778
 20
-130.183170326236000
 11
67.321585610192415
 21
-130.183170326236000
  0
ARC
  8
0
  6
CONTINUOUS
 62
256
 10
70.921585610192778
 20
-129.783170326236360
 40
0.399999999999636
 50
270.000000000000000
 51
0.000000000000000
  0
ARC
  8
0
  6
CONTINUOUS
 62
256
 10
67.321585610192415
 20
-131.183170326236000
 40
1.000000000000000
 50
90.000000000000000
 51
180.000000000000000
  0
LINE
  8
0
  6
CONTINUOUS
 62
256
 10
71.321585610192415
 20
-120.083170326235630
 11
71.321585610192415
 21
-129.783170326236360
  0
ARC
  8
0
  6
CONTINUOUS
 62
256
 10
67.321585610192415
 20
-181.351932878000300
 40
1.000000000000000
 50
180.000000000000000
 51
270.000000000000000
  0
LINE
  8
0
  6
CONTINUOUS
 62
256
 10
66.321586373131865
 20
-188.683169372561680
 11
66.321586373131865
 21
-180.183171279910310
  0
LINE
  8
0
  6
CONTINUOUS
 62
256
 10
71.321586373131865
 20
-188.683169372561680
 11
66.321586373131865
 21
-188.683169372561680
  0
ARC
  8
0
  6
CONTINUOUS
 62
256
 10
70.921585610192778
 20
-182.751932878000840
 40
0.399999999999636
 50
0.000000000000000
 51
90.000000000000000
  0
LINE
  8
0
  6
CONTINUOUS
 62
256
 10
71.321585610192415
 20
-182.751932878000840
 11
71.321585610192415
 21
-188.683169372561680
  0
LINE
  8
0
  6
CONTINUOUS
 62
256
 10
70.921585610192778
 20
-182.351932878000300
 11
67.321585610192415
 21
-182.351932878000300
  0
ARC
  8
0
  6
CONTINUOUS
 62
256
 10
70.921585610192778
 20
-129.783170326236360
 40
0.399999999999636
 50
270.000000000000000
 51
0.000000000000000
  0
ARC
  8
0
  6
CONTINUOUS
 62
256
 10
70.921585610192778
 20
-120.083170326235630
 40
0.399999999999636
 50
0.000000000000000
 51
90.000000000000000
  0
LINE
  8
0
  6
CONTINUOUS
 62
256
 10
121.295408661884270
 20
-182.537228544997560
 11
124.808497136038110
 21
-182.629222004246910
  0
ARC
  8
0
  6
CONTINUOUS
 62
256
 10
121.321585610192410
 20
-181.537571220022070
 40
1.000000000000000
 50
180.000000000000000
 51
268.499999999984200
  0
LINE
  8
0
  6
DASHDOT
 62
256
 10
140.817584860555600
 20
-173.572780633025100
 11
114.985826542654190
 21
-173.572780633025100
  0
LINE
  8
0
  6
DASHDOT
 62
256
 10
140.817584860555600
 20
-46.293560019446886
 11
114.985826542654190
 21
-46.293560019446886
  0
LINE
  8
0
  6
CONTINUOUS
 62
256
 10
40.821585610190596
 20
-107.933170326236000
 11
66.321585610191505
 21
-107.933170326236000
  0
LINE
  8
0
  6
CONTINUOUS
 62
256
 10
40.821585610190596
 20
-103.103116869105630
 11
66.321585610191505
 21
-103.103116869105630
  0
LINE
  8
0
  6
CONTINUOUS
 62
256
 10
40.821585610190596
 20
-101.741236533756360
 11
66.321585610191505
 21
-101.741236533756360
  0
LINE
  8
0
  6
CONTINUOUS
 62
256
 10
40.821585610190596
 20
-97.650735999666722
 11
66.321585610191505
 21
-97.650735999666722
  0
LINE
  8
0
  6
CONTINUOUS
 62
256
 10
40.821585610190596
 20
-96.182378609861644
 11
66.321585610191505
 21
-96.182378609861644
  0
LINE
  8
0
  6
CONTINUOUS
 62
256
 10
40.821585610190596
 20
-92.218633186062107
 11
66.321585610191505
 21
-92.218633186062107
  0
LINE
  8
0
  6
CONTINUOUS
 62
256
 10
40.821585610190596
 20
-90.613985270500052
 11
66.321585610191505
 21
-90.613985270500052
  0
LINE
  8
0
  6
CONTINUOUS
 62
256
 10
40.821585610190596
 20
-82.567383607766260
 11
66.321585610191505
 21
-82.567383607766260
  0
LINE
  8
0
  6
CONTINUOUS
 62
256
 10
40.821585610190596
 20
-77.617636139460501
 11
66.321585610191505
 21
-77.617636139460501
  0
LINE
  8
0
  6
CONTINUOUS
 62
256
 10
40.821585610190596
 20
-72.933170326235995
 11
66.321585610191505
 21
-72.933170326235995
  0
LINE
  8
0
  6
CONTINUOUS
 62
256
 10
40.821585610190596
 20
-71.933170326235995
 11
66.321585610191505
 21
-71.933170326235995
  0
LINE
  8
0
  6
CONTINUOUS
 62
256
 10
40.821585610190596
 20
-70.933170326235995
 11
66.321585610191505
 21
-70.933170326235995
  0
LINE
  8
0
  6
CONTINUOUS
 62
256
 10
40.821585610190596
 20
-70.433170326235995
 11
66.321585610191505
 21
-70.433170326235995
  0
LINE
  8
0
  6
CONTINUOUS
 62
256
 10
40.821585610191505
 20
-147.933170326236000
 11
66.321585610191505
 21
-147.933170326236000
  0
LINE
  8
0
  6
CONTINUOUS
 62
256
 10
40.821585610191505
 20
-152.763223783366390
 11
66.321585610191505
 21
-152.763223783366360
  0
LINE
  8
0
  6
CONTINUOUS
 62
256
 10
40.821585610191505
 20
-154.125104118715630
 11
66.321585610191505
 21
-154.125104118715630
  0
LINE
  8
0
  6
CONTINUOUS
 62
256
 10
40.821585610191505
 20
-158.215604652805270
 11
66.321585610191505
 21
-158.215604652805270
  0
LINE
  8
0
  6
CONTINUOUS
 62
256
 10
40.821585610191505
 20
-159.683962042610350
 11
66.321585610191505
 21
-159.683962042610350
  0
LINE
  8
0
  6
CONTINUOUS
 62
256
 10
40.821585610191505
 20
-163.647707466409880
 11
66.321585610191505
 21
-163.647707466409880
  0
LINE
  8
0
  6
CONTINUOUS
 62
256
 10
40.821585610191505
 20
-165.252355381971940
 11
66.321585610191505
 21
-165.252355381971940
  0
LINE
  8
0
  6
CONTINUOUS
 62
256
 10
40.821585610191505
 20
-173.298957044705730
 11
66.321585610191505
 21
-173.298957044705730
  0
LINE
  8
0
  6
CONTINUOUS
 62
256
 10
40.821585610191505
 20
-182.933170326236020
 11
66.321586373131865
 21
-182.933170326236020
  0
LINE
  8
0
  6
CONTINUOUS
 62
256
 10
40.821585610191505
 20
-183.933170326236000
 11
66.321586373131865
 21
-183.933170326236000
  0
LINE
  8
0
  6
CONTINUOUS
 62
256
 10
40.821585610191505
 20
-184.933170326236000
 11
66.321586373131865
 21
-184.933170326236000
  0
LINE
  8
0
  6
CONTINUOUS
 62
256
 10
40.821585610191505
 20
-185.433170326236000
 11
66.321586373131865
 21
-185.433170326236000
  0
LINE
  8
0
  6
CONTINUOUS
 62
256
 10
40.821585610191505
 20
-178.248704513011460
 11
66.321585610192358
 21
-178.248704513011490
  0
LINE
  8
0
  6
CONTINUOUS
 62
256
 10
-119.178414389806900
 20
-181.673285426673830
 11
-121.178414389806900
 21
-180.020643787550400
  0
LINE
  8
0
  6
CONTINUOUS
 62
256
 10
-117.178414389806900
 20
-182.849070912296160
 11
-119.178414389806900
 21
-181.673285426673830
  0
LINE
  8
0
  6
CONTINUOUS
 62
256
 10
-119.178414389806900
 20
-181.673285426673830
 11
-117.178414389806900
 21
-180.020643787550400
  0
LINE
  8
0
  6
CONTINUOUS
 62
256
 10
-121.178414389806900
 20
-182.849070912296160
 11
-119.178414389806900
 21
-181.673285426673830
  0
LINE
  8
0
  6
CONTINUOUS
 62
256
 10
-114.568723571911730
 20
-180.559652324496200
 11
-114.478414389806910
 21
-179.856695358295840
  0
LINE
  8
0
  6
CONTINUOUS
 62
256
 10
-114.836180587003870
 20
-181.235595048708290
 11
-114.568723571911730
 21
-180.559652324496200
  0
LINE
  8
0
  6
CONTINUOUS
 62
256
 10
-115.270507211984930
 20
-181.858547431113690
 11
-114.836180587003870
 21
-181.235595048708290
  0
LINE
  8
0
  6
CONTINUOUS
 62
256
 10
-115.855012518230140
 20
-182.404569761012280
 11
-115.270507211984930
 21
-181.858547431113690
  0
LINE
  8
0
  6
CONTINUOUS
 62
256
 10
-116.567234294614760
 20
-182.852678706478910
 11
-115.855012518230140
 21
-182.404569761012280
  0
LINE
  8
0
  6
CONTINUOUS
 62
256
 10
-117.379802257690980
 20
-183.185653692041650
 11
-116.567234294614760
 21
-182.852678706478910
  0
LINE
  8
0
  6
CONTINUOUS
 62
256
 10
-118.261489876331080
 20
-183.390698675739910
 11
-117.379802257690980
 21
-183.185653692041650
  0
LINE
  8
0
  6
CONTINUOUS
 62
256
 10
-119.178414389806900
 20
-183.459933893840680
 11
-118.261489876331080
 21
-183.390698675739910
  0
LINE
  8
0
  6
CONTINUOUS
 62
256
 10
-120.095338903282690
 20
-183.390698675739910
 11
-119.178414389806900
 21
-183.459933893840680
  0
LINE
  8
0
  6
CONTINUOUS
 62
256
 10
-120.977026521922820
 20
-183.185653692041650
 11
-120.095338903282690
 21
-183.390698675739910
  0
LINE
  8
0
  6
CONTINUOUS
 62
256
 10
-121.789594484999010
 20
-182.852678706478910
 11
-120.977026521922820
 21
-183.185653692041650
  0
LINE
  8
0
  6
CONTINUOUS
 62
256
 10
-122.501816261383670
 20
-182.404569761012280
 11
-121.789594484999010
 21
-182.852678706478910
  0
LINE
  8
0
  6
CONTINUOUS
 62
256
 10
-123.086321567628840
 20
-181.858547431113690
 11
-122.501816261383670
 21
-182.404569761012280
  0
LINE
  8
0
  6
CONTINUOUS
 62
256
 10
-123.520648192609940
 20
-181.235595048708290
 11
-123.086321567628840
 21
-181.858547431113690
  0
LINE
  8
0
  6
CONTINUOUS
 62
256
 10
-123.788105207702070
 20
-180.559652324496200
 11
-123.520648192609940
 21
-181.235595048708290
  0
LINE
  8
0
  6
CONTINUOUS
 62
256
 10
-123.878414389806890
 20
-179.856695358295840
 11
-123.788105207702070
 21
-180.559652324496200
  0
LINE
  8
0
  6
CONTINUOUS
 62
256
 10
-123.788105207702070
 20
-179.153738392095480
 11
-123.878414389806890
 21
-179.856695358295840
  0
LINE
  8
0
  6
CONTINUOUS
 62
256
 10
-123.520648192609940
 20
-178.477795667883380
 11
-123.788105207702070
 21
-179.153738392095480
  0
LINE
  8
0
  6
CONTINUOUS
 62
256
 10
-123.086321567628840
 20
-177.854843285477980
 11
-123.520648192609940
 21
-178.477795667883380
  0
LINE
  8
0
  6
CONTINUOUS
 62
256
 10
-122.501816261383670
 20
-177.308820955579390
 11
-123.086321567628840
 21
-177.854843285477980
  0
LINE
  8
0
  6
CONTINUOUS
 62
256
 10
-121.789594484999010
 20
-176.860712010112760
 11
-122.501816261383670
 21
-177.308820955579390
  0
LINE
  8
0
  6
CONTINUOUS
 62
256
 10
-120.977026521922820
 20
-176.527737024550020
 11
-121.789594484999010
 21
-176.860712010112760
  0
LINE
  8
0
  6
CONTINUOUS
 62
256
 10
-120.095338903282690
 20
-176.322692040851760
 11
-120.977026521922820
 21
-176.527737024550020
  0
LINE
  8
0
  6
CONTINUOUS
 62
256
 10
-119.178414389806900
 20
-176.253456822750990
 11
-120.095338903282690
 21
-176.322692040851760
  0
LINE
  8
0
  6
CONTINUOUS
 62
256
 10
-118.261489876331080
 20
-176.322692040851760
 11
-119.178414389806900
 21
-176.253456822750990
  0
LINE
  8
0
  6
CONTINUOUS
 62
256
 10
-117.379802257690980
 20
-176.527737024550020
 11
-118.261489876331080
 21
-176.322692040851760
  0
LINE
  8
0
  6
CONTINUOUS
 62
256
 10
-116.567234294614760
 20
-176.860712010112760
 11
-117.379802257690980
 21
-176.527737024550020
  0
LINE
  8
0
  6
CONTINUOUS
 62
256
 10
-115.855012518230140
 20
-177.308820955579390
 11
-116.567234294614760
 21
-176.860712010112760
  0
LINE
  8
0
  6
CONTINUOUS
 62
256
 10
-115.270507211984930
 20
-177.854843285477980
 11
-115.855012518230140
 21
-177.308820955579390
  0
LINE
  8
0
  6
CONTINUOUS
 62
256
 10
-114.836180587003870
 20
-178.477795667883380
 11
-115.270507211984930
 21
-177.854843285477980
  0
LINE
  8
0
  6
CONTINUOUS
 62
256
 10
-114.568723571911730
 20
-179.153738392095480
 11
-114.836180587003870
 21
-178.477795667883380
  0
LINE
  8
0
  6
CONTINUOUS
 62
256
 10
-114.478414389806910
 20
-179.856695358295840
 11
-114.568723571911730
 21
-179.153738392095480
  0
LINE
  8
0
  6
CONTINUOUS
 62
256
 10
-119.178414389806900
 20
-74.193055225798389
 11
-121.178414389806900
 21
-75.845696864921820
  0
LINE
  8
0
  6
CONTINUOUS
 62
256
 10
-117.178414389806900
 20
-73.017269740175607
 11
-119.178414389806900
 21
-74.193055225798389
  0
LINE
  8
0
  6
CONTINUOUS
 62
256
 10
-119.178414389806900
 20
-74.193055225798389
 11
-117.178414389806900
 21
-75.845696864921820
  0
LINE
  8
0
  6
CONTINUOUS
 62
256
 10
-121.178414389806900
 20
-73.017269740175607
 11
-119.178414389806900
 21
-74.193055225798389
  0
LINE
  8
0
  6
CONTINUOUS
 62
256
 10
-114.568723571911730
 20
-76.712602260376286
 11
-114.478414389806910
 21
-76.009645294175925
  0
LINE
  8
0
  6
CONTINUOUS
 62
256
 10
-114.836180587003870
 20
-77.388544984588378
 11
-114.568723571911730
 21
-76.712602260376286
  0
LINE
  8
0
  6
CONTINUOUS
 62
256
 10
-115.270507211984930
 20
-78.011497366993780
 11
-114.836180587003870
 21
-77.388544984588378
  0
LINE
  8
0
  6
CONTINUOUS
 62
256
 10
-115.855012518230140
 20
-78.557519696892356
 11
-115.270507211984930
 21
-78.011497366993780
  0
LINE
  8
0
  6
CONTINUOUS
 62
256
 10
-116.567234294614760
 20
-79.005628642358971
 11
-115.855012518230140
 21
-78.557519696892356
  0
LINE
  8
0
  6
CONTINUOUS
 62
256
 10
-117.379802257690980
 20
-79.338603627921742
 11
-116.567234294614760
 21
-79.005628642358971
  0
LINE
  8
0
  6
CONTINUOUS
 62
256
 10
-118.261489876331080
 20
-79.543648611619986
 11
-117.379802257690980
 21
-79.338603627921742
  0
LINE
  8
0
  6
CONTINUOUS
 62
256
 10
-119.178414389806900
 20
-79.612883829720758
 11
-118.261489876331080
 21
-79.543648611619986
  0
LINE
  8
0
  6
CONTINUOUS
 62
256
 10
-120.095338903282690
 20
-79.543648611619986
 11
-119.178414389806900
 21
-79.612883829720758
  0
LINE
  8
0
  6
CONTINUOUS
 62
256
 10
-120.977026521922820
 20
-79.338603627921742
 11
-120.095338903282690
 21
-79.543648611619986
  0
LINE
  8
0
  6
CONTINUOUS
 62
256
 10
-121.789594484999010
 20
-79.005628642358971
 11
-120.977026521922820
 21
-79.338603627921742
  0
LINE
  8
0
  6
CONTINUOUS
 62
256
 10
-122.501816261383670
 20
-78.557519696892356
 11
-121.789594484999010
 21
-79.005628642358971
  0
LINE
  8
0
  6
CONTINUOUS
 62
256
 10
-123.086321567628840
 20
-78.011497366993780
 11
-122.501816261383670
 21
-78.557519696892356
  0
LINE
  8
0
  6
CONTINUOUS
 62
256
 10
-123.520648192609940
 20
-77.388544984588378
 11
-123.086321567628840
 21
-78.011497366993780
  0
LINE
  8
0
  6
CONTINUOUS
 62
256
 10
-123.788105207702070
 20
-76.712602260376286
 11
-123.520648192609940
 21
-77.388544984588378
  0
LINE
  8
0
  6
CONTINUOUS
 62
256
 10
-123.878414389806890
 20
-76.009645294175925
 11
-123.788105207702070
 21
-76.712602260376286
  0
LINE
  8
0
  6
CONTINUOUS
 62
256
 10
-123.788105207702070
 20
-75.306688327975564
 11
-123.878414389806890
 21
-76.009645294175925
  0
LINE
  8
0
  6
CONTINUOUS
 62
256
 10
-123.520648192609940
 20
-74.630745603763472
 11
-123.788105207702070
 21
-75.306688327975564
  0
LINE
  8
0
  6
CONTINUOUS
 62
256
 10
-123.086321567628840
 20
-74.007793221358071
 11
-123.520648192609940
 21
-74.630745603763472
  0
LINE
  8
0
  6
CONTINUOUS
 62
256
 10
-122.501816261383670
 20
-73.461770891459494
 11
-123.086321567628840
 21
-74.007793221358071
  0
LINE
  8
0
  6
CONTINUOUS
 62
256
 10
-121.789594484999010
 20
-73.013661945992880
 11
-122.501816261383670
 21
-73.461770891459494
  0
LINE
  8
0
  6
CONTINUOUS
 62
256
 10
-120.977026521922820
 20
-72.680686960430108
 11
-121.789594484999010
 21
-73.013661945992880
  0
LINE
  8
0
  6
CONTINUOUS
 62
256
 10
-120.095338903282690
 20
-72.475641976731865
 11
-120.977026521922820
 21
-72.680686960430108
  0
LINE
  8
0
  6
CONTINUOUS
 62
256
 10
-119.178414389806900
 20
-72.406406758631093
 11
-120.095338903282690
 21
-72.475641976731865
  0
LINE
  8
0
  6
CONTINUOUS
 62
256
 10
-118.261489876331080
 20
-72.475641976731865
 11
-119.178414389806900
 21
-72.406406758631093
  0
LINE
  8
0
  6
CONTINUOUS
 62
256
 10
-117.379802257690980
 20
-72.680686960430108
 11
-118.261489876331080
 21
-72.475641976731865
  0
LINE
  8
0
  6
CONTINUOUS
 62
256
 10
-116.567234294614760
 20
-73.013661945992880
 11
-117.379802257690980
 21
-72.680686960430108
  0
LINE
  8
0
  6
CONTINUOUS
 62
256
 10
-115.855012518230140
 20
-73.461770891459494
 11
-116.567234294614760
 21
-73.013661945992880
  0
LINE
  8
0
  6
CONTINUOUS
 62
256
 10
-115.270507211984930
 20
-74.007793221358071
 11
-115.855012518230140
 21
-73.461770891459494
  0
LINE
  8
0
  6
CONTINUOUS
 62
256
 10
-114.836180587003870
 20
-74.630745603763472
 11
-115.270507211984930
 21
-74.007793221358071
  0
LINE
  8
0
  6
CONTINUOUS
 62
256
 10
-114.568723571911730
 20
-75.306688327975564
 11
-114.836180587003870
 21
-74.630745603763472
  0
LINE
  8
0
  6
CONTINUOUS
 62
256
 10
-114.478414389806910
 20
-76.009645294175925
 11
-114.568723571911730
 21
-75.306688327975564
  0
ARC
  8
0
  6
CONTINUOUS
 62
256
 10
-156.578414389757200
 20
-175.376375383481450
 40
2.600000000000136
 50
180.000000000000000
 51
234.999999999998810
  0
LINE
  8
0
  6
CONTINUOUS
 62
256
 10
-148.343967339248820
 20
-184.316211212015790
 11
-158.069713124269810
 21
-177.506170698632560
  0
ARC
  8
0
  6
CONTINUOUS
 62
256
 10
-136.872438612227820
 20
-167.933170326236000
 40
20.000000000000007
 50
234.999999999999740
 51
270.000000000000000
  0
LINE
  8
0
  6
CONTINUOUS
 62
256
 10
-159.178414389757340
 20
-127.933170326236000
 11
-159.178414389757340
 21
-175.376375383481450
  0
LINE
  8
0
  6
CONTINUOUS
 62
256
 10
-108.178414389807470
 20
-187.933170326236000
 11
-136.872438612227820
 21
-187.933170326236000
  0
LINE
  8
0
  6
CONTINUOUS
 62
256
 10
40.821585610192415
 20
-186.433170326236000
 11
-108.178414389807470
 21
-186.433170326236000
  0
LINE
  8
0
  6
CONTINUOUS
 62
256
 10
-118.178414389807340
 20
-162.933170326236000
 11
-118.178414389807340
 21
-127.933170326236000
  0
ARC
  8
0
  6
CONTINUOUS
 62
256
 10
-111.178414389807470
 20
-168.933170326236000
 40
3.000000000000000
 50
0.000000000000000
 51
90.000000000000000
  0
LINE
  8
0
  6
CONTINUOUS
 62
256
 10
-111.178414389807470
 20
-165.933170326236000
 11
-115.178414389807340
 21
-165.933170326236000
  0
ARC
  8
0
  6
CONTINUOUS
 62
256
 10
-115.178414389807340
 20
-162.933170326236000
 40
3.000000000000000
 50
180.000000000000000
 51
270.000000000000000
  0
LINE
  8
0
  6
CONTINUOUS
 62
256
 10
-108.178414389807470
 20
-168.933170326236000
 11
-108.178414389807470
 21
-187.933170326236000
  0
LINE
  8
0
  6
CONTINUOUS
 62
256
 10
-43.178414389807472
 20
-159.433170326236000
 11
-114.178414389807340
 21
-159.433170326236000
  0
ARC
  8
0
  6
CONTINUOUS
 62
256
 10
-114.178414389807340
 20
-157.433170326236000
 40
2.000000000000000
 50
180.000000000000000
 51
270.000000000000000
  0
LINE
  8
0
  6
CONTINUOUS
 62
256
 10
-116.178414389807340
 20
-127.933170326236000
 11
-116.178414389807340
 21
-157.433170326236000
  0
LINE
  8
0
  6
CONTINUOUS
 62
256
 10
-41.178414389807472
 20
-127.933170326236000
 11
-41.178414389807472
 21
-157.433170326236000
  0
ARC
  8
0
  6
CONTINUOUS
 62
256
 10
-43.178414389807472
 20
-157.433170326236000
 40
2.000000000000000
 50
270.000000000000000
 51
0.000000000000000
  0
ARC
  8
0
  6
CONTINUOUS
 62
256
 10
-43.178414389807472
 20
-156.933170326236000
 40
1.000000000000000
 50
270.000000000000000
 51
0.000000000000000
  0
ARC
  8
0
  6
CONTINUOUS
 62
256
 10
-114.178414389807340
 20
-156.933170326236000
 40
1.000000000000000
 50
180.000000000000000
 51
270.000000000000000
  0
LINE
  8
0
  6
CONTINUOUS
 62
256
 10
-43.178414389807472
 20
-157.933170326236000
 11
-114.178414389807340
 21
-157.933170326236000
  0
LINE
  8
0
  6
DASHDOT
 62
256
 10
88.349034720237341
 20
-127.933170326236000
 11
-175.944996140538480
 21
-127.933170326236000
  0
LINE
  8
0
  6
CONTINUOUS
 62
256
 10
-118.178414389807340
 20
-159.683962042610350
 11
40.821585610192415
 21
-159.683962042610350
  0
LINE
  8
0
  6
CONTINUOUS
 62
256
 10
-118.092078178804290
 20
-163.647707466409880
 11
40.821585610192415
 21
-163.647707466409880
  0
LINE
  8
0
  6
CONTINUOUS
 62
256
 10
-117.081406948187560
 20
-165.252355381971940
 11
40.821585610192415
 21
-165.252355381971940
  0
LINE
  8
0
  6
CONTINUOUS
 62
256
 10
-108.178414389807470
 20
-173.298957044705730
 11
40.821585610192415
 21
-173.298957044705730
  0
LINE
  8
0
  6
CONTINUOUS
 62
256
 10
-108.178414389807470
 20
-178.248704513011490
 11
40.821585610192415
 21
-178.248704513011490
  0
LINE
  8
0
  6
CONTINUOUS
 62
256
 10
-108.178414389807470
 20
-182.933170326236000
 11
40.821585610192415
 21
-182.933170326236000
  0
LINE
  8
0
  6
CONTINUOUS
 62
256
 10
-108.178414389807470
 20
-183.933170326236000
 11
40.821585610192415
 21
-183.933170326236000
  0
LINE
  8
0
  6
CONTINUOUS
 62
256
 10
-108.178414389807470
 20
-185.433170326236000
 11
40.821585610192415
 21
-185.433170326236000
  0
LINE
  8
0
  6
CONTINUOUS
 62
256
 10
-108.178414389807470
 20
-184.933170326236000
 11
40.821585610192415
 21
-184.933170326236000
  0
LINE
  8
0
  6
CONTINUOUS
 62
256
 10
-118.178414389807340
 20
-147.933170326236000
 11
-116.178414389807340
 21
-147.933170326236000
  0
LINE
  8
0
  6
CONTINUOUS
 62
256
 10
-41.178414389807472
 20
-147.933170326236000
 11
40.821585610192415
 21
-147.933170326236000
  0
LINE
  8
0
  6
CONTINUOUS
 62
256
 10
-118.178414389807340
 20
-154.125104118715630
 11
-116.178414389807340
 21
-154.125104118715630
  0
LINE
  8
0
  6
CONTINUOUS
 62
256
 10
-41.178414389807472
 20
-154.125104118715630
 11
40.821585610192415
 21
-154.125104118715630
  0
LINE
  8
0
  6
CONTINUOUS
 62
256
 10
-118.178414389807340
 20
-152.763223783366360
 11
-116.178414389807340
 21
-152.763223783366360
  0
LINE
  8
0
  6
CONTINUOUS
 62
256
 10
-41.178414389807472
 20
-152.763223783366360
 11
40.821585610192415
 21
-152.763223783366360
  0
LINE
  8
0
  6
CONTINUOUS
 62
256
 10
-118.178414389807340
 20
-158.215604652805270
 11
-116.019011174713550
 21
-158.215604652805270
  0
LINE
  8
0
  6
CONTINUOUS
 62
256
 10
-41.337817604901375
 20
-158.215604652805270
 11
40.821585610192415
 21
-158.215604652805270
  0
LINE
  8
0
  6
CONTINUOUS
 62
256
 10
-42.178414389807472
 20
-156.933170326236000
 11
-42.178414389807472
 21
-127.933170326236000
  0
LINE
  8
0
  6
CONTINUOUS
 62
256
 10
-115.178414389807340
 20
-156.933170326236000
 11
-115.178414389807590
 21
-127.933170326236000
  0
ARC
  8
0
  6
CONTINUOUS
 62
256
 10
-156.578414389757200
 20
-80.489965268990545
 40
2.599999999999721
 50
125.000000000001380
 51
180.000000000000000
  0
LINE
  8
0
  6
CONTINUOUS
 62
256
 10
-148.343967339248820
 20
-71.550129440456203
 11
-158.069713124269810
 21
-78.360169953839431
  0
ARC
  8
0
  6
CONTINUOUS
 62
256
 10
-136.872438612227820
 20
-87.933170326235995
 40
20.000000000000000
 50
90.000000000000000
 51
125.000000000000240
  0
LINE
  8
0
  6
CONTINUOUS
 62
256
 10
-159.178414389757340
 20
-127.933170326236000
 11
-159.178414389757340
 21
-80.489965268990545
  0
LINE
  8
0
  6
CONTINUOUS
 62
256
 10
-108.178414389807470
 20
-67.933170326235995
 11
-136.872438612227820
 21
-67.933170326235995
  0
LINE
  8
0
  6
CONTINUOUS
 62
256
 10
40.821585610192415
 20
-69.433170326235995
 11
-108.178414389807470
 21
-69.433170326235995
  0
LINE
  8
0
  6
CONTINUOUS
 62
256
 10
-118.178414389807340
 20
-92.933170326235995
 11
-118.178414389807340
 21
-127.933170326236000
  0
ARC
  8
0
  6
CONTINUOUS
 62
256
 10
-111.178414389807470
 20
-86.933170326235995
 40
3.000000000000000
 50
270.000000000000000
 51
0.000000000000000
  0
LINE
  8
0
  6
CONTINUOUS
 62
256
 10
-111.178414389807470
 20
-89.933170326235995
 11
-115.178414389807340
 21
-89.933170326235995
  0
ARC
  8
0
  6
CONTINUOUS
 62
256
 10
-115.178414389807340
 20
-92.933170326235995
 40
3.000000000000000
 50
90.000000000000000
 51
180.000000000000000
  0
LINE
  8
0
  6
CONTINUOUS
 62
256
 10
-108.178414389807470
 20
-86.933170326235995
 11
-108.178414389807470
 21
-67.933170326235995
  0
LINE
  8
0
  6
CONTINUOUS
 62
256
 10
-43.178414389807472
 20
-96.433170326235995
 11
-114.178414389807340
 21
-96.433170326235995
  0
ARC
  8
0
  6
CONTINUOUS
 62
256
 10
-114.178414389807340
 20
-98.433170326235995
 40
2.000000000000000
 50
90.000000000000000
 51
180.000000000000000
  0
LINE
  8
0
  6
CONTINUOUS
 62
256
 10
-116.178414389807340
 20
-127.933170326236000
 11
-116.178414389807340
 21
-98.433170326235995
  0
LINE
  8
0
  6
CONTINUOUS
 62
256
 10
-41.178414389807472
 20
-127.933170326236000
 11
-41.178414389807472
 21
-98.433170326235995
  0
ARC
  8
0
  6
CONTINUOUS
 62
256
 10
-43.178414389807472
 20
-98.433170326235995
 40
2.000000000000000
 50
0.000000000000000
 51
90.000000000000000
  0
ARC
  8
0
  6
CONTINUOUS
 62
256
 10
-43.178414389807472
 20
-98.933170326235995
 40
1.000000000000000
 50
0.000000000000000
 51
90.000000000000000
  0
ARC
  8
0
  6
CONTINUOUS
 62
256
 10
-114.178414389807340
 20
-98.933170326235995
 40
1.000000000000000
 50
90.000000000000000
 51
180.000000000000000
  0
LINE
  8
0
  6
CONTINUOUS
 62
256
 10
-43.178414389807472
 20
-97.933170326235995
 11
-114.178414389807340
 21
-97.933170326235995
  0
LINE
  8
0
  6
CONTINUOUS
 62
256
 10
-118.178414389807340
 20
-96.182378609861644
 11
40.821585610192415
 21
-96.182378609861644
  0
LINE
  8
0
  6
CONTINUOUS
 62
256
 10
-118.092078178804290
 20
-92.218633186062107
 11
40.821585610192415
 21
-92.218633186062107
  0
LINE
  8
0
  6
CONTINUOUS
 62
256
 10
-117.081406948187560
 20
-90.613985270500052
 11
40.821585610192415
 21
-90.613985270500052
  0
LINE
  8
0
  6
CONTINUOUS
 62
256
 10
-108.178414389807470
 20
-82.567383607766260
 11
40.821585610192415
 21
-82.567383607766260
  0
LINE
  8
0
  6
CONTINUOUS
 62
256
 10
-108.178414389807470
 20
-77.617636139460501
 11
40.821585610192415
 21
-77.617636139460501
  0
LINE
  8
0
  6
CONTINUOUS
 62
256
 10
-108.178414389807470
 20
-72.933170326235995
 11
40.821585610192415
 21
-72.933170326235995
  0
LINE
  8
0
  6
CONTINUOUS
 62
256
 10
-108.178414389807470
 20
-71.933170326235995
 11
40.821585610192415
 21
-71.933170326235995
  0
LINE
  8
0
  6
CONTINUOUS
 62
256
 10
-108.178414389807470
 20
-70.433170326235995
 11
40.821585610192415
 21
-70.433170326235995
  0
LINE
  8
0
  6
CONTINUOUS
 62
256
 10
-108.178414389807470
 20
-70.933170326235995
 11
40.821585610192415
 21
-70.933170326235995
  0
LINE
  8
0
  6
CONTINUOUS
 62
256
 10
-118.178414389807340
 20
-107.933170326236000
 11
-116.178414389807340
 21
-107.933170326236000
  0
LINE
  8
0
  6
CONTINUOUS
 62
256
 10
-41.178414389807472
 20
-107.933170326236000
 11
40.821585610192415
 21
-107.933170326236000
  0
LINE
  8
0
  6
CONTINUOUS
 62
256
 10
-118.178414389807340
 20
-101.741236533756360
 11
-116.178414389807340
 21
-101.741236533756360
  0
LINE
  8
0
  6
CONTINUOUS
 62
256
 10
-41.178414389807472
 20
-101.741236533756360
 11
40.821585610192415
 21
-101.741236533756360
  0
LINE
  8
0
  6
CONTINUOUS
 62
256
 10
-118.178414389807340
 20
-103.103116869105630
 11
-116.178414389807340
 21
-103.103116869105630
  0
LINE
  8
0
  6
CONTINUOUS
 62
256
 10
-41.178414389807472
 20
-103.103116869105630
 11
40.821585610192415
 21
-103.103116869105630
  0
LINE
  8
0
  6
CONTINUOUS
 62
256
 10
-118.178414389807340
 20
-97.650735999666722
 11
-116.019011174713550
 21
-97.650735999666722
  0
LINE
  8
0
  6
CONTINUOUS
 62
256
 10
-41.337817604901375
 20
-97.650735999666722
 11
40.821585610192415
 21
-97.650735999666722
  0
LINE
  8
0
  6
CONTINUOUS
 62
256
 10
-42.178414389807472
 20
-98.933170326235995
 11
-42.178414389807472
 21
-127.933170326236000
  0
LINE
  8
0
  6
CONTINUOUS
 62
256
 10
-115.178414389807340
 20
-98.933170326235995
 11
-115.178414389807590
 21
-127.933170326236000
  0
ARC
  8
0
  6
CONTINUOUS
 62
256
 10
383.572338386082950
 20
-141.975670326236010
 40
20.800000000000008
 50
232.020127555148210
 51
265.808273843992540
  0
ARC
  8
0
  6
CONTINUOUS
 62
256
 10
381.572338386082950
 20
-101.975670326236010
 40
18.799999999999983
 50
100.598785266066060
 51
125.062390376430240
  0
ARC
  8
0
  6
CONTINUOUS
 62
256
 10
383.572338386082950
 20
-141.975670326236010
 40
20.799999999999915
 50
334.359929784105190
 51
5.724810452223412
  0
ARC
  8
0
  6
CONTINUOUS
 62
256
 10
383.572338386082950
 20
-141.975670326236010
 40
20.800000000000040
 50
279.916536608230560
 51
334.359929784105190
  0
ARC
  8
0
  6
CONTINUOUS
 62
256
 10
383.572338386082950
 20
-141.975670326236010
 40
20.799999999999915
 50
334.359929784105190
 51
5.724810452223412
  0
ARC
  8
0
  6
CONTINUOUS
 62
256
 10
377.746583751996010
 20
-81.530533949098299
 40
1.999999999999958
 50
280.598785266065990
 51
2.862405226112642
  0
ARC
  8
0
  6
CONTINUOUS
 62
256
 10
383.339596849711820
 20
-81.250883294212485
 40
1.999999999999927
 50
182.862405226112710
 51
265.126025186159040
  0
ARC
  8
0
  6
CONTINUOUS
 62
256
 10
381.905791119699420
 20
-164.714681303165320
 40
1.999999999999927
 50
2.862405226112724
 51
85.808273843998279
  0
LINE
  8
0
  6
CONTINUOUS
 62
256
 10
380.074209877766180
 20
-72.013100159900773
 11
385.167846806043140
 21
-173.885838725440860
  0
ARC
  8
0
  6
CONTINUOUS
 62
256
 10
387.498804217415230
 20
-164.435030648279510
 40
1.999999999999995
 50
99.916536608232732
 51
182.862405226112630
  0
LINE
  8
0
  6
CONTINUOUS
 62
256
 10
404.268597737703890
 20
-139.900857358655000
 11
400.278572800047870
 21
-100.100358605537740
  0
ARC
  8
0
  6
CONTINUOUS
 62
256
 10
381.572338386082950
 20
-101.975670326236010
 40
18.799999999999933
 50
35.808626813495742
 51
85.126025186157236
  0
ARC
  8
0
  6
CONTINUOUS
 62
256
 10
381.572338386082950
 20
-101.975670326236010
 40
18.799999999999837
 50
5.724810452223617
 51
35.808626813495707
  0
LINE
  8
0
  6
CONTINUOUS
 62
256
 10
380.873211748868470
 20
-71.973150066345625
 11
379.275208006663890
 21
-72.053050253455808
  0
ARC
  8
0
  6
CONTINUOUS
 62
256
 10
374.730885245762920
 20
-77.286512490125915
 40
8.999999999999949
 50
346.260856815786500
 51
19.463936333592169
  0
POINT
  8
0
  6
CONTINUOUS
 62
256
 10
381.122899833587330
 20
-76.966911760734661
  0
LINE
  8
0
  6
CONTINUOUS
 62
256
 10
380.948118174283760
 20
-73.471278574662279
 11
381.297681492890890
 21
-80.462544946807157
  0
LINE
  8
0
  6
CONTINUOUS
 62
256
 10
380.948118174283760
 20
-73.471278574662279
 11
381.297681492890890
 21
-80.462544946807157
  0
LINE
  8
0
  6
CONTINUOUS
 62
256
 10
381.297681492890890
 20
-80.462544946807157
 11
382.275485305398660
 21
-80.413654756181813
  0
LINE
  8
0
  6
CONTINUOUS
 62
256
 10
380.948118174283760
 20
-73.471278574662279
 11
381.925921986791310
 21
-73.422388384036935
  0
ARC
  8
0
  6
CONTINUOUS
 62
256
 10
382.210566441470970
 20
-79.115277477628183
 40
1.299999237060550
 50
272.862387240019760
 51
346.260856815788600
  0
ARC
  8
0
  6
CONTINUOUS
 62
256
 10
381.990840850719000
 20
-74.720765662590452
 40
1.299999237060645
 50
19.463936333587128
 51
92.862405909347800
  0
LINE
  8
0
  6
CONTINUOUS
 62
256
 10
380.873211748868470
 20
-71.973150066345625
 11
385.966848677145440
 21
-173.845888631885600
  0
LINE
  8
0
  6
DASHED
 62
256
 10
384.368844934940850
 20
-173.925788818996580
 11
385.966848677145440
 21
-173.845888631885600
  0
LINE
  8
0
  6
CONTINUOUS
 62
256
 10
379.275208006663890
 20
-72.053050253455808
 11
384.368844934940850
 21
-173.925788818996580
  0
INSERT
  8
0
  2
ZU_SYM_1
 10
385.717160592426350
 20
-168.852126937496450
 41
-1.000000000000000
 42
1.000000000000000
 43
1.000000000000000
 50
2.862405226113666
  0
ARC
  8
0
  6
CONTINUOUS
 62
256
 10
169.421602502900440
 20
119.794656553855930
 40
0.400000000000091
 50
0.000000000000000
 51
90.000000000000000
  0
LINE
  8
0
  6
CONTINUOUS
 62
256
 10
169.821602502900530
 20
110.694656553855570
 11
169.821602502900530
 21
119.794656553855930
  0
LINE
  8
0
  6
DASHED
 62
256
 10
-46.678414389808495
 20
32.694656553855793
 11
-46.678414389808495
 21
47.194656553855793
  0
LINE
  8
0
  6
DASHED
 62
256
 10
-60.678414389808495
 20
32.694656553855793
 11
-60.678414389808495
 21
47.194656553855793
  0
ARC
  8
0
  6
DASHED
 62
256
 10
-53.678414389808495
 20
32.694656553855793
 40
7.000000000000000
 50
180.000000000000000
 51
0.000000000000000
  0
CIRCLE
  8
0
  6
DASHED
 62
256
 10
-53.678414389808495
 20
32.694656553855793
 40
6.000000000000000
  0
LINE
  8
0
  6
DASHED
 62
256
 10
-96.678414389808495
 20
32.694656553855793
 11
-96.678414389808495
 21
47.194656553855793
  0
LINE
  8
0
  6
DASHED
 62
256
 10
-110.678414389808490
 20
32.694656553855793
 11
-110.678414389808490
 21
47.194656553855793
  0
ARC
  8
0
  6
DASHED
 62
256
 10
-103.678414389808490
 20
32.694656553855793
 40
7.000000000000000
 50
180.000000000000000
 51
0.000000000000000
  0
LINE
  8
0
  6
DASHDOT
 62
256
 10
-53.678414389808495
 20
23.750499296179669
 11
-53.678414389808495
 21
45.730001428715013
  0
LINE
  8
0
  6
DASHDOT
 62
256
 10
-64.961943805535157
 20
32.694656553855793
 11
-43.194966397006851
 21
32.694656553855793
  0
LINE
  8
0
  6
DASHDOT
 62
256
 10
-103.678414389808490
 20
23.750499296179669
 11
-103.678414389808490
 21
45.298988276711725
  0
LINE
  8
0
  6
DASHDOT
 62
256
 10
-112.764103496392050
 20
32.694656553855793
 11
-92.277515262682755
 21
32.694656553855793
  0
LINE
  8
0
  6
DASHDOT
 62
256
 10
178.573886977641910
 20
110.694656553855570
 11
-181.112471230443130
 21
110.694656553855570
  0
LINE
  8
0
  6
DASHDOT
 62
256
 10
16.321585610191505
 20
170.194656553855340
 11
16.321585610191505
 21
175.194656553855340
  0
LINE
  8
0
  6
CONTINUOUS
 62
256
 10
-107.678414389808490
 20
175.194656553855340
 11
16.321585610191505
 21
175.194656553855340
  0
LINE
  8
0
  6
CONTINUOUS
 62
256
 10
5.821585610191505
 20
193.855681613542170
 11
-97.178414389808495
 21
193.855681613542170
  0
ARC
  8
0
  6
CONTINUOUS
 62
256
 10
11.321585610191505
 20
198.855681613542170
 40
5.000000000000073
 50
287.457603123721870
 51
0.000000000000000
  0
ARC
  8
0
  6
CONTINUOUS
 62
256
 10
11.521585610191323
 20
194.532227739284510
 40
1.300000000000182
 50
0.000000000000000
 51
73.398450400977822
  0
ARC
  8
0
  6
CONTINUOUS
 62
256
 10
9.321585610191505
 20
187.153203413535040
 40
9.000000000000123
 50
73.398450400980877
 51
106.601549599019120
  0
ARC
  8
0
  6
CONTINUOUS
 62
256
 10
7.121585610191687
 20
194.532227739284510
 40
1.300000000000019
 50
106.601549599022380
 51
180.000000000000000
  0
LINE
  8
0
  6
CONTINUOUS
 62
256
 10
12.821585610191505
 20
194.532227739284510
 11
12.821585610191505
 21
193.545218001360130
  0
LINE
  8
0
  6
CONTINUOUS
 62
256
 10
12.754334091602809
 20
193.511119791164130
 11
12.821585610191503
 21
193.545218001360130
  0
LINE
  8
0
  6
CONTINUOUS
 62
256
 10
12.555163973981006
 20
193.478331956063500
 11
12.754334091602809
 21
193.511119791164130
  0
LINE
  8
0
  6
CONTINUOUS
 62
256
 10
12.231729253250410
 20
193.448114514173480
 11
12.555163973981006
 21
193.478331956063500
  0
LINE
  8
0
  6
CONTINUOUS
 62
256
 10
11.796459344344420
 20
193.421628704839780
 11
12.231729253250410
 21
193.448114514173480
  0
LINE
  8
0
  6
CONTINUOUS
 62
256
 10
11.266081425760111
 20
193.399892362861690
 11
11.796459344344420
 21
193.421628704839780
  0
LINE
  8
0
  6
CONTINUOUS
 62
256
 10
10.660977623469318
 20
193.383740803671510
 11
11.266081425760111
 21
193.399892362861690
  0
LINE
  8
0
  6
CONTINUOUS
 62
256
 10
10.004401737247953
 20
193.373794722631060
 11
10.660977623469318
 21
193.383740803671510
  0
LINE
  8
0
  6
CONTINUOUS
 62
256
 10
9.321585610191505
 20
193.370436342056910
 11
10.004401737247953
 21
193.373794722631060
  0
LINE
  8
0
  6
CONTINUOUS
 62
256
 10
8.638769483135055
 20
193.373794722631060
 11
9.321585610191505
 21
193.370436342056910
  0
LINE
  8
0
  6
CONTINUOUS
 62
256
 10
7.982193596913691
 20
193.383740803671510
 11
8.638769483135055
 21
193.373794722631060
  0
LINE
  8
0
  6
CONTINUOUS
 62
256
 10
7.377089794622897
 20
193.399892362861690
 11
7.982193596913691
 21
193.383740803671510
  0
LINE
  8
0
  6
CONTINUOUS
 62
256
 10
6.846711876038588
 20
193.421628704839780
 11
7.377089794622897
 21
193.399892362861690
  0
LINE
  8
0
  6
CONTINUOUS
 62
256
 10
6.411441967132596
 20
193.448114514173480
 11
6.846711876038588
 21
193.421628704839780
  0
LINE
  8
0
  6
CONTINUOUS
 62
256
 10
6.088007246402002
 20
193.478331956063500
 11
6.411441967132596
 21
193.448114514173480
  0
LINE
  8
0
  6
CONTINUOUS
 62
256
 10
5.888837128780199
 20
193.511119791164130
 11
6.088007246402002
 21
193.478331956063500
  0
LINE
  8
0
  6
CONTINUOUS
 62
256
 10
5.821585610191505
 20
193.545218001360130
 11
5.888837128780199
 21
193.511119791164130
  0
LINE
  8
0
  6
CONTINUOUS
 62
256
 10
5.821585610191505
 20
194.532227739284510
 11
5.821585610191505
 21
193.545218001360130
  0
ARC
  8
0
  6
CONTINUOUS
 62
256
 10
-102.678414389808490
 20
198.855681613542170
 40
5.000000000000000
 50
180.000000000000000
 51
252.542396876278100
  0
LINE
  8
0
  6
CONTINUOUS
 62
256
 10
-104.178414389808490
 20
194.532227739284510
 11
-104.178414389808490
 21
193.545218001360130
  0
LINE
  8
0
  6
CONTINUOUS
 62
256
 10
-97.178414389808495
 20
194.532227739284510
 11
-97.178414389808495
 21
193.545218001360130
  0
ARC
  8
0
  6
CONTINUOUS
 62
256
 10
-102.878414389808310
 20
194.532227739284510
 40
1.300000000000019
 50
106.601549599022380
 51
180.000000000000000
  0
ARC
  8
0
  6
CONTINUOUS
 62
256
 10
-100.678414389808490
 20
187.153203413535040
 40
9.000000000000123
 50
73.398450400980863
 51
106.601549599019150
  0
ARC
  8
0
  6
CONTINUOUS
 62
256
 10
-98.478414389808677
 20
194.532227739284510
 40
1.300000000000182
 50
0.000000000000000
 51
73.398450400977964
  0
LINE
  8
0
  6
CONTINUOUS
 62
256
 10
-97.245665908397186
 20
193.511119791164130
 11
-97.178414389808495
 21
193.545218001360130
  0
LINE
  8
0
  6
CONTINUOUS
 62
256
 10
-97.444836026018990
 20
193.478331956063500
 11
-97.245665908397186
 21
193.511119791164130
  0
LINE
  8
0
  6
CONTINUOUS
 62
256
 10
-97.768270746749593
 20
193.448114514173480
 11
-97.444836026018990
 21
193.478331956063500
  0
LINE
  8
0
  6
CONTINUOUS
 62
256
 10
-98.203540655655587
 20
193.421628704839780
 11
-97.768270746749593
 21
193.448114514173480
  0
LINE
  8
0
  6
CONTINUOUS
 62
256
 10
-98.733918574239894
 20
193.399892362861690
 11
-98.203540655655587
 21
193.421628704839780
  0
LINE
  8
0
  6
CONTINUOUS
 62
256
 10
-99.339022376530679
 20
193.383740803671510
 11
-98.733918574239894
 21
193.399892362861690
  0
LINE
  8
0
  6
CONTINUOUS
 62
256
 10
-99.995598262752054
 20
193.373794722631060
 11
-99.339022376530679
 21
193.383740803671510
  0
LINE
  8
0
  6
CONTINUOUS
 62
256
 10
-100.678414389808490
 20
193.370436342056910
 11
-99.995598262752054
 21
193.373794722631060
  0
LINE
  8
0
  6
CONTINUOUS
 62
256
 10
-101.361230516864950
 20
193.373794722631060
 11
-100.678414389808490
 21
193.370436342056910
  0
LINE
  8
0
  6
CONTINUOUS
 62
256
 10
-102.017806403086310
 20
193.383740803671510
 11
-101.361230516864950
 21
193.373794722631060
  0
LINE
  8
0
  6
CONTINUOUS
 62
256
 10
-102.622910205377110
 20
193.399892362861690
 11
-102.017806403086310
 21
193.383740803671510
  0
LINE
  8
0
  6
CONTINUOUS
 62
256
 10
-103.153288123961420
 20
193.421628704839780
 11
-102.622910205377110
 21
193.399892362861690
  0
LINE
  8
0
  6
CONTINUOUS
 62
256
 10
-103.588558032867400
 20
193.448114514173480
 11
-103.153288123961420
 21
193.421628704839780
  0
LINE
  8
0
  6
CONTINUOUS
 62
256
 10
-103.911992753598000
 20
193.478331956063500
 11
-103.588558032867400
 21
193.448114514173480
  0
LINE
  8
0
  6
CONTINUOUS
 62
256
 10
-104.111162871219800
 20
193.511119791164130
 11
-103.911992753598000
 21
193.478331956063500
  0
LINE
  8
0
  6
CONTINUOUS
 62
256
 10
-104.178414389808490
 20
193.545218001360130
 11
-104.111162871219800
 21
193.511119791164130
  0
LINE
  8
0
  6
CONTINUOUS
 62
256
 10
16.321585610191505
 20
198.855681613542170
 11
16.321585610191505
 21
211.794656553855250
  0
ARC
  8
0
  6
CONTINUOUS
 62
256
 10
11.321585610191505
 20
180.194656553855340
 40
5.000000000000000
 50
270.000000000000000
 51
0.000000000000000
  0
LINE
  8
0
  6
CONTINUOUS
 62
256
 10
-107.678414389808490
 20
198.855681613542170
 11
-107.678414389808490
 21
211.794656553855250
  0
LINE
  8
0
  6
CONTINUOUS
 62
256
 10
-107.678414389808490
 20
198.389166844917550
 11
-108.678414389808490
 21
198.389166844917550
  0
LINE
  8
0
  6
CONTINUOUS
 62
256
 10
17.321585610191505
 20
193.295529916640360
 11
-108.678414389808490
 21
193.295529916640360
  0
ARC
  8
0
  6
CONTINUOUS
 62
256
 10
-102.678414389808490
 20
180.194656553855340
 40
5.000000000000000
 50
180.000000000000000
 51
270.000000000000000
  0
ARC
  8
0
  6
CONTINUOUS
 62
256
 10
-102.678414389808490
 20
211.794656553855250
 40
5.000000000000000
 50
90.000000000000000
 51
180.000000000000000
  0
ARC
  8
0
  6
CONTINUOUS
 62
256
 10
-108.678414389808490
 20
196.389166844917550
 40
2.000000000000000
 50
90.000000000000000
 51
180.000000000000000
  0
ARC
  8
0
  6
CONTINUOUS
 62
256
 10
-108.678414389808490
 20
195.295529916640360
 40
2.000000000000000
 50
180.000000000000000
 51
270.000000000000000
  0
ARC
  8
0
  6
CONTINUOUS
 62
256
 10
-108.678414389808490
 20
194.496528045555120
 40
2.000000000000000
 50
180.000000000000000
 51
270.000000000000000
  0
LINE
  8
0
  6
CONTINUOUS
 62
256
 10
-110.678414389808490
 20
196.389166844917550
 11
-110.678414389808490
 21
193.697526174436230
  0
ARC
  8
0
  6
CONTINUOUS
 62
256
 10
-108.678414389808490
 20
193.697526174436230
 40
2.000000000000000
 50
180.000000000000000
 51
270.000000000000000
  0
LINE
  8
0
  6
CONTINUOUS
 62
256
 10
-107.678414389808490
 20
180.194656553855340
 11
-107.678414389808490
 21
191.697526174436230
  0
ARC
  8
0
  6
CONTINUOUS
 62
256
 10
11.321585610191505
 20
211.794656553855250
 40
5.000000000000000
 50
0.000000000000000
 51
90.000000000000000
  0
LINE
  8
0
  6
CONTINUOUS
 62
256
 10
-102.678414389808490
 20
216.794656553855250
 11
11.321585610191505
 21
216.794656553855250
  0
LINE
  8
0
  6
CONTINUOUS
 62
256
 10
16.321585610191505
 20
180.194656553855340
 11
16.321585610191505
 21
191.496528045555120
  0
LINE
  8
0
  6
CONTINUOUS
 62
256
 10
19.321585610191505
 20
196.389166844917550
 11
19.321585610191505
 21
193.697526174436230
  0
LINE
  8
0
  6
CONTINUOUS
 62
256
 10
17.321585610191505
 20
192.496528045538300
 11
-108.678414389808490
 21
192.496528045538300
  0
LINE
  8
0
  6
CONTINUOUS
 62
256
 10
17.321585610191505
 20
191.697526174436230
 11
-108.678414389808490
 21
191.697526174436230
  0
LINE
  8
0
  6
CONTINUOUS
 62
256
 10
16.321585610191505
 20
198.389166844917550
 11
17.321585610191505
 21
198.389166844917550
  0
ARC
  8
0
  6
CONTINUOUS
 62
256
 10
17.321585610191505
 20
196.389166844917550
 40
2.000000000000000
 50
0.000000000000000
 51
90.000000000000000
  0
ARC
  8
0
  6
CONTINUOUS
 62
256
 10
17.321585610191505
 20
195.295529916640360
 40
2.000000000000000
 50
270.000000000000000
 51
0.000000000000000
  0
ARC
  8
0
  6
CONTINUOUS
 62
256
 10
17.321585610191505
 20
194.496528045555120
 40
2.000000000000000
 50
270.000000000000000
 51
0.000000000000000
  0
ARC
  8
0
  6
CONTINUOUS
 62
256
 10
17.321585610191505
 20
193.697526174436230
 40
2.000000000000000
 50
270.000000000000000
 51
0.000000000000000
  0
LINE
  8
0
  6
CONTINUOUS
 62
256
 10
-107.678414389808490
 20
170.194656553855340
 11
-107.678414389808490
 21
175.194656553855340
  0
LINE
  8
0
  6
DASHDOT
 62
256
 10
16.321585610191505
 20
170.194656553855340
 11
16.321585610191505
 21
175.194656553855340
  0
LINE
  8
0
  6
CONTINUOUS
 62
256
 10
16.321585610191505
 20
170.194656553855340
 11
-107.678414389808490
 21
170.194656553855340
  0
LINE
  8
0
  6
CONTINUOUS
 62
256
 10
-41.178414389808495
 20
170.194656553855570
 11
40.821585610191505
 21
170.194656553855570
  0
LINE
  8
0
  6
CONTINUOUS
 62
256
 10
-108.178414389808490
 20
167.694656553855570
 11
45.969939065947386
 21
167.694656553855570
  0
LINE
  8
0
  6
CONTINUOUS
 62
256
 10
-108.178414389808490
 20
166.694656553855570
 11
46.722243533407095
 21
166.694656553855570
  0
LINE
  8
0
  6
CONTINUOUS
 62
256
 10
-108.178414389808490
 20
165.694656553855570
 11
47.707207332530942
 21
165.694656553855570
  0
LINE
  8
0
  6
CONTINUOUS
 62
256
 10
-108.178414389808490
 20
161.010190740631290
 11
66.321585610192415
 21
161.010190740631290
  0
LINE
  8
0
  6
CONTINUOUS
 62
256
 10
-108.178414389808490
 20
156.060443272325530
 11
66.321585610192415
 21
156.060443272325530
  0
LINE
  8
0
  6
CONTINUOUS
 62
256
 10
-108.178414389808490
 20
125.694656553855570
 11
66.321585610192415
 21
125.694656553855570
  0
LINE
  8
0
  6
CONTINUOUS
 62
256
 10
-108.178414389808490
 20
130.067918363356740
 11
66.321585610192415
 21
130.067918363356740
  0
LINE
  8
0
  6
CONTINUOUS
 62
256
 10
-108.178414389808490
 20
131.334156279443960
 11
66.321585610192415
 21
131.334156279443960
  0
LINE
  8
0
  6
CONTINUOUS
 62
256
 10
-108.178414389808490
 20
135.524710010986150
 11
66.321585610192415
 21
135.524710010986150
  0
LINE
  8
0
  6
CONTINUOUS
 62
256
 10
-108.178414389808490
 20
136.886590346335420
 11
66.321585610192415
 21
136.886590346335420
  0
LINE
  8
0
  6
CONTINUOUS
 62
256
 10
-108.178414389808490
 20
140.977090880425290
 11
66.321585610192415
 21
140.977090880425290
  0
LINE
  8
0
  6
CONTINUOUS
 62
256
 10
-108.178414389808490
 20
142.445448270229920
 11
66.321585610192415
 21
142.445448270229920
  0
LINE
  8
0
  6
CONTINUOUS
 62
256
 10
-108.178414389808490
 20
146.409193694029450
 11
66.321585610192415
 21
146.409193694029450
  0
LINE
  8
0
  6
CONTINUOUS
 62
256
 10
-108.178414389808490
 20
148.013841609591510
 11
66.321585610192415
 21
148.013841609591510
  0
LINE
  8
0
  6
CONTINUOUS
 62
256
 10
-108.178414389808490
 20
95.694656553855566
 11
66.321585610192415
 21
95.694656553855566
  0
LINE
  8
0
  6
CONTINUOUS
 62
256
 10
-108.178414389808490
 20
91.321394744354393
 11
66.321585610192415
 21
91.321394744354393
  0
LINE
  8
0
  6
CONTINUOUS
 62
256
 10
-108.178414389808490
 20
90.055156828267172
 11
66.321585610192415
 21
90.055156828267172
  0
LINE
  8
0
  6
CONTINUOUS
 62
256
 10
-108.178414389808490
 20
85.864603096724977
 11
66.321585610192415
 21
85.864603096724977
  0
LINE
  8
0
  6
CONTINUOUS
 62
256
 10
-108.178414389808490
 20
84.502722761375708
 11
66.321585610192415
 21
84.502722761375708
  0
LINE
  8
0
  6
CONTINUOUS
 62
256
 10
-108.178414389808490
 20
80.412222227285838
 11
66.321585610192415
 21
80.412222227285838
  0
LINE
  8
0
  6
CONTINUOUS
 62
256
 10
-108.178414389808490
 20
78.943864837481215
 11
66.321585610192415
 21
78.943864837481215
  0
LINE
  8
0
  6
CONTINUOUS
 62
256
 10
-108.178414389808490
 20
74.980119413681678
 11
66.321585610192415
 21
74.980119413681678
  0
LINE
  8
0
  6
CONTINUOUS
 62
256
 10
-108.178414389808490
 20
73.375471498119623
 11
66.321585610192415
 21
73.375471498119623
  0
LINE
  8
0
  6
CONTINUOUS
 62
256
 10
-108.178414389808490
 20
65.328869835385603
 11
66.321585610192415
 21
65.328869835385603
  0
LINE
  8
0
  6
CONTINUOUS
 62
256
 10
-108.178414389808490
 20
60.379122367079844
 11
66.321585610192415
 21
60.379122367079852
  0
LINE
  8
0
  6
CONTINUOUS
 62
256
 10
-108.178414389808490
 20
55.694656553855566
 11
47.707207332530942
 21
55.694656553855573
  0
LINE
  8
0
  6
CONTINUOUS
 62
256
 10
-108.178414389808490
 20
54.694656553855566
 11
46.722243533407095
 21
54.694656553855566
  0
LINE
  8
0
  6
CONTINUOUS
 62
256
 10
-108.178414389808490
 20
53.694656553855566
 11
45.969939065947386
 21
53.694656553855566
  0
LINE
  8
0
  6
CONTINUOUS
 62
256
 10
-41.178414389808495
 20
51.194656553855566
 11
40.821585610191505
 21
51.194656553855566
  0
LINE
  8
0
  6
CONTINUOUS
 62
256
 10
-108.178414389808490
 20
170.194656553855340
 11
40.821585610191505
 21
170.194656553855340
  0
ARC
  8
0
  6
CONTINUOUS
 62
256
 10
-115.178414389808250
 20
46.075435636982775
 40
3.000000000000000
 50
90.000000000000000
 51
180.000000000000000
  0
ARC
  8
0
  6
CONTINUOUS
 62
256
 10
-111.178414389808490
 20
52.075435636982775
 40
3.000000000000000
 50
270.000000000000000
 51
0.000000000000000
  0
LINE
  8
0
  6
CONTINUOUS
 62
256
 10
-118.178414389808250
 20
45.694656553855566
 11
-118.178414389808250
 21
46.075435636982775
  0
LINE
  8
0
  6
CONTINUOUS
 62
256
 10
-115.178414389808250
 20
49.075435636982775
 11
-111.178414389808490
 21
49.075435636982775
  0
LINE
  8
0
  6
CONTINUOUS
 62
256
 10
-41.178414389808495
 20
47.194656553855793
 11
-41.178414389808495
 21
52.194656553855793
  0
LINE
  8
0
  6
CONTINUOUS
 62
256
 10
-49.178414389808495
 20
17.194656553856021
 11
-57.178414389808495
 21
17.194656553856021
  0
LINE
  8
0
  6
CONTINUOUS
 62
256
 10
-57.178414389808495
 20
17.694656553856021
 11
-57.178414389808495
 21
17.194656553856021
  0
LINE
  8
0
  6
CONTINUOUS
 62
256
 10
-51.678414389808495
 20
17.694656553856021
 11
-51.678414389808495
 21
17.194656553856021
  0
LINE
  8
0
  6
CONTINUOUS
 62
256
 10
-49.178414389808495
 20
17.694656553856021
 11
-49.178414389808495
 21
17.194656553856021
  0
LINE
  8
0
  6
CONTINUOUS
 62
256
 10
-43.178414389808495
 20
17.694656553856021
 11
-114.178414389808250
 21
17.694656553856021
  0
ARC
  8
0
  6
CONTINUOUS
 62
256
 10
-114.178414389808250
 20
18.694656553856021
 40
1.000000000000000
 50
180.000000000000000
 51
270.000000000000000
  0
ARC
  8
0
  6
CONTINUOUS
 62
256
 10
-43.178414389808495
 20
18.694656553856021
 40
1.000000000000000
 50
270.000000000000000
 51
0.000000000000000
  0
LINE
  8
0
  6
CONTINUOUS
 62
256
 10
-42.178414389808495
 20
18.694656553856021
 11
-42.178414389808495
 21
47.194656553855793
  0
LINE
  8
0
  6
CONTINUOUS
 62
256
 10
-115.178414389808250
 20
18.694656553856021
 11
-115.178414389808250
 21
47.194656553855793
  0
LINE
  8
0
  6
CONTINUOUS
 62
256
 10
-41.178414389808495
 20
47.194656553855793
 11
-116.178414389808250
 21
47.194656553855793
  0
LINE
  8
0
  6
CONTINUOUS
 62
256
 10
-41.178414389808495
 20
52.194656553855793
 11
-108.178414389808490
 21
52.194656553855793
  0
LINE
  8
0
  6
CONTINUOUS
 62
256
 10
-116.178414389808250
 20
47.194656553855793
 11
-116.178414389808250
 21
48.903862761728988
  0
ARC
  8
0
  6
CONTINUOUS
 62
256
 10
-136.872438612228730
 20
65.694656553855566
 40
20.000000000000000
 50
234.999999999999740
 51
270.000000000000000
  0
LINE
  8
0
  6
CONTINUOUS
 62
256
 10
-118.178414389808250
 20
45.694656553855566
 11
-136.872438612228730
 21
45.694656553855566
  0
ARC
  8
0
  6
CONTINUOUS
 62
256
 10
-156.578414389758110
 20
58.251451496610116
 40
2.600000000000136
 50
180.000000000000000
 51
234.999999999998810
  0
LINE
  8
0
  6
CONTINUOUS
 62
256
 10
-148.343967339249730
 20
49.311615668075774
 11
-158.069713124270720
 21
56.121656181459002
  0
LINE
  8
0
  6
CONTINUOUS
 62
256
 10
-159.178414389758250
 20
110.694656553855570
 11
-159.178414389758250
 21
58.251451496610116
  0
LINE
  8
0
  6
CONTINUOUS
 62
256
 10
40.821585610191505
 20
51.194656553855566
 11
40.821585610191505
 21
110.694656553855570
  0
LINE
  8
0
  6
CONTINUOUS
 62
256
 10
-108.178414389808490
 20
110.694656553855570
 11
-108.178414389808490
 21
52.075435636982775
  0
ARC
  8
0
  6
CONTINUOUS
 62
256
 10
-156.578414389758110
 20
163.137861611101020
 40
2.599999999999721
 50
125.000000000001380
 51
180.000000000000000
  0
LINE
  8
0
  6
CONTINUOUS
 62
256
 10
-148.343967339249730
 20
172.077697439635360
 11
-158.069713124270720
 21
165.267656926252130
  0
ARC
  8
0
  6
CONTINUOUS
 62
256
 10
-136.872438612228730
 20
155.694656553855570
 40
20.000000000000000
 50
90.000000000000000
 51
125.000000000000240
  0
LINE
  8
0
  6
CONTINUOUS
 62
256
 10
-159.178414389758250
 20
110.694656553855570
 11
-159.178414389758250
 21
163.137861611101020
  0
LINE
  8
0
  6
CONTINUOUS
 62
256
 10
-108.178414389808490
 20
175.694656553855570
 11
-136.872438612228730
 21
175.694656553855570
  0
LINE
  8
0
  6
CONTINUOUS
 62
256
 10
40.821585610191505
 20
170.194656553855340
 11
40.821585610191505
 21
110.694656553855570
  0
LINE
  8
0
  6
CONTINUOUS
 62
256
 10
-108.178414389808490
 20
110.694656553855570
 11
-108.178414389808490
 21
175.694656553855570
  0
LINE
  8
0
  6
CONTINUOUS
 62
256
 10
-119.178414389807810
 20
164.434771654293170
 11
-121.178414389807810
 21
162.782130015169740
  0
LINE
  8
0
  6
CONTINUOUS
 62
256
 10
-117.178414389807810
 20
165.610557139915950
 11
-119.178414389807810
 21
164.434771654293170
  0
LINE
  8
0
  6
CONTINUOUS
 62
256
 10
-119.178414389807810
 20
164.434771654293170
 11
-117.178414389807810
 21
162.782130015169740
  0
LINE
  8
0
  6
CONTINUOUS
 62
256
 10
-121.178414389807810
 20
165.610557139915950
 11
-119.178414389807810
 21
164.434771654293170
  0
LINE
  8
0
  6
CONTINUOUS
 62
256
 10
-114.568723571912640
 20
161.915224619715270
 11
-114.478414389807820
 21
162.618181585915640
  0
LINE
  8
0
  6
CONTINUOUS
 62
256
 10
-114.836180587004780
 20
161.239281895503180
 11
-114.568723571912640
 21
161.915224619715270
  0
LINE
  8
0
  6
CONTINUOUS
 62
256
 10
-115.270507211985840
 20
160.616329513097780
 11
-114.836180587004780
 21
161.239281895503180
  0
LINE
  8
0
  6
CONTINUOUS
 62
256
 10
-115.855012518231050
 20
160.070307183199190
 11
-115.270507211985840
 21
160.616329513097780
  0
LINE
  8
0
  6
CONTINUOUS
 62
256
 10
-116.567234294615670
 20
159.622198237732560
 11
-115.855012518231050
 21
160.070307183199190
  0
LINE
  8
0
  6
CONTINUOUS
 62
256
 10
-117.379802257691890
 20
159.289223252169820
 11
-116.567234294615670
 21
159.622198237732560
  0
LINE
  8
0
  6
CONTINUOUS
 62
256
 10
-118.261489876332010
 20
159.084178268471560
 11
-117.379802257691890
 21
159.289223252169820
  0
LINE
  8
0
  6
CONTINUOUS
 62
256
 10
-119.178414389807810
 20
159.014943050370790
 11
-118.261489876332010
 21
159.084178268471560
  0
LINE
  8
0
  6
CONTINUOUS
 62
256
 10
-120.095338903283600
 20
159.084178268471560
 11
-119.178414389807810
 21
159.014943050370790
  0
LINE
  8
0
  6
CONTINUOUS
 62
256
 10
-120.977026521923730
 20
159.289223252169820
 11
-120.095338903283600
 21
159.084178268471560
  0
LINE
  8
0
  6
CONTINUOUS
 62
256
 10
-121.789594484999920
 20
159.622198237732560
 11
-120.977026521923730
 21
159.289223252169820
  0
LINE
  8
0
  6
CONTINUOUS
 62
256
 10
-122.501816261384580
 20
160.070307183199190
 11
-121.789594484999920
 21
159.622198237732560
  0
LINE
  8
0
  6
CONTINUOUS
 62
256
 10
-123.086321567629770
 20
160.616329513097780
 11
-122.501816261384580
 21
160.070307183199190
  0
LINE
  8
0
  6
CONTINUOUS
 62
256
 10
-123.520648192610840
 20
161.239281895503180
 11
-123.086321567629770
 21
160.616329513097780
  0
LINE
  8
0
  6
CONTINUOUS
 62
256
 10
-123.788105207702980
 20
161.915224619715270
 11
-123.520648192610840
 21
161.239281895503180
  0
LINE
  8
0
  6
CONTINUOUS
 62
256
 10
-123.878414389807800
 20
162.618181585915640
 11
-123.788105207702980
 21
161.915224619715270
  0
LINE
  8
0
  6
CONTINUOUS
 62
256
 10
-123.788105207702980
 20
163.321138552116000
 11
-123.878414389807800
 21
162.618181585915640
  0
LINE
  8
0
  6
CONTINUOUS
 62
256
 10
-123.520648192610840
 20
163.997081276328090
 11
-123.788105207702980
 21
163.321138552116000
  0
LINE
  8
0
  6
CONTINUOUS
 62
256
 10
-123.086321567629770
 20
164.620033658733490
 11
-123.520648192610840
 21
163.997081276328090
  0
LINE
  8
0
  6
CONTINUOUS
 62
256
 10
-122.501816261384580
 20
165.166055988632080
 11
-123.086321567629770
 21
164.620033658733490
  0
LINE
  8
0
  6
CONTINUOUS
 62
256
 10
-121.789594484999920
 20
165.614164934098710
 11
-122.501816261384580
 21
165.166055988632080
  0
LINE
  8
0
  6
CONTINUOUS
 62
256
 10
-120.977026521923730
 20
165.947139919661450
 11
-121.789594484999920
 21
165.614164934098710
  0
LINE
  8
0
  6
CONTINUOUS
 62
256
 10
-120.095338903283600
 20
166.152184903359710
 11
-120.977026521923730
 21
165.947139919661450
  0
LINE
  8
0
  6
CONTINUOUS
 62
256
 10
-119.178414389807810
 20
166.221420121460480
 11
-120.095338903283600
 21
166.152184903359710
  0
LINE
  8
0
  6
CONTINUOUS
 62
256
 10
-118.261489876332010
 20
166.152184903359710
 11
-119.178414389807810
 21
166.221420121460480
  0
LINE
  8
0
  6
CONTINUOUS
 62
256
 10
-117.379802257691890
 20
165.947139919661450
 11
-118.261489876332010
 21
166.152184903359710
  0
LINE
  8
0
  6
CONTINUOUS
 62
256
 10
-116.567234294615670
 20
165.614164934098710
 11
-117.379802257691890
 21
165.947139919661450
  0
LINE
  8
0
  6
CONTINUOUS
 62
256
 10
-115.855012518231050
 20
165.166055988632080
 11
-116.567234294615670
 21
165.614164934098710
  0
LINE
  8
0
  6
CONTINUOUS
 62
256
 10
-115.270507211985840
 20
164.620033658733490
 11
-115.855012518231050
 21
165.166055988632080
  0
LINE
  8
0
  6
CONTINUOUS
 62
256
 10
-114.836180587004780
 20
163.997081276328090
 11
-115.270507211985840
 21
164.620033658733490
  0
LINE
  8
0
  6
CONTINUOUS
 62
256
 10
-114.568723571912640
 20
163.321138552116000
 11
-114.836180587004780
 21
163.997081276328090
  0
LINE
  8
0
  6
CONTINUOUS
 62
256
 10
-114.478414389807820
 20
162.618181585915640
 11
-114.568723571912640
 21
163.321138552116000
  0
LINE
  8
0
  6
CONTINUOUS
 62
256
 10
-119.178414389807810
 20
56.954541453417733
 11
-121.178414389807810
 21
58.607183092541163
  0
LINE
  8
0
  6
CONTINUOUS
 62
256
 10
-117.178414389807810
 20
55.778755967795405
 11
-119.178414389807810
 21
56.954541453417733
  0
LINE
  8
0
  6
CONTINUOUS
 62
256
 10
-119.178414389807810
 20
56.954541453417733
 11
-117.178414389807810
 21
58.607183092541163
  0
LINE
  8
0
  6
CONTINUOUS
 62
256
 10
-121.178414389807810
 20
55.778755967795405
 11
-119.178414389807810
 21
56.954541453417733
  0
LINE
  8
0
  6
CONTINUOUS
 62
256
 10
-114.568723571912640
 20
58.068174555595363
 11
-114.478414389807820
 21
58.771131521795724
  0
LINE
  8
0
  6
CONTINUOUS
 62
256
 10
-114.836180587004780
 20
57.392231831383270
 11
-114.568723571912640
 21
58.068174555595363
  0
LINE
  8
0
  6
CONTINUOUS
 62
256
 10
-115.270507211985840
 20
56.769279448977869
 11
-114.836180587004780
 21
57.392231831383270
  0
LINE
  8
0
  6
CONTINUOUS
 62
256
 10
-115.855012518231050
 20
56.223257119079292
 11
-115.270507211985840
 21
56.769279448977869
  0
LINE
  8
0
  6
CONTINUOUS
 62
256
 10
-116.567234294615670
 20
55.775148173612671
 11
-115.855012518231050
 21
56.223257119079292
  0
LINE
  8
0
  6
CONTINUOUS
 62
256
 10
-117.379802257691890
 20
55.442173188049914
 11
-116.567234294615670
 21
55.775148173612671
  0
LINE
  8
0
  6
CONTINUOUS
 62
256
 10
-118.261489876332010
 20
55.237128204351663
 11
-117.379802257691890
 21
55.442173188049914
  0
LINE
  8
0
  6
CONTINUOUS
 62
256
 10
-119.178414389807810
 20
55.167892986250891
 11
-118.261489876332010
 21
55.237128204351663
  0
LINE
  8
0
  6
CONTINUOUS
 62
256
 10
-120.095338903283600
 20
55.237128204351663
 11
-119.178414389807810
 21
55.167892986250891
  0
LINE
  8
0
  6
CONTINUOUS
 62
256
 10
-120.977026521923730
 20
55.442173188049914
 11
-120.095338903283600
 21
55.237128204351663
  0
LINE
  8
0
  6
CONTINUOUS
 62
256
 10
-121.789594484999920
 20
55.775148173612671
 11
-120.977026521923730
 21
55.442173188049914
  0
LINE
  8
0
  6
CONTINUOUS
 62
256
 10
-122.501816261384580
 20
56.223257119079292
 11
-121.789594484999920
 21
55.775148173612671
  0
LINE
  8
0
  6
CONTINUOUS
 62
256
 10
-123.086321567629770
 20
56.769279448977869
 11
-122.501816261384580
 21
56.223257119079292
  0
LINE
  8
0
  6
CONTINUOUS
 62
256
 10
-123.520648192610840
 20
57.392231831383270
 11
-123.086321567629770
 21
56.769279448977869
  0
LINE
  8
0
  6
CONTINUOUS
 62
256
 10
-123.788105207702980
 20
58.068174555595363
 11
-123.520648192610840
 21
57.392231831383270
  0
LINE
  8
0
  6
CONTINUOUS
 62
256
 10
-123.878414389807800
 20
58.771131521795724
 11
-123.788105207702980
 21
58.068174555595363
  0
LINE
  8
0
  6
CONTINUOUS
 62
256
 10
-123.788105207702980
 20
59.474088487996084
 11
-123.878414389807800
 21
58.771131521795724
  0
LINE
  8
0
  6
CONTINUOUS
 62
256
 10
-123.520648192610840
 20
60.150031212208177
 11
-123.788105207702980
 21
59.474088487996084
  0
LINE
  8
0
  6
CONTINUOUS
 62
256
 10
-123.086321567629770
 20
60.772983594613578
 11
-123.520648192610840
 21
60.150031212208177
  0
LINE
  8
0
  6
CONTINUOUS
 62
256
 10
-122.501816261384580
 20
61.319005924512162
 11
-123.086321567629770
 21
60.772983594613578
  0
LINE
  8
0
  6
CONTINUOUS
 62
256
 10
-121.789594484999920
 20
61.767114869978776
 11
-122.501816261384580
 21
61.319005924512162
  0
LINE
  8
0
  6
CONTINUOUS
 62
256
 10
-120.977026521923730
 20
62.100089855541533
 11
-121.789594484999920
 21
61.767114869978776
  0
LINE
  8
0
  6
CONTINUOUS
 62
256
 10
-120.095338903283600
 20
62.305134839239784
 11
-120.977026521923730
 21
62.100089855541533
  0
LINE
  8
0
  6
CONTINUOUS
 62
256
 10
-119.178414389807810
 20
62.374370057340556
 11
-120.095338903283600
 21
62.305134839239784
  0
LINE
  8
0
  6
CONTINUOUS
 62
256
 10
-118.261489876332010
 20
62.305134839239784
 11
-119.178414389807810
 21
62.374370057340556
  0
LINE
  8
0
  6
CONTINUOUS
 62
256
 10
-117.379802257691890
 20
62.100089855541533
 11
-118.261489876332010
 21
62.305134839239784
  0
LINE
  8
0
  6
CONTINUOUS
 62
256
 10
-116.567234294615670
 20
61.767114869978776
 11
-117.379802257691890
 21
62.100089855541533
  0
LINE
  8
0
  6
CONTINUOUS
 62
256
 10
-115.855012518231050
 20
61.319005924512162
 11
-116.567234294615670
 21
61.767114869978776
  0
LINE
  8
0
  6
CONTINUOUS
 62
256
 10
-115.270507211985840
 20
60.772983594613578
 11
-115.855012518231050
 21
61.319005924512162
  0
LINE
  8
0
  6
CONTINUOUS
 62
256
 10
-114.836180587004780
 20
60.150031212208177
 11
-115.270507211985840
 21
60.772983594613578
  0
LINE
  8
0
  6
CONTINUOUS
 62
256
 10
-114.568723571912640
 20
59.474088487996084
 11
-114.836180587004780
 21
60.150031212208177
  0
LINE
  8
0
  6
CONTINUOUS
 62
256
 10
-114.478414389807820
 20
58.771131521795724
 11
-114.568723571912640
 21
59.474088487996084
  0
LINE
  8
0
  6
CONTINUOUS
 62
256
 10
54.321585610192415
 20
163.194656553855570
 11
64.321585610192415
 21
163.194656553855570
  0
ARC
  8
0
  6
CONTINUOUS
 62
256
 10
66.821585610192415
 20
179.694656553855570
 40
0.500000000000000
 50
90.000000000000000
 51
180.000000000000000
  0
ARC
  8
0
  6
CONTINUOUS
 62
256
 10
54.321585610192415
 20
173.194656553855570
 40
10.000000000000343
 50
199.082118423697580
 51
270.000000000000000
  0
ARC
  8
0
  6
CONTINUOUS
 62
256
 10
64.321585610192415
 20
165.194656553855570
 40
2.000000000000000
 50
270.000000000000000
 51
0.000000000000000
  0
ARC
  8
0
  6
CONTINUOUS
 62
256
 10
44.398550232521302
 20
169.761965351096480
 40
0.500000000000234
 50
19.082118423705538
 51
91.499999999989768
  0
LINE
  8
0
  6
CONTINUOUS
 62
256
 10
66.821585610192415
 20
180.194656553855570
 11
76.321585610192415
 21
180.194656553855570
  0
LINE
  8
0
  6
CONTINUOUS
 62
256
 10
44.385461758367455
 20
170.261794013584220
 11
40.821585610191505
 21
170.168470632286700
  0
LINE
  8
0
  6
CONTINUOUS
 62
256
 10
40.821585610191505
 20
110.694656553855570
 11
40.821585610191505
 21
170.168470632286700
  0
LINE
  8
0
  6
CONTINUOUS
 62
256
 10
70.921585610192778
 20
138.444656553855570
 11
67.321585610192415
 21
138.444656553855570
  0
ARC
  8
0
  6
CONTINUOUS
 62
256
 10
70.921585610192778
 20
138.844656553855200
 40
0.399999999999636
 50
270.000000000000000
 51
0.000000000000000
  0
ARC
  8
0
  6
CONTINUOUS
 62
256
 10
67.321585610192415
 20
137.444656553855570
 40
1.000000000000000
 50
90.000000000000000
 51
180.000000000000000
  0
LINE
  8
0
  6
CONTINUOUS
 62
256
 10
70.921585610192778
 20
148.944656553855570
 11
67.321585610192415
 21
148.944656553855570
  0
ARC
  8
0
  6
CONTINUOUS
 62
256
 10
70.921585610192778
 20
148.544656553855930
 40
0.399999999999636
 50
0.000000000000000
 51
90.000000000000000
  0
ARC
  8
0
  6
CONTINUOUS
 62
256
 10
67.321585610192415
 20
149.944656553855570
 40
1.000000000000000
 50
180.000000000000000
 51
270.000000000000000
  0
LINE
  8
0
  6
CONTINUOUS
 62
256
 10
71.321585610192415
 20
138.844656553855200
 11
71.321585610192415
 21
148.544656553855930
  0
ARC
  8
0
  6
CONTINUOUS
 62
256
 10
70.921585610192778
 20
148.544656553855930
 40
0.399999999999636
 50
0.000000000000000
 51
90.000000000000000
  0
ARC
  8
0
  6
CONTINUOUS
 62
256
 10
70.921585610192778
 20
138.844656553855200
 40
0.399999999999636
 50
270.000000000000000
 51
0.000000000000000
  0
LINE
  8
0
  6
CONTINUOUS
 62
256
 10
66.321585610192415
 20
110.694656553855570
 11
66.321585610192415
 21
139.444657507529880
  0
LINE
  8
0
  6
CONTINUOUS
 62
256
 10
66.321585610192415
 20
147.944655600181250
 11
66.321585610192415
 21
179.694656553855570
  0
LINE
  8
0
  6
CONTINUOUS
 62
256
 10
54.321585610192415
 20
58.194656553855566
 11
64.321585610192415
 21
58.194656553855566
  0
ARC
  8
0
  6
CONTINUOUS
 62
256
 10
66.821585610192415
 20
41.694656553855566
 40
0.500000000000000
 50
180.000000000000000
 51
270.000000000000000
  0
ARC
  8
0
  6
CONTINUOUS
 62
256
 10
54.321585610192415
 20
48.194656553855566
 40
10.000000000000000
 50
90.000000000000000
 51
160.917881576302420
  0
ARC
  8
0
  6
CONTINUOUS
 62
256
 10
64.321585610192415
 20
56.194656553855566
 40
2.000000000000000
 50
0.000000000000000
 51
90.000000000000000
  0
ARC
  8
0
  6
CONTINUOUS
 62
256
 10
44.398550232521302
 20
51.627347756613744
 40
0.499999999999963
 50
268.500000000010170
 51
340.917881576393260
  0
LINE
  8
0
  6
CONTINUOUS
 62
256
 10
66.821585610192415
 20
41.194656553855566
 11
76.321585610192415
 21
41.194656553855566
  0
LINE
  8
0
  6
CONTINUOUS
 62
256
 10
44.385461758367455
 20
51.127519094126001
 11
40.821585610191505
 21
51.220842475424433
  0
LINE
  8
0
  6
CONTINUOUS
 62
256
 10
40.821585610191505
 20
110.694656553855570
 11
40.821585610191505
 21
51.220842475424433
  0
LINE
  8
0
  6
CONTINUOUS
 62
256
 10
70.921585610192778
 20
82.944656553855566
 11
67.321585610192415
 21
82.944656553855566
  0
ARC
  8
0
  6
CONTINUOUS
 62
256
 10
70.921585610192778
 20
82.544656553855930
 40
0.399999999999636
 50
0.000000000000000
 51
90.000000000000000
  0
ARC
  8
0
  6
CONTINUOUS
 62
256
 10
67.321585610192415
 20
83.944656553855566
 40
1.000000000000000
 50
180.000000000000000
 51
270.000000000000000
  0
LINE
  8
0
  6
CONTINUOUS
 62
256
 10
70.921585610192778
 20
72.444656553855566
 11
67.321585610192415
 21
72.444656553855566
  0
ARC
  8
0
  6
CONTINUOUS
 62
256
 10
70.921585610192778
 20
72.844656553855202
 40
0.399999999999636
 50
270.000000000000000
 51
0.000000000000000
  0
ARC
  8
0
  6
CONTINUOUS
 62
256
 10
67.321585610192415
 20
71.444656553855566
 40
1.000000000000000
 50
90.000000000000000
 51
180.000000000000000
  0
LINE
  8
0
  6
CONTINUOUS
 62
256
 10
71.321585610192415
 20
82.544656553855930
 11
71.321585610192415
 21
72.844656553855202
  0
ARC
  8
0
  6
CONTINUOUS
 62
256
 10
70.921585610192778
 20
72.844656553855202
 40
0.399999999999636
 50
270.000000000000000
 51
0.000000000000000
  0
ARC
  8
0
  6
CONTINUOUS
 62
256
 10
70.921585610192778
 20
82.544656553855930
 40
0.399999999999636
 50
0.000000000000000
 51
90.000000000000000
  0
LINE
  8
0
  6
CONTINUOUS
 62
256
 10
66.321585610192415
 20
110.694656553855570
 11
66.321585610192415
 21
81.944655600181250
  0
LINE
  8
0
  6
CONTINUOUS
 62
256
 10
66.321585610192415
 20
73.444657507529882
 11
66.321585610192415
 21
41.694656553855566
  0
LINE
  8
0
  6
CONTINUOUS
 62
256
 10
76.321585610192415
 20
41.194656553855566
 11
76.821585610192415
 21
41.194656553855566
  0
LINE
  8
0
  6
CONTINUOUS
 62
256
 10
76.321585610192415
 20
180.194656553855570
 11
76.821585610192415
 21
180.194656553855570
  0
LINE
  8
0
  6
CONTINUOUS
 62
256
 10
125.321585610192410
 20
58.270991366082853
 11
125.321585610192410
 21
110.694656553855570
  0
LINE
  8
0
  6
CONTINUOUS
 62
256
 10
125.321585610192410
 20
163.118321741629190
 11
125.321585610192410
 21
110.694656553855570
  0
ARC
  8
0
  6
CONTINUOUS
 62
256
 10
128.321585610192410
 20
58.270991366082853
 40
3.000000000000000
 50
180.000000000000000
 51
268.500000000001590
  0
LINE
  8
0
  6
CONTINUOUS
 62
256
 10
128.243054765268880
 20
55.272019391156391
 11
132.321585610192410
 21
55.165219302333753
  0
ARC
  8
0
  6
CONTINUOUS
 62
256
 10
128.321585610196510
 20
74.957071727047150
 40
3.000000000000000
 50
180.000000000000000
 51
268.500000000010350
  0
LINE
  8
0
  6
CONTINUOUS
 62
256
 10
128.243054765273430
 20
71.958099752120688
 11
132.321585610196510
 21
71.851299663298050
  0
ARC
  8
0
  6
CONTINUOUS
 62
256
 10
128.321585610192410
 20
163.118321741629190
 40
2.999999999999788
 50
91.499999999998479
 51
180.000000000000000
  0
LINE
  8
0
  6
CONTINUOUS
 62
256
 10
128.243054765268880
 20
166.117293716555650
 11
132.321585610192410
 21
166.224093805378290
  0
ARC
  8
0
  6
CONTINUOUS
 62
256
 10
128.321585610196510
 20
146.432241380664890
 40
2.999999999999777
 50
91.499999999989811
 51
180.000000000000000
  0
LINE
  8
0
  6
CONTINUOUS
 62
256
 10
128.243054765273430
 20
149.431213355591350
 11
132.321585610196510
 21
149.538013444413990
  0
ARC
  8
0
  6
CONTINUOUS
 62
256
 10
121.321585610192410
 20
38.906954209085598
 40
1.000000000000000
 50
180.000000000000000
 51
271.500000000015750
  0
LINE
  8
0
  6
CONTINUOUS
 62
256
 10
120.321585610192410
 20
38.906954209085598
 11
120.321585610192410
 21
182.299057447641640
  0
LINE
  8
0
  6
CONTINUOUS
 62
256
 10
121.347762558500560
 20
37.907296884110110
 11
132.321585610192410
 21
38.194656553855566
  0
LINE
  8
0
  6
CONTINUOUS
 62
256
 10
135.321585610192410
 20
110.694656553855570
 11
135.321585610192410
 21
46.494656553855748
  0
LINE
  8
0
  6
CONTINUOUS
 62
256
 10
135.321585610192410
 20
110.694656553855570
 11
135.321585610192410
 21
174.894656553855380
  0
LINE
  8
0
  6
CONTINUOUS
 62
256
 10
132.321585610192410
 20
110.694656553855570
 11
132.321585610192410
 21
38.194656553855566
  0
LINE
  8
0
  6
CONTINUOUS
 62
256
 10
138.848358180930520
 20
133.253925333892770
 11
135.321585610192410
 21
137.421929281128540
  0
LINE
  8
0
  6
CONTINUOUS
 62
256
 10
138.848358180930520
 20
88.135387773819275
 11
135.321585610192410
 21
83.967383826582591
  0
LINE
  8
0
  6
CONTINUOUS
 62
256
 10
132.321585610192410
 20
110.694656553855570
 11
132.321585610192410
 21
183.194656553855570
  0
LINE
  8
0
  6
CONTINUOUS
 62
256
 10
134.542260113455090
 20
45.694656553855566
 11
132.321585610192410
 21
45.694656553855566
  0
LINE
  8
0
  6
CONTINUOUS
 62
256
 10
134.542260113455090
 20
175.694656553855570
 11
132.321585610192410
 21
175.694656553855570
  0
ARC
  8
0
  6
CONTINUOUS
 62
256
 10
137.321585610192410
 20
89.427272256751166
 40
1.999999999999609
 50
319.763641690733830
 51
0.000000000000000
  0
ARC
  8
0
  6
CONTINUOUS
 62
256
 10
137.321585610192410
 20
131.962040850959970
 40
2.000000000000000
 50
0.000000000000000
 51
40.236358309286203
  0
ARC
  8
0
  6
CONTINUOUS
 62
256
 10
121.321585610192410
 20
182.299057447641640
 40
0.999999999999937
 50
91.500000000015845
 51
180.000000000000000
  0
LINE
  8
0
  6
CONTINUOUS
 62
256
 10
139.321585610192410
 20
110.694656553855570
 11
139.321585610192410
 21
89.427272256751166
  0
LINE
  8
0
  6
CONTINUOUS
 62
256
 10
135.321585610192410
 20
46.494656553855748
 11
134.542260113455090
 21
45.694656553855566
  0
LINE
  8
0
  6
CONTINUOUS
 62
256
 10
135.321585610192410
 20
174.894656553855380
 11
134.542260113455090
 21
175.694656553855570
  0
LINE
  8
0
  6
CONTINUOUS
 62
256
 10
139.321585610192410
 20
110.694656553855570
 11
139.321585610192410
 21
131.962040850959970
  0
LINE
  8
0
  6
CONTINUOUS
 62
256
 10
121.295408661884270
 20
183.298714772617130
 11
124.808497136038110
 21
183.390708231867390
  0
LINE
  8
0
  6
CONTINUOUS
 62
256
 10
124.821585610192410
 20
183.391050965625250
 11
132.321585610192410
 21
183.194656553855570
  0
LINE
  8
0
  6
CONTINUOUS
 62
256
 10
117.711771979801140
 20
180.908397411863920
 11
76.821585610192415
 21
180.194656553855570
  0
LINE
  8
0
  6
CONTINUOUS
 62
256
 10
76.821585610192415
 20
41.194656553855566
 11
76.821585610192415
 21
180.194656553855570
  0
ARC
  8
0
  6
CONTINUOUS
 62
256
 10
117.659414760489180
 20
183.907940497333580
 40
3.000000000000496
 50
271.000000000001590
 51
336.282917336303740
  0
ARC
  8
0
  6
CONTINUOUS
 62
256
 10
117.659414760489180
 20
37.481372610378457
 40
3.000000000000397
 50
23.717082663696431
 51
88.999999999998352
  0
LINE
  8
0
  6
CONTINUOUS
 62
256
 10
117.711771979801140
 20
40.480915695848125
 11
76.821585610192415
 21
41.194656553855566
  0
LINE
  8
0
  6
CONTINUOUS
 62
256
 10
118.321585610192410
 20
112.694656553855570
 11
111.104960801863380
 21
112.694656553855570
  0
LINE
  8
0
  6
CONTINUOUS
 62
256
 10
118.321585610192410
 20
108.694656553855570
 11
111.104960801863380
 21
108.694656553855570
  0
ARC
  8
0
  6
CONTINUOUS
 62
256
 10
111.104960801863380
 20
114.694656553855570
 40
2.000000000000000
 50
180.000000000000000
 51
270.000000000000000
  0
ARC
  8
0
  6
CONTINUOUS
 62
256
 10
111.104960801863380
 20
106.694656553855570
 40
2.000000000000000
 50
90.000000000000000
 51
180.000000000000000
  0
ARC
  8
0
  6
CONTINUOUS
 62
256
 10
118.321585610192410
 20
106.694656553855570
 40
2.000000000000000
 50
0.000000000000000
 51
90.000000000000000
  0
ARC
  8
0
  6
CONTINUOUS
 62
256
 10
118.321585610192410
 20
114.694656553855570
 40
2.000000000000000
 50
270.000000000000000
 51
0.000000000000000
  0
LINE
  8
0
  6
CONTINUOUS
 62
256
 10
109.705276130355740
 20
151.260924520022850
 11
119.874872563171720
 21
163.798857790336110
  0
ARC
  8
0
  6
CONTINUOUS
 62
256
 10
108.151989177377350
 20
152.520805324585130
 40
2.000000000000000
 50
270.000000000000000
 51
320.954274338513870
  0
ARC
  8
0
  6
CONTINUOUS
 62
256
 10
118.321585610192410
 20
165.058738594899300
 40
2.000000000000627
 50
320.954274338509610
 51
0.000000000000000
  0
ARC
  8
0
  6
CONTINUOUS
 62
256
 10
118.321585610192410
 20
168.715592844390810
 40
2.000000000000627
 50
320.954274338509610
 51
0.000000000000000
  0
LINE
  8
0
  6
CONTINUOUS
 62
256
 10
109.705276130355740
 20
154.917778769514370
 11
119.874872563171720
 21
167.455712039827630
  0
ARC
  8
0
  6
CONTINUOUS
 62
256
 10
108.151989177377350
 20
156.177659574076640
 40
2.000000000000000
 50
270.000000000000000
 51
320.954274338513870
  0
LINE
  8
0
  6
CONTINUOUS
 62
256
 10
110.995209889907070
 20
150.520805324586040
 11
118.797754567329780
 21
150.520805324586040
  0
LINE
  8
0
  6
CONTINUOUS
 62
256
 10
110.995209889907070
 20
70.868507783125096
 11
118.797754567329780
 21
70.868507783125096
  0
ARC
  8
0
  6
CONTINUOUS
 62
256
 10
118.321585610192410
 20
52.673720263320320
 40
2.000000000000000
 50
0.000000000000000
 51
39.045725661490216
  0
LINE
  8
0
  6
CONTINUOUS
 62
256
 10
109.705276130355740
 20
66.471534338196761
 11
119.874872563171720
 21
53.933601067883501
  0
ARC
  8
0
  6
CONTINUOUS
 62
256
 10
108.151989177377350
 20
65.211653533634490
 40
1.999999999999347
 50
39.045725661486529
 51
90.000000000000000
  0
ARC
  8
0
  6
CONTINUOUS
 62
256
 10
118.321585610192410
 20
56.330574512811836
 40
2.000000000000000
 50
0.000000000000000
 51
39.045725661490216
  0
LINE
  8
0
  6
CONTINUOUS
 62
256
 10
109.705276130355740
 20
70.128388587688278
 11
119.874872563171720
 21
57.590455317375017
  0
ARC
  8
0
  6
CONTINUOUS
 62
256
 10
108.151989177377350
 20
68.868507783126006
 40
1.999999999999347
 50
39.045725661486529
 51
90.000000000000000
  0
LINE
  8
0
  6
CONTINUOUS
 62
256
 10
141.621602502900710
 20
121.766580073905970
 11
141.821602502900530
 21
121.566580073906150
  0
LINE
  8
0
  6
CONTINUOUS
 62
256
 10
141.821602502900530
 20
110.694656553855570
 11
141.821602502900530
 21
121.566580073906150
  0
ARC
  8
0
  6
CONTINUOUS
 62
256
 10
142.221602502900620
 20
120.444656553856020
 40
0.400000000000091
 50
180.000000000000000
 51
270.000000000000000
  0
LINE
  8
0
  6
CONTINUOUS
 62
256
 10
141.621602502900710
 20
99.694656553855566
 11
141.821602502900530
 21
99.894656553855384
  0
LINE
  8
0
  6
CONTINUOUS
 62
256
 10
141.821602502900530
 20
110.694656553855570
 11
141.821602502900530
 21
99.894656553855384
  0
LINE
  8
0
  6
CONTINUOUS
 62
256
 10
141.621602502900710
 20
121.766580073905970
 11
139.321585610192410
 21
121.766580073905970
  0
LINE
  8
0
  6
CONTINUOUS
 62
256
 10
141.621602502900710
 20
99.694656553855566
 11
139.321585610192410
 21
99.694656553855566
  0
LINE
  8
0
  6
CONTINUOUS
 62
256
 10
169.421602502900440
 20
120.194656553855570
 11
144.381410124035940
 21
120.194656553855570
  0
LINE
  8
0
  6
CONTINUOUS
 62
256
 10
143.821602502900530
 20
120.044656553855930
 11
142.221602502900620
 21
120.044656553855930
  0
LINE
  8
0
  6
CONTINUOUS
 62
256
 10
144.381410124035940
 20
120.194656553855570
 11
143.821602502900530
 21
120.044656553855930
  0
LINE
  8
0
  6
DASHDOT
 62
256
 10
140.817584860555600
 20
47.055046247066457
 11
114.985826542654190
 21
47.055046247066457
  0
LINE
  8
0
  6
DASHDOT
 62
256
 10
140.817584860555600
 20
174.334266860644680
 11
114.985826542654190
 21
174.334266860644680
  0
LINE
  8
0
  6
CONTINUOUS
 62
256
 10
76.321585610192415
 20
180.194656553855570
 11
76.321585610192415
 21
110.694656553855570
  0
LINE
  8
0
  6
CONTINUOUS
 62
256
 10
76.321585610192415
 20
41.194656553855566
 11
76.321585610192415
 21
110.694656553855570
  0
LINE
  8
0
  6
DASHDOT
 62
256
 10
-187.604357539887130
 20
-127.933170326236000
 11
-405.984085621101260
 21
-127.933170326236000
  0
ARC
  8
0
  6
CONTINUOUS
 62
256
 10
-227.409431497504100
 20
-173.572780633024990
 40
5.000000000000005
 50
153.064707333055200
 51
142.855631763995460
  0
LINE
  8
0
  6
CONTINUOUS
 62
256
 10
-238.235203569341710
 20
-182.433170326236000
 11
-227.049041804293670
 21
-182.433170326236000
  0
ARC
  8
0
  6
CONTINUOUS
 62
256
 10
-241.622277664484050
 20
-177.359934466045760
 40
6.099999427795406
 50
264.601927898108500
 51
5.398089404735109
  0
POINT
  8
0
  6
CONTINUOUS
 62
256
 10
-239.359536099557030
 20
-179.622676030972800
  0
LINE
  8
0
  6
CONTINUOUS
 62
256
 10
-236.036134362850190
 20
-176.299274294265930
 11
-242.682937836263870
 21
-182.946077767679670
  0
LINE
  8
0
  6
CONTINUOUS
 62
256
 10
-235.722995753881380
 20
-176.551821245116320
 11
-242.400095056354300
 21
-183.228920547589240
  0
LINE
  8
0
  6
CONTINUOUS
 62
256
 10
-242.682937836263870
 20
-182.946077767679670
 11
-242.196134444558250
 21
-183.432881159385260
  0
LINE
  8
0
  6
CONTINUOUS
 62
256
 10
-236.036134362850190
 20
-176.299274294265930
 11
-235.549330971144570
 21
-176.786077685971550
  0
LINE
  8
0
  6
CONTINUOUS
 62
256
 10
-260.799041804293670
 20
-186.933170326236110
 11
-260.799041804293670
 21
-186.407237239433810
  0
ARC
  8
0
  6
CONTINUOUS
 62
256
 10
-255.549041804293670
 20
-184.433170326236110
 40
4.249999046325421
 50
205.471502597284800
 51
348.156246525909750
  0
LINE
  8
0
  6
CONTINUOUS
 62
256
 10
-255.549044106485330
 20
-186.742567527083000
 11
-256.864488426464670
 21
-185.983092995501580
  0
LINE
  8
0
  6
CONTINUOUS
 62
256
 10
-253.549043236019430
 20
-185.584926578197350
 11
-253.549043234804000
 21
-185.587869779564360
  0
ARC
  8
0
  6
CONTINUOUS
 62
256
 10
-246.549041804293670
 20
-185.433170326236000
 40
2.999999999999601
 50
172.686947180819430
 51
180.000000000000000
  0
LINE
  8
0
  6
CONTINUOUS
 62
256
 10
-249.549041804293670
 20
-186.933170326236000
 11
-249.549041804293670
 21
-185.054701290994960
  0
LINE
  8
0
  6
CONTINUOUS
 62
256
 10
-321.650062318727350
 20
-188.933170326236000
 11
-330.549041804293670
 21
-188.933170326236000
  0
ARC
  8
0
  6
CONTINUOUS
 62
256
 10
-326.549041804294120
 20
-184.433170326236110
 40
4.249999046325729
 50
191.843753474087780
 51
334.528497402717220
  0
LINE
  8
0
  6
CONTINUOUS
 62
256
 10
-332.549041804293670
 20
-186.933170326236000
 11
-332.549041804293670
 21
-185.054701290994960
  0
LINE
  8
0
  6
CONTINUOUS
 62
256
 10
-328.549040372568360
 20
-185.584926578197300
 11
-328.549040373783780
 21
-185.587869779564360
  0
LINE
  8
0
  6
CONTINUOUS
 62
256
 10
-328.549040614515660
 20
-185.587869636973270
 11
-326.549039860402670
 21
-186.742567851444110
  0
LINE
  8
0
  6
CONTINUOUS
 62
256
 10
-326.549039502102460
 20
-186.742567527083000
 11
-325.233595182123050
 21
-185.983092995501520
  0
LINE
  8
0
  6
CONTINUOUS
 62
256
 10
-321.299041804293670
 20
-186.933170326236000
 11
-321.299041804293670
 21
-186.407237239433810
  0
LINE
  8
0
  6
CONTINUOUS
 62
256
 10
-343.862880039245510
 20
-182.433170326236000
 11
-355.049041804293670
 21
-182.433170326236000
  0
ARC
  8
0
  6
CONTINUOUS
 62
256
 10
-354.688652111083230
 20
-173.572780633024990
 40
5.000000000000080
 50
37.144368235973268
 51
26.935292666975396
  0
LINE
  8
0
  6
CONTINUOUS
 62
256
 10
-355.104729122122540
 20
-151.741342412298050
 11
-356.739132929891180
 21
-148.910471977158490
  0
LINE
  8
0
  6
CONTINUOUS
 62
256
 10
-363.549041804293670
 20
-173.933170326236000
 11
-363.549041804293670
 21
-158.370791551771450
  0
ARC
  8
0
  6
CONTINUOUS
 62
256
 10
-310.549041804293670
 20
-112.686713182222600
 40
50.000000000000043
 50
136.062984333788110
 51
158.633168118782780
  0
LINE
  8
0
  6
CONTINUOUS
 62
256
 10
-363.549041804293670
 20
-86.587363076898839
 11
-363.549041804293670
 21
-45.933170326235995
  0
ARC
  8
0
  6
CONTINUOUS
 62
256
 10
-374.349041804293620
 20
-101.975670326236010
 40
18.799999999999955
 50
0.000000000000000
 51
79.401214733933926
  0
ARC
  8
0
  6
CONTINUOUS
 62
256
 10
-310.549041804293670
 20
-112.686713182222600
 40
49.999999999999957
 50
91.489858156854154
 51
126.344924670902540
  0
ARC
  8
0
  6
CONTINUOUS
 62
256
 10
-337.902648069984480
 20
-68.752602758264743
 40
2.000000000000068
 50
330.116185885977760
 51
44.999999999999140
  0
ARC
  8
0
  6
CONTINUOUS
 62
256
 10
-330.418797024987730
 20
-64.922745304276759
 40
2.000000000000056
 50
225.000000000001140
 51
263.145054641825250
  0
LINE
  8
0
  6
CONTINUOUS
 62
256
 10
-324.319744545527560
 20
-69.780060988266939
 11
-324.049044229313720
 21
-69.623771391248113
  0
LINE
  8
0
  6
CONTINUOUS
 62
256
 10
-323.865378828752970
 20
-69.729810197376082
 11
-324.049044239849370
 21
-69.623771103774232
  0
LINE
  8
0
  6
CONTINUOUS
 62
256
 10
-329.299041804293670
 20
-67.843235395592330
 11
-329.299041804293670
 21
-70.376671990211037
  0
LINE
  8
0
  6
CONTINUOUS
 62
256
 10
-318.799041804293670
 20
-64.226033244772282
 11
-318.799041804293670
 21
-69.216786711840314
  0
ARC
  8
0
  6
CONTINUOUS
 62
256
 10
-324.049041804294120
 20
-71.933170326235995
 40
4.249999046325376
 50
36.699034319074372
 51
155.998310623040170
  0
LINE
  8
0
  6
CONTINUOUS
 62
256
 10
-263.299041804293670
 20
-64.226033244772282
 11
-263.299041804293670
 21
-69.216786711840314
  0
LINE
  8
0
  6
CONTINUOUS
 62
256
 10
-252.799041804293670
 20
-67.843235395592330
 11
-252.799041804293670
 21
-70.376671990211037
  0
ARC
  8
0
  6
CONTINUOUS
 62
256
 10
-258.049041804293670
 20
-71.933170326235995
 40
4.249999046325383
 50
24.001689376961355
 51
143.300965680924410
  0
LINE
  8
0
  6
CONTINUOUS
 62
256
 10
-257.778339063060340
 20
-69.780060988266825
 11
-258.049039379274060
 21
-69.623771391248113
  0
LINE
  8
0
  6
CONTINUOUS
 62
256
 10
-258.232704779834710
 20
-69.729810197376025
 11
-258.049039368738420
 21
-69.623771103774232
  0
ARC
  8
0
  6
CONTINUOUS
 62
256
 10
-251.679286583599610
 20
-64.922745304276759
 40
2.000000000000003
 50
276.854945358174970
 51
314.999999999999150
  0
ARC
  8
0
  6
CONTINUOUS
 62
256
 10
-244.195435538602850
 20
-68.752602758264743
 40
1.999999999999976
 50
135.000000000001140
 51
209.883814114022780
  0
ARC
  8
0
  6
CONTINUOUS
 62
256
 10
-271.549041804293670
 20
-112.686713182222600
 40
49.999999999999979
 50
53.655075329097407
 51
88.510141843145860
  0
ARC
  8
0
  6
CONTINUOUS
 62
256
 10
-271.549041804293670
 20
-112.686713182222600
 40
49.999999999999964
 50
17.161786322051402
 51
43.937015666211714
  0
LINE
  8
0
  6
CONTINUOUS
 62
256
 10
-218.549041804293670
 20
-173.933170326236000
 11
-218.549041804293670
 21
-157.933170326235540
  0
LINE
  8
0
  6
CONTINUOUS
 62
256
 10
-218.549041804293670
 20
-97.933170326235768
 11
-218.549041804293670
 21
-45.933170326235995
  0
LINE
  8
0
  6
CONTINUOUS
 62
256
 10
-253.549042994072070
 20
-185.587869636973270
 11
-255.549043748185060
 21
-186.742567851444110
  0
LINE
  8
0
  6
CONTINUOUS
 62
256
 10
-372.051911424874560
 20
-72.053050253455808
 11
-377.145548353151530
 21
-173.925788818996580
  0
LINE
  8
0
  6
CONTINUOUS
 62
256
 10
-377.145548353151530
 20
-173.925788818996580
 11
-378.743552095356110
 21
-173.845888631885600
  0
LINE
  8
0
  6
CONTINUOUS
 62
256
 10
-373.649915167079140
 20
-71.973150066345625
 11
-378.743552095356110
 21
-173.845888631885600
  0
ARC
  8
0
  6
CONTINUOUS
 62
256
 10
-374.767544268929670
 20
-74.720765662590452
 40
1.299999237060475
 50
87.137594090651845
 51
160.536063666412730
  0
ARC
  8
0
  6
CONTINUOUS
 62
256
 10
-374.987269859681650
 20
-79.115277477628183
 40
1.299999237060493
 50
193.739143184211430
 51
267.137612759980130
  0
LINE
  8
0
  6
CONTINUOUS
 62
256
 10
-373.724821592494440
 20
-73.471278574662279
 11
-374.702625405001980
 21
-73.422388384036935
  0
LINE
  8
0
  6
CONTINUOUS
 62
256
 10
-374.074384911101560
 20
-80.462544946807157
 11
-375.052188723609330
 21
-80.413654756181813
  0
LINE
  8
0
  6
CONTINUOUS
 62
256
 10
-373.724821592494440
 20
-73.471278574662279
 11
-374.074384911101560
 21
-80.462544946807157
  0
LINE
  8
0
  6
CONTINUOUS
 62
256
 10
-373.724821592494440
 20
-73.471278574662279
 11
-374.074384911101560
 21
-80.462544946807157
  0
POINT
  8
0
  6
CONTINUOUS
 62
256
 10
-373.899603251798000
 20
-76.966911760734661
  0
ARC
  8
0
  6
CONTINUOUS
 62
256
 10
-367.507588663973590
 20
-77.286512490125915
 40
9.000000000000060
 50
160.536063666407810
 51
193.739143184213500
  0
LINE
  8
0
  6
CONTINUOUS
 62
256
 10
-373.649915167079140
 20
-71.973150066345625
 11
-372.051911424874560
 21
-72.053050253455808
  0
ARC
  8
0
  6
CONTINUOUS
 62
256
 10
-374.349041804293620
 20
-101.975670326236010
 40
18.799999999999933
 50
144.191373186504250
 51
174.275189547776420
  0
ARC
  8
0
  6
CONTINUOUS
 62
256
 10
-374.349041804293620
 20
-101.975670326236010
 40
18.800000000000036
 50
94.873974813842736
 51
144.191373186504220
  0
LINE
  8
0
  6
CONTINUOUS
 62
256
 10
-397.045301155914560
 20
-139.900857358655000
 11
-393.055276218258540
 21
-100.100358605537740
  0
ARC
  8
0
  6
CONTINUOUS
 62
256
 10
-380.275507635625900
 20
-164.435030648279510
 40
2.000000000000154
 50
357.137594773887600
 51
80.083463391768120
  0
LINE
  8
0
  6
CONTINUOUS
 62
256
 10
-372.850913295976850
 20
-72.013100159900773
 11
-377.944550224253820
 21
-173.885838725440860
  0
ARC
  8
0
  6
CONTINUOUS
 62
256
 10
-374.682494537910090
 20
-164.714681303165320
 40
1.999999999999962
 50
94.191726156001650
 51
177.137594773887370
  0
ARC
  8
0
  6
CONTINUOUS
 62
256
 10
-376.116300267922500
 20
-81.250883294212485
 40
1.999999999999928
 50
274.873974813840960
 51
357.137594773887320
  0
ARC
  8
0
  6
CONTINUOUS
 62
256
 10
-370.523287170206690
 20
-81.530533949098299
 40
1.999999999999927
 50
177.137594773887290
 51
259.401214733933840
  0
ARC
  8
0
  6
CONTINUOUS
 62
256
 10
-376.349041804293620
 20
-141.975670326236010
 40
20.799999999999986
 50
174.275189547776620
 51
205.640070215894870
  0
ARC
  8
0
  6
CONTINUOUS
 62
256
 10
-376.349041804293620
 20
-141.975670326236010
 40
20.799999999999926
 50
205.640070215894870
 51
260.083463391769380
  0
ARC
  8
0
  6
CONTINUOUS
 62
256
 10
-376.349041804293620
 20
-141.975670326236010
 40
20.799999999999986
 50
174.275189547776620
 51
205.640070215894870
  0
LINE
  8
0
  6
CONTINUOUS
 62
256
 10
-355.549041804293670
 20
-110.602561566010590
 11
-355.549041804293670
 21
-101.975670326236010
  0
ARC
  8
0
  6
CONTINUOUS
 62
256
 10
-376.349041804293620
 20
-141.975670326236010
 40
20.800000000000082
 50
274.191726156007410
 51
354.952683218987600
  0
ARC
  8
0
  6
CONTINUOUS
 62
256
 10
-291.049041804293380
 20
112.666829673763910
 40
289.396999999999820
 50
262.102011327572200
 51
270.000000000000000
  0
ARC
  8
0
  6
CONTINUOUS
 62
256
 10
-329.990559759675760
 20
-168.041947866822740
 40
6.000000000000049
 50
225.000000000003040
 51
262.102011327574530
  0
LINE
  8
0
  6
CONTINUOUS
 62
256
 10
-334.233200446794850
 20
-172.284588553942290
 11
-338.809265839433460
 21
-167.708523161303670
  0
ARC
  8
0
  6
CONTINUOUS
 62
256
 10
-327.921942729504050
 20
-156.821200051374260
 40
15.397000000000052
 50
186.051985358668840
 51
225.000000000000000
  0
ARC
  8
0
  6
CONTINUOUS
 62
256
 10
-55.449041804293529
 20
-127.933170326236000
 40
289.397000000000160
 50
180.000000000000000
 51
186.051985358668500
  0
ARC
  8
0
  6
CONTINUOUS
 62
256
 10
-291.049041804293610
 20
112.666829673763910
 40
289.396999999999930
 50
270.000000000000000
 51
277.897988672427800
  0
ARC
  8
0
  6
CONTINUOUS
 62
256
 10
-252.107523848911280
 20
-168.041947866822740
 40
5.999999999999923
 50
277.897988672425640
 51
314.999999999996930
  0
LINE
  8
0
  6
CONTINUOUS
 62
256
 10
-247.864883161792190
 20
-172.284588553942290
 11
-243.288817769153580
 21
-167.708523161303670
  0
ARC
  8
0
  6
CONTINUOUS
 62
256
 10
-254.176140879082990
 20
-156.821200051374260
 40
15.396999999999876
 50
315.000000000000000
 51
353.948014641331160
  0
ARC
  8
0
  6
CONTINUOUS
 62
256
 10
-526.649041804293570
 20
-127.933170326236000
 40
289.397000000000220
 50
353.948014641331550
 51
0.000000000000000
  0
ARC
  8
0
  6
CONTINUOUS
 62
256
 10
-291.049041804293610
 20
-368.533170326235900
 40
289.396999999999820
 50
82.102011327572214
 51
90.000000000000000
  0
ARC
  8
0
  6
CONTINUOUS
 62
256
 10
-252.107523848911280
 20
-87.824392785649252
 40
6.000000000000049
 50
45.000000000003070
 51
82.102011327574274
  0
LINE
  8
0
  6
CONTINUOUS
 62
256
 10
-247.864883161792190
 20
-83.581752098529705
 11
-243.288817769153580
 21
-88.157817491168316
  0
ARC
  8
0
  6
CONTINUOUS
 62
256
 10
-254.176140879082990
 20
-99.045140601097728
 40
15.397000000000052
 50
6.051985358668850
 51
45.000000000000036
  0
ARC
  8
0
  6
CONTINUOUS
 62
256
 10
-526.649041804293570
 20
-127.933170326236000
 40
289.397000000000220
 50
0.000000000000000
 51
6.051985358668508
  0
ARC
  8
0
  6
CONTINUOUS
 62
256
 10
-327.921942729504050
 20
-99.045140601097728
 40
15.396999999999876
 50
135.000000000000000
 51
173.948014641331180
  0
ARC
  8
0
  6
CONTINUOUS
 62
256
 10
-254.176140879082990
 20
-156.821200051374260
 40
26.599999999999955
 50
315.000000000001020
 51
353.948014641331330
  0
ARC
  8
0
  6
CONTINUOUS
 62
256
 10
-327.921942729504050
 20
-156.821200051374260
 40
26.599999999999969
 50
186.051985358668590
 51
224.999999999998950
  0
ARC
  8
0
  6
CONTINUOUS
 62
256
 10
-327.921942729504050
 20
-99.045140601097728
 40
26.600000000000119
 50
135.000000000000000
 51
173.948014641331440
  0
ARC
  8
0
  6
CONTINUOUS
 62
256
 10
-254.176140879083220
 20
-99.045140601097728
 40
26.600000000000193
 50
6.051985358668552
 51
45.000000000000000
  0
LINE
  8
0
  6
CONTINUOUS
 62
256
 10
-339.664533990407340
 20
-73.169651102876514
 11
-346.730983109066300
 21
-80.236100221535480
  0
ARC
  8
0
  6
CONTINUOUS
 62
256
 10
-334.997629234576150
 20
-178.029784793764520
 40
6.599999999999957
 50
225.000000000000000
 51
261.402917762750860
  0
ARC
  8
0
  6
CONTINUOUS
 62
256
 10
-291.049041804293610
 20
112.666829673764140
 40
300.600000000000080
 50
261.402917762750860
 51
270.000000000000000
  0
ARC
  8
0
  6
CONTINUOUS
 62
256
 10
-247.100454374011120
 20
-178.029784793764520
 40
6.599999999999747
 50
278.597082237248910
 51
315.000000000000000
  0
LINE
  8
0
  6
CONTINUOUS
 62
256
 10
-242.433549618179940
 20
-182.696689549595700
 11
-235.367100499520520
 21
-175.630240430936060
  0
ARC
  8
0
  6
CONTINUOUS
 62
256
 10
-526.649041804293570
 20
-127.933170326236000
 40
300.600000000000140
 50
353.948014641331550
 51
6.051985358668498
  0
ARC
  8
0
  6
CONTINUOUS
 62
256
 10
-291.049041804293610
 20
-368.533170326235900
 40
300.599999999999800
 50
81.402917762750931
 51
90.000000000000000
  0
ARC
  8
0
  6
CONTINUOUS
 62
256
 10
-247.100454374011120
 20
-77.836555858707698
 40
6.600000000000118
 50
45.000000000001400
 51
81.402917762751329
  0
ARC
  8
0
  6
CONTINUOUS
 62
256
 10
-291.049041804293610
 20
112.666829673764140
 40
300.600000000000140
 50
270.000000000000000
 51
278.597082237249140
  0
ARC
  8
0
  6
CONTINUOUS
 62
256
 10
-291.049041804293610
 20
-368.533170326235900
 40
300.599999999999910
 50
90.000000000000000
 51
98.597082237249083
  0
ARC
  8
0
  6
CONTINUOUS
 62
256
 10
-55.449041804293529
 20
-127.933170326236000
 40
300.600000000000080
 50
173.948014641331500
 51
186.051985358668470
  0
LINE
  8
0
  6
CONTINUOUS
 62
256
 10
-242.433549618179940
 20
-73.169651102876514
 11
-235.367100499520970
 21
-80.236100221535480
  0
LINE
  8
0
  6
CONTINUOUS
 62
256
 10
-339.664533990407340
 20
-182.696689549595700
 11
-346.730983109066530
 21
-175.630240430936060
  0
ARC
  8
0
  6
CONTINUOUS
 62
256
 10
-287.049041804293610
 20
-86.626391221590438
 40
1.500000000000203
 50
84.468928475159146
 51
180.000000000000000
  0
ARC
  8
0
  6
CONTINUOUS
 62
256
 10
-295.049041804293610
 20
-86.626391221590211
 40
1.500000000000000
 50
0.000000000000000
 51
95.531071524841607
  0
ARC
  8
0
  6
CONTINUOUS
 62
256
 10
-291.049041804293380
 20
-127.933170326235540
 40
17.999999999999922
 50
41.837004155893318
 51
78.162995844107343
  0
ARC
  8
0
  6
CONTINUOUS
 62
256
 10
-291.049041804293840
 20
-127.933170326235540
 40
27.499999999999815
 50
97.928141766201691
 51
142.071858233797880
  0
LINE
  8
0
  6
CONTINUOUS
 62
256
 10
-288.549041804293610
 20
-86.626391221590438
 11
-288.549041804293610
 21
-89.641526329144426
  0
LINE
  8
0
  6
CONTINUOUS
 62
256
 10
-259.137505350142820
 20
-106.622284818229200
 11
-256.526321751158720
 21
-105.114717264452110
  0
LINE
  8
0
  6
CONTINUOUS
 62
256
 10
-288.549041804293610
 20
-96.184154593461017
 11
-288.549041804293610
 21
-99.210357093545554
  0
ARC
  8
0
  6
CONTINUOUS
 62
256
 10
-287.049041804293610
 20
-96.184154593461017
 40
1.499999999999998
 50
82.819244218541712
 51
180.000000000000000
  0
ARC
  8
0
  6
CONTINUOUS
 62
256
 10
-287.049041804293610
 20
-89.641526329144426
 40
1.500000000000000
 50
180.000000000000000
 51
264.036429881682010
  0
ARC
  8
0
  6
CONTINUOUS
 62
256
 10
-257.276321751158720
 20
-103.815679158775310
 40
1.500000000000123
 50
299.999999999997270
 51
35.531071524839312
  0
ARC
  8
0
  6
CONTINUOUS
 62
256
 10
-291.049041804294060
 20
-127.933170326236000
 40
42.999999999999908
 50
35.531071524839241
 51
84.468928475160197
  0
ARC
  8
0
  6
CONTINUOUS
 62
256
 10
-253.276321751158260
 20
-110.743882389051350
 40
1.500000000000034
 50
24.468928475159586
 51
119.999999999996760
  0
LINE
  8
0
  6
CONTINUOUS
 62
256
 10
-256.637505350142590
 20
-110.952411837151640
 11
-254.026321751158260
 21
-109.444844283374550
  0
ARC
  8
0
  6
CONTINUOUS
 62
256
 10
-255.887505350142590
 20
-112.251449942828440
 40
1.500000000000123
 50
119.999999999997300
 51
204.036429881681070
  0
ARC
  8
0
  6
CONTINUOUS
 62
256
 10
-291.049041804293840
 20
-127.933170326236450
 40
36.999999999999979
 50
335.963570118321680
 51
24.036429881678874
  0
ARC
  8
0
  6
CONTINUOUS
 62
256
 10
-291.049041804293840
 20
-127.933170326236450
 40
42.999999999999936
 50
335.531071524839770
 51
24.468928475160773
  0
ARC
  8
0
  6
CONTINUOUS
 62
256
 10
-253.276321751158260
 20
-145.122458263420870
 40
1.500000000000320
 50
240.000000000007050
 51
335.531071524832270
  0
LINE
  8
0
  6
CONTINUOUS
 62
256
 10
-254.026321751158260
 20
-146.421496369097890
 11
-256.637505350142360
 21
-144.913928815320560
  0
ARC
  8
0
  6
CONTINUOUS
 62
256
 10
-255.887505350142360
 20
-143.614890709643990
 40
1.500000000000063
 50
155.963570118322880
 51
239.999999999998660
  0
ARC
  8
0
  6
CONTINUOUS
 62
256
 10
-257.276321751158260
 20
-152.050661493696680
 40
1.499999999999844
 50
324.468928475167900
 51
59.999999999998622
  0
LINE
  8
0
  6
CONTINUOUS
 62
256
 10
-256.526321751158260
 20
-150.751623388020110
 11
-259.137505350142360
 21
-149.244055834242770
  0
LINE
  8
0
  6
CONTINUOUS
 62
256
 10
-293.549041804293610
 20
-86.626391221590211
 11
-293.549041804293610
 21
-89.641526329144426
  0
ARC
  8
0
  6
CONTINUOUS
 62
256
 10
-295.049041804293610
 20
-89.641526329144426
 40
1.499999999999933
 50
275.963570118318330
 51
0.000000000000000
  0
LINE
  8
0
  6
CONTINUOUS
 62
256
 10
-293.549041804293610
 20
-96.184154593461017
 11
-293.549041804293610
 21
-99.210357093545554
  0
ARC
  8
0
  6
CONTINUOUS
 62
256
 10
-295.049041804293610
 20
-96.184154593461017
 40
1.500000000000000
 50
0.000000000000000
 51
97.180755781458302
  0
ARC
  8
0
  6
CONTINUOUS
 62
256
 10
-291.049041804294060
 20
-127.933170326235540
 40
23.999999999999901
 50
100.240348321185680
 51
139.759651678813530
  0
ARC
  8
0
  6
CONTINUOUS
 62
256
 10
-308.224221073338580
 20
-113.398273798355600
 40
1.499999999999802
 50
139.759651678811450
 51
239.999999999998100
  0
LINE
  8
0
  6
CONTINUOUS
 62
256
 10
-306.327426480359410
 20
-116.225439474778340
 11
-308.974221073338580
 21
-114.697311904032180
  0
ARC
  8
0
  6
CONTINUOUS
 62
256
 10
-305.577426480359410
 20
-114.926401369101750
 40
1.499999999999926
 50
239.999999999998410
 51
318.162995844106090
  0
ARC
  8
0
  6
CONTINUOUS
 62
256
 10
-291.049041804294060
 20
-127.933170326235540
 40
17.999999999999829
 50
101.837004155891990
 51
138.162995844106180
  0
ARC
  8
0
  6
CONTINUOUS
 62
256
 10
-295.049041804293610
 20
-108.847835642243350
 40
1.499999999999954
 50
281.837004155896690
 51
0.000000000000000
  0
LINE
  8
0
  6
CONTINUOUS
 62
256
 10
-293.549041804293610
 20
-105.791580500751020
 11
-293.549041804293610
 21
-108.847835642243350
  0
ARC
  8
0
  6
CONTINUOUS
 62
256
 10
-295.049041804293610
 20
-105.791580500751020
 40
1.500000000000000
 50
0.000000000000000
 51
100.240348321194420
  0
ARC
  8
0
  6
CONTINUOUS
 62
256
 10
-291.049041804294060
 20
-127.933170326235540
 40
14.499999999999980
 50
107.920213139390850
 51
132.079786860607500
  0
ARC
  8
0
  6
CONTINUOUS
 62
256
 10
-299.761184447108180
 20
-118.284410272671270
 40
1.499999999999792
 50
132.079786860611680
 51
239.999999999998100
  0
LINE
  8
0
  6
CONTINUOUS
 62
256
 10
-297.736295737487520
 20
-121.185531121818710
 11
-300.511184447108180
 21
-119.583448378347820
  0
ARC
  8
0
  6
CONTINUOUS
 62
256
 10
-296.986295737487520
 20
-119.886493016142140
 40
1.499999999999926
 50
239.999999999998410
 51
306.421821521797880
  0
ARC
  8
0
  6
CONTINUOUS
 62
256
 10
-291.049041804294060
 20
-127.933170326235540
 40
8.499999999999879
 50
113.578178478199520
 51
126.421821521797430
  0
ARC
  8
0
  6
CONTINUOUS
 62
256
 10
-295.049041804293610
 20
-118.768018936323640
 40
1.500000000000139
 50
293.578178478195700
 51
0.000000000000000
  0
LINE
  8
0
  6
CONTINUOUS
 62
256
 10
-293.549041804293610
 20
-115.563853449382560
 11
-293.549041804293610
 21
-118.768018936323640
  0
ARC
  8
0
  6
CONTINUOUS
 62
256
 10
-295.049041804293610
 20
-115.563853449382560
 40
1.500000000000000
 50
0.000000000000000
 51
107.920213139394220
  0
ARC
  8
0
  6
CONTINUOUS
 62
256
 10
-291.049041804293610
 20
-127.933170326236000
 40
23.999999999999716
 50
280.240348321186270
 51
319.759651678814690
  0
ARC
  8
0
  6
CONTINUOUS
 62
256
 10
-287.049041804293610
 20
-150.074760151720510
 40
1.500000000000000
 50
180.000000000000000
 51
280.240348321187920
  0
LINE
  8
0
  6
CONTINUOUS
 62
256
 10
-288.549041804293610
 20
-147.018505010228180
 11
-288.549041804293610
 21
-150.074760151720510
  0
ARC
  8
0
  6
CONTINUOUS
 62
256
 10
-287.049041804293610
 20
-147.018505010228180
 40
1.499999999999731
 50
101.837004155898460
 51
180.000000000000000
  0
ARC
  8
0
  6
CONTINUOUS
 62
256
 10
-291.049041804293610
 20
-127.933170326236000
 40
18.000000000000146
 50
281.837004155893230
 51
318.162995844107740
  0
ARC
  8
0
  6
CONTINUOUS
 62
256
 10
-276.520657128227810
 20
-140.939939283369770
 40
1.499999999999926
 50
59.999999999998380
 51
138.162995844099160
  0
LINE
  8
0
  6
CONTINUOUS
 62
256
 10
-273.123862535248860
 20
-141.169028748439360
 11
-275.770657128227810
 21
-139.640901177693190
  0
ARC
  8
0
  6
CONTINUOUS
 62
256
 10
-273.873862535248860
 20
-142.468066854115930
 40
1.499999999999828
 50
319.759651678823670
 51
59.999999999998622
  0
ARC
  8
0
  6
CONTINUOUS
 62
256
 10
-291.049041804293610
 20
-127.933170326236000
 40
14.500000000000121
 50
287.920213139392560
 51
312.079786860608810
  0
ARC
  8
0
  6
CONTINUOUS
 62
256
 10
-287.049041804293610
 20
-140.302487203088730
 40
1.500000000000000
 50
180.000000000000000
 51
287.920213139391990
  0
LINE
  8
0
  6
CONTINUOUS
 62
256
 10
-288.549041804293610
 20
-137.098321716147440
 11
-288.549041804293610
 21
-140.302487203088730
  0
ARC
  8
0
  6
CONTINUOUS
 62
256
 10
-287.049041804293610
 20
-137.098321716147890
 40
1.500000000000139
 50
113.578178478195710
 51
179.999999999982630
  0
ARC
  8
0
  6
CONTINUOUS
 62
256
 10
-291.049041804293610
 20
-127.933170326236000
 40
8.500000000000060
 50
293.578178478202350
 51
306.421821521799070
  0
ARC
  8
0
  6
CONTINUOUS
 62
256
 10
-285.111787871099690
 20
-135.979847636329400
 40
1.499999999999926
 50
59.999999999998380
 51
126.421821521801220
  0
LINE
  8
0
  6
CONTINUOUS
 62
256
 10
-281.586899161479270
 20
-136.282892274123240
 11
-284.361787871099690
 21
-134.680809530652820
  0
ARC
  8
0
  6
CONTINUOUS
 62
256
 10
-282.336899161479270
 20
-137.581930379800270
 40
1.499999999999944
 50
312.079786860618130
 51
60.000000000006729
  0
ARC
  8
0
  6
CONTINUOUS
 62
256
 10
-291.049041804293610
 20
-127.933170326236000
 40
23.999999999999844
 50
220.240348321185310
 51
259.759651678813730
  0
ARC
  8
0
  6
CONTINUOUS
 62
256
 10
-295.049041804293610
 20
-150.074760151720510
 40
1.499999999999728
 50
259.759651678812470
 51
0.000000000000000
  0
LINE
  8
0
  6
CONTINUOUS
 62
256
 10
-293.549041804293610
 20
-147.018505010228180
 11
-293.549041804293610
 21
-150.074760151720510
  0
ARC
  8
0
  6
CONTINUOUS
 62
256
 10
-295.049041804293610
 20
-147.018505010228180
 40
1.500000000000000
 50
0.000000000000000
 51
78.162995844101417
  0
ARC
  8
0
  6
CONTINUOUS
 62
256
 10
-291.049041804293610
 20
-127.933170326236000
 40
17.999999999999940
 50
221.837004155892290
 51
258.162995844106770
  0
ARC
  8
0
  6
CONTINUOUS
 62
256
 10
-305.577426480359410
 20
-140.939939283369770
 40
1.500000000000118
 50
41.837004155899741
 51
120.000000000002130
  0
LINE
  8
0
  6
CONTINUOUS
 62
256
 10
-308.974221073338360
 20
-141.169028748439360
 11
-306.327426480359410
 21
-139.640901177693190
  0
ARC
  8
0
  6
CONTINUOUS
 62
256
 10
-308.224221073338360
 20
-142.468066854115930
 40
1.499999999999926
 50
120.000000000001620
 51
220.240348321176580
  0
ARC
  8
0
  6
CONTINUOUS
 62
256
 10
-291.049041804293610
 20
-127.933170326236000
 40
14.500000000000011
 50
227.920213139391080
 51
252.079786860607530
  0
ARC
  8
0
  6
CONTINUOUS
 62
256
 10
-295.049041804293610
 20
-140.302487203088730
 40
1.500000000000355
 50
252.079786860607900
 51
0.000000000000000
  0
LINE
  8
0
  6
CONTINUOUS
 62
256
 10
-293.549041804293610
 20
-137.098321716147440
 11
-293.549041804293610
 21
-140.302487203088730
  0
ARC
  8
0
  6
CONTINUOUS
 62
256
 10
-295.049041804293610
 20
-137.098321716147890
 40
1.500000000000000
 50
0.000000000017370
 51
66.421821521804546
  0
ARC
  8
0
  6
CONTINUOUS
 62
256
 10
-291.049041804293610
 20
-127.933170326236000
 40
8.499999999999870
 50
233.578178478199590
 51
246.421821521797570
  0
ARC
  8
0
  6
CONTINUOUS
 62
256
 10
-296.986295737487520
 20
-135.979847636329400
 40
1.500000000000059
 50
53.578178478205700
 51
120.000000000001340
  0
LINE
  8
0
  6
CONTINUOUS
 62
256
 10
-300.511184447107950
 20
-136.282892274123240
 11
-297.736295737487520
 21
-134.680809530652820
  0
ARC
  8
0
  6
CONTINUOUS
 62
256
 10
-299.761184447107950
 20
-137.581930379800270
 40
1.500000000000320
 50
119.999999999992940
 51
227.920213139382700
  0
ARC
  8
0
  6
CONTINUOUS
 62
256
 10
-291.049041804294060
 20
-127.933170326235540
 40
23.999999999999925
 50
160.240348321185910
 51
199.759651678814090
  0
ARC
  8
0
  6
CONTINUOUS
 62
256
 10
-312.224221073338580
 20
-120.326477028630960
 40
1.499999999999926
 50
59.999999999998380
 51
160.240348321185310
  0
LINE
  8
0
  6
CONTINUOUS
 62
256
 10
-308.827426480359410
 20
-120.555566493700550
 11
-311.474221073338580
 21
-119.027438922954370
  0
ARC
  8
0
  6
CONTINUOUS
 62
256
 10
-309.577426480359410
 20
-121.854604599377130
 40
1.500000000000038
 50
341.837004155895390
 51
59.999999999998394
  0
ARC
  8
0
  6
CONTINUOUS
 62
256
 10
-291.049041804294060
 20
-127.933170326235540
 40
17.999999999999726
 50
161.837004155893140
 51
198.162995844106860
  0
ARC
  8
0
  6
CONTINUOUS
 62
256
 10
-309.577426480359410
 20
-134.011736053093950
 40
1.500000000000320
 50
299.999999999992950
 51
18.162995844104298
  0
LINE
  8
0
  6
CONTINUOUS
 62
256
 10
-311.474221073338360
 20
-136.838901729516690
 11
-308.827426480359410
 21
-135.310774158770980
  0
ARC
  8
0
  6
CONTINUOUS
 62
256
 10
-312.224221073338360
 20
-135.539863623840120
 40
1.500000000000246
 50
199.759651678811790
 51
300.000000000001880
  0
ARC
  8
0
  6
CONTINUOUS
 62
256
 10
-291.049041804294060
 20
-127.933170326235540
 40
14.499999999999851
 50
167.920213139392840
 51
192.079786860608890
  0
ARC
  8
0
  6
CONTINUOUS
 62
256
 10
-303.761184447108180
 20
-125.212613502946620
 40
1.499999999999926
 50
59.999999999998380
 51
167.920213139405660
  0
LINE
  8
0
  6
CONTINUOUS
 62
256
 10
-300.236295737487520
 20
-125.515658140740920
 11
-303.011184447108180
 21
-123.913575397270050
  0
ARC
  8
0
  6
CONTINUOUS
 62
256
 10
-300.986295737487520
 20
-126.814696246417480
 40
1.499999999999873
 50
353.578178478198030
 51
59.999999999997563
  0
ARC
  8
0
  6
CONTINUOUS
 62
256
 10
-291.049041804294060
 20
-127.933170326235540
 40
8.499999999999814
 50
173.578178478202570
 51
186.421821521800520
  0
ARC
  8
0
  6
CONTINUOUS
 62
256
 10
-300.986295737487520
 20
-129.051644406054040
 40
1.499999999999926
 50
300.000000000001590
 51
6.421821521801724
  0
LINE
  8
0
  6
CONTINUOUS
 62
256
 10
-303.011184447107950
 20
-131.952765255201030
 11
-300.236295737487520
 21
-130.350682511730610
  0
ARC
  8
0
  6
CONTINUOUS
 62
256
 10
-303.761184447107950
 20
-130.653727149524460
 40
1.500000000000287
 50
192.079786860609570
 51
300.000000000001310
  0
ARC
  8
0
  6
CONTINUOUS
 62
256
 10
-291.049041804293380
 20
-127.933170326235540
 40
24.000000000000139
 50
340.240348321186050
 51
19.759651678813920
  0
ARC
  8
0
  6
CONTINUOUS
 62
256
 10
-269.873862535248860
 20
-120.326477028630960
 40
1.500000000000246
 50
19.759651678811821
 51
120.000000000001850
  0
LINE
  8
0
  6
CONTINUOUS
 62
256
 10
-273.270657128227810
 20
-120.555566493700550
 11
-270.623862535248860
 21
-119.027438922954370
  0
ARC
  8
0
  6
CONTINUOUS
 62
256
 10
-272.520657128227810
 20
-121.854604599377130
 40
1.499999999999926
 50
120.000000000001620
 51
198.162995844104900
  0
ARC
  8
0
  6
CONTINUOUS
 62
256
 10
-291.049041804293380
 20
-127.933170326235540
 40
17.999999999999943
 50
341.837004155893340
 51
18.162995844106639
  0
ARC
  8
0
  6
CONTINUOUS
 62
256
 10
-272.520657128227810
 20
-134.011736053093950
 40
1.500000000000038
 50
161.837004155895410
 51
240.000000000005940
  0
LINE
  8
0
  6
CONTINUOUS
 62
256
 10
-270.623862535248860
 20
-136.838901729516690
 11
-273.270657128227810
 21
-135.310774158770980
  0
ARC
  8
0
  6
CONTINUOUS
 62
256
 10
-269.873862535248860
 20
-135.539863623840120
 40
1.499999999999926
 50
239.999999999998410
 51
340.240348321188610
  0
ARC
  8
0
  6
CONTINUOUS
 62
256
 10
-291.049041804293380
 20
-127.933170326235540
 40
14.500000000000163
 50
347.920213139391360
 51
12.079786860606941
  0
ARC
  8
0
  6
CONTINUOUS
 62
256
 10
-278.336899161479270
 20
-125.212613502946620
 40
1.500000000000192
 50
12.079786860592611
 51
120.000000000001070
  0
LINE
  8
0
  6
CONTINUOUS
 62
256
 10
-281.861787871099690
 20
-125.515658140740920
 11
-279.086899161479270
 21
-123.913575397270050
  0
ARC
  8
0
  6
CONTINUOUS
 62
256
 10
-281.111787871099690
 20
-126.814696246417480
 40
1.499999999999926
 50
120.000000000001620
 51
186.421821521801180
  0
ARC
  8
0
  6
CONTINUOUS
 62
256
 10
-291.049041804293380
 20
-127.933170326235540
 40
8.499999999999865
 50
353.578178478199500
 51
6.421821521797406
  0
ARC
  8
0
  6
CONTINUOUS
 62
256
 10
-281.111787871099690
 20
-129.051644406054040
 40
1.500000000000099
 50
173.578178478198990
 51
239.999999999997270
  0
LINE
  8
0
  6
CONTINUOUS
 62
256
 10
-279.086899161479270
 20
-131.952765255201030
 11
-281.861787871099690
 21
-130.350682511730610
  0
ARC
  8
0
  6
CONTINUOUS
 62
256
 10
-278.336899161479270
 20
-130.653727149524460
 40
1.499999999999926
 50
239.999999999998410
 51
347.920213139390850
  0
ARC
  8
0
  6
CONTINUOUS
 62
256
 10
-291.049041804293380
 20
-127.933170326235540
 40
8.500000000000101
 50
53.578178478202645
 51
66.421821521799075
  0
ARC
  8
0
  6
CONTINUOUS
 62
256
 10
-291.049041804293380
 20
-127.933170326235540
 40
23.999999999999819
 50
40.240348321186090
 51
79.759651678814294
  0
LINE
  8
0
  6
CONTINUOUS
 62
256
 10
-284.361787871099690
 20
-121.185531121818710
 11
-281.586899161479270
 21
-119.583448378347820
  0
LINE
  8
0
  6
CONTINUOUS
 62
256
 10
-288.549041804293610
 20
-105.791580500751020
 11
-288.549041804293610
 21
-108.847835642243350
  0
LINE
  8
0
  6
CONTINUOUS
 62
256
 10
-288.549041804293610
 20
-115.563853449382560
 11
-288.549041804293610
 21
-118.768018936323640
  0
ARC
  8
0
  6
CONTINUOUS
 62
256
 10
-291.049041804293380
 20
-127.933170326235540
 40
14.499999999999860
 50
47.920213139391755
 51
72.079786860608280
  0
LINE
  8
0
  6
CONTINUOUS
 62
256
 10
-275.770657128227810
 20
-116.225439474778340
 11
-273.123862535248860
 21
-114.697311904032180
  0
ARC
  8
0
  6
CONTINUOUS
 62
256
 10
-282.336899161479270
 20
-118.284410272671270
 40
1.499999999999926
 50
300.000000000001590
 51
47.920213139381502
  0
ARC
  8
0
  6
CONTINUOUS
 62
256
 10
-287.049041804293610
 20
-105.791580500751020
 40
1.499999999999952
 50
79.759651678814038
 51
180.000000000000000
  0
ARC
  8
0
  6
CONTINUOUS
 62
256
 10
-276.520657128227810
 20
-114.926401369101750
 40
1.499999999999967
 50
221.837004155893250
 51
300.000000000000800
  0
ARC
  8
0
  6
CONTINUOUS
 62
256
 10
-287.049041804293610
 20
-108.847835642243350
 40
1.500000000000000
 50
180.000000000000000
 51
258.162995844103650
  0
ARC
  8
0
  6
CONTINUOUS
 62
256
 10
-287.049041804293610
 20
-115.563853449382560
 40
1.500000000000138
 50
72.079786860605211
 51
180.000000000000000
  0
ARC
  8
0
  6
CONTINUOUS
 62
256
 10
-273.873862535248860
 20
-113.398273798355600
 40
1.499999999999926
 50
300.000000000001590
 51
40.240348321183539
  0
ARC
  8
0
  6
CONTINUOUS
 62
256
 10
-287.049041804293610
 20
-118.768018936323640
 40
1.500000000000000
 50
180.000000000000000
 51
246.421821521804330
  0
ARC
  8
0
  6
CONTINUOUS
 62
256
 10
-285.111787871099690
 20
-119.886493016142140
 40
1.499999999999693
 50
233.578178478195380
 51
300.000000000001650
  0
CIRCLE
  8
0
  6
CONTINUOUS
 62
256
 10
-291.049041804293610
 20
-127.933170326235540
 40
5.000000000000000
  0
ARC
  8
0
  6
CONTINUOUS
 62
256
 10
-268.174355876627890
 20
-110.107662094752850
 40
1.499999999999843
 50
217.928141766204960
 51
300.000000000001080
  0
LINE
  8
0
  6
CONTINUOUS
 62
256
 10
-267.424355876627890
 20
-111.406700200429440
 11
-264.803587634559050
 21
-109.893598950387290
  0
ARC
  8
0
  6
CONTINUOUS
 62
256
 10
-287.049041804293610
 20
-99.210357093545554
 40
1.500000000000000
 50
180.000000000000000
 51
262.071858233795980
  0
ARC
  8
0
  6
CONTINUOUS
 62
256
 10
-291.049041804293380
 20
-127.933170326235540
 40
27.500000000000060
 50
37.928141766201819
 51
82.071858233798267
  0
ARC
  8
0
  6
CONTINUOUS
 62
256
 10
-265.553587634559050
 20
-108.594560844710710
 40
1.499999999999926
 50
300.000000000001590
 51
37.180755781456647
  0
ARC
  8
0
  6
CONTINUOUS
 62
256
 10
-259.887505350142820
 20
-105.323246712552400
 40
1.500000000000102
 50
215.963570118316280
 51
299.999999999997500
  0
ARC
  8
0
  6
CONTINUOUS
 62
256
 10
-291.049041804294060
 20
-127.933170326236000
 40
36.999999999999943
 50
35.963570118321186
 51
84.036429881678188
  0
ARC
  8
0
  6
CONTINUOUS
 62
256
 10
-291.049041804294060
 20
-127.933170326236000
 40
33.500000000000071
 50
37.180755781458252
 51
82.819244218540945
  0
LINE
  8
0
  6
CONTINUOUS
 62
256
 10
-264.924355876627660
 20
-115.736827219352090
 11
-262.303587634558820
 21
-114.223725969309950
  0
ARC
  8
0
  6
CONTINUOUS
 62
256
 10
-261.553587634558820
 20
-115.522764074986750
 40
1.499999999999948
 50
22.819244218550036
 51
119.999999999996500
  0
ARC
  8
0
  6
CONTINUOUS
 62
256
 10
-264.174355876627660
 20
-117.035865325028680
 40
1.499999999999926
 50
120.000000000001620
 51
202.071858233797310
  0
ARC
  8
0
  6
CONTINUOUS
 62
256
 10
-291.049041804293150
 20
-127.933170326236000
 40
27.499999999999886
 50
337.928141766202200
 51
22.071858233797808
  0
ARC
  8
0
  6
CONTINUOUS
 62
256
 10
-291.049041804293840
 20
-127.933170326236450
 40
33.500000000000142
 50
337.180755781459030
 51
22.819244218541971
  0
ARC
  8
0
  6
CONTINUOUS
 62
256
 10
-264.174355876627890
 20
-138.830475327443310
 40
1.499999999999899
 50
157.928141766199360
 51
240.000000000007500
  0
LINE
  8
0
  6
CONTINUOUS
 62
256
 10
-262.303587634558600
 20
-141.642614683162260
 11
-264.924355876627890
 21
-140.129513433120340
  0
ARC
  8
0
  6
CONTINUOUS
 62
256
 10
-261.553587634558600
 20
-140.343576577485690
 40
1.499999999999926
 50
239.999999999998410
 51
337.180755781453000
  0
ARC
  8
0
  6
CONTINUOUS
 62
256
 10
-287.049041804293380
 20
-169.239949430881100
 40
1.500000000000000
 50
180.000000000000000
 51
275.531071524830680
  0
LINE
  8
0
  6
CONTINUOUS
 62
256
 10
-288.549041804293380
 20
-166.224814323326880
 11
-288.549041804293380
 21
-169.239949430881100
  0
LINE
  8
0
  6
CONTINUOUS
 62
256
 10
-288.549041804293380
 20
-156.655983558926440
 11
-288.549041804293380
 21
-159.682186059010750
  0
ARC
  8
0
  6
CONTINUOUS
 62
256
 10
-287.049041804293380
 20
-166.224814323327340
 40
1.500000000000182
 50
95.963570118326047
 51
179.999999999982630
  0
ARC
  8
0
  6
CONTINUOUS
 62
256
 10
-287.049041804293380
 20
-159.682186059010750
 40
1.500000000000000
 50
180.000000000000000
 51
277.180755781458290
  0
ARC
  8
0
  6
CONTINUOUS
 62
256
 10
-287.049041804293380
 20
-156.655983558926440
 40
1.499999999999967
 50
97.928141766195438
 51
180.000000000000000
  0
ARC
  8
0
  6
CONTINUOUS
 62
256
 10
-291.049041804293380
 20
-127.933170326236450
 40
27.499999999999879
 50
277.928141766202600
 51
322.071858233798880
  0
ARC
  8
0
  6
CONTINUOUS
 62
256
 10
-291.049041804293380
 20
-127.933170326235540
 40
37.000000000000028
 50
275.963570118320770
 51
324.036429881678030
  0
ARC
  8
0
  6
CONTINUOUS
 62
256
 10
-291.049041804293380
 20
-127.933170326235540
 40
43.000000000000199
 50
275.531071524838860
 51
324.468928475160340
  0
ARC
  8
0
  6
CONTINUOUS
 62
256
 10
-291.049041804293380
 20
-127.933170326235540
 40
33.500000000000114
 50
277.180755781458230
 51
322.819244218540860
  0
ARC
  8
0
  6
CONTINUOUS
 62
256
 10
-268.174355876627890
 20
-145.758678557719120
 40
1.500000000000320
 50
60.000000000007056
 51
142.071858233781910
  0
ARC
  8
0
  6
CONTINUOUS
 62
256
 10
-259.887505350142360
 20
-150.543093939919340
 40
1.499999999999926
 50
59.999999999998380
 51
144.036429881690370
  0
LINE
  8
0
  6
CONTINUOUS
 62
256
 10
-264.803587634558600
 20
-145.972741702084480
 11
-267.424355876627890
 21
-144.459640452042090
  0
ARC
  8
0
  6
CONTINUOUS
 62
256
 10
-265.553587634558600
 20
-147.271779807761050
 40
1.500000000000240
 50
322.819244218535570
 51
59.999999999998167
  0
ARC
  8
0
  6
CONTINUOUS
 62
256
 10
-295.049041804293840
 20
-169.239949430881100
 40
1.500000000000430
 50
264.468928475160000
 51
0.000000000000000
  0
LINE
  8
0
  6
CONTINUOUS
 62
256
 10
-293.549041804293840
 20
-166.224814323326880
 11
-293.549041804293840
 21
-169.239949430881100
  0
LINE
  8
0
  6
CONTINUOUS
 62
256
 10
-293.549041804293840
 20
-156.655983558926440
 11
-293.549041804293840
 21
-159.682186059010750
  0
ARC
  8
0
  6
CONTINUOUS
 62
256
 10
-295.049041804293840
 20
-166.224814323327340
 40
1.500000000000000
 50
0.000000000017370
 51
84.036429881681926
  0
ARC
  8
0
  6
CONTINUOUS
 62
256
 10
-295.049041804293840
 20
-159.682186059010750
 40
1.499999999999998
 50
262.819244218541710
 51
0.000000000000000
  0
ARC
  8
0
  6
CONTINUOUS
 62
256
 10
-295.049041804293840
 20
-156.655983558926440
 40
1.500000000000000
 50
0.000000000000000
 51
82.071858233804718
  0
ARC
  8
0
  6
CONTINUOUS
 62
256
 10
-291.049041804293840
 20
-127.933170326236450
 40
27.499999999999780
 50
217.928141766201070
 51
262.071858233797340
  0
ARC
  8
0
  6
CONTINUOUS
 62
256
 10
-291.049041804293840
 20
-127.933170326235540
 40
37.000000000000021
 50
215.963570118321940
 51
264.036429881678880
  0
ARC
  8
0
  6
CONTINUOUS
 62
256
 10
-291.049041804293840
 20
-127.933170326235540
 40
42.999999999999901
 50
215.531071524839600
 51
264.468928475160790
  0
ARC
  8
0
  6
CONTINUOUS
 62
256
 10
-291.049041804293840
 20
-127.933170326235540
 40
33.500000000000163
 50
217.180755781459080
 51
262.819244218541770
  0
ARC
  8
0
  6
CONTINUOUS
 62
256
 10
-313.923727731959330
 20
-145.758678557719120
 40
1.500000000000122
 50
37.928141766218694
 51
119.999999999992440
  0
ARC
  8
0
  6
CONTINUOUS
 62
256
 10
-324.821761857429010
 20
-152.050661493696680
 40
1.499999999999926
 50
120.000000000001620
 51
215.531071524832610
  0
LINE
  8
0
  6
CONTINUOUS
 62
256
 10
-325.571761857429010
 20
-150.751623388020110
 11
-322.960578258444850
 21
-149.244055834242770
  0
ARC
  8
0
  6
CONTINUOUS
 62
256
 10
-322.210578258444850
 20
-150.543093939919340
 40
1.499999999999968
 50
35.963570118309242
 51
120.000000000001080
  0
LINE
  8
0
  6
CONTINUOUS
 62
256
 10
-317.294495974028620
 20
-145.972741702084480
 11
-314.673727731959330
 21
-144.459640452042090
  0
ARC
  8
0
  6
CONTINUOUS
 62
256
 10
-316.544495974028620
 20
-147.271779807761050
 40
1.499999999999926
 50
120.000000000001620
 51
217.180755781463600
  0
ARC
  8
0
  6
CONTINUOUS
 62
256
 10
-328.821761857429010
 20
-110.743882389051350
 40
1.499999999999926
 50
59.999999999998380
 51
155.531071524840120
  0
LINE
  8
0
  6
CONTINUOUS
 62
256
 10
-325.460578258444460
 20
-110.952411837151890
 11
-328.071761857429010
 21
-109.444844283374760
  0
LINE
  8
0
  6
CONTINUOUS
 62
256
 10
-317.173727731959560
 20
-115.736827219352090
 11
-319.794495974028390
 21
-114.223725969309950
  0
ARC
  8
0
  6
CONTINUOUS
 62
256
 10
-326.210578258444680
 20
-112.251449942828440
 40
1.499999999999855
 50
335.963570118319300
 51
59.999999999991623
  0
ARC
  8
0
  6
CONTINUOUS
 62
256
 10
-320.544495974028390
 20
-115.522764074986750
 40
1.500000000000123
 50
60.000000000002721
 51
157.180755781457830
  0
ARC
  8
0
  6
CONTINUOUS
 62
256
 10
-317.923727731959560
 20
-117.035865325028680
 40
1.500000000000110
 50
337.928141766202660
 51
59.999999999997605
  0
ARC
  8
0
  6
CONTINUOUS
 62
256
 10
-291.049041804294060
 20
-127.933170326236000
 40
27.499999999999886
 50
157.928141766202200
 51
202.071858233798710
  0
ARC
  8
0
  6
CONTINUOUS
 62
256
 10
-291.049041804293380
 20
-127.933170326236450
 40
37.000000000000213
 50
155.963570118321140
 51
204.036429881678170
  0
ARC
  8
0
  6
CONTINUOUS
 62
256
 10
-291.049041804293380
 20
-127.933170326236450
 40
43.000000000000178
 50
155.531071524839260
 51
204.468928475160140
  0
ARC
  8
0
  6
CONTINUOUS
 62
256
 10
-291.049041804293380
 20
-127.933170326236450
 40
33.499999999999794
 50
157.180755781458400
 51
202.819244218540890
  0
ARC
  8
0
  6
CONTINUOUS
 62
256
 10
-317.923727731959330
 20
-138.830475327443310
 40
1.500000000000320
 50
299.999999999992950
 51
22.071858233784432
  0
ARC
  8
0
  6
CONTINUOUS
 62
256
 10
-328.821761857429010
 20
-145.122458263420870
 40
1.500000000000128
 50
204.468928475167470
 51
299.999999999992440
  0
LINE
  8
0
  6
CONTINUOUS
 62
256
 10
-328.071761857429010
 20
-146.421496369097890
 11
-325.460578258444910
 21
-144.913928815320560
  0
ARC
  8
0
  6
CONTINUOUS
 62
256
 10
-326.210578258444910
 20
-143.614890709643990
 40
1.499999999999926
 50
300.000000000001590
 51
24.036429881676909
  0
LINE
  8
0
  6
CONTINUOUS
 62
256
 10
-319.794495974028620
 20
-141.642614683162260
 11
-317.173727731959330
 21
-140.129513433120340
  0
ARC
  8
0
  6
CONTINUOUS
 62
256
 10
-320.544495974028620
 20
-140.343576577485690
 40
1.500000000000157
 50
202.819244218546660
 51
300.000000000001590
  0
ARC
  8
0
  6
CONTINUOUS
 62
256
 10
-324.821761857428560
 20
-103.815679158775310
 40
1.499999999999976
 50
144.468928475160820
 51
240.000000000002160
  0
LINE
  8
0
  6
CONTINUOUS
 62
256
 10
-322.960578258444400
 20
-106.622284818229200
 11
-325.571761857428560
 21
-105.114717264452110
  0
LINE
  8
0
  6
CONTINUOUS
 62
256
 10
-314.673727731959330
 20
-111.406700200429440
 11
-317.294495974028170
 21
-109.893598950387290
  0
ARC
  8
0
  6
CONTINUOUS
 62
256
 10
-322.210578258444400
 20
-105.323246712552400
 40
1.500000000000123
 50
240.000000000002670
 51
324.036429881683320
  0
ARC
  8
0
  6
CONTINUOUS
 62
256
 10
-316.544495974028170
 20
-108.594560844710710
 40
1.500000000000103
 50
142.819244218542540
 51
239.999999999997580
  0
ARC
  8
0
  6
CONTINUOUS
 62
256
 10
-313.923727731959330
 20
-110.107662094752850
 40
1.499999999999926
 50
239.999999999998410
 51
322.071858233800750
  0
ARC
  8
0
  6
CONTINUOUS
 62
256
 10
-291.049041804293150
 20
-127.933170326236000
 40
37.000000000000099
 50
95.963570118321798
 51
144.036429881678830
  0
ARC
  8
0
  6
CONTINUOUS
 62
256
 10
-291.049041804293150
 20
-127.933170326236000
 40
43.000000000000043
 50
95.531071524839788
 51
144.468928475160770
  0
ARC
  8
0
  6
CONTINUOUS
 62
256
 10
-291.049041804293150
 20
-127.933170326236000
 40
33.499999999999950
 50
97.180755781459084
 51
142.819244218541710
  0
ARC
  8
0
  6
CONTINUOUS
 62
256
 10
-295.049041804293610
 20
-99.210357093545554
 40
1.499999999999998
 50
277.928141766204020
 51
0.000000000000000
  0
ARC
  8
0
  6
CONTINUOUS
 62
256
 10
-334.997629234576150
 20
-77.836555858707698
 40
6.599999999999971
 50
98.597082237248614
 51
134.999999999998520
  0
LINE
  8
0
  6
CONTINUOUS
 62
256
 10
-204.110272670312270
 20
-157.933170326235540
 11
-227.549041804293610
 21
-157.933170326235540
  0
ARC
  8
0
  6
CONTINUOUS
 62
256
 10
-204.110272670312270
 20
-152.933170326235540
 40
5.000000000000000
 50
270.000000000000000
 51
355.138594604198890
  0
ARC
  8
0
  6
CONTINUOUS
 62
256
 10
-204.110272670312270
 20
-102.933170326235750
 40
5.000000000000119
 50
4.861405395798401
 51
90.000000000000000
  0
LINE
  8
0
  6
CONTINUOUS
 62
256
 10
-227.704046863752580
 20
-96.433170326235768
 11
-227.549041804293610
 21
-96.433170326235768
  0
LINE
  8
0
  6
CONTINUOUS
 62
256
 10
-204.110272670312270
 20
-97.933170326235768
 11
-227.549794062009770
 21
-97.933170326235768
  0
LINE
  8
0
  6
CONTINUOUS
 62
256
 10
-227.549041804293610
 20
-159.433170326236000
 11
-227.549041804293610
 21
-157.925669388502680
  0
LINE
  8
0
  6
CONTINUOUS
 62
256
 10
-227.549041804293610
 20
-97.940671263969080
 11
-227.549041804293610
 21
-96.433170326235768
  0
LINE
  8
0
  6
CONTINUOUS
 62
256
 10
-227.704046863752580
 20
-159.433170326236000
 11
-227.549041804293610
 21
-159.433170326236000
  0
ARC
  8
0
  6
CONTINUOUS
 62
256
 10
-55.449041804293756
 20
-127.933170326236000
 40
289.396999999999930
 50
173.948014641331470
 51
180.000000000000000
  0
LINE
  8
0
  6
CONTINUOUS
 62
256
 10
-334.233200446794850
 20
-83.581752098529705
 11
-338.809265839433460
 21
-88.157817491168316
  0
ARC
  8
0
  6
CONTINUOUS
 62
256
 10
-329.990559759675760
 20
-87.824392785649252
 40
5.999999999999923
 50
97.897988672425626
 51
134.999999999996730
  0
ARC
  8
0
  6
CONTINUOUS
 62
256
 10
-291.049041804293610
 20
-368.533170326235900
 40
289.396999999999930
 50
90.000000000000000
 51
97.897988672427758
  0
ARC
  8
0
  6
CONTINUOUS
 62
256
 10
-498.049041804293670
 20
-127.933170326235540
 40
300.000000000000000
 50
0.000000000000000
 51
4.861405395797994
  0
ARC
  8
0
  6
CONTINUOUS
 62
256
 10
-498.049041804293670
 20
-127.933170326235540
 40
300.000000000000170
 50
355.138594604201900
 51
0.000000000000000
  0
INSERT
  8
0
  2
ZU_SYM_2
 10
-378.493864010637030
 20
-168.852126937496450
 50
357.137594773886350
  0
LINE
  8
0
  6
DASHDOT
 62
256
 10
-291.049041804293670
 20
-199.635076193302780
 11
-291.049041804293670
 21
-28.690710074122876
  0
LINE
  8
0
  6
DASHDOT
 62
256
 10
-269.845770872925640
 20
-109.933170326236000
 11
-312.682167680050040
 21
-109.933170326236000
  0
ARC
  8
0
  6
CONTINUOUS
 62
256
 10
-261.799041804293670
 20
-186.933170326236110
 40
1.000000000000000
 50
270.000000000000000
 51
0.000000000000000
  0
ARC
  8
0
  6
CONTINUOUS
 62
256
 10
-320.299041804293670
 20
-186.933170326236000
 40
1.000000000000000
 50
180.000000000000000
 51
270.000000000000000
  0
ARC
  8
0
  6
CONTINUOUS
 62
256
 10
-291.049041804294120
 20
-862.433170326236000
 40
799.999999999999890
 50
88.510141843146016
 51
90.000000000000000
  0
ARC
  8
0
  6
CONTINUOUS
 62
256
 10
-264.299041804293670
 20
-64.226033244772282
 40
1.000000000000000
 50
0.000000000000000
 51
81.491323261740561
  0
ARC
  8
0
  6
CONTINUOUS
 62
256
 10
-251.799041804293670
 20
-67.843235395592330
 40
0.999999999999960
 50
66.230309577346389
 51
180.000000000000000
  0
ARC
  8
0
  6
CONTINUOUS
 62
256
 10
-317.799041804293670
 20
-64.226033244772282
 40
1.000000000000038
 50
98.508676738285459
 51
180.000000000000000
  0
ARC
  8
0
  6
CONTINUOUS
 62
256
 10
-330.299041804293670
 20
-67.843235395592330
 40
1.000000000000000
 50
0.000000000000000
 51
113.769690422677430
  0
ARC
  8
0
  6
CONTINUOUS
 62
256
 10
-251.549041804293670
 20
-186.933170326236000
 40
2.000000000000000
 50
270.000000000000000
 51
0.000000000000000
  0
ARC
  8
0
  6
CONTINUOUS
 62
256
 10
-330.549041804293670
 20
-186.933170326236000
 40
2.000000000000000
 50
180.000000000000000
 51
270.000000000000000
  0
ARC
  8
0
  6
CONTINUOUS
 62
256
 10
-291.049041804293670
 20
-862.433170326236000
 40
800.000000000000000
 50
90.000000000000000
 51
91.489858156853941
  0
ARC
  8
0
  6
CONTINUOUS
 62
256
 10
-326.549041804293670
 20
-183.933170326236000
 40
6.999999999999813
 50
314.415308597191370
 51
325.150095420952540
  0
ARC
  8
0
  6
CONTINUOUS
 62
256
 10
-255.549041804293670
 20
-183.933170326236000
 40
7.000000000000198
 50
214.849904579045360
 51
225.584691402805900
  0
LINE
  8
0
  6
CONTINUOUS
 62
256
 10
-291.049041804293670
 20
-187.933170326236000
 11
-320.804479157755850
 21
-187.933170326236000
  0
LINE
  8
0
  6
CONTINUOUS
 62
256
 10
-291.049041804293670
 20
-187.933170326236000
 11
-261.293604450831940
 21
-187.933170326236000
  0
LINE
  8
0
  6
CONTINUOUS
 62
256
 10
-260.448021289860210
 20
-188.933170326236000
 11
-251.549041804293670
 21
-188.933170326236000
  0
ARC
  8
0
  6
CONTINUOUS
 62
256
 10
-348.360842682330710
 20
-58.294408145918567
 40
2.000000000000016
 50
45.000000000000000
 51
135.000000000000600
  0
ARC
  8
0
  6
CONTINUOUS
 62
256
 10
-342.703988432838290
 20
-52.637553896426198
 40
2.000000000000016
 50
135.000000000000000
 51
225.000000000000000
  0
ARC
  8
0
  6
CONTINUOUS
 62
256
 10
-233.737240926256620
 20
-58.294408145918624
 40
2.000000000000016
 50
45.000000000000000
 51
135.000000000000000
  0
ARC
  8
0
  6
CONTINUOUS
 62
256
 10
-239.394095175749040
 20
-52.637553896426198
 40
2.000000000000016
 50
315.000000000000000
 51
45.000000000000000
  0
ARC
  8
0
  6
CONTINUOUS
 62
256
 10
-295.049041804293670
 20
-44.441897858700088
 40
2.000000000000000
 50
0.000000000000000
 51
90.000000000000000
  0
ARC
  8
0
  6
CONTINUOUS
 62
256
 10
-287.049041804293670
 20
-44.441897858700088
 40
2.000000000000000
 50
90.000000000000000
 51
180.000000000000000
  0
ARC
  8
0
  6
CONTINUOUS
 62
256
 10
-287.049041804293670
 20
-60.453071316347177
 40
2.000000000000000
 50
180.000000000000000
 51
269.429883333265310
  0
ARC
  8
0
  6
CONTINUOUS
 62
256
 10
-295.049041804293670
 20
-60.453071316347177
 40
2.000000000000030
 50
270.570116666734690
 51
0.000000000000000
  0
ARC
  8
0
  6
CONTINUOUS
 62
256
 10
-330.549041804293670
 20
-186.933170326236000
 40
2.000000000000000
 50
180.000000000000000
 51
270.000000000000000
  0
ARC
  8
0
  6
CONTINUOUS
 62
256
 10
-330.549041804293670
 20
-186.933170326236000
 40
2.000000000000000
 50
180.000000000000000
 51
270.000000000000000
  0
ARC
  8
0
  6
DASHDOT
 62
256
 10
-291.049041804293670
 20
-109.933170326236000
 40
89.999999999999943
 50
219.906632329724230
 51
230.093367670273150
  0
ARC
  8
0
  6
CONTINUOUS
 62
256
 10
-355.049041804293670
 20
-173.933170326236000
 40
8.500000000000000
 50
180.000000000000000
 51
270.000000000000000
  0
ARC
  8
0
  6
CONTINUOUS
 62
256
 10
-251.549041804293670
 20
-186.933170326236000
 40
2.000000000000000
 50
270.000000000000000
 51
0.000000000000000
  0
ARC
  8
0
  6
CONTINUOUS
 62
256
 10
-251.549041804293670
 20
-186.933170326236000
 40
2.000000000000000
 50
270.000000000000000
 51
0.000000000000000
  0
ARC
  8
0
  6
CONTINUOUS
 62
256
 10
-255.549041804293670
 20
-183.933170326236000
 40
7.000000000000012
 50
214.849904579046410
 51
225.584691402807100
  0
ARC
  8
0
  6
DASHDOT
 62
256
 10
-291.049041804293670
 20
-109.933170326236000
 40
89.999999999999986
 50
309.906632329726850
 51
320.093367670275710
  0
ARC
  8
0
  6
CONTINUOUS
 62
256
 10
-227.049041804293670
 20
-173.933170326236000
 40
8.500000000000000
 50
270.000000000000000
 51
0.000000000000000
  0
CIRCLE
  8
0
  6
CONTINUOUS
 62
256
 10
-354.688652111083230
 20
-46.293560019447000
 40
5.000000000000000
  0
ARC
  8
0
  6
DASHDOT
 62
256
 10
-291.049041804293670
 20
-109.933170326236000
 40
90.000000000000000
 50
129.906632329726850
 51
140.093367670275740
  0
ARC
  8
0
  6
DASHDOT
 62
256
 10
-291.049041804293670
 20
-109.933170326236000
 40
89.999999999999943
 50
39.906632329724253
 51
50.093367670273132
  0
CIRCLE
  8
0
  6
CONTINUOUS
 62
256
 10
-227.409431497504100
 20
-46.293560019447000
 40
5.000000000000000
  0
ARC
  8
0
  6
CONTINUOUS
 62
256
 10
-355.049041804293670
 20
-45.933170326235995
 40
8.500000000000000
 50
90.000000000000000
 51
180.000000000000000
  0
ARC
  8
0
  6
CONTINUOUS
 62
256
 10
-227.049041804293670
 20
-45.933170326235995
 40
8.500000000000000
 50
0.000000000000000
 51
90.000000000000000
  0
ARC
  8
0
  6
CONTINUOUS
 62
256
 10
-326.549041804293670
 20
-183.933170326236000
 40
6.999999999999971
 50
314.415308597192730
 51
325.150095420953510
  0
LINE
  8
0
  6
CONTINUOUS
 62
256
 10
-336.488434507611370
 20
-67.338389195891693
 11
-346.946629119957610
 21
-56.880194583545460
  0
LINE
  8
0
  6
CONTINUOUS
 62
256
 10
-331.833010587360830
 20
-66.336958866649923
 11
-344.118201995211390
 21
-54.051767458799304
  0
LINE
  8
0
  6
CONTINUOUS
 62
256
 10
-245.609649100975960
 20
-67.338389195891693
 11
-235.151454488629720
 21
-56.880194583545517
  0
LINE
  8
0
  6
CONTINUOUS
 62
256
 10
-250.265073021226500
 20
-66.336958866649923
 11
-237.979881613375940
 21
-54.051767458799304
  0
LINE
  8
0
  6
CONTINUOUS
 62
256
 10
-332.549041804293670
 20
-186.933170326236000
 11
-332.549041804293670
 21
-185.433170326236000
  0
LINE
  8
0
  6
DASHDOT
 62
256
 10
-349.031797861590800
 20
-167.915926383532560
 11
-360.345506360575650
 21
-179.229634882517300
  0
LINE
  8
0
  6
CONTINUOUS
 62
256
 10
-260.448021289859980
 20
-188.933170326236000
 11
-251.549041804293670
 21
-188.933170326236000
  0
LINE
  8
0
  6
CONTINUOUS
 62
256
 10
-249.549041804293670
 20
-186.933170326236000
 11
-249.549041804293670
 21
-185.433170326236000
  0
LINE
  8
0
  6
CONTINUOUS
 62
256
 10
-260.448021289859980
 20
-188.933170326236000
 11
-251.549041804293670
 21
-188.933170326236000
  0
LINE
  8
0
  6
DASHDOT
 62
256
 10
-233.066285746996530
 20
-167.915926383532560
 11
-221.752577248011680
 21
-179.229634882517300
  0
LINE
  8
0
  6
CONTINUOUS
 62
256
 10
-321.650062318727350
 20
-188.933170326236000
 11
-260.448021289859980
 21
-188.933170326236000
  0
LINE
  8
0
  6
CONTINUOUS
 62
256
 10
-291.049041804293670
 20
-187.933170326236000
 11
-261.293604450831710
 21
-187.933170326236000
  0
LINE
  8
0
  6
DASHDOT
 62
256
 10
-349.031797861590800
 20
-51.950414268939426
 11
-360.345506360575650
 21
-40.636705769954688
  0
LINE
  8
0
  6
DASHDOT
 62
256
 10
-233.066285746996530
 20
-51.950414268939426
 11
-221.752577248011680
 21
-40.636705769954688
  0
LINE
  8
0
  6
CONTINUOUS
 62
256
 10
-227.049041804293670
 20
-37.433170326235995
 11
-355.049041804293670
 21
-37.433170326235995
  0
LINE
  8
0
  6
CONTINUOUS
 62
256
 10
-293.049041804293670
 20
-60.453071316347177
 11
-293.049041804293670
 21
-44.441897858700088
  0
LINE
  8
0
  6
CONTINUOUS
 62
256
 10
-289.049041804293670
 20
-60.453071316347177
 11
-289.049041804293670
 21
-44.441897858700088
  0
LINE
  8
0
  6
CONTINUOUS
 62
256
 10
-291.049041804293670
 20
-187.933170326236000
 11
-320.804479157755620
 21
-187.933170326236000
  0
CIRCLE
  8
0
  6
CONTINUOUS
 62
256
 10
361.911948692872560
 20
-46.293560019446893
 40
5.300000000000011
  0
LINE
  8
0
  6
CONTINUOUS
 62
256
 10
66.321586373131865
 20
147.944655600181250
 11
66.321586373131865
 21
139.444657507529880
  0
LINE
  8
0
  6
CONTINUOUS
 62
256
 10
71.321586373131865
 20
139.444657507529880
 11
66.321586373131865
 21
139.444657507529880
  0
LINE
  8
0
  6
CONTINUOUS
 62
256
 10
71.321586373131865
 20
147.944655600181250
 11
66.321586373131865
 21
147.944655600181250
  0
LINE
  8
0
  6
CONTINUOUS
 62
256
 10
66.321586373131865
 20
73.444657507529882
 11
66.321586373131865
 21
81.944655600181250
  0
LINE
  8
0
  6
CONTINUOUS
 62
256
 10
71.321586373131865
 20
81.944655600181250
 11
66.321586373131865
 21
81.944655600181250
  0
LINE
  8
0
  6
CONTINUOUS
 62
256
 10
71.321586373131865
 20
73.444657507529882
 11
66.321586373131865
 21
73.444657507529882
  0
LINE
  8
0
  6
CONTINUOUS
 62
256
 10
66.321586373131865
 20
-129.183169372561680
 11
66.321586373131865
 21
-120.683171279910310
  0
LINE
  8
0
  6
CONTINUOUS
 62
256
 10
71.321586373131865
 20
-120.683171279910310
 11
66.321586373131865
 21
-120.683171279910310
  0
LINE
  8
0
  6
CONTINUOUS
 62
256
 10
71.321586373131865
 20
-129.183169372561680
 11
66.321586373131865
 21
-129.183169372561680
  0
ARC
  8
0
  6
CONTINUOUS
 62
256
 10
248.845574246273370
 20
-177.359934466045730
 40
6.099999427795414
 50
236.271506060540080
 51
275.398072101891500
  0
LINE
  8
0
  6
CONTINUOUS
 62
256
 10
248.827641416790390
 20
-182.433170326236000
 11
249.623391638143630
 21
-183.228920547589210
  0
LINE
  8
0
  6
CONTINUOUS
 62
256
 10
249.906234418053150
 20
-182.946077767679640
 11
249.419431026347640
 21
-183.432881159385260
  0
ARC
  8
0
  6
CONTINUOUS
 62
256
 10
298.272338386082990
 20
112.666829673764160
 40
300.599999999999970
 50
261.402917762750920
 51
261.863110138003210
  0
ARC
  8
0
  6
CONTINUOUS
 62
256
 10
254.323750955800510
 20
-178.029784793764460
 40
6.600000000000001
 50
221.849758418435330
 51
261.402917762751200
  0
ARC
  8
0
  6
CONTINUOUS
 62
256
 10
298.272338386082990
 20
112.666829673764160
 40
300.600000000000020
 50
278.136889861996790
 51
278.597082237249140
  0
ARC
  8
0
  6
CONTINUOUS
 62
256
 10
342.220925816365480
 20
-178.029784793764520
 40
6.599999999999747
 50
278.597082237248910
 51
314.999999999999830
  0
ARC
  8
0
  6
CONTINUOUS
 62
256
 10
347.699102525892560
 20
-177.359934466045760
 40
6.099999427795406
 50
264.601927898108500
 51
303.728493939460630
  0
LINE
  8
0
  6
CONTINUOUS
 62
256
 10
347.151349795556430
 20
-182.433170326236000
 11
346.638442354112730
 21
-182.946077767679670
  0
LINE
  8
0
  6
CONTINUOUS
 62
256
 10
347.717035355375570
 20
-182.433170326236000
 11
346.921285134022300
 21
-183.228920547589240
  0
LINE
  8
0
  6
CONTINUOUS
 62
256
 10
346.638442354112730
 20
-182.946077767679670
 11
347.125245745818350
 21
-183.432881159385260
  0
TEXT
  8
0
  6
CONTINUOUS
 62
256
 10
-325.189575195312500
 20
55.738262176513672
 40
7.919999599456787
  1
ＳＣＡＬＥ１／１
 50
0.000002504478167
 41
0.984848598876354
  7
STANDARD1
  0
TEXT
  8
0
  6
CONTINUOUS
 62
256
 10
-325.189575195312500
 20
68.458259582519531
 40
7.919999599456787
  1
１／３～１／３０
 50
0.000002504478167
 41
0.984848598876354
  7
STANDARD1
  0
TEXT
  8
0
  6
CONTINUOUS
 62
256
 10
-325.189575195312500
 20
81.178260803222656
 40
7.919999599456787
  1
０．４ｋＷ
 50
0.000002504478167
 41
0.984848598876354
  7
STANDARD1
  0
TEXT
  8
0
  6
CONTINUOUS
 62
256
 10
-325.189575195312500
 20
93.898262023925781
 40
7.919999599456787
  1
ＧＭ－ＳＦＳ
 50
0.000002504478167
 41
0.984848598876354
  7
STANDARD1
  0
TEXT
  8
0
  6
CONTINUOUS
 62
256
 10
-325.189575195312500
 20
106.618263244628910
 40
7.919999599456787
  1
三菱ギヤードモートル
 50
0.000002504478167
 41
0.984848598876354
  7
STANDARD1
  0
TEXT
  8
0
  6
CONTINUOUS
 62
256
 10
-325.189575195312500
 20
119.338264465332030
 40
7.919999599456787
  1
Ｓ１５０
 50
0.000002504478167
 41
0.984848598876354
  7
STANDARD1
  0
ARC
  8
0
  6
CONTINUOUS
 62
256
 10
-241.622277664484070
 20
-78.506406186426460
 40
6.099999427795398
 50
354.601910595264880
 51
95.398072101890989
  0
POINT
  8
0
  6
CONTINUOUS
 62
256
 10
-239.359536099557030
 20
-76.243664621499420
  0
LINE
  8
0
  6
CONTINUOUS
 62
256
 10
-236.036134362850160
 20
-79.567066358206276
 11
-242.682937836263900
 21
-72.920262884792564
  0
LINE
  8
0
  6
CONTINUOUS
 62
256
 10
-235.722995753881410
 20
-79.314519407355903
 11
-242.400095056354300
 21
-72.637420104882992
  0
LINE
  8
0
  6
CONTINUOUS
 62
256
 10
-242.682937836263900
 20
-72.920262884792564
 11
-242.196134444558280
 21
-72.433459493086943
  0
LINE
  8
0
  6
CONTINUOUS
 62
256
 10
-236.036134362850160
 20
-79.567066358206276
 11
-235.549330971144570
 21
-79.080262966500655
  0
ARC
  8
0
  6
CONTINUOUS
 62
256
 10
-340.475805944103230
 20
-78.506406186426460
 40
6.099999427795419
 50
84.601927898108499
 51
185.398089404735090
  0
POINT
  8
0
  6
CONTINUOUS
 62
256
 10
-342.738547509030240
 20
-76.243664621499420
  0
LINE
  8
0
  6
CONTINUOUS
 62
256
 10
-346.061949245737080
 20
-79.567066358206276
 11
-339.415145772323400
 21
-72.920262884792564
  0
LINE
  8
0
  6
CONTINUOUS
 62
256
 10
-346.375087854705900
 20
-79.314519407355903
 11
-339.697988552232970
 21
-72.637420104882992
  0
LINE
  8
0
  6
CONTINUOUS
 62
256
 10
-339.415145772323400
 20
-72.920262884792564
 11
-339.901949164029020
 21
-72.433459493086943
  0
LINE
  8
0
  6
CONTINUOUS
 62
256
 10
-346.061949245737080
 20
-79.567066358206276
 11
-346.548752637442700
 21
-79.080262966500655
  0
ARC
  8
0
  6
CONTINUOUS
 62
256
 10
-340.475805944103230
 20
-177.359934466045760
 40
6.099999427795398
 50
174.601910595264910
 51
275.398072101891500
  0
POINT
  8
0
  6
CONTINUOUS
 62
256
 10
-342.738547509030240
 20
-179.622676030972800
  0
LINE
  8
0
  6
CONTINUOUS
 62
256
 10
-346.061949245737080
 20
-176.299274294265930
 11
-339.415145772323400
 21
-182.946077767679670
  0
LINE
  8
0
  6
CONTINUOUS
 62
256
 10
-346.375087854705900
 20
-176.551821245116320
 11
-339.697988552232970
 21
-183.228920547589240
  0
LINE
  8
0
  6
CONTINUOUS
 62
256
 10
-339.415145772323400
 20
-182.946077767679670
 11
-339.901949164029020
 21
-183.432881159385260
  0
LINE
  8
0
  6
CONTINUOUS
 62
256
 10
-346.061949245737080
 20
-176.299274294265930
 11
-346.548752637442700
 21
-176.786077685971550
  0
CIRCLE
  8
0
  6
CONTINUOUS
 62
256
 10
298.272338386082990
 20
-109.933170326236000
 40
65.000000000000000
  0
ENDSEC
  0
EOF
