  0
SECTION
  2
HEADER
  9
$FILLMODE
 70
1
  9
$TEXTSTYLE
  7
STANDARD1
  9
$ACADVER
  1
AC1009
  9
$DIMASZ
 40
1.931851648807023
  9
$DIMEXE
 40
2.000000000000000
  9
$DIMEXO
 40
1.000000000000000
  9
$DIMLFAC
 40
1.000000000000000
  9
$DIMSCALE
 40
1.000000000000000
  9
$DIMTAD
 70
1
  9
$DIMTFAC
 40
0.714285731315613
  9
$DIMTXT
 40
2.799999952316284
  9
$LUPREC
 70
3
  9
$TEXTSIZE
 40
3.299999952316284
  9
$REGENMODE
 70
1
  0
ENDSEC
  0
SECTION
  2
TABLES
  0
TABLE
  2
LTYPE
 70
4
  0
LTYPE
  2
CONTINUOUS
 70
64
  3
Solid line
 72
65
 73
0
 40
0.0
  0
LTYPE
  2
DASHED
 70
64
  3
-- -- -- -- -- -- -- -- -- -- -- -- -- -- --
 72
65
 73
2
 40
0.75
 49
0.5
 49
-0.25
  0
LTYPE
  2
DASHDOT
 70
64
  3
__ . __ . __ . __ . __ . __ . __ . __ . __ . __
 72
65
 73
4
 40
1.0
 49
0.5
 49
-0.25
 49
0.0
 49
-0.25
  0
LTYPE
  2
DIVIDE
 70
64
  3
__ . . __ . . __ . . __ . . __ . . __ . . __
 72
65
 73
6
 40
1.25
 49
0.5
 49
-0.25
 49
0.0
 49
-0.25
 49
0.0
 49
-0.25
  0
ENDTAB
  0
TABLE
  2
LAYER
 70
1
  0
LAYER
  2
0
 70
64
 62
2
  6
CONTINUOUS
  0
ENDTAB
  0
TABLE
  2
STYLE
 70
4
  0
STYLE
  2
STANDARD1
 70
64
 40
0.0
 41
1.0
 50
0.0
 71
0
 42
3.299999952316284
  3
MONOTXT
  4
BIGFONT
  0
STYLE
  2
STANDARD2
 70
68
 40
0.0
 41
1.0
 50
0.0
 71
0
 42
3.299999952316284
  3
MONOTXT
  4
BIGFONT
  0
STYLE
  2
STANDARD3
 70
64
 40
0.0
 41
1.0
 50
0.0
 71
0
 42
3.299999952316284
  3
MONOTXT
  4

  0
STYLE
  2
STANDARD4
 70
68
 40
0.0
 41
1.0
 50
0.0
 71
0
 42
3.299999952316284
  3
MONOTXT
  4

  0
ENDTAB
  0
TABLE
  2
VIEW
 70
0
  0
ENDTAB
  0
ENDSEC
  0
SECTION
  2
BLOCKS
  0
BLOCK
  8
0
  2
SYM1
 70
64
 10
0.000000000000000
 20
0.000000000000000
  0
ARC
  8
0
  6
CONTINUOUS
 62
3
 10
-0.979025304317474
 20
-2.200000762939453
 40
1.299999237060547
 50
196.601531107481040
 51
270.000000000000000
  0
ARC
  8
0
  6
CONTINUOUS
 62
3
 10
-0.979025304317474
 20
2.200000762939453
 40
1.299999237060547
 50
90.000000000000000
 51
163.398451589674950
  0
LINE
  8
0
  6
CONTINUOUS
 62
3
 10
-0.000000000000000
 20
-3.500000000000000
 11
-0.979025304317474
 21
-3.500000000000000
  0
LINE
  8
0
  6
CONTINUOUS
 62
3
 10
0.000000000000000
 20
3.500000000000000
 11
-0.979025304317474
 21
3.500000000000000
  0
LINE
  8
0
  6
CONTINUOUS
 62
3
 10
0.000000000000000
 20
-3.500000000000000
 11
-0.000000000000000
 21
3.500000000000000
  0
LINE
  8
0
  6
CONTINUOUS
 62
3
 10
0.000000000000000
 20
-3.500000000000000
 11
-0.000000000000000
 21
3.500000000000000
  0
POINT
  8
0
  6
CONTINUOUS
 62
3
 10
0.000000000000000
 20
0.000000000000000
  0
ARC
  8
0
  6
CONTINUOUS
 62
3
 10
6.399999618530273
 20
0.000000000000000
 40
9.000000000000000
 50
163.398451589674950
 51
196.601531107481040
  0
ENDBLK
  8
0
  0
BLOCK
  8
0
  2
SYM2
 70
64
 10
0.000000000000000
 20
0.000000000000000
  0
ARC
  8
0
  6
CONTINUOUS
 62
3
 10
-0.979025304317474
 20
-2.200000762939453
 40
1.299999237060547
 50
196.601531107481040
 51
270.000000000000000
  0
ARC
  8
0
  6
CONTINUOUS
 62
3
 10
-0.979025304317474
 20
2.200000762939453
 40
1.299999237060547
 50
90.000000000000000
 51
163.398451589674950
  0
LINE
  8
0
  6
CONTINUOUS
 62
3
 10
-0.000000000000000
 20
-3.500000000000000
 11
-0.979025304317474
 21
-3.500000000000000
  0
LINE
  8
0
  6
CONTINUOUS
 62
3
 10
0.000000000000000
 20
3.500000000000000
 11
-0.979025304317474
 21
3.500000000000000
  0
LINE
  8
0
  6
CONTINUOUS
 62
3
 10
0.000000000000000
 20
-3.500000000000000
 11
-0.000000000000000
 21
3.500000000000000
  0
LINE
  8
0
  6
CONTINUOUS
 62
3
 10
0.000000000000000
 20
-3.500000000000000
 11
-0.000000000000000
 21
3.500000000000000
  0
POINT
  8
0
  6
CONTINUOUS
 62
3
 10
0.000000000000000
 20
0.000000000000000
  0
ARC
  8
0
  6
CONTINUOUS
 62
3
 10
6.399999618530273
 20
0.000000000000000
 40
9.000000000000000
 50
163.398451589674950
 51
196.601531107481040
  0
ENDBLK
  8
0
  0
ENDSEC
  0
SECTION
  2
ENTITIES
  0
LINE
  8
0
  6
CONTINUOUS
 62
3
 10
-365.017575913683570
 20
-83.530511534397547
 11
-365.504379305389190
 21
-83.043708142691926
  0
LINE
  8
0
  6
CONTINUOUS
 62
3
 10
-358.370772440269890
 20
-76.883708060983835
 11
-358.857575831975510
 21
-76.396904669278214
  0
LINE
  8
0
  6
CONTINUOUS
 62
3
 10
-365.330714522652390
 20
-83.277964583547174
 11
-358.653615220179460
 21
-76.600865281074263
  0
LINE
  8
0
  6
CONTINUOUS
 62
3
 10
-365.017575913683570
 20
-83.530511534397547
 11
-358.370772440269890
 21
-76.883708060983835
  0
POINT
  8
0
  6
CONTINUOUS
 62
3
 10
-361.694174176976730
 20
-80.207109797690691
  0
ARC
  8
0
  6
CONTINUOUS
 62
3
 10
-359.431432612049720
 20
-82.469851362617732
 40
6.099999427795419
 50
84.601927898108485
 51
185.398089404735120
  0
LINE
  8
0
  6
CONTINUOUS
 62
3
 10
-365.017575913683570
 20
-180.262719470457200
 11
-365.504379305389190
 21
-180.749522862162820
  0
LINE
  8
0
  6
CONTINUOUS
 62
3
 10
-358.370772440269890
 20
-186.909522943870940
 11
-358.857575831975510
 21
-187.396326335576530
  0
LINE
  8
0
  6
CONTINUOUS
 62
3
 10
-365.330714522652390
 20
-180.515266421307590
 11
-358.653615220179460
 21
-187.192365723780510
  0
LINE
  8
0
  6
CONTINUOUS
 62
3
 10
-365.017575913683570
 20
-180.262719470457200
 11
-358.370772440269890
 21
-186.909522943870940
  0
POINT
  8
0
  6
CONTINUOUS
 62
3
 10
-361.694174176976730
 20
-183.586121207164070
  0
ARC
  8
0
  6
CONTINUOUS
 62
3
 10
-359.431432612049720
 20
-181.323379642237030
 40
6.099999427795398
 50
174.601910595264880
 51
275.398072101891500
  0
LINE
  8
0
  6
CONTINUOUS
 62
3
 10
-254.991761030796710
 20
-180.262719470457200
 11
-254.504957639091120
 21
-180.749522862162820
  0
LINE
  8
0
  6
CONTINUOUS
 62
3
 10
-261.638564504210420
 20
-186.909522943870940
 11
-261.151761112504800
 21
-187.396326335576530
  0
LINE
  8
0
  6
CONTINUOUS
 62
3
 10
-254.678622421827950
 20
-180.515266421307590
 11
-261.355721724300850
 21
-187.192365723780510
  0
LINE
  8
0
  6
CONTINUOUS
 62
3
 10
-254.991761030796710
 20
-180.262719470457200
 11
-261.638564504210420
 21
-186.909522943870940
  0
POINT
  8
0
  6
CONTINUOUS
 62
3
 10
-258.315162767503580
 20
-183.586121207164070
  0
ARC
  8
0
  6
CONTINUOUS
 62
3
 10
-260.577904332430590
 20
-181.323379642237030
 40
6.099999427795406
 50
264.601927898108500
 51
5.398089404735133
  0
LINE
  8
0
  6
CONTINUOUS
 62
3
 10
-254.991761030796710
 20
-83.530511534397547
 11
-254.504957639091120
 21
-83.043708142691926
  0
LINE
  8
0
  6
CONTINUOUS
 62
3
 10
-261.638564504210420
 20
-76.883708060983835
 11
-261.151761112504800
 21
-76.396904669278214
  0
LINE
  8
0
  6
CONTINUOUS
 62
3
 10
-254.678622421827950
 20
-83.277964583547174
 11
-261.355721724300850
 21
-76.600865281074263
  0
LINE
  8
0
  6
CONTINUOUS
 62
3
 10
-254.991761030796710
 20
-83.530511534397547
 11
-261.638564504210420
 21
-76.883708060983835
  0
POINT
  8
0
  6
CONTINUOUS
 62
3
 10
-258.315162767503580
 20
-80.207109797690691
  0
ARC
  8
0
  6
CONTINUOUS
 62
3
 10
-260.577904332430590
 20
-82.469851362617732
 40
6.099999427795368
 50
354.601910595264880
 51
95.398072101891515
  0
TEXT
  8
0
  6
CONTINUOUS
 62
3
 10
-350.124176025390620
 20
125.748306274414060
 40
9.104039192199707
  1
Ｓ１５１
 50
0.000002504478167
 41
0.984848595950023
  7
STANDARD1
  0
TEXT
  8
0
  6
CONTINUOUS
 62
3
 10
-350.124176025390620
 20
111.126663208007810
 40
9.104039192199707
  1
三菱ギヤードモートル
 50
0.000002504478167
 41
0.984848595950023
  7
STANDARD1
  0
TEXT
  8
0
  6
CONTINUOUS
 62
3
 10
-350.124176025390620
 20
96.505020141601562
 40
9.104039192199707
  1
ＧＭ－ＳＦＳ
 50
0.000002504478167
 41
0.984848595950023
  7
STANDARD1
  0
TEXT
  8
0
  6
CONTINUOUS
 62
3
 10
-350.124176025390620
 20
81.883384704589844
 40
9.104039192199707
  1
０．４ｋＷ
 50
0.000002504478167
 41
0.984848595950023
  7
STANDARD1
  0
TEXT
  8
0
  6
CONTINUOUS
 62
3
 10
-350.124176025390620
 20
67.261741638183594
 40
9.104039192199707
  1
１／４０,１／５０
 50
0.000002504478167
 41
0.965694798122840
  7
STANDARD1
  0
TEXT
  8
0
  6
CONTINUOUS
 62
3
 10
-350.124176025390620
 20
52.640098571777344
 40
9.104039192199707
  1
ＳＣＡＬＥ１／１
 50
0.000002504478167
 41
0.984848595950023
  7
STANDARD1
  0
LINE
  8
0
  6
CONTINUOUS
 62
3
 10
59.972902521701144
 20
-138.896615502426360
 11
53.972902521701144
 21
-138.896615502426360
  0
LINE
  8
0
  6
CONTINUOUS
 62
3
 10
59.972902521701144
 20
-128.896615502426360
 11
53.972902521701144
 21
-128.896615502426360
  0
LINE
  8
0
  6
CONTINUOUS
 62
3
 10
53.972902521701144
 20
-138.896615502426360
 11
53.972902521701144
 21
-128.896615502426360
  0
LINE
  8
0
  6
CONTINUOUS
 62
3
 10
59.972902521701144
 20
76.472443451671097
 11
53.972902521701144
 21
76.472443451671097
  0
LINE
  8
0
  6
CONTINUOUS
 62
3
 10
59.972902521701144
 20
86.472443451671097
 11
53.972902521701144
 21
86.472443451671097
  0
LINE
  8
0
  6
CONTINUOUS
 62
3
 10
53.972902521701144
 20
76.472443451671097
 11
53.972902521701144
 21
86.472443451671097
  0
LINE
  8
0
  6
CONTINUOUS
 62
3
 10
59.972902521701144
 20
154.472443451672010
 11
53.972902521701144
 21
154.472443451672010
  0
LINE
  8
0
  6
CONTINUOUS
 62
3
 10
59.972902521701144
 20
144.472443451672010
 11
53.972902521701144
 21
144.472443451672010
  0
LINE
  8
0
  6
CONTINUOUS
 62
3
 10
53.972902521701144
 20
154.472443451672010
 11
53.972902521701144
 21
144.472443451672010
  0
ARC
  8
0
  6
CONTINUOUS
 62
3
 10
-350.004668472240160
 20
-190.396615502427380
 40
6.999999999999856
 50
171.263953591910850
 51
231.786789298261400
  0
ARC
  8
0
  6
CONTINUOUS
 62
3
 10
-270.004668472240160
 20
-190.396615502427380
 40
6.999999999999967
 50
308.213210701738600
 51
8.736046408089175
  0
ARC
  8
0
  6
CONTINUOUS
 62
3
 10
-270.004668472240160
 20
-190.396615502427380
 40
8.000000000000130
 50
214.228866327811460
 51
223.432536557788520
  0
ARC
  8
0
  6
CONTINUOUS
 62
3
 10
-350.004668472240160
 20
-190.396615502427380
 40
8.000000000000103
 50
316.567463442211480
 51
325.771133672188510
  0
ARC
  8
0
  6
CONTINUOUS
 62
3
 10
-314.004668472240160
 20
-42.905343034891416
 40
2.000000000000000
 50
0.000000000000000
 51
90.000000000000000
  0
ARC
  8
0
  6
CONTINUOUS
 62
3
 10
-306.004668472240160
 20
-42.905343034891416
 40
2.000000000000000
 50
90.000000000000000
 51
180.000000000000000
  0
ARC
  8
0
  6
CONTINUOUS
 62
3
 10
-249.910437624874250
 20
-57.459238904553843
 40
1.999999999999855
 50
45.000000000004619
 51
135.000000000005740
  0
ARC
  8
0
  6
CONTINUOUS
 62
3
 10
-263.765677621241140
 20
-71.314478900920960
 40
2.000000000000177
 50
135.000000000004600
 51
240.331529354826160
  0
ARC
  8
0
  6
CONTINUOUS
 62
3
 10
-271.484571675800910
 20
-67.719664456495764
 40
1.999999999999985
 50
249.724148801143600
 51
314.999999999996530
  0
ARC
  8
0
  6
CONTINUOUS
 62
3
 10
-255.567291874366670
 20
-51.802384655061473
 40
1.999999999999855
 50
314.999999999995400
 51
45.000000000005763
  0
ARC
  8
0
  6
CONTINUOUS
 62
3
 10
-348.524765268679400
 20
-67.719664456495764
 40
1.999999999999815
 50
225.000000000003470
 51
290.275851198868620
  0
ARC
  8
0
  6
CONTINUOUS
 62
3
 10
-356.243659323238720
 20
-71.314478900920960
 40
1.999999999999878
 50
299.668470645162470
 51
45.000000000004619
  0
ARC
  8
0
  6
CONTINUOUS
 62
3
 10
-370.098899319605610
 20
-57.459238904553843
 40
1.999999999999815
 50
45.000000000003460
 51
135.000000000004600
  0
ARC
  8
0
  6
CONTINUOUS
 62
3
 10
-364.442045070113180
 20
-51.802384655061473
 40
2.000000000000217
 50
135.000000000003470
 51
224.999999999995400
  0
ARC
  8
0
  6
CONTINUOUS
 62
3
 10
-314.004668472240160
 20
-63.916516492538449
 40
2.000000000000030
 50
270.570116666734690
 51
0.000000000000000
  0
ARC
  8
0
  6
CONTINUOUS
 62
3
 10
-306.004668472240160
 20
-63.916516492538449
 40
2.000000000000000
 50
180.000000000000000
 51
269.429883333265310
  0
CIRCLE
  8
0
  6
CONTINUOUS
 62
3
 10
-241.061757306551500
 20
-180.839526668115700
 40
5.000000000000000
  0
ARC
  8
0
  6
CONTINUOUS
 62
3
 10
-240.004668472240160
 20
-181.896615502427270
 40
10.000000000000000
 50
270.000000000000000
 51
0.000000000000000
  0
ARC
  8
0
  6
CONTINUOUS
 62
3
 10
-240.004668472240160
 20
-41.896615502427267
 40
10.000000000000000
 50
0.000000000000000
 51
90.000000000000000
  0
ARC
  8
0
  6
CONTINUOUS
 62
3
 10
-380.004668472240160
 20
-41.896615502427267
 40
10.000000000000000
 50
90.000000000000000
 51
180.000000000000000
  0
ARC
  8
0
  6
CONTINUOUS
 62
3
 10
-380.004668472240160
 20
-181.896615502427270
 40
10.000000000000000
 50
180.000000000000000
 51
270.000000000000000
  0
CIRCLE
  8
0
  6
CONTINUOUS
 62
3
 10
-241.061757306551500
 20
-42.953704336738838
 40
5.000000000000000
  0
CIRCLE
  8
0
  6
CONTINUOUS
 62
3
 10
-378.947579637928360
 20
-42.953704336738838
 40
5.000000000000000
  0
CIRCLE
  8
0
  6
CONTINUOUS
 62
3
 10
-378.947579637928360
 20
-180.839526668115700
 40
5.000000000000000
  0
LINE
  8
0
  6
CONTINUOUS
 62
3
 10
-251.324651187247580
 20
-56.045025342180793
 11
-265.179891183614470
 21
-69.900265338547854
  0
LINE
  8
0
  6
CONTINUOUS
 62
3
 10
-254.153078311993800
 20
-53.216598217434580
 11
-270.070358113428030
 21
-69.133878018868813
  0
LINE
  8
0
  6
CONTINUOUS
 62
3
 10
-365.856258632486520
 20
-53.216598217434580
 11
-349.938978831052280
 21
-69.133878018868813
  0
LINE
  8
0
  6
CONTINUOUS
 62
3
 10
-368.684685757232730
 20
-56.045025342180793
 11
-354.829445760865840
 21
-69.900265338547854
  0
LINE
  8
0
  6
CONTINUOUS
 62
3
 10
-312.004668472240160
 20
-42.905343034891416
 11
-312.004668472240160
 21
-63.916516492538449
  0
LINE
  8
0
  6
CONTINUOUS
 62
3
 10
-308.004668472240160
 20
-42.905343034891416
 11
-308.004668472240160
 21
-63.916516492538449
  0
LINE
  8
0
  6
CONTINUOUS
 62
3
 10
-310.004668472240160
 20
-194.896615502427270
 11
-276.619046749901830
 21
-194.896615502427270
  0
LINE
  8
0
  6
CONTINUOUS
 62
3
 10
-310.004668472240160
 20
-194.896615502427270
 11
-343.390290194578480
 21
-194.896615502427270
  0
LINE
  8
0
  6
CONTINUOUS
 62
3
 10
-380.004668472240160
 20
-31.896615502427267
 11
-240.004668472240160
 21
-31.896615502427267
  0
LINE
  8
0
  6
CONTINUOUS
 62
3
 10
-380.004668472240160
 20
-191.896615502427270
 11
-356.712872404739300
 21
-191.896615502427270
  0
LINE
  8
0
  6
CONTINUOUS
 62
3
 10
-263.167271306651400
 20
-191.896615502427270
 11
-240.004668472240160
 21
-191.896615502427270
  0
ARC
  8
0
  6
CONTINUOUS
 62
3
 10
-350.004668472240160
 20
-190.396615502427380
 40
6.999999999999847
 50
171.263953591911300
 51
231.786789298261110
  0
ARC
  8
0
  6
CONTINUOUS
 62
3
 10
-350.004668472240160
 20
-190.396615502427320
 40
8.000000000000103
 50
316.567463442211480
 51
325.771133672188510
  0
ARC
  8
0
  6
CONTINUOUS
 62
3
 10
-343.655455922639700
 20
-193.896615502427270
 40
1.000000000000049
 50
151.134272584994620
 51
270.000000000000000
  0
ARC
  8
0
  6
CONTINUOUS
 62
3
 10
-270.004668472240160
 20
-190.396615502427320
 40
8.000000000000130
 50
214.228866327811460
 51
223.432536557788520
  0
ARC
  8
0
  6
CONTINUOUS
 62
3
 10
-276.353881021840150
 20
-193.896615502427270
 40
1.000000000000000
 50
270.000000000000000
 51
28.865727415017957
  0
ARC
  8
0
  6
CONTINUOUS
 62
3
 10
-270.004668472240160
 20
-190.396615502427380
 40
6.999999999999923
 50
308.213210701738890
 51
8.736046408089175
  0
ARC
  8
0
  6
CONTINUOUS
 62
3
 10
-268.754668472240160
 20
-72.107878157659002
 40
1.000000000000083
 50
64.946180956734580
 51
180.000000000000000
  0
ARC
  8
0
  6
CONTINUOUS
 62
3
 10
-283.254668472240160
 20
-67.897719910564774
 40
1.000000000000000
 50
0.000000000000000
 51
82.671902030106693
  0
ARC
  8
0
  6
CONTINUOUS
 62
3
 10
-336.754668472240160
 20
-67.897719910564774
 40
0.999999999999946
 50
97.328097969867457
 51
180.000000000000000
  0
ARC
  8
0
  6
CONTINUOUS
 62
3
 10
-351.254668472240160
 20
-72.107878157659002
 40
1.000000000000000
 50
0.000000000000000
 51
115.053819043243200
  0
ARC
  8
0
  6
CONTINUOUS
 62
3
 10
-310.004668472240160
 20
-465.896615502427270
 40
400.000000000000000
 50
90.000000000000000
 51
93.357817421570644
  0
ARC
  8
0
  6
CONTINUOUS
 62
3
 10
-310.004668472240160
 20
-465.896615502427270
 40
400.000000000000170
 50
86.642182578429299
 51
90.000000000000000
  0
LINE
  8
0
  6
CONTINUOUS
 62
3
 10
-310.004668472240160
 20
-194.896615502427270
 11
-343.655455922639700
 21
-194.896615502427270
  0
LINE
  8
0
  6
CONTINUOUS
 62
3
 10
-310.004668472240160
 20
-194.896615502427270
 11
-276.353881021840150
 21
-194.896615502427270
  0
POINT
  8
0
  6
CONTINUOUS
 62
3
 10
-310.004668472240160
 20
-111.896615502427260
  0
ARC
  8
0
  6
DASHDOT
 62
4
 10
-310.004668472240160
 20
-111.896615502427260
 40
97.500000000000128
 50
309.123187734056610
 51
320.876812265942590
  0
LINE
  8
0
  6
DASHDOT
 62
4
 10
-249.461547499773700
 20
-172.439736474893780
 11
-233.683867766023580
 21
-188.217416208643900
  0
ARC
  8
0
  6
DASHDOT
 62
4
 10
-310.004668472240160
 20
-111.896615502427260
 40
97.500000000000099
 50
218.996115939780340
 51
230.876812265942480
  0
LINE
  8
0
  6
DASHDOT
 62
4
 10
-370.095467904215070
 20
-171.987414934402120
 11
-386.310059997096570
 21
-188.202007027283630
  0
ARC
  8
0
  6
DASHDOT
 62
4
 10
-310.004668472240160
 20
-111.896615502427260
 40
97.500000000000298
 50
129.123187734056760
 51
140.876812265942500
  0
LINE
  8
0
  6
DASHDOT
 62
4
 10
-371.851195210187260
 20
-50.050088764480165
 11
-386.220692630795500
 21
-35.680591343871981
  0
ARC
  8
0
  6
DASHDOT
 62
4
 10
-310.004668472240160
 20
-111.896615502427260
 40
97.500000000000071
 50
39.648895764733190
 51
50.876812265942618
  0
LINE
  8
0
  6
DASHDOT
 62
4
 10
-248.520621032523080
 20
-50.412568062710136
 11
-233.921444861920350
 21
-35.813391892107404
  0
LINE
  8
0
  6
DASHDOT
 62
4
 10
-329.338054340652890
 20
-111.896615502427260
 11
-290.827203285040010
 21
-111.896615502427260
  0
LINE
  8
0
  6
DASHDOT
 62
4
 10
-310.004668472240160
 20
-19.339569882725300
 11
-310.004668472240160
 21
-111.896615502427260
  0
INSERT
  8
0
  2
SYM1
 10
-397.449490678583520
 20
-172.815572113687720
 41
1.000000000000000
 42
1.000000000000000
 43
1.000000000000000
 50
357.137594773886350
  0
LINE
  8
0
  6
CONTINUOUS
 62
3
 10
-391.007538092821050
 20
-76.016495429647080
 11
-396.101175021098020
 21
-177.889233995187850
  0
LINE
  8
0
  6
CONTINUOUS
 62
3
 10
-396.101175021098020
 20
-177.889233995187850
 11
-397.699178763302600
 21
-177.809333808076870
  0
LINE
  8
0
  6
CONTINUOUS
 62
3
 10
-392.605541835025630
 20
-75.936595242536896
 11
-397.699178763302600
 21
-177.809333808076870
  0
ARC
  8
0
  6
CONTINUOUS
 62
3
 10
-393.723170936876160
 20
-78.684210838781723
 40
1.299999237060474
 50
87.137594090651831
 51
160.536063666412870
  0
ARC
  8
0
  6
CONTINUOUS
 62
3
 10
-393.942896527628140
 20
-83.078722653819455
 40
1.299999237060493
 50
193.739143184211430
 51
267.137612759980240
  0
LINE
  8
0
  6
CONTINUOUS
 62
3
 10
-392.680448260440930
 20
-77.434723750853550
 11
-393.658252072948470
 21
-77.385833560228207
  0
LINE
  8
0
  6
CONTINUOUS
 62
3
 10
-393.030011579048050
 20
-84.425990122998428
 11
-394.007815391555820
 21
-84.377099932373085
  0
LINE
  8
0
  6
CONTINUOUS
 62
3
 10
-392.680448260440930
 20
-77.434723750853550
 11
-393.030011579048050
 21
-84.425990122998428
  0
LINE
  8
0
  6
CONTINUOUS
 62
3
 10
-392.680448260440930
 20
-77.434723750853550
 11
-393.030011579048050
 21
-84.425990122998428
  0
POINT
  8
0
  6
CONTINUOUS
 62
3
 10
-392.855229919744490
 20
-80.930356936925932
  0
ARC
  8
0
  6
CONTINUOUS
 62
3
 10
-386.463215331920080
 20
-81.249957666317187
 40
9.000000000000060
 50
160.536063666407810
 51
193.739143184213500
  0
LINE
  8
0
  6
CONTINUOUS
 62
3
 10
-392.605541835025630
 20
-75.936595242536896
 11
-391.007538092821050
 21
-76.016495429647080
  0
ARC
  8
0
  6
CONTINUOUS
 62
3
 10
-393.304668472240110
 20
-105.939115502427280
 40
18.799999999999933
 50
144.191373186504250
 51
174.275189547776390
  0
ARC
  8
0
  6
CONTINUOUS
 62
3
 10
-393.304668472240110
 20
-105.939115502427280
 40
18.800000000000036
 50
94.873974813842736
 51
144.191373186504250
  0
LINE
  8
0
  6
CONTINUOUS
 62
3
 10
-416.000927823861050
 20
-143.864302534846270
 11
-412.010902886205030
 21
-104.063803781729000
  0
ARC
  8
0
  6
CONTINUOUS
 62
3
 10
-399.231134303572390
 20
-168.398475824470780
 40
2.000000000000154
 50
357.137594773887600
 51
80.083463391767268
  0
LINE
  8
0
  6
CONTINUOUS
 62
3
 10
-391.806539963923340
 20
-75.976545336092045
 11
-396.900176892200310
 21
-177.849283901632130
  0
ARC
  8
0
  6
CONTINUOUS
 62
3
 10
-393.638121205856580
 20
-168.678126479356590
 40
1.999999999999962
 50
94.191726156001650
 51
177.137594773887290
  0
ARC
  8
0
  6
CONTINUOUS
 62
3
 10
-395.071926935868990
 20
-85.214328470403757
 40
1.999999999999928
 50
274.873974813840960
 51
357.137594773887320
  0
ARC
  8
0
  6
CONTINUOUS
 62
3
 10
-389.478913838153180
 20
-85.493979125289570
 40
1.999999999999927
 50
177.137594773887290
 51
259.401214733934010
  0
ARC
  8
0
  6
CONTINUOUS
 62
3
 10
-395.304668472240110
 20
-145.939115502427280
 40
20.799999999999986
 50
174.275189547776620
 51
205.640070215894870
  0
ARC
  8
0
  6
CONTINUOUS
 62
3
 10
-395.304668472240110
 20
-145.939115502427280
 40
20.799999999999926
 50
205.640070215894870
 51
260.083463391769440
  0
ARC
  8
0
  6
CONTINUOUS
 62
3
 10
-395.304668472240110
 20
-145.939115502427280
 40
20.799999999999986
 50
174.275189547776620
 51
205.640070215894870
  0
ARC
  8
0
  6
CONTINUOUS
 62
3
 10
-393.304668472240110
 20
-105.939115502427280
 40
18.799999999999955
 50
0.000000000000000
 51
79.401214733933941
  0
POINT
  8
0
  6
DASHDOT
 62
4
 10
-374.504668472240160
 20
-131.910345995553260
  0
LINE
  8
0
  6
CONTINUOUS
 62
3
 10
-374.504668472240160
 20
-114.566006742201860
 11
-374.504668472240160
 21
-105.939115502427280
  0
ARC
  8
0
  6
CONTINUOUS
 62
3
 10
-395.304668472240110
 20
-145.939115502427280
 40
20.800000000000082
 50
274.191726156007460
 51
354.952683218987430
  0
ARC
  8
0
  6
CONTINUOUS
 62
4
 10
-310.004668472239930
 20
108.703384497572640
 40
289.396999999999820
 50
262.102011327572200
 51
270.000000000000000
  0
ARC
  8
0
  6
CONTINUOUS
 62
4
 10
-348.946186427622250
 20
-172.005393043014010
 40
6.000000000000049
 50
225.000000000003070
 51
262.102011327574360
  0
LINE
  8
0
  6
CONTINUOUS
 62
4
 10
-353.188827114741340
 20
-176.248033730133560
 11
-357.764892507379950
 21
-171.671968337494950
  0
ARC
  8
0
  6
CONTINUOUS
 62
4
 10
-346.877569397450540
 20
-160.784645227565530
 40
15.397000000000052
 50
186.051985358668840
 51
225.000000000000000
  0
ARC
  8
0
  6
CONTINUOUS
 62
4
 10
-74.404668472240019
 20
-131.896615502427270
 40
289.397000000000160
 50
180.000000000000000
 51
186.051985358668500
  0
ARC
  8
0
  6
CONTINUOUS
 62
4
 10
-310.004668472240160
 20
108.703384497572640
 40
289.396999999999930
 50
270.000000000000000
 51
277.897988672427800
  0
ARC
  8
0
  6
CONTINUOUS
 62
4
 10
-271.063150516857830
 20
-172.005393043014010
 40
5.999999999999923
 50
277.897988672425640
 51
314.999999999996870
  0
LINE
  8
0
  6
CONTINUOUS
 62
4
 10
-266.820509829738740
 20
-176.248033730133560
 11
-262.244444437100130
 21
-171.671968337494950
  0
ARC
  8
0
  6
CONTINUOUS
 62
4
 10
-273.131767547029540
 20
-160.784645227565530
 40
15.396999999999876
 50
315.000000000000000
 51
353.948014641331160
  0
ARC
  8
0
  6
CONTINUOUS
 62
4
 10
-545.604668472240060
 20
-131.896615502427270
 40
289.397000000000160
 50
353.948014641331500
 51
0.000000000000000
  0
ARC
  8
0
  6
CONTINUOUS
 62
4
 10
-310.004668472240160
 20
-372.496615502427180
 40
289.396999999999820
 50
82.102011327572214
 51
90.000000000000000
  0
ARC
  8
0
  6
CONTINUOUS
 62
4
 10
-271.063150516857830
 20
-91.787837961840523
 40
6.000000000000049
 50
45.000000000003077
 51
82.102011327574374
  0
LINE
  8
0
  6
CONTINUOUS
 62
4
 10
-266.820509829738740
 20
-87.545197274720977
 11
-262.244444437100130
 21
-92.121262667359588
  0
ARC
  8
0
  6
CONTINUOUS
 62
4
 10
-273.131767547029540
 20
-103.008585777288990
 40
15.397000000000052
 50
6.051985358668849
 51
45.000000000000000
  0
ARC
  8
0
  6
CONTINUOUS
 62
4
 10
-545.604668472240060
 20
-131.896615502427270
 40
289.397000000000160
 50
0.000000000000000
 51
6.051985358668508
  0
ARC
  8
0
  6
CONTINUOUS
 62
4
 10
-346.877569397450540
 20
-103.008585777288990
 40
15.396999999999876
 50
135.000000000000000
 51
173.948014641331160
  0
ARC
  8
0
  6
CONTINUOUS
 62
3
 10
-273.131767547029540
 20
-160.784645227565530
 40
26.599999999999955
 50
315.000000000001020
 51
353.948014641331380
  0
ARC
  8
0
  6
CONTINUOUS
 62
3
 10
-346.877569397450540
 20
-160.784645227565530
 40
26.599999999999969
 50
186.051985358668590
 51
224.999999999998980
  0
ARC
  8
0
  6
CONTINUOUS
 62
3
 10
-346.877569397450540
 20
-103.008585777288990
 40
26.600000000000119
 50
135.000000000000000
 51
173.948014641331410
  0
ARC
  8
0
  6
CONTINUOUS
 62
3
 10
-273.131767547029770
 20
-103.008585777288990
 40
26.600000000000193
 50
6.051985358668552
 51
45.000000000000000
  0
LINE
  8
0
  6
CONTINUOUS
 62
3
 10
-358.620160658353830
 20
-77.133096279067786
 11
-365.686609777012790
 21
-84.199545397726752
  0
ARC
  8
0
  6
CONTINUOUS
 62
3
 10
-353.953255902522640
 20
-181.993229969955790
 40
6.599999999999957
 50
225.000000000000000
 51
261.402917762751090
  0
ARC
  8
0
  6
CONTINUOUS
 62
3
 10
-310.004668472240160
 20
108.703384497572870
 40
300.600000000000020
 50
261.402917762750920
 51
270.000000000000000
  0
ARC
  8
0
  6
CONTINUOUS
 62
3
 10
-266.056081041957670
 20
-181.993229969955790
 40
6.599999999999747
 50
278.597082237248910
 51
315.000000000000000
  0
LINE
  8
0
  6
CONTINUOUS
 62
3
 10
-261.389176286126490
 20
-186.660134725786970
 11
-254.322727167467060
 21
-179.593685607127330
  0
ARC
  8
0
  6
CONTINUOUS
 62
3
 10
-545.604668472240060
 20
-131.896615502427270
 40
300.600000000000080
 50
353.948014641331500
 51
6.051985358668499
  0
ARC
  8
0
  6
CONTINUOUS
 62
3
 10
-310.004668472240160
 20
-372.496615502427180
 40
300.599999999999800
 50
81.402917762750931
 51
90.000000000000000
  0
ARC
  8
0
  6
CONTINUOUS
 62
3
 10
-266.056081041957670
 20
-81.800001034898969
 40
6.600000000000118
 50
45.000000000001400
 51
81.402917762751386
  0
ARC
  8
0
  6
CONTINUOUS
 62
3
 10
-310.004668472240160
 20
108.703384497572870
 40
300.600000000000140
 50
270.000000000000000
 51
278.597082237249080
  0
ARC
  8
0
  6
CONTINUOUS
 62
3
 10
-310.004668472240160
 20
-372.496615502427180
 40
300.599999999999910
 50
90.000000000000000
 51
98.597082237249069
  0
ARC
  8
0
  6
CONTINUOUS
 62
3
 10
-74.404668472240019
 20
-131.896615502427270
 40
300.600000000000080
 50
173.948014641331500
 51
186.051985358668500
  0
LINE
  8
0
  6
CONTINUOUS
 62
3
 10
-261.389176286126490
 20
-77.133096279067786
 11
-254.322727167467520
 21
-84.199545397726752
  0
LINE
  8
0
  6
CONTINUOUS
 62
3
 10
-358.620160658353830
 20
-186.660134725786970
 11
-365.686609777013020
 21
-179.593685607127330
  0
ARC
  8
0
  6
CONTINUOUS
 62
3
 10
-306.004668472240160
 20
-90.589836397781710
 40
1.500000000000203
 50
84.468928475159132
 51
180.000000000000000
  0
ARC
  8
0
  6
CONTINUOUS
 62
3
 10
-314.004668472240160
 20
-90.589836397781482
 40
1.500000000000000
 50
0.000000000000000
 51
95.531071524841693
  0
ARC
  8
0
  6
CONTINUOUS
 62
3
 10
-310.004668472239930
 20
-131.896615502426810
 40
17.999999999999922
 50
41.837004155893325
 51
78.162995844107314
  0
ARC
  8
0
  6
CONTINUOUS
 62
3
 10
-310.004668472240380
 20
-131.896615502426810
 40
27.499999999999815
 50
97.928141766201691
 51
142.071858233797880
  0
LINE
  8
0
  6
CONTINUOUS
 62
3
 10
-307.504668472240160
 20
-90.589836397781710
 11
-307.504668472240160
 21
-93.604971505335698
  0
LINE
  8
0
  6
CONTINUOUS
 62
3
 10
-278.093132018089360
 20
-110.585729994420490
 11
-275.481948419105270
 21
-109.078162440643380
  0
LINE
  8
0
  6
CONTINUOUS
 62
3
 10
-307.504668472240160
 20
-100.147599769652280
 11
-307.504668472240160
 21
-103.173802269736820
  0
ARC
  8
0
  6
CONTINUOUS
 62
3
 10
-306.004668472240160
 20
-100.147599769652280
 40
1.499999999999998
 50
82.819244218541712
 51
180.000000000000000
  0
ARC
  8
0
  6
CONTINUOUS
 62
3
 10
-306.004668472240160
 20
-93.604971505335698
 40
1.500000000000000
 50
180.000000000000000
 51
264.036429881682580
  0
ARC
  8
0
  6
CONTINUOUS
 62
3
 10
-276.231948419105270
 20
-107.779124334966580
 40
1.500000000000123
 50
299.999999999997270
 51
35.531071524839192
  0
ARC
  8
0
  6
CONTINUOUS
 62
3
 10
-310.004668472240610
 20
-131.896615502427270
 40
42.999999999999908
 50
35.531071524839248
 51
84.468928475160212
  0
ARC
  8
0
  6
CONTINUOUS
 62
3
 10
-272.231948419104810
 20
-114.707327565242620
 40
1.500000000000034
 50
24.468928475159590
 51
119.999999999997270
  0
LINE
  8
0
  6
CONTINUOUS
 62
3
 10
-275.593132018089140
 20
-114.915857013342920
 11
-272.981948419104810
 21
-113.408289459565820
  0
ARC
  8
0
  6
CONTINUOUS
 62
3
 10
-274.843132018089140
 20
-116.214895119019720
 40
1.500000000000123
 50
119.999999999997270
 51
204.036429881680680
  0
ARC
  8
0
  6
CONTINUOUS
 62
3
 10
-310.004668472240380
 20
-131.896615502427720
 40
36.999999999999972
 50
335.963570118321740
 51
24.036429881678870
  0
ARC
  8
0
  6
CONTINUOUS
 62
3
 10
-310.004668472240380
 20
-131.896615502427720
 40
42.999999999999936
 50
335.531071524839770
 51
24.468928475160769
  0
ARC
  8
0
  6
CONTINUOUS
 62
3
 10
-272.231948419104810
 20
-149.085903439612140
 40
1.500000000000320
 50
240.000000000007050
 51
335.531071524832500
  0
LINE
  8
0
  6
CONTINUOUS
 62
3
 10
-272.981948419104810
 20
-150.384941545289170
 11
-275.593132018088910
 21
-148.877373991511830
  0
ARC
  8
0
  6
CONTINUOUS
 62
3
 10
-274.843132018088910
 20
-147.578335885835260
 40
1.500000000000063
 50
155.963570118322880
 51
239.999999999998410
  0
ARC
  8
0
  6
CONTINUOUS
 62
3
 10
-276.231948419104810
 20
-156.014106669887950
 40
1.499999999999844
 50
324.468928475167900
 51
59.999999999998380
  0
LINE
  8
0
  6
CONTINUOUS
 62
3
 10
-275.481948419104810
 20
-154.715068564211380
 11
-278.093132018088910
 21
-153.207501010434040
  0
LINE
  8
0
  6
CONTINUOUS
 62
3
 10
-312.504668472240160
 20
-90.589836397781482
 11
-312.504668472240160
 21
-93.604971505335698
  0
ARC
  8
0
  6
CONTINUOUS
 62
3
 10
-314.004668472240160
 20
-93.604971505335698
 40
1.499999999999933
 50
275.963570118318330
 51
0.000000000000000
  0
LINE
  8
0
  6
CONTINUOUS
 62
3
 10
-312.504668472240160
 20
-100.147599769652280
 11
-312.504668472240160
 21
-103.173802269736820
  0
ARC
  8
0
  6
CONTINUOUS
 62
3
 10
-314.004668472240160
 20
-100.147599769652280
 40
1.500000000000000
 50
0.000000000000000
 51
97.180755781458288
  0
ARC
  8
0
  6
CONTINUOUS
 62
3
 10
-310.004668472240610
 20
-131.896615502426810
 40
23.999999999999901
 50
100.240348321185670
 51
139.759651678813550
  0
ARC
  8
0
  6
CONTINUOUS
 62
3
 10
-327.179847741285130
 20
-117.361718974546870
 40
1.499999999999802
 50
139.759651678811420
 51
239.999999999998410
  0
LINE
  8
0
  6
CONTINUOUS
 62
3
 10
-325.283053148305950
 20
-120.188884650969610
 11
-327.929847741285130
 21
-118.660757080223440
  0
ARC
  8
0
  6
CONTINUOUS
 62
3
 10
-324.533053148305950
 20
-118.889846545293040
 40
1.499999999999926
 50
239.999999999998410
 51
318.162995844106720
  0
ARC
  8
0
  6
CONTINUOUS
 62
3
 10
-310.004668472240610
 20
-131.896615502426810
 40
17.999999999999829
 50
101.837004155891980
 51
138.162995844106210
  0
ARC
  8
0
  6
CONTINUOUS
 62
3
 10
-314.004668472240160
 20
-112.811280818434620
 40
1.499999999999954
 50
281.837004155896690
 51
0.000000000000000
  0
LINE
  8
0
  6
CONTINUOUS
 62
3
 10
-312.504668472240160
 20
-109.755025676942290
 11
-312.504668472240160
 21
-112.811280818434620
  0
ARC
  8
0
  6
CONTINUOUS
 62
3
 10
-314.004668472240160
 20
-109.755025676942290
 40
1.500000000000000
 50
0.000000000000000
 51
100.240348321194510
  0
ARC
  8
0
  6
CONTINUOUS
 62
3
 10
-310.004668472240610
 20
-131.896615502426810
 40
14.499999999999980
 50
107.920213139390830
 51
132.079786860607560
  0
ARC
  8
0
  6
CONTINUOUS
 62
3
 10
-318.716811115054720
 20
-122.247855448862530
 40
1.499999999999792
 50
132.079786860611680
 51
239.999999999998410
  0
LINE
  8
0
  6
CONTINUOUS
 62
3
 10
-316.691922405434070
 20
-125.148976298009980
 11
-319.466811115054720
 21
-123.546893554539110
  0
ARC
  8
0
  6
CONTINUOUS
 62
3
 10
-315.941922405434070
 20
-123.849938192333410
 40
1.499999999999926
 50
239.999999999998410
 51
306.421821521797600
  0
ARC
  8
0
  6
CONTINUOUS
 62
3
 10
-310.004668472240610
 20
-131.896615502426810
 40
8.499999999999879
 50
113.578178478199500
 51
126.421821521797340
  0
ARC
  8
0
  6
CONTINUOUS
 62
3
 10
-314.004668472240160
 20
-122.731464112514910
 40
1.500000000000139
 50
293.578178478195700
 51
0.000000000000000
  0
LINE
  8
0
  6
CONTINUOUS
 62
3
 10
-312.504668472240160
 20
-119.527298625573840
 11
-312.504668472240160
 21
-122.731464112514910
  0
ARC
  8
0
  6
CONTINUOUS
 62
3
 10
-314.004668472240160
 20
-119.527298625573840
 40
1.500000000000000
 50
0.000000000000000
 51
107.920213139394770
  0
ARC
  8
0
  6
CONTINUOUS
 62
3
 10
-310.004668472240160
 20
-131.896615502427270
 40
23.999999999999716
 50
280.240348321186270
 51
319.759651678814690
  0
ARC
  8
0
  6
CONTINUOUS
 62
3
 10
-306.004668472240160
 20
-154.038205327911780
 40
1.500000000000000
 50
180.000000000000000
 51
280.240348321187530
  0
LINE
  8
0
  6
CONTINUOUS
 62
3
 10
-307.504668472240160
 20
-150.981950186419450
 11
-307.504668472240160
 21
-154.038205327911780
  0
ARC
  8
0
  6
CONTINUOUS
 62
3
 10
-306.004668472240160
 20
-150.981950186419450
 40
1.499999999999731
 50
101.837004155898450
 51
180.000000000000000
  0
ARC
  8
0
  6
CONTINUOUS
 62
3
 10
-310.004668472240160
 20
-131.896615502427270
 40
18.000000000000146
 50
281.837004155893230
 51
318.162995844107680
  0
ARC
  8
0
  6
CONTINUOUS
 62
3
 10
-295.476283796174360
 20
-144.903384459561040
 40
1.499999999999926
 50
59.999999999998380
 51
138.162995844100240
  0
LINE
  8
0
  6
CONTINUOUS
 62
3
 10
-292.079489203195410
 20
-145.132473924630630
 11
-294.726283796174360
 21
-143.604346353884470
  0
ARC
  8
0
  6
CONTINUOUS
 62
3
 10
-292.829489203195410
 20
-146.431512030307200
 40
1.499999999999828
 50
319.759651678823670
 51
59.999999999998380
  0
ARC
  8
0
  6
CONTINUOUS
 62
3
 10
-310.004668472240160
 20
-131.896615502427270
 40
14.500000000000121
 50
287.920213139392560
 51
312.079786860608860
  0
ARC
  8
0
  6
CONTINUOUS
 62
3
 10
-306.004668472240160
 20
-144.265932379280000
 40
1.500000000000000
 50
180.000000000000000
 51
287.920213139392100
  0
LINE
  8
0
  6
CONTINUOUS
 62
3
 10
-307.504668472240160
 20
-141.061766892338710
 11
-307.504668472240160
 21
-144.265932379280000
  0
ARC
  8
0
  6
CONTINUOUS
 62
3
 10
-306.004668472240160
 20
-141.061766892339160
 40
1.500000000000139
 50
113.578178478195690
 51
179.999999999982630
  0
ARC
  8
0
  6
CONTINUOUS
 62
3
 10
-310.004668472240160
 20
-131.896615502427270
 40
8.500000000000060
 50
293.578178478202350
 51
306.421821521799190
  0
ARC
  8
0
  6
CONTINUOUS
 62
3
 10
-304.067414539046240
 20
-139.943292812520670
 40
1.499999999999926
 50
59.999999999998380
 51
126.421821521801260
  0
LINE
  8
0
  6
CONTINUOUS
 62
3
 10
-300.542525829425810
 20
-140.246337450314510
 11
-303.317414539046240
 21
-138.644254706844090
  0
ARC
  8
0
  6
CONTINUOUS
 62
3
 10
-301.292525829425810
 20
-141.545375555991540
 40
1.499999999999944
 50
312.079786860618130
 51
60.000000000007070
  0
ARC
  8
0
  6
CONTINUOUS
 62
3
 10
-310.004668472240160
 20
-131.896615502427270
 40
23.999999999999844
 50
220.240348321185340
 51
259.759651678813730
  0
ARC
  8
0
  6
CONTINUOUS
 62
3
 10
-314.004668472240160
 20
-154.038205327911780
 40
1.499999999999728
 50
259.759651678812470
 51
0.000000000000000
  0
LINE
  8
0
  6
CONTINUOUS
 62
3
 10
-312.504668472240160
 20
-150.981950186419450
 11
-312.504668472240160
 21
-154.038205327911780
  0
ARC
  8
0
  6
CONTINUOUS
 62
3
 10
-314.004668472240160
 20
-150.981950186419450
 40
1.500000000000000
 50
0.000000000000000
 51
78.162995844101530
  0
ARC
  8
0
  6
CONTINUOUS
 62
3
 10
-310.004668472240160
 20
-131.896615502427270
 40
17.999999999999940
 50
221.837004155892320
 51
258.162995844106770
  0
ARC
  8
0
  6
CONTINUOUS
 62
3
 10
-324.533053148305950
 20
-144.903384459561040
 40
1.500000000000118
 50
41.837004155899741
 51
120.000000000001620
  0
LINE
  8
0
  6
CONTINUOUS
 62
3
 10
-327.929847741284900
 20
-145.132473924630630
 11
-325.283053148305950
 21
-143.604346353884470
  0
ARC
  8
0
  6
CONTINUOUS
 62
3
 10
-327.179847741284900
 20
-146.431512030307200
 40
1.499999999999926
 50
120.000000000001620
 51
220.240348321176330
  0
ARC
  8
0
  6
CONTINUOUS
 62
3
 10
-310.004668472240160
 20
-131.896615502427270
 40
14.500000000000011
 50
227.920213139391080
 51
252.079786860607410
  0
ARC
  8
0
  6
CONTINUOUS
 62
3
 10
-314.004668472240160
 20
-144.265932379280000
 40
1.500000000000355
 50
252.079786860607900
 51
0.000000000000000
  0
LINE
  8
0
  6
CONTINUOUS
 62
3
 10
-312.504668472240160
 20
-141.061766892338710
 11
-312.504668472240160
 21
-144.265932379280000
  0
ARC
  8
0
  6
CONTINUOUS
 62
3
 10
-314.004668472240160
 20
-141.061766892339160
 40
1.500000000000000
 50
0.000000000017370
 51
66.421821521804304
  0
ARC
  8
0
  6
CONTINUOUS
 62
3
 10
-310.004668472240160
 20
-131.896615502427270
 40
8.499999999999870
 50
233.578178478199590
 51
246.421821521797680
  0
ARC
  8
0
  6
CONTINUOUS
 62
3
 10
-315.941922405434070
 20
-139.943292812520670
 40
1.500000000000059
 50
53.578178478205707
 51
120.000000000001620
  0
LINE
  8
0
  6
CONTINUOUS
 62
3
 10
-319.466811115054500
 20
-140.246337450314510
 11
-316.691922405434070
 21
-138.644254706844090
  0
ARC
  8
0
  6
CONTINUOUS
 62
3
 10
-318.716811115054500
 20
-141.545375555991540
 40
1.500000000000320
 50
119.999999999992930
 51
227.920213139381870
  0
ARC
  8
0
  6
CONTINUOUS
 62
3
 10
-310.004668472240610
 20
-131.896615502426810
 40
23.999999999999925
 50
160.240348321185910
 51
199.759651678814090
  0
ARC
  8
0
  6
CONTINUOUS
 62
3
 10
-331.179847741285130
 20
-124.289922204822230
 40
1.499999999999926
 50
59.999999999998380
 51
160.240348321185250
  0
LINE
  8
0
  6
CONTINUOUS
 62
3
 10
-327.783053148305950
 20
-124.519011669891820
 11
-330.429847741285130
 21
-122.990884099145660
  0
ARC
  8
0
  6
CONTINUOUS
 62
3
 10
-328.533053148305950
 20
-125.818049775568390
 40
1.500000000000038
 50
341.837004155895390
 51
59.999999999998380
  0
ARC
  8
0
  6
CONTINUOUS
 62
3
 10
-310.004668472240610
 20
-131.896615502426810
 40
17.999999999999726
 50
161.837004155893140
 51
198.162995844106860
  0
ARC
  8
0
  6
CONTINUOUS
 62
3
 10
-328.533053148305950
 20
-137.975181229285230
 40
1.500000000000320
 50
299.999999999992950
 51
18.162995844104589
  0
LINE
  8
0
  6
CONTINUOUS
 62
3
 10
-330.429847741284900
 20
-140.802346905707960
 11
-327.783053148305950
 21
-139.274219334962250
  0
ARC
  8
0
  6
CONTINUOUS
 62
3
 10
-331.179847741284900
 20
-139.503308800031390
 40
1.500000000000246
 50
199.759651678811820
 51
300.000000000001590
  0
ARC
  8
0
  6
CONTINUOUS
 62
3
 10
-310.004668472240610
 20
-131.896615502426810
 40
14.499999999999851
 50
167.920213139392840
 51
192.079786860608920
  0
ARC
  8
0
  6
CONTINUOUS
 62
3
 10
-322.716811115054720
 20
-129.176058679137900
 40
1.499999999999926
 50
59.999999999998380
 51
167.920213139405550
  0
LINE
  8
0
  6
CONTINUOUS
 62
3
 10
-319.191922405434070
 20
-129.479103316932200
 11
-321.966811115054720
 21
-127.877020573461320
  0
ARC
  8
0
  6
CONTINUOUS
 62
3
 10
-319.941922405434070
 20
-130.778141422608770
 40
1.499999999999873
 50
353.578178478198030
 51
59.999999999998380
  0
ARC
  8
0
  6
CONTINUOUS
 62
3
 10
-310.004668472240610
 20
-131.896615502426810
 40
8.499999999999813
 50
173.578178478202550
 51
186.421821521800500
  0
ARC
  8
0
  6
CONTINUOUS
 62
3
 10
-319.941922405434070
 20
-133.015089582245310
 40
1.499999999999926
 50
300.000000000001590
 51
6.421821521801967
  0
LINE
  8
0
  6
CONTINUOUS
 62
3
 10
-321.966811115054500
 20
-135.916210431392300
 11
-319.191922405434070
 21
-134.314127687921880
  0
ARC
  8
0
  6
CONTINUOUS
 62
3
 10
-322.716811115054500
 20
-134.617172325715730
 40
1.500000000000287
 50
192.079786860609600
 51
300.000000000001590
  0
ARC
  8
0
  6
CONTINUOUS
 62
3
 10
-310.004668472239930
 20
-131.896615502426810
 40
24.000000000000139
 50
340.240348321186050
 51
19.759651678813924
  0
ARC
  8
0
  6
CONTINUOUS
 62
3
 10
-288.829489203195410
 20
-124.289922204822230
 40
1.500000000000246
 50
19.759651678811824
 51
120.000000000001620
  0
LINE
  8
0
  6
CONTINUOUS
 62
3
 10
-292.226283796174360
 20
-124.519011669891820
 11
-289.579489203195410
 21
-122.990884099145660
  0
ARC
  8
0
  6
CONTINUOUS
 62
3
 10
-291.476283796174360
 20
-125.818049775568390
 40
1.499999999999926
 50
120.000000000001620
 51
198.162995844104590
  0
ARC
  8
0
  6
CONTINUOUS
 62
3
 10
-310.004668472239930
 20
-131.896615502426810
 40
17.999999999999943
 50
341.837004155893340
 51
18.162995844106646
  0
ARC
  8
0
  6
CONTINUOUS
 62
3
 10
-291.476283796174360
 20
-137.975181229285230
 40
1.500000000000038
 50
161.837004155895410
 51
240.000000000007050
  0
LINE
  8
0
  6
CONTINUOUS
 62
3
 10
-289.579489203195410
 20
-140.802346905707960
 11
-292.226283796174360
 21
-139.274219334962250
  0
ARC
  8
0
  6
CONTINUOUS
 62
3
 10
-288.829489203195410
 20
-139.503308800031390
 40
1.499999999999926
 50
239.999999999998410
 51
340.240348321188210
  0
ARC
  8
0
  6
CONTINUOUS
 62
3
 10
-310.004668472239930
 20
-131.896615502426810
 40
14.500000000000169
 50
347.920213139391310
 51
12.079786860606980
  0
ARC
  8
0
  6
CONTINUOUS
 62
3
 10
-297.292525829425810
 20
-129.176058679137900
 40
1.500000000000192
 50
12.079786860592611
 51
120.000000000001620
  0
LINE
  8
0
  6
CONTINUOUS
 62
3
 10
-300.817414539046240
 20
-129.479103316932200
 11
-298.042525829425810
 21
-127.877020573461320
  0
ARC
  8
0
  6
CONTINUOUS
 62
3
 10
-300.067414539046240
 20
-130.778141422608770
 40
1.499999999999926
 50
120.000000000001620
 51
186.421821521801010
  0
ARC
  8
0
  6
CONTINUOUS
 62
3
 10
-310.004668472239930
 20
-131.896615502426810
 40
8.499999999999865
 50
353.578178478199500
 51
6.421821521797448
  0
ARC
  8
0
  6
CONTINUOUS
 62
3
 10
-300.067414539046240
 20
-133.015089582245310
 40
1.500000000000099
 50
173.578178478198990
 51
239.999999999998410
  0
LINE
  8
0
  6
CONTINUOUS
 62
3
 10
-298.042525829425810
 20
-135.916210431392300
 11
-300.817414539046240
 21
-134.314127687921880
  0
ARC
  8
0
  6
CONTINUOUS
 62
3
 10
-297.292525829425810
 20
-134.617172325715730
 40
1.499999999999926
 50
239.999999999998410
 51
347.920213139390400
  0
ARC
  8
0
  6
CONTINUOUS
 62
3
 10
-310.004668472239930
 20
-131.896615502426810
 40
8.500000000000101
 50
53.578178478202659
 51
66.421821521799089
  0
ARC
  8
0
  6
CONTINUOUS
 62
3
 10
-310.004668472239930
 20
-131.896615502426810
 40
23.999999999999819
 50
40.240348321186090
 51
79.759651678814322
  0
LINE
  8
0
  6
CONTINUOUS
 62
3
 10
-303.317414539046240
 20
-125.148976298009980
 11
-300.542525829425810
 21
-123.546893554539110
  0
LINE
  8
0
  6
CONTINUOUS
 62
3
 10
-307.504668472240160
 20
-109.755025676942290
 11
-307.504668472240160
 21
-112.811280818434620
  0
LINE
  8
0
  6
CONTINUOUS
 62
3
 10
-307.504668472240160
 20
-119.527298625573840
 11
-307.504668472240160
 21
-122.731464112514910
  0
ARC
  8
0
  6
CONTINUOUS
 62
3
 10
-310.004668472239930
 20
-131.896615502426810
 40
14.499999999999860
 50
47.920213139391755
 51
72.079786860608309
  0
LINE
  8
0
  6
CONTINUOUS
 62
3
 10
-294.726283796174360
 20
-120.188884650969610
 11
-292.079489203195410
 21
-118.660757080223440
  0
ARC
  8
0
  6
CONTINUOUS
 62
3
 10
-301.292525829425810
 20
-122.247855448862530
 40
1.499999999999926
 50
300.000000000001590
 51
47.920213139381872
  0
ARC
  8
0
  6
CONTINUOUS
 62
3
 10
-306.004668472240160
 20
-109.755025676942290
 40
1.499999999999952
 50
79.759651678814024
 51
180.000000000000000
  0
ARC
  8
0
  6
CONTINUOUS
 62
3
 10
-295.476283796174360
 20
-118.889846545293040
 40
1.499999999999967
 50
221.837004155893280
 51
300.000000000001590
  0
ARC
  8
0
  6
CONTINUOUS
 62
3
 10
-306.004668472240160
 20
-112.811280818434620
 40
1.500000000000000
 50
180.000000000000000
 51
258.162995844103310
  0
ARC
  8
0
  6
CONTINUOUS
 62
3
 10
-306.004668472240160
 20
-119.527298625573840
 40
1.500000000000138
 50
72.079786860605225
 51
180.000000000000000
  0
ARC
  8
0
  6
CONTINUOUS
 62
3
 10
-292.829489203195410
 20
-117.361718974546870
 40
1.499999999999926
 50
300.000000000001590
 51
40.240348321182964
  0
ARC
  8
0
  6
CONTINUOUS
 62
3
 10
-306.004668472240160
 20
-122.731464112514910
 40
1.500000000000000
 50
180.000000000000000
 51
246.421821521804280
  0
ARC
  8
0
  6
CONTINUOUS
 62
3
 10
-304.067414539046240
 20
-123.849938192333410
 40
1.499999999999693
 50
233.578178478195410
 51
300.000000000001590
  0
CIRCLE
  8
0
  6
CONTINUOUS
 62
3
 10
-310.004668472240160
 20
-131.896615502426810
 40
5.000000000000000
  0
ARC
  8
0
  6
CONTINUOUS
 62
3
 10
-287.129982544574430
 20
-114.071107270944140
 40
1.499999999999843
 50
217.928141766204990
 51
300.000000000001590
  0
LINE
  8
0
  6
CONTINUOUS
 62
3
 10
-286.379982544574430
 20
-115.370145376620710
 11
-283.759214302505600
 21
-113.857044126578550
  0
ARC
  8
0
  6
CONTINUOUS
 62
3
 10
-306.004668472240160
 20
-103.173802269736820
 40
1.500000000000000
 50
180.000000000000000
 51
262.071858233795980
  0
ARC
  8
0
  6
CONTINUOUS
 62
3
 10
-310.004668472239930
 20
-131.896615502426810
 40
27.500000000000060
 50
37.928141766201819
 51
82.071858233798309
  0
ARC
  8
0
  6
CONTINUOUS
 62
3
 10
-284.509214302505600
 20
-112.558006020901980
 40
1.499999999999926
 50
300.000000000001590
 51
37.180755781457485
  0
ARC
  8
0
  6
CONTINUOUS
 62
3
 10
-278.843132018089360
 20
-109.286691888743690
 40
1.500000000000102
 50
215.963570118316280
 51
299.999999999997270
  0
ARC
  8
0
  6
CONTINUOUS
 62
3
 10
-310.004668472240610
 20
-131.896615502427270
 40
36.999999999999943
 50
35.963570118321194
 51
84.036429881678174
  0
ARC
  8
0
  6
CONTINUOUS
 62
3
 10
-310.004668472240610
 20
-131.896615502427270
 40
33.500000000000071
 50
37.180755781458259
 51
82.819244218540931
  0
LINE
  8
0
  6
CONTINUOUS
 62
3
 10
-283.879982544574200
 20
-119.700272395543370
 11
-281.259214302505370
 21
-118.187171145501220
  0
ARC
  8
0
  6
CONTINUOUS
 62
3
 10
-280.509214302505370
 20
-119.486209251178020
 40
1.499999999999948
 50
22.819244218550043
 51
119.999999999997270
  0
ARC
  8
0
  6
CONTINUOUS
 62
3
 10
-283.129982544574200
 20
-120.999310501219950
 40
1.499999999999926
 50
120.000000000001620
 51
202.071858233797370
  0
ARC
  8
0
  6
CONTINUOUS
 62
3
 10
-310.004668472239700
 20
-131.896615502427270
 40
27.499999999999886
 50
337.928141766202200
 51
22.071858233797812
  0
ARC
  8
0
  6
CONTINUOUS
 62
3
 10
-310.004668472240380
 20
-131.896615502427720
 40
33.500000000000128
 50
337.180755781459030
 51
22.819244218541968
  0
ARC
  8
0
  6
CONTINUOUS
 62
3
 10
-283.129982544574430
 20
-142.793920503634580
 40
1.499999999999899
 50
157.928141766199360
 51
240.000000000007050
  0
LINE
  8
0
  6
CONTINUOUS
 62
3
 10
-281.259214302505140
 20
-145.606059859353540
 11
-283.879982544574430
 21
-144.092958609311610
  0
ARC
  8
0
  6
CONTINUOUS
 62
3
 10
-280.509214302505140
 20
-144.307021753676960
 40
1.499999999999926
 50
239.999999999998410
 51
337.180755781453340
  0
ARC
  8
0
  6
CONTINUOUS
 62
3
 10
-306.004668472239930
 20
-173.203394607072370
 40
1.500000000000000
 50
180.000000000000000
 51
275.531071524831360
  0
LINE
  8
0
  6
CONTINUOUS
 62
3
 10
-307.504668472239930
 20
-170.188259499518150
 11
-307.504668472239930
 21
-173.203394607072370
  0
LINE
  8
0
  6
CONTINUOUS
 62
3
 10
-307.504668472239930
 20
-160.619428735117710
 11
-307.504668472239930
 21
-163.645631235202020
  0
ARC
  8
0
  6
CONTINUOUS
 62
3
 10
-306.004668472239930
 20
-170.188259499518610
 40
1.500000000000182
 50
95.963570118326047
 51
179.999999999982630
  0
ARC
  8
0
  6
CONTINUOUS
 62
3
 10
-306.004668472239930
 20
-163.645631235202020
 40
1.500000000000000
 50
180.000000000000000
 51
277.180755781458290
  0
ARC
  8
0
  6
CONTINUOUS
 62
3
 10
-306.004668472239930
 20
-160.619428735117710
 40
1.499999999999967
 50
97.928141766195438
 51
180.000000000000000
  0
ARC
  8
0
  6
CONTINUOUS
 62
3
 10
-310.004668472239930
 20
-131.896615502427720
 40
27.499999999999879
 50
277.928141766202600
 51
322.071858233798930
  0
ARC
  8
0
  6
CONTINUOUS
 62
3
 10
-310.004668472239930
 20
-131.896615502426810
 40
37.000000000000028
 50
275.963570118320770
 51
324.036429881678030
  0
ARC
  8
0
  6
CONTINUOUS
 62
3
 10
-310.004668472239930
 20
-131.896615502426810
 40
43.000000000000199
 50
275.531071524838860
 51
324.468928475160340
  0
ARC
  8
0
  6
CONTINUOUS
 62
3
 10
-310.004668472239930
 20
-131.896615502426810
 40
33.500000000000114
 50
277.180755781458230
 51
322.819244218540860
  0
ARC
  8
0
  6
CONTINUOUS
 62
3
 10
-287.129982544574430
 20
-149.722123733910390
 40
1.500000000000320
 50
60.000000000007070
 51
142.071858233781280
  0
ARC
  8
0
  6
CONTINUOUS
 62
3
 10
-278.843132018088910
 20
-154.506539116110620
 40
1.499999999999926
 50
59.999999999998380
 51
144.036429881690740
  0
LINE
  8
0
  6
CONTINUOUS
 62
3
 10
-283.759214302505140
 20
-149.936186878275750
 11
-286.379982544574430
 21
-148.423085628233370
  0
ARC
  8
0
  6
CONTINUOUS
 62
3
 10
-284.509214302505140
 20
-151.235224983952320
 40
1.500000000000240
 50
322.819244218535570
 51
59.999999999998380
  0
ARC
  8
0
  6
CONTINUOUS
 62
3
 10
-314.004668472240380
 20
-173.203394607072370
 40
1.500000000000430
 50
264.468928475160000
 51
0.000000000000000
  0
LINE
  8
0
  6
CONTINUOUS
 62
3
 10
-312.504668472240380
 20
-170.188259499518150
 11
-312.504668472240380
 21
-173.203394607072370
  0
LINE
  8
0
  6
CONTINUOUS
 62
3
 10
-312.504668472240380
 20
-160.619428735117710
 11
-312.504668472240380
 21
-163.645631235202020
  0
ARC
  8
0
  6
CONTINUOUS
 62
3
 10
-314.004668472240380
 20
-170.188259499518610
 40
1.500000000000000
 50
0.000000000017370
 51
84.036429881682594
  0
ARC
  8
0
  6
CONTINUOUS
 62
3
 10
-314.004668472240380
 20
-163.645631235202020
 40
1.499999999999998
 50
262.819244218541710
 51
0.000000000000000
  0
ARC
  8
0
  6
CONTINUOUS
 62
3
 10
-314.004668472240380
 20
-160.619428735117710
 40
1.500000000000000
 50
0.000000000000000
 51
82.071858233804562
  0
ARC
  8
0
  6
CONTINUOUS
 62
3
 10
-310.004668472240380
 20
-131.896615502427720
 40
27.499999999999780
 50
217.928141766201070
 51
262.071858233797400
  0
ARC
  8
0
  6
CONTINUOUS
 62
3
 10
-310.004668472240380
 20
-131.896615502426810
 40
37.000000000000021
 50
215.963570118321970
 51
264.036429881678940
  0
ARC
  8
0
  6
CONTINUOUS
 62
3
 10
-310.004668472240380
 20
-131.896615502426810
 40
42.999999999999858
 50
215.531071524839690
 51
264.468928475160850
  0
ARC
  8
0
  6
CONTINUOUS
 62
3
 10
-310.004668472240380
 20
-131.896615502426810
 40
33.500000000000163
 50
217.180755781459110
 51
262.819244218541770
  0
ARC
  8
0
  6
CONTINUOUS
 62
3
 10
-332.879354399905880
 20
-149.722123733910390
 40
1.500000000000122
 50
37.928141766218701
 51
119.999999999992930
  0
ARC
  8
0
  6
CONTINUOUS
 62
3
 10
-343.777388525375500
 20
-156.014106669887950
 40
1.499999999999926
 50
120.000000000001620
 51
215.531071524832130
  0
LINE
  8
0
  6
CONTINUOUS
 62
3
 10
-344.527388525375500
 20
-154.715068564211380
 11
-341.916204926391400
 21
-153.207501010434040
  0
ARC
  8
0
  6
CONTINUOUS
 62
3
 10
-341.166204926391400
 20
-154.506539116110620
 40
1.499999999999968
 50
35.963570118309242
 51
120.000000000001620
  0
LINE
  8
0
  6
CONTINUOUS
 62
3
 10
-336.250122641975170
 20
-149.936186878275750
 11
-333.629354399905880
 21
-148.423085628233370
  0
ARC
  8
0
  6
CONTINUOUS
 62
3
 10
-335.500122641975170
 20
-151.235224983952320
 40
1.499999999999926
 50
120.000000000001620
 51
217.180755781464400
  0
ARC
  8
0
  6
CONTINUOUS
 62
3
 10
-347.777388525375500
 20
-114.707327565242620
 40
1.499999999999926
 50
59.999999999998380
 51
155.531071524840400
  0
LINE
  8
0
  6
CONTINUOUS
 62
3
 10
-344.416204926390950
 20
-114.915857013343150
 11
-347.027388525375500
 21
-113.408289459566040
  0
LINE
  8
0
  6
CONTINUOUS
 62
3
 10
-336.129354399906110
 20
-119.700272395543370
 11
-338.750122641974940
 21
-118.187171145501220
  0
ARC
  8
0
  6
CONTINUOUS
 62
3
 10
-345.166204926391170
 20
-116.214895119019720
 40
1.499999999999855
 50
335.963570118319300
 51
59.999999999990862
  0
ARC
  8
0
  6
CONTINUOUS
 62
3
 10
-339.500122641974940
 20
-119.486209251178020
 40
1.500000000000123
 50
60.000000000002721
 51
157.180755781457980
  0
ARC
  8
0
  6
CONTINUOUS
 62
3
 10
-336.879354399906110
 20
-120.999310501219950
 40
1.500000000000110
 50
337.928141766202600
 51
59.999999999998380
  0
ARC
  8
0
  6
CONTINUOUS
 62
3
 10
-310.004668472240610
 20
-131.896615502427270
 40
27.499999999999886
 50
157.928141766202200
 51
202.071858233798680
  0
ARC
  8
0
  6
CONTINUOUS
 62
3
 10
-310.004668472239930
 20
-131.896615502427720
 40
37.000000000000156
 50
155.963570118321120
 51
204.036429881678230
  0
ARC
  8
0
  6
CONTINUOUS
 62
3
 10
-310.004668472239930
 20
-131.896615502427720
 40
43.000000000000121
 50
155.531071524839230
 51
204.468928475160200
  0
ARC
  8
0
  6
CONTINUOUS
 62
3
 10
-310.004668472239930
 20
-131.896615502427720
 40
33.499999999999794
 50
157.180755781458400
 51
202.819244218540940
  0
ARC
  8
0
  6
CONTINUOUS
 62
3
 10
-336.879354399905880
 20
-142.793920503634580
 40
1.500000000000320
 50
299.999999999992950
 51
22.071858233784546
  0
ARC
  8
0
  6
CONTINUOUS
 62
3
 10
-347.777388525375500
 20
-149.085903439612140
 40
1.500000000000128
 50
204.468928475167470
 51
299.999999999992950
  0
LINE
  8
0
  6
CONTINUOUS
 62
3
 10
-347.027388525375500
 20
-150.384941545289170
 11
-344.416204926391400
 21
-148.877373991511830
  0
ARC
  8
0
  6
CONTINUOUS
 62
3
 10
-345.166204926391400
 20
-147.578335885835260
 40
1.499999999999926
 50
300.000000000001590
 51
24.036429881677126
  0
LINE
  8
0
  6
CONTINUOUS
 62
3
 10
-338.750122641975170
 20
-145.606059859353540
 11
-336.129354399905880
 21
-144.092958609311610
  0
ARC
  8
0
  6
CONTINUOUS
 62
3
 10
-339.500122641975170
 20
-144.307021753676960
 40
1.500000000000157
 50
202.819244218546660
 51
300.000000000001590
  0
ARC
  8
0
  6
CONTINUOUS
 62
3
 10
-343.777388525375040
 20
-107.779124334966580
 40
1.499999999999976
 50
144.468928475160790
 51
240.000000000002730
  0
LINE
  8
0
  6
CONTINUOUS
 62
3
 10
-341.916204926390950
 20
-110.585729994420490
 11
-344.527388525375040
 21
-109.078162440643380
  0
LINE
  8
0
  6
CONTINUOUS
 62
3
 10
-333.629354399905880
 20
-115.370145376620710
 11
-336.250122641974710
 21
-113.857044126578550
  0
ARC
  8
0
  6
CONTINUOUS
 62
3
 10
-341.166204926390950
 20
-109.286691888743690
 40
1.500000000000123
 50
240.000000000002730
 51
324.036429881683720
  0
ARC
  8
0
  6
CONTINUOUS
 62
3
 10
-335.500122641974710
 20
-112.558006020901980
 40
1.500000000000103
 50
142.819244218542510
 51
239.999999999998410
  0
ARC
  8
0
  6
CONTINUOUS
 62
3
 10
-332.879354399905880
 20
-114.071107270944140
 40
1.499999999999926
 50
239.999999999998410
 51
322.071858233800300
  0
ARC
  8
0
  6
CONTINUOUS
 62
3
 10
-310.004668472239700
 20
-131.896615502427270
 40
37.000000000000099
 50
95.963570118321798
 51
144.036429881678830
  0
ARC
  8
0
  6
CONTINUOUS
 62
3
 10
-310.004668472239700
 20
-131.896615502427270
 40
43.000000000000043
 50
95.531071524839788
 51
144.468928475160770
  0
ARC
  8
0
  6
CONTINUOUS
 62
3
 10
-310.004668472239700
 20
-131.896615502427270
 40
33.499999999999950
 50
97.180755781459069
 51
142.819244218541740
  0
ARC
  8
0
  6
CONTINUOUS
 62
3
 10
-314.004668472240160
 20
-103.173802269736820
 40
1.499999999999998
 50
277.928141766204020
 51
0.000000000000000
  0
ARC
  8
0
  6
CONTINUOUS
 62
3
 10
-353.953255902522640
 20
-81.800001034898969
 40
6.599999999999971
 50
98.597082237248614
 51
134.999999999998610
  0
ARC
  8
0
  6
CONTINUOUS
 62
3
 10
-517.004668472240160
 20
-131.896615502426810
 40
300.000000000000170
 50
355.138594604201900
 51
0.000000000000000
  0
LINE
  8
0
  6
CONTINUOUS
 62
3
 10
-223.065899338258760
 20
-161.896615502426810
 11
-246.504668472240160
 21
-161.896615502426810
  0
ARC
  8
0
  6
CONTINUOUS
 62
3
 10
-223.065899338258760
 20
-156.896615502426810
 40
5.000000000000000
 50
270.000000000000000
 51
355.138594604199000
  0
ARC
  8
0
  6
CONTINUOUS
 62
3
 10
-223.065899338258760
 20
-106.896615502427030
 40
5.000000000000119
 50
4.861405395798401
 51
90.000000000000000
  0
ARC
  8
0
  6
CONTINUOUS
 62
3
 10
-517.004668472240160
 20
-131.896615502426810
 40
300.000000000000000
 50
0.000000000000000
 51
4.861405395797992
  0
LINE
  8
0
  6
CONTINUOUS
 62
3
 10
-216.504668472240160
 20
-129.396615502426810
 11
-217.015085319757870
 21
-129.396615502426810
  0
LINE
  8
0
  6
CONTINUOUS
 62
3
 10
-216.504668472240160
 20
-134.396615502426810
 11
-217.015085319757870
 21
-134.396615502426810
  0
LINE
  8
0
  6
CONTINUOUS
 62
3
 10
-216.504668472240160
 20
-134.396615502426810
 11
-216.504668472240160
 21
-129.396615502426810
  0
LINE
  8
0
  6
CONTINUOUS
 62
3
 10
-246.659673531699130
 20
-100.396615502427030
 11
-246.504668472240160
 21
-100.396615502427030
  0
LINE
  8
0
  6
CONTINUOUS
 62
3
 10
-223.065899338258760
 20
-101.896615502427030
 11
-246.505420729956310
 21
-101.896615502427030
  0
LINE
  8
0
  6
CONTINUOUS
 62
3
 10
-246.504668472240160
 20
-163.396615502427270
 11
-246.504668472240160
 21
-161.889114564693950
  0
LINE
  8
0
  6
CONTINUOUS
 62
3
 10
-246.504668472240160
 20
-101.904116440160350
 11
-246.504668472240160
 21
-100.396615502427030
  0
LINE
  8
0
  6
CONTINUOUS
 62
3
 10
-246.659673531699130
 20
-163.396615502427270
 11
-246.504668472240160
 21
-163.396615502427270
  0
ARC
  8
0
  6
CONTINUOUS
 62
4
 10
-74.404668472240246
 20
-131.896615502427270
 40
289.396999999999930
 50
173.948014641331470
 51
180.000000000000000
  0
LINE
  8
0
  6
CONTINUOUS
 62
4
 10
-353.188827114741340
 20
-87.545197274720977
 11
-357.764892507379950
 21
-92.121262667359588
  0
ARC
  8
0
  6
CONTINUOUS
 62
4
 10
-348.946186427622250
 20
-91.787837961840523
 40
5.999999999999923
 50
97.897988672425626
 51
134.999999999996930
  0
ARC
  8
0
  6
CONTINUOUS
 62
4
 10
-310.004668472240160
 20
-372.496615502427180
 40
289.396999999999930
 50
90.000000000000000
 51
97.897988672427743
  0
LINE
  8
0
  6
CONTINUOUS
 62
3
 10
-352.504667824184250
 20
-191.839989477103300
 11
-350.004663474677730
 21
-193.283363053799180
  0
LINE
  8
0
  6
CONTINUOUS
 62
3
 10
-350.004662960114730
 20
-193.283362440149400
 11
-347.504670655071100
 21
-191.839987093405280
  0
LINE
  8
0
  6
CONTINUOUS
 62
3
 10
-352.504666088055050
 20
-188.953243857428280
 11
-352.504667041729360
 21
-191.839989310309140
  0
LINE
  8
0
  6
CONTINUOUS
 62
3
 10
-267.504669120296110
 20
-191.839989477103300
 11
-270.004673469802580
 21
-193.283363053799180
  0
LINE
  8
0
  6
CONTINUOUS
 62
3
 10
-270.004673984365640
 20
-193.283362440149400
 11
-272.504666289409220
 21
-191.839987093405280
  0
LINE
  8
0
  6
CONTINUOUS
 62
3
 10
-267.504670856425320
 20
-188.953243857428280
 11
-267.504669902751000
 21
-191.839989310309140
  0
LINE
  8
0
  6
CONTINUOUS
 62
3
 10
-230.004668472240160
 20
-41.896615502427267
 11
-230.004668472240160
 21
-101.896615502427030
  0
LINE
  8
0
  6
CONTINUOUS
 62
3
 10
-230.004668472240160
 20
-161.896615502426810
 11
-230.004668472240160
 21
-181.896615502427270
  0
LINE
  8
0
  6
DASHDOT
 62
4
 10
-310.004668472240160
 20
-111.896615502427260
 11
-310.004668472240160
 21
-205.480039348057290
  0
LINE
  8
0
  6
CONTINUOUS
 62
3
 10
-245.664763775354570
 20
-161.896615502426810
 11
-246.504668472240160
 21
-163.225538551136310
  0
LINE
  8
0
  6
CONTINUOUS
 62
3
 10
-246.612792366289230
 20
-163.396615502427270
 11
-246.669069493146370
 21
-163.485658903747610
  0
ARC
  8
0
  6
CONTINUOUS
 62
3
 10
-289.504668472240160
 20
-116.497488428532050
 40
49.999999999999957
 50
16.978776992020585
 51
46.053555941995789
  0
ARC
  8
0
  6
CONTINUOUS
 62
3
 10
-289.504668472240160
 20
-116.497488428532050
 40
50.000000000000000
 50
53.210972997734189
 51
86.642182578429185
  0
LINE
  8
0
  6
CONTINUOUS
 62
3
 10
-276.004663751032920
 20
-73.009866762071169
 11
-274.233230965514960
 21
-74.032607188690179
  0
LINE
  8
0
  6
CONTINUOUS
 62
3
 10
-276.004663689803460
 20
-73.009867242213886
 11
-277.188332496967970
 21
-73.693255258339491
  0
ARC
  8
0
  6
CONTINUOUS
 62
3
 10
-276.004668472240160
 20
-75.896615502427267
 40
5.000000000000032
 50
17.324497767505495
 51
149.596673703376070
  0
LINE
  8
0
  6
CONTINUOUS
 62
3
 10
-269.754668472240160
 20
-72.107878157659002
 11
-269.754668472240160
 21
-74.603518066450988
  0
LINE
  8
0
  6
CONTINUOUS
 62
3
 10
-282.254668472240160
 20
-67.897719910564774
 11
-282.254668472240160
 21
-73.180231888031585
  0
ARC
  8
0
  6
CONTINUOUS
 62
3
 10
-344.004668472240160
 20
-75.896615502427267
 40
5.000000000000032
 50
30.403326296623931
 51
162.675502232494520
  0
LINE
  8
0
  6
CONTINUOUS
 62
3
 10
-337.754668472240160
 20
-67.897719910564774
 11
-337.754668472240160
 21
-73.180231888031585
  0
LINE
  8
0
  6
CONTINUOUS
 62
3
 10
-350.254668472240160
 20
-72.107878157659002
 11
-350.254668472240160
 21
-74.603518066450988
  0
LINE
  8
0
  6
CONTINUOUS
 62
3
 10
-344.004673254676850
 20
-73.009867242213886
 11
-342.821004447512340
 21
-73.693255258339491
  0
LINE
  8
0
  6
CONTINUOUS
 62
3
 10
-344.004673193447390
 20
-73.009866762071169
 11
-345.776105978965350
 21
-74.032607188690179
  0
ARC
  8
0
  6
CONTINUOUS
 62
3
 10
-330.504668472240160
 20
-116.497488428532050
 40
50.000000000000171
 50
93.357817421570317
 51
126.789027002265740
  0
ARC
  8
0
  6
CONTINUOUS
 62
3
 10
-330.504668472240160
 20
-116.497488428532050
 40
49.999999999999957
 50
133.946444058004150
 51
157.335070973377470
  0
ARC
  8
0
  6
CONTINUOUS
 62
3
 10
-372.004668472239700
 20
-112.896615502427210
 40
7.999999999999999
 50
103.028386429423530
 51
108.291688906695150
  0
LINE
  8
0
  6
CONTINUOUS
 62
3
 10
-390.004668472240160
 20
-41.896615502427267
 11
-390.004668472240160
 21
-87.431009170335926
  0
LINE
  8
0
  6
CONTINUOUS
 62
3
 10
-390.004668472240160
 20
-166.052543852661420
 11
-390.004668472240160
 21
-181.896615502427270
  0
LINE
  8
0
  6
CONTINUOUS
 62
3
 10
-377.565569582342620
 20
-156.800255892572180
 11
-373.340267451333600
 21
-163.485658903748120
  0
LINE
  8
0
  6
DASHDOT
 62
4
 10
-426.226903891896650
 20
-131.896615502427270
 11
-205.736564991406340
 21
-131.896615502427270
  0
ARC
  8
0
  6
CONTINUOUS
 62
3
 10
-350.004668472240160
 20
-190.396615502427320
 40
5.000000000000019
 50
158.399758328943590
 51
6.293159398579926
  0
ARC
  8
0
  6
CONTINUOUS
 62
3
 10
-362.853849345301570
 20
-188.422140663046720
 40
5.999999999999944
 50
351.263953591910710
 51
4.887340907919993
  0
ARC
  8
0
  6
CONTINUOUS
 62
3
 10
-350.004668472240160
 20
-190.396615502427320
 40
6.250000000000191
 50
331.134272584994330
 51
3.688916890120574
  0
LINE
  8
0
  6
CONTINUOUS
 62
3
 10
-347.504670856424580
 20
-191.839987147425230
 11
-347.504670099360280
 21
-189.548371369791650
  0
LINE
  8
0
  6
CONTINUOUS
 62
3
 10
-352.398829849039430
 20
-188.892138118540970
 11
-352.504666978238670
 21
-188.953243406618700
  0
LINE
  8
0
  6
CONTINUOUS
 62
3
 10
-344.195193452928830
 20
-195.896615502427270
 11
-354.334795491162420
 21
-195.896615502427270
  0
ARC
  8
0
  6
CONTINUOUS
 62
3
 10
-257.155487599178740
 20
-188.422140663046720
 40
6.000000000000013
 50
175.112659092080070
 51
188.736046408088780
  0
LINE
  8
0
  6
CONTINUOUS
 62
3
 10
-272.504666088055670
 20
-191.839987147425230
 11
-272.504666845120030
 21
-189.548371369791650
  0
LINE
  8
0
  6
CONTINUOUS
 62
3
 10
-267.610507095440940
 20
-188.892138118540970
 11
-267.504669966241640
 21
-188.953243406618700
  0
ARC
  8
0
  6
CONTINUOUS
 62
3
 10
-270.004668472240160
 20
-190.396615502427320
 40
4.999999999999684
 50
173.706840601420140
 51
21.600241671056416
  0
ARC
  8
0
  6
CONTINUOUS
 62
3
 10
-270.004668472240160
 20
-190.396615502427320
 40
6.249999999999756
 50
176.311083109879460
 51
208.865727415005670
  0
LINE
  8
0
  6
CONTINUOUS
 62
3
 10
-275.814143491551480
 20
-195.896615502427270
 11
-265.674541453317890
 21
-195.896615502427270
  0
LINE
  8
0
  6
CONTINUOUS
 62
3
 10
132.472902521702050
 20
35.472443451671097
 11
128.946725573394130
 21
35.564779644678310
  0
LINE
  8
0
  6
CONTINUOUS
 62
3
 10
139.972902521702050
 20
35.668837863439876
 11
132.472902521702050
 21
35.472443451671097
  0
ARC
  8
0
  6
CONTINUOUS
 62
3
 10
56.810263502805356
 20
44.345092686858152
 40
1.000000000000270
 50
54.456596482686322
 51
85.335584795390147
  0
ARC
  8
0
  6
CONTINUOUS
 62
3
 10
56.972902521701144
 20
46.338468855456085
 40
1.000000000000000
 50
180.000000000000000
 51
265.335584795394370
  0
ARC
  8
0
  6
CONTINUOUS
 62
3
 10
57.972902521701144
 20
45.972443451672007
 40
1.000000000000129
 50
253.216766737296240
 51
270.000000000000000
  0
LINE
  8
0
  6
CONTINUOUS
 62
3
 10
57.972902521701144
 20
44.972443451672007
 11
65.972902521701144
 21
44.972443451671097
  0
ARC
  8
0
  6
CONTINUOUS
 62
3
 10
57.972902521701144
 20
45.972443451672007
 40
1.000000000000000
 50
180.000000000000000
 51
253.216766737296240
  0
LINE
  8
0
  6
CONTINUOUS
 62
3
 10
56.972902521701144
 20
45.972443451672007
 11
56.972902521701144
 21
76.472443451670188
  0
LINE
  8
0
  6
CONTINUOUS
 62
3
 10
32.472902521701144
 20
115.472443451671090
 11
32.472902521701144
 21
55.972443451671097
  0
LINE
  8
0
  6
CONTINUOUS
 62
3
 10
32.472902521701144
 20
55.972443451671097
 11
35.472902521701144
 21
55.972443451671097
  0
ARC
  8
0
  6
CONTINUOUS
 62
3
 10
50.972902521701144
 20
56.972443451671097
 40
6.000000000000000
 50
0.000000000000000
 51
90.000000000000000
  0
LINE
  8
0
  6
CONTINUOUS
 62
3
 10
45.372397458312662
 20
62.972443451671097
 11
50.972902521701144
 21
62.972443451671097
  0
LINE
  8
0
  6
CONTINUOUS
 62
3
 10
55.972902521701144
 20
56.472443451670188
 11
53.972902521701144
 21
56.472443451671097
  0
LINE
  8
0
  6
CONTINUOUS
 62
3
 10
55.972902521701144
 20
46.472443451670188
 11
53.972902521701144
 21
46.472443451671097
  0
LINE
  8
0
  6
CONTINUOUS
 62
3
 10
53.972902521701144
 20
46.472443451671097
 11
53.972902521701144
 21
56.472443451671097
  0
LINE
  8
0
  6
CONTINUOUS
 62
3
 10
55.972902521701144
 20
57.510515621386730
 11
55.972902521701144
 21
46.338468855456085
  0
LINE
  8
0
  6
CONTINUOUS
 62
3
 10
56.972902521701144
 20
86.472443451670188
 11
56.972902521701144
 21
115.472443451671090
  0
LINE
  8
0
  6
CONTINUOUS
 62
3
 10
57.972902521701144
 20
87.722443451671097
 11
59.872902521701690
 21
87.722443451671097
  0
LINE
  8
0
  6
CONTINUOUS
 62
3
 10
57.972902521701144
 20
75.222443451671097
 11
59.872902521701690
 21
75.222443451671097
  0
LINE
  8
0
  6
CONTINUOUS
 62
3
 10
59.972902521701144
 20
75.322443451671461
 11
59.972902521701144
 21
87.622443451670733
  0
ARC
  8
0
  6
CONTINUOUS
 62
3
 10
57.972902521701144
 20
88.722443451671097
 40
1.000000000000000
 50
180.000000000000000
 51
270.000000000000000
  0
ARC
  8
0
  6
CONTINUOUS
 62
3
 10
59.872902521701690
 20
87.622443451670733
 40
0.099999999999454
 50
0.000000000000000
 51
90.000000000000000
  0
ARC
  8
0
  6
CONTINUOUS
 62
3
 10
57.972902521701144
 20
74.222443451671097
 40
1.000000000000000
 50
90.000000000000000
 51
180.000000000000000
  0
ARC
  8
0
  6
CONTINUOUS
 62
3
 10
59.872902521701690
 20
75.322443451671461
 40
0.100000000000364
 50
270.000000000000000
 51
0.000000000000000
  0
ARC
  8
0
  6
CONTINUOUS
 62
3
 10
49.972902521701144
 20
56.972443451671097
 40
6.000000000000000
 50
0.000000000000000
 51
90.000000000000000
  0
ARC
  8
0
  6
CONTINUOUS
 62
3
 10
45.372397458312662
 20
52.972443451671097
 40
10.000000000000000
 50
90.000000000000000
 51
160.528779365505610
  0
ARC
  8
0
  6
CONTINUOUS
 62
3
 10
35.472902521701144
 20
56.472443451671097
 40
0.500000000000000
 50
270.000000000000000
 51
340.528779365577860
  0
ARC
  8
0
  6
CONTINUOUS
 62
3
 10
56.810263502805356
 20
186.599794216484040
 40
0.999999999999742
 50
274.664415204609840
 51
305.543403517313660
  0
ARC
  8
0
  6
CONTINUOUS
 62
3
 10
56.972902521701144
 20
184.606418047887020
 40
0.999999999999742
 50
94.664415204609853
 51
180.000000000000000
  0
ARC
  8
0
  6
CONTINUOUS
 62
3
 10
57.972902521701144
 20
184.972443451670190
 40
1.000000000000000
 50
90.000000000000000
 51
106.783233262703770
  0
LINE
  8
0
  6
CONTINUOUS
 62
3
 10
57.972902521701144
 20
185.972443451670190
 11
65.972902521701144
 21
185.972443451671100
  0
ARC
  8
0
  6
CONTINUOUS
 62
3
 10
57.972902521701144
 20
184.972443451670190
 40
1.000000000000129
 50
106.783233262703770
 51
180.000000000000000
  0
LINE
  8
0
  6
CONTINUOUS
 62
3
 10
56.972902521701144
 20
184.972443451670190
 11
56.972902521701144
 21
154.472443451672010
  0
LINE
  8
0
  6
CONTINUOUS
 62
3
 10
32.472902521701144
 20
115.472443451671090
 11
32.472902521701144
 21
174.972443451671100
  0
LINE
  8
0
  6
CONTINUOUS
 62
3
 10
32.472902521701144
 20
174.972443451671100
 11
35.472902521701144
 21
174.972443451671100
  0
ARC
  8
0
  6
CONTINUOUS
 62
3
 10
50.972902521701144
 20
173.972443451671100
 40
6.000000000000000
 50
270.000000000000000
 51
0.000000000000000
  0
LINE
  8
0
  6
CONTINUOUS
 62
3
 10
45.372397458312662
 20
167.972443451671100
 11
50.972902521701144
 21
167.972443451671100
  0
LINE
  8
0
  6
CONTINUOUS
 62
3
 10
55.972902521701144
 20
174.472443451672010
 11
53.972902521701144
 21
174.472443451672010
  0
LINE
  8
0
  6
CONTINUOUS
 62
3
 10
55.972902521701144
 20
184.472443451672010
 11
53.972902521701144
 21
184.472443451672010
  0
LINE
  8
0
  6
CONTINUOUS
 62
3
 10
53.972902521701144
 20
184.472443451672010
 11
53.972902521701144
 21
174.472443451672010
  0
LINE
  8
0
  6
CONTINUOUS
 62
3
 10
55.972902521701144
 20
173.434371281955460
 11
55.972902521701144
 21
184.606418047887020
  0
LINE
  8
0
  6
CONTINUOUS
 62
3
 10
56.972902521701144
 20
144.472443451672010
 11
56.972902521701144
 21
115.472443451671090
  0
LINE
  8
0
  6
CONTINUOUS
 62
3
 10
57.972902521701144
 20
143.222443451672010
 11
59.872902521701690
 21
143.222443451672010
  0
LINE
  8
0
  6
CONTINUOUS
 62
3
 10
57.972902521701144
 20
155.722443451672010
 11
59.872902521701690
 21
155.722443451672010
  0
LINE
  8
0
  6
CONTINUOUS
 62
3
 10
59.972902521701144
 20
155.622443451671640
 11
59.972902521701144
 21
143.322443451671460
  0
ARC
  8
0
  6
CONTINUOUS
 62
3
 10
57.972902521701144
 20
142.222443451672010
 40
1.000000000000000
 50
90.000000000000000
 51
180.000000000000000
  0
ARC
  8
0
  6
CONTINUOUS
 62
3
 10
59.872902521701690
 20
143.322443451671460
 40
0.099999999999454
 50
270.000000000000000
 51
0.000000000000000
  0
ARC
  8
0
  6
CONTINUOUS
 62
3
 10
57.972902521701144
 20
156.722443451672010
 40
1.000000000000000
 50
180.000000000000000
 51
270.000000000000000
  0
ARC
  8
0
  6
CONTINUOUS
 62
3
 10
59.872902521701690
 20
155.622443451671640
 40
0.099999999999454
 50
0.000000000000000
 51
90.000000000000000
  0
ARC
  8
0
  6
CONTINUOUS
 62
3
 10
49.972902521701144
 20
173.972443451671100
 40
6.000000000000000
 50
270.000000000000000
 51
0.000000000000000
  0
ARC
  8
0
  6
CONTINUOUS
 62
3
 10
45.372397458312662
 20
177.972443451671100
 40
9.999999999999684
 50
199.471220634489500
 51
270.000000000000000
  0
ARC
  8
0
  6
CONTINUOUS
 62
3
 10
35.472902521701144
 20
174.472443451671100
 40
0.500000000000176
 50
19.471220634520403
 51
90.000000000000000
  0
LINE
  8
0
  6
CONTINUOUS
 62
3
 10
186.472902521701140
 20
115.472443451671090
 11
186.472902521701140
 21
104.872443451670730
  0
LINE
  8
0
  6
CONTINUOUS
 62
3
 10
186.072902521701050
 20
104.472443451671090
 11
153.032710142836550
 21
104.472443451671090
  0
LINE
  8
0
  6
CONTINUOUS
 62
3
 10
186.072902521701050
 20
104.472443451671090
 11
153.032710142836550
 21
104.472443451671090
  0
ARC
  8
0
  6
CONTINUOUS
 62
3
 10
186.072902521701050
 20
104.872443451670730
 40
0.399999999999636
 50
270.000000000000000
 51
0.000000000000000
  0
LINE
  8
0
  6
CONTINUOUS
 62
3
 10
186.472902521701140
 20
104.872443451670730
 11
186.472902521701140
 21
101.972443451671090
  0
LINE
  8
0
  6
CONTINUOUS
 62
3
 10
186.472904429003850
 20
101.972443451671090
 11
154.472904429003850
 21
101.972443451671090
  0
LINE
  8
0
  6
CONTINUOUS
 62
3
 10
150.472902521701140
 20
115.472443451671090
 11
150.472902521701140
 21
127.072443451670550
  0
LINE
  8
0
  6
CONTINUOUS
 62
3
 10
152.472902521701140
 20
126.322443451670550
 11
151.272902521700870
 21
126.322443451670550
  0
LINE
  8
0
  6
CONTINUOUS
 62
3
 10
153.032710142836550
 20
126.472443451671090
 11
152.472902521701140
 21
126.322443451670550
  0
LINE
  8
0
  6
CONTINUOUS
 62
3
 10
150.472902521701140
 20
127.072443451670550
 11
150.072902521701050
 21
127.472443451671090
  0
ARC
  8
0
  6
CONTINUOUS
 62
3
 10
151.272902521700870
 20
127.122443451670730
 40
0.799999999999783
 50
183.703196634282420
 51
270.000000000000000
  0
LINE
  8
0
  6
CONTINUOUS
 62
3
 10
152.472902521701140
 20
126.322443451670550
 11
151.272902521700870
 21
126.322443451670550
  0
LINE
  8
0
  6
CONTINUOUS
 62
3
 10
153.032710142836550
 20
126.472443451671090
 11
152.472902521701140
 21
126.322443451670550
  0
LINE
  8
0
  6
CONTINUOUS
 62
3
 10
150.472902521701140
 20
127.072443451670550
 11
150.072902521701050
 21
127.472443451671090
  0
LINE
  8
0
  6
CONTINUOUS
 62
3
 10
148.472902521701140
 20
127.472443451671090
 11
150.072902521701050
 21
127.472443451671090
  0
LINE
  8
0
  6
CONTINUOUS
 62
3
 10
154.472902521701140
 20
104.472443451671090
 11
154.472902521701140
 21
101.972443451671090
  0
LINE
  8
0
  6
CONTINUOUS
 62
3
 10
148.472902521701140
 20
103.472443451670180
 11
150.072902521701050
 21
103.472443451671090
  0
LINE
  8
0
  6
CONTINUOUS
 62
3
 10
150.472902521701140
 20
115.472443451671090
 11
150.472902521701140
 21
103.872443451670730
  0
LINE
  8
0
  6
CONTINUOUS
 62
3
 10
152.472902521701140
 20
104.622443451670730
 11
151.272902521700870
 21
104.622443451670730
  0
LINE
  8
0
  6
CONTINUOUS
 62
3
 10
153.032710142836550
 20
104.472443451671090
 11
152.472902521701140
 21
104.622443451670730
  0
LINE
  8
0
  6
CONTINUOUS
 62
3
 10
150.472902521701140
 20
103.872443451670730
 11
150.072902521701050
 21
103.472443451671090
  0
LINE
  8
0
  6
CONTINUOUS
 62
3
 10
186.072902521701050
 20
126.472443451671090
 11
153.032710142836550
 21
126.472443451671090
  0
ARC
  8
0
  6
CONTINUOUS
 62
3
 10
151.272902521700870
 20
103.822443451670550
 40
0.800000000000182
 50
90.000000000000000
 51
176.296803365717580
  0
LINE
  8
0
  6
CONTINUOUS
 62
3
 10
152.472902521701140
 20
104.622443451670730
 11
151.272902521700870
 21
104.622443451670730
  0
LINE
  8
0
  6
CONTINUOUS
 62
3
 10
153.032710142836550
 20
104.472443451671090
 11
152.472902521701140
 21
104.622443451670730
  0
LINE
  8
0
  6
CONTINUOUS
 62
3
 10
150.472902521701140
 20
103.872443451670730
 11
150.072902521701050
 21
103.472443451671090
  0
LINE
  8
0
  6
CONTINUOUS
 62
3
 10
186.072902521701050
 20
126.472443451671090
 11
153.032710142836550
 21
126.472443451671090
  0
LINE
  8
0
  6
CONTINUOUS
 62
3
 10
148.472902521701140
 20
103.472443451670180
 11
150.072902521701050
 21
103.472443451671090
  0
LINE
  8
0
  6
CONTINUOUS
 62
3
 10
186.472902521701140
 20
115.472443451671090
 11
186.472902521701140
 21
126.072443451670550
  0
ARC
  8
0
  6
CONTINUOUS
 62
3
 10
186.072902521701050
 20
126.072443451670550
 40
0.400000000000091
 50
0.000000000000000
 51
90.000000000000000
  0
LINE
  8
0
  6
DASHDOT
 62
4
 10
151.695736198710620
 20
46.529532285982896
 11
118.858547486316630
 21
46.529532285982896
  0
LINE
  8
0
  6
DASHDOT
 62
4
 10
151.695736198710620
 20
184.415354617359300
 11
118.858547486316630
 21
184.415354617359300
  0
LINE
  8
0
  6
CONTINUOUS
 62
3
 10
125.972902521701820
 20
76.456506203043318
 11
116.023383472029760
 21
76.456506203043318
  0
ARC
  8
0
  6
CONTINUOUS
 62
3
 10
113.062666399051970
 20
70.799651953551802
 40
1.999999999999685
 50
38.684601234802514
 51
90.000000000000000
  0
LINE
  8
0
  6
CONTINUOUS
 62
3
 10
114.623863236726720
 20
72.049717725434675
 11
127.534099359377470
 21
55.926230256490271
  0
ARC
  8
0
  6
CONTINUOUS
 62
3
 10
125.972902521702280
 20
54.676164484606488
 40
1.999999999999773
 50
0.000000000000000
 51
38.684601234814714
  0
ARC
  8
0
  6
CONTINUOUS
 62
3
 10
113.062666399051750
 20
74.456506203044228
 40
1.999999999999685
 50
38.684601234802514
 51
90.000000000000000
  0
LINE
  8
0
  6
CONTINUOUS
 62
3
 10
114.623863236726490
 20
75.706571974927101
 11
127.534099359377250
 21
59.583084505982697
  0
ARC
  8
0
  6
CONTINUOUS
 62
3
 10
125.972902521702050
 20
58.333018734098914
 40
1.999999999999773
 50
0.000000000000000
 51
38.684601234814714
  0
ARC
  8
0
  6
CONTINUOUS
 62
3
 10
113.062666399051750
 20
156.488380700297970
 40
2.000000000000000
 50
270.000000000000000
 51
321.315398765197470
  0
LINE
  8
0
  6
CONTINUOUS
 62
3
 10
114.623863236726490
 20
155.238314928415090
 11
127.534099359377250
 21
171.361802397359500
  0
ARC
  8
0
  6
CONTINUOUS
 62
3
 10
125.972902521702050
 20
172.611868169243280
 40
2.000000000000608
 50
321.315398765185310
 51
0.000000000000000
  0
ARC
  8
0
  6
CONTINUOUS
 62
3
 10
125.972902521702280
 20
176.268722418735710
 40
2.000000000000608
 50
321.315398765185310
 51
0.000000000000000
  0
ARC
  8
0
  6
CONTINUOUS
 62
3
 10
113.062666399051970
 20
160.145234949790390
 40
2.000000000000000
 50
270.000000000000000
 51
321.315398765197470
  0
ARC
  8
0
  6
CONTINUOUS
 62
3
 10
125.972902521701370
 20
119.472443451671090
 40
2.000000000000000
 50
270.000000000000000
 51
0.000000000000000
  0
ARC
  8
0
  6
CONTINUOUS
 62
3
 10
125.972902521701370
 20
111.472443451671090
 40
2.000000000000000
 50
0.000000000000000
 51
90.000000000000000
  0
ARC
  8
0
  6
CONTINUOUS
 62
3
 10
116.023383472029760
 20
111.472443451671090
 40
2.000000000000000
 50
90.000000000000000
 51
180.000000000000000
  0
ARC
  8
0
  6
CONTINUOUS
 62
3
 10
116.023383472029760
 20
119.472443451671090
 40
2.000000000000000
 50
180.000000000000000
 51
270.000000000000000
  0
LINE
  8
0
  6
CONTINUOUS
 62
3
 10
114.623863236726720
 20
158.895169177907520
 11
127.534099359377470
 21
175.018656646851920
  0
LINE
  8
0
  6
CONTINUOUS
 62
3
 10
125.972902521701820
 20
154.488380700298880
 11
116.023383472029760
 21
154.488380700298880
  0
LINE
  8
0
  6
CONTINUOUS
 62
3
 10
125.972902521701370
 20
113.472443451671090
 11
116.023383472029760
 21
113.472443451671090
  0
LINE
  8
0
  6
CONTINUOUS
 62
3
 10
125.972902521701370
 20
117.472443451671090
 11
116.023383472029760
 21
117.472443451671090
  0
LINE
  8
0
  6
CONTINUOUS
 62
3
 10
66.472902521701144
 20
44.379070457928719
 11
125.025259741013540
 21
43.357035260966768
  0
ARC
  8
0
  6
CONTINUOUS
 62
3
 10
124.972902521701820
 20
40.357492175498010
 40
3.000000000000000
 50
0.000000000000000
 51
89.000000000002430
  0
LINE
  8
0
  6
CONTINUOUS
 62
3
 10
66.472902521701144
 20
186.565816445413470
 11
125.025259741013540
 21
187.587851642375430
  0
LINE
  8
0
  6
CONTINUOUS
 62
3
 10
148.472902521701140
 20
115.472443451671090
 11
148.472902521701140
 21
94.495066041801692
  0
LINE
  8
0
  6
CONTINUOUS
 62
3
 10
148.472902521701140
 20
115.472443451671090
 11
148.472902521701140
 21
136.449820861540500
  0
LINE
  8
0
  6
CONTINUOUS
 62
3
 10
132.472902521702050
 20
195.472443451671100
 11
128.946725573394130
 21
195.380107258663880
  0
LINE
  8
0
  6
CONTINUOUS
 62
3
 10
139.972902521702050
 20
195.276049039902320
 11
132.472902521702050
 21
195.472443451671100
  0
LINE
  8
0
  6
CONTINUOUS
 62
3
 10
142.193577024964720
 20
40.472443451671097
 11
142.972902521702050
 21
41.272443451671279
  0
LINE
  8
0
  6
CONTINUOUS
 62
3
 10
142.193577024964720
 20
190.472443451671100
 11
142.972902521702050
 21
189.672443451670920
  0
ARC
  8
0
  6
CONTINUOUS
 62
3
 10
128.972902521702050
 20
194.380449933688400
 40
0.999999999999931
 50
91.500000000002814
 51
180.000000000000000
  0
ARC
  8
0
  6
CONTINUOUS
 62
3
 10
124.972902521701820
 20
190.587394727844180
 40
2.999999999999582
 50
270.999999999997610
 51
0.000000000000000
  0
ARC
  8
0
  6
CONTINUOUS
 62
3
 10
146.472902521701140
 20
136.449820861540500
 40
2.000000000000000
 50
0.000000000000000
 51
54.162347045717610
  0
ARC
  8
0
  6
CONTINUOUS
 62
3
 10
146.472902521701140
 20
94.495066041801692
 40
1.999999999999779
 50
305.837652954282420
 51
0.000000000000000
  0
LINE
  8
0
  6
CONTINUOUS
 62
3
 10
66.472902521701144
 20
186.565816445413470
 11
66.472902521701144
 21
44.379070457928719
  0
LINE
  8
0
  6
CONTINUOUS
 62
3
 10
142.193577024964720
 20
190.472443451671100
 11
139.972902521702050
 21
190.472443451671100
  0
LINE
  8
0
  6
CONTINUOUS
 62
3
 10
142.193577024964720
 20
40.472443451671097
 11
139.972902521702050
 21
40.472443451671097
  0
LINE
  8
0
  6
CONTINUOUS
 62
3
 10
139.972902521702050
 20
115.472443451671090
 11
139.972902521702050
 21
195.262956079117430
  0
LINE
  8
0
  6
CONTINUOUS
 62
3
 10
142.972902521700920
 20
115.472443451671090
 11
142.972902521702050
 21
189.672443451670920
  0
LINE
  8
0
  6
CONTINUOUS
 62
3
 10
142.972902521701140
 20
115.472443451671090
 11
142.972902521702050
 21
41.272443451671279
  0
LINE
  8
0
  6
CONTINUOUS
 62
3
 10
147.643883629389850
 20
92.873707585002194
 11
142.972902521701600
 21
89.500221229449380
  0
LINE
  8
0
  6
CONTINUOUS
 62
3
 10
147.643883629389850
 20
138.071179318340000
 11
142.972902521701140
 21
141.444665673893720
  0
ARC
  8
0
  6
CONTINUOUS
 62
3
 10
128.972902521702050
 20
36.564436969653798
 40
1.000000000000000
 50
180.000000000000000
 51
268.499999999997210
  0
LINE
  8
0
  6
CONTINUOUS
 62
3
 10
139.972902521702050
 20
115.472443451671090
 11
139.972902521702050
 21
35.668837863439876
  0
LINE
  8
0
  6
CONTINUOUS
 62
3
 10
127.972902521700680
 20
36.564436969653798
 11
127.972902521702050
 21
194.380449933688400
  0
ARC
  8
0
  6
CONTINUOUS
 62
3
 10
134.972902521701600
 20
176.501880703193820
 40
2.000000000000000
 50
90.000000000000000
 51
180.000000000000000
  0
LINE
  8
0
  6
CONTINUOUS
 62
3
 10
139.972902521702050
 20
178.501880703193820
 11
134.972902521701600
 21
178.501880703193820
  0
LINE
  8
0
  6
CONTINUOUS
 62
3
 10
134.972902521701600
 20
160.165575591135170
 11
139.972902521702050
 21
160.165575591135170
  0
ARC
  8
0
  6
CONTINUOUS
 62
3
 10
134.972902521701600
 20
158.165575591135170
 40
2.000000000000000
 50
90.000000000000000
 51
180.000000000000000
  0
ARC
  8
0
  6
CONTINUOUS
 62
3
 10
134.972902521701600
 20
54.443006200148375
 40
1.999999999999773
 50
180.000000000000000
 51
270.000000000000000
  0
LINE
  8
0
  6
CONTINUOUS
 62
3
 10
139.972902521702050
 20
52.443006200148375
 11
134.972902521701600
 21
52.443006200148375
  0
LINE
  8
0
  6
CONTINUOUS
 62
3
 10
134.972902521701600
 20
70.779311312207028
 11
139.972902521702050
 21
70.779311312207028
  0
ARC
  8
0
  6
CONTINUOUS
 62
3
 10
134.972902521701600
 20
72.779311312207028
 40
2.000000000000000
 50
180.000000000000000
 51
270.000000000000000
  0
LINE
  8
0
  6
CONTINUOUS
 62
3
 10
132.972902521700920
 20
54.443006200148375
 11
132.972902521701370
 21
115.472443451671090
  0
LINE
  8
0
  6
CONTINUOUS
 62
3
 10
132.972902521701370
 20
115.472443451671090
 11
132.972902521701830
 21
176.501880703193820
  0
LINE
  8
0
  6
CONTINUOUS
 62
3
 10
66.472902521701144
 20
186.565816445413470
 11
65.972902521701144
 21
186.565816445413470
  0
LINE
  8
0
  6
CONTINUOUS
 62
3
 10
65.972902521701144
 20
44.379070457928719
 11
65.972902521701144
 21
186.565816445413470
  0
LINE
  8
0
  6
CONTINUOUS
 62
3
 10
66.472902521701144
 20
44.379070457928719
 11
65.972902521701144
 21
44.379070457928719
  0
LINE
  8
0
  6
DASHDOT
 62
3
 10
7.972902521701144
 20
174.972443451670870
 11
7.972902521701144
 21
179.972443451670870
  0
LINE
  8
0
  6
CONTINUOUS
 62
3
 10
-116.027097478298850
 20
179.972443451670870
 11
7.972902521701144
 21
179.972443451670870
  0
LINE
  8
0
  6
CONTINUOUS
 62
3
 10
-2.527097478298856
 20
198.633468511357710
 11
-105.527097478298850
 21
198.633468511357710
  0
ARC
  8
0
  6
CONTINUOUS
 62
3
 10
2.972902521701144
 20
203.633468511357710
 40
5.000000000000072
 50
287.457603123721870
 51
0.000000000000000
  0
ARC
  8
0
  6
CONTINUOUS
 62
3
 10
3.172902521700962
 20
199.310014637100040
 40
1.300000000000182
 50
0.000000000000000
 51
73.398450400977637
  0
ARC
  8
0
  6
CONTINUOUS
 62
3
 10
0.972902521701144
 20
191.930990311350570
 40
9.000000000000123
 50
73.398450400980877
 51
106.601549599019120
  0
ARC
  8
0
  6
CONTINUOUS
 62
3
 10
-1.227097478298674
 20
199.310014637100040
 40
1.300000000000019
 50
106.601549599022360
 51
180.000000000000000
  0
LINE
  8
0
  6
CONTINUOUS
 62
3
 10
4.472902521701144
 20
199.310014637100040
 11
4.472902521701144
 21
198.323004899175660
  0
POLYLINE
  8
0
  6
CONTINUOUS
 62
3
 66
1
  0
VERTEX
  8
0
  6
CONTINUOUS
 62
3
 10
-2.527097478298856
 20
198.323004899175660
  0
VERTEX
  8
0
  6
CONTINUOUS
 62
3
 10
-2.459845959710163
 20
198.288906688979670
  0
VERTEX
  8
0
  6
CONTINUOUS
 62
3
 10
-2.260675842088359
 20
198.256118853879030
  0
VERTEX
  8
0
  6
CONTINUOUS
 62
3
 10
-1.937241121357764
 20
198.225901411989010
  0
VERTEX
  8
0
  6
CONTINUOUS
 62
3
 10
-1.501971212451772
 20
198.199415602655310
  0
VERTEX
  8
0
  6
CONTINUOUS
 62
3
 10
-0.971593293867464
 20
198.177679260677220
  0
VERTEX
  8
0
  6
CONTINUOUS
 62
3
 10
-0.366489491576671
 20
198.161527701487050
  0
VERTEX
  8
0
  6
CONTINUOUS
 62
3
 10
0.290086394644695
 20
198.151581620446590
  0
VERTEX
  8
0
  6
CONTINUOUS
 62
3
 10
0.972902521701143
 20
198.148223239872440
  0
VERTEX
  8
0
  6
CONTINUOUS
 62
3
 10
1.655718648757592
 20
198.151581620446590
  0
VERTEX
  8
0
  6
CONTINUOUS
 62
3
 10
2.312294534978957
 20
198.161527701487050
  0
VERTEX
  8
0
  6
CONTINUOUS
 62
3
 10
2.917398337269750
 20
198.177679260677220
  0
VERTEX
  8
0
  6
CONTINUOUS
 62
3
 10
3.447776255854059
 20
198.199415602655310
  0
VERTEX
  8
0
  6
CONTINUOUS
 62
3
 10
3.883046164760050
 20
198.225901411989010
  0
VERTEX
  8
0
  6
CONTINUOUS
 62
3
 10
4.206480885490645
 20
198.256118853879030
  0
VERTEX
  8
0
  6
CONTINUOUS
 62
3
 10
4.405651003112448
 20
198.288906688979670
  0
VERTEX
  8
0
  6
CONTINUOUS
 62
3
 10
4.472902521701142
 20
198.323004899175660
  0
SEQEND
  8
0
  6
CONTINUOUS
 62
3
  0
LINE
  8
0
  6
CONTINUOUS
 62
3
 10
-2.527097478298856
 20
199.310014637100040
 11
-2.527097478298856
 21
198.323004899175660
  0
ARC
  8
0
  6
CONTINUOUS
 62
3
 10
-111.027097478298850
 20
203.633468511357710
 40
5.000000000000000
 50
180.000000000000000
 51
252.542396876278160
  0
LINE
  8
0
  6
CONTINUOUS
 62
3
 10
-112.527097478298850
 20
199.310014637100040
 11
-112.527097478298850
 21
198.323004899175660
  0
LINE
  8
0
  6
CONTINUOUS
 62
3
 10
-105.527097478298850
 20
199.310014637100040
 11
-105.527097478298850
 21
198.323004899175660
  0
ARC
  8
0
  6
CONTINUOUS
 62
3
 10
-111.227097478298670
 20
199.310014637100040
 40
1.300000000000019
 50
106.601549599022360
 51
180.000000000000000
  0
ARC
  8
0
  6
CONTINUOUS
 62
3
 10
-109.027097478298850
 20
191.930990311350570
 40
9.000000000000123
 50
73.398450400980877
 51
106.601549599019120
  0
ARC
  8
0
  6
CONTINUOUS
 62
3
 10
-106.827097478299030
 20
199.310014637100040
 40
1.300000000000182
 50
0.000000000000000
 51
73.398450400977637
  0
POLYLINE
  8
0
  6
CONTINUOUS
 62
3
 66
1
  0
VERTEX
  8
0
  6
CONTINUOUS
 62
3
 10
-112.527097478298850
 20
198.323004899175660
  0
VERTEX
  8
0
  6
CONTINUOUS
 62
3
 10
-112.459845959710160
 20
198.288906688979670
  0
VERTEX
  8
0
  6
CONTINUOUS
 62
3
 10
-112.260675842088360
 20
198.256118853879030
  0
VERTEX
  8
0
  6
CONTINUOUS
 62
3
 10
-111.937241121357750
 20
198.225901411989010
  0
VERTEX
  8
0
  6
CONTINUOUS
 62
3
 10
-111.501971212451770
 20
198.199415602655310
  0
VERTEX
  8
0
  6
CONTINUOUS
 62
3
 10
-110.971593293867470
 20
198.177679260677220
  0
VERTEX
  8
0
  6
CONTINUOUS
 62
3
 10
-110.366489491576670
 20
198.161527701487050
  0
VERTEX
  8
0
  6
CONTINUOUS
 62
3
 10
-109.709913605355310
 20
198.151581620446590
  0
VERTEX
  8
0
  6
CONTINUOUS
 62
3
 10
-109.027097478298850
 20
198.148223239872440
  0
VERTEX
  8
0
  6
CONTINUOUS
 62
3
 10
-108.344281351242410
 20
198.151581620446590
  0
VERTEX
  8
0
  6
CONTINUOUS
 62
3
 10
-107.687705465021040
 20
198.161527701487050
  0
VERTEX
  8
0
  6
CONTINUOUS
 62
3
 10
-107.082601662730250
 20
198.177679260677220
  0
VERTEX
  8
0
  6
CONTINUOUS
 62
3
 10
-106.552223744145940
 20
198.199415602655310
  0
VERTEX
  8
0
  6
CONTINUOUS
 62
3
 10
-106.116953835239950
 20
198.225901411989010
  0
VERTEX
  8
0
  6
CONTINUOUS
 62
3
 10
-105.793519114509350
 20
198.256118853879030
  0
VERTEX
  8
0
  6
CONTINUOUS
 62
3
 10
-105.594348996887540
 20
198.288906688979670
  0
VERTEX
  8
0
  6
CONTINUOUS
 62
3
 10
-105.527097478298850
 20
198.323004899175660
  0
SEQEND
  8
0
  6
CONTINUOUS
 62
3
  0
LINE
  8
0
  6
CONTINUOUS
 62
3
 10
7.972902521701144
 20
203.633468511357710
 11
7.972902521701144
 21
216.572443451670780
  0
ARC
  8
0
  6
CONTINUOUS
 62
3
 10
2.972902521701144
 20
184.972443451670870
 40
5.000000000000000
 50
270.000000000000000
 51
0.000000000000000
  0
LINE
  8
0
  6
CONTINUOUS
 62
3
 10
-116.027097478298850
 20
203.633468511357710
 11
-116.027097478298850
 21
216.572443451670780
  0
LINE
  8
0
  6
CONTINUOUS
 62
3
 10
-116.027097478298850
 20
203.166953742733090
 11
-117.027097478298850
 21
203.166953742733090
  0
LINE
  8
0
  6
CONTINUOUS
 62
3
 10
8.972902521701144
 20
198.073316814455890
 11
-117.027097478298850
 21
198.073316814455890
  0
ARC
  8
0
  6
CONTINUOUS
 62
3
 10
-111.027097478298850
 20
184.972443451670870
 40
5.000000000000000
 50
180.000000000000000
 51
270.000000000000000
  0
ARC
  8
0
  6
CONTINUOUS
 62
3
 10
-111.027097478298850
 20
216.572443451670780
 40
5.000000000000000
 50
90.000000000000000
 51
180.000000000000000
  0
ARC
  8
0
  6
CONTINUOUS
 62
3
 10
-117.027097478298850
 20
201.166953742733090
 40
2.000000000000000
 50
90.000000000000000
 51
180.000000000000000
  0
ARC
  8
0
  6
CONTINUOUS
 62
3
 10
-117.027097478298850
 20
200.073316814455890
 40
2.000000000000000
 50
180.000000000000000
 51
270.000000000000000
  0
ARC
  8
0
  6
CONTINUOUS
 62
3
 10
-117.027097478298850
 20
199.274314943370650
 40
2.000000000000000
 50
180.000000000000000
 51
270.000000000000000
  0
LINE
  8
0
  6
CONTINUOUS
 62
3
 10
-119.027097478298850
 20
201.166953742733090
 11
-119.027097478298850
 21
198.475313072251770
  0
ARC
  8
0
  6
CONTINUOUS
 62
3
 10
-117.027097478298850
 20
198.475313072251770
 40
2.000000000000000
 50
180.000000000000000
 51
270.000000000000000
  0
LINE
  8
0
  6
CONTINUOUS
 62
3
 10
-116.027097478298850
 20
184.972443451670870
 11
-116.027097478298850
 21
196.475313072251770
  0
ARC
  8
0
  6
CONTINUOUS
 62
3
 10
2.972902521701144
 20
216.572443451670780
 40
5.000000000000000
 50
0.000000000000000
 51
90.000000000000000
  0
LINE
  8
0
  6
CONTINUOUS
 62
3
 10
-111.027097478298850
 20
221.572443451670780
 11
2.972902521701144
 21
221.572443451670780
  0
LINE
  8
0
  6
CONTINUOUS
 62
3
 10
7.972902521701144
 20
184.972443451670870
 11
7.972902521701144
 21
196.274314943370650
  0
LINE
  8
0
  6
CONTINUOUS
 62
3
 10
10.972902521701144
 20
201.166953742733090
 11
10.972902521701144
 21
198.475313072251770
  0
LINE
  8
0
  6
CONTINUOUS
 62
3
 10
8.972902521701144
 20
197.274314943353830
 11
-117.027097478298850
 21
197.274314943353830
  0
LINE
  8
0
  6
CONTINUOUS
 62
3
 10
8.972902521701144
 20
196.475313072251770
 11
-117.027097478298850
 21
196.475313072251770
  0
LINE
  8
0
  6
CONTINUOUS
 62
3
 10
7.972902521701144
 20
203.166953742733090
 11
8.972902521701144
 21
203.166953742733090
  0
ARC
  8
0
  6
CONTINUOUS
 62
3
 10
8.972902521701144
 20
201.166953742733090
 40
2.000000000000000
 50
0.000000000000000
 51
90.000000000000000
  0
ARC
  8
0
  6
CONTINUOUS
 62
3
 10
8.972902521701144
 20
200.073316814455890
 40
2.000000000000000
 50
270.000000000000000
 51
0.000000000000000
  0
ARC
  8
0
  6
CONTINUOUS
 62
3
 10
8.972902521701144
 20
199.274314943370650
 40
2.000000000000000
 50
270.000000000000000
 51
0.000000000000000
  0
ARC
  8
0
  6
CONTINUOUS
 62
3
 10
8.972902521701144
 20
198.475313072251770
 40
2.000000000000000
 50
270.000000000000000
 51
0.000000000000000
  0
LINE
  8
0
  6
CONTINUOUS
 62
3
 10
-116.027097478298850
 20
174.972443451670870
 11
-116.027097478298850
 21
179.972443451670870
  0
LINE
  8
0
  6
DASHDOT
 62
3
 10
7.972902521701144
 20
174.972443451670870
 11
7.972902521701144
 21
179.972443451670870
  0
LINE
  8
0
  6
CONTINUOUS
 62
3
 10
7.972902521701144
 20
174.972443451670870
 11
-116.027097478298850
 21
174.972443451670870
  0
LINE
  8
0
  6
CONTINUOUS
 62
3
 10
-49.527097478298856
 20
174.972443451671100
 11
32.472902521701144
 21
174.972443451671100
  0
LINE
  8
0
  6
CONTINUOUS
 62
4
 10
-116.527097478298850
 20
172.472443451671100
 11
37.020750914067634
 21
172.472443451671100
  0
LINE
  8
0
  6
CONTINUOUS
 62
4
 10
-116.527097478298850
 20
171.472443451671100
 11
37.773055381527342
 21
171.472443451671100
  0
LINE
  8
0
  6
CONTINUOUS
 62
4
 10
-116.527097478298850
 20
170.472443451671100
 11
38.758019180651189
 21
170.472443451671100
  0
LINE
  8
0
  6
CONTINUOUS
 62
4
 10
-116.527097478298850
 20
165.787977638446820
 11
56.972902521701144
 21
165.787977638446820
  0
LINE
  8
0
  6
CONTINUOUS
 62
4
 10
-116.527097478298850
 20
160.838230170141060
 11
56.972902521701144
 21
160.838230170141060
  0
LINE
  8
0
  6
CONTINUOUS
 62
4
 10
-116.527097478298850
 20
130.472443451671100
 11
56.972902521701144
 21
130.472443451671100
  0
LINE
  8
0
  6
CONTINUOUS
 62
4
 10
-116.527097478298850
 20
134.845705261172270
 11
56.972902521701144
 21
134.845705261172270
  0
LINE
  8
0
  6
CONTINUOUS
 62
4
 10
-116.527097478298850
 20
136.111943177259490
 11
56.972902521701144
 21
136.111943177259490
  0
LINE
  8
0
  6
CONTINUOUS
 62
4
 10
-116.527097478298850
 20
140.302496908801690
 11
56.972902521701144
 21
140.302496908801690
  0
LINE
  8
0
  6
CONTINUOUS
 62
4
 10
-116.527097478298850
 20
141.664377244150960
 11
56.972902521701144
 21
141.664377244150960
  0
LINE
  8
0
  6
CONTINUOUS
 62
4
 10
-116.527097478298850
 20
145.754877778240830
 11
53.972902521701144
 21
145.754877778240830
  0
LINE
  8
0
  6
CONTINUOUS
 62
4
 10
-116.527097478298850
 20
147.223235168045450
 11
53.972902521701144
 21
147.223235168045450
  0
LINE
  8
0
  6
CONTINUOUS
 62
4
 10
-116.527097478298850
 20
151.186980591844990
 11
53.972902521701144
 21
151.186980591844990
  0
LINE
  8
0
  6
CONTINUOUS
 62
4
 10
-116.527097478298850
 20
152.791628507407040
 11
53.972902521701144
 21
152.791628507407040
  0
LINE
  8
0
  6
CONTINUOUS
 62
4
 10
-116.527097478298850
 20
100.472443451671090
 11
56.972902521701144
 21
100.472443451671090
  0
LINE
  8
0
  6
CONTINUOUS
 62
4
 10
-116.527097478298850
 20
96.099181642169924
 11
56.972902521701144
 21
96.099181642169924
  0
LINE
  8
0
  6
CONTINUOUS
 62
4
 10
-116.527097478298850
 20
94.832943726082704
 11
56.972902521701144
 21
94.832943726082704
  0
LINE
  8
0
  6
CONTINUOUS
 62
4
 10
-116.527097478298850
 20
90.642389994540508
 11
56.972902521701144
 21
90.642389994540508
  0
LINE
  8
0
  6
CONTINUOUS
 62
4
 10
-116.527097478298850
 20
89.280509659191239
 11
56.972902521701144
 21
89.280509659191239
  0
LINE
  8
0
  6
CONTINUOUS
 62
4
 10
-116.527097478298850
 20
85.190009125101369
 11
53.972902521701144
 21
85.190009125101369
  0
LINE
  8
0
  6
CONTINUOUS
 62
4
 10
-116.527097478298850
 20
83.721651735296746
 11
53.972902521701144
 21
83.721651735296746
  0
LINE
  8
0
  6
CONTINUOUS
 62
4
 10
-116.527097478298850
 20
79.757906311497209
 11
53.972902521701144
 21
79.757906311497209
  0
LINE
  8
0
  6
CONTINUOUS
 62
4
 10
-116.527097478298850
 20
78.153258395935154
 11
53.972902521701144
 21
78.153258395935154
  0
LINE
  8
0
  6
CONTINUOUS
 62
4
 10
-116.527097478298850
 20
70.106656733201135
 11
56.972902521701144
 21
70.106656733201135
  0
LINE
  8
0
  6
CONTINUOUS
 62
4
 10
-116.527097478298850
 20
65.156909264895376
 11
56.972902521701144
 21
65.156909264895376
  0
LINE
  8
0
  6
CONTINUOUS
 62
4
 10
-116.527097478298850
 20
60.472443451671097
 11
38.758019180651189
 21
60.472443451671104
  0
LINE
  8
0
  6
CONTINUOUS
 62
4
 10
-116.527097478298850
 20
59.472443451671097
 11
37.773055381527342
 21
59.472443451671104
  0
LINE
  8
0
  6
CONTINUOUS
 62
4
 10
-116.527097478298850
 20
58.472443451671097
 11
37.020750914067634
 21
58.472443451671104
  0
LINE
  8
0
  6
CONTINUOUS
 62
3
 10
-49.527097478298856
 20
55.972443451671097
 11
32.472902521701144
 21
55.972443451671097
  0
LINE
  8
0
  6
CONTINUOUS
 62
3
 10
-116.527097478298850
 20
174.972443451670870
 11
32.472902521701144
 21
174.972443451670870
  0
ARC
  8
0
  6
CONTINUOUS
 62
3
 10
-123.527097478298620
 20
50.853222534798306
 40
3.000000000000000
 50
90.000000000000000
 51
180.000000000000000
  0
ARC
  8
0
  6
CONTINUOUS
 62
3
 10
-119.527097478298850
 20
56.853222534798306
 40
3.000000000000000
 50
270.000000000000000
 51
0.000000000000000
  0
LINE
  8
0
  6
CONTINUOUS
 62
3
 10
-126.527097478298620
 20
50.472443451671097
 11
-126.527097478298620
 21
50.853222534798306
  0
LINE
  8
0
  6
CONTINUOUS
 62
3
 10
-123.527097478298620
 20
53.853222534798306
 11
-119.527097478298850
 21
53.853222534798306
  0
LINE
  8
0
  6
CONTINUOUS
 62
3
 10
-49.527097478298856
 20
51.972443451671325
 11
-49.527097478298856
 21
56.972443451671325
  0
LINE
  8
0
  6
CONTINUOUS
 62
3
 10
-57.527097478298856
 20
21.972443451671552
 11
-65.527097478298856
 21
21.972443451671552
  0
LINE
  8
0
  6
CONTINUOUS
 62
3
 10
-65.527097478298856
 20
22.472443451671552
 11
-65.527097478298856
 21
21.972443451671552
  0
LINE
  8
0
  6
CONTINUOUS
 62
3
 10
-60.027097478298856
 20
22.472443451671552
 11
-60.027097478298856
 21
21.972443451671552
  0
LINE
  8
0
  6
CONTINUOUS
 62
3
 10
-57.527097478298856
 20
22.472443451671552
 11
-57.527097478298856
 21
21.972443451671552
  0
LINE
  8
0
  6
CONTINUOUS
 62
3
 10
-51.527097478298856
 20
22.472443451671552
 11
-122.527097478298620
 21
22.472443451671552
  0
ARC
  8
0
  6
CONTINUOUS
 62
3
 10
-122.527097478298620
 20
23.472443451671552
 40
1.000000000000000
 50
180.000000000000000
 51
270.000000000000000
  0
ARC
  8
0
  6
CONTINUOUS
 62
3
 10
-51.527097478298856
 20
23.472443451671552
 40
1.000000000000000
 50
270.000000000000000
 51
0.000000000000000
  0
LINE
  8
0
  6
CONTINUOUS
 62
3
 10
-50.527097478298856
 20
23.472443451671552
 11
-50.527097478298856
 21
51.972443451671325
  0
LINE
  8
0
  6
CONTINUOUS
 62
3
 10
-123.527097478298620
 20
23.472443451671552
 11
-123.527097478298620
 21
51.972443451671325
  0
LINE
  8
0
  6
CONTINUOUS
 62
3
 10
-49.527097478298856
 20
51.972443451671325
 11
-124.527097478298620
 21
51.972443451671325
  0
LINE
  8
0
  6
CONTINUOUS
 62
3
 10
-49.527097478298856
 20
56.972443451671325
 11
-116.527097478298850
 21
56.972443451671325
  0
LINE
  8
0
  6
CONTINUOUS
 62
3
 10
-124.527097478298620
 20
51.972443451671325
 11
-124.527097478298620
 21
53.681649659544519
  0
ARC
  8
0
  6
CONTINUOUS
 62
3
 10
-145.221121700719100
 20
70.472443451671097
 40
20.000000000000007
 50
234.999999999999740
 51
270.000000000000000
  0
LINE
  8
0
  6
CONTINUOUS
 62
3
 10
-126.527097478298620
 20
50.472443451671097
 11
-145.221121700719100
 21
50.472443451671097
  0
ARC
  8
0
  6
CONTINUOUS
 62
3
 10
-164.927097478248470
 20
63.029238394425647
 40
2.600000000000136
 50
180.000000000000000
 51
234.999999999998610
  0
LINE
  8
0
  6
CONTINUOUS
 62
3
 10
-156.692650427740090
 20
54.089402565891305
 11
-166.418396212761080
 21
60.899443079274533
  0
LINE
  8
0
  6
CONTINUOUS
 62
3
 10
-167.527097478248610
 20
115.472443451671090
 11
-167.527097478248610
 21
63.029238394425647
  0
LINE
  8
0
  6
CONTINUOUS
 62
3
 10
32.472902521701144
 20
55.972443451671097
 11
32.472902521701144
 21
115.472443451671090
  0
LINE
  8
0
  6
CONTINUOUS
 62
3
 10
-116.527097478298850
 20
115.472443451671090
 11
-116.527097478298850
 21
56.853222534798306
  0
ARC
  8
0
  6
CONTINUOUS
 62
3
 10
-164.927097478248470
 20
167.915648508916550
 40
2.599999999999721
 50
125.000000000001370
 51
180.000000000000000
  0
LINE
  8
0
  6
CONTINUOUS
 62
3
 10
-156.692650427740090
 20
176.855484337450890
 11
-166.418396212761080
 21
170.045443824067660
  0
ARC
  8
0
  6
CONTINUOUS
 62
3
 10
-145.221121700719100
 20
160.472443451671100
 40
20.000000000000000
 50
90.000000000000000
 51
125.000000000000240
  0
LINE
  8
0
  6
CONTINUOUS
 62
3
 10
-167.527097478248610
 20
115.472443451671090
 11
-167.527097478248610
 21
167.915648508916550
  0
LINE
  8
0
  6
CONTINUOUS
 62
3
 10
-116.527097478298850
 20
180.472443451671100
 11
-145.221121700719100
 21
180.472443451671100
  0
LINE
  8
0
  6
CONTINUOUS
 62
3
 10
32.472902521701144
 20
174.972443451670870
 11
32.472902521701144
 21
115.472443451671090
  0
LINE
  8
0
  6
CONTINUOUS
 62
3
 10
-116.527097478298850
 20
115.472443451671090
 11
-116.527097478298850
 21
180.472443451671100
  0
LINE
  8
0
  6
CONTINUOUS
 62
3
 10
-127.527097478298170
 20
169.212558552108700
 11
-129.527097478298170
 21
167.559916912985270
  0
LINE
  8
0
  6
CONTINUOUS
 62
3
 10
-125.527097478298170
 20
170.388344037731490
 11
-127.527097478298170
 21
169.212558552108700
  0
LINE
  8
0
  6
CONTINUOUS
 62
3
 10
-127.527097478298170
 20
169.212558552108700
 11
-125.527097478298170
 21
167.559916912985270
  0
LINE
  8
0
  6
CONTINUOUS
 62
3
 10
-129.527097478298170
 20
170.388344037731490
 11
-127.527097478298170
 21
169.212558552108700
  0
POLYLINE
  8
0
  6
CONTINUOUS
 62
3
 66
1
 70
1
  0
VERTEX
  8
0
  6
CONTINUOUS
 62
3
 10
-122.827097478298180
 20
167.395968483731170
  0
VERTEX
  8
0
  6
CONTINUOUS
 62
3
 10
-122.917406660403000
 20
168.098925449931530
  0
VERTEX
  8
0
  6
CONTINUOUS
 62
3
 10
-123.184863675495130
 20
168.774868174143620
  0
VERTEX
  8
0
  6
CONTINUOUS
 62
3
 10
-123.619190300476220
 20
169.397820556549020
  0
VERTEX
  8
0
  6
CONTINUOUS
 62
3
 10
-124.203695606721410
 20
169.943842886447610
  0
VERTEX
  8
0
  6
CONTINUOUS
 62
3
 10
-124.915917383106040
 20
170.391951831914240
  0
VERTEX
  8
0
  6
CONTINUOUS
 62
3
 10
-125.728485346182250
 20
170.724926817476980
  0
VERTEX
  8
0
  6
CONTINUOUS
 62
3
 10
-126.610172964822360
 20
170.929971801175240
  0
VERTEX
  8
0
  6
CONTINUOUS
 62
3
 10
-127.527097478298170
 20
170.999207019276010
  0
VERTEX
  8
0
  6
CONTINUOUS
 62
3
 10
-128.444021991773980
 20
170.929971801175240
  0
VERTEX
  8
0
  6
CONTINUOUS
 62
3
 10
-129.325709610414090
 20
170.724926817476980
  0
VERTEX
  8
0
  6
CONTINUOUS
 62
3
 10
-130.138277573490290
 20
170.391951831914240
  0
VERTEX
  8
0
  6
CONTINUOUS
 62
3
 10
-130.850499349874950
 20
169.943842886447610
  0
VERTEX
  8
0
  6
CONTINUOUS
 62
3
 10
-131.435004656120130
 20
169.397820556549020
  0
VERTEX
  8
0
  6
CONTINUOUS
 62
3
 10
-131.869331281101210
 20
168.774868174143620
  0
VERTEX
  8
0
  6
CONTINUOUS
 62
3
 10
-132.136788296193340
 20
168.098925449931530
  0
VERTEX
  8
0
  6
CONTINUOUS
 62
3
 10
-132.227097478298160
 20
167.395968483731170
  0
VERTEX
  8
0
  6
CONTINUOUS
 62
3
 10
-132.136788296193340
 20
166.693011517530810
  0
VERTEX
  8
0
  6
CONTINUOUS
 62
3
 10
-131.869331281101210
 20
166.017068793318710
  0
VERTEX
  8
0
  6
CONTINUOUS
 62
3
 10
-131.435004656120130
 20
165.394116410913310
  0
VERTEX
  8
0
  6
CONTINUOUS
 62
3
 10
-130.850499349874920
 20
164.848094081014720
  0
VERTEX
  8
0
  6
CONTINUOUS
 62
3
 10
-130.138277573490290
 20
164.399985135548090
  0
VERTEX
  8
0
  6
CONTINUOUS
 62
3
 10
-129.325709610414090
 20
164.067010149985350
  0
VERTEX
  8
0
  6
CONTINUOUS
 62
3
 10
-128.444021991773980
 20
163.861965166287090
  0
VERTEX
  8
0
  6
CONTINUOUS
 62
3
 10
-127.527097478298170
 20
163.792729948186320
  0
VERTEX
  8
0
  6
CONTINUOUS
 62
3
 10
-126.610172964822360
 20
163.861965166287090
  0
VERTEX
  8
0
  6
CONTINUOUS
 62
3
 10
-125.728485346182250
 20
164.067010149985350
  0
VERTEX
  8
0
  6
CONTINUOUS
 62
3
 10
-124.915917383106040
 20
164.399985135548090
  0
VERTEX
  8
0
  6
CONTINUOUS
 62
3
 10
-124.203695606721410
 20
164.848094081014720
  0
VERTEX
  8
0
  6
CONTINUOUS
 62
3
 10
-123.619190300476220
 20
165.394116410913310
  0
VERTEX
  8
0
  6
CONTINUOUS
 62
3
 10
-123.184863675495130
 20
166.017068793318710
  0
VERTEX
  8
0
  6
CONTINUOUS
 62
3
 10
-122.917406660403000
 20
166.693011517530810
  0
SEQEND
  8
0
  6
CONTINUOUS
 62
3
  0
LINE
  8
0
  6
CONTINUOUS
 62
3
 10
-127.527097478298170
 20
61.732328351233264
 11
-129.527097478298170
 21
63.384969990356694
  0
LINE
  8
0
  6
CONTINUOUS
 62
3
 10
-125.527097478298170
 20
60.556542865610936
 11
-127.527097478298170
 21
61.732328351233264
  0
LINE
  8
0
  6
CONTINUOUS
 62
3
 10
-127.527097478298170
 20
61.732328351233264
 11
-125.527097478298170
 21
63.384969990356694
  0
LINE
  8
0
  6
CONTINUOUS
 62
3
 10
-129.527097478298170
 20
60.556542865610936
 11
-127.527097478298170
 21
61.732328351233264
  0
POLYLINE
  8
0
  6
CONTINUOUS
 62
3
 66
1
 70
1
  0
VERTEX
  8
0
  6
CONTINUOUS
 62
3
 10
-122.827097478298180
 20
63.548918419611255
  0
VERTEX
  8
0
  6
CONTINUOUS
 62
3
 10
-122.917406660403000
 20
64.251875385811616
  0
VERTEX
  8
0
  6
CONTINUOUS
 62
3
 10
-123.184863675495130
 20
64.927818110023708
  0
VERTEX
  8
0
  6
CONTINUOUS
 62
3
 10
-123.619190300476220
 20
65.550770492429109
  0
VERTEX
  8
0
  6
CONTINUOUS
 62
3
 10
-124.203695606721410
 20
66.096792822327686
  0
VERTEX
  8
0
  6
CONTINUOUS
 62
3
 10
-124.915917383106040
 20
66.544901767794300
  0
VERTEX
  8
0
  6
CONTINUOUS
 62
3
 10
-125.728485346182250
 20
66.877876753357071
  0
VERTEX
  8
0
  6
CONTINUOUS
 62
3
 10
-126.610172964822360
 20
67.082921737055315
  0
VERTEX
  8
0
  6
CONTINUOUS
 62
3
 10
-127.527097478298170
 20
67.152156955156087
  0
VERTEX
  8
0
  6
CONTINUOUS
 62
3
 10
-128.444021991773980
 20
67.082921737055315
  0
VERTEX
  8
0
  6
CONTINUOUS
 62
3
 10
-129.325709610414090
 20
66.877876753357071
  0
VERTEX
  8
0
  6
CONTINUOUS
 62
3
 10
-130.138277573490290
 20
66.544901767794300
  0
VERTEX
  8
0
  6
CONTINUOUS
 62
3
 10
-130.850499349874950
 20
66.096792822327686
  0
VERTEX
  8
0
  6
CONTINUOUS
 62
3
 10
-131.435004656120130
 20
65.550770492429109
  0
VERTEX
  8
0
  6
CONTINUOUS
 62
3
 10
-131.869331281101210
 20
64.927818110023708
  0
VERTEX
  8
0
  6
CONTINUOUS
 62
3
 10
-132.136788296193340
 20
64.251875385811616
  0
VERTEX
  8
0
  6
CONTINUOUS
 62
3
 10
-132.227097478298160
 20
63.548918419611255
  0
VERTEX
  8
0
  6
CONTINUOUS
 62
3
 10
-132.136788296193340
 20
62.845961453410894
  0
VERTEX
  8
0
  6
CONTINUOUS
 62
3
 10
-131.869331281101210
 20
62.170018729198802
  0
VERTEX
  8
0
  6
CONTINUOUS
 62
3
 10
-131.435004656120130
 20
61.547066346793400
  0
VERTEX
  8
0
  6
CONTINUOUS
 62
3
 10
-130.850499349874920
 20
61.001044016894824
  0
VERTEX
  8
0
  6
CONTINUOUS
 62
3
 10
-130.138277573490290
 20
60.552935071428202
  0
VERTEX
  8
0
  6
CONTINUOUS
 62
3
 10
-129.325709610414090
 20
60.219960085865445
  0
VERTEX
  8
0
  6
CONTINUOUS
 62
3
 10
-128.444021991773980
 20
60.014915102167194
  0
VERTEX
  8
0
  6
CONTINUOUS
 62
3
 10
-127.527097478298170
 20
59.945679884066422
  0
VERTEX
  8
0
  6
CONTINUOUS
 62
3
 10
-126.610172964822360
 20
60.014915102167194
  0
VERTEX
  8
0
  6
CONTINUOUS
 62
3
 10
-125.728485346182250
 20
60.219960085865445
  0
VERTEX
  8
0
  6
CONTINUOUS
 62
3
 10
-124.915917383106040
 20
60.552935071428202
  0
VERTEX
  8
0
  6
CONTINUOUS
 62
3
 10
-124.203695606721410
 20
61.001044016894824
  0
VERTEX
  8
0
  6
CONTINUOUS
 62
3
 10
-123.619190300476220
 20
61.547066346793400
  0
VERTEX
  8
0
  6
CONTINUOUS
 62
3
 10
-123.184863675495130
 20
62.170018729198802
  0
VERTEX
  8
0
  6
CONTINUOUS
 62
3
 10
-122.917406660403000
 20
62.845961453410894
  0
SEQEND
  8
0
  6
CONTINUOUS
 62
3
  0
LINE
  8
0
  6
DASHDOT
 62
4
 10
199.759057124835640
 20
115.472443451671090
 11
-190.223384835780510
 21
115.472443451671090
  0
LINE
  8
0
  6
DASHDOT
 62
4
 10
-121.112786584882420
 20
37.472443451671381
 11
-100.626198351173110
 21
37.472443451671381
  0
LINE
  8
0
  6
DASHDOT
 62
4
 10
-112.027097478298850
 20
28.528286193995257
 11
-112.027097478298850
 21
50.076775174527313
  0
LINE
  8
0
  6
DASHDOT
 62
4
 10
-62.027097478298856
 20
28.528286193995257
 11
-62.027097478298856
 21
50.507788326530601
  0
LINE
  8
0
  6
DASHDOT
 62
4
 10
-73.310626894025518
 20
37.472443451671381
 11
-51.543649485497212
 21
37.472443451671381
  0
LINE
  8
0
  6
DASHED
 62
4
 10
-55.027097478298856
 20
37.472443451671381
 11
-55.027097478298856
 21
51.972443451671381
  0
LINE
  8
0
  6
DASHED
 62
4
 10
-69.027097478298856
 20
37.472443451671381
 11
-69.027097478298856
 21
51.972443451671381
  0
ARC
  8
0
  6
DASHED
 62
4
 10
-62.027097478298856
 20
37.472443451671381
 40
7.000000000000000
 50
180.000000000000000
 51
0.000000000000000
  0
CIRCLE
  8
0
  6
DASHED
 62
4
 10
-62.027097478298856
 20
37.472443451671381
 40
6.000000000000000
  0
ARC
  8
0
  6
DASHED
 62
4
 10
-112.027097478298850
 20
37.472443451671381
 40
7.000000000000000
 50
180.000000000000000
 51
0.000000000000000
  0
LINE
  8
0
  6
DASHED
 62
4
 10
-119.027097478298850
 20
37.472443451671381
 11
-119.027097478298850
 21
51.972443451671381
  0
LINE
  8
0
  6
DASHED
 62
4
 10
-105.027097478298850
 20
37.472443451671381
 11
-105.027097478298850
 21
51.972443451671381
  0
ARC
  8
0
  6
CONTINUOUS
 62
3
 10
339.293851018351920
 20
-116.497488428530230
 40
43.283778524804312
 50
26.056903281673080
 51
60.989001274772832
  0
INSERT
  8
0
  2
SYM2
 10
406.238673224695280
 20
-172.815572113685900
 41
-1.000000000000000
 42
1.000000000000000
 43
1.000000000000000
 50
2.862405226113666
  0
LINE
  8
0
  6
CONTINUOUS
 62
3
 10
399.796720638932810
 20
-76.016495429645261
 11
404.890357567209780
 21
-177.889233995186030
  0
LINE
  8
0
  6
CONTINUOUS
 62
3
 10
404.890357567209780
 20
-177.889233995186030
 11
406.488361309414360
 21
-177.809333808075050
  0
LINE
  8
0
  6
CONTINUOUS
 62
3
 10
401.394724381137390
 20
-75.936595242535077
 11
406.488361309414360
 21
-177.809333808075050
  0
ARC
  8
0
  6
CONTINUOUS
 62
3
 10
402.512353482987920
 20
-78.684210838779904
 40
1.299999237060645
 50
19.463936333587132
 51
92.862405909348169
  0
ARC
  8
0
  6
CONTINUOUS
 62
3
 10
402.732079073739900
 20
-83.078722653817636
 40
1.299999237060550
 50
272.862387240019760
 51
346.260856815788600
  0
LINE
  8
0
  6
CONTINUOUS
 62
3
 10
401.469630806552690
 20
-77.434723750851731
 11
402.447434619060230
 21
-77.385833560226388
  0
LINE
  8
0
  6
CONTINUOUS
 62
3
 10
401.819194125159810
 20
-84.425990122996609
 11
402.796997937667580
 21
-84.377099932371266
  0
LINE
  8
0
  6
CONTINUOUS
 62
3
 10
401.469630806552690
 20
-77.434723750851731
 11
401.819194125159810
 21
-84.425990122996609
  0
LINE
  8
0
  6
CONTINUOUS
 62
3
 10
401.469630806552690
 20
-77.434723750851731
 11
401.819194125159810
 21
-84.425990122996609
  0
POINT
  8
0
  6
CONTINUOUS
 62
3
 10
401.644412465856250
 20
-80.930356936924113
  0
ARC
  8
0
  6
CONTINUOUS
 62
3
 10
395.252397878031840
 20
-81.249957666315368
 40
8.999999999999948
 50
346.260856815786500
 51
19.463936333592187
  0
LINE
  8
0
  6
CONTINUOUS
 62
3
 10
401.394724381137390
 20
-75.936595242535077
 11
399.796720638932810
 21
-76.016495429645261
  0
ARC
  8
0
  6
CONTINUOUS
 62
3
 10
402.093851018351870
 20
-105.939115502425460
 40
18.799999999999837
 50
5.724810452223617
 51
35.808626813495749
  0
ARC
  8
0
  6
CONTINUOUS
 62
3
 10
402.093851018351870
 20
-105.939115502425460
 40
18.799999999999933
 50
35.808626813495749
 51
85.126025186157264
  0
LINE
  8
0
  6
CONTINUOUS
 62
3
 10
424.790110369972810
 20
-143.864302534844460
 11
420.800085432316790
 21
-104.063803781727180
  0
ARC
  8
0
  6
CONTINUOUS
 62
3
 10
408.020316849684150
 20
-168.398475824468960
 40
1.999999999999995
 50
99.916536608232732
 51
182.862405226112400
  0
LINE
  8
0
  6
CONTINUOUS
 62
3
 10
400.595722510035100
 20
-75.976545336090226
 11
405.689359438312070
 21
-177.849283901630320
  0
ARC
  8
0
  6
CONTINUOUS
 62
3
 10
402.427303751968340
 20
-168.678126479354770
 40
1.999999999999927
 50
2.862405226112724
 51
85.808273843998350
  0
ARC
  8
0
  6
CONTINUOUS
 62
3
 10
403.861109481980750
 20
-85.214328470401938
 40
1.999999999999927
 50
182.862405226112710
 51
265.126025186159040
  0
ARC
  8
0
  6
CONTINUOUS
 62
3
 10
398.268096384264940
 20
-85.493979125287751
 40
1.999999999999985
 50
285.240860700154660
 51
2.862405226112724
  0
ARC
  8
0
  6
CONTINUOUS
 62
3
 10
404.093851018351870
 20
-145.939115502425470
 40
20.799999999999926
 50
334.359929784105190
 51
5.724810452223396
  0
ARC
  8
0
  6
CONTINUOUS
 62
3
 10
404.093851018351870
 20
-145.939115502425470
 40
20.800000000000040
 50
279.916536608230560
 51
334.359929784105190
  0
ARC
  8
0
  6
DASHED
 62
3
 10
404.093851018351870
 20
-145.939115502425470
 40
20.799999999999926
 50
334.359929784105190
 51
5.724810452223396
  0
ARC
  8
0
  6
CONTINUOUS
 62
3
 10
404.093851018351870
 20
-145.939115502425470
 40
20.799999999999983
 50
255.237809680492460
 51
265.808273843992540
  0
LINE
  8
0
  6
DASHDOT
 62
4
 10
80.397204123708889
 20
-131.896615502427270
 11
-192.775373943184150
 21
-131.896615502427270
  0
LINE
  8
0
  6
CONTINUOUS
 62
3
 10
-123.527097478297710
 20
-102.896615502427260
 11
-123.527097478297940
 21
-131.896615502427270
  0
LINE
  8
0
  6
CONTINUOUS
 62
3
 10
-50.527097478297833
 20
-102.896615502427260
 11
-50.527097478297833
 21
-131.896615502427270
  0
LINE
  8
0
  6
CONTINUOUS
 62
4
 10
-49.686500693391736
 20
-101.614181175857990
 11
32.472902521702053
 21
-101.614181175857990
  0
LINE
  8
0
  6
CONTINUOUS
 62
4
 10
-126.527097478297710
 20
-101.614181175857990
 11
-124.367694263203930
 21
-101.614181175857990
  0
LINE
  8
0
  6
CONTINUOUS
 62
4
 10
-49.527097478297833
 20
-107.066562045296900
 11
32.472902521702053
 21
-107.066562045296900
  0
LINE
  8
0
  6
CONTINUOUS
 62
4
 10
-126.527097478297710
 20
-107.066562045296900
 11
-124.527097478297710
 21
-107.066562045296900
  0
LINE
  8
0
  6
CONTINUOUS
 62
4
 10
-49.527097478297833
 20
-105.704681709947630
 11
32.472902521702053
 21
-105.704681709947630
  0
LINE
  8
0
  6
CONTINUOUS
 62
4
 10
-126.527097478297710
 20
-105.704681709947630
 11
-124.527097478297710
 21
-105.704681709947630
  0
LINE
  8
0
  6
CONTINUOUS
 62
4
 10
-49.527097478297833
 20
-111.896615502427260
 11
32.472902521702053
 21
-111.896615502427260
  0
LINE
  8
0
  6
CONTINUOUS
 62
4
 10
-126.527097478297710
 20
-111.896615502427260
 11
-124.527097478297710
 21
-111.896615502427260
  0
LINE
  8
0
  6
CONTINUOUS
 62
4
 10
-116.527097478297830
 20
-74.896615502427267
 11
32.472902521702053
 21
-74.896615502427267
  0
LINE
  8
0
  6
CONTINUOUS
 62
4
 10
-116.527097478297830
 20
-74.396615502427267
 11
32.472902521702053
 21
-74.396615502427267
  0
LINE
  8
0
  6
CONTINUOUS
 62
4
 10
-116.527097478297830
 20
-75.896615502427267
 11
32.472902521702053
 21
-75.896615502427267
  0
LINE
  8
0
  6
CONTINUOUS
 62
4
 10
-116.527097478297830
 20
-76.896615502427267
 11
32.472902521702053
 21
-76.896615502427267
  0
LINE
  8
0
  6
CONTINUOUS
 62
4
 10
-116.527097478297830
 20
-81.581081315651772
 11
32.472902521702053
 21
-81.581081315651772
  0
LINE
  8
0
  6
CONTINUOUS
 62
4
 10
-116.527097478297830
 20
-86.530828783957531
 11
32.472902521702053
 21
-86.530828783957531
  0
LINE
  8
0
  6
CONTINUOUS
 62
4
 10
-125.430090036677930
 20
-94.577430446691324
 11
32.472902521702053
 21
-94.577430446691324
  0
LINE
  8
0
  6
CONTINUOUS
 62
4
 10
-126.440761267294640
 20
-96.182078362253378
 11
32.472902521702053
 21
-96.182078362253378
  0
LINE
  8
0
  6
CONTINUOUS
 62
4
 10
-126.527097478297710
 20
-100.145823786052910
 11
32.472902521702053
 21
-100.145823786052910
  0
LINE
  8
0
  6
CONTINUOUS
 62
3
 10
-51.527097478297833
 20
-101.896615502427260
 11
-122.527097478297710
 21
-101.896615502427260
  0
ARC
  8
0
  6
CONTINUOUS
 62
3
 10
-122.527097478297710
 20
-102.896615502427260
 40
1.000000000000000
 50
90.000000000000000
 51
180.000000000000000
  0
ARC
  8
0
  6
CONTINUOUS
 62
3
 10
-51.527097478297833
 20
-102.896615502427260
 40
1.000000000000000
 50
0.000000000000000
 51
90.000000000000000
  0
ARC
  8
0
  6
CONTINUOUS
 62
3
 10
-51.527097478297833
 20
-102.396615502427260
 40
2.000000000000000
 50
0.000000000000000
 51
90.000000000000000
  0
LINE
  8
0
  6
CONTINUOUS
 62
3
 10
-49.527097478297833
 20
-131.896615502427270
 11
-49.527097478297833
 21
-102.396615502427260
  0
LINE
  8
0
  6
CONTINUOUS
 62
3
 10
-124.527097478297710
 20
-131.896615502427270
 11
-124.527097478297710
 21
-102.396615502427260
  0
ARC
  8
0
  6
CONTINUOUS
 62
3
 10
-122.527097478297710
 20
-102.396615502427260
 40
2.000000000000000
 50
90.000000000000000
 51
180.000000000000000
  0
LINE
  8
0
  6
CONTINUOUS
 62
3
 10
-51.527097478297833
 20
-100.396615502427260
 11
-122.527097478297710
 21
-100.396615502427260
  0
LINE
  8
0
  6
CONTINUOUS
 62
3
 10
-116.527097478297830
 20
-90.896615502427267
 11
-116.527097478297830
 21
-71.896615502427267
  0
ARC
  8
0
  6
CONTINUOUS
 62
3
 10
-123.527097478297710
 20
-96.896615502427267
 40
3.000000000000000
 50
90.000000000000000
 51
180.000000000000000
  0
LINE
  8
0
  6
CONTINUOUS
 62
3
 10
-119.527097478297830
 20
-93.896615502427267
 11
-123.527097478297710
 21
-93.896615502427267
  0
ARC
  8
0
  6
CONTINUOUS
 62
3
 10
-119.527097478297830
 20
-90.896615502427267
 40
3.000000000000000
 50
270.000000000000000
 51
0.000000000000000
  0
LINE
  8
0
  6
CONTINUOUS
 62
3
 10
-126.527097478297710
 20
-96.896615502427267
 11
-126.527097478297710
 21
-131.896615502427270
  0
LINE
  8
0
  6
CONTINUOUS
 62
3
 10
32.472902521702053
 20
-73.396615502427267
 11
-116.527097478297830
 21
-73.396615502427267
  0
LINE
  8
0
  6
CONTINUOUS
 62
3
 10
-116.527097478297830
 20
-71.896615502427267
 11
-145.221121700718190
 21
-71.896615502427267
  0
LINE
  8
0
  6
CONTINUOUS
 62
3
 10
-167.527097478247700
 20
-131.896615502427270
 11
-167.527097478247700
 21
-84.453410445181817
  0
ARC
  8
0
  6
CONTINUOUS
 62
3
 10
-145.221121700718190
 20
-91.896615502427267
 40
20.000000000000000
 50
90.000000000000000
 51
125.000000000000240
  0
LINE
  8
0
  6
CONTINUOUS
 62
3
 10
-156.692650427739180
 20
-75.513574616647475
 11
-166.418396212760170
 21
-82.323615130030703
  0
ARC
  8
0
  6
CONTINUOUS
 62
3
 10
-164.927097478247560
 20
-84.453410445181817
 40
2.599999999999721
 50
125.000000000001370
 51
180.000000000000000
  0
LINE
  8
0
  6
CONTINUOUS
 62
3
 10
-123.527097478297710
 20
-160.896615502427270
 11
-123.527097478297940
 21
-131.896615502427270
  0
LINE
  8
0
  6
CONTINUOUS
 62
3
 10
-50.527097478297833
 20
-160.896615502427270
 11
-50.527097478297833
 21
-131.896615502427270
  0
LINE
  8
0
  6
CONTINUOUS
 62
4
 10
-49.686500693391736
 20
-162.179049828996540
 11
32.472902521702053
 21
-162.179049828996540
  0
LINE
  8
0
  6
CONTINUOUS
 62
4
 10
-126.527097478297710
 20
-162.179049828996540
 11
-124.367694263203930
 21
-162.179049828996540
  0
LINE
  8
0
  6
CONTINUOUS
 62
4
 10
-49.527097478297833
 20
-156.726668959557630
 11
32.472902521702053
 21
-156.726668959557630
  0
LINE
  8
0
  6
CONTINUOUS
 62
4
 10
-126.527097478297710
 20
-156.726668959557630
 11
-124.527097478297710
 21
-156.726668959557630
  0
LINE
  8
0
  6
CONTINUOUS
 62
4
 10
-49.527097478297833
 20
-158.088549294906900
 11
32.472902521702053
 21
-158.088549294906900
  0
LINE
  8
0
  6
CONTINUOUS
 62
4
 10
-126.527097478297710
 20
-158.088549294906900
 11
-124.527097478297710
 21
-158.088549294906900
  0
LINE
  8
0
  6
CONTINUOUS
 62
4
 10
-49.527097478297833
 20
-151.896615502427270
 11
32.472902521702053
 21
-151.896615502427270
  0
LINE
  8
0
  6
CONTINUOUS
 62
4
 10
-126.527097478297710
 20
-151.896615502427270
 11
-124.527097478297710
 21
-151.896615502427270
  0
LINE
  8
0
  6
CONTINUOUS
 62
4
 10
-116.527097478297830
 20
-188.896615502427270
 11
32.472902521702053
 21
-188.896615502427270
  0
LINE
  8
0
  6
CONTINUOUS
 62
4
 10
-116.527097478297830
 20
-189.396615502427270
 11
32.472902521702053
 21
-189.396615502427270
  0
LINE
  8
0
  6
CONTINUOUS
 62
4
 10
-116.527097478297830
 20
-187.896615502427270
 11
32.472902521702053
 21
-187.896615502427270
  0
LINE
  8
0
  6
CONTINUOUS
 62
4
 10
-116.527097478297830
 20
-186.896615502427270
 11
32.472902521702053
 21
-186.896615502427270
  0
LINE
  8
0
  6
CONTINUOUS
 62
4
 10
-116.527097478297830
 20
-182.212149689202760
 11
32.472902521702053
 21
-182.212149689202760
  0
LINE
  8
0
  6
CONTINUOUS
 62
4
 10
-116.527097478297830
 20
-177.262402220897000
 11
32.472902521702053
 21
-177.262402220897000
  0
LINE
  8
0
  6
CONTINUOUS
 62
4
 10
-125.430090036677930
 20
-169.215800558163210
 11
32.472902521702053
 21
-169.215800558163210
  0
LINE
  8
0
  6
CONTINUOUS
 62
4
 10
-126.440761267294640
 20
-167.611152642601160
 11
32.472902521702053
 21
-167.611152642601160
  0
LINE
  8
0
  6
CONTINUOUS
 62
4
 10
-126.527097478297710
 20
-163.647407218801620
 11
32.472902521702053
 21
-163.647407218801620
  0
LINE
  8
0
  6
CONTINUOUS
 62
3
 10
-51.527097478297833
 20
-161.896615502427270
 11
-122.527097478297710
 21
-161.896615502427270
  0
ARC
  8
0
  6
CONTINUOUS
 62
3
 10
-122.527097478297710
 20
-160.896615502427270
 40
1.000000000000000
 50
180.000000000000000
 51
270.000000000000000
  0
ARC
  8
0
  6
CONTINUOUS
 62
3
 10
-51.527097478297833
 20
-160.896615502427270
 40
1.000000000000000
 50
270.000000000000000
 51
0.000000000000000
  0
ARC
  8
0
  6
CONTINUOUS
 62
3
 10
-51.527097478297833
 20
-161.396615502427270
 40
2.000000000000000
 50
270.000000000000000
 51
0.000000000000000
  0
LINE
  8
0
  6
CONTINUOUS
 62
3
 10
-49.527097478297833
 20
-131.896615502427270
 11
-49.527097478297833
 21
-161.396615502427270
  0
LINE
  8
0
  6
CONTINUOUS
 62
3
 10
-124.527097478297710
 20
-131.896615502427270
 11
-124.527097478297710
 21
-161.396615502427270
  0
ARC
  8
0
  6
CONTINUOUS
 62
3
 10
-122.527097478297710
 20
-161.396615502427270
 40
2.000000000000000
 50
180.000000000000000
 51
270.000000000000000
  0
LINE
  8
0
  6
CONTINUOUS
 62
3
 10
-51.527097478297833
 20
-163.396615502427270
 11
-122.527097478297710
 21
-163.396615502427270
  0
LINE
  8
0
  6
CONTINUOUS
 62
3
 10
-116.527097478297830
 20
-172.896615502427270
 11
-116.527097478297830
 21
-191.896615502427270
  0
ARC
  8
0
  6
CONTINUOUS
 62
3
 10
-123.527097478297710
 20
-166.896615502427270
 40
3.000000000000000
 50
180.000000000000000
 51
270.000000000000000
  0
LINE
  8
0
  6
CONTINUOUS
 62
3
 10
-119.527097478297830
 20
-169.896615502427270
 11
-123.527097478297710
 21
-169.896615502427270
  0
ARC
  8
0
  6
CONTINUOUS
 62
3
 10
-119.527097478297830
 20
-172.896615502427270
 40
3.000000000000000
 50
0.000000000000000
 51
90.000000000000000
  0
LINE
  8
0
  6
CONTINUOUS
 62
3
 10
-126.527097478297710
 20
-166.896615502427270
 11
-126.527097478297710
 21
-131.896615502427270
  0
LINE
  8
0
  6
CONTINUOUS
 62
3
 10
32.472902521702053
 20
-190.396615502427270
 11
-116.527097478297830
 21
-190.396615502427270
  0
LINE
  8
0
  6
CONTINUOUS
 62
3
 10
-116.527097478297830
 20
-191.896615502427270
 11
-145.221121700718190
 21
-191.896615502427270
  0
LINE
  8
0
  6
CONTINUOUS
 62
3
 10
-167.527097478247700
 20
-131.896615502427270
 11
-167.527097478247700
 21
-179.339820559672720
  0
ARC
  8
0
  6
CONTINUOUS
 62
3
 10
-145.221121700718190
 20
-171.896615502427270
 40
20.000000000000007
 50
234.999999999999740
 51
270.000000000000000
  0
LINE
  8
0
  6
CONTINUOUS
 62
3
 10
-156.692650427739180
 20
-188.279656388207060
 11
-166.418396212760170
 21
-181.469615874823830
  0
ARC
  8
0
  6
CONTINUOUS
 62
3
 10
-164.927097478247560
 20
-179.339820559672720
 40
2.600000000000136
 50
180.000000000000000
 51
234.999999999998610
  0
POLYLINE
  8
0
  6
CONTINUOUS
 62
3
 66
1
 70
1
  0
VERTEX
  8
0
  6
CONTINUOUS
 62
3
 10
-122.827097478297270
 20
-79.973090470367197
  0
VERTEX
  8
0
  6
CONTINUOUS
 62
3
 10
-122.917406660402090
 20
-79.270133504166836
  0
VERTEX
  8
0
  6
CONTINUOUS
 62
3
 10
-123.184863675494220
 20
-78.594190779954744
  0
VERTEX
  8
0
  6
CONTINUOUS
 62
3
 10
-123.619190300475310
 20
-77.971238397549342
  0
VERTEX
  8
0
  6
CONTINUOUS
 62
3
 10
-124.203695606720500
 20
-77.425216067650766
  0
VERTEX
  8
0
  6
CONTINUOUS
 62
3
 10
-124.915917383105130
 20
-76.977107122184151
  0
VERTEX
  8
0
  6
CONTINUOUS
 62
3
 10
-125.728485346181340
 20
-76.644132136621380
  0
VERTEX
  8
0
  6
CONTINUOUS
 62
3
 10
-126.610172964821450
 20
-76.439087152923136
  0
VERTEX
  8
0
  6
CONTINUOUS
 62
3
 10
-127.527097478297260
 20
-76.369851934822364
  0
VERTEX
  8
0
  6
CONTINUOUS
 62
3
 10
-128.444021991773070
 20
-76.439087152923136
  0
VERTEX
  8
0
  6
CONTINUOUS
 62
3
 10
-129.325709610413180
 20
-76.644132136621380
  0
VERTEX
  8
0
  6
CONTINUOUS
 62
3
 10
-130.138277573489380
 20
-76.977107122184151
  0
VERTEX
  8
0
  6
CONTINUOUS
 62
3
 10
-130.850499349874040
 20
-77.425216067650766
  0
VERTEX
  8
0
  6
CONTINUOUS
 62
3
 10
-131.435004656119220
 20
-77.971238397549342
  0
VERTEX
  8
0
  6
CONTINUOUS
 62
3
 10
-131.869331281100300
 20
-78.594190779954744
  0
VERTEX
  8
0
  6
CONTINUOUS
 62
3
 10
-132.136788296192440
 20
-79.270133504166836
  0
VERTEX
  8
0
  6
CONTINUOUS
 62
3
 10
-132.227097478297250
 20
-79.973090470367197
  0
VERTEX
  8
0
  6
CONTINUOUS
 62
3
 10
-132.136788296192440
 20
-80.676047436567558
  0
VERTEX
  8
0
  6
CONTINUOUS
 62
3
 10
-131.869331281100300
 20
-81.351990160779650
  0
VERTEX
  8
0
  6
CONTINUOUS
 62
3
 10
-131.435004656119220
 20
-81.974942543185051
  0
VERTEX
  8
0
  6
CONTINUOUS
 62
3
 10
-130.850499349874010
 20
-82.520964873083628
  0
VERTEX
  8
0
  6
CONTINUOUS
 62
3
 10
-130.138277573489380
 20
-82.969073818550243
  0
VERTEX
  8
0
  6
CONTINUOUS
 62
3
 10
-129.325709610413180
 20
-83.302048804113014
  0
VERTEX
  8
0
  6
CONTINUOUS
 62
3
 10
-128.444021991773070
 20
-83.507093787811257
  0
VERTEX
  8
0
  6
CONTINUOUS
 62
3
 10
-127.527097478297260
 20
-83.576329005912029
  0
VERTEX
  8
0
  6
CONTINUOUS
 62
3
 10
-126.610172964821450
 20
-83.507093787811257
  0
VERTEX
  8
0
  6
CONTINUOUS
 62
3
 10
-125.728485346181340
 20
-83.302048804113014
  0
VERTEX
  8
0
  6
CONTINUOUS
 62
3
 10
-124.915917383105130
 20
-82.969073818550243
  0
VERTEX
  8
0
  6
CONTINUOUS
 62
3
 10
-124.203695606720500
 20
-82.520964873083628
  0
VERTEX
  8
0
  6
CONTINUOUS
 62
3
 10
-123.619190300475310
 20
-81.974942543185051
  0
VERTEX
  8
0
  6
CONTINUOUS
 62
3
 10
-123.184863675494220
 20
-81.351990160779650
  0
VERTEX
  8
0
  6
CONTINUOUS
 62
3
 10
-122.917406660402090
 20
-80.676047436567558
  0
SEQEND
  8
0
  6
CONTINUOUS
 62
3
  0
LINE
  8
0
  6
CONTINUOUS
 62
3
 10
-129.527097478297260
 20
-76.980714916366878
 11
-127.527097478297260
 21
-78.156500401989661
  0
LINE
  8
0
  6
CONTINUOUS
 62
3
 10
-127.527097478297260
 20
-78.156500401989661
 11
-125.527097478297260
 21
-79.809142041113091
  0
LINE
  8
0
  6
CONTINUOUS
 62
3
 10
-125.527097478297260
 20
-76.980714916366878
 11
-127.527097478297260
 21
-78.156500401989661
  0
LINE
  8
0
  6
CONTINUOUS
 62
3
 10
-127.527097478297260
 20
-78.156500401989661
 11
-129.527097478297260
 21
-79.809142041113091
  0
POLYLINE
  8
0
  6
CONTINUOUS
 62
3
 66
1
 70
1
  0
VERTEX
  8
0
  6
CONTINUOUS
 62
3
 10
-122.827097478297270
 20
-183.820140534487110
  0
VERTEX
  8
0
  6
CONTINUOUS
 62
3
 10
-122.917406660402090
 20
-183.117183568286750
  0
VERTEX
  8
0
  6
CONTINUOUS
 62
3
 10
-123.184863675494220
 20
-182.441240844074660
  0
VERTEX
  8
0
  6
CONTINUOUS
 62
3
 10
-123.619190300475310
 20
-181.818288461669250
  0
VERTEX
  8
0
  6
CONTINUOUS
 62
3
 10
-124.203695606720500
 20
-181.272266131770660
  0
VERTEX
  8
0
  6
CONTINUOUS
 62
3
 10
-124.915917383105130
 20
-180.824157186304030
  0
VERTEX
  8
0
  6
CONTINUOUS
 62
3
 10
-125.728485346181340
 20
-180.491182200741290
  0
VERTEX
  8
0
  6
CONTINUOUS
 62
3
 10
-126.610172964821450
 20
-180.286137217043030
  0
VERTEX
  8
0
  6
CONTINUOUS
 62
3
 10
-127.527097478297260
 20
-180.216901998942260
  0
VERTEX
  8
0
  6
CONTINUOUS
 62
3
 10
-128.444021991773070
 20
-180.286137217043030
  0
VERTEX
  8
0
  6
CONTINUOUS
 62
3
 10
-129.325709610413180
 20
-180.491182200741290
  0
VERTEX
  8
0
  6
CONTINUOUS
 62
3
 10
-130.138277573489380
 20
-180.824157186304030
  0
VERTEX
  8
0
  6
CONTINUOUS
 62
3
 10
-130.850499349874040
 20
-181.272266131770660
  0
VERTEX
  8
0
  6
CONTINUOUS
 62
3
 10
-131.435004656119220
 20
-181.818288461669250
  0
VERTEX
  8
0
  6
CONTINUOUS
 62
3
 10
-131.869331281100300
 20
-182.441240844074660
  0
VERTEX
  8
0
  6
CONTINUOUS
 62
3
 10
-132.136788296192440
 20
-183.117183568286750
  0
VERTEX
  8
0
  6
CONTINUOUS
 62
3
 10
-132.227097478297250
 20
-183.820140534487110
  0
VERTEX
  8
0
  6
CONTINUOUS
 62
3
 10
-132.136788296192440
 20
-184.523097500687470
  0
VERTEX
  8
0
  6
CONTINUOUS
 62
3
 10
-131.869331281100300
 20
-185.199040224899560
  0
VERTEX
  8
0
  6
CONTINUOUS
 62
3
 10
-131.435004656119220
 20
-185.821992607304960
  0
VERTEX
  8
0
  6
CONTINUOUS
 62
3
 10
-130.850499349874010
 20
-186.368014937203550
  0
VERTEX
  8
0
  6
CONTINUOUS
 62
3
 10
-130.138277573489380
 20
-186.816123882670180
  0
VERTEX
  8
0
  6
CONTINUOUS
 62
3
 10
-129.325709610413180
 20
-187.149098868232930
  0
VERTEX
  8
0
  6
CONTINUOUS
 62
3
 10
-128.444021991773070
 20
-187.354143851931180
  0
VERTEX
  8
0
  6
CONTINUOUS
 62
3
 10
-127.527097478297260
 20
-187.423379070031960
  0
VERTEX
  8
0
  6
CONTINUOUS
 62
3
 10
-126.610172964821450
 20
-187.354143851931180
  0
VERTEX
  8
0
  6
CONTINUOUS
 62
3
 10
-125.728485346181340
 20
-187.149098868232930
  0
VERTEX
  8
0
  6
CONTINUOUS
 62
3
 10
-124.915917383105130
 20
-186.816123882670180
  0
VERTEX
  8
0
  6
CONTINUOUS
 62
3
 10
-124.203695606720500
 20
-186.368014937203550
  0
VERTEX
  8
0
  6
CONTINUOUS
 62
3
 10
-123.619190300475310
 20
-185.821992607304960
  0
VERTEX
  8
0
  6
CONTINUOUS
 62
3
 10
-123.184863675494220
 20
-185.199040224899560
  0
VERTEX
  8
0
  6
CONTINUOUS
 62
3
 10
-122.917406660402090
 20
-184.523097500687470
  0
SEQEND
  8
0
  6
CONTINUOUS
 62
3
  0
LINE
  8
0
  6
CONTINUOUS
 62
3
 10
-129.527097478297260
 20
-186.812516088487430
 11
-127.527097478297260
 21
-185.636730602865100
  0
LINE
  8
0
  6
CONTINUOUS
 62
3
 10
-127.527097478297260
 20
-185.636730602865100
 11
-125.527097478297260
 21
-183.984088963741670
  0
LINE
  8
0
  6
CONTINUOUS
 62
3
 10
-125.527097478297260
 20
-186.812516088487430
 11
-127.527097478297260
 21
-185.636730602865100
  0
LINE
  8
0
  6
CONTINUOUS
 62
3
 10
-127.527097478297260
 20
-185.636730602865100
 11
-129.527097478297260
 21
-183.984088963741670
  0
ARC
  8
0
  6
CONTINUOUS
 62
3
 10
339.293851018351920
 20
-116.497488428530230
 40
43.283778524804276
 50
58.744440511283081
 51
60.989001274772242
  0
LINE
  8
0
  6
CONTINUOUS
 62
4
 10
32.472902521702963
 20
-189.396615502427240
 11
53.972902521701144
 21
-189.396615502427240
  0
LINE
  8
0
  6
CONTINUOUS
 62
4
 10
32.472902521702963
 20
-188.896615502427270
 11
53.972902521701144
 21
-188.896615502427270
  0
LINE
  8
0
  6
CONTINUOUS
 62
4
 10
32.472902521702963
 20
-187.896615502427240
 11
53.972902521701144
 21
-187.896615502427240
  0
LINE
  8
0
  6
CONTINUOUS
 62
4
 10
32.472902521702963
 20
-186.896615502427300
 11
53.972902521701144
 21
-186.896615502427300
  0
LINE
  8
0
  6
CONTINUOUS
 62
4
 10
32.472902521702053
 20
-182.212149689202760
 11
56.972902521701258
 21
-182.212149689202760
  0
LINE
  8
0
  6
CONTINUOUS
 62
4
 10
32.472902521701087
 20
-177.262402220897000
 11
56.972902521700291
 21
-177.262402220897000
  0
LINE
  8
0
  6
CONTINUOUS
 62
4
 10
32.472902521701087
 20
-169.215800558163210
 11
56.972902521700291
 21
-169.215800558163210
  0
LINE
  8
0
  6
CONTINUOUS
 62
4
 10
32.472902521701087
 20
-167.611152642601160
 11
56.972902521700291
 21
-167.611152642601160
  0
LINE
  8
0
  6
CONTINUOUS
 62
4
 10
32.472902521701087
 20
-163.647407218801620
 11
56.972902521700291
 21
-163.647407218801620
  0
LINE
  8
0
  6
CONTINUOUS
 62
4
 10
32.472902521701087
 20
-162.179049828996540
 11
56.972902521700291
 21
-162.179049828996540
  0
LINE
  8
0
  6
CONTINUOUS
 62
4
 10
32.472902521701087
 20
-158.088549294906900
 11
56.972902521700291
 21
-158.088549294906900
  0
LINE
  8
0
  6
CONTINUOUS
 62
4
 10
32.472902521701087
 20
-156.726668959557630
 11
56.972902521700291
 21
-156.726668959557630
  0
LINE
  8
0
  6
CONTINUOUS
 62
4
 10
32.472902521701087
 20
-151.896615502427270
 11
56.972902521700291
 21
-151.896615502427270
  0
LINE
  8
0
  6
CONTINUOUS
 62
4
 10
32.472902521700235
 20
-111.896615502427260
 11
55.972902521700235
 21
-111.896615502427260
  0
LINE
  8
0
  6
CONTINUOUS
 62
4
 10
32.472902521700235
 20
-107.066562045296900
 11
55.972902521700235
 21
-107.066562045296900
  0
LINE
  8
0
  6
CONTINUOUS
 62
4
 10
32.472902521700235
 20
-105.704681709947630
 11
55.972902521700235
 21
-105.704681709947630
  0
LINE
  8
0
  6
CONTINUOUS
 62
4
 10
32.472902521700235
 20
-101.614181175857990
 11
56.972902521700291
 21
-101.614181175857990
  0
LINE
  8
0
  6
CONTINUOUS
 62
4
 10
32.472902521700235
 20
-100.145823786052910
 11
56.972902521700291
 21
-100.145823786052910
  0
LINE
  8
0
  6
CONTINUOUS
 62
4
 10
32.472902521700235
 20
-96.182078362253378
 11
56.972902521700291
 21
-96.182078362253378
  0
LINE
  8
0
  6
CONTINUOUS
 62
4
 10
32.472902521700235
 20
-94.577430446691324
 11
56.972902521700291
 21
-94.577430446691324
  0
LINE
  8
0
  6
CONTINUOUS
 62
4
 10
32.472902521700235
 20
-86.530828783957531
 11
56.972902521700291
 21
-86.530828783957531
  0
LINE
  8
0
  6
CONTINUOUS
 62
4
 10
32.472902521700235
 20
-81.581081315651772
 11
56.972902521700291
 21
-81.581081315651772
  0
LINE
  8
0
  6
CONTINUOUS
 62
4
 10
32.472902521700235
 20
-76.896615502427267
 11
53.972902521701144
 21
-76.896615502427267
  0
LINE
  8
0
  6
CONTINUOUS
 62
4
 10
32.472902521700235
 20
-75.896615502427267
 11
53.972902521701144
 21
-75.896615502427267
  0
LINE
  8
0
  6
CONTINUOUS
 62
4
 10
32.472902521700235
 20
-74.896615502427267
 11
53.972902521701144
 21
-74.896615502427267
  0
LINE
  8
0
  6
CONTINUOUS
 62
4
 10
32.472902521700235
 20
-74.396615502427267
 11
53.972902521701144
 21
-74.396615502427267
  0
ARC
  8
0
  6
CONTINUOUS
 62
3
 10
318.793851018351920
 20
-111.896615502425440
 40
11.000000000000037
 50
195.826620131872290
 51
164.173379868127710
  0
LINE
  8
0
  6
CONTINUOUS
 62
3
 10
305.293851018351920
 20
-114.896615502425440
 11
311.293851018351920
 21
-114.896615502425440
  0
LINE
  8
0
  6
CONTINUOUS
 62
3
 10
311.293851018351920
 20
-114.896615502425440
 11
311.293851018351920
 21
-108.896615502425440
  0
LINE
  8
0
  6
CONTINUOUS
 62
3
 10
305.293851018351920
 20
-108.896615502425440
 11
305.293851018351920
 21
-114.896615502425440
  0
CIRCLE
  8
0
  6
CONTINUOUS
 62
4
 10
318.793851018351920
 20
-111.896615502425440
 40
4.000000000000000
  0
CIRCLE
  8
0
  6
CONTINUOUS
 62
3
 10
318.793851018351920
 20
-111.896615502425440
 40
3.323500000000024
  0
LINE
  8
0
  6
CONTINUOUS
 62
3
 10
305.293851018351920
 20
-108.896615502425440
 11
311.293851018351920
 21
-108.896615502425440
  0
ARC
  8
0
  6
DASHDOT
 62
4
 10
318.793851018351920
 20
-111.896615502425440
 40
97.500000000000014
 50
218.996115939780400
 51
230.876812265942480
  0
ARC
  8
0
  6
DASHDOT
 62
4
 10
318.793851018351920
 20
-111.896615502425440
 40
97.500000000000071
 50
39.648895764733190
 51
50.876812265942590
  0
CIRCLE
  8
0
  6
CONTINUOUS
 62
3
 10
318.793851018351920
 20
-111.896615502425440
 40
19.000000000000000
  0
CIRCLE
  8
0
  6
CONTINUOUS
 62
3
 10
318.985795456904950
 20
-111.871091137877550
 40
75.000000000000000
  0
CIRCLE
  8
0
  6
CONTINUOUS
 62
3
 10
318.784295708537460
 20
-111.849711375471990
 40
28.501149875631768
  0
CIRCLE
  8
0
  6
CONTINUOUS
 62
3
 10
319.115682025701740
 20
-112.181097692636280
 40
21.881536638176669
  0
ARC
  8
0
  6
CONTINUOUS
 62
3
 10
285.878319066324140
 20
-71.910015738531911
 40
3.000000000000185
 50
225.000000000006170
 51
285.560040400867420
  0
ARC
  8
0
  6
CONTINUOUS
 62
3
 10
275.847259504906330
 20
-76.021091800845170
 40
2.999999999999936
 50
299.010998725229910
 51
44.999999999990798
  0
ARC
  8
0
  6
CONTINUOUS
 62
3
 10
351.709382970379690
 20
-71.910015738531911
 40
3.000000000000183
 50
254.439959599132550
 51
314.999999999993860
  0
ARC
  8
0
  6
CONTINUOUS
 62
3
 10
361.740442531797500
 20
-76.021091800845170
 40
2.999999999999542
 50
135.000000000006140
 51
240.989001274778500
  0
ARC
  8
0
  6
CONTINUOUS
 62
3
 10
323.793851018351920
 20
-69.644381285511372
 40
3.000000000000000
 50
180.000000000000000
 51
269.277067307315410
  0
ARC
  8
0
  6
CONTINUOUS
 62
3
 10
313.793851018351920
 20
-69.644381285511372
 40
3.000000000000205
 50
270.722932692684590
 51
0.000000000000000
  0
ARC
  8
0
  6
CONTINUOUS
 62
3
 10
339.293851018351920
 20
-116.497488428530230
 40
43.283778524804475
 50
74.439959599133118
 51
86.642182578429356
  0
ARC
  8
0
  6
CONTINUOUS
 62
3
 10
298.293851018351920
 20
-116.497488428530230
 40
43.283778524804646
 50
119.010998725227180
 51
153.943096718326930
  0
CIRCLE
  8
0
  6
CONTINUOUS
 62
3
 10
318.793851018351920
 20
-111.896615502425440
 40
71.000000000000000
  0
ARC
  8
0
  6
CONTINUOUS
 62
3
 10
318.793851018351920
 20
-111.896615502425440
 40
77.999999999999957
 50
149.477512185929980
 51
175.644227372968660
  0
ARC
  8
0
  6
CONTINUOUS
 62
3
 10
242.988020506679500
 20
-67.203483362961379
 40
10.000000000000041
 50
329.477512185930440
 51
45.000000000000000
  0
ARC
  8
0
  6
CONTINUOUS
 62
3
 10
242.988020506679500
 20
-156.589747641889520
 40
10.000000000000242
 50
314.999999999999090
 51
30.522487814069546
  0
ARC
  8
0
  6
CONTINUOUS
 62
3
 10
318.793851018351920
 20
-111.896615502425440
 40
77.999999999999957
 50
329.477512185929980
 51
355.644227372968660
  0
ARC
  8
0
  6
CONTINUOUS
 62
3
 10
394.599681530024330
 20
-156.589747641889520
 40
10.000000000000041
 50
149.477512185930440
 51
225.000000000001850
  0
ARC
  8
0
  6
CONTINUOUS
 62
3
 10
394.599681530024330
 20
-67.203483362961379
 40
10.000000000000082
 50
134.999999999998150
 51
210.522487814069560
  0
ARC
  8
0
  6
CONTINUOUS
 62
3
 10
254.917720965043150
 20
-95.288183625430065
 40
4.999999999999824
 50
165.425247711517950
 51
333.943096718326790
  0
ARC
  8
0
  6
CONTINUOUS
 62
3
 10
298.293851018351920
 20
-116.497488428530230
 40
43.283778524803985
 50
93.357817421570644
 51
105.560040400866880
  0
ARC
  8
0
  6
CONTINUOUS
 62
3
 10
318.793851018351920
 20
-465.896615502425450
 40
393.283778524803950
 50
86.642182578429313
 51
89.277067307315235
  0
ARC
  8
0
  6
CONTINUOUS
 62
3
 10
318.793851018351920
 20
-465.896615502425450
 40
393.283778524804060
 50
90.722932692684765
 51
93.357817421570687
  0
ARC
  8
0
  6
CONTINUOUS
 62
3
 10
382.669981071660690
 20
-95.288183625430975
 40
4.999999999999898
 50
206.056903281674380
 51
14.574752288480742
  0
ARC
  8
0
  6
CONTINUOUS
 62
3
 10
318.793851018351920
 20
-111.896615502425440
 40
78.000000000000085
 50
184.355772627031340
 51
210.522487814070020
  0
ARC
  8
0
  6
CONTINUOUS
 62
3
 10
318.793851018351920
 20
-111.896615502425440
 40
77.999999999999858
 50
4.355772627031366
 51
30.522487814070015
  0
ARC
  8
0
  6
CONTINUOUS
 62
3
 10
240.022028645119920
 20
-105.896615502425440
 40
1.000000000000000
 50
270.000000000000000
 51
355.644227372976670
  0
ARC
  8
0
  6
CONTINUOUS
 62
3
 10
239.793851018351920
 20
-107.896615502425440
 40
1.000000000000000
 50
90.000000000000000
 51
180.000000000000000
  0
ARC
  8
0
  6
CONTINUOUS
 62
3
 10
240.022028645119920
 20
-117.896615502425440
 40
0.999999999999999
 50
4.355772627023321
 51
90.000000000000000
  0
ARC
  8
0
  6
CONTINUOUS
 62
3
 10
239.793851018351920
 20
-115.896615502425440
 40
1.000000000000000
 50
180.000000000000000
 51
270.000000000000000
  0
ARC
  8
0
  6
CONTINUOUS
 62
3
 10
397.793851018351920
 20
-107.896615502425440
 40
1.000000000000000
 50
0.000000000000000
 51
90.000000000000000
  0
ARC
  8
0
  6
CONTINUOUS
 62
3
 10
397.565673391583690
 20
-105.896615502425440
 40
0.999999999999999
 50
184.355772627023300
 51
270.000000000000000
  0
ARC
  8
0
  6
CONTINUOUS
 62
3
 10
397.793851018351920
 20
-115.896615502425440
 40
1.000000000000000
 50
270.000000000000000
 51
0.000000000000000
  0
ARC
  8
0
  6
CONTINUOUS
 62
3
 10
397.565673391583690
 20
-117.896615502425440
 40
1.000000000000000
 50
90.000000000000000
 51
175.644227372976700
  0
LINE
  8
0
  6
CONTINUOUS
 62
3
 10
318.793851018351920
 20
-194.896615502425450
 11
286.588079652411810
 21
-194.896615502425450
  0
LINE
  8
0
  6
CONTINUOUS
 62
3
 10
248.793851018351920
 20
-191.896615502425450
 11
270.935734195601070
 21
-191.896615502425450
  0
LINE
  8
0
  6
CONTINUOUS
 62
3
 10
285.018800817346350
 20
-196.896615502425450
 11
274.130161491807480
 21
-196.896615502425450
  0
LINE
  8
0
  6
CONTINUOUS
 62
3
 10
366.651967841102990
 20
-191.896615502425450
 11
388.793851018351920
 21
-191.896615502425450
  0
LINE
  8
0
  6
CONTINUOUS
 62
3
 10
352.568901219357490
 20
-196.896615502425450
 11
363.457540544896570
 21
-196.896615502425450
  0
LINE
  8
0
  6
CONTINUOUS
 62
3
 10
318.793851018351920
 20
-194.896615502425450
 11
350.999622384292020
 21
-194.896615502425450
  0
LINE
  8
0
  6
CONTINUOUS
 62
3
 10
272.254962491287640
 20
-62.529299850614734
 11
283.756998722764590
 21
-74.031336082091912
  0
LINE
  8
0
  6
CONTINUOUS
 62
3
 10
269.426535366541430
 20
-65.357726975361402
 11
277.968579848466110
 21
-73.899771457286079
  0
LINE
  8
0
  6
CONTINUOUS
 62
3
 10
368.161166670162630
 20
-65.357726975361402
 11
359.619122188237950
 21
-73.899771457286079
  0
LINE
  8
0
  6
CONTINUOUS
 62
3
 10
365.332739545415960
 20
-62.529299850614734
 11
353.830703313939240
 21
-74.031336082091912
  0
LINE
  8
0
  6
CONTINUOUS
 62
3
 10
320.793851018351920
 20
-44.080688169681707
 11
320.793851018351920
 21
-69.644381285511372
  0
LINE
  8
0
  6
CONTINUOUS
 62
3
 10
316.793851018351920
 20
-44.080688169681707
 11
316.793851018351920
 21
-69.644381285511372
  0
LINE
  8
0
  6
DASHDOT
 62
4
 10
318.793851018351920
 20
-21.761928467364442
 11
318.793851018351920
 21
-208.064467517809130
  0
LINE
  8
0
  6
DASHDOT
 62
4
 10
213.793781696287510
 20
-111.896615502425440
 11
433.903409573183920
 21
-111.896615502425440
  0
LINE
  8
0
  6
DASHDOT
 62
4
 10
379.336971990818480
 20
-172.439736474891960
 11
395.114651724568600
 21
-188.217416208642080
  0
LINE
  8
0
  6
CONTINUOUS
 62
3
 10
370.558050969681740
 20
-180.631378202232550
 11
381.237501832247970
 21
-191.310829064798780
  0
LINE
  8
0
  6
CONTINUOUS
 62
3
 10
387.528613718159020
 20
-163.660815453755280
 11
398.208064580725250
 21
-174.340266316321500
  0
LINE
  8
0
  6
DASHDOT
 62
4
 10
258.703051586377110
 20
-171.987414934400310
 11
242.488459493495550
 21
-188.202007027281810
  0
LINE
  8
0
  6
CONTINUOUS
 62
3
 10
267.029651067022310
 20
-180.631378202232550
 11
256.350200204455860
 21
-191.310829064798780
  0
LINE
  8
0
  6
CONTINUOUS
 62
3
 10
250.059088318545040
 20
-163.660815453755280
 11
239.379637455978810
 21
-174.340266316321500
  0
LINE
  8
0
  6
CONTINUOUS
 62
3
 10
238.793851018351920
 20
-41.896615502425448
 11
238.793851018351920
 21
-181.896615502425450
  0
LINE
  8
0
  6
DASHDOT
 62
4
 10
256.947324280404930
 20
-50.050088764478346
 11
242.577826859796630
 21
-35.680591343870162
  0
LINE
  8
0
  6
CONTINUOUS
 62
3
 10
250.059088318545260
 20
-60.132415551095619
 11
239.379637455978810
 21
-49.452964688529391
  0
LINE
  8
0
  6
CONTINUOUS
 62
3
 10
267.029651067022090
 20
-43.161852802618341
 11
256.350200204455860
 21
-32.482401940052114
  0
LINE
  8
0
  6
CONTINUOUS
 62
3
 10
388.793851018351920
 20
-31.896615502425448
 11
248.793851018351920
 21
-31.896615502425448
  0
LINE
  8
0
  6
CONTINUOUS
 62
3
 10
398.793851018351920
 20
-41.896615502425448
 11
398.793851018351920
 21
-181.896615502425450
  0
LINE
  8
0
  6
DASHDOT
 62
4
 10
380.277898458069100
 20
-50.412568062708317
 11
394.877074628671830
 21
-35.813391892105585
  0
LINE
  8
0
  6
CONTINUOUS
 62
3
 10
370.558050969681740
 20
-43.161852802618341
 11
381.237501832247970
 21
-32.482401940052114
  0
LINE
  8
0
  6
CONTINUOUS
 62
3
 10
387.528613718159020
 20
-60.132415551095619
 11
398.208064580725250
 21
-49.452964688529391
  0
LINE
  8
0
  6
CONTINUOUS
 62
3
 10
239.793851018351920
 20
-106.896615502425440
 11
240.022028645119920
 21
-106.896615502425440
  0
LINE
  8
0
  6
CONTINUOUS
 62
3
 10
239.793851018351920
 20
-116.896615502425440
 11
240.022028645119920
 21
-116.896615502425440
  0
LINE
  8
0
  6
CONTINUOUS
 62
3
 10
397.793851018351920
 20
-106.896615502425440
 11
397.565673391583690
 21
-106.896615502425440
  0
LINE
  8
0
  6
CONTINUOUS
 62
3
 10
397.793851018351920
 20
-116.896615502425440
 11
397.565673391583690
 21
-116.896615502425440
  0
CIRCLE
  8
0
  6
CONTINUOUS
 62
3
 10
387.736762184040120
 20
-42.953704336737246
 40
5.300000000000011
  0
CIRCLE
  8
0
  6
CONTINUOUS
 62
3
 10
387.736762184040120
 20
-180.839526668113650
 40
5.300000000000011
  0
CIRCLE
  8
0
  6
CONTINUOUS
 62
3
 10
249.850939852663710
 20
-180.839526668113650
 40
5.300000000000011
  0
CIRCLE
  8
0
  6
CONTINUOUS
 62
3
 10
249.850939852663490
 20
-42.953704336737246
 40
5.300000000000011
  0
ARC
  8
0
  6
CONTINUOUS
 62
3
 10
363.486983157815980
 20
-36.090784990753491
 40
9.999999999999650
 50
239.477512185929130
 51
315.000000000003640
  0
ARC
  8
0
  6
CONTINUOUS
 62
3
 10
363.486983157815980
 20
-187.702446014098310
 40
10.000000000000401
 50
45.000000000000000
 51
120.522487814068210
  0
ARC
  8
0
  6
CONTINUOUS
 62
3
 10
318.793851018351920
 20
-111.896615502425440
 40
77.999999999999957
 50
239.477512185929980
 51
300.522487814070020
  0
ARC
  8
0
  6
CONTINUOUS
 62
3
 10
274.100718878887850
 20
-187.702446014098310
 40
10.000000000000433
 50
59.477512185931793
 51
134.999999999999090
  0
ARC
  8
0
  6
CONTINUOUS
 62
3
 10
274.100718878887850
 20
-36.090784990753491
 40
9.999999999999758
 50
224.999999999996330
 51
300.522487814070870
  0
ARC
  8
0
  6
CONTINUOUS
 62
3
 10
318.793851018351920
 20
-111.896615502425440
 40
77.999999999999957
 50
59.477512185929996
 51
120.522487814070010
  0
ARC
  8
0
  6
CONTINUOUS
 62
3
 10
388.793851018351920
 20
-41.896615502425448
 40
10.000000000000000
 50
0.000000000000000
 51
90.000000000000000
  0
ARC
  8
0
  6
CONTINUOUS
 62
3
 10
396.793851018351920
 20
-48.038751126156058
 40
2.000000000000338
 50
315.000000000000000
 51
0.000000000000000
  0
ARC
  8
0
  6
CONTINUOUS
 62
3
 10
382.651715394620850
 20
-33.896615502425448
 40
2.000000000000000
 50
90.000000000000000
 51
134.999999999990790
  0
ARC
  8
0
  6
CONTINUOUS
 62
3
 10
248.793851018351920
 20
-41.896615502425448
 40
10.000000000000000
 50
90.000000000000000
 51
180.000000000000000
  0
ARC
  8
0
  6
CONTINUOUS
 62
3
 10
254.935986642082980
 20
-33.896615502425448
 40
2.000000000000016
 50
45.000000000009216
 51
90.000000000000000
  0
ARC
  8
0
  6
CONTINUOUS
 62
3
 10
240.793851018351920
 20
-48.038751126156058
 40
2.000000000000000
 50
180.000000000000000
 51
225.000000000004630
  0
ARC
  8
0
  6
DASHDOT
 62
4
 10
318.793851018351920
 20
-111.896615502425440
 40
97.500000000000298
 50
129.123187734056760
 51
140.876812265942500
  0
ARC
  8
0
  6
CONTINUOUS
 62
3
 10
240.793851018351920
 20
-175.754479878694840
 40
2.000000000000177
 50
134.999999999995370
 51
180.000000000000000
  0
ARC
  8
0
  6
CONTINUOUS
 62
3
 10
254.935986642082980
 20
-189.896615502425450
 40
2.000000000000000
 50
270.000000000000000
 51
314.999999999990790
  0
ARC
  8
0
  6
CONTINUOUS
 62
3
 10
382.651715394620850
 20
-189.896615502425450
 40
2.000000000000016
 50
225.000000000009210
 51
270.000000000000000
  0
ARC
  8
0
  6
CONTINUOUS
 62
3
 10
396.793851018351920
 20
-175.754479878694840
 40
2.000000000000000
 50
0.000000000026055
 51
45.000000000000000
  0
ARC
  8
0
  6
DASHDOT
 62
4
 10
318.793851018351920
 20
-111.896615502425440
 40
97.500000000000156
 50
309.123187734056670
 51
320.876812265942590
  0
ARC
  8
0
  6
CONTINUOUS
 62
3
 10
388.793851018351920
 20
-181.896615502425450
 40
10.000000000000000
 50
270.000000000000000
 51
0.000000000000000
  0
ARC
  8
0
  6
CONTINUOUS
 62
3
 10
248.793851018351920
 20
-181.896615502425450
 40
10.000000000000000
 50
180.000000000000000
 51
270.000000000000000
  0
ARC
  8
0
  6
CONTINUOUS
 62
3
 10
323.793851018351920
 20
-44.080688169681707
 40
2.999999999999889
 50
85.783269521146963
 51
180.000000000000000
  0
ARC
  8
0
  6
CONTINUOUS
 62
3
 10
313.793851018351920
 20
-44.080688169681707
 40
3.000000000000000
 50
0.000000000000000
 51
94.216730478853037
  0
ARC
  8
0
  6
CONTINUOUS
 62
3
 10
370.282487013722180
 20
-67.479047318920493
 40
2.999999999999589
 50
40.783269521141641
 51
135.000000000006140
  0
ARC
  8
0
  6
CONTINUOUS
 62
3
 10
363.211419201856870
 20
-60.407979507055643
 40
2.999999999999221
 50
315.000000000000000
 51
49.216730478864051
  0
ARC
  8
0
  6
CONTINUOUS
 62
3
 10
274.376282834847420
 20
-60.407979507055643
 40
3.000000000000379
 50
130.783269521145830
 51
224.999999999990790
  0
ARC
  8
0
  6
CONTINUOUS
 62
3
 10
267.305215022981880
 20
-67.479047318920493
 40
2.999999999999542
 50
44.999999999993868
 51
139.216730478861190
  0
ARC
  8
0
  6
CONTINUOUS
 62
3
 10
358.793851018351920
 20
-190.396615502425450
 40
8.999999999999950
 50
210.000000000000200
 51
226.238257307319910
  0
ARC
  8
0
  6
CONTINUOUS
 62
3
 10
358.793851018351920
 20
-190.396615502425450
 40
8.000000000000146
 50
305.659087696140200
 51
349.193077125139950
  0
ARC
  8
0
  6
CONTINUOUS
 62
3
 10
278.793851018351920
 20
-190.396615502425450
 40
7.999999999999988
 50
190.806922874860360
 51
234.340912303861100
  0
ARC
  8
0
  6
CONTINUOUS
 62
3
 10
278.793851018351920
 20
-190.396615502425450
 40
9.000000000000044
 50
313.761742692680060
 51
330.000000000000570
  0
ARC
  8
0
  6
CONTINUOUS
 62
3
 10
186.072902521701050
 20
-122.496615502425810
 40
0.399999999999636
 50
270.000000000000000
 51
0.000000000000000
  0
LINE
  8
0
  6
CONTINUOUS
 62
3
 10
186.472902521701140
 20
-111.896615502425440
 11
186.472902521701140
 21
-122.496615502425810
  0
LINE
  8
0
  6
CONTINUOUS
 62
3
 10
148.472902521701140
 20
-123.896615502425440
 11
150.072902521701050
 21
-123.896615502425440
  0
LINE
  8
0
  6
CONTINUOUS
 62
3
 10
186.072902521701050
 20
-122.896615502425440
 11
153.032710142836550
 21
-122.896615502425440
  0
LINE
  8
0
  6
CONTINUOUS
 62
3
 10
150.472902521701140
 20
-123.496615502425810
 11
150.072902521701050
 21
-123.896615502425440
  0
LINE
  8
0
  6
CONTINUOUS
 62
3
 10
153.032710142836550
 20
-122.896615502425440
 11
152.472902521701140
 21
-122.746615502425810
  0
LINE
  8
0
  6
CONTINUOUS
 62
3
 10
152.472902521701140
 20
-122.746615502425810
 11
151.272902521700870
 21
-122.746615502425810
  0
ARC
  8
0
  6
CONTINUOUS
 62
3
 10
151.272902521700870
 20
-123.546615502425080
 40
0.799999999999272
 50
90.000000000000000
 51
176.296803365782610
  0
LINE
  8
0
  6
CONTINUOUS
 62
3
 10
186.072902521701050
 20
-122.896615502425440
 11
153.032710142836550
 21
-122.896615502425440
  0
LINE
  8
0
  6
CONTINUOUS
 62
3
 10
150.472902521701140
 20
-123.496615502425810
 11
150.072902521701050
 21
-123.896615502425440
  0
LINE
  8
0
  6
CONTINUOUS
 62
3
 10
153.032710142836550
 20
-122.896615502425440
 11
152.472902521701140
 21
-122.746615502425810
  0
LINE
  8
0
  6
CONTINUOUS
 62
3
 10
152.472902521701140
 20
-122.746615502425810
 11
151.272902521700870
 21
-122.746615502425810
  0
LINE
  8
0
  6
CONTINUOUS
 62
3
 10
150.472902521701140
 20
-111.896615502425440
 11
150.472902521701140
 21
-123.496615502425810
  0
LINE
  8
0
  6
CONTINUOUS
 62
3
 10
148.472902521701140
 20
-123.896615502425440
 11
150.072902521701050
 21
-123.896615502425440
  0
LINE
  8
0
  6
CONTINUOUS
 62
3
 10
148.472902521701140
 20
-99.896615502425448
 11
150.072902521701050
 21
-99.896615502425448
  0
LINE
  8
0
  6
CONTINUOUS
 62
3
 10
150.472902521701140
 20
-100.296615502425990
 11
150.072902521701050
 21
-99.896615502425448
  0
LINE
  8
0
  6
CONTINUOUS
 62
3
 10
153.032710142836550
 20
-100.896615502425440
 11
152.472902521701140
 21
-101.046615502425990
  0
LINE
  8
0
  6
CONTINUOUS
 62
3
 10
152.472902521701140
 20
-101.046615502425990
 11
151.272902521700870
 21
-101.046615502425990
  0
ARC
  8
0
  6
CONTINUOUS
 62
3
 10
151.272902521700870
 20
-100.246615502425810
 40
0.799999999999783
 50
183.703196634282420
 51
270.000000000000000
  0
LINE
  8
0
  6
CONTINUOUS
 62
3
 10
150.472902521701140
 20
-100.296615502425990
 11
150.072902521701050
 21
-99.896615502425448
  0
LINE
  8
0
  6
CONTINUOUS
 62
3
 10
153.032710142836550
 20
-100.896615502425440
 11
152.472902521701140
 21
-101.046615502425990
  0
LINE
  8
0
  6
CONTINUOUS
 62
3
 10
152.472902521701140
 20
-101.046615502425990
 11
151.272902521700870
 21
-101.046615502425990
  0
LINE
  8
0
  6
CONTINUOUS
 62
3
 10
150.472902521701140
 20
-111.896615502425440
 11
150.472902521701140
 21
-100.296615502425990
  0
LINE
  8
0
  6
CONTINUOUS
 62
3
 10
148.472902521701140
 20
-99.896615502425448
 11
150.072902521701050
 21
-99.896615502425448
  0
ARC
  8
0
  6
CONTINUOUS
 62
3
 10
186.072902521701050
 20
-101.296615502425990
 40
0.400000000000091
 50
0.000000000000000
 51
90.000000000000000
  0
LINE
  8
0
  6
CONTINUOUS
 62
3
 10
186.072902521701050
 20
-100.896615502425440
 11
153.032710142836550
 21
-100.896615502425440
  0
LINE
  8
0
  6
CONTINUOUS
 62
3
 10
186.072902521701050
 20
-100.896615502425440
 11
153.032710142836550
 21
-100.896615502425440
  0
LINE
  8
0
  6
CONTINUOUS
 62
3
 10
186.472902521701140
 20
-111.896615502425440
 11
186.472902521701140
 21
-101.296615502425990
  0
ARC
  8
0
  6
CONTINUOUS
 62
3
 10
157.472902521701600
 20
-111.896615502425440
 40
3.000000000000000
 50
90.000000000000000
 51
270.000000000000000
  0
LINE
  8
0
  6
CONTINUOUS
 62
3
 10
186.472902521701140
 20
-114.896615502425440
 11
157.472902521701600
 21
-114.896615502425440
  0
LINE
  8
0
  6
CONTINUOUS
 62
3
 10
186.472902521701140
 20
-108.896615502425440
 11
157.472902521701600
 21
-108.896615502425440
  0
LINE
  8
0
  6
DASHDOT
 62
4
 10
151.695736198710620
 20
-180.839526668113650
 11
118.858547486316630
 21
-180.839526668113650
  0
LINE
  8
0
  6
DASHDOT
 62
4
 10
151.695736198710620
 20
-42.953704336737246
 11
118.858547486316630
 21
-42.953704336737246
  0
LINE
  8
0
  6
CONTINUOUS
 62
3
 10
66.472902521701144
 20
-65.896615502425448
 11
116.693334508538100
 21
-65.020014601373077
  0
LINE
  8
0
  6
CONTINUOUS
 62
3
 10
126.120999696507170
 20
-71.805572426584149
 11
115.760629367206090
 21
-71.805572426584149
  0
LINE
  8
0
  6
CONTINUOUS
 62
3
 10
114.921635198454390
 20
-67.096128316854447
 11
127.254917803761370
 21
-52.643733924621301
  0
ARC
  8
0
  6
CONTINUOUS
 62
3
 10
124.972902521701820
 20
-50.696323784859487
 40
3.000000000000073
 50
319.523454666815210
 51
0.000000000000000
  0
ARC
  8
0
  6
CONTINUOUS
 62
3
 10
112.639619916394160
 20
-65.148718177091723
 40
3.000000000000000
 50
270.000000000000000
 51
319.523454666810440
  0
ARC
  8
0
  6
CONTINUOUS
 62
3
 10
112.639619916394160
 20
-68.805572426584149
 40
3.000000000000000
 50
270.000000000000000
 51
319.523454666810440
  0
LINE
  8
0
  6
CONTINUOUS
 62
3
 10
114.921635198454390
 20
-70.752982566346873
 11
127.254917803761370
 21
-56.300588174113727
  0
ARC
  8
0
  6
CONTINUOUS
 62
3
 10
124.972902521701820
 20
-54.353178034351913
 40
3.000000000000073
 50
319.523454666815210
 51
0.000000000000000
  0
LINE
  8
0
  6
CONTINUOUS
 62
3
 10
132.972902521701830
 20
-191.883522541640560
 11
132.972902521702280
 21
-196.389040176320120
  0
LINE
  8
0
  6
CONTINUOUS
 62
3
 10
132.972902521701370
 20
-104.896615502425440
 11
132.972902521701830
 21
-50.867178250902725
  0
LINE
  8
0
  6
CONTINUOUS
 62
3
 10
132.972902521700920
 20
-172.926052753948170
 11
132.972902521701370
 21
-118.896615502425440
  0
ARC
  8
0
  6
CONTINUOUS
 62
3
 10
134.972902521701600
 20
-154.589747641889520
 40
2.000000000000000
 50
180.000000000000000
 51
270.000000000000000
  0
LINE
  8
0
  6
CONTINUOUS
 62
3
 10
134.972902521701600
 20
-156.589747641889520
 11
139.972902521702050
 21
-156.589747641889520
  0
ARC
  8
0
  6
CONTINUOUS
 62
3
 10
134.972902521701370
 20
-118.896615502425440
 40
2.000000000000000
 50
90.000000000000000
 51
180.000000000000000
  0
LINE
  8
0
  6
CONTINUOUS
 62
3
 10
134.972902521701370
 20
-116.896615502425440
 11
139.972902521702050
 21
-116.896615502425440
  0
LINE
  8
0
  6
CONTINUOUS
 62
3
 10
139.972902521702050
 20
-174.926052753948170
 11
134.972902521701600
 21
-174.926052753948170
  0
ARC
  8
0
  6
CONTINUOUS
 62
3
 10
134.972902521701600
 20
-172.926052753948170
 40
1.999999999999773
 50
180.000000000000000
 51
270.000000000000000
  0
ARC
  8
0
  6
CONTINUOUS
 62
3
 10
134.972902521701600
 20
-69.203483362961379
 40
2.000000000000000
 50
90.000000000000000
 51
180.000000000000000
  0
LINE
  8
0
  6
CONTINUOUS
 62
3
 10
134.972902521701600
 20
-67.203483362961379
 11
139.972902521702050
 21
-67.203483362961379
  0
ARC
  8
0
  6
CONTINUOUS
 62
3
 10
134.972902521701370
 20
-104.896615502425440
 40
2.000000000000000
 50
180.000000000000000
 51
270.000000000000000
  0
LINE
  8
0
  6
CONTINUOUS
 62
3
 10
134.972902521701370
 20
-106.896615502425440
 11
139.972902521702050
 21
-106.896615502425440
  0
LINE
  8
0
  6
CONTINUOUS
 62
3
 10
139.972902521702050
 20
-48.867178250902725
 11
134.972902521701600
 21
-48.867178250902725
  0
ARC
  8
0
  6
CONTINUOUS
 62
3
 10
134.972902521701600
 20
-50.867178250902725
 40
2.000000000000000
 50
90.000000000000000
 51
180.000000000000000
  0
LINE
  8
0
  6
CONTINUOUS
 62
3
 10
127.972902521700680
 20
-190.804621984442750
 11
127.972902521702050
 21
-32.988609020408148
  0
LINE
  8
0
  6
CONTINUOUS
 62
3
 10
139.972902521702050
 20
-111.896615502425440
 11
139.972902521702050
 21
-191.700221090656670
  0
LINE
  8
0
  6
CONTINUOUS
 62
3
 10
139.972902521702050
 20
-191.700221090656670
 11
132.472902521702050
 21
-191.896615502425450
  0
ARC
  8
0
  6
CONTINUOUS
 62
3
 10
128.972902521702050
 20
-190.804621984442750
 40
1.000000000000000
 50
180.000000000000000
 51
268.499999999997210
  0
LINE
  8
0
  6
CONTINUOUS
 62
3
 10
132.472902521702050
 20
-191.896615502425450
 11
128.946725573394130
 21
-191.804279309418230
  0
LINE
  8
0
  6
CONTINUOUS
 62
3
 10
147.643883629389850
 20
-89.297879635756544
 11
142.972902521701140
 21
-85.924393280202821
  0
LINE
  8
0
  6
CONTINUOUS
 62
3
 10
147.643883629389850
 20
-134.495351369094350
 11
142.972902521701600
 21
-137.868837724647160
  0
LINE
  8
0
  6
CONTINUOUS
 62
3
 10
142.972902521701140
 20
-111.896615502425440
 11
142.972902521702050
 21
-186.096615502425270
  0
LINE
  8
0
  6
CONTINUOUS
 62
3
 10
142.972902521700920
 20
-111.896615502425440
 11
142.972902521702050
 21
-37.696615502425630
  0
LINE
  8
0
  6
CONTINUOUS
 62
3
 10
139.972902521702050
 20
-111.896615502425440
 11
139.972902521702050
 21
-32.106102874979115
  0
LINE
  8
0
  6
CONTINUOUS
 62
3
 10
142.193577024964720
 20
-186.896615502425450
 11
139.972902521702050
 21
-186.896615502425450
  0
LINE
  8
0
  6
CONTINUOUS
 62
3
 10
142.193577024964720
 20
-36.896615502425448
 11
139.972902521702050
 21
-36.896615502425448
  0
LINE
  8
0
  6
CONTINUOUS
 62
3
 10
66.472902521701144
 20
-65.896615502425448
 11
66.472902521701144
 21
-195.896615502425450
  0
ARC
  8
0
  6
CONTINUOUS
 62
3
 10
146.472902521701140
 20
-132.873992912294850
 40
1.999999999999779
 50
305.837652954282420
 51
0.000000000000000
  0
ARC
  8
0
  6
CONTINUOUS
 62
3
 10
146.472902521701140
 20
-90.919238092556043
 40
2.000000000000000
 50
0.000000000000000
 51
54.162347045717610
  0
ARC
  8
0
  6
CONTINUOUS
 62
3
 10
112.273966427958610
 20
-62.096697974029667
 40
2.999999999999582
 50
270.999999999997610
 51
329.999999999998350
  0
ARC
  8
0
  6
CONTINUOUS
 62
3
 10
124.972902521702050
 20
-40.101495457595774
 40
2.999999999999853
 50
329.999999999998350
 51
0.000000000000000
  0
ARC
  8
0
  6
CONTINUOUS
 62
3
 10
132.472902521702050
 20
-196.389040176320120
 40
0.500000000000379
 50
269.138474265448620
 51
0.000000000000000
  0
ARC
  8
0
  6
CONTINUOUS
 62
3
 10
128.972902521702050
 20
-32.988609020408148
 40
0.999999999999931
 50
91.500000000002814
 51
180.000000000000000
  0
LINE
  8
0
  6
CONTINUOUS
 62
3
 10
142.193577024964720
 20
-36.896615502425448
 11
142.972902521702050
 21
-37.696615502425630
  0
LINE
  8
0
  6
CONTINUOUS
 62
3
 10
142.193577024964720
 20
-186.896615502425450
 11
142.972902521702050
 21
-186.096615502425270
  0
LINE
  8
0
  6
CONTINUOUS
 62
3
 10
114.872042639311750
 20
-63.596697974029667
 11
127.570978733055190
 21
-41.601495457595774
  0
LINE
  8
0
  6
CONTINUOUS
 62
3
 10
66.472902521701144
 20
-195.896615502425450
 11
132.465384574675450
 21
-196.888983653598190
  0
LINE
  8
0
  6
DASHDOT
 62
4
 10
199.733280700408160
 20
-111.896615502425440
 11
81.343151510575353
 21
-111.896615502425440
  0
LINE
  8
0
  6
CONTINUOUS
 62
3
 10
139.972902521702050
 20
-32.093009914194226
 11
132.472902521702050
 21
-31.896615502425448
  0
LINE
  8
0
  6
CONTINUOUS
 62
3
 10
132.472902521702050
 20
-31.896615502425448
 11
128.946725573394130
 21
-31.988951695432661
  0
LINE
  8
0
  6
CONTINUOUS
 62
3
 10
148.472902521701140
 20
-111.896615502425440
 11
148.472902521701140
 21
-90.919238092556043
  0
LINE
  8
0
  6
CONTINUOUS
 62
3
 10
148.472902521701140
 20
-111.896615502425440
 11
148.472902521701140
 21
-132.873992912294850
  0
ARC
  8
0
  6
CONTINUOUS
 62
3
 10
57.972902521701144
 20
-66.896615502426357
 40
1.000000000000000
 50
90.000000000000000
 51
180.000000000000000
  0
LINE
  8
0
  6
CONTINUOUS
 62
3
 10
57.972902521701144
 20
-65.896615502426357
 11
65.972902521701144
 21
-65.896615502426357
  0
LINE
  8
0
  6
CONTINUOUS
 62
3
 10
65.972902521701144
 20
-65.896615502426357
 11
65.972902521701144
 21
-131.896615502427270
  0
LINE
  8
0
  6
CONTINUOUS
 62
3
 10
65.972902521702053
 20
-195.896615502426360
 11
65.972902521702053
 21
-131.896615502427270
  0
ARC
  8
0
  6
CONTINUOUS
 62
3
 10
55.972902521701144
 20
-103.896615502426350
 40
1.000000000000476
 50
299.999999999984250
 51
0.000000000000000
  0
ARC
  8
0
  6
CONTINUOUS
 62
3
 10
56.972902521701144
 20
-105.628666309995420
 40
0.999999999999688
 50
120.000000000010300
 51
180.000000000000000
  0
ARC
  8
0
  6
CONTINUOUS
 62
3
 10
55.972902521701144
 20
-121.896615502426350
 40
1.000000000000000
 50
0.000000000000000
 51
59.999999999989690
  0
LINE
  8
0
  6
CONTINUOUS
 62
3
 10
55.972902521701144
 20
-105.628666309995420
 11
55.972902521701144
 21
-120.164564694858200
  0
ARC
  8
0
  6
CONTINUOUS
 62
3
 10
56.972902521701144
 20
-120.164564694858200
 40
1.000000000000000
 50
180.000000000000000
 51
239.999999999989710
  0
ARC
  8
0
  6
CONTINUOUS
 62
3
 10
57.972902521701144
 20
-141.146615502426360
 40
1.000000000000000
 50
90.000000000000000
 51
180.000000000000000
  0
ARC
  8
0
  6
CONTINUOUS
 62
3
 10
57.972902521701144
 20
-126.646615502426350
 40
1.000000000000000
 50
180.000000000000000
 51
270.000000000000000
  0
ARC
  8
0
  6
CONTINUOUS
 62
3
 10
57.972902521701144
 20
-71.563432435184041
 40
1.000000000000000
 50
90.000000000000000
 51
180.000000000000000
  0
ARC
  8
0
  6
CONTINUOUS
 62
3
 10
57.972902521701144
 20
-68.025905676409820
 40
1.000000000000000
 50
90.000000000000000
 51
180.000000000000000
  0
ARC
  8
0
  6
CONTINUOUS
 62
3
 10
57.972902521701144
 20
-186.504801125329320
 40
1.000000000000000
 50
180.000000000000000
 51
270.000000000000000
  0
LINE
  8
0
  6
CONTINUOUS
 62
3
 10
53.972902521701144
 20
-195.396615502426360
 11
53.972902521701144
 21
-185.396615502426360
  0
LINE
  8
0
  6
CONTINUOUS
 62
3
 10
59.972902521701144
 20
-195.396615502426360
 11
53.972902521701144
 21
-195.396615502426360
  0
POINT
  8
0
  6
CONTINUOUS
 62
3
 10
59.972902521701144
 20
-190.396615502426360
  0
LINE
  8
0
  6
CONTINUOUS
 62
3
 10
53.972902521701144
 20
-80.896615502426357
 11
53.972902521701144
 21
-70.896615502426357
  0
LINE
  8
0
  6
CONTINUOUS
 62
3
 10
56.972902521701144
 20
-80.896615502426357
 11
53.972902521701144
 21
-80.896615502426357
  0
LINE
  8
0
  6
CONTINUOUS
 62
3
 10
57.227680958548262
 20
-70.896615502426357
 11
53.972902521701144
 21
-70.896615502426357
  0
LINE
  8
0
  6
CONTINUOUS
 62
3
 10
56.972902521701144
 20
-66.896615502426357
 11
56.972902521701144
 21
-70.896615502426357
  0
LINE
  8
0
  6
CONTINUOUS
 62
3
 10
32.472902521702053
 20
-190.405343034891300
 11
53.972902521701144
 21
-190.780626930847800
  0
LINE
  8
0
  6
CONTINUOUS
 62
3
 10
32.472902521702053
 20
-131.896615502427270
 11
32.472902521702053
 21
-190.396615502427270
  0
LINE
  8
0
  6
CONTINUOUS
 62
3
 10
32.472902521701144
 20
-73.387887969963231
 11
53.972902521701144
 21
-73.012604074005779
  0
LINE
  8
0
  6
CONTINUOUS
 62
3
 10
32.472902521701144
 20
-131.896615502427270
 11
32.472902521701144
 21
-73.396615502427267
  0
LINE
  8
0
  6
CONTINUOUS
 62
3
 10
56.972902521701144
 20
-71.563432435184041
 11
56.972902521701144
 21
-128.896615502426360
  0
LINE
  8
0
  6
CONTINUOUS
 62
3
 10
57.972902521701144
 20
-127.646615502426350
 11
59.872902521700780
 21
-127.646615502426350
  0
ARC
  8
0
  6
CONTINUOUS
 62
3
 10
59.872902521700780
 20
-127.746615502426720
 40
0.100000000000364
 50
0.000000000000000
 51
90.000000000000000
  0
LINE
  8
0
  6
CONTINUOUS
 62
3
 10
57.972902521701144
 20
-140.146615502426360
 11
59.872902521700780
 21
-140.146615502426360
  0
LINE
  8
0
  6
CONTINUOUS
 62
3
 10
59.972902521701144
 20
-140.046615502426900
 11
59.972902521701144
 21
-127.746615502426720
  0
ARC
  8
0
  6
CONTINUOUS
 62
3
 10
59.872902521700780
 20
-140.046615502426900
 40
0.099999999999454
 50
270.000000000000000
 51
0.000000000000000
  0
LINE
  8
0
  6
CONTINUOUS
 62
3
 10
57.972902521701144
 20
-67.025905676409820
 11
59.872902521701690
 21
-67.025905676409820
  0
ARC
  8
0
  6
CONTINUOUS
 62
3
 10
59.872902521701690
 20
-67.125905676410184
 40
0.099999999999454
 50
0.000000000000000
 51
90.000000000000000
  0
LINE
  8
0
  6
CONTINUOUS
 62
3
 10
57.972902521701144
 20
-70.563432435184041
 11
59.872902521701690
 21
-70.563432435184041
  0
LINE
  8
0
  6
CONTINUOUS
 62
3
 10
59.972902521701144
 20
-70.463432435183677
 11
59.972902521701144
 21
-67.125905676410184
  0
ARC
  8
0
  6
CONTINUOUS
 62
3
 10
59.872902521701690
 20
-70.463432435183677
 40
0.100000000000364
 50
270.000000000000000
 51
0.000000000000000
  0
LINE
  8
0
  6
CONTINUOUS
 62
3
 10
59.972902521701144
 20
-195.796615502426900
 11
59.972902521701144
 21
-187.604801125329690
  0
ARC
  8
0
  6
CONTINUOUS
 62
3
 10
60.072902521701508
 20
-195.796615502426900
 40
0.100000000000364
 50
180.000000000000000
 51
270.000000000000000
  0
ARC
  8
0
  6
CONTINUOUS
 62
3
 10
59.872902521701690
 20
-187.604801125329690
 40
0.099999999999454
 50
0.000000000000000
 51
90.000000000000000
  0
LINE
  8
0
  6
CONTINUOUS
 62
3
 10
57.972902521701144
 20
-187.504801125329320
 11
59.872902521701690
 21
-187.504801125329320
  0
LINE
  8
0
  6
CONTINUOUS
 62
3
 10
56.972902521701144
 20
-185.396615502426360
 11
53.972902521701144
 21
-185.396615502426360
  0
ARC
  8
0
  6
CONTINUOUS
 62
3
 10
58.972902521701144
 20
-193.896615502426360
 40
2.000000000000266
 50
228.590377890720500
 51
270.000000000000000
  0
LINE
  8
0
  6
CONTINUOUS
 62
3
 10
58.972902521701144
 20
-195.896615502426360
 11
65.972902521702053
 21
-195.896615502426360
  0
LINE
  8
0
  6
CONTINUOUS
 62
3
 10
56.972902521701144
 20
-138.896615502426360
 11
56.972902521701144
 21
-186.504801125329320
  0
LINE
  8
0
  6
CONTINUOUS
 62
3
 10
231.855081884370630
 20
-101.896615502425100
 11
238.793851018351920
 21
-101.896615502425100
  0
LINE
  8
0
  6
CONTINUOUS
 62
3
 10
225.293851018352030
 20
-134.396615502424880
 11
225.293851018352030
 21
-129.396615502424880
  0
LINE
  8
0
  6
CONTINUOUS
 62
3
 10
225.293851018352030
 20
-134.396615502424880
 11
225.804267865869750
 21
-134.396615502424880
  0
LINE
  8
0
  6
CONTINUOUS
 62
3
 10
225.293851018352030
 20
-129.396615502424880
 11
225.804267865869750
 21
-129.396615502424880
  0
ARC
  8
0
  6
CONTINUOUS
 62
3
 10
525.793851018352030
 20
-131.896615502424880
 40
300.000000000000110
 50
175.138594604202010
 51
180.000000000000000
  0
ARC
  8
0
  6
CONTINUOUS
 62
3
 10
231.855081884370630
 20
-106.896615502425100
 40
5.000000000000000
 50
90.000000000000000
 51
175.138594604201610
  0
ARC
  8
0
  6
CONTINUOUS
 62
3
 10
231.855081884370630
 20
-156.896615502424880
 40
5.000000000000139
 50
184.861405395801000
 51
270.000000000000000
  0
LINE
  8
0
  6
CONTINUOUS
 62
3
 10
231.855081884370630
 20
-161.896615502424850
 11
238.793851018351920
 21
-161.896615502424850
  0
ARC
  8
0
  6
CONTINUOUS
 62
3
 10
525.793851018352030
 20
-131.896615502424880
 40
300.000000000000000
 50
180.000000000000000
 51
184.861405395798070
  0
LINE
  8
0
  6
CONTINUOUS
 62
3
 10
32.472902521700235
 20
-73.387887969963344
 11
53.972902521701144
 21
-73.012604074006376
  0
LINE
  8
0
  6
CONTINUOUS
 62
3
 10
32.472902521700235
 20
-131.896615502427270
 11
32.472902521700235
 21
-73.396615502427437
  0
LINE
  8
0
  6
CONTINUOUS
 62
3
 10
32.472902521701144
 20
-131.896615502427270
 11
32.472902521701144
 21
-182.551586635204960
  0
ENDSEC
  0
EOF
