  0
SECTION
  2
HEADER
  9
$FILLMODE
 70
1
  9
$TEXTSTYLE
  7
STANDARD1
  9
$ACADVER
  1
AC1009
  9
$DIMASZ
 40
1.931851648807023
  9
$DIMEXE
 40
2.000000000000000
  9
$DIMEXO
 40
1.000000000000000
  9
$DIMLFAC
 40
1.000000000000000
  9
$DIMSCALE
 40
1.000000000000000
  9
$DIMTAD
 70
1
  9
$DIMTFAC
 40
0.714285731315613
  9
$DIMTXT
 40
3.200000047683716
  9
$LUPREC
 70
3
  9
$TEXTSIZE
 40
3.299999952316284
  9
$REGENMODE
 70
1
  0
ENDSEC
  0
SECTION
  2
TABLES
  0
TABLE
  2
LTYPE
 70
4
  0
LTYPE
  2
CONTINUOUS
 70
64
  3
Solid line
 72
65
 73
0
 40
0.0
  0
LTYPE
  2
DASHED
 70
64
  3
-- -- -- -- -- -- -- -- -- -- -- -- -- -- --
 72
65
 73
2
 40
0.75
 49
0.5
 49
-0.25
  0
LTYPE
  2
DASHDOT
 70
64
  3
__ . __ . __ . __ . __ . __ . __ . __ . __ . __
 72
65
 73
4
 40
1.0
 49
0.5
 49
-0.25
 49
0.0
 49
-0.25
  0
LTYPE
  2
DIVIDE
 70
64
  3
__ . . __ . . __ . . __ . . __ . . __ . . __
 72
65
 73
6
 40
1.25
 49
0.5
 49
-0.25
 49
0.0
 49
-0.25
 49
0.0
 49
-0.25
  0
ENDTAB
  0
TABLE
  2
LAYER
 70
1
  0
LAYER
  2
0
 70
64
 62
2
  6
CONTINUOUS
  0
ENDTAB
  0
TABLE
  2
STYLE
 70
4
  0
STYLE
  2
STANDARD1
 70
64
 40
0.0
 41
1.0
 50
0.0
 71
0
 42
3.299999952316284
  3
MONOTXT
  4
BIGFONT
  0
STYLE
  2
STANDARD2
 70
68
 40
0.0
 41
1.0
 50
0.0
 71
0
 42
3.299999952316284
  3
MONOTXT
  4
BIGFONT
  0
STYLE
  2
STANDARD3
 70
64
 40
0.0
 41
1.0
 50
0.0
 71
0
 42
3.299999952316284
  3
MONOTXT
  4

  0
STYLE
  2
STANDARD4
 70
68
 40
0.0
 41
1.0
 50
0.0
 71
0
 42
3.299999952316284
  3
MONOTXT
  4

  0
ENDTAB
  0
TABLE
  2
VIEW
 70
0
  0
ENDTAB
  0
ENDSEC
  0
SECTION
  2
BLOCKS
  0
BLOCK
  8
0
  2
SYM1
 70
64
 10
0.000000000000000
 20
0.000000000000000
  0
ARC
  8
0
  6
CONTINUOUS
 62
3
 10
-0.979025304317474
 20
-2.200000762939453
 40
1.299999237060547
 50
196.601531107481040
 51
270.000000000000000
  0
ARC
  8
0
  6
CONTINUOUS
 62
3
 10
-0.979025304317474
 20
2.200000762939453
 40
1.299999237060547
 50
90.000000000000000
 51
163.398451589674950
  0
LINE
  8
0
  6
CONTINUOUS
 62
3
 10
-0.000000000000000
 20
-3.500000000000000
 11
-0.979025304317474
 21
-3.500000000000000
  0
LINE
  8
0
  6
CONTINUOUS
 62
3
 10
0.000000000000000
 20
3.500000000000000
 11
-0.979025304317474
 21
3.500000000000000
  0
LINE
  8
0
  6
CONTINUOUS
 62
3
 10
0.000000000000000
 20
-3.500000000000000
 11
-0.000000000000000
 21
3.500000000000000
  0
LINE
  8
0
  6
CONTINUOUS
 62
3
 10
0.000000000000000
 20
-3.500000000000000
 11
-0.000000000000000
 21
3.500000000000000
  0
POINT
  8
0
  6
CONTINUOUS
 62
3
 10
0.000000000000000
 20
0.000000000000000
  0
ARC
  8
0
  6
CONTINUOUS
 62
3
 10
6.399999618530273
 20
0.000000000000000
 40
9.000000000000000
 50
163.398451589674950
 51
196.601531107481040
  0
ENDBLK
  8
0
  0
ENDSEC
  0
SECTION
  2
ENTITIES
  0
LINE
  8
0
  6
CONTINUOUS
 62
3
 10
292.260447174743490
 20
-244.129988551092540
 11
390.743874734829320
 21
-244.129988551092540
  0
CIRCLE
  8
0
  6
CONTINUOUS
 62
3
 10
341.502160954786180
 20
-139.629988551092540
 40
85.000000000000000
  0
TEXT
  8
0
  6
CONTINUOUS
 62
3
 10
-368.490325927734380
 20
134.330612182617190
 40
10.295999526977539
  1
Ｓ１５２
 50
0.000002504478167
 41
0.984848625190477
  7
STANDARD1
  0
TEXT
  8
0
  6
CONTINUOUS
 62
3
 10
-368.490325927734380
 20
117.794609069824210
 40
10.295999526977539
  1
三菱ギヤードモートル
 50
0.000002504478167
 41
0.984848625190477
  7
STANDARD1
  0
TEXT
  8
0
  6
CONTINUOUS
 62
3
 10
-368.490325927734380
 20
101.258605957031250
 40
10.295999526977539
  1
ＧＭ－ＳＦＳ
 50
0.000002504478167
 41
0.984848625190477
  7
STANDARD1
  0
TEXT
  8
0
  6
CONTINUOUS
 62
3
 10
-368.490325927734380
 20
84.722602844238281
 40
10.295999526977539
  1
０．４ｋＷ
 50
0.000002504478167
 41
0.984848625190477
  7
STANDARD1
  0
TEXT
  8
0
  6
CONTINUOUS
 62
3
 10
-368.490325927734380
 20
68.186607360839844
 40
10.295999526977539
  1
１／６０～１／１００
 50
0.000002504478167
 41
0.984848625190477
  7
STANDARD1
  0
TEXT
  8
0
  6
CONTINUOUS
 62
3
 10
-368.490325927734380
 20
51.650604248046875
 40
10.295999526977539
  1
ＳＣＡＬＥ１／１
 50
0.000002504478167
 41
0.984848625190477
  7
STANDARD1
  0
LINE
  8
0
  6
CONTINUOUS
 62
3
 10
33.784513513994170
 20
101.999766099015680
 11
55.284513513977799
 21
101.999766099015680
  0
LINE
  8
0
  6
CONTINUOUS
 62
3
 10
33.784513513994170
 20
131.999766099015690
 11
55.284513513977799
 21
131.999766099015690
  0
ARC
  8
0
  6
CONTINUOUS
 62
3
 10
-305.342568854685000
 20
-149.903137395850540
 40
65.000000000000000
 50
12.684771122193345
 51
87.841596534959464
  0
ARC
  8
0
  6
CONTINUOUS
 62
3
 10
-319.842568854685230
 20
-534.629988551316500
 40
449.999999999999830
 50
87.841596534959393
 51
90.000000000000000
  0
ARC
  8
0
  6
CONTINUOUS
 62
3
 10
-319.842568854685000
 20
-534.629988551316500
 40
450.000000000000000
 50
90.000000000000000
 51
92.158403465040564
  0
ARC
  8
0
  6
CONTINUOUS
 62
3
 10
-334.342568854685230
 20
-149.903137395850540
 40
64.999999999999730
 50
92.158403465040337
 51
155.951883362998020
  0
ARC
  8
0
  6
CONTINUOUS
 62
3
 10
-319.842568854685230
 20
-165.629988551092540
 40
82.999999999999972
 50
203.257104416820250
 51
230.428105065559010
  0
ARC
  8
0
  6
CONTINUOUS
 62
3
 10
-319.842568854685230
 20
-165.629988551092540
 40
82.999999999999901
 50
309.642094265606600
 51
338.810986909002910
  0
LINE
  8
0
  6
CONTINUOUS
 62
3
 10
-115.215486486010490
 20
-206.629988551092540
 11
-115.215486486010490
 21
-225.629988551092540
  0
LINE
  8
0
  6
CONTINUOUS
 62
3
 10
60.284513513989396
 20
-170.629988551092540
 11
54.284513513989396
 21
-170.629988551092540
  0
LINE
  8
0
  6
CONTINUOUS
 62
3
 10
60.284513513989396
 20
-160.629988551092540
 11
54.284513513989396
 21
-160.629988551092540
  0
LINE
  8
0
  6
CONTINUOUS
 62
3
 10
54.284513513989396
 20
-170.629988551092540
 11
54.284513513989396
 21
-160.629988551092540
  0
LINE
  8
0
  6
CONTINUOUS
 62
3
 10
60.284513513979618
 20
79.999766099015687
 11
54.284513513979618
 21
79.999766099015687
  0
LINE
  8
0
  6
CONTINUOUS
 62
3
 10
60.284513513979618
 20
69.999766099015687
 11
54.284513513979618
 21
69.999766099015687
  0
LINE
  8
0
  6
CONTINUOUS
 62
3
 10
54.284513513979618
 20
79.999766099015687
 11
54.284513513979618
 21
69.999766099015687
  0
LINE
  8
0
  6
CONTINUOUS
 62
3
 10
60.284513513979618
 20
153.999766099017510
 11
54.284513513979618
 21
153.999766099017510
  0
LINE
  8
0
  6
CONTINUOUS
 62
3
 10
60.284513513979618
 20
163.999766099017510
 11
54.284513513979618
 21
163.999766099017510
  0
LINE
  8
0
  6
CONTINUOUS
 62
3
 10
54.284513513979618
 20
153.999766099017510
 11
54.284513513979618
 21
163.999766099017510
  0
LINE
  8
0
  6
DASHDOT
 62
4
 10
-319.842568854685280
 20
-30.279848518104700
 11
-319.842568854685280
 21
-256.092405026076450
  0
LINE
  8
0
  6
DASHDOT
 62
4
 10
-339.568588474183680
 20
-139.629988551092540
 11
-298.942295016095500
 21
-139.629988551092540
  0
ARC
  8
0
  6
CONTINUOUS
 62
3
 10
-260.092045844421700
 20
-112.950533352694940
 40
2.999999999999864
 50
45.000000000000000
 51
135.000000000000000
  0
ARC
  8
0
  6
CONTINUOUS
 62
3
 10
-267.163113656287240
 20
-105.879465540829640
 40
2.999999999999864
 50
315.000000000000000
 51
45.000000000000000
  0
ARC
  8
0
  6
CONTINUOUS
 62
3
 10
-379.593091864948860
 20
-112.950533352694940
 40
2.999999999999944
 50
44.999999999998472
 51
135.000000000001530
  0
ARC
  8
0
  6
CONTINUOUS
 62
3
 10
-372.522024053083330
 20
-105.879465540829640
 40
3.000000000000185
 50
135.000000000000000
 51
224.999999999998470
  0
ARC
  8
0
  6
CONTINUOUS
 62
3
 10
-379.593091864948860
 20
-218.309443749489900
 40
3.000000000000105
 50
225.000000000001530
 51
314.999999999998470
  0
ARC
  8
0
  6
CONTINUOUS
 62
3
 10
-372.522024053083330
 20
-225.380511561355430
 40
2.999999999999944
 50
135.000000000001530
 51
224.999999999996960
  0
ARC
  8
0
  6
CONTINUOUS
 62
3
 10
-260.092045844421700
 20
-218.309443749489900
 40
3.000000000000185
 50
225.000000000000000
 51
315.000000000000000
  0
ARC
  8
0
  6
CONTINUOUS
 62
3
 10
-267.163113656287240
 20
-225.380511561355430
 40
3.000000000000024
 50
315.000000000003070
 51
45.000000000000000
  0
ARC
  8
0
  6
CONTINUOUS
 62
3
 10
-376.539658969957260
 20
-234.233486803446340
 40
5.999999999999958
 50
348.059665094244110
 51
50.428105065558938
  0
ARC
  8
0
  6
CONTINUOUS
 62
3
 10
-362.842568854685280
 20
-237.129988551092540
 40
7.999999999999997
 50
168.059665094243630
 51
223.432536557789920
  0
ARC
  8
0
  6
CONTINUOUS
 62
3
 10
-276.842568854685280
 20
-237.129988551092540
 40
7.999999999999977
 50
316.567463442210060
 51
11.940334905756542
  0
ARC
  8
0
  6
CONTINUOUS
 62
3
 10
-263.145478739413310
 20
-234.233486803446340
 40
5.999999999999855
 50
129.571894934441050
 51
191.940334905755690
  0
ARC
  8
0
  6
CONTINUOUS
 62
3
 10
-349.842568854685280
 20
-91.939786906079917
 40
4.999999999999904
 50
104.971190995949040
 51
180.000000000000000
  0
LINE
  8
0
  6
CONTINUOUS
 62
3
 10
-354.842568854685280
 20
-91.939786906079917
 11
-354.842568854685280
 21
-99.629988551092538
  0
ARC
  8
0
  6
CONTINUOUS
 62
3
 10
-361.842568854685280
 20
-99.629988551092538
 40
7.000000000000041
 50
201.479465819260380
 51
0.000000000000000
  0
ARC
  8
0
  6
CONTINUOUS
 62
3
 10
-373.009155153778810
 20
-104.024001571657660
 40
4.999999999999919
 50
21.479465819263282
 51
130.123934227061850
  0
ARC
  8
0
  6
CONTINUOUS
 62
3
 10
-368.611870165787650
 20
-226.607861276548190
 40
4.999999999999835
 50
223.887028754552180
 51
298.736037863438240
  0
ARC
  8
0
  6
CONTINUOUS
 62
3
 10
-289.842568854685280
 20
-91.939786906079917
 40
5.000000000000000
 50
0.000000000000000
 51
75.028809004050956
  0
LINE
  8
0
  6
CONTINUOUS
 62
3
 10
-284.842568854685280
 20
-91.939786906079917
 11
-284.842568854685280
 21
-99.629988551092538
  0
ARC
  8
0
  6
CONTINUOUS
 62
3
 10
-277.842568854685280
 20
-99.629988551092538
 40
7.000000000000000
 50
180.000000000000000
 51
338.520534180739620
  0
ARC
  8
0
  6
CONTINUOUS
 62
3
 10
-266.675982555591760
 20
-104.024001571657660
 40
5.000000000000052
 50
49.876065772938119
 51
158.520534180736720
  0
ARC
  8
0
  6
CONTINUOUS
 62
3
 10
-271.073267543582800
 20
-226.607861276548190
 40
5.000000000000031
 50
241.263962136560650
 51
316.112971245446890
  0
ARC
  8
0
  6
CONTINUOUS
 62
3
 10
-276.842568854685280
 20
-237.129988551092540
 40
6.999999999999920
 50
61.263962136560927
 51
180.000000000000000
  0
LINE
  8
0
  6
CONTINUOUS
 62
3
 10
-404.842568854685400
 20
-44.629988551092538
 11
-234.842568854685280
 21
-44.629988551092765
  0
LINE
  8
0
  6
CONTINUOUS
 62
3
 10
-224.842568854685280
 20
-54.629988551092765
 11
-224.842568854685280
 21
-224.629988551092770
  0
LINE
  8
0
  6
CONTINUOUS
 62
3
 10
-269.132363268457880
 20
-234.629988551092770
 11
-234.842568854685280
 21
-234.629988551092770
  0
LINE
  8
0
  6
CONTINUOUS
 62
3
 10
-404.842568854685400
 20
-234.629988551092540
 11
-370.552774440912910
 21
-234.629988551092540
  0
LINE
  8
0
  6
CONTINUOUS
 62
3
 10
-322.342568854685280
 20
-50.129988551092652
 11
-322.342568854685280
 21
-81.663378302834644
  0
LINE
  8
0
  6
CONTINUOUS
 62
3
 10
-371.050209725983340
 20
-91.957881585727364
 11
-384.896392723847610
 21
-78.111698587862975
  0
LINE
  8
0
  6
CONTINUOUS
 62
3
 10
-274.251989679633310
 20
-90.503875470107801
 11
-258.324278891455720
 21
-74.576164681930209
  0
ARC
  8
0
  6
CONTINUOUS
 62
3
 10
-376.539658969957370
 20
-234.233486803446340
 40
6.000000000000070
 50
348.059665094244340
 51
50.428105065558100
  0
ARC
  8
0
  6
CONTINUOUS
 62
3
 10
-263.145478739413080
 20
-234.233486803446340
 40
6.000000000000001
 50
129.571894934442720
 51
191.940334905755690
  0
ARC
  8
0
  6
CONTINUOUS
 62
3
 10
-362.842568854685280
 20
-237.129988551092540
 40
7.999999999999997
 50
168.059665094243630
 51
223.432536557789920
  0
ARC
  8
0
  6
CONTINUOUS
 62
3
 10
-276.842568854685280
 20
-237.129988551092540
 40
8.000000000000142
 50
316.567463442211190
 51
11.940334905756204
  0
ARC
  8
0
  6
CONTINUOUS
 62
3
 10
-363.311827686177480
 20
-88.382555126548368
 40
3.000000000000024
 50
225.000000000000000
 51
295.215148958216560
  0
ARC
  8
0
  6
CONTINUOUS
 62
3
 10
-373.171530069543000
 20
-94.079201929287024
 40
2.999999999999977
 50
304.820974823218140
 51
45.000000000000000
  0
ARC
  8
0
  6
CONTINUOUS
 62
3
 10
-276.373310023193080
 20
-88.382555126548141
 40
3.000000000000029
 50
244.784851041784350
 51
315.000000000001530
  0
ARC
  8
0
  6
CONTINUOUS
 62
3
 10
-266.513607639827680
 20
-94.079201929286796
 40
2.999999999999864
 50
135.000000000000000
 51
235.179025176783090
  0
ARC
  8
0
  6
CONTINUOUS
 62
3
 10
-404.842568854685400
 20
-54.629988551092538
 40
10.000000000000000
 50
90.000000000000000
 51
180.000000000000000
  0
CIRCLE
  8
0
  6
CONTINUOUS
 62
3
 10
-402.927615644104660
 20
-56.544941761673272
 40
6.000000000000000
  0
ARC
  8
0
  6
CONTINUOUS
 62
3
 10
-234.842568854685280
 20
-54.629988551092765
 40
10.000000000000000
 50
0.000000000000000
 51
90.000000000000000
  0
CIRCLE
  8
0
  6
CONTINUOUS
 62
3
 10
-236.757522065266020
 20
-56.544941761673272
 40
6.000000000000000
  0
ARC
  8
0
  6
CONTINUOUS
 62
3
 10
-234.842568854685280
 20
-224.629988551092770
 40
10.000000000000000
 50
270.000000000000000
 51
0.000000000000000
  0
ARC
  8
0
  6
CONTINUOUS
 62
3
 10
-404.842568854685400
 20
-224.629988551092540
 40
10.000000000000000
 50
180.000000000000000
 51
270.000000000000000
  0
CIRCLE
  8
0
  6
CONTINUOUS
 62
3
 10
-236.757522065266470
 20
-222.715035340512030
 40
6.000000000000000
  0
CIRCLE
  8
0
  6
CONTINUOUS
 62
3
 10
-402.927615644104210
 20
-222.715035340512030
 40
6.000000000000000
  0
ARC
  8
0
  6
CONTINUOUS
 62
3
 10
-325.342568854685280
 20
-81.663378302834644
 40
3.000000000000050
 50
270.695661214153010
 51
0.000000000000000
  0
ARC
  8
0
  6
CONTINUOUS
 62
3
 10
-314.342568854685280
 20
-81.663378302834644
 40
3.000000000000000
 50
180.000000000000000
 51
269.304338785844830
  0
ARC
  8
0
  6
CONTINUOUS
 62
3
 10
-260.445599235015270
 20
-72.454844338370663
 40
2.999999999999944
 50
314.999999999998470
 51
45.000000000001542
  0
ARC
  8
0
  6
CONTINUOUS
 62
3
 10
-252.667424641963290
 20
-80.233018931422635
 40
2.999999999999944
 50
45.000000000001542
 51
134.999999999998470
  0
LINE
  8
0
  6
CONTINUOUS
 62
3
 10
-268.634927983387230
 20
-91.957881585727250
 11
-254.788744985523070
 21
-78.111698587862975
  0
ARC
  8
0
  6
CONTINUOUS
 62
3
 10
-314.342568854685280
 20
-50.129988551092652
 40
3.000000000000000
 50
90.000000000000000
 51
180.000000000000000
  0
LINE
  8
0
  6
CONTINUOUS
 62
3
 10
-317.342568854685280
 20
-50.129988551092652
 11
-317.342568854685280
 21
-81.663378302834644
  0
ARC
  8
0
  6
CONTINUOUS
 62
3
 10
-325.342568854685280
 20
-50.129988551092652
 40
3.000000000000000
 50
0.000000000000000
 51
90.000000000000000
  0
ARC
  8
0
  6
CONTINUOUS
 62
3
 10
-379.239538474355190
 20
-72.454844338370663
 40
3.000000000000024
 50
135.000000000000000
 51
225.000000000000000
  0
ARC
  8
0
  6
CONTINUOUS
 62
3
 10
-387.017713067407270
 20
-80.233018931422635
 40
3.000000000000024
 50
45.000000000000000
 51
135.000000000000000
  0
LINE
  8
0
  6
CONTINUOUS
 62
3
 10
-365.433148029737140
 20
-90.503875470108028
 11
-381.360858817914850
 21
-74.576164681930322
  0
LINE
  8
0
  6
DASHDOT
 62
4
 10
-395.149441051052120
 20
-214.936860747459830
 11
-410.705790237156070
 21
-230.493209933563780
  0
ARC
  8
0
  6
DASHDOT
 62
4
 10
-319.842568854685280
 20
-139.629988551092540
 40
117.499999999999850
 50
218.996974996309970
 51
230.364178174484010
  0
ARC
  8
0
  6
DASHDOT
 62
4
 10
-319.842568854685280
 20
-139.629988551092540
 40
117.499999999999780
 50
129.635821825516160
 51
140.364178174483360
  0
LINE
  8
0
  6
DASHDOT
 62
4
 10
-394.958946253278210
 20
-64.513611152499266
 11
-410.906297297744000
 21
-48.566260108033305
  0
ARC
  8
0
  6
DASHDOT
 62
4
 10
-319.842568854685280
 20
-139.629988551092540
 40
117.499999999999820
 50
39.471407252435732
 51
50.364178174483833
  0
LINE
  8
0
  6
DASHDOT
 62
4
 10
-245.929761884007350
 20
-65.717181580414490
 11
-228.979347472214040
 21
-48.766767168621300
  0
ARC
  8
0
  6
DASHDOT
 62
4
 10
-319.842568854685280
 20
-139.629988551092540
 40
117.499999999999500
 50
309.635821825515960
 51
320.364178174483360
  0
LINE
  8
0
  6
DASHDOT
 62
4
 10
-245.625754243669120
 20
-213.846803162109720
 11
-228.835674367070620
 21
-230.636883038708450
  0
INSERT
  8
0
  2
SYM1
 10
-407.287391061028640
 20
-206.548945162352990
 41
1.000000000000000
 42
1.000000000000000
 43
1.000000000000000
 50
357.137594773886350
  0
ARC
  8
0
  6
CONTINUOUS
 62
4
 10
-319.842568854685280
 20
-406.229988551092450
 40
289.396999999999930
 50
90.000000000000000
 51
97.897988672427743
  0
ARC
  8
0
  6
CONTINUOUS
 62
4
 10
-358.784086810067380
 20
-125.521211010505790
 40
5.999999999999923
 50
97.897988672425626
 51
134.999999999996930
  0
LINE
  8
0
  6
CONTINUOUS
 62
4
 10
-363.026727497186470
 20
-121.278570323386240
 11
-367.602792889825080
 21
-125.854635716024850
  0
ARC
  8
0
  6
CONTINUOUS
 62
4
 10
-84.242568854685373
 20
-165.629988551092540
 40
289.396999999999930
 50
173.948014641331470
 51
180.000000000000000
  0
LINE
  8
0
  6
CONTINUOUS
 62
3
 10
-256.497573914144250
 20
-197.129988551092540
 11
-256.342568854685280
 21
-197.129988551092540
  0
LINE
  8
0
  6
CONTINUOUS
 62
3
 10
-256.342568854685280
 20
-135.637489488825620
 11
-256.342568854685280
 21
-134.129988551092310
  0
LINE
  8
0
  6
CONTINUOUS
 62
3
 10
-256.342568854685280
 20
-197.129988551092540
 11
-256.342568854685280
 21
-195.622487613359230
  0
LINE
  8
0
  6
CONTINUOUS
 62
3
 10
-232.903799720703890
 20
-135.629988551092310
 11
-256.343321112401440
 21
-135.629988551092310
  0
LINE
  8
0
  6
CONTINUOUS
 62
3
 10
-256.497573914144250
 20
-134.129988551092310
 11
-256.342568854685280
 21
-134.129988551092310
  0
LINE
  8
0
  6
CONTINUOUS
 62
3
 10
-226.342568854685280
 20
-168.129988551092080
 11
-226.342568854685280
 21
-163.129988551092080
  0
LINE
  8
0
  6
CONTINUOUS
 62
3
 10
-226.342568854685280
 20
-168.129988551092080
 11
-226.852985702203000
 21
-168.129988551092080
  0
LINE
  8
0
  6
CONTINUOUS
 62
3
 10
-226.342568854685280
 20
-163.129988551092080
 11
-226.852985702203000
 21
-163.129988551092080
  0
ARC
  8
0
  6
CONTINUOUS
 62
3
 10
-526.842568854685280
 20
-165.629988551092080
 40
300.000000000000000
 50
0.000000000000000
 51
4.861405395797992
  0
ARC
  8
0
  6
CONTINUOUS
 62
3
 10
-232.903799720703890
 20
-140.629988551092310
 40
5.000000000000119
 50
4.861405395798401
 51
90.000000000000000
  0
ARC
  8
0
  6
CONTINUOUS
 62
3
 10
-232.903799720703890
 20
-190.629988551092080
 40
5.000000000000000
 50
270.000000000000000
 51
355.138594604199000
  0
LINE
  8
0
  6
CONTINUOUS
 62
3
 10
-232.903799720703890
 20
-195.629988551092080
 11
-256.342568854685280
 21
-195.629988551092080
  0
ARC
  8
0
  6
CONTINUOUS
 62
3
 10
-526.842568854685280
 20
-165.629988551092080
 40
300.000000000000170
 50
355.138594604201900
 51
0.000000000000000
  0
ARC
  8
0
  6
CONTINUOUS
 62
3
 10
-363.791156284967770
 20
-115.533374083564240
 40
6.599999999999971
 50
98.597082237248614
 51
134.999999999998610
  0
ARC
  8
0
  6
CONTINUOUS
 62
3
 10
-323.842568854685280
 20
-136.907175318402100
 40
1.499999999999998
 50
277.928141766204020
 51
0.000000000000000
  0
ARC
  8
0
  6
CONTINUOUS
 62
3
 10
-319.842568854684830
 20
-165.629988551092540
 40
33.499999999999950
 50
97.180755781459069
 51
142.819244218541740
  0
ARC
  8
0
  6
CONTINUOUS
 62
3
 10
-319.842568854684830
 20
-165.629988551092540
 40
43.000000000000043
 50
95.531071524839788
 51
144.468928475160770
  0
ARC
  8
0
  6
CONTINUOUS
 62
3
 10
-319.842568854684830
 20
-165.629988551092540
 40
37.000000000000099
 50
95.963570118321798
 51
144.036429881678830
  0
ARC
  8
0
  6
CONTINUOUS
 62
3
 10
-342.717254782351010
 20
-147.804480319609410
 40
1.499999999999926
 50
239.999999999998410
 51
322.071858233800300
  0
ARC
  8
0
  6
CONTINUOUS
 62
3
 10
-345.338023024419840
 20
-146.291379069567260
 40
1.500000000000103
 50
142.819244218542510
 51
239.999999999998410
  0
ARC
  8
0
  6
CONTINUOUS
 62
3
 10
-351.004105308836070
 20
-143.020064937408960
 40
1.500000000000123
 50
240.000000000002730
 51
324.036429881683720
  0
LINE
  8
0
  6
CONTINUOUS
 62
3
 10
-343.467254782351010
 20
-149.103518425285980
 11
-346.088023024419840
 21
-147.590417175243830
  0
LINE
  8
0
  6
CONTINUOUS
 62
3
 10
-351.754105308836070
 20
-144.319103043085760
 11
-354.365288907820170
 21
-142.811535489308650
  0
ARC
  8
0
  6
CONTINUOUS
 62
3
 10
-353.615288907820170
 20
-141.512497383631850
 40
1.499999999999976
 50
144.468928475160790
 51
240.000000000002730
  0
ARC
  8
0
  6
CONTINUOUS
 62
3
 10
-349.338023024420290
 20
-178.040394802342230
 40
1.500000000000157
 50
202.819244218546660
 51
300.000000000001590
  0
LINE
  8
0
  6
CONTINUOUS
 62
3
 10
-348.588023024420290
 20
-179.339432908018810
 11
-345.967254782351010
 21
-177.826331657976880
  0
ARC
  8
0
  6
CONTINUOUS
 62
3
 10
-355.004105308836530
 20
-181.311708934500530
 40
1.499999999999926
 50
300.000000000001590
 51
24.036429881677126
  0
LINE
  8
0
  6
CONTINUOUS
 62
3
 10
-356.865288907820630
 20
-184.118314593954440
 11
-354.254105308836530
 21
-182.610747040177100
  0
ARC
  8
0
  6
CONTINUOUS
 62
3
 10
-357.615288907820630
 20
-182.819276488277410
 40
1.500000000000128
 50
204.468928475167470
 51
299.999999999992950
  0
ARC
  8
0
  6
CONTINUOUS
 62
3
 10
-346.717254782351010
 20
-176.527293552299850
 40
1.500000000000320
 50
299.999999999992950
 51
22.071858233784546
  0
ARC
  8
0
  6
CONTINUOUS
 62
3
 10
-319.842568854685060
 20
-165.629988551092990
 40
33.499999999999794
 50
157.180755781458400
 51
202.819244218540940
  0
ARC
  8
0
  6
CONTINUOUS
 62
3
 10
-319.842568854685060
 20
-165.629988551092990
 40
43.000000000000121
 50
155.531071524839230
 51
204.468928475160200
  0
ARC
  8
0
  6
CONTINUOUS
 62
3
 10
-319.842568854685060
 20
-165.629988551092990
 40
37.000000000000156
 50
155.963570118321120
 51
204.036429881678230
  0
ARC
  8
0
  6
CONTINUOUS
 62
3
 10
-319.842568854685740
 20
-165.629988551092540
 40
27.499999999999886
 50
157.928141766202200
 51
202.071858233798680
  0
ARC
  8
0
  6
CONTINUOUS
 62
3
 10
-346.717254782351230
 20
-154.732683549885220
 40
1.500000000000110
 50
337.928141766202600
 51
59.999999999998380
  0
ARC
  8
0
  6
CONTINUOUS
 62
3
 10
-349.338023024420070
 20
-153.219582299843300
 40
1.500000000000123
 50
60.000000000002721
 51
157.180755781457980
  0
ARC
  8
0
  6
CONTINUOUS
 62
3
 10
-355.004105308836300
 20
-149.948268167685000
 40
1.499999999999855
 50
335.963570118319300
 51
59.999999999990862
  0
LINE
  8
0
  6
CONTINUOUS
 62
3
 10
-345.967254782351230
 20
-153.433645444208650
 11
-348.588023024420070
 21
-151.920544194166500
  0
LINE
  8
0
  6
CONTINUOUS
 62
3
 10
-354.254105308836070
 20
-148.649230062008430
 11
-356.865288907820630
 21
-147.141662508231320
  0
ARC
  8
0
  6
CONTINUOUS
 62
3
 10
-357.615288907820630
 20
-148.440700613907890
 40
1.499999999999926
 50
59.999999999998380
 51
155.531071524840400
  0
ARC
  8
0
  6
CONTINUOUS
 62
3
 10
-345.338023024420290
 20
-184.968598032617590
 40
1.499999999999926
 50
120.000000000001620
 51
217.180755781464400
  0
LINE
  8
0
  6
CONTINUOUS
 62
3
 10
-346.088023024420290
 20
-183.669559926941020
 11
-343.467254782351010
 21
-182.156458676898640
  0
ARC
  8
0
  6
CONTINUOUS
 62
3
 10
-351.004105308836530
 20
-188.239912164775890
 40
1.499999999999968
 50
35.963570118309242
 51
120.000000000001620
  0
LINE
  8
0
  6
CONTINUOUS
 62
3
 10
-354.365288907820630
 20
-188.448441612876650
 11
-351.754105308836530
 21
-186.940874059099310
  0
ARC
  8
0
  6
CONTINUOUS
 62
3
 10
-353.615288907820630
 20
-189.747479718553220
 40
1.499999999999926
 50
120.000000000001620
 51
215.531071524832130
  0
ARC
  8
0
  6
CONTINUOUS
 62
3
 10
-342.717254782351010
 20
-183.455496782575660
 40
1.500000000000122
 50
37.928141766218701
 51
119.999999999992930
  0
ARC
  8
0
  6
CONTINUOUS
 62
3
 10
-319.842568854685510
 20
-165.629988551092080
 40
33.500000000000163
 50
217.180755781459110
 51
262.819244218541770
  0
ARC
  8
0
  6
CONTINUOUS
 62
3
 10
-319.842568854685510
 20
-165.629988551092080
 40
42.999999999999858
 50
215.531071524839690
 51
264.468928475160850
  0
ARC
  8
0
  6
CONTINUOUS
 62
3
 10
-319.842568854685510
 20
-165.629988551092080
 40
37.000000000000021
 50
215.963570118321970
 51
264.036429881678940
  0
ARC
  8
0
  6
CONTINUOUS
 62
3
 10
-319.842568854685510
 20
-165.629988551092990
 40
27.499999999999780
 50
217.928141766201070
 51
262.071858233797400
  0
ARC
  8
0
  6
CONTINUOUS
 62
3
 10
-323.842568854685510
 20
-194.352801783782980
 40
1.500000000000000
 50
0.000000000000000
 51
82.071858233804562
  0
ARC
  8
0
  6
CONTINUOUS
 62
3
 10
-323.842568854685510
 20
-197.379004283867290
 40
1.499999999999998
 50
262.819244218541710
 51
0.000000000000000
  0
ARC
  8
0
  6
CONTINUOUS
 62
3
 10
-323.842568854685510
 20
-203.921632548183880
 40
1.500000000000000
 50
0.000000000017370
 51
84.036429881682594
  0
LINE
  8
0
  6
CONTINUOUS
 62
3
 10
-322.342568854685510
 20
-194.352801783782980
 11
-322.342568854685510
 21
-197.379004283867290
  0
LINE
  8
0
  6
CONTINUOUS
 62
3
 10
-322.342568854685510
 20
-203.921632548183420
 11
-322.342568854685510
 21
-206.936767655737640
  0
ARC
  8
0
  6
CONTINUOUS
 62
3
 10
-323.842568854685510
 20
-206.936767655737640
 40
1.500000000000430
 50
264.468928475160000
 51
0.000000000000000
  0
ARC
  8
0
  6
CONTINUOUS
 62
3
 10
-294.347114684950270
 20
-184.968598032617590
 40
1.500000000000240
 50
322.819244218535570
 51
59.999999999998380
  0
LINE
  8
0
  6
CONTINUOUS
 62
3
 10
-293.597114684950270
 20
-183.669559926941020
 11
-296.217882927019560
 21
-182.156458676898640
  0
ARC
  8
0
  6
CONTINUOUS
 62
3
 10
-288.681032400534040
 20
-188.239912164775890
 40
1.499999999999926
 50
59.999999999998380
 51
144.036429881690740
  0
ARC
  8
0
  6
CONTINUOUS
 62
3
 10
-296.967882927019560
 20
-183.455496782575660
 40
1.500000000000320
 50
60.000000000007070
 51
142.071858233781280
  0
ARC
  8
0
  6
CONTINUOUS
 62
3
 10
-319.842568854685060
 20
-165.629988551092080
 40
33.500000000000114
 50
277.180755781458230
 51
322.819244218540860
  0
ARC
  8
0
  6
CONTINUOUS
 62
3
 10
-319.842568854685060
 20
-165.629988551092080
 40
43.000000000000199
 50
275.531071524838860
 51
324.468928475160340
  0
ARC
  8
0
  6
CONTINUOUS
 62
3
 10
-319.842568854685060
 20
-165.629988551092080
 40
37.000000000000028
 50
275.963570118320770
 51
324.036429881678030
  0
ARC
  8
0
  6
CONTINUOUS
 62
3
 10
-319.842568854685060
 20
-165.629988551092990
 40
27.499999999999879
 50
277.928141766202600
 51
322.071858233798930
  0
ARC
  8
0
  6
CONTINUOUS
 62
3
 10
-315.842568854685060
 20
-194.352801783782980
 40
1.499999999999967
 50
97.928141766195438
 51
180.000000000000000
  0
ARC
  8
0
  6
CONTINUOUS
 62
3
 10
-315.842568854685060
 20
-197.379004283867290
 40
1.500000000000000
 50
180.000000000000000
 51
277.180755781458290
  0
ARC
  8
0
  6
CONTINUOUS
 62
3
 10
-315.842568854685060
 20
-203.921632548183880
 40
1.500000000000182
 50
95.963570118326047
 51
179.999999999982630
  0
LINE
  8
0
  6
CONTINUOUS
 62
3
 10
-317.342568854685060
 20
-194.352801783782980
 11
-317.342568854685060
 21
-197.379004283867290
  0
LINE
  8
0
  6
CONTINUOUS
 62
3
 10
-317.342568854685060
 20
-203.921632548183420
 11
-317.342568854685060
 21
-206.936767655737640
  0
ARC
  8
0
  6
CONTINUOUS
 62
3
 10
-315.842568854685060
 20
-206.936767655737640
 40
1.500000000000000
 50
180.000000000000000
 51
275.531071524831360
  0
ARC
  8
0
  6
CONTINUOUS
 62
3
 10
-290.347114684950270
 20
-178.040394802342230
 40
1.499999999999926
 50
239.999999999998410
 51
337.180755781453340
  0
LINE
  8
0
  6
CONTINUOUS
 62
3
 10
-291.097114684950270
 20
-179.339432908018810
 11
-293.717882927019560
 21
-177.826331657976880
  0
ARC
  8
0
  6
CONTINUOUS
 62
3
 10
-292.967882927019560
 20
-176.527293552299850
 40
1.499999999999899
 50
157.928141766199360
 51
240.000000000007050
  0
ARC
  8
0
  6
CONTINUOUS
 62
3
 10
-319.842568854685510
 20
-165.629988551092990
 40
33.500000000000128
 50
337.180755781459030
 51
22.819244218541968
  0
ARC
  8
0
  6
CONTINUOUS
 62
3
 10
-319.842568854684830
 20
-165.629988551092540
 40
27.499999999999886
 50
337.928141766202200
 51
22.071858233797812
  0
ARC
  8
0
  6
CONTINUOUS
 62
3
 10
-292.967882927019330
 20
-154.732683549885220
 40
1.499999999999926
 50
120.000000000001620
 51
202.071858233797370
  0
ARC
  8
0
  6
CONTINUOUS
 62
3
 10
-290.347114684950500
 20
-153.219582299843300
 40
1.499999999999948
 50
22.819244218550043
 51
119.999999999997270
  0
LINE
  8
0
  6
CONTINUOUS
 62
3
 10
-293.717882927019330
 20
-153.433645444208650
 11
-291.097114684950500
 21
-151.920544194166500
  0
ARC
  8
0
  6
CONTINUOUS
 62
3
 10
-319.842568854685740
 20
-165.629988551092540
 40
33.500000000000071
 50
37.180755781458259
 51
82.819244218540931
  0
ARC
  8
0
  6
CONTINUOUS
 62
3
 10
-319.842568854685740
 20
-165.629988551092540
 40
36.999999999999943
 50
35.963570118321194
 51
84.036429881678174
  0
ARC
  8
0
  6
CONTINUOUS
 62
3
 10
-288.681032400534490
 20
-143.020064937408960
 40
1.500000000000102
 50
215.963570118316280
 51
299.999999999997270
  0
ARC
  8
0
  6
CONTINUOUS
 62
3
 10
-294.347114684950720
 20
-146.291379069567260
 40
1.499999999999926
 50
300.000000000001590
 51
37.180755781457485
  0
ARC
  8
0
  6
CONTINUOUS
 62
3
 10
-319.842568854685060
 20
-165.629988551092080
 40
27.500000000000060
 50
37.928141766201819
 51
82.071858233798309
  0
ARC
  8
0
  6
CONTINUOUS
 62
3
 10
-315.842568854685280
 20
-136.907175318402100
 40
1.500000000000000
 50
180.000000000000000
 51
262.071858233795980
  0
LINE
  8
0
  6
CONTINUOUS
 62
3
 10
-296.217882927019560
 20
-149.103518425285980
 11
-293.597114684950720
 21
-147.590417175243830
  0
ARC
  8
0
  6
CONTINUOUS
 62
3
 10
-296.967882927019560
 20
-147.804480319609410
 40
1.499999999999843
 50
217.928141766204990
 51
300.000000000001590
  0
CIRCLE
  8
0
  6
CONTINUOUS
 62
3
 10
-319.842568854685280
 20
-165.629988551092080
 40
5.000000000000000
  0
ARC
  8
0
  6
CONTINUOUS
 62
3
 10
-313.905314921491370
 20
-157.583311240998680
 40
1.499999999999693
 50
233.578178478195410
 51
300.000000000001590
  0
ARC
  8
0
  6
CONTINUOUS
 62
3
 10
-315.842568854685280
 20
-156.464837161180180
 40
1.500000000000000
 50
180.000000000000000
 51
246.421821521804280
  0
ARC
  8
0
  6
CONTINUOUS
 62
3
 10
-302.667389585640540
 20
-151.095092023212150
 40
1.499999999999926
 50
300.000000000001590
 51
40.240348321182964
  0
ARC
  8
0
  6
CONTINUOUS
 62
3
 10
-315.842568854685280
 20
-153.260671674239120
 40
1.500000000000138
 50
72.079786860605225
 51
180.000000000000000
  0
ARC
  8
0
  6
CONTINUOUS
 62
3
 10
-315.842568854685280
 20
-146.544653867099900
 40
1.500000000000000
 50
180.000000000000000
 51
258.162995844103310
  0
ARC
  8
0
  6
CONTINUOUS
 62
3
 10
-305.314184178619480
 20
-152.623219593958310
 40
1.499999999999967
 50
221.837004155893280
 51
300.000000000001590
  0
ARC
  8
0
  6
CONTINUOUS
 62
3
 10
-315.842568854685280
 20
-143.488398725607570
 40
1.499999999999952
 50
79.759651678814024
 51
180.000000000000000
  0
ARC
  8
0
  6
CONTINUOUS
 62
3
 10
-311.130426211870940
 20
-155.981228497527810
 40
1.499999999999926
 50
300.000000000001590
 51
47.920213139381872
  0
LINE
  8
0
  6
CONTINUOUS
 62
3
 10
-304.564184178619480
 20
-153.922257699634880
 11
-301.917389585640540
 21
-152.394130128888720
  0
ARC
  8
0
  6
CONTINUOUS
 62
3
 10
-319.842568854685060
 20
-165.629988551092080
 40
14.499999999999860
 50
47.920213139391755
 51
72.079786860608309
  0
LINE
  8
0
  6
CONTINUOUS
 62
3
 10
-317.342568854685280
 20
-153.260671674239120
 11
-317.342568854685280
 21
-156.464837161180180
  0
LINE
  8
0
  6
CONTINUOUS
 62
3
 10
-317.342568854685280
 20
-143.488398725607570
 11
-317.342568854685280
 21
-146.544653867099900
  0
LINE
  8
0
  6
CONTINUOUS
 62
3
 10
-313.155314921491370
 20
-158.882349346675260
 11
-310.380426211870940
 21
-157.280266603204380
  0
ARC
  8
0
  6
CONTINUOUS
 62
3
 10
-319.842568854685060
 20
-165.629988551092080
 40
23.999999999999819
 50
40.240348321186090
 51
79.759651678814322
  0
ARC
  8
0
  6
CONTINUOUS
 62
3
 10
-319.842568854685060
 20
-165.629988551092080
 40
8.500000000000101
 50
53.578178478202659
 51
66.421821521799089
  0
ARC
  8
0
  6
CONTINUOUS
 62
3
 10
-307.130426211870940
 20
-168.350545374381000
 40
1.499999999999926
 50
239.999999999998410
 51
347.920213139390400
  0
LINE
  8
0
  6
CONTINUOUS
 62
3
 10
-307.880426211870940
 20
-169.649583480057570
 11
-310.655314921491370
 21
-168.047500736587150
  0
ARC
  8
0
  6
CONTINUOUS
 62
3
 10
-309.905314921491370
 20
-166.748462630910580
 40
1.500000000000099
 50
173.578178478198990
 51
239.999999999998410
  0
ARC
  8
0
  6
CONTINUOUS
 62
3
 10
-319.842568854685060
 20
-165.629988551092080
 40
8.499999999999865
 50
353.578178478199500
 51
6.421821521797448
  0
ARC
  8
0
  6
CONTINUOUS
 62
3
 10
-309.905314921491370
 20
-164.511514471274040
 40
1.499999999999926
 50
120.000000000001620
 51
186.421821521801010
  0
LINE
  8
0
  6
CONTINUOUS
 62
3
 10
-310.655314921491370
 20
-163.212476365597470
 11
-307.880426211870940
 21
-161.610393622126590
  0
ARC
  8
0
  6
CONTINUOUS
 62
3
 10
-307.130426211870940
 20
-162.909431727803170
 40
1.500000000000192
 50
12.079786860592611
 51
120.000000000001620
  0
ARC
  8
0
  6
CONTINUOUS
 62
3
 10
-319.842568854685060
 20
-165.629988551092080
 40
14.500000000000169
 50
347.920213139391310
 51
12.079786860606980
  0
ARC
  8
0
  6
CONTINUOUS
 62
3
 10
-298.667389585640540
 20
-173.236681848696660
 40
1.499999999999926
 50
239.999999999998410
 51
340.240348321188210
  0
LINE
  8
0
  6
CONTINUOUS
 62
3
 10
-299.417389585640540
 20
-174.535719954373230
 11
-302.064184178619480
 21
-173.007592383627530
  0
ARC
  8
0
  6
CONTINUOUS
 62
3
 10
-301.314184178619480
 20
-171.708554277950500
 40
1.500000000000038
 50
161.837004155895410
 51
240.000000000007050
  0
ARC
  8
0
  6
CONTINUOUS
 62
3
 10
-319.842568854685060
 20
-165.629988551092080
 40
17.999999999999943
 50
341.837004155893340
 51
18.162995844106646
  0
ARC
  8
0
  6
CONTINUOUS
 62
3
 10
-301.314184178619480
 20
-159.551422824233670
 40
1.499999999999926
 50
120.000000000001620
 51
198.162995844104590
  0
LINE
  8
0
  6
CONTINUOUS
 62
3
 10
-302.064184178619480
 20
-158.252384718557100
 11
-299.417389585640540
 21
-156.724257147810930
  0
ARC
  8
0
  6
CONTINUOUS
 62
3
 10
-298.667389585640540
 20
-158.023295253487500
 40
1.500000000000246
 50
19.759651678811824
 51
120.000000000001620
  0
ARC
  8
0
  6
CONTINUOUS
 62
3
 10
-319.842568854685060
 20
-165.629988551092080
 40
24.000000000000139
 50
340.240348321186050
 51
19.759651678813924
  0
ARC
  8
0
  6
CONTINUOUS
 62
3
 10
-332.554711497499620
 20
-168.350545374381000
 40
1.500000000000287
 50
192.079786860609600
 51
300.000000000001590
  0
LINE
  8
0
  6
CONTINUOUS
 62
3
 10
-331.804711497499620
 20
-169.649583480057570
 11
-329.029822787879200
 21
-168.047500736587150
  0
ARC
  8
0
  6
CONTINUOUS
 62
3
 10
-329.779822787879200
 20
-166.748462630910580
 40
1.499999999999926
 50
300.000000000001590
 51
6.421821521801967
  0
ARC
  8
0
  6
CONTINUOUS
 62
3
 10
-319.842568854685740
 20
-165.629988551092080
 40
8.499999999999813
 50
173.578178478202550
 51
186.421821521800500
  0
ARC
  8
0
  6
CONTINUOUS
 62
3
 10
-329.779822787879200
 20
-164.511514471274040
 40
1.499999999999873
 50
353.578178478198030
 51
59.999999999998380
  0
LINE
  8
0
  6
CONTINUOUS
 62
3
 10
-329.029822787879200
 20
-163.212476365597470
 11
-331.804711497499850
 21
-161.610393622126590
  0
ARC
  8
0
  6
CONTINUOUS
 62
3
 10
-332.554711497499850
 20
-162.909431727803170
 40
1.499999999999926
 50
59.999999999998380
 51
167.920213139405550
  0
ARC
  8
0
  6
CONTINUOUS
 62
3
 10
-319.842568854685740
 20
-165.629988551092080
 40
14.499999999999851
 50
167.920213139392840
 51
192.079786860608920
  0
ARC
  8
0
  6
CONTINUOUS
 62
3
 10
-341.017748123730030
 20
-173.236681848696660
 40
1.500000000000246
 50
199.759651678811820
 51
300.000000000001590
  0
LINE
  8
0
  6
CONTINUOUS
 62
3
 10
-340.267748123730030
 20
-174.535719954373230
 11
-337.620953530751080
 21
-173.007592383627530
  0
ARC
  8
0
  6
CONTINUOUS
 62
3
 10
-338.370953530751080
 20
-171.708554277950500
 40
1.500000000000320
 50
299.999999999992950
 51
18.162995844104589
  0
ARC
  8
0
  6
CONTINUOUS
 62
3
 10
-319.842568854685740
 20
-165.629988551092080
 40
17.999999999999726
 50
161.837004155893140
 51
198.162995844106860
  0
ARC
  8
0
  6
CONTINUOUS
 62
3
 10
-338.370953530751080
 20
-159.551422824233670
 40
1.500000000000038
 50
341.837004155895390
 51
59.999999999998380
  0
LINE
  8
0
  6
CONTINUOUS
 62
3
 10
-337.620953530751080
 20
-158.252384718557100
 11
-340.267748123730260
 21
-156.724257147810930
  0
ARC
  8
0
  6
CONTINUOUS
 62
3
 10
-341.017748123730260
 20
-158.023295253487500
 40
1.499999999999926
 50
59.999999999998380
 51
160.240348321185250
  0
ARC
  8
0
  6
CONTINUOUS
 62
3
 10
-319.842568854685740
 20
-165.629988551092080
 40
23.999999999999925
 50
160.240348321185910
 51
199.759651678814090
  0
ARC
  8
0
  6
CONTINUOUS
 62
3
 10
-328.554711497499620
 20
-175.278748604656810
 40
1.500000000000320
 50
119.999999999992930
 51
227.920213139381870
  0
LINE
  8
0
  6
CONTINUOUS
 62
3
 10
-329.304711497499620
 20
-173.979710498979780
 11
-326.529822787879200
 21
-172.377627755509370
  0
ARC
  8
0
  6
CONTINUOUS
 62
3
 10
-325.779822787879200
 20
-173.676665861185940
 40
1.500000000000059
 50
53.578178478205707
 51
120.000000000001620
  0
ARC
  8
0
  6
CONTINUOUS
 62
3
 10
-319.842568854685280
 20
-165.629988551092540
 40
8.499999999999870
 50
233.578178478199590
 51
246.421821521797680
  0
ARC
  8
0
  6
CONTINUOUS
 62
3
 10
-323.842568854685280
 20
-174.795139941004440
 40
1.500000000000000
 50
0.000000000017370
 51
66.421821521804304
  0
LINE
  8
0
  6
CONTINUOUS
 62
3
 10
-322.342568854685280
 20
-174.795139941003980
 11
-322.342568854685280
 21
-177.999305427945270
  0
ARC
  8
0
  6
CONTINUOUS
 62
3
 10
-323.842568854685280
 20
-177.999305427945270
 40
1.500000000000355
 50
252.079786860607900
 51
0.000000000000000
  0
ARC
  8
0
  6
CONTINUOUS
 62
3
 10
-319.842568854685280
 20
-165.629988551092540
 40
14.500000000000011
 50
227.920213139391080
 51
252.079786860607410
  0
ARC
  8
0
  6
CONTINUOUS
 62
3
 10
-337.017748123730030
 20
-180.164885078972470
 40
1.499999999999926
 50
120.000000000001620
 51
220.240348321176330
  0
LINE
  8
0
  6
CONTINUOUS
 62
3
 10
-337.767748123730030
 20
-178.865846973295900
 11
-335.120953530751080
 21
-177.337719402549740
  0
ARC
  8
0
  6
CONTINUOUS
 62
3
 10
-334.370953530751080
 20
-178.636757508226310
 40
1.500000000000118
 50
41.837004155899741
 51
120.000000000001620
  0
ARC
  8
0
  6
CONTINUOUS
 62
3
 10
-319.842568854685280
 20
-165.629988551092540
 40
17.999999999999940
 50
221.837004155892320
 51
258.162995844106770
  0
ARC
  8
0
  6
CONTINUOUS
 62
3
 10
-323.842568854685280
 20
-184.715323235084720
 40
1.500000000000000
 50
0.000000000000000
 51
78.162995844101530
  0
LINE
  8
0
  6
CONTINUOUS
 62
3
 10
-322.342568854685280
 20
-184.715323235084720
 11
-322.342568854685280
 21
-187.771578376577050
  0
ARC
  8
0
  6
CONTINUOUS
 62
3
 10
-323.842568854685280
 20
-187.771578376577050
 40
1.499999999999728
 50
259.759651678812470
 51
0.000000000000000
  0
ARC
  8
0
  6
CONTINUOUS
 62
3
 10
-319.842568854685280
 20
-165.629988551092540
 40
23.999999999999844
 50
220.240348321185340
 51
259.759651678813730
  0
ARC
  8
0
  6
CONTINUOUS
 62
3
 10
-311.130426211870940
 20
-175.278748604656810
 40
1.499999999999944
 50
312.079786860618130
 51
60.000000000007070
  0
LINE
  8
0
  6
CONTINUOUS
 62
3
 10
-310.380426211870940
 20
-173.979710498979780
 11
-313.155314921491370
 21
-172.377627755509370
  0
ARC
  8
0
  6
CONTINUOUS
 62
3
 10
-313.905314921491370
 20
-173.676665861185940
 40
1.499999999999926
 50
59.999999999998380
 51
126.421821521801260
  0
ARC
  8
0
  6
CONTINUOUS
 62
3
 10
-319.842568854685280
 20
-165.629988551092540
 40
8.500000000000060
 50
293.578178478202350
 51
306.421821521799190
  0
ARC
  8
0
  6
CONTINUOUS
 62
3
 10
-315.842568854685280
 20
-174.795139941004440
 40
1.500000000000139
 50
113.578178478195690
 51
179.999999999982630
  0
LINE
  8
0
  6
CONTINUOUS
 62
3
 10
-317.342568854685280
 20
-174.795139941003980
 11
-317.342568854685280
 21
-177.999305427945270
  0
ARC
  8
0
  6
CONTINUOUS
 62
3
 10
-315.842568854685280
 20
-177.999305427945270
 40
1.500000000000000
 50
180.000000000000000
 51
287.920213139392100
  0
ARC
  8
0
  6
CONTINUOUS
 62
3
 10
-319.842568854685280
 20
-165.629988551092540
 40
14.500000000000121
 50
287.920213139392560
 51
312.079786860608860
  0
ARC
  8
0
  6
CONTINUOUS
 62
3
 10
-302.667389585640540
 20
-180.164885078972470
 40
1.499999999999828
 50
319.759651678823670
 51
59.999999999998380
  0
LINE
  8
0
  6
CONTINUOUS
 62
3
 10
-301.917389585640540
 20
-178.865846973295900
 11
-304.564184178619480
 21
-177.337719402549740
  0
ARC
  8
0
  6
CONTINUOUS
 62
3
 10
-305.314184178619480
 20
-178.636757508226310
 40
1.499999999999926
 50
59.999999999998380
 51
138.162995844100240
  0
ARC
  8
0
  6
CONTINUOUS
 62
3
 10
-319.842568854685280
 20
-165.629988551092540
 40
18.000000000000146
 50
281.837004155893230
 51
318.162995844107680
  0
ARC
  8
0
  6
CONTINUOUS
 62
3
 10
-315.842568854685280
 20
-184.715323235084720
 40
1.499999999999731
 50
101.837004155898450
 51
180.000000000000000
  0
LINE
  8
0
  6
CONTINUOUS
 62
3
 10
-317.342568854685280
 20
-184.715323235084720
 11
-317.342568854685280
 21
-187.771578376577050
  0
ARC
  8
0
  6
CONTINUOUS
 62
3
 10
-315.842568854685280
 20
-187.771578376577050
 40
1.500000000000000
 50
180.000000000000000
 51
280.240348321187530
  0
ARC
  8
0
  6
CONTINUOUS
 62
3
 10
-319.842568854685280
 20
-165.629988551092540
 40
23.999999999999716
 50
280.240348321186270
 51
319.759651678814690
  0
ARC
  8
0
  6
CONTINUOUS
 62
3
 10
-323.842568854685280
 20
-153.260671674239120
 40
1.500000000000000
 50
0.000000000000000
 51
107.920213139394770
  0
LINE
  8
0
  6
CONTINUOUS
 62
3
 10
-322.342568854685280
 20
-153.260671674239120
 11
-322.342568854685280
 21
-156.464837161180180
  0
ARC
  8
0
  6
CONTINUOUS
 62
3
 10
-323.842568854685280
 20
-156.464837161180180
 40
1.500000000000139
 50
293.578178478195700
 51
0.000000000000000
  0
ARC
  8
0
  6
CONTINUOUS
 62
3
 10
-319.842568854685740
 20
-165.629988551092080
 40
8.499999999999879
 50
113.578178478199500
 51
126.421821521797340
  0
ARC
  8
0
  6
CONTINUOUS
 62
3
 10
-325.779822787879200
 20
-157.583311240998680
 40
1.499999999999926
 50
239.999999999998410
 51
306.421821521797600
  0
LINE
  8
0
  6
CONTINUOUS
 62
3
 10
-326.529822787879200
 20
-158.882349346675260
 11
-329.304711497499850
 21
-157.280266603204380
  0
ARC
  8
0
  6
CONTINUOUS
 62
3
 10
-328.554711497499850
 20
-155.981228497527810
 40
1.499999999999792
 50
132.079786860611680
 51
239.999999999998410
  0
ARC
  8
0
  6
CONTINUOUS
 62
3
 10
-319.842568854685740
 20
-165.629988551092080
 40
14.499999999999980
 50
107.920213139390830
 51
132.079786860607560
  0
ARC
  8
0
  6
CONTINUOUS
 62
3
 10
-323.842568854685280
 20
-143.488398725607570
 40
1.500000000000000
 50
0.000000000000000
 51
100.240348321194510
  0
LINE
  8
0
  6
CONTINUOUS
 62
3
 10
-322.342568854685280
 20
-143.488398725607570
 11
-322.342568854685280
 21
-146.544653867099900
  0
ARC
  8
0
  6
CONTINUOUS
 62
3
 10
-323.842568854685280
 20
-146.544653867099900
 40
1.499999999999954
 50
281.837004155896690
 51
0.000000000000000
  0
ARC
  8
0
  6
CONTINUOUS
 62
3
 10
-319.842568854685740
 20
-165.629988551092080
 40
17.999999999999829
 50
101.837004155891980
 51
138.162995844106210
  0
ARC
  8
0
  6
CONTINUOUS
 62
3
 10
-334.370953530751080
 20
-152.623219593958310
 40
1.499999999999926
 50
239.999999999998410
 51
318.162995844106720
  0
LINE
  8
0
  6
CONTINUOUS
 62
3
 10
-335.120953530751080
 20
-153.922257699634880
 11
-337.767748123730260
 21
-152.394130128888720
  0
ARC
  8
0
  6
CONTINUOUS
 62
3
 10
-337.017748123730260
 20
-151.095092023212150
 40
1.499999999999802
 50
139.759651678811420
 51
239.999999999998410
  0
ARC
  8
0
  6
CONTINUOUS
 62
3
 10
-319.842568854685740
 20
-165.629988551092080
 40
23.999999999999901
 50
100.240348321185670
 51
139.759651678813550
  0
ARC
  8
0
  6
CONTINUOUS
 62
3
 10
-323.842568854685280
 20
-133.880972818317560
 40
1.500000000000000
 50
0.000000000000000
 51
97.180755781458288
  0
LINE
  8
0
  6
CONTINUOUS
 62
3
 10
-322.342568854685280
 20
-133.880972818317560
 11
-322.342568854685280
 21
-136.907175318402100
  0
ARC
  8
0
  6
CONTINUOUS
 62
3
 10
-323.842568854685280
 20
-127.338344554000960
 40
1.499999999999933
 50
275.963570118318330
 51
0.000000000000000
  0
LINE
  8
0
  6
CONTINUOUS
 62
3
 10
-322.342568854685280
 20
-124.323209446446750
 11
-322.342568854685280
 21
-127.338344554000960
  0
LINE
  8
0
  6
CONTINUOUS
 62
3
 10
-285.319848801549940
 20
-188.448441612876650
 11
-287.931032400534040
 21
-186.940874059099310
  0
ARC
  8
0
  6
CONTINUOUS
 62
3
 10
-286.069848801549940
 20
-189.747479718553220
 40
1.499999999999844
 50
324.468928475167900
 51
59.999999999998380
  0
ARC
  8
0
  6
CONTINUOUS
 62
3
 10
-284.681032400534040
 20
-181.311708934500530
 40
1.500000000000063
 50
155.963570118322880
 51
239.999999999998410
  0
LINE
  8
0
  6
CONTINUOUS
 62
3
 10
-282.819848801549940
 20
-184.118314593954440
 11
-285.431032400534040
 21
-182.610747040177100
  0
ARC
  8
0
  6
CONTINUOUS
 62
3
 10
-282.069848801549940
 20
-182.819276488277410
 40
1.500000000000320
 50
240.000000000007050
 51
335.531071524832500
  0
ARC
  8
0
  6
CONTINUOUS
 62
3
 10
-319.842568854685510
 20
-165.629988551092990
 40
42.999999999999936
 50
335.531071524839770
 51
24.468928475160769
  0
ARC
  8
0
  6
CONTINUOUS
 62
3
 10
-319.842568854685510
 20
-165.629988551092990
 40
36.999999999999972
 50
335.963570118321740
 51
24.036429881678870
  0
ARC
  8
0
  6
CONTINUOUS
 62
3
 10
-284.681032400534260
 20
-149.948268167685000
 40
1.500000000000123
 50
119.999999999997270
 51
204.036429881680680
  0
LINE
  8
0
  6
CONTINUOUS
 62
3
 10
-285.431032400534260
 20
-148.649230062008200
 11
-282.819848801549940
 21
-147.141662508231090
  0
ARC
  8
0
  6
CONTINUOUS
 62
3
 10
-282.069848801549940
 20
-148.440700613907890
 40
1.500000000000034
 50
24.468928475159590
 51
119.999999999997270
  0
ARC
  8
0
  6
CONTINUOUS
 62
3
 10
-319.842568854685740
 20
-165.629988551092540
 40
42.999999999999908
 50
35.531071524839248
 51
84.468928475160212
  0
ARC
  8
0
  6
CONTINUOUS
 62
3
 10
-286.069848801550390
 20
-141.512497383631850
 40
1.500000000000123
 50
299.999999999997270
 51
35.531071524839192
  0
ARC
  8
0
  6
CONTINUOUS
 62
3
 10
-315.842568854685280
 20
-127.338344554000960
 40
1.500000000000000
 50
180.000000000000000
 51
264.036429881682580
  0
ARC
  8
0
  6
CONTINUOUS
 62
3
 10
-315.842568854685280
 20
-133.880972818317560
 40
1.499999999999998
 50
82.819244218541712
 51
180.000000000000000
  0
LINE
  8
0
  6
CONTINUOUS
 62
3
 10
-317.342568854685280
 20
-133.880972818317560
 11
-317.342568854685280
 21
-136.907175318402100
  0
LINE
  8
0
  6
CONTINUOUS
 62
3
 10
-287.931032400534490
 20
-144.319103043085760
 11
-285.319848801550390
 21
-142.811535489308650
  0
LINE
  8
0
  6
CONTINUOUS
 62
3
 10
-317.342568854685280
 20
-124.323209446446980
 11
-317.342568854685280
 21
-127.338344554000960
  0
ARC
  8
0
  6
CONTINUOUS
 62
3
 10
-319.842568854685510
 20
-165.629988551092080
 40
27.499999999999815
 50
97.928141766201691
 51
142.071858233797880
  0
ARC
  8
0
  6
CONTINUOUS
 62
3
 10
-319.842568854685060
 20
-165.629988551092080
 40
17.999999999999922
 50
41.837004155893325
 51
78.162995844107314
  0
ARC
  8
0
  6
CONTINUOUS
 62
3
 10
-323.842568854685280
 20
-124.323209446446750
 40
1.500000000000000
 50
0.000000000000000
 51
95.531071524841693
  0
ARC
  8
0
  6
CONTINUOUS
 62
3
 10
-315.842568854685280
 20
-124.323209446446980
 40
1.500000000000203
 50
84.468928475159132
 51
180.000000000000000
  0
LINE
  8
0
  6
CONTINUOUS
 62
3
 10
-368.458061040798950
 20
-220.393507774452250
 11
-375.524510159458150
 21
-213.327058655792600
  0
LINE
  8
0
  6
CONTINUOUS
 62
3
 10
-271.227076668571610
 20
-110.866469327733050
 11
-264.160627549912650
 21
-117.932918446392020
  0
ARC
  8
0
  6
CONTINUOUS
 62
3
 10
-84.242568854685373
 20
-165.629988551092540
 40
300.599999999999850
 50
173.948014641331500
 51
186.051985358668500
  0
ARC
  8
0
  6
CONTINUOUS
 62
3
 10
-319.842568854685280
 20
-406.229988551092450
 40
300.599999999999910
 50
90.000000000000000
 51
98.597082237249069
  0
ARC
  8
0
  6
CONTINUOUS
 62
3
 10
-319.842568854685280
 20
74.970011448907599
 40
300.600000000000140
 50
270.000000000000000
 51
278.597082237249080
  0
ARC
  8
0
  6
CONTINUOUS
 62
3
 10
-275.893981424402800
 20
-115.533374083564240
 40
6.600000000000118
 50
45.000000000001400
 51
81.402917762751386
  0
ARC
  8
0
  6
CONTINUOUS
 62
3
 10
-319.842568854685280
 20
-406.229988551092450
 40
300.599999999999800
 50
81.402917762750931
 51
90.000000000000000
  0
ARC
  8
0
  6
CONTINUOUS
 62
3
 10
-555.442568854685190
 20
-165.629988551092540
 40
300.600000000000080
 50
353.948014641331500
 51
6.051985358668499
  0
LINE
  8
0
  6
CONTINUOUS
 62
3
 10
-271.227076668571610
 20
-220.393507774452250
 11
-264.160627549912190
 21
-213.327058655792600
  0
ARC
  8
0
  6
CONTINUOUS
 62
3
 10
-275.893981424402800
 20
-215.726603018621060
 40
6.599999999999747
 50
278.597082237248910
 51
315.000000000000000
  0
ARC
  8
0
  6
CONTINUOUS
 62
3
 10
-319.842568854685280
 20
74.970011448907599
 40
300.600000000000020
 50
261.402917762750920
 51
270.000000000000000
  0
ARC
  8
0
  6
CONTINUOUS
 62
3
 10
-363.791156284967770
 20
-215.726603018621060
 40
6.599999999999957
 50
225.000000000000000
 51
261.402917762751090
  0
LINE
  8
0
  6
CONTINUOUS
 62
3
 10
-368.458061040798950
 20
-110.866469327733050
 11
-375.524510159457920
 21
-117.932918446392020
  0
ARC
  8
0
  6
CONTINUOUS
 62
3
 10
-282.969667929474890
 20
-136.741958825954270
 40
26.600000000000193
 50
6.051985358668552
 51
45.000000000000000
  0
ARC
  8
0
  6
CONTINUOUS
 62
3
 10
-356.715469779895670
 20
-136.741958825954270
 40
26.600000000000119
 50
135.000000000000000
 51
173.948014641331410
  0
ARC
  8
0
  6
CONTINUOUS
 62
3
 10
-356.715469779895670
 20
-194.518018276230800
 40
26.599999999999969
 50
186.051985358668590
 51
224.999999999998980
  0
ARC
  8
0
  6
CONTINUOUS
 62
3
 10
-282.969667929474670
 20
-194.518018276230800
 40
26.599999999999955
 50
315.000000000001020
 51
353.948014641331380
  0
ARC
  8
0
  6
CONTINUOUS
 62
4
 10
-356.715469779895670
 20
-136.741958825954270
 40
15.396999999999876
 50
135.000000000000000
 51
173.948014641331160
  0
ARC
  8
0
  6
CONTINUOUS
 62
4
 10
-555.442568854685190
 20
-165.629988551092540
 40
289.397000000000160
 50
0.000000000000000
 51
6.051985358668508
  0
ARC
  8
0
  6
CONTINUOUS
 62
4
 10
-282.969667929474670
 20
-136.741958825954270
 40
15.397000000000052
 50
6.051985358668849
 51
45.000000000000000
  0
LINE
  8
0
  6
CONTINUOUS
 62
4
 10
-276.658410212183870
 20
-121.278570323386240
 11
-272.082344819545260
 21
-125.854635716024850
  0
ARC
  8
0
  6
CONTINUOUS
 62
4
 10
-280.901050899302960
 20
-125.521211010505790
 40
6.000000000000049
 50
45.000000000003077
 51
82.102011327574374
  0
ARC
  8
0
  6
CONTINUOUS
 62
4
 10
-319.842568854685280
 20
-406.229988551092450
 40
289.396999999999820
 50
82.102011327572214
 51
90.000000000000000
  0
ARC
  8
0
  6
CONTINUOUS
 62
4
 10
-555.442568854685190
 20
-165.629988551092540
 40
289.397000000000160
 50
353.948014641331500
 51
0.000000000000000
  0
ARC
  8
0
  6
CONTINUOUS
 62
4
 10
-282.969667929474670
 20
-194.518018276230800
 40
15.396999999999876
 50
315.000000000000000
 51
353.948014641331160
  0
LINE
  8
0
  6
CONTINUOUS
 62
4
 10
-276.658410212183870
 20
-209.981406778798830
 11
-272.082344819545260
 21
-205.405341386160220
  0
ARC
  8
0
  6
CONTINUOUS
 62
4
 10
-280.901050899302960
 20
-205.738766091679280
 40
5.999999999999923
 50
277.897988672425640
 51
314.999999999996870
  0
ARC
  8
0
  6
CONTINUOUS
 62
4
 10
-319.842568854685280
 20
74.970011448907371
 40
289.396999999999930
 50
270.000000000000000
 51
277.897988672427800
  0
ARC
  8
0
  6
CONTINUOUS
 62
4
 10
-84.242568854685146
 20
-165.629988551092540
 40
289.397000000000160
 50
180.000000000000000
 51
186.051985358668500
  0
ARC
  8
0
  6
CONTINUOUS
 62
4
 10
-356.715469779895670
 20
-194.518018276230800
 40
15.397000000000052
 50
186.051985358668840
 51
225.000000000000000
  0
LINE
  8
0
  6
CONTINUOUS
 62
4
 10
-363.026727497186470
 20
-209.981406778798830
 11
-367.602792889825080
 21
-205.405341386160220
  0
ARC
  8
0
  6
CONTINUOUS
 62
4
 10
-358.784086810067380
 20
-205.738766091679280
 40
6.000000000000049
 50
225.000000000003070
 51
262.102011327574360
  0
ARC
  8
0
  6
CONTINUOUS
 62
4
 10
-319.842568854685060
 20
74.970011448907371
 40
289.396999999999820
 50
262.102011327572200
 51
270.000000000000000
  0
ARC
  8
0
  6
CONTINUOUS
 62
3
 10
-405.142568854685240
 20
-179.672488551092560
 40
20.800000000000082
 50
274.191726156007460
 51
354.952683218987430
  0
LINE
  8
0
  6
CONTINUOUS
 62
3
 10
-384.342568854685280
 20
-148.299379790867140
 11
-384.342568854685280
 21
-139.672488551092560
  0
ARC
  8
0
  6
CONTINUOUS
 62
3
 10
-403.142568854685240
 20
-139.672488551092560
 40
18.799999999999955
 50
0.000000000000000
 51
79.401214733933941
  0
ARC
  8
0
  6
CONTINUOUS
 62
3
 10
-405.142568854685240
 20
-179.672488551092560
 40
20.799999999999986
 50
174.275189547776620
 51
205.640070215894870
  0
ARC
  8
0
  6
CONTINUOUS
 62
3
 10
-405.142568854685240
 20
-179.672488551092560
 40
20.799999999999926
 50
205.640070215894870
 51
260.083463391769440
  0
ARC
  8
0
  6
CONTINUOUS
 62
3
 10
-405.142568854685240
 20
-179.672488551092560
 40
20.799999999999986
 50
174.275189547776620
 51
205.640070215894870
  0
ARC
  8
0
  6
CONTINUOUS
 62
3
 10
-399.316814220598300
 20
-119.227352173954840
 40
1.999999999999927
 50
177.137594773887290
 51
259.401214733934010
  0
ARC
  8
0
  6
CONTINUOUS
 62
3
 10
-404.909827318314110
 20
-118.947701519069020
 40
1.999999999999928
 50
274.873974813840960
 51
357.137594773887320
  0
ARC
  8
0
  6
CONTINUOUS
 62
3
 10
-403.476021588301710
 20
-202.411499528021860
 40
1.999999999999962
 50
94.191726156001650
 51
177.137594773887290
  0
LINE
  8
0
  6
CONTINUOUS
 62
3
 10
-401.644440346368470
 20
-109.709918384757310
 11
-406.738077274645430
 21
-211.582656950297410
  0
ARC
  8
0
  6
CONTINUOUS
 62
3
 10
-409.069034686017520
 20
-202.131848873136050
 40
2.000000000000154
 50
357.137594773887600
 51
80.083463391767268
  0
LINE
  8
0
  6
CONTINUOUS
 62
3
 10
-425.838828206306180
 20
-177.597675583511550
 11
-421.848803268650160
 21
-137.797176830394280
  0
ARC
  8
0
  6
CONTINUOUS
 62
3
 10
-403.142568854685240
 20
-139.672488551092560
 40
18.800000000000036
 50
94.873974813842736
 51
144.191373186504250
  0
ARC
  8
0
  6
CONTINUOUS
 62
3
 10
-403.142568854685240
 20
-139.672488551092560
 40
18.799999999999933
 50
144.191373186504250
 51
174.275189547776390
  0
LINE
  8
0
  6
CONTINUOUS
 62
3
 10
-402.443442217470760
 20
-109.669968291202160
 11
-400.845438475266180
 21
-109.749868478312350
  0
ARC
  8
0
  6
CONTINUOUS
 62
3
 10
-396.301115714365210
 20
-114.983330714982450
 40
9.000000000000060
 50
160.536063666407810
 51
193.739143184213500
  0
POINT
  8
0
  6
CONTINUOUS
 62
3
 10
-402.693130302189620
 20
-114.663729985591200
  0
LINE
  8
0
  6
CONTINUOUS
 62
3
 10
-402.518348642886050
 20
-111.168096799518820
 11
-402.867911961493180
 21
-118.159363171663690
  0
LINE
  8
0
  6
CONTINUOUS
 62
3
 10
-402.518348642886050
 20
-111.168096799518820
 11
-402.867911961493180
 21
-118.159363171663690
  0
LINE
  8
0
  6
CONTINUOUS
 62
3
 10
-402.867911961493180
 20
-118.159363171663690
 11
-403.845715774000950
 21
-118.110472981038350
  0
LINE
  8
0
  6
CONTINUOUS
 62
3
 10
-402.518348642886050
 20
-111.168096799518820
 11
-403.496152455393600
 21
-111.119206608893470
  0
ARC
  8
0
  6
CONTINUOUS
 62
3
 10
-403.780796910073260
 20
-116.812095702484720
 40
1.299999237060493
 50
193.739143184211430
 51
267.137612759980240
  0
ARC
  8
0
  6
CONTINUOUS
 62
3
 10
-403.561071319321290
 20
-112.417583887446990
 40
1.299999237060474
 50
87.137594090651831
 51
160.536063666412870
  0
LINE
  8
0
  6
CONTINUOUS
 62
3
 10
-402.443442217470760
 20
-109.669968291202160
 11
-407.537079145747730
 21
-211.542706856742140
  0
LINE
  8
0
  6
CONTINUOUS
 62
3
 10
-405.939075403543140
 20
-211.622607043853120
 11
-407.537079145747730
 21
-211.542706856742140
  0
LINE
  8
0
  6
CONTINUOUS
 62
3
 10
-400.845438475266180
 20
-109.749868478312350
 11
-405.939075403543140
 21
-211.622607043853120
  0
LINE
  8
0
  6
DASHDOT
 62
4
 10
-207.792252127776010
 20
-165.629988551092540
 11
-432.960107162129020
 21
-165.629988551092540
  0
LINE
  8
0
  6
CONTINUOUS
 62
3
 10
-275.342569502741180
 20
-101.073362525768510
 11
-277.842573852247710
 21
-102.516736102464390
  0
LINE
  8
0
  6
CONTINUOUS
 62
3
 10
-277.842564072248590
 20
-96.743240290879157
 11
-280.342568800295450
 21
-98.186611325972308
  0
LINE
  8
0
  6
CONTINUOUS
 62
3
 10
-277.842574366810710
 20
-102.516735488814610
 11
-280.342566671854340
 21
-101.073360142070490
  0
LINE
  8
0
  6
CONTINUOUS
 62
3
 10
-277.842564133478050
 20
-96.743239810736441
 11
-275.342570348686760
 21
-98.186616455283911
  0
LINE
  8
0
  6
CONTINUOUS
 62
3
 10
-275.342571238870390
 20
-98.186616906093491
 11
-275.342570285196080
 21
-101.073362358974350
  0
LINE
  8
0
  6
CONTINUOUS
 62
3
 10
-280.342566470500740
 20
-101.073360196090440
 11
-280.342567424175060
 21
-98.186610928512323
  0
CIRCLE
  8
0
  6
CONTINUOUS
 62
3
 10
-277.842568854685280
 20
-99.629988551092538
 40
5.000000000000000
  0
LINE
  8
0
  6
CONTINUOUS
 62
3
 10
-364.342568206629270
 20
-101.073362525768510
 11
-361.842563857122850
 21
-102.516736102464390
  0
LINE
  8
0
  6
CONTINUOUS
 62
3
 10
-361.842573637121970
 20
-96.743240290879157
 11
-359.342568909075110
 21
-98.186611325972308
  0
LINE
  8
0
  6
CONTINUOUS
 62
3
 10
-361.842563342559740
 20
-102.516735488814610
 11
-359.342571037516220
 21
-101.073360142070490
  0
LINE
  8
0
  6
CONTINUOUS
 62
3
 10
-361.842573575892520
 20
-96.743239810736441
 11
-364.342567360683800
 21
-98.186616455283911
  0
LINE
  8
0
  6
CONTINUOUS
 62
3
 10
-364.342566470500060
 20
-98.186616906093491
 11
-364.342567424174380
 21
-101.073362358974350
  0
LINE
  8
0
  6
CONTINUOUS
 62
3
 10
-359.342571238869820
 20
-101.073360196090440
 11
-359.342570285195510
 21
-98.186610928512323
  0
CIRCLE
  8
0
  6
CONTINUOUS
 62
3
 10
-361.842568854685280
 20
-99.629988551092538
 40
5.000000000000000
  0
LINE
  8
0
  6
CONTINUOUS
 62
3
 10
-365.342568206629270
 20
-238.573362525768520
 11
-362.842563857122850
 21
-240.016736102464390
  0
LINE
  8
0
  6
CONTINUOUS
 62
3
 10
-362.842573637121970
 20
-234.243240290879160
 11
-360.342568909075110
 21
-235.686611325972310
  0
LINE
  8
0
  6
CONTINUOUS
 62
3
 10
-362.842563342559740
 20
-240.016735488814620
 11
-360.342571037516220
 21
-238.573360142070500
  0
LINE
  8
0
  6
CONTINUOUS
 62
3
 10
-362.842573575892520
 20
-234.243239810736440
 11
-365.342567360683800
 21
-235.686616455283910
  0
LINE
  8
0
  6
CONTINUOUS
 62
3
 10
-365.342566470500060
 20
-235.686616906093490
 11
-365.342567424174380
 21
-238.573362358974350
  0
LINE
  8
0
  6
CONTINUOUS
 62
3
 10
-360.342571238869820
 20
-238.573360196090450
 11
-360.342570285195510
 21
-235.686610928512320
  0
CIRCLE
  8
0
  6
CONTINUOUS
 62
3
 10
-362.842568854685280
 20
-237.129988551092540
 40
5.000000000000000
  0
LINE
  8
0
  6
CONTINUOUS
 62
3
 10
-274.342569502741180
 20
-238.573362525768520
 11
-276.842573852247710
 21
-240.016736102464390
  0
LINE
  8
0
  6
CONTINUOUS
 62
3
 10
-276.842564072248590
 20
-234.243240290879160
 11
-279.342568800295450
 21
-235.686611325972310
  0
LINE
  8
0
  6
CONTINUOUS
 62
3
 10
-276.842574366810710
 20
-240.016735488814620
 11
-279.342566671854340
 21
-238.573360142070500
  0
LINE
  8
0
  6
CONTINUOUS
 62
3
 10
-276.842564133478050
 20
-234.243239810736440
 11
-274.342570348686760
 21
-235.686616455283910
  0
LINE
  8
0
  6
CONTINUOUS
 62
3
 10
-274.342571238870390
 20
-235.686616906093490
 11
-274.342570285196080
 21
-238.573362358974350
  0
LINE
  8
0
  6
CONTINUOUS
 62
3
 10
-279.342566470500740
 20
-238.573360196090450
 11
-279.342567424175060
 21
-235.686610928512320
  0
CIRCLE
  8
0
  6
CONTINUOUS
 62
3
 10
-276.842568854685280
 20
-237.129988551092540
 40
5.000000000000000
  0
LINE
  8
0
  6
CONTINUOUS
 62
3
 10
-264.829661413241870
 20
-117.263884583062800
 11
-264.342858021536240
 21
-116.777081191357180
  0
LINE
  8
0
  6
CONTINUOUS
 62
3
 10
-271.476464886655550
 20
-110.617081109649120
 11
-270.989661494949930
 21
-110.130277717943500
  0
LINE
  8
0
  6
CONTINUOUS
 62
3
 10
-264.516522804273110
 20
-117.011337632212410
 11
-271.193622106746030
 21
-110.334238329739490
  0
LINE
  8
0
  6
CONTINUOUS
 62
3
 10
-264.829661413241870
 20
-117.263884583062800
 11
-271.476464886655550
 21
-110.617081109649120
  0
POINT
  8
0
  6
CONTINUOUS
 62
3
 10
-268.153063149948710
 20
-113.940482846355960
  0
ARC
  8
0
  6
CONTINUOUS
 62
3
 10
-270.415804714875780
 20
-116.203224411282970
 40
6.099999427795400
 50
354.601910595264600
 51
95.398072101890463
  0
LINE
  8
0
  6
CONTINUOUS
 62
3
 10
-374.855476296128700
 20
-117.263884583062800
 11
-375.342279687834320
 21
-116.777081191357180
  0
LINE
  8
0
  6
CONTINUOUS
 62
3
 10
-368.208672822715020
 20
-110.617081109649120
 11
-368.695476214420640
 21
-110.130277717943500
  0
LINE
  8
0
  6
CONTINUOUS
 62
3
 10
-375.168614905097460
 20
-117.011337632212410
 11
-368.491515602624530
 21
-110.334238329739490
  0
LINE
  8
0
  6
CONTINUOUS
 62
3
 10
-374.855476296128700
 20
-117.263884583062800
 11
-368.208672822715020
 21
-110.617081109649120
  0
POINT
  8
0
  6
CONTINUOUS
 62
3
 10
-371.532074559421860
 20
-113.940482846355960
  0
ARC
  8
0
  6
CONTINUOUS
 62
3
 10
-369.269332994494790
 20
-116.203224411282970
 40
6.099999427795406
 50
84.601927898108471
 51
185.398089404735370
  0
LINE
  8
0
  6
CONTINUOUS
 62
3
 10
-374.855476296128700
 20
-213.996092519122500
 11
-375.342279687834320
 21
-214.482895910828120
  0
LINE
  8
0
  6
CONTINUOUS
 62
3
 10
-368.208672822715020
 20
-220.642895992536180
 11
-368.695476214420640
 21
-221.129699384241800
  0
LINE
  8
0
  6
CONTINUOUS
 62
3
 10
-375.168614905097460
 20
-214.248639469972890
 11
-368.491515602624530
 21
-220.925738772445810
  0
LINE
  8
0
  6
CONTINUOUS
 62
3
 10
-374.855476296128700
 20
-213.996092519122500
 11
-368.208672822715020
 21
-220.642895992536180
  0
POINT
  8
0
  6
CONTINUOUS
 62
3
 10
-371.532074559421860
 20
-217.319494255829340
  0
ARC
  8
0
  6
CONTINUOUS
 62
3
 10
-369.269332994494790
 20
-215.056752690902270
 40
6.099999427795395
 50
174.601910595265170
 51
275.398072101891440
  0
LINE
  8
0
  6
CONTINUOUS
 62
3
 10
-264.829661413241870
 20
-213.996092519122500
 11
-264.342858021536240
 21
-214.482895910828120
  0
LINE
  8
0
  6
CONTINUOUS
 62
3
 10
-271.476464886655550
 20
-220.642895992536180
 11
-270.989661494949930
 21
-221.129699384241800
  0
LINE
  8
0
  6
CONTINUOUS
 62
3
 10
-264.516522804273110
 20
-214.248639469972890
 11
-271.193622106746030
 21
-220.925738772445810
  0
LINE
  8
0
  6
CONTINUOUS
 62
3
 10
-264.829661413241870
 20
-213.996092519122500
 11
-271.476464886655550
 21
-220.642895992536180
  0
POINT
  8
0
  6
CONTINUOUS
 62
3
 10
-268.153063149948710
 20
-217.319494255829340
  0
ARC
  8
0
  6
CONTINUOUS
 62
3
 10
-270.415804714875780
 20
-215.056752690902270
 40
6.099999427795451
 50
264.601927898109580
 51
5.398089404734844
  0
LINE
  8
0
  6
CONTINUOUS
 62
3
 10
-264.926668268624550
 20
-113.542515089778590
 11
-262.213366187981250
 21
-110.829213009135400
  0
LINE
  8
0
  6
CONTINUOUS
 62
3
 10
-267.755095393370650
 20
-110.714087965032090
 11
-265.041793312727690
 21
-108.000785884389180
  0
LINE
  8
0
  6
CONTINUOUS
 62
3
 10
-371.930042316000030
 20
-110.714087965032090
 11
-374.643344396642990
 21
-108.000785884389180
  0
LINE
  8
0
  6
CONTINUOUS
 62
3
 10
-374.758469440746010
 20
-113.542515089778470
 11
-377.471771521389200
 21
-110.829213009135400
  0
ARC
  8
0
  6
CONTINUOUS
 62
3
 10
-389.842568854685280
 20
-146.629988551092540
 40
8.000000000000016
 50
41.576902883208120
 51
46.567463442210077
  0
LINE
  8
0
  6
CONTINUOUS
 62
3
 10
-414.842568854685400
 20
-54.629988551092538
 11
-414.842568854685400
 21
-124.956850610452810
  0
LINE
  8
0
  6
CONTINUOUS
 62
3
 10
-414.842568854685400
 20
-198.072216809955420
 11
-414.842568854685400
 21
-224.629988551092540
  0
LINE
  8
0
  6
CONTINUOUS
 62
3
 10
-374.758469440746130
 20
-217.717462012406660
 11
-377.471771521389200
 21
-220.430764093049670
  0
LINE
  8
0
  6
CONTINUOUS
 62
3
 10
-371.930042316000250
 20
-220.545889137153040
 11
-374.643344396642990
 21
-223.259191217795890
  0
ARC
  8
0
  6
CONTINUOUS
 62
3
 10
-350.842568854685280
 20
-237.629988551092540
 40
5.000000000000005
 50
176.062233426891080
 51
270.000000000000000
  0
ARC
  8
0
  6
CONTINUOUS
 62
3
 10
-362.842568854685280
 20
-237.129988551092540
 40
7.000000000000083
 50
357.867787457483360
 51
118.736037863439060
  0
LINE
  8
0
  6
CONTINUOUS
 62
3
 10
-368.652043873996430
 20
-242.629988551092540
 11
-319.842568854685280
 21
-242.629988551092540
  0
LINE
  8
0
  6
CONTINUOUS
 62
3
 10
-267.755095393370420
 20
-220.545889137153100
 11
-265.041793312727690
 21
-223.259191217795890
  0
LINE
  8
0
  6
CONTINUOUS
 62
3
 10
-264.926668268624550
 20
-217.717462012406660
 11
-262.213366187981480
 21
-220.430764093049670
  0
ARC
  8
0
  6
CONTINUOUS
 62
3
 10
-288.842568854685280
 20
-237.629988551092540
 40
5.000000000000000
 50
270.000000000000000
 51
5.874000589787474
  0
LINE
  8
0
  6
CONTINUOUS
 62
3
 10
-271.033093835374130
 20
-242.629988551092540
 11
-319.842568854685280
 21
-242.629988551092540
  0
LINE
  8
0
  6
CONTINUOUS
 62
3
 10
139.264320788573970
 20
72.925917250774546
 11
124.186626753522430
 21
72.925917250774546
  0
ARC
  8
0
  6
CONTINUOUS
 62
3
 10
138.784513513983260
 20
48.480955066430397
 40
3.000000000000000
 50
0.000000000000000
 51
48.254159514985268
  0
LINE
  8
0
  6
CONTINUOUS
 62
3
 10
122.105709126455160
 20
67.386059800505791
 11
140.781996021621810
 21
50.719272209214978
  0
ARC
  8
0
  6
CONTINUOUS
 62
3
 10
120.108226618816840
 20
65.147742657722119
 40
3.000000000000058
 50
48.254159514976941
 51
90.000000000000000
  0
ARC
  8
0
  6
CONTINUOUS
 62
3
 10
138.784513513983260
 20
53.259129659482824
 40
3.000000000000000
 50
0.000000000000000
 51
48.254159514985268
  0
LINE
  8
0
  6
CONTINUOUS
 62
3
 10
122.105709126455160
 20
72.164234393558218
 11
140.781996021621810
 21
55.497446802267405
  0
ARC
  8
0
  6
CONTINUOUS
 62
3
 10
120.108226618816840
 20
69.925917250774546
 40
3.000000000000058
 50
48.254159514976941
 51
90.000000000000000
  0
LINE
  8
0
  6
CONTINUOUS
 62
3
 10
139.264320788573970
 20
161.073614947256830
 11
124.186626753522430
 21
161.073614947256830
  0
ARC
  8
0
  6
CONTINUOUS
 62
3
 10
138.784513513983260
 20
185.518577131600980
 40
3.000000000000888
 50
311.745840485014750
 51
0.000000000000000
  0
LINE
  8
0
  6
CONTINUOUS
 62
3
 10
122.105709126455160
 20
166.613472397525580
 11
140.781996021621810
 21
183.280259988816400
  0
ARC
  8
0
  6
CONTINUOUS
 62
3
 10
120.108226618816840
 20
168.851789540309260
 40
3.000000000000000
 50
270.000000000000000
 51
311.745840485023050
  0
ARC
  8
0
  6
CONTINUOUS
 62
3
 10
138.784513513983260
 20
180.740402538548550
 40
3.000000000000888
 50
311.745840485014750
 51
0.000000000000000
  0
LINE
  8
0
  6
CONTINUOUS
 62
3
 10
122.105709126455160
 20
161.835297804473160
 11
140.781996021621810
 21
178.502085395763970
  0
ARC
  8
0
  6
CONTINUOUS
 62
3
 10
120.108226618816840
 20
164.073614947256830
 40
3.000000000000000
 50
270.000000000000000
 51
311.745840485023050
  0
ARC
  8
0
  6
CONTINUOUS
 62
3
 10
124.252190865267940
 20
111.499766099016590
 40
3.000000000000000
 50
90.000000000000000
 51
180.000000000000000
  0
LINE
  8
0
  6
CONTINUOUS
 62
3
 10
124.252190865267940
 20
114.499766099016590
 11
138.784513513983260
 21
114.499766099016590
  0
ARC
  8
0
  6
CONTINUOUS
 62
3
 10
138.784513513983260
 20
111.499766099016590
 40
3.000000000000000
 50
0.000000000000000
 51
90.000000000000000
  0
ARC
  8
0
  6
CONTINUOUS
 62
3
 10
124.252190865267940
 20
122.499766099016590
 40
3.000000000000000
 50
180.000000000000000
 51
270.000000000000000
  0
LINE
  8
0
  6
CONTINUOUS
 62
3
 10
124.252190865267940
 20
119.499766099016590
 11
138.784513513983260
 21
119.499766099016590
  0
ARC
  8
0
  6
CONTINUOUS
 62
3
 10
138.784513513983260
 20
122.499766099016590
 40
3.000000000000000
 50
270.000000000000000
 51
0.000000000000000
  0
LINE
  8
0
  6
CONTINUOUS
 62
3
 10
146.784513513983260
 20
43.798755972238723
 11
146.784513513983260
 21
116.999766099015680
  0
LINE
  8
0
  6
CONTINUOUS
 62
3
 10
146.784513513983260
 20
190.200776225792650
 11
146.784513513983260
 21
116.999766099015680
  0
LINE
  8
0
  6
CONTINUOUS
 62
3
 10
66.784513513983256
 20
37.499766099014778
 11
66.784513513983256
 21
196.499766099015690
  0
ARC
  8
0
  6
CONTINUOUS
 62
3
 10
138.784513513983260
 20
31.983642062712534
 40
3.000000000000000
 50
0.000000000000000
 51
88.000000000000995
  0
LINE
  8
0
  6
CONTINUOUS
 62
3
 10
66.784513513983256
 20
37.499766099015687
 11
138.889212004090720
 21
34.981814543770270
  0
ARC
  8
0
  6
CONTINUOUS
 62
3
 10
138.784513513983260
 20
202.015890135318840
 40
3.000000000000447
 50
271.999999999999030
 51
0.000000000000000
  0
LINE
  8
0
  6
CONTINUOUS
 62
3
 10
66.784513513983256
 20
196.499766099015690
 11
138.889212004090720
 21
199.017717654261110
  0
LINE
  8
0
  6
CONTINUOUS
 62
3
 10
153.784513513983260
 20
65.466370821996861
 11
148.784513513983260
 21
65.466370821996861
  0
LINE
  8
0
  6
CONTINUOUS
 62
3
 10
153.784513513983260
 20
41.798755972238723
 11
148.784513513983260
 21
41.798755972238723
  0
ARC
  8
0
  6
CONTINUOUS
 62
3
 10
148.784513513983260
 20
43.798755972238723
 40
2.000000000000000
 50
180.000000000000000
 51
270.000000000000000
  0
ARC
  8
0
  6
CONTINUOUS
 62
3
 10
148.784513513983260
 20
67.466370821996861
 40
2.000000000000000
 50
180.000000000000000
 51
270.000000000000000
  0
LINE
  8
0
  6
CONTINUOUS
 62
3
 10
153.784513513983260
 20
168.533161376034510
 11
148.784513513983260
 21
168.533161376034510
  0
LINE
  8
0
  6
CONTINUOUS
 62
3
 10
153.784513513983260
 20
192.200776225792650
 11
148.784513513983260
 21
192.200776225792650
  0
ARC
  8
0
  6
CONTINUOUS
 62
3
 10
148.784513513983260
 20
190.200776225792650
 40
2.000000000000000
 50
90.000000000000000
 51
180.000000000000000
  0
ARC
  8
0
  6
CONTINUOUS
 62
3
 10
148.784513513983260
 20
166.533161376034510
 40
2.000000000000000
 50
90.000000000000000
 51
180.000000000000000
  0
LINE
  8
0
  6
DASHDOT
 62
4
 10
164.402965924597310
 20
33.914719309595966
 11
131.927505224233760
 21
33.914719309595966
  0
LINE
  8
0
  6
DASHDOT
 62
4
 10
164.402965924597310
 20
200.084812888435410
 11
131.927505224233760
 21
200.084812888435410
  0
LINE
  8
0
  6
CONTINUOUS
 62
3
 10
153.784513513983260
 20
22.487912197160767
 11
153.784513513983260
 21
116.999766099015680
  0
LINE
  8
0
  6
CONTINUOUS
 62
3
 10
153.784513513983260
 20
211.511620000869700
 11
153.784513513983260
 21
116.999766099015680
  0
ARC
  8
0
  6
CONTINUOUS
 62
3
 10
143.784513513983260
 20
210.583988534989660
 40
1.999999999999651
 50
87.000000000000398
 51
180.000000000000000
  0
ARC
  8
0
  6
CONTINUOUS
 62
3
 10
143.784513513983260
 20
23.415543663041717
 40
2.000000000000000
 50
180.000000000000000
 51
272.999999999999600
  0
LINE
  8
0
  6
CONTINUOUS
 62
3
 10
141.784513513983260
 20
210.583988534989660
 11
141.784513513983260
 21
23.415543663041717
  0
LINE
  8
0
  6
CONTINUOUS
 62
3
 10
153.234233255608390
 20
21.908037797550605
 11
143.889185426469110
 21
21.418284593532007
  0
LINE
  8
0
  6
CONTINUOUS
 62
3
 10
156.784513513983260
 20
31.999766099015687
 11
156.784513513983260
 21
116.999766099015680
  0
LINE
  8
0
  6
CONTINUOUS
 62
3
 10
156.784513513983260
 20
201.999766099015690
 11
156.784513513983260
 21
116.999766099015680
  0
ARC
  8
0
  6
CONTINUOUS
 62
3
 10
157.284513513983480
 20
88.445985973734423
 40
0.999999999999832
 50
93.000000000006111
 51
120.000000000021580
  0
ARC
  8
0
  6
CONTINUOUS
 62
3
 10
157.284513513983480
 20
145.553546224296040
 40
0.999999999999802
 50
239.999999999978400
 51
266.999999999993860
  0
LINE
  8
0
  6
CONTINUOUS
 62
3
 10
156.784513513983260
 20
31.999766099015687
 11
153.784513513983260
 21
31.999766099015687
  0
LINE
  8
0
  6
CONTINUOUS
 62
3
 10
156.784513513983260
 20
201.999766099015690
 11
153.784513513983260
 21
201.999766099015690
  0
ARC
  8
0
  6
CONTINUOUS
 62
3
 10
143.784513513983260
 20
210.583988534989660
 40
2.000000000000025
 50
177.837310087963030
 51
180.000000000000000
  0
LINE
  8
0
  6
CONTINUOUS
 62
3
 10
158.284513513983480
 20
116.999766099015680
 11
158.284513513983480
 21
143.499766099015690
  0
LINE
  8
0
  6
CONTINUOUS
 62
3
 10
158.284513513983480
 20
116.999766099015680
 11
158.284513513983480
 21
90.499766099015687
  0
LINE
  8
0
  6
CONTINUOUS
 62
3
 10
153.234233255608390
 20
212.091494400479860
 11
143.889185426469110
 21
212.581247604498460
  0
LINE
  8
0
  6
CONTINUOUS
 62
3
 10
153.234233255608390
 20
212.091494400479860
 11
153.784513513983260
 21
211.511620000869700
  0
LINE
  8
0
  6
CONTINUOUS
 62
3
 10
153.234233255608390
 20
21.908037797550605
 11
153.784513513983260
 21
22.487912197160767
  0
LINE
  8
0
  6
CONTINUOUS
 62
3
 10
157.284513513983480
 20
144.499766099015690
 11
157.232177557740440
 21
144.554916689541640
  0
LINE
  8
0
  6
CONTINUOUS
 62
3
 10
157.284513513983480
 20
89.499766099015687
 11
157.232177557740440
 21
89.444615508488823
  0
ARC
  8
0
  6
CONTINUOUS
 62
3
 10
157.284513513983480
 20
143.499766099015690
 40
1.000000000000000
 50
0.000000000000000
 51
90.000000000000000
  0
ARC
  8
0
  6
CONTINUOUS
 62
3
 10
157.284513513983480
 20
90.499766099015687
 40
1.000000000000000
 50
270.000000000000000
 51
0.000000000000000
  0
LINE
  8
0
  6
CONTINUOUS
 62
3
 10
52.284513513979618
 20
181.266540628609620
 11
52.284513513979618
 21
194.499766099016600
  0
ARC
  8
0
  6
CONTINUOUS
 62
3
 10
57.284513513980528
 20
194.499766099016600
 40
2.000000000000000
 50
90.000000000000000
 51
180.000000000000000
  0
LINE
  8
0
  6
CONTINUOUS
 62
3
 10
66.784513513983256
 20
196.499766099016600
 11
54.284513513979618
 21
196.499766099016600
  0
ARC
  8
0
  6
CONTINUOUS
 62
3
 10
54.284513513979618
 20
194.499766099016600
 40
2.000000000000000
 50
90.000000000000000
 51
180.000000000000000
  0
LINE
  8
0
  6
CONTINUOUS
 62
3
 10
55.284513513979618
 20
163.999766099017510
 11
55.284513513980528
 21
194.499766099016600
  0
LINE
  8
0
  6
CONTINUOUS
 62
3
 10
50.546193295193007
 20
176.430616292686860
 11
33.784513513994170
 21
175.552173878299980
  0
ARC
  8
0
  6
CONTINUOUS
 62
3
 10
47.284513513979618
 20
181.266540628609620
 40
4.999999999999158
 50
273.000000000006140
 51
0.000000000000000
  0
LINE
  8
0
  6
CONTINUOUS
 62
3
 10
55.284513513977799
 20
116.999766099016590
 11
55.284513513977799
 21
153.999766099017510
  0
ARC
  8
0
  6
CONTINUOUS
 62
3
 10
59.284513513979618
 20
164.999766099016600
 40
1.000000000000000
 50
0.000000000000000
 51
90.000000000000000
  0
LINE
  8
0
  6
CONTINUOUS
 62
3
 10
60.284513513979618
 20
152.999766099018420
 11
60.284513513979618
 21
164.999766099016600
  0
LINE
  8
0
  6
CONTINUOUS
 62
3
 10
56.284513513979618
 20
165.999766099016600
 11
59.284513513979618
 21
165.999766099016600
  0
ARC
  8
0
  6
CONTINUOUS
 62
3
 10
59.284513513979618
 20
152.999766099018420
 40
1.000000000000000
 50
270.000000000000000
 51
0.000000000000000
  0
LINE
  8
0
  6
CONTINUOUS
 62
3
 10
56.284513513979618
 20
151.999766099018420
 11
59.284513513979618
 21
151.999766099018420
  0
ARC
  8
0
  6
CONTINUOUS
 62
3
 10
56.284513513979618
 20
150.999766099018420
 40
1.000000000000000
 50
90.000000000000000
 51
180.000000000000000
  0
LINE
  8
0
  6
CONTINUOUS
 62
3
 10
56.284500570362979
 20
153.999766099016600
 11
56.284499113512538
 21
153.999766099016600
  0
ARC
  8
0
  6
CONTINUOUS
 62
3
 10
56.284513513979618
 20
166.999766099016600
 40
1.000000000000000
 50
180.000000000000000
 51
270.000000000000000
  0
ARC
  8
0
  6
CONTINUOUS
 62
3
 10
50.284513513978709
 20
181.423763966458860
 40
4.999999999999158
 50
273.000000000006140
 51
0.000000000000000
  0
LINE
  8
0
  6
CONTINUOUS
 62
3
 10
56.284500570362070
 20
153.999766099015690
 11
56.284499113511629
 21
153.999766099015690
  0
LINE
  8
0
  6
CONTINUOUS
 62
3
 10
50.546193295193007
 20
57.568915905346330
 11
33.784513513994170
 21
58.447358319733212
  0
ARC
  8
0
  6
CONTINUOUS
 62
3
 10
47.284513513979618
 20
52.732991569423575
 40
5.000000000000000
 50
0.000000000000000
 51
86.999999999993889
  0
LINE
  8
0
  6
CONTINUOUS
 62
3
 10
52.284513513979618
 20
52.732991569423575
 11
52.284513513979618
 21
39.499766099016597
  0
ARC
  8
0
  6
CONTINUOUS
 62
3
 10
57.284513513980528
 20
39.499766099016597
 40
2.000000000000000
 50
180.000000000000000
 51
270.000000000000000
  0
ARC
  8
0
  6
CONTINUOUS
 62
3
 10
54.284513513979618
 20
39.499766099016597
 40
2.000000000000000
 50
180.000000000000000
 51
270.000000000000000
  0
LINE
  8
0
  6
CONTINUOUS
 62
3
 10
55.284513513979618
 20
69.999766099015687
 11
55.284513513980528
 21
39.499766099016597
  0
LINE
  8
0
  6
CONTINUOUS
 62
3
 10
55.284513513977799
 20
116.999766099016590
 11
55.284513513977799
 21
79.999766099015687
  0
ARC
  8
0
  6
CONTINUOUS
 62
3
 10
59.284513513979618
 20
68.999766099016597
 40
1.000000000000000
 50
270.000000000000000
 51
0.000000000000000
  0
LINE
  8
0
  6
CONTINUOUS
 62
3
 10
60.284513513979618
 20
80.999766099014778
 11
60.284513513979618
 21
68.999766099016597
  0
LINE
  8
0
  6
CONTINUOUS
 62
3
 10
56.284513513979618
 20
67.999766099016597
 11
59.284513513979618
 21
67.999766099016597
  0
ARC
  8
0
  6
CONTINUOUS
 62
3
 10
59.284513513979618
 20
80.999766099014778
 40
1.000000000000000
 50
0.000000000000000
 51
90.000000000000000
  0
LINE
  8
0
  6
CONTINUOUS
 62
3
 10
56.284513513979618
 20
81.999766099014778
 11
59.284513513979618
 21
81.999766099014778
  0
ARC
  8
0
  6
CONTINUOUS
 62
3
 10
56.284513513979618
 20
82.999766099014778
 40
1.000000000000000
 50
180.000000000000000
 51
270.000000000000000
  0
LINE
  8
0
  6
CONTINUOUS
 62
3
 10
56.284500570362979
 20
79.999766099016597
 11
56.284499113512538
 21
79.999766099016597
  0
ARC
  8
0
  6
CONTINUOUS
 62
3
 10
56.284513513979618
 20
66.999766099016597
 40
1.000000000000000
 50
90.000000000000000
 51
180.000000000000000
  0
ARC
  8
0
  6
CONTINUOUS
 62
3
 10
50.284513513978709
 20
52.575768231574330
 40
5.000000000000000
 50
0.000000000000000
 51
86.999999999993889
  0
LINE
  8
0
  6
CONTINUOUS
 62
3
 10
56.284500570362070
 20
79.999766099017506
 11
56.284499113511629
 21
79.999766099017506
  0
LINE
  8
0
  6
CONTINUOUS
 62
3
 10
33.784513513994170
 20
58.447358319733212
 11
33.784513513994170
 21
116.999766099016590
  0
LINE
  8
0
  6
CONTINUOUS
 62
3
 10
33.784513513994170
 20
175.552173878299980
 11
33.784513513994170
 21
116.999766099016590
  0
LINE
  8
0
  6
CONTINUOUS
 62
3
 10
66.284513513983256
 20
196.499766099016600
 11
66.284513513983256
 21
116.999766099017500
  0
LINE
  8
0
  6
CONTINUOUS
 62
3
 10
66.784513513983256
 20
37.499766099016597
 11
54.284513513979618
 21
37.499766099016597
  0
LINE
  8
0
  6
CONTINUOUS
 62
3
 10
66.284513513983256
 20
37.499766099016597
 11
66.284513513983256
 21
116.999766099015680
  0
LINE
  8
0
  6
CONTINUOUS
 62
3
 10
160.084513513982760
 20
102.499766099015680
 11
158.284513513983480
 21
102.499766099015680
  0
LINE
  8
0
  6
CONTINUOUS
 62
3
 10
160.284513513983480
 20
116.999766099015680
 11
160.284513513983480
 21
102.699766099015500
  0
LINE
  8
0
  6
CONTINUOUS
 62
3
 10
160.284513513983480
 20
102.699766099015500
 11
160.084513513982760
 21
102.499766099015680
  0
ARC
  8
0
  6
CONTINUOUS
 62
3
 10
160.684513513983120
 20
102.749766099015680
 40
0.399999999999636
 50
90.000000000000000
 51
180.000000000000000
  0
LINE
  8
0
  6
CONTINUOUS
 62
3
 10
162.844321135117980
 20
102.999766099015680
 11
162.284513513983480
 21
103.149766099015320
  0
LINE
  8
0
  6
CONTINUOUS
 62
3
 10
162.284513513983480
 20
103.149766099015320
 11
160.684513513983120
 21
103.149766099015320
  0
LINE
  8
0
  6
CONTINUOUS
 62
3
 10
160.084513513982760
 20
131.499766099015690
 11
158.284513513983480
 21
131.499766099015690
  0
LINE
  8
0
  6
CONTINUOUS
 62
3
 10
160.284513513983480
 20
116.999766099015680
 11
160.284513513983480
 21
131.299766099015870
  0
LINE
  8
0
  6
CONTINUOUS
 62
3
 10
160.284513513983480
 20
131.299766099015870
 11
160.084513513982760
 21
131.499766099015690
  0
ARC
  8
0
  6
CONTINUOUS
 62
3
 10
160.684513513983120
 20
131.249766099015690
 40
0.399999999999636
 50
180.000000000000000
 51
270.000000000000000
  0
LINE
  8
0
  6
CONTINUOUS
 62
3
 10
162.844321135117980
 20
130.999766099015690
 11
162.284513513983480
 21
130.849766099016050
  0
LINE
  8
0
  6
CONTINUOUS
 62
3
 10
162.284513513983480
 20
130.849766099016050
 11
160.684513513983120
 21
130.849766099016050
  0
LINE
  8
0
  6
CONTINUOUS
 62
3
 10
166.284513513983480
 20
99.999766099015687
 11
166.284513513983480
 21
102.999766099015680
  0
LINE
  8
0
  6
CONTINUOUS
 62
3
 10
202.284513513983480
 20
130.599766099016050
 11
202.284513513983480
 21
116.999766099015680
  0
LINE
  8
0
  6
CONTINUOUS
 62
3
 10
201.884513513982940
 20
130.999766099015690
 11
162.844321135117980
 21
130.999766099015690
  0
ARC
  8
0
  6
CONTINUOUS
 62
3
 10
201.884513513982940
 20
130.599766099016050
 40
0.400000000000546
 50
0.000000000000000
 51
90.000000000000000
  0
LINE
  8
0
  6
CONTINUOUS
 62
3
 10
202.284513513983480
 20
99.999766099015687
 11
202.284513513983480
 21
103.399766099015320
  0
LINE
  8
0
  6
CONTINUOUS
 62
3
 10
202.284513513983480
 20
99.999766099015687
 11
166.284513513983480
 21
99.999766099015687
  0
LINE
  8
0
  6
CONTINUOUS
 62
3
 10
202.284513513983480
 20
103.399766099015320
 11
202.284513513983480
 21
116.999766099015680
  0
LINE
  8
0
  6
CONTINUOUS
 62
3
 10
201.884513513982940
 20
102.999766099015680
 11
162.844321135117980
 21
102.999766099015680
  0
ARC
  8
0
  6
CONTINUOUS
 62
3
 10
201.884513513982940
 20
103.399766099015320
 40
0.399999999999636
 50
270.000000000000000
 51
0.000000000000000
  0
POLYLINE
  8
0
  6
CONTINUOUS
 62
3
 66
1
 70
1
  0
VERTEX
  8
0
  6
CONTINUOUS
 62
3
 10
-121.515486486005150
 20
65.076241066955845
  0
VERTEX
  8
0
  6
CONTINUOUS
 62
3
 10
-121.605795668109970
 20
65.779198033156206
  0
VERTEX
  8
0
  6
CONTINUOUS
 62
3
 10
-121.873252683202110
 20
66.455140757368298
  0
VERTEX
  8
0
  6
CONTINUOUS
 62
3
 10
-122.307579308183190
 20
67.078093139773699
  0
VERTEX
  8
0
  6
CONTINUOUS
 62
3
 10
-122.892084614428380
 20
67.624115469672276
  0
VERTEX
  8
0
  6
CONTINUOUS
 62
3
 10
-123.604306390813020
 20
68.072224415138891
  0
VERTEX
  8
0
  6
CONTINUOUS
 62
3
 10
-124.416874353889220
 20
68.405199400701662
  0
VERTEX
  8
0
  6
CONTINUOUS
 62
3
 10
-125.298561972529340
 20
68.610244384399905
  0
VERTEX
  8
0
  6
CONTINUOUS
 62
3
 10
-126.215486486005140
 20
68.679479602500678
  0
VERTEX
  8
0
  6
CONTINUOUS
 62
3
 10
-127.132410999480950
 20
68.610244384399905
  0
VERTEX
  8
0
  6
CONTINUOUS
 62
3
 10
-128.014098618121070
 20
68.405199400701662
  0
VERTEX
  8
0
  6
CONTINUOUS
 62
3
 10
-128.826666581197260
 20
68.072224415138891
  0
VERTEX
  8
0
  6
CONTINUOUS
 62
3
 10
-129.538888357581920
 20
67.624115469672276
  0
VERTEX
  8
0
  6
CONTINUOUS
 62
3
 10
-130.123393663827100
 20
67.078093139773699
  0
VERTEX
  8
0
  6
CONTINUOUS
 62
3
 10
-130.557720288808180
 20
66.455140757368298
  0
VERTEX
  8
0
  6
CONTINUOUS
 62
3
 10
-130.825177303900320
 20
65.779198033156206
  0
VERTEX
  8
0
  6
CONTINUOUS
 62
3
 10
-130.915486486005140
 20
65.076241066955845
  0
VERTEX
  8
0
  6
CONTINUOUS
 62
3
 10
-130.825177303900320
 20
64.373284100755484
  0
VERTEX
  8
0
  6
CONTINUOUS
 62
3
 10
-130.557720288808180
 20
63.697341376543392
  0
VERTEX
  8
0
  6
CONTINUOUS
 62
3
 10
-130.123393663827100
 20
63.074388994137990
  0
VERTEX
  8
0
  6
CONTINUOUS
 62
3
 10
-129.538888357581900
 20
62.528366664239414
  0
VERTEX
  8
0
  6
CONTINUOUS
 62
3
 10
-128.826666581197260
 20
62.080257718772792
  0
VERTEX
  8
0
  6
CONTINUOUS
 62
3
 10
-128.014098618121070
 20
61.747282733210035
  0
VERTEX
  8
0
  6
CONTINUOUS
 62
3
 10
-127.132410999480950
 20
61.542237749511784
  0
VERTEX
  8
0
  6
CONTINUOUS
 62
3
 10
-126.215486486005140
 20
61.473002531411012
  0
VERTEX
  8
0
  6
CONTINUOUS
 62
3
 10
-125.298561972529340
 20
61.542237749511784
  0
VERTEX
  8
0
  6
CONTINUOUS
 62
3
 10
-124.416874353889220
 20
61.747282733210035
  0
VERTEX
  8
0
  6
CONTINUOUS
 62
3
 10
-123.604306390813020
 20
62.080257718772792
  0
VERTEX
  8
0
  6
CONTINUOUS
 62
3
 10
-122.892084614428380
 20
62.528366664239414
  0
VERTEX
  8
0
  6
CONTINUOUS
 62
3
 10
-122.307579308183190
 20
63.074388994137990
  0
VERTEX
  8
0
  6
CONTINUOUS
 62
3
 10
-121.873252683202110
 20
63.697341376543392
  0
VERTEX
  8
0
  6
CONTINUOUS
 62
3
 10
-121.605795668109970
 20
64.373284100755484
  0
SEQEND
  8
0
  6
CONTINUOUS
 62
3
  0
LINE
  8
0
  6
CONTINUOUS
 62
3
 10
-128.215486486005150
 20
62.083865512955526
 11
-126.215486486005140
 21
63.259650998577854
  0
LINE
  8
0
  6
CONTINUOUS
 62
3
 10
-126.215486486005140
 20
63.259650998577854
 11
-124.215486486005140
 21
64.912292637701285
  0
LINE
  8
0
  6
CONTINUOUS
 62
3
 10
-124.215486486005140
 20
62.083865512955526
 11
-126.215486486005140
 21
63.259650998577854
  0
LINE
  8
0
  6
CONTINUOUS
 62
3
 10
-126.215486486005140
 20
63.259650998577854
 11
-128.215486486005150
 21
64.912292637701285
  0
POLYLINE
  8
0
  6
CONTINUOUS
 62
3
 66
1
 70
1
  0
VERTEX
  8
0
  6
CONTINUOUS
 62
3
 10
-121.515486486005150
 20
168.923291131075760
  0
VERTEX
  8
0
  6
CONTINUOUS
 62
3
 10
-121.605795668109970
 20
169.626248097276120
  0
VERTEX
  8
0
  6
CONTINUOUS
 62
3
 10
-121.873252683202110
 20
170.302190821488210
  0
VERTEX
  8
0
  6
CONTINUOUS
 62
3
 10
-122.307579308183190
 20
170.925143203893610
  0
VERTEX
  8
0
  6
CONTINUOUS
 62
3
 10
-122.892084614428380
 20
171.471165533792200
  0
VERTEX
  8
0
  6
CONTINUOUS
 62
3
 10
-123.604306390813020
 20
171.919274479258830
  0
VERTEX
  8
0
  6
CONTINUOUS
 62
3
 10
-124.416874353889220
 20
172.252249464821570
  0
VERTEX
  8
0
  6
CONTINUOUS
 62
3
 10
-125.298561972529340
 20
172.457294448519830
  0
VERTEX
  8
0
  6
CONTINUOUS
 62
3
 10
-126.215486486005140
 20
172.526529666620600
  0
VERTEX
  8
0
  6
CONTINUOUS
 62
3
 10
-127.132410999480950
 20
172.457294448519830
  0
VERTEX
  8
0
  6
CONTINUOUS
 62
3
 10
-128.014098618121070
 20
172.252249464821570
  0
VERTEX
  8
0
  6
CONTINUOUS
 62
3
 10
-128.826666581197260
 20
171.919274479258830
  0
VERTEX
  8
0
  6
CONTINUOUS
 62
3
 10
-129.538888357581920
 20
171.471165533792200
  0
VERTEX
  8
0
  6
CONTINUOUS
 62
3
 10
-130.123393663827100
 20
170.925143203893610
  0
VERTEX
  8
0
  6
CONTINUOUS
 62
3
 10
-130.557720288808180
 20
170.302190821488210
  0
VERTEX
  8
0
  6
CONTINUOUS
 62
3
 10
-130.825177303900320
 20
169.626248097276120
  0
VERTEX
  8
0
  6
CONTINUOUS
 62
3
 10
-130.915486486005140
 20
168.923291131075760
  0
VERTEX
  8
0
  6
CONTINUOUS
 62
3
 10
-130.825177303900320
 20
168.220334164875400
  0
VERTEX
  8
0
  6
CONTINUOUS
 62
3
 10
-130.557720288808180
 20
167.544391440663300
  0
VERTEX
  8
0
  6
CONTINUOUS
 62
3
 10
-130.123393663827100
 20
166.921439058257900
  0
VERTEX
  8
0
  6
CONTINUOUS
 62
3
 10
-129.538888357581900
 20
166.375416728359310
  0
VERTEX
  8
0
  6
CONTINUOUS
 62
3
 10
-128.826666581197260
 20
165.927307782892680
  0
VERTEX
  8
0
  6
CONTINUOUS
 62
3
 10
-128.014098618121070
 20
165.594332797329940
  0
VERTEX
  8
0
  6
CONTINUOUS
 62
3
 10
-127.132410999480950
 20
165.389287813631680
  0
VERTEX
  8
0
  6
CONTINUOUS
 62
3
 10
-126.215486486005140
 20
165.320052595530910
  0
VERTEX
  8
0
  6
CONTINUOUS
 62
3
 10
-125.298561972529340
 20
165.389287813631680
  0
VERTEX
  8
0
  6
CONTINUOUS
 62
3
 10
-124.416874353889220
 20
165.594332797329940
  0
VERTEX
  8
0
  6
CONTINUOUS
 62
3
 10
-123.604306390813020
 20
165.927307782892680
  0
VERTEX
  8
0
  6
CONTINUOUS
 62
3
 10
-122.892084614428380
 20
166.375416728359310
  0
VERTEX
  8
0
  6
CONTINUOUS
 62
3
 10
-122.307579308183190
 20
166.921439058257900
  0
VERTEX
  8
0
  6
CONTINUOUS
 62
3
 10
-121.873252683202110
 20
167.544391440663300
  0
VERTEX
  8
0
  6
CONTINUOUS
 62
3
 10
-121.605795668109970
 20
168.220334164875400
  0
SEQEND
  8
0
  6
CONTINUOUS
 62
3
  0
LINE
  8
0
  6
CONTINUOUS
 62
3
 10
-128.215486486005150
 20
171.915666685076080
 11
-126.215486486005140
 21
170.739881199453290
  0
LINE
  8
0
  6
CONTINUOUS
 62
3
 10
-126.215486486005140
 20
170.739881199453290
 11
-124.215486486005140
 21
169.087239560329860
  0
LINE
  8
0
  6
CONTINUOUS
 62
3
 10
-124.215486486005140
 20
171.915666685076080
 11
-126.215486486005140
 21
170.739881199453290
  0
LINE
  8
0
  6
CONTINUOUS
 62
3
 10
-126.215486486005140
 20
170.739881199453290
 11
-128.215486486005150
 21
169.087239560329860
  0
LINE
  8
0
  6
CONTINUOUS
 62
3
 10
-115.215486486005600
 20
116.999766099015680
 11
-115.215486486005600
 21
181.999766099015690
  0
LINE
  8
0
  6
CONTINUOUS
 62
3
 10
33.784513513994170
 20
176.499766099015460
 11
33.784513513994170
 21
116.999766099015680
  0
LINE
  8
0
  6
CONTINUOUS
 62
3
 10
-115.215486486005600
 20
181.999766099015690
 11
-143.909510708426070
 21
181.999766099015690
  0
LINE
  8
0
  6
CONTINUOUS
 62
3
 10
-166.215486485955580
 20
116.999766099015680
 11
-166.215486485955580
 21
169.442971156261140
  0
ARC
  8
0
  6
CONTINUOUS
 62
3
 10
-143.909510708426070
 20
161.999766099015690
 40
20.000000000000000
 50
90.000000000000000
 51
125.000000000000240
  0
LINE
  8
0
  6
CONTINUOUS
 62
3
 10
-155.381039435447060
 20
178.382806984795480
 11
-165.106785220468050
 21
171.572766471412250
  0
ARC
  8
0
  6
CONTINUOUS
 62
3
 10
-163.615486485955440
 20
169.442971156261140
 40
2.599999999999721
 50
125.000000000001370
 51
180.000000000000000
  0
LINE
  8
0
  6
CONTINUOUS
 62
3
 10
-115.215486486005600
 20
116.999766099015680
 11
-115.215486486005600
 21
58.380545182142896
  0
LINE
  8
0
  6
CONTINUOUS
 62
3
 10
33.784513513994170
 20
57.499766099015687
 11
33.784513513994170
 21
116.999766099015680
  0
LINE
  8
0
  6
CONTINUOUS
 62
3
 10
-166.215486485955580
 20
116.999766099015680
 11
-166.215486485955580
 21
64.556561041770237
  0
LINE
  8
0
  6
CONTINUOUS
 62
3
 10
-155.381039435447060
 20
55.616725213235895
 11
-165.106785220468050
 21
62.426765726619124
  0
ARC
  8
0
  6
CONTINUOUS
 62
3
 10
-163.615486485955440
 20
64.556561041770237
 40
2.600000000000136
 50
180.000000000000000
 51
234.999999999998610
  0
LINE
  8
0
  6
CONTINUOUS
 62
3
 10
-125.215486486005600
 20
51.999766099015687
 11
-143.909510708426070
 21
51.999766099015687
  0
ARC
  8
0
  6
CONTINUOUS
 62
3
 10
-143.909510708426070
 20
71.999766099015687
 40
20.000000000000007
 50
234.999999999999740
 51
270.000000000000000
  0
LINE
  8
0
  6
CONTINUOUS
 62
3
 10
-123.215486486005600
 20
53.499766099015915
 11
-123.215486486005600
 21
55.208972306889109
  0
LINE
  8
0
  6
CONTINUOUS
 62
3
 10
-48.215486486005602
 20
58.499766099015915
 11
-115.215486486005600
 21
58.499766099015915
  0
LINE
  8
0
  6
CONTINUOUS
 62
3
 10
-48.215486486005602
 20
53.499766099015915
 11
-123.215486486005600
 21
53.499766099015915
  0
LINE
  8
0
  6
CONTINUOUS
 62
3
 10
-122.215486486005600
 20
24.999766099016142
 11
-122.215486486005600
 21
53.499766099015915
  0
LINE
  8
0
  6
CONTINUOUS
 62
3
 10
-49.215486486005602
 20
24.999766099016142
 11
-49.215486486005602
 21
53.499766099015915
  0
ARC
  8
0
  6
CONTINUOUS
 62
3
 10
-50.215486486005602
 20
24.999766099016142
 40
1.000000000000000
 50
270.000000000000000
 51
0.000000000000000
  0
ARC
  8
0
  6
CONTINUOUS
 62
3
 10
-121.215486486005600
 20
24.999766099016142
 40
1.000000000000000
 50
180.000000000000000
 51
270.000000000000000
  0
LINE
  8
0
  6
CONTINUOUS
 62
3
 10
-50.215486486005602
 20
23.999766099016142
 11
-121.215486486005600
 21
23.999766099016142
  0
LINE
  8
0
  6
CONTINUOUS
 62
3
 10
-56.215486486005602
 20
23.999766099016142
 11
-56.215486486005602
 21
23.499766099016142
  0
LINE
  8
0
  6
CONTINUOUS
 62
3
 10
-58.715486486005602
 20
23.999766099016142
 11
-58.715486486005602
 21
23.499766099016142
  0
LINE
  8
0
  6
CONTINUOUS
 62
3
 10
-64.215486486005602
 20
23.999766099016142
 11
-64.215486486005602
 21
23.499766099016142
  0
LINE
  8
0
  6
CONTINUOUS
 62
3
 10
-56.215486486005602
 20
23.499766099016142
 11
-64.215486486005602
 21
23.499766099016142
  0
LINE
  8
0
  6
CONTINUOUS
 62
3
 10
-48.215486486005602
 20
53.499766099015915
 11
-48.215486486005602
 21
58.499766099015915
  0
LINE
  8
0
  6
CONTINUOUS
 62
3
 10
-122.215486486005600
 20
55.380545182142896
 11
-118.215486486005600
 21
55.380545182142896
  0
LINE
  8
0
  6
CONTINUOUS
 62
3
 10
-125.215486486005600
 20
51.999766099015687
 11
-125.215486486005600
 21
52.380545182142896
  0
ARC
  8
0
  6
CONTINUOUS
 62
3
 10
-118.215486486005600
 20
58.380545182142896
 40
3.000000000000000
 50
270.000000000000000
 51
0.000000000000000
  0
ARC
  8
0
  6
CONTINUOUS
 62
3
 10
-122.215486486005600
 20
52.380545182142896
 40
3.000000000000000
 50
90.000000000000000
 51
180.000000000000000
  0
LINE
  8
0
  6
CONTINUOUS
 62
3
 10
-115.215486486005600
 20
176.499766099015460
 11
33.784513513994170
 21
176.499766099015460
  0
LINE
  8
0
  6
CONTINUOUS
 62
3
 10
-48.215486486005602
 20
57.499766099015687
 11
33.784513513994170
 21
57.499766099015687
  0
LINE
  8
0
  6
CONTINUOUS
 62
4
 10
-115.215486486005600
 20
59.999766099015687
 11
33.784513513994170
 21
59.999766099015687
  0
LINE
  8
0
  6
CONTINUOUS
 62
4
 10
-115.215486486005600
 20
60.999766099015687
 11
33.784513513994170
 21
60.999766099015687
  0
LINE
  8
0
  6
CONTINUOUS
 62
4
 10
-115.215486486005600
 20
61.999766099015687
 11
33.784513513994170
 21
61.999766099015687
  0
LINE
  8
0
  6
CONTINUOUS
 62
4
 10
-115.215486486005600
 20
66.684231912239966
 11
33.784513513994170
 21
66.684231912239966
  0
LINE
  8
0
  6
CONTINUOUS
 62
4
 10
-115.215486486005600
 20
71.633979380545725
 11
33.784513513994170
 21
71.633979380545725
  0
LINE
  8
0
  6
CONTINUOUS
 62
4
 10
-115.215486486005600
 20
79.680581043279744
 11
33.784513513994170
 21
79.680581043279744
  0
LINE
  8
0
  6
CONTINUOUS
 62
4
 10
-115.215486486005600
 20
81.285228958841799
 11
33.784513513994170
 21
81.285228958841799
  0
LINE
  8
0
  6
CONTINUOUS
 62
4
 10
-115.215486486005600
 20
85.248974382641336
 11
33.784513513994170
 21
85.248974382641336
  0
LINE
  8
0
  6
CONTINUOUS
 62
4
 10
-115.215486486005600
 20
86.717331772445959
 11
33.784513513994170
 21
86.717331772445959
  0
LINE
  8
0
  6
CONTINUOUS
 62
4
 10
-115.215486486005600
 20
90.807832306535829
 11
33.784513513994170
 21
90.807832306535829
  0
LINE
  8
0
  6
CONTINUOUS
 62
4
 10
-115.215486486005600
 20
92.169712641885098
 11
33.784513513994170
 21
92.169712641885098
  0
LINE
  8
0
  6
CONTINUOUS
 62
4
 10
-115.215486486005600
 20
96.360266373427294
 11
33.784513513994170
 21
96.360266373427294
  0
LINE
  8
0
  6
CONTINUOUS
 62
4
 10
-115.215486486005600
 20
97.626504289514514
 11
33.784513513994170
 21
97.626504289514514
  0
LINE
  8
0
  6
CONTINUOUS
 62
4
 10
-115.215486486005600
 20
101.999766099015680
 11
33.784513513994170
 21
101.999766099015680
  0
LINE
  8
0
  6
CONTINUOUS
 62
4
 10
-115.215486486005600
 20
154.318951154751630
 11
33.784513513994170
 21
154.318951154751630
  0
LINE
  8
0
  6
CONTINUOUS
 62
4
 10
-115.215486486005600
 20
152.714303239189580
 11
33.784513513994170
 21
152.714303239189580
  0
LINE
  8
0
  6
CONTINUOUS
 62
4
 10
-115.215486486005600
 20
148.750557815390040
 11
33.784513513994170
 21
148.750557815390040
  0
LINE
  8
0
  6
CONTINUOUS
 62
4
 10
-115.215486486005600
 20
147.282200425585420
 11
33.784513513994170
 21
147.282200425585420
  0
LINE
  8
0
  6
CONTINUOUS
 62
4
 10
-115.215486486005600
 20
143.191699891495550
 11
33.784513513994170
 21
143.191699891495550
  0
LINE
  8
0
  6
CONTINUOUS
 62
4
 10
-115.215486486005600
 20
141.829819556146280
 11
33.784513513994170
 21
141.829819556146280
  0
LINE
  8
0
  6
CONTINUOUS
 62
4
 10
-115.215486486005600
 20
137.639265824604080
 11
33.784513513994170
 21
137.639265824604080
  0
LINE
  8
0
  6
CONTINUOUS
 62
4
 10
-115.215486486005600
 20
136.373027908516860
 11
33.784513513994170
 21
136.373027908516860
  0
LINE
  8
0
  6
CONTINUOUS
 62
4
 10
-115.215486486005600
 20
131.999766099015690
 11
33.784513513994170
 21
131.999766099015690
  0
LINE
  8
0
  6
CONTINUOUS
 62
4
 10
-115.215486486005600
 20
162.365552817485650
 11
33.784513513994170
 21
162.365552817485650
  0
LINE
  8
0
  6
CONTINUOUS
 62
4
 10
-115.215486486005600
 20
167.315300285791410
 11
33.784513513994170
 21
167.315300285791410
  0
LINE
  8
0
  6
CONTINUOUS
 62
4
 10
-115.215486486005600
 20
171.999766099015690
 11
33.784513513994170
 21
171.999766099015690
  0
LINE
  8
0
  6
CONTINUOUS
 62
4
 10
-115.215486486005600
 20
172.999766099015690
 11
33.784513513994170
 21
172.999766099015690
  0
LINE
  8
0
  6
CONTINUOUS
 62
4
 10
-115.215486486005600
 20
173.999766099015690
 11
33.784513513994170
 21
173.999766099015690
  0
LINE
  8
0
  6
CONTINUOUS
 62
3
 10
-48.215486486005602
 20
176.499766099015690
 11
33.784513513994170
 21
176.499766099015690
  0
LINE
  8
0
  6
CONTINUOUS
 62
3
 10
9.284513513994170
 20
176.499766099015460
 11
-114.715486486005830
 21
176.499766099015460
  0
LINE
  8
0
  6
DASHDOT
 62
3
 10
9.284513513994170
 20
176.499766099015460
 11
9.284513513994170
 21
181.499766099015460
  0
LINE
  8
0
  6
CONTINUOUS
 62
3
 10
-114.715486486005830
 20
176.499766099015460
 11
-114.715486486005830
 21
181.499766099015460
  0
ARC
  8
0
  6
CONTINUOUS
 62
3
 10
10.284513513994170
 20
200.002635719596360
 40
2.000000000000000
 50
270.000000000000000
 51
0.000000000000000
  0
ARC
  8
0
  6
CONTINUOUS
 62
3
 10
10.284513513994170
 20
200.801637590715250
 40
2.000000000000000
 50
270.000000000000000
 51
0.000000000000000
  0
ARC
  8
0
  6
CONTINUOUS
 62
3
 10
10.284513513994170
 20
201.600639461800480
 40
2.000000000000000
 50
270.000000000000000
 51
0.000000000000000
  0
ARC
  8
0
  6
CONTINUOUS
 62
3
 10
10.284513513994170
 20
202.694276390077680
 40
2.000000000000000
 50
0.000000000000000
 51
90.000000000000000
  0
LINE
  8
0
  6
CONTINUOUS
 62
3
 10
9.284513513994170
 20
204.694276390077680
 11
10.284513513994170
 21
204.694276390077680
  0
LINE
  8
0
  6
CONTINUOUS
 62
3
 10
10.284513513994170
 20
198.002635719596360
 11
-115.715486486005830
 21
198.002635719596360
  0
LINE
  8
0
  6
CONTINUOUS
 62
3
 10
10.284513513994170
 20
198.801637590698420
 11
-115.715486486005830
 21
198.801637590698420
  0
LINE
  8
0
  6
CONTINUOUS
 62
3
 10
12.284513513994170
 20
202.694276390077680
 11
12.284513513994170
 21
200.002635719596360
  0
LINE
  8
0
  6
CONTINUOUS
 62
3
 10
9.284513513994170
 20
186.499766099015460
 11
9.284513513994170
 21
197.801637590715250
  0
LINE
  8
0
  6
CONTINUOUS
 62
3
 10
-109.715486486005830
 20
223.099766099015370
 11
4.284513513994170
 21
223.099766099015370
  0
ARC
  8
0
  6
CONTINUOUS
 62
3
 10
4.284513513994170
 20
218.099766099015370
 40
5.000000000000000
 50
0.000000000000000
 51
90.000000000000000
  0
LINE
  8
0
  6
CONTINUOUS
 62
3
 10
-114.715486486005830
 20
186.499766099015460
 11
-114.715486486005830
 21
198.002635719596360
  0
ARC
  8
0
  6
CONTINUOUS
 62
3
 10
-115.715486486005830
 20
200.002635719596360
 40
2.000000000000000
 50
180.000000000000000
 51
270.000000000000000
  0
LINE
  8
0
  6
CONTINUOUS
 62
3
 10
-117.715486486005830
 20
202.694276390077680
 11
-117.715486486005830
 21
200.002635719596360
  0
ARC
  8
0
  6
CONTINUOUS
 62
3
 10
-115.715486486005830
 20
200.801637590715250
 40
2.000000000000000
 50
180.000000000000000
 51
270.000000000000000
  0
ARC
  8
0
  6
CONTINUOUS
 62
3
 10
-115.715486486005830
 20
201.600639461800480
 40
2.000000000000000
 50
180.000000000000000
 51
270.000000000000000
  0
ARC
  8
0
  6
CONTINUOUS
 62
3
 10
-115.715486486005830
 20
202.694276390077680
 40
2.000000000000000
 50
90.000000000000000
 51
180.000000000000000
  0
ARC
  8
0
  6
CONTINUOUS
 62
3
 10
-109.715486486005830
 20
218.099766099015370
 40
5.000000000000000
 50
90.000000000000000
 51
180.000000000000000
  0
ARC
  8
0
  6
CONTINUOUS
 62
3
 10
-109.715486486005830
 20
186.499766099015460
 40
5.000000000000000
 50
180.000000000000000
 51
270.000000000000000
  0
LINE
  8
0
  6
CONTINUOUS
 62
3
 10
10.284513513994170
 20
199.600639461800480
 11
-115.715486486005830
 21
199.600639461800480
  0
LINE
  8
0
  6
CONTINUOUS
 62
3
 10
-114.715486486005830
 20
204.694276390077680
 11
-115.715486486005830
 21
204.694276390077680
  0
LINE
  8
0
  6
CONTINUOUS
 62
3
 10
-114.715486486005830
 20
205.160791158702300
 11
-114.715486486005830
 21
218.099766099015370
  0
ARC
  8
0
  6
CONTINUOUS
 62
3
 10
4.284513513994170
 20
186.499766099015460
 40
5.000000000000000
 50
270.000000000000000
 51
0.000000000000000
  0
LINE
  8
0
  6
CONTINUOUS
 62
3
 10
9.284513513994170
 20
205.160791158702300
 11
9.284513513994170
 21
218.099766099015370
  0
POLYLINE
  8
0
  6
CONTINUOUS
 62
3
 66
1
  0
VERTEX
  8
0
  6
CONTINUOUS
 62
3
 10
-111.215486486005830
 20
199.850327546520250
  0
VERTEX
  8
0
  6
CONTINUOUS
 62
3
 10
-111.148234967417130
 20
199.816229336324260
  0
VERTEX
  8
0
  6
CONTINUOUS
 62
3
 10
-110.949064849795330
 20
199.783441501223620
  0
VERTEX
  8
0
  6
CONTINUOUS
 62
3
 10
-110.625630129064730
 20
199.753224059333600
  0
VERTEX
  8
0
  6
CONTINUOUS
 62
3
 10
-110.190360220158750
 20
199.726738249999900
  0
VERTEX
  8
0
  6
CONTINUOUS
 62
3
 10
-109.659982301574440
 20
199.705001908021810
  0
VERTEX
  8
0
  6
CONTINUOUS
 62
3
 10
-109.054878499283640
 20
199.688850348831640
  0
VERTEX
  8
0
  6
CONTINUOUS
 62
3
 10
-108.398302613062280
 20
199.678904267791180
  0
VERTEX
  8
0
  6
CONTINUOUS
 62
3
 10
-107.715486486005830
 20
199.675545887217030
  0
VERTEX
  8
0
  6
CONTINUOUS
 62
3
 10
-107.032670358949380
 20
199.678904267791180
  0
VERTEX
  8
0
  6
CONTINUOUS
 62
3
 10
-106.376094472728010
 20
199.688850348831640
  0
VERTEX
  8
0
  6
CONTINUOUS
 62
3
 10
-105.770990670437220
 20
199.705001908021810
  0
VERTEX
  8
0
  6
CONTINUOUS
 62
3
 10
-105.240612751852920
 20
199.726738249999900
  0
VERTEX
  8
0
  6
CONTINUOUS
 62
3
 10
-104.805342842946920
 20
199.753224059333600
  0
VERTEX
  8
0
  6
CONTINUOUS
 62
3
 10
-104.481908122216320
 20
199.783441501223620
  0
VERTEX
  8
0
  6
CONTINUOUS
 62
3
 10
-104.282738004594520
 20
199.816229336324260
  0
VERTEX
  8
0
  6
CONTINUOUS
 62
3
 10
-104.215486486005830
 20
199.850327546520250
  0
SEQEND
  8
0
  6
CONTINUOUS
 62
3
  0
ARC
  8
0
  6
CONTINUOUS
 62
3
 10
-105.515486486006010
 20
200.837337284444630
 40
1.300000000000182
 50
0.000000000000000
 51
73.398450400977637
  0
ARC
  8
0
  6
CONTINUOUS
 62
3
 10
-107.715486486005830
 20
193.458312958695160
 40
9.000000000000123
 50
73.398450400980877
 51
106.601549599019120
  0
ARC
  8
0
  6
CONTINUOUS
 62
3
 10
-109.915486486005640
 20
200.837337284444630
 40
1.300000000000019
 50
106.601549599022360
 51
180.000000000000000
  0
LINE
  8
0
  6
CONTINUOUS
 62
3
 10
-104.215486486005830
 20
200.837337284444630
 11
-104.215486486005830
 21
199.850327546520250
  0
LINE
  8
0
  6
CONTINUOUS
 62
3
 10
-111.215486486005830
 20
200.837337284444630
 11
-111.215486486005830
 21
199.850327546520250
  0
ARC
  8
0
  6
CONTINUOUS
 62
3
 10
-109.715486486005830
 20
205.160791158702300
 40
5.000000000000000
 50
180.000000000000000
 51
252.542396876278160
  0
LINE
  8
0
  6
CONTINUOUS
 62
3
 10
-1.215486486005830
 20
200.837337284444630
 11
-1.215486486005830
 21
199.850327546520250
  0
POLYLINE
  8
0
  6
CONTINUOUS
 62
3
 66
1
  0
VERTEX
  8
0
  6
CONTINUOUS
 62
3
 10
-1.215486486005830
 20
199.850327546520250
  0
VERTEX
  8
0
  6
CONTINUOUS
 62
3
 10
-1.148234967417136
 20
199.816229336324260
  0
VERTEX
  8
0
  6
CONTINUOUS
 62
3
 10
-0.949064849795333
 20
199.783441501223620
  0
VERTEX
  8
0
  6
CONTINUOUS
 62
3
 10
-0.625630129064738
 20
199.753224059333600
  0
VERTEX
  8
0
  6
CONTINUOUS
 62
3
 10
-0.190360220158746
 20
199.726738249999900
  0
VERTEX
  8
0
  6
CONTINUOUS
 62
3
 10
0.340017698425562
 20
199.705001908021810
  0
VERTEX
  8
0
  6
CONTINUOUS
 62
3
 10
0.945121500716356
 20
199.688850348831640
  0
VERTEX
  8
0
  6
CONTINUOUS
 62
3
 10
1.601697386937721
 20
199.678904267791180
  0
VERTEX
  8
0
  6
CONTINUOUS
 62
3
 10
2.284513513994169
 20
199.675545887217030
  0
VERTEX
  8
0
  6
CONTINUOUS
 62
3
 10
2.967329641050618
 20
199.678904267791180
  0
VERTEX
  8
0
  6
CONTINUOUS
 62
3
 10
3.623905527271983
 20
199.688850348831640
  0
VERTEX
  8
0
  6
CONTINUOUS
 62
3
 10
4.229009329562777
 20
199.705001908021810
  0
VERTEX
  8
0
  6
CONTINUOUS
 62
3
 10
4.759387248147085
 20
199.726738249999900
  0
VERTEX
  8
0
  6
CONTINUOUS
 62
3
 10
5.194657157053077
 20
199.753224059333600
  0
VERTEX
  8
0
  6
CONTINUOUS
 62
3
 10
5.518091877783672
 20
199.783441501223620
  0
VERTEX
  8
0
  6
CONTINUOUS
 62
3
 10
5.717261995405474
 20
199.816229336324260
  0
VERTEX
  8
0
  6
CONTINUOUS
 62
3
 10
5.784513513994169
 20
199.850327546520250
  0
SEQEND
  8
0
  6
CONTINUOUS
 62
3
  0
LINE
  8
0
  6
CONTINUOUS
 62
3
 10
5.784513513994170
 20
200.837337284444630
 11
5.784513513994170
 21
199.850327546520250
  0
ARC
  8
0
  6
CONTINUOUS
 62
3
 10
0.084513513994352
 20
200.837337284444630
 40
1.300000000000019
 50
106.601549599022360
 51
180.000000000000000
  0
ARC
  8
0
  6
CONTINUOUS
 62
3
 10
2.284513513994170
 20
193.458312958695160
 40
9.000000000000123
 50
73.398450400980877
 51
106.601549599019120
  0
ARC
  8
0
  6
CONTINUOUS
 62
3
 10
4.484513513993988
 20
200.837337284444630
 40
1.300000000000182
 50
0.000000000000000
 51
73.398450400977637
  0
ARC
  8
0
  6
CONTINUOUS
 62
3
 10
4.284513513994170
 20
205.160791158702300
 40
5.000000000000072
 50
287.457603123721870
 51
0.000000000000000
  0
LINE
  8
0
  6
CONTINUOUS
 62
3
 10
-1.215486486005830
 20
200.160791158702300
 11
-104.215486486005830
 21
200.160791158702300
  0
LINE
  8
0
  6
CONTINUOUS
 62
3
 10
-114.715486486005830
 20
181.499766099015460
 11
9.284513513994170
 21
181.499766099015460
  0
LINE
  8
0
  6
DASHDOT
 62
3
 10
9.284513513994170
 20
176.499766099015460
 11
9.284513513994170
 21
181.499766099015460
  0
LINE
  8
0
  6
DASHDOT
 62
4
 10
217.449891212945660
 20
116.999766099015680
 11
-192.301434722157860
 21
116.999766099015680
  0
LINE
  8
0
  6
DASHDOT
 62
4
 10
-71.999015901732264
 20
38.999766099015915
 11
-50.232038493203845
 21
38.999766099015915
  0
LINE
  8
0
  6
DASHDOT
 62
4
 10
-60.715486486005602
 20
30.055608841339790
 11
-60.715486486005602
 21
52.035110973875135
  0
LINE
  8
0
  6
DASHDOT
 62
4
 10
-119.801175592589280
 20
38.999766099015915
 11
-99.314587358879862
 21
38.999766099015915
  0
LINE
  8
0
  6
DASHDOT
 62
4
 10
-110.715486486005600
 20
30.055608841339790
 11
-110.715486486005600
 21
51.604097821871846
  0
CIRCLE
  8
0
  6
DASHED
 62
4
 10
-60.715486486005602
 20
38.999766099015915
 40
6.000000000000000
  0
ARC
  8
0
  6
DASHED
 62
4
 10
-60.715486486005602
 20
38.999766099015915
 40
7.000000000000000
 50
180.000000000000000
 51
0.000000000000000
  0
LINE
  8
0
  6
DASHED
 62
4
 10
-67.715486486005602
 20
38.999766099015915
 11
-67.715486486005602
 21
53.499766099015915
  0
LINE
  8
0
  6
DASHED
 62
4
 10
-53.715486486005602
 20
38.999766099015915
 11
-53.715486486005602
 21
53.499766099015915
  0
ARC
  8
0
  6
DASHED
 62
4
 10
-110.715486486005600
 20
38.999766099015915
 40
7.000000000000000
 50
180.000000000000000
 51
0.000000000000000
  0
LINE
  8
0
  6
DASHED
 62
4
 10
-117.715486486005600
 20
38.999766099015915
 11
-117.715486486005600
 21
53.499766099015915
  0
LINE
  8
0
  6
DASHED
 62
4
 10
-103.715486486005600
 20
38.999766099015915
 11
-103.715486486005600
 21
53.499766099015915
  0
ARC
  8
0
  6
CONTINUOUS
 62
3
 10
356.002160954786180
 20
-149.903137395850540
 40
62.692927983300109
 50
15.321688456567088
 51
56.614043319659181
  0
ARC
  8
0
  6
CONTINUOUS
 62
3
 10
424.802160954786130
 20
-139.672488551092560
 40
18.799999999999837
 50
5.724810452223617
 51
35.808626813495749
  0
ARC
  8
0
  6
CONTINUOUS
 62
3
 10
424.802160954786130
 20
-139.672488551092560
 40
18.799999999999933
 50
35.808626813495749
 51
51.512753096874668
  0
LINE
  8
0
  6
CONTINUOUS
 62
3
 10
447.498420306407070
 20
-177.597675583511550
 11
443.508395368751050
 21
-137.797176830394280
  0
ARC
  8
0
  6
CONTINUOUS
 62
3
 10
426.802160954786130
 20
-179.672488551092560
 40
20.799999999999926
 50
334.359929784105190
 51
5.724810452223396
  0
ARC
  8
0
  6
CONTINUOUS
 62
3
 10
426.802160954786130
 20
-179.672488551092560
 40
20.799999999999990
 50
297.797377654170700
 51
334.359929784105190
  0
ARC
  8
0
  6
DASHED
 62
3
 10
426.802160954786130
 20
-179.672488551092560
 40
20.799999999999926
 50
334.359929784105190
 51
5.724810452223396
  0
LINE
  8
0
  6
CONTINUOUS
 62
3
 10
-122.215486486010370
 20
-136.629988551092540
 11
-122.215486486010600
 21
-165.629988551092540
  0
LINE
  8
0
  6
CONTINUOUS
 62
3
 10
-49.215486486010491
 20
-136.629988551092540
 11
-49.215486486010491
 21
-165.629988551092540
  0
LINE
  8
0
  6
CONTINUOUS
 62
4
 10
-48.374889701104394
 20
-135.347554224523260
 11
33.784513513989396
 21
-135.347554224523260
  0
LINE
  8
0
  6
CONTINUOUS
 62
4
 10
-125.215486486010370
 20
-135.347554224523260
 11
-123.056083270916580
 21
-135.347554224523260
  0
LINE
  8
0
  6
CONTINUOUS
 62
4
 10
-48.215486486010491
 20
-140.799935093962180
 11
33.784513513989396
 21
-140.799935093962180
  0
LINE
  8
0
  6
CONTINUOUS
 62
4
 10
-125.215486486010370
 20
-140.799935093962180
 11
-123.215486486010370
 21
-140.799935093962180
  0
LINE
  8
0
  6
CONTINUOUS
 62
4
 10
-48.215486486010491
 20
-139.438054758612910
 11
33.784513513989396
 21
-139.438054758612910
  0
LINE
  8
0
  6
CONTINUOUS
 62
4
 10
-125.215486486010370
 20
-139.438054758612910
 11
-123.215486486010370
 21
-139.438054758612910
  0
LINE
  8
0
  6
CONTINUOUS
 62
4
 10
-48.215486486010491
 20
-145.629988551092540
 11
33.784513513989396
 21
-145.629988551092540
  0
LINE
  8
0
  6
CONTINUOUS
 62
4
 10
-125.215486486010370
 20
-145.629988551092540
 11
-123.215486486010370
 21
-145.629988551092540
  0
LINE
  8
0
  6
CONTINUOUS
 62
4
 10
-115.215486486010490
 20
-108.629988551092530
 11
33.784513513989396
 21
-108.629988551092530
  0
LINE
  8
0
  6
CONTINUOUS
 62
4
 10
-115.215486486010490
 20
-108.129988551092530
 11
33.784513513989396
 21
-108.129988551092530
  0
LINE
  8
0
  6
CONTINUOUS
 62
4
 10
-115.215486486010490
 20
-109.629988551092530
 11
33.784513513989396
 21
-109.629988551092530
  0
LINE
  8
0
  6
CONTINUOUS
 62
4
 10
-115.215486486010490
 20
-110.629988551092530
 11
33.784513513989396
 21
-110.629988551092530
  0
LINE
  8
0
  6
CONTINUOUS
 62
4
 10
-115.215486486010490
 20
-115.314454364317040
 11
33.784513513989396
 21
-115.314454364317040
  0
LINE
  8
0
  6
CONTINUOUS
 62
4
 10
-115.215486486010490
 20
-120.264201832622800
 11
33.784513513989396
 21
-120.264201832622800
  0
LINE
  8
0
  6
CONTINUOUS
 62
4
 10
-124.118479044390590
 20
-128.310803495356590
 11
33.784513513989396
 21
-128.310803495356590
  0
LINE
  8
0
  6
CONTINUOUS
 62
4
 10
-125.129150275007300
 20
-129.915451410918650
 11
33.784513513989396
 21
-129.915451410918650
  0
LINE
  8
0
  6
CONTINUOUS
 62
4
 10
-125.215486486010370
 20
-133.879196834718190
 11
33.784513513989396
 21
-133.879196834718190
  0
LINE
  8
0
  6
CONTINUOUS
 62
3
 10
-50.215486486010491
 20
-135.629988551092540
 11
-121.215486486010370
 21
-135.629988551092540
  0
ARC
  8
0
  6
CONTINUOUS
 62
3
 10
-121.215486486010370
 20
-136.629988551092540
 40
1.000000000000000
 50
90.000000000000000
 51
180.000000000000000
  0
ARC
  8
0
  6
CONTINUOUS
 62
3
 10
-50.215486486010491
 20
-136.629988551092540
 40
1.000000000000000
 50
0.000000000000000
 51
90.000000000000000
  0
ARC
  8
0
  6
CONTINUOUS
 62
3
 10
-50.215486486010491
 20
-136.129988551092540
 40
2.000000000000000
 50
0.000000000000000
 51
90.000000000000000
  0
LINE
  8
0
  6
CONTINUOUS
 62
3
 10
-48.215486486010491
 20
-165.629988551092540
 11
-48.215486486010491
 21
-136.129988551092540
  0
LINE
  8
0
  6
CONTINUOUS
 62
3
 10
-123.215486486010370
 20
-165.629988551092540
 11
-123.215486486010370
 21
-136.129988551092540
  0
ARC
  8
0
  6
CONTINUOUS
 62
3
 10
-121.215486486010370
 20
-136.129988551092540
 40
2.000000000000000
 50
90.000000000000000
 51
180.000000000000000
  0
LINE
  8
0
  6
CONTINUOUS
 62
3
 10
-50.215486486010491
 20
-134.129988551092540
 11
-121.215486486010370
 21
-134.129988551092540
  0
LINE
  8
0
  6
CONTINUOUS
 62
3
 10
-115.215486486010490
 20
-124.629988551092530
 11
-115.215486486010490
 21
-105.629988551092530
  0
ARC
  8
0
  6
CONTINUOUS
 62
3
 10
-122.215486486010370
 20
-130.629988551092540
 40
3.000000000000000
 50
90.000000000000000
 51
180.000000000000000
  0
LINE
  8
0
  6
CONTINUOUS
 62
3
 10
-118.215486486010490
 20
-127.629988551092530
 11
-122.215486486010370
 21
-127.629988551092530
  0
ARC
  8
0
  6
CONTINUOUS
 62
3
 10
-118.215486486010490
 20
-124.629988551092530
 40
3.000000000000000
 50
270.000000000000000
 51
0.000000000000000
  0
LINE
  8
0
  6
CONTINUOUS
 62
3
 10
-125.215486486010370
 20
-130.629988551092540
 11
-125.215486486010370
 21
-165.629988551092540
  0
LINE
  8
0
  6
CONTINUOUS
 62
3
 10
33.784513513989396
 20
-107.129988551092530
 11
-115.215486486010490
 21
-107.129988551092530
  0
LINE
  8
0
  6
CONTINUOUS
 62
3
 10
-115.215486486010490
 20
-105.629988551092530
 11
-143.909510708430840
 21
-105.629988551092530
  0
LINE
  8
0
  6
CONTINUOUS
 62
3
 10
-166.215486485960350
 20
-165.629988551092540
 11
-166.215486485960350
 21
-118.186783493847080
  0
ARC
  8
0
  6
CONTINUOUS
 62
3
 10
-143.909510708430840
 20
-125.629988551092530
 40
20.000000000000000
 50
90.000000000000000
 51
125.000000000000240
  0
LINE
  8
0
  6
CONTINUOUS
 62
3
 10
-155.381039435451840
 20
-109.246947665312740
 11
-165.106785220472830
 21
-116.056988178695970
  0
ARC
  8
0
  6
CONTINUOUS
 62
3
 10
-163.615486485960220
 20
-118.186783493847080
 40
2.599999999999721
 50
125.000000000001370
 51
180.000000000000000
  0
LINE
  8
0
  6
CONTINUOUS
 62
3
 10
-122.215486486010370
 20
-194.629988551092540
 11
-122.215486486010600
 21
-165.629988551092540
  0
LINE
  8
0
  6
CONTINUOUS
 62
3
 10
-49.215486486010491
 20
-194.629988551092540
 11
-49.215486486010491
 21
-165.629988551092540
  0
LINE
  8
0
  6
CONTINUOUS
 62
4
 10
-48.374889701104394
 20
-195.912422877661810
 11
33.784513513989396
 21
-195.912422877661810
  0
LINE
  8
0
  6
CONTINUOUS
 62
4
 10
-125.215486486010370
 20
-195.912422877661810
 11
-123.056083270916580
 21
-195.912422877661810
  0
LINE
  8
0
  6
CONTINUOUS
 62
4
 10
-48.215486486010491
 20
-190.460042008222900
 11
33.784513513989396
 21
-190.460042008222900
  0
LINE
  8
0
  6
CONTINUOUS
 62
4
 10
-125.215486486010370
 20
-190.460042008222900
 11
-123.215486486010370
 21
-190.460042008222900
  0
LINE
  8
0
  6
CONTINUOUS
 62
4
 10
-48.215486486010491
 20
-191.821922343572170
 11
33.784513513989396
 21
-191.821922343572170
  0
LINE
  8
0
  6
CONTINUOUS
 62
4
 10
-125.215486486010370
 20
-191.821922343572170
 11
-123.215486486010370
 21
-191.821922343572170
  0
LINE
  8
0
  6
CONTINUOUS
 62
4
 10
-48.215486486010491
 20
-185.629988551092540
 11
33.784513513989396
 21
-185.629988551092540
  0
LINE
  8
0
  6
CONTINUOUS
 62
4
 10
-125.215486486010370
 20
-185.629988551092540
 11
-123.215486486010370
 21
-185.629988551092540
  0
LINE
  8
0
  6
CONTINUOUS
 62
4
 10
-115.215486486010490
 20
-222.629988551092540
 11
33.784513513989396
 21
-222.629988551092540
  0
LINE
  8
0
  6
CONTINUOUS
 62
4
 10
-115.215486486010490
 20
-223.129988551092540
 11
33.784513513989396
 21
-223.129988551092540
  0
LINE
  8
0
  6
CONTINUOUS
 62
4
 10
-115.215486486010490
 20
-221.629988551092540
 11
33.784513513989396
 21
-221.629988551092540
  0
LINE
  8
0
  6
CONTINUOUS
 62
4
 10
-115.215486486010490
 20
-220.629988551092540
 11
33.784513513989396
 21
-220.629988551092540
  0
LINE
  8
0
  6
CONTINUOUS
 62
4
 10
-115.215486486010490
 20
-215.945522737868030
 11
33.784513513989396
 21
-215.945522737868030
  0
LINE
  8
0
  6
CONTINUOUS
 62
4
 10
-115.215486486010490
 20
-210.995775269562270
 11
33.784513513989396
 21
-210.995775269562270
  0
LINE
  8
0
  6
CONTINUOUS
 62
4
 10
-124.118479044390590
 20
-202.949173606828480
 11
33.784513513989396
 21
-202.949173606828480
  0
LINE
  8
0
  6
CONTINUOUS
 62
4
 10
-125.129150275007300
 20
-201.344525691266430
 11
33.784513513989396
 21
-201.344525691266430
  0
LINE
  8
0
  6
CONTINUOUS
 62
4
 10
-125.215486486010370
 20
-197.380780267466890
 11
33.784513513989396
 21
-197.380780267466890
  0
LINE
  8
0
  6
CONTINUOUS
 62
3
 10
-50.215486486010491
 20
-195.629988551092540
 11
-121.215486486010370
 21
-195.629988551092540
  0
ARC
  8
0
  6
CONTINUOUS
 62
3
 10
-121.215486486010370
 20
-194.629988551092540
 40
1.000000000000000
 50
180.000000000000000
 51
270.000000000000000
  0
ARC
  8
0
  6
CONTINUOUS
 62
3
 10
-50.215486486010491
 20
-194.629988551092540
 40
1.000000000000000
 50
270.000000000000000
 51
0.000000000000000
  0
ARC
  8
0
  6
CONTINUOUS
 62
3
 10
-50.215486486010491
 20
-195.129988551092540
 40
2.000000000000000
 50
270.000000000000000
 51
0.000000000000000
  0
LINE
  8
0
  6
CONTINUOUS
 62
3
 10
-48.215486486010491
 20
-165.629988551092540
 11
-48.215486486010491
 21
-195.129988551092540
  0
LINE
  8
0
  6
CONTINUOUS
 62
3
 10
-123.215486486010370
 20
-165.629988551092540
 11
-123.215486486010370
 21
-195.129988551092540
  0
ARC
  8
0
  6
CONTINUOUS
 62
3
 10
-121.215486486010370
 20
-195.129988551092540
 40
2.000000000000000
 50
180.000000000000000
 51
270.000000000000000
  0
LINE
  8
0
  6
CONTINUOUS
 62
3
 10
-50.215486486010491
 20
-197.129988551092540
 11
-121.215486486010370
 21
-197.129988551092540
  0
ARC
  8
0
  6
CONTINUOUS
 62
3
 10
-122.215486486010370
 20
-200.629988551092540
 40
3.000000000000000
 50
180.000000000000000
 51
270.000000000000000
  0
LINE
  8
0
  6
CONTINUOUS
 62
3
 10
-118.215486486010490
 20
-203.629988551092540
 11
-122.215486486010370
 21
-203.629988551092540
  0
ARC
  8
0
  6
CONTINUOUS
 62
3
 10
-118.215486486010490
 20
-206.629988551092540
 40
3.000000000000000
 50
0.000000000000000
 51
90.000000000000000
  0
LINE
  8
0
  6
CONTINUOUS
 62
3
 10
-125.215486486010370
 20
-200.629988551092540
 11
-125.215486486010370
 21
-165.629988551092540
  0
LINE
  8
0
  6
CONTINUOUS
 62
3
 10
33.784513513989396
 20
-224.129988551092540
 11
-115.215486486010490
 21
-224.129988551092540
  0
LINE
  8
0
  6
CONTINUOUS
 62
3
 10
-115.215486486010490
 20
-225.629988551092540
 11
-143.909510708430840
 21
-225.629988551092540
  0
LINE
  8
0
  6
CONTINUOUS
 62
3
 10
-166.215486485960350
 20
-165.629988551092540
 11
-166.215486485960350
 21
-213.073193608337990
  0
ARC
  8
0
  6
CONTINUOUS
 62
3
 10
-143.909510708430840
 20
-205.629988551092540
 40
20.000000000000007
 50
234.999999999999740
 51
270.000000000000000
  0
LINE
  8
0
  6
CONTINUOUS
 62
3
 10
-155.381039435451840
 20
-222.013029436872330
 11
-165.106785220472830
 21
-215.202988923489100
  0
ARC
  8
0
  6
CONTINUOUS
 62
3
 10
-163.615486485960220
 20
-213.073193608337990
 40
2.600000000000136
 50
180.000000000000000
 51
234.999999999998610
  0
POLYLINE
  8
0
  6
CONTINUOUS
 62
3
 66
1
 70
1
  0
VERTEX
  8
0
  6
CONTINUOUS
 62
3
 10
-121.515486486009930
 20
-113.706463519032460
  0
VERTEX
  8
0
  6
CONTINUOUS
 62
3
 10
-121.605795668114750
 20
-113.003506552832100
  0
VERTEX
  8
0
  6
CONTINUOUS
 62
3
 10
-121.873252683206880
 20
-112.327563828620010
  0
VERTEX
  8
0
  6
CONTINUOUS
 62
3
 10
-122.307579308187960
 20
-111.704611446214610
  0
VERTEX
  8
0
  6
CONTINUOUS
 62
3
 10
-122.892084614433150
 20
-111.158589116316030
  0
VERTEX
  8
0
  6
CONTINUOUS
 62
3
 10
-123.604306390817790
 20
-110.710480170849420
  0
VERTEX
  8
0
  6
CONTINUOUS
 62
3
 10
-124.416874353894000
 20
-110.377505185286650
  0
VERTEX
  8
0
  6
CONTINUOUS
 62
3
 10
-125.298561972534110
 20
-110.172460201588400
  0
VERTEX
  8
0
  6
CONTINUOUS
 62
3
 10
-126.215486486009920
 20
-110.103224983487630
  0
VERTEX
  8
0
  6
CONTINUOUS
 62
3
 10
-127.132410999485720
 20
-110.172460201588400
  0
VERTEX
  8
0
  6
CONTINUOUS
 62
3
 10
-128.014098618125840
 20
-110.377505185286650
  0
VERTEX
  8
0
  6
CONTINUOUS
 62
3
 10
-128.826666581202030
 20
-110.710480170849420
  0
VERTEX
  8
0
  6
CONTINUOUS
 62
3
 10
-129.538888357586700
 20
-111.158589116316030
  0
VERTEX
  8
0
  6
CONTINUOUS
 62
3
 10
-130.123393663831880
 20
-111.704611446214610
  0
VERTEX
  8
0
  6
CONTINUOUS
 62
3
 10
-130.557720288812960
 20
-112.327563828620010
  0
VERTEX
  8
0
  6
CONTINUOUS
 62
3
 10
-130.825177303905090
 20
-113.003506552832100
  0
VERTEX
  8
0
  6
CONTINUOUS
 62
3
 10
-130.915486486009910
 20
-113.706463519032460
  0
VERTEX
  8
0
  6
CONTINUOUS
 62
3
 10
-130.825177303905090
 20
-114.409420485232820
  0
VERTEX
  8
0
  6
CONTINUOUS
 62
3
 10
-130.557720288812960
 20
-115.085363209444920
  0
VERTEX
  8
0
  6
CONTINUOUS
 62
3
 10
-130.123393663831880
 20
-115.708315591850320
  0
VERTEX
  8
0
  6
CONTINUOUS
 62
3
 10
-129.538888357586670
 20
-116.254337921748890
  0
VERTEX
  8
0
  6
CONTINUOUS
 62
3
 10
-128.826666581202030
 20
-116.702446867215510
  0
VERTEX
  8
0
  6
CONTINUOUS
 62
3
 10
-128.014098618125840
 20
-117.035421852778280
  0
VERTEX
  8
0
  6
CONTINUOUS
 62
3
 10
-127.132410999485720
 20
-117.240466836476520
  0
VERTEX
  8
0
  6
CONTINUOUS
 62
3
 10
-126.215486486009920
 20
-117.309702054577300
  0
VERTEX
  8
0
  6
CONTINUOUS
 62
3
 10
-125.298561972534110
 20
-117.240466836476520
  0
VERTEX
  8
0
  6
CONTINUOUS
 62
3
 10
-124.416874353894000
 20
-117.035421852778280
  0
VERTEX
  8
0
  6
CONTINUOUS
 62
3
 10
-123.604306390817790
 20
-116.702446867215510
  0
VERTEX
  8
0
  6
CONTINUOUS
 62
3
 10
-122.892084614433150
 20
-116.254337921748890
  0
VERTEX
  8
0
  6
CONTINUOUS
 62
3
 10
-122.307579308187960
 20
-115.708315591850320
  0
VERTEX
  8
0
  6
CONTINUOUS
 62
3
 10
-121.873252683206880
 20
-115.085363209444920
  0
VERTEX
  8
0
  6
CONTINUOUS
 62
3
 10
-121.605795668114750
 20
-114.409420485232820
  0
SEQEND
  8
0
  6
CONTINUOUS
 62
3
  0
LINE
  8
0
  6
CONTINUOUS
 62
3
 10
-128.215486486009920
 20
-110.714087965032140
 11
-126.215486486009920
 21
-111.889873450654930
  0
LINE
  8
0
  6
CONTINUOUS
 62
3
 10
-126.215486486009920
 20
-111.889873450654930
 11
-124.215486486009920
 21
-113.542515089778360
  0
LINE
  8
0
  6
CONTINUOUS
 62
3
 10
-124.215486486009920
 20
-110.714087965032140
 11
-126.215486486009920
 21
-111.889873450654930
  0
LINE
  8
0
  6
CONTINUOUS
 62
3
 10
-126.215486486009920
 20
-111.889873450654930
 11
-128.215486486009920
 21
-113.542515089778360
  0
POLYLINE
  8
0
  6
CONTINUOUS
 62
3
 66
1
 70
1
  0
VERTEX
  8
0
  6
CONTINUOUS
 62
3
 10
-121.515486486009930
 20
-217.553513583152380
  0
VERTEX
  8
0
  6
CONTINUOUS
 62
3
 10
-121.605795668114750
 20
-216.850556616952020
  0
VERTEX
  8
0
  6
CONTINUOUS
 62
3
 10
-121.873252683206880
 20
-216.174613892739930
  0
VERTEX
  8
0
  6
CONTINUOUS
 62
3
 10
-122.307579308187960
 20
-215.551661510334530
  0
VERTEX
  8
0
  6
CONTINUOUS
 62
3
 10
-122.892084614433150
 20
-215.005639180435940
  0
VERTEX
  8
0
  6
CONTINUOUS
 62
3
 10
-123.604306390817790
 20
-214.557530234969310
  0
VERTEX
  8
0
  6
CONTINUOUS
 62
3
 10
-124.416874353894000
 20
-214.224555249406560
  0
VERTEX
  8
0
  6
CONTINUOUS
 62
3
 10
-125.298561972534110
 20
-214.019510265708310
  0
VERTEX
  8
0
  6
CONTINUOUS
 62
3
 10
-126.215486486009920
 20
-213.950275047607530
  0
VERTEX
  8
0
  6
CONTINUOUS
 62
3
 10
-127.132410999485720
 20
-214.019510265708310
  0
VERTEX
  8
0
  6
CONTINUOUS
 62
3
 10
-128.014098618125840
 20
-214.224555249406560
  0
VERTEX
  8
0
  6
CONTINUOUS
 62
3
 10
-128.826666581202030
 20
-214.557530234969310
  0
VERTEX
  8
0
  6
CONTINUOUS
 62
3
 10
-129.538888357586700
 20
-215.005639180435940
  0
VERTEX
  8
0
  6
CONTINUOUS
 62
3
 10
-130.123393663831880
 20
-215.551661510334530
  0
VERTEX
  8
0
  6
CONTINUOUS
 62
3
 10
-130.557720288812960
 20
-216.174613892739930
  0
VERTEX
  8
0
  6
CONTINUOUS
 62
3
 10
-130.825177303905090
 20
-216.850556616952020
  0
VERTEX
  8
0
  6
CONTINUOUS
 62
3
 10
-130.915486486009910
 20
-217.553513583152380
  0
VERTEX
  8
0
  6
CONTINUOUS
 62
3
 10
-130.825177303905090
 20
-218.256470549352740
  0
VERTEX
  8
0
  6
CONTINUOUS
 62
3
 10
-130.557720288812960
 20
-218.932413273564830
  0
VERTEX
  8
0
  6
CONTINUOUS
 62
3
 10
-130.123393663831880
 20
-219.555365655970230
  0
VERTEX
  8
0
  6
CONTINUOUS
 62
3
 10
-129.538888357586670
 20
-220.101387985868830
  0
VERTEX
  8
0
  6
CONTINUOUS
 62
3
 10
-128.826666581202030
 20
-220.549496931335450
  0
VERTEX
  8
0
  6
CONTINUOUS
 62
3
 10
-128.014098618125840
 20
-220.882471916898200
  0
VERTEX
  8
0
  6
CONTINUOUS
 62
3
 10
-127.132410999485720
 20
-221.087516900596460
  0
VERTEX
  8
0
  6
CONTINUOUS
 62
3
 10
-126.215486486009920
 20
-221.156752118697230
  0
VERTEX
  8
0
  6
CONTINUOUS
 62
3
 10
-125.298561972534110
 20
-221.087516900596460
  0
VERTEX
  8
0
  6
CONTINUOUS
 62
3
 10
-124.416874353894000
 20
-220.882471916898200
  0
VERTEX
  8
0
  6
CONTINUOUS
 62
3
 10
-123.604306390817790
 20
-220.549496931335450
  0
VERTEX
  8
0
  6
CONTINUOUS
 62
3
 10
-122.892084614433150
 20
-220.101387985868830
  0
VERTEX
  8
0
  6
CONTINUOUS
 62
3
 10
-122.307579308187960
 20
-219.555365655970230
  0
VERTEX
  8
0
  6
CONTINUOUS
 62
3
 10
-121.873252683206880
 20
-218.932413273564830
  0
VERTEX
  8
0
  6
CONTINUOUS
 62
3
 10
-121.605795668114750
 20
-218.256470549352740
  0
SEQEND
  8
0
  6
CONTINUOUS
 62
3
  0
LINE
  8
0
  6
CONTINUOUS
 62
3
 10
-128.215486486009920
 20
-220.545889137152700
 11
-126.215486486009920
 21
-219.370103651530370
  0
LINE
  8
0
  6
CONTINUOUS
 62
3
 10
-126.215486486009920
 20
-219.370103651530370
 11
-124.215486486009920
 21
-217.717462012406940
  0
LINE
  8
0
  6
CONTINUOUS
 62
3
 10
-124.215486486009920
 20
-220.545889137152700
 11
-126.215486486009920
 21
-219.370103651530370
  0
LINE
  8
0
  6
CONTINUOUS
 62
3
 10
-126.215486486009920
 20
-219.370103651530370
 11
-128.215486486009920
 21
-217.717462012406940
  0
LINE
  8
0
  6
DASHDOT
 62
4
 10
79.654876233357527
 20
-165.629988551092540
 11
-189.479158005310860
 21
-165.629988551092540
  0
ARC
  8
0
  6
DASHED
 62
3
 10
577.102160954786090
 20
-165.629988551092540
 40
300.600000000000080
 50
174.272323304163000
 51
185.727676695836860
  0
LINE
  8
0
  6
DASHED
 62
3
 10
254.563391820804780
 20
-135.629988551092310
 11
278.002913212502340
 21
-135.629988551092310
  0
LINE
  8
0
  6
CONTINUOUS
 62
3
 10
248.002160954786180
 20
-168.129988551092080
 11
248.002160954786180
 21
-163.129988551092080
  0
LINE
  8
0
  6
CONTINUOUS
 62
3
 10
248.002160954786180
 20
-168.129988551092080
 11
248.512577802303890
 21
-168.129988551092080
  0
LINE
  8
0
  6
CONTINUOUS
 62
3
 10
248.002160954786180
 20
-163.129988551092080
 11
248.512577802303890
 21
-163.129988551092080
  0
ARC
  8
0
  6
DASHED
 62
3
 10
548.502160954786180
 20
-165.629988551092080
 40
300.000000000000110
 50
175.138594604202010
 51
180.000000000000000
  0
ARC
  8
0
  6
CONTINUOUS
 62
3
 10
254.563391820804780
 20
-140.629988551092310
 40
5.000000000000000
 50
90.000000000000000
 51
175.138594604201610
  0
ARC
  8
0
  6
DASHED
 62
3
 10
254.563391820804780
 20
-190.629988551092030
 40
5.000000000000139
 50
184.861405395801000
 51
270.000000000000000
  0
LINE
  8
0
  6
DASHED
 62
3
 10
254.563391820804780
 20
-195.629988551092030
 11
278.002160954786180
 21
-195.629988551092030
  0
ARC
  8
0
  6
DASHED
 62
3
 10
548.502160954786180
 20
-165.629988551092080
 40
300.000000000000000
 50
180.000000000000000
 51
184.861405395798040
  0
ARC
  8
0
  6
CONTINUOUS
 62
3
 10
356.002160954786180
 20
-149.903137395850540
 40
62.692927983299938
 50
51.969139227745345
 51
56.614043319658833
  0
LINE
  8
0
  6
CONTINUOUS
 62
3
 10
160.284513513983480
 20
-139.629988551092540
 11
160.284513513983480
 21
-151.229988551092900
  0
LINE
  8
0
  6
CONTINUOUS
 62
3
 10
160.284513513983480
 20
-139.629988551092540
 11
160.284513513983480
 21
-128.029988551093080
  0
LINE
  8
0
  6
CONTINUOUS
 62
3
 10
202.284513513983480
 20
-135.629988551092540
 11
170.284513513983480
 21
-135.629988551092540
  0
LINE
  8
0
  6
CONTINUOUS
 62
3
 10
202.284513513983480
 20
-143.629988551092540
 11
170.284513513983480
 21
-143.629988551092540
  0
ARC
  8
0
  6
CONTINUOUS
 62
3
 10
170.284513513983480
 20
-139.629988551092540
 40
4.000000000000000
 50
90.000000000000000
 51
270.000000000000000
  0
LINE
  8
0
  6
CONTINUOUS
 62
3
 10
202.284513513983480
 20
-153.629988551092540
 11
162.844321135117980
 21
-153.629988551092540
  0
LINE
  8
0
  6
CONTINUOUS
 62
3
 10
202.284513513983480
 20
-153.629988551092540
 11
202.284513513983480
 21
-139.629988551092540
  0
ARC
  8
0
  6
CONTINUOUS
 62
3
 10
201.884513513982940
 20
-126.029988551092170
 40
0.400000000000546
 50
0.000000000000000
 51
90.000000000000000
  0
LINE
  8
0
  6
CONTINUOUS
 62
3
 10
201.884513513982940
 20
-125.629988551092530
 11
162.844321135117980
 21
-125.629988551092530
  0
LINE
  8
0
  6
CONTINUOUS
 62
3
 10
202.284513513983480
 20
-126.029988551092170
 11
202.284513513983480
 21
-139.629988551092540
  0
LINE
  8
0
  6
CONTINUOUS
 62
3
 10
162.284513513983480
 20
-125.779988551092170
 11
160.684513513983120
 21
-125.779988551092170
  0
LINE
  8
0
  6
CONTINUOUS
 62
3
 10
162.844321135117980
 20
-125.629988551092530
 11
162.284513513983480
 21
-125.779988551092170
  0
ARC
  8
0
  6
CONTINUOUS
 62
3
 10
160.684513513983120
 20
-125.379988551092530
 40
0.399999999999636
 50
180.000000000000000
 51
270.000000000000000
  0
LINE
  8
0
  6
CONTINUOUS
 62
3
 10
160.284513513983480
 20
-125.329988551092350
 11
160.084513513982760
 21
-125.129988551092530
  0
LINE
  8
0
  6
CONTINUOUS
 62
3
 10
160.284513513983480
 20
-139.629988551092540
 11
160.284513513983480
 21
-125.329988551092350
  0
LINE
  8
0
  6
CONTINUOUS
 62
3
 10
160.084513513982760
 20
-125.129988551092530
 11
158.284513513982570
 21
-125.129988551092530
  0
LINE
  8
0
  6
CONTINUOUS
 62
3
 10
162.284513513983480
 20
-153.479988551092900
 11
160.684513513983120
 21
-153.479988551092900
  0
LINE
  8
0
  6
CONTINUOUS
 62
3
 10
162.844321135117980
 20
-153.629988551092540
 11
162.284513513983480
 21
-153.479988551092900
  0
ARC
  8
0
  6
CONTINUOUS
 62
3
 10
160.684513513983120
 20
-153.879988551092540
 40
0.399999999999636
 50
90.000000000000000
 51
180.000000000000000
  0
LINE
  8
0
  6
CONTINUOUS
 62
3
 10
160.284513513983480
 20
-153.929988551092720
 11
160.084513513982760
 21
-154.129988551092540
  0
LINE
  8
0
  6
CONTINUOUS
 62
3
 10
160.284513513983480
 20
-139.629988551092540
 11
160.284513513983480
 21
-153.929988551092720
  0
LINE
  8
0
  6
CONTINUOUS
 62
3
 10
160.084513513982760
 20
-154.129988551092540
 11
158.284513513982570
 21
-154.129988551092540
  0
ARC
  8
0
  6
CONTINUOUS
 62
3
 10
341.502160954786180
 20
-139.629988551092540
 40
41.999999999999943
 50
318.412480210151950
 51
356.587519789847310
  0
ARC
  8
0
  6
CONTINUOUS
 62
3
 10
371.978369193602700
 20
-162.328022196857090
 40
2.999999999999426
 50
143.322040599176740
 51
225.000000000012280
  0
ARC
  8
0
  6
CONTINUOUS
 62
3
 10
341.502160954786180
 20
-139.629988551092540
 40
41.999999999999979
 50
48.412480210152864
 51
86.587519789847292
  0
CIRCLE
  8
0
  6
CONTINUOUS
 62
3
 10
341.502160954786180
 20
-139.629988551092540
 40
80.000000000000000
  0
ARC
  8
0
  6
CONTINUOUS
 62
3
 10
388.849752594799610
 20
-100.060571504131070
 40
2.999999999999778
 50
56.614043319654456
 51
135.000000000012250
  0
ARC
  8
0
  6
CONTINUOUS
 62
3
 10
378.671661467171360
 20
-94.682313445655382
 40
2.999999999999864
 50
314.999999999987720
 51
67.680649198207121
  0
ARC
  8
0
  6
CONTINUOUS
 62
3
 10
364.200194600551190
 20
-109.153780312275550
 40
3.000000000000427
 50
233.322040599180130
 51
314.999999999993860
  0
ARC
  8
0
  6
CONTINUOUS
 62
3
 10
371.978369193603160
 20
-116.931954905327980
 40
3.000000000000185
 50
134.999999999993830
 51
216.677959400818080
  0
ARC
  8
0
  6
CONTINUOUS
 62
3
 10
304.332660442401450
 20
-94.682313445655382
 40
2.999999999999910
 50
112.319350801792870
 51
225.000000000006170
  0
ARC
  8
0
  6
CONTINUOUS
 62
3
 10
294.154569314772740
 20
-100.060571504131070
 40
2.999999999999864
 50
44.999999999987722
 51
123.385956680338290
  0
ARC
  8
0
  6
CONTINUOUS
 62
3
 10
341.502160954786180
 20
-139.629988551092540
 40
41.999999999999943
 50
138.412480210151980
 51
176.587519789847280
  0
ARC
  8
0
  6
CONTINUOUS
 62
3
 10
311.025952715969650
 20
-116.931954905327980
 40
2.999999999999426
 50
323.322040599176720
 51
45.000000000012292
  0
ARC
  8
0
  6
CONTINUOUS
 62
3
 10
318.804127309021170
 20
-109.153780312275550
 40
2.999999999999864
 50
225.000000000012280
 51
306.677959400826810
  0
ARC
  8
0
  6
CONTINUOUS
 62
3
 10
415.695088938085970
 20
-160.231188449760340
 40
3.000000000000288
 50
344.481586472375000
 51
0.000000000000000
  0
ARC
  8
0
  6
CONTINUOUS
 62
3
 10
413.573450906814740
 20
-134.129988551092540
 40
3.000000000000000
 50
270.000000000000000
 51
15.321688456570628
  0
ARC
  8
0
  6
CONTINUOUS
 62
3
 10
415.503948334034250
 20
-145.129988551092540
 40
2.999999999999651
 50
4.586365068673312
 51
90.000000000000000
  0
ARC
  8
0
  6
CONTINUOUS
 62
3
 10
267.309232971486380
 20
-160.231188449760340
 40
3.000000000000000
 50
180.000000000000000
 51
195.518413527624970
  0
ARC
  8
0
  6
CONTINUOUS
 62
3
 10
267.500373575538110
 20
-145.129988551092540
 40
3.000000000000000
 50
90.000000000000000
 51
175.413634931326700
  0
ARC
  8
0
  6
CONTINUOUS
 62
3
 10
336.002160954786180
 20
-89.971074102993953
 40
3.000000000000000
 50
0.000000000000000
 51
90.708657147838480
  0
ARC
  8
0
  6
CONTINUOUS
 62
3
 10
347.002160954786180
 20
-89.971074102993953
 40
2.999999999999795
 50
89.291342852161520
 51
180.000000000000000
  0
ARC
  8
0
  6
CONTINUOUS
 62
3
 10
311.608850056862140
 20
-163.090379928051330
 40
2.999999999999337
 50
281.549996895632720
 51
38.124966414610668
  0
ARC
  8
0
  6
CONTINUOUS
 62
3
 10
341.502160954786180
 20
-139.629988551092540
 40
41.999999999999993
 50
183.412480210152720
 51
220.223497577760530
  0
ARC
  8
0
  6
CONTINUOUS
 62
3
 10
341.502160954786180
 20
-139.629988551092540
 40
41.999999999999993
 50
3.412480210152714
 51
41.587519789847612
  0
ARC
  8
0
  6
CONTINUOUS
 62
3
 10
341.502160954786180
 20
-139.629988551092540
 40
41.999999999999993
 50
93.412480210152708
 51
131.587519789847140
  0
ARC
  8
0
  6
CONTINUOUS
 62
3
 10
347.002160954786180
 20
-102.030121530050560
 40
3.000000000000000
 50
180.000000000000000
 51
261.677959400831010
  0
ARC
  8
0
  6
CONTINUOUS
 62
3
 10
336.002160954786180
 20
-102.030121530050560
 40
3.000000000000119
 50
278.322040599177570
 51
0.000000000000000
  0
ARC
  8
0
  6
CONTINUOUS
 62
3
 10
379.102027975827700
 20
-145.129988551092540
 40
3.000000000000000
 50
90.000000000000000
 51
171.677959400822400
  0
ARC
  8
0
  6
CONTINUOUS
 62
3
 10
379.102027975827700
 20
-134.129988551092540
 40
3.000000000000119
 50
188.322040599177600
 51
270.000000000000000
  0
ARC
  8
0
  6
CONTINUOUS
 62
3
 10
303.902293933744660
 20
-145.129988551092540
 40
3.000000000000119
 50
8.322040599177583
 51
90.000000000000000
  0
ARC
  8
0
  6
CONTINUOUS
 62
3
 10
303.902293933744660
 20
-134.129988551092540
 40
3.000000000000000
 50
270.000000000000000
 51
351.677959400822430
  0
ARC
  8
0
  6
CONTINUOUS
 62
3
 10
399.699396811173760
 20
-190.049049814428140
 40
3.000000000000507
 50
225.000000000000000
 51
319.096043758148540
  0
ARC
  8
0
  6
CONTINUOUS
 62
3
 10
356.002160954786180
 20
-149.903137395850540
 40
62.692927983300230
 50
67.680649198203270
 51
87.841596534959393
  0
ARC
  8
0
  6
CONTINUOUS
 62
3
 10
391.921222218121780
 20
-81.432752694704504
 40
3.000000000000185
 50
314.999999999993860
 51
49.096043758149435
  0
ARC
  8
0
  6
CONTINUOUS
 62
3
 10
399.699396811173760
 20
-89.210927287756931
 40
3.000000000000403
 50
40.903956241845769
 51
134.999999999993830
  0
ARC
  8
0
  6
CONTINUOUS
 62
3
 10
327.002160954786180
 20
-149.903137395850540
 40
62.692927983299832
 50
123.385956680340820
 51
164.678311543432900
  0
ARC
  8
0
  6
CONTINUOUS
 62
3
 10
283.304925098398600
 20
-89.210927287756931
 40
3.000000000000185
 50
45.000000000006146
 51
139.096043758148540
  0
ARC
  8
0
  6
CONTINUOUS
 62
3
 10
291.083099691450570
 20
-81.432752694704504
 40
2.999999999999418
 50
130.903956241850580
 51
225.000000000006170
  0
ARC
  8
0
  6
CONTINUOUS
 62
3
 10
356.002160954786180
 20
-149.903137395850540
 40
62.692927983300109
 50
15.321688456567088
 51
22.451256460373514
  0
ARC
  8
0
  6
CONTINUOUS
 62
3
 10
327.002160954786180
 20
-149.903137395850540
 40
62.692927983299811
 50
175.413634931334290
 51
180.000000000000000
  0
ARC
  8
0
  6
CONTINUOUS
 62
3
 10
341.502160954786180
 20
-534.629988551316270
 40
447.692927983299680
 50
87.841596534959422
 51
89.291342852163240
  0
ARC
  8
0
  6
CONTINUOUS
 62
3
 10
356.002160954786180
 20
-149.903137395850540
 40
62.692927983299796
 50
0.000000000000000
 51
4.586365068665701
  0
ARC
  8
0
  6
CONTINUOUS
 62
3
 10
341.502160954786630
 20
-534.629988551316270
 40
447.692927983299800
 50
90.708657147836817
 51
92.158403465040649
  0
ARC
  8
0
  6
CONTINUOUS
 62
3
 10
327.002160954786180
 20
-149.903137395850540
 40
62.692927983299825
 50
92.158403465040607
 51
112.319350801796330
  0
ARC
  8
0
  6
CONTINUOUS
 62
3
 10
396.870704270439090
 20
-237.629988551092540
 40
3.000000000000000
 50
90.000000000000000
 51
177.685070995693200
  0
ARC
  8
0
  6
CONTINUOUS
 62
3
 10
384.502160954786630
 20
-237.129988551092540
 40
9.378645473199995
 50
311.722538873448460
 51
357.685070995696950
  0
ARC
  8
0
  6
CONTINUOUS
 62
3
 10
298.502160954786180
 20
-237.129988551092540
 40
9.378645473200079
 50
182.314929004302910
 51
228.277461126551540
  0
ARC
  8
0
  6
CONTINUOUS
 62
3
 10
286.133617639133260
 20
-237.629988551092540
 40
3.000000000000225
 50
2.314929004306812
 51
90.000000000000000
  0
ARC
  8
0
  6
CONTINUOUS
 62
3
 10
341.502160954786180
 20
-139.629988551092540
 40
88.000000000000085
 50
5.043502368947569
 51
30.824196484133207
  0
ARC
  8
0
  6
CONTINUOUS
 62
3
 10
341.502160954786180
 20
-139.629988551092540
 40
88.000000000000085
 50
185.043502368947570
 51
210.824196484133210
  0
ARC
  8
0
  6
CONTINUOUS
 62
3
 10
418.305481195515310
 20
-145.129988551092540
 40
3.000000000000130
 50
355.903956241855330
 51
90.000000000000000
  0
ARC
  8
0
  6
CONTINUOUS
 62
3
 10
418.305481195515310
 20
-134.129988551092540
 40
3.000000000000000
 50
270.000000000000000
 51
4.096043758162018
  0
ARC
  8
0
  6
CONTINUOUS
 62
3
 10
264.698840714057040
 20
-134.129988551092540
 40
3.000000000000195
 50
175.903956241837960
 51
270.000000000000000
  0
ARC
  8
0
  6
CONTINUOUS
 62
3
 10
264.698840714057040
 20
-145.129988551092540
 40
3.000000000000000
 50
90.000000000000000
 51
184.096043758144700
  0
ARC
  8
0
  6
CONTINUOUS
 62
3
 10
336.002160954786180
 20
-62.826668310362948
 40
3.000000000000000
 50
0.000000000000000
 51
94.096043758154593
  0
ARC
  8
0
  6
CONTINUOUS
 62
3
 10
347.002160954786180
 20
-62.826668310362948
 40
2.999999999999255
 50
85.903956241845407
 51
180.000000000000000
  0
ARC
  8
0
  6
CONTINUOUS
 62
3
 10
417.531598206308900
 20
-232.629988551092540
 40
2.000000000000338
 50
225.000000000000000
 51
270.000000000000000
  0
CIRCLE
  8
0
  6
CONTINUOUS
 62
3
 10
424.587207744205440
 20
-56.544941761672817
 40
6.000000000000000
  0
ARC
  8
0
  6
CONTINUOUS
 62
3
 10
426.502160954786180
 20
-54.629988551092538
 40
10.000000000000000
 50
0.000000000000000
 51
90.000000000000000
  0
ARC
  8
0
  6
CONTINUOUS
 62
3
 10
425.659031832226450
 20
-89.414243170605914
 40
9.999999999999437
 50
135.000000000001820
 51
210.824196484133950
  0
ARC
  8
0
  6
CONTINUOUS
 62
3
 10
417.531598206308900
 20
-46.629988551092538
 40
2.000000000000000
 50
90.000000000000000
 51
135.000000000000000
  0
ARC
  8
0
  6
CONTINUOUS
 62
3
 10
434.502160954786180
 20
-63.600551299569815
 40
1.999999999999373
 50
315.000000000009210
 51
0.000000000000000
  0
ARC
  8
0
  6
CONTINUOUS
 62
3
 10
341.502160954786180
 20
-139.629988551092540
 40
88.000000000000014
 50
329.175803515866790
 51
354.956497631052460
  0
ARC
  8
0
  6
CONTINUOUS
 62
3
 10
425.659031832226450
 20
-189.845733931578250
 40
9.999999999999602
 50
149.175803515870540
 51
225.000000000001850
  0
CIRCLE
  8
0
  6
CONTINUOUS
 62
3
 10
424.587207744205440
 20
-222.715035340512260
 40
6.000000000000000
  0
ARC
  8
0
  6
DASHDOT
 62
4
 10
341.502160954786180
 20
-139.629988551092540
 40
117.499999999999500
 50
309.635821825515960
 51
320.364178174483360
  0
ARC
  8
0
  6
CONTINUOUS
 62
3
 10
426.502160954786180
 20
-224.629988551092540
 40
10.000000000000000
 50
270.000000000000000
 51
0.000000000000000
  0
ARC
  8
0
  6
CONTINUOUS
 62
3
 10
434.502160954786180
 20
-215.659425802615260
 40
2.000000000000000
 50
0.000000000000000
 51
44.999999999990798
  0
CIRCLE
  8
0
  6
CONTINUOUS
 62
3
 10
258.417114165366910
 20
-56.544941761672817
 40
6.000000000000000
  0
CIRCLE
  8
0
  6
CONTINUOUS
 62
3
 10
258.417114165367370
 20
-222.715035340512260
 40
6.000000000000000
  0
ARC
  8
0
  6
CONTINUOUS
 62
3
 10
256.502160954786180
 20
-224.629988551092540
 40
10.000000000000000
 50
180.000000000000000
 51
270.000000000000000
  0
ARC
  8
0
  6
CONTINUOUS
 62
3
 10
256.502160954786180
 20
-54.629988551092538
 40
10.000000000000000
 50
90.000000000000000
 51
180.000000000000000
  0
ARC
  8
0
  6
DASHDOT
 62
4
 10
341.502160954786180
 20
-139.629988551092540
 40
117.499999999999780
 50
129.635821825516160
 51
140.364178174483360
  0
ARC
  8
0
  6
CONTINUOUS
 62
3
 10
391.717906335272350
 20
-55.473117673652268
 40
9.999999999999677
 50
239.175803515864690
 51
315.000000000001820
  0
ARC
  8
0
  6
CONTINUOUS
 62
3
 10
248.502160954786180
 20
-63.600551299569815
 40
2.000000000000000
 50
180.000000000000000
 51
224.999999999990790
  0
ARC
  8
0
  6
CONTINUOUS
 62
3
 10
265.472723703263450
 20
-46.629988551092538
 40
2.000000000000338
 50
45.000000000000000
 51
90.000000000000000
  0
ARC
  8
0
  6
CONTINUOUS
 62
3
 10
291.286415574300010
 20
-55.473117673652268
 40
9.999999999999437
 50
224.999999999998180
 51
300.824196484135310
  0
ARC
  8
0
  6
CONTINUOUS
 62
3
 10
257.345290077345910
 20
-89.414243170605914
 40
10.000000000000068
 50
329.175803515866050
 51
44.999999999998167
  0
ARC
  8
0
  6
CONTINUOUS
 62
3
 10
341.502160954786180
 20
-139.629988551092540
 40
88.000000000000185
 50
59.175803515867223
 51
120.824196484132780
  0
ARC
  8
0
  6
CONTINUOUS
 62
3
 10
341.502160954786180
 20
-139.629988551092540
 40
88.000000000000014
 50
149.175803515866790
 51
174.956497631052430
  0
ARC
  8
0
  6
CONTINUOUS
 62
3
 10
341.502160954786180
 20
-139.629988551092540
 40
88.000000000000185
 50
239.175803515867240
 51
300.824196484132760
  0
ARC
  8
0
  6
CONTINUOUS
 62
3
 10
248.502160954786180
 20
-215.659425802615260
 40
2.000000000000016
 50
134.999999999990790
 51
180.000000000000000
  0
ARC
  8
0
  6
CONTINUOUS
 62
3
 10
265.472723703263000
 20
-232.629988551092540
 40
2.000000000000000
 50
270.000000000000000
 51
315.000000000000000
  0
ARC
  8
0
  6
CONTINUOUS
 62
3
 10
291.286415574300010
 20
-223.786859428532810
 40
9.999999999999677
 50
59.175803515864729
 51
135.000000000000000
  0
ARC
  8
0
  6
CONTINUOUS
 62
3
 10
257.345290077345450
 20
-189.845733931578250
 40
10.000000000000401
 50
315.000000000000000
 51
30.824196484128137
  0
ARC
  8
0
  6
CONTINUOUS
 62
3
 10
391.717906335272350
 20
-223.786859428532810
 40
10.000000000000082
 50
45.000000000001855
 51
120.824196484135270
  0
ARC
  8
0
  6
CONTINUOUS
 62
3
 10
287.698566969629160
 20
-194.713318826960860
 40
2.999999999999571
 50
225.673360121564310
 51
4.263738012311674
  0
ARC
  8
0
  6
CONTINUOUS
 62
3
 10
250.854491376357150
 20
-131.629988551092540
 40
3.000000000000000
 50
270.000000000000000
 51
354.956497631056660
  0
ARC
  8
0
  6
CONTINUOUS
 62
3
 10
248.502160954786180
 20
-136.629988551092540
 40
2.000000000000000
 50
90.000000000000000
 51
180.000000000000000
  0
ARC
  8
0
  6
CONTINUOUS
 62
3
 10
250.854491376357600
 20
-147.629988551092540
 40
2.999999999999722
 50
5.043502368944078
 51
90.000000000000000
  0
ARC
  8
0
  6
CONTINUOUS
 62
3
 10
248.502160954786180
 20
-142.629988551092540
 40
2.000000000000000
 50
180.000000000000000
 51
270.000000000000000
  0
ARC
  8
0
  6
CONTINUOUS
 62
3
 10
432.149830533215210
 20
-147.629988551092540
 40
3.000000000000000
 50
90.000000000000000
 51
174.956497631056660
  0
ARC
  8
0
  6
CONTINUOUS
 62
3
 10
434.502160954786180
 20
-142.629988551092540
 40
2.000000000000000
 50
270.000000000000000
 51
0.000000000000000
  0
ARC
  8
0
  6
CONTINUOUS
 62
3
 10
432.149830533215210
 20
-131.629988551092540
 40
3.000000000000175
 50
185.043502368943310
 51
270.000000000000000
  0
ARC
  8
0
  6
CONTINUOUS
 62
3
 10
434.502160954786180
 20
-136.629988551092540
 40
2.000000000000000
 50
0.000000000000000
 51
90.000000000000000
  0
CIRCLE
  8
0
  6
CONTINUOUS
 62
3
 10
341.502160954786180
 20
-139.629988551092540
 40
27.500000000000000
  0
ARC
  8
0
  6
CONTINUOUS
 62
3
 10
317.615538584952450
 20
-192.482890758643410
 40
27.000000000000064
 50
101.549996895618320
 51
184.263738012298550
  0
LINE
  8
0
  6
CONTINUOUS
 62
3
 10
397.578076467613760
 20
-192.170370157988150
 11
369.857048850043610
 21
-164.449342540417090
  0
LINE
  8
0
  6
CONTINUOUS
 62
3
 10
397.578076467614210
 20
-87.089606944196930
 11
369.857048850043610
 21
-114.810634561767980
  0
LINE
  8
0
  6
CONTINUOUS
 62
3
 10
394.042542561681330
 20
-83.554073038264505
 11
366.321514944110730
 21
-111.275100655835550
  0
LINE
  8
0
  6
CONTINUOUS
 62
3
 10
285.426245441958600
 20
-87.089606944196930
 11
313.147273059528740
 21
-114.810634561767980
  0
LINE
  8
0
  6
CONTINUOUS
 62
3
 10
288.961779347891020
 20
-83.554073038264505
 11
316.682806965462080
 21
-111.275100655835550
  0
LINE
  8
0
  6
CONTINUOUS
 62
3
 10
418.695088938085970
 20
-149.903137395850540
 11
418.695088938085970
 21
-160.231188449760340
  0
LINE
  8
0
  6
CONTINUOUS
 62
3
 10
264.309232971486380
 20
-160.231188449760340
 11
264.309232971486380
 21
-149.903137395850540
  0
LINE
  8
0
  6
CONTINUOUS
 62
3
 10
396.870704270439090
 20
-234.629988551092540
 11
426.502160954786180
 21
-234.629988551092540
  0
LINE
  8
0
  6
CONTINUOUS
 62
3
 10
256.502160954786180
 20
-234.629988551092540
 11
286.133617639133260
 21
-234.629988551092540
  0
LINE
  8
0
  6
DASHED
 62
4
 10
286.133617639133260
 20
-234.629988551092540
 11
287.513530466868360
 21
-234.629988551092540
  0
LINE
  8
0
  6
DASHDOT
 62
4
 10
415.718975565802340
 20
-213.846803162109720
 11
432.509055442400840
 21
-230.636883038708450
  0
LINE
  8
0
  6
DASHDOT
 62
4
 10
415.414967925464110
 20
-65.717181580414490
 11
432.365382337257420
 21
-48.766767168621300
  0
LINE
  8
0
  6
CONTINUOUS
 62
3
 10
418.587964020361140
 20
-82.343175358741064
 11
435.916374517159060
 21
-65.014764861942240
  0
LINE
  8
0
  6
CONTINUOUS
 62
3
 10
436.502160954786180
 20
-54.629988551092538
 11
436.502160954786180
 21
-224.629988551092540
  0
LINE
  8
0
  6
CONTINUOUS
 62
3
 10
418.587964020361140
 20
-196.916801743444010
 11
435.916374517159060
 21
-214.245212240242840
  0
LINE
  8
0
  6
CONTINUOUS
 62
3
 10
246.502160954786180
 20
-54.629988551092538
 11
246.502160954786180
 21
-224.629988551092540
  0
LINE
  8
0
  6
CONTINUOUS
 62
3
 10
256.502160954786180
 20
-44.629988551092538
 11
426.502160954786180
 21
-44.629988551092538
  0
LINE
  8
0
  6
DASHDOT
 62
4
 10
266.385783556193250
 20
-64.513611152499266
 11
250.438432511727340
 21
-48.566260108033305
  0
LINE
  8
0
  6
DASHDOT
 62
4
 10
266.195288758419340
 20
-214.936860747459830
 11
250.638939572315390
 21
-230.493209933563780
  0
LINE
  8
0
  6
DASHDOT
 62
4
 10
232.543259058515100
 20
-139.629988551092540
 11
453.992667446893850
 21
-139.629988551092540
  0
LINE
  8
0
  6
CONTINUOUS
 62
3
 10
398.788974147137650
 20
-62.544185485517119
 11
416.117384643935570
 21
-45.215774988719204
  0
LINE
  8
0
  6
CONTINUOUS
 62
3
 10
284.215347762434700
 20
-62.544185485517119
 11
266.886937265636790
 21
-45.215774988719204
  0
LINE
  8
0
  6
CONTINUOUS
 62
3
 10
264.416357889211210
 20
-82.343175358741064
 11
247.087947392413300
 21
-65.014764861942240
  0
LINE
  8
0
  6
CONTINUOUS
 62
3
 10
284.215347762434250
 20
-216.715791616667050
 11
266.886937265636330
 21
-234.044202113465870
  0
LINE
  8
0
  6
CONTINUOUS
 62
3
 10
264.416357889211210
 20
-196.916801743444010
 11
247.087947392413300
 21
-214.245212240241930
  0
LINE
  8
0
  6
CONTINUOUS
 62
3
 10
398.788974147137650
 20
-216.715791616667050
 11
416.117384643935570
 21
-234.044202113465870
  0
LINE
  8
0
  6
CONTINUOUS
 62
3
 10
250.854491376357150
 20
-134.629988551092540
 11
248.502160954786180
 21
-134.629988551092540
  0
LINE
  8
0
  6
CONTINUOUS
 62
3
 10
250.854491376357150
 20
-144.629988551092540
 11
248.502160954786180
 21
-144.629988551092540
  0
LINE
  8
0
  6
CONTINUOUS
 62
3
 10
432.149830533215210
 20
-144.629988551092540
 11
434.502160954786180
 21
-144.629988551092540
  0
LINE
  8
0
  6
CONTINUOUS
 62
3
 10
432.149830533215210
 20
-134.629988551092540
 11
434.502160954786180
 21
-134.629988551092540
  0
LINE
  8
0
  6
CONTINUOUS
 62
3
 10
264.698840714057040
 20
-137.129988551092540
 11
303.902293933744660
 21
-137.129988551092540
  0
LINE
  8
0
  6
CONTINUOUS
 62
3
 10
264.698840714057040
 20
-142.129988551092540
 11
303.902293933744660
 21
-142.129988551092540
  0
LINE
  8
0
  6
CONTINUOUS
 62
3
 10
339.002160954786180
 20
-62.826668310362948
 11
339.002160954786180
 21
-102.030121530050560
  0
LINE
  8
0
  6
CONTINUOUS
 62
3
 10
344.002160954786180
 20
-62.826668310362948
 11
344.002160954786180
 21
-102.030121530050560
  0
LINE
  8
0
  6
CONTINUOUS
 62
3
 10
418.305481195515310
 20
-137.129988551092540
 11
379.102027975827700
 21
-137.129988551092540
  0
LINE
  8
0
  6
CONTINUOUS
 62
3
 10
418.305481195515310
 20
-142.129988551092540
 11
379.102027975827700
 21
-142.129988551092540
  0
CIRCLE
  8
0
  6
CONTINUOUS
 62
3
 10
341.502160954786180
 20
-139.629988551092540
 40
35.000000000000000
  0
ARC
  8
0
  6
CONTINUOUS
 62
3
 10
269.430871002757610
 20
-134.129988551092540
 40
3.000000000000146
 50
164.678311543429370
 51
270.000000000000000
  0
CIRCLE
  8
0
  6
CONTINUOUS
 62
3
 10
341.502160954786180
 20
-139.629988551092540
 40
22.499999999999545
  0
ARC
  8
0
  6
DASHDOT
 62
4
 10
341.502160954786180
 20
-139.629988551092540
 40
117.499999999999820
 50
39.471407252435732
 51
50.364178174483833
  0
ARC
  8
0
  6
DASHDOT
 62
4
 10
341.502160954786180
 20
-139.629988551092540
 40
117.499999999999850
 50
218.996974996309970
 51
230.364178174484010
  0
LINE
  8
0
  6
DASHDOT
 62
4
 10
341.502160954786180
 20
-38.694611041149187
 11
341.502160954786180
 21
-261.609729738778700
  0
LINE
  8
0
  6
DASHDOT
 62
4
 10
362.434017401537860
 20
-165.629988551092540
 11
320.358441291969940
 21
-165.629988551092540
  0
ARC
  8
0
  6
CONTINUOUS
 62
3
 10
146.284513513983260
 20
-243.535045113792880
 40
0.500000000000234
 50
268.999999999998690
 51
0.000000000000000
  0
ARC
  8
0
  6
CONTINUOUS
 62
3
 10
157.284513513983480
 20
-166.129988551092540
 40
1.000000000000000
 50
270.000000000000000
 51
0.000000000000000
  0
ARC
  8
0
  6
CONTINUOUS
 62
3
 10
157.284513513983480
 20
-113.129988551092530
 40
1.000000000000000
 50
0.000000000000000
 51
90.000000000000000
  0
LINE
  8
0
  6
CONTINUOUS
 62
3
 10
157.284513513983480
 20
-167.129988551092540
 11
157.232177557740440
 21
-167.185139141619400
  0
LINE
  8
0
  6
CONTINUOUS
 62
3
 10
157.284513513983480
 20
-112.129988551092530
 11
157.232177557740440
 21
-112.074837960566580
  0
LINE
  8
0
  6
CONTINUOUS
 62
3
 10
146.275787310764600
 20
-244.034968961370400
 11
66.784513513983256
 21
-242.647443616020610
  0
LINE
  8
0
  6
CONTINUOUS
 62
3
 10
153.234233255608390
 20
-234.721716852557620
 11
153.784513513983260
 21
-234.141842452947460
  0
LINE
  8
0
  6
CONTINUOUS
 62
3
 10
153.234233255608390
 20
-44.538260249628365
 11
153.784513513983260
 21
-45.118134649238527
  0
LINE
  8
0
  6
CONTINUOUS
 62
3
 10
153.234233255608390
 20
-44.538260249628365
 11
143.889185426469110
 21
-44.048507045609767
  0
LINE
  8
0
  6
CONTINUOUS
 62
3
 10
158.284513513983480
 20
-139.629988551092540
 11
158.284513513983480
 21
-166.129988551092540
  0
LINE
  8
0
  6
CONTINUOUS
 62
3
 10
158.284513513983480
 20
-139.629988551092540
 11
158.284513513983480
 21
-113.129988551092530
  0
ARC
  8
0
  6
CONTINUOUS
 62
3
 10
118.307836474977420
 20
-77.792785975536390
 40
5.000000000000146
 50
272.000000000000970
 51
330.000000000000110
  0
LINE
  8
0
  6
CONTINUOUS
 62
3
 10
141.119626618434040
 20
-48.281606435470167
 11
122.637963493899630
 21
-80.292785975536390
  0
ARC
  8
0
  6
CONTINUOUS
 62
3
 10
143.784513513983260
 20
-46.045766115118568
 40
2.000000000000025
 50
177.837310087963030
 51
180.000000000000000
  0
LINE
  8
0
  6
CONTINUOUS
 62
3
 10
66.784513513983256
 20
-242.647443616020610
 11
66.784513513983256
 21
-84.595067781600847
  0
LINE
  8
0
  6
CONTINUOUS
 62
3
 10
156.784513513983260
 20
-54.629988551092538
 11
153.784513513983260
 21
-54.629988551092538
  0
LINE
  8
0
  6
CONTINUOUS
 62
3
 10
156.784513513983260
 20
-224.629988551092540
 11
153.784513513983260
 21
-224.629988551092540
  0
ARC
  8
0
  6
CONTINUOUS
 62
3
 10
136.789499599511830
 20
-45.781606435470167
 40
5.000000000000016
 50
330.000000000000110
 51
357.837310087936940
  0
ARC
  8
0
  6
CONTINUOUS
 62
3
 10
157.284513513983480
 20
-111.076208425812180
 40
0.999999999999802
 50
239.999999999978400
 51
266.999999999993860
  0
ARC
  8
0
  6
CONTINUOUS
 62
3
 10
157.284513513983480
 20
-168.183768676373800
 40
0.999999999999832
 50
93.000000000006111
 51
120.000000000021580
  0
LINE
  8
0
  6
CONTINUOUS
 62
3
 10
156.784513513983260
 20
-54.629988551092538
 11
156.784513513983260
 21
-139.629988551092540
  0
LINE
  8
0
  6
CONTINUOUS
 62
3
 10
156.784513513983260
 20
-224.629988551092540
 11
156.784513513983260
 21
-139.629988551092540
  0
LINE
  8
0
  6
CONTINUOUS
 62
3
 10
153.234233255608390
 20
-234.721716852557620
 11
143.889185426469110
 21
-235.211470056576220
  0
LINE
  8
0
  6
CONTINUOUS
 62
3
 10
146.784513513983260
 20
-235.059732341213930
 11
146.784513513983260
 21
-243.535045113792880
  0
LINE
  8
0
  6
CONTINUOUS
 62
3
 10
141.784513513983260
 20
-46.045766115118568
 11
141.784513513983260
 21
-233.214210987066510
  0
ARC
  8
0
  6
CONTINUOUS
 62
3
 10
143.784513513983260
 20
-233.214210987066510
 40
2.000000000000000
 50
180.000000000000000
 51
272.999999999999600
  0
ARC
  8
0
  6
CONTINUOUS
 62
3
 10
143.784513513983260
 20
-46.045766115118568
 40
1.999999999999651
 50
87.000000000000398
 51
180.000000000000000
  0
LINE
  8
0
  6
CONTINUOUS
 62
3
 10
153.784513513983260
 20
-45.118134649238527
 11
153.784513513983260
 21
-139.629988551092540
  0
LINE
  8
0
  6
CONTINUOUS
 62
3
 10
153.784513513983260
 20
-234.141842452947460
 11
153.784513513983260
 21
-139.629988551092540
  0
LINE
  8
0
  6
DASHDOT
 62
4
 10
164.402965924597310
 20
-56.544941761672817
 11
131.927505224233760
 21
-56.544941761672817
  0
LINE
  8
0
  6
DASHDOT
 62
4
 10
164.402965924597310
 20
-222.715035340512260
 11
131.927505224233760
 21
-222.715035340512260
  0
ARC
  8
0
  6
CONTINUOUS
 62
3
 10
148.784513513983260
 20
-132.629988551092540
 40
2.000000000000000
 50
180.000000000000000
 51
270.000000000000000
  0
ARC
  8
0
  6
CONTINUOUS
 62
3
 10
148.784513513983260
 20
-90.096593274073712
 40
2.000000000000000
 50
90.000000000000000
 51
180.000000000000000
  0
LINE
  8
0
  6
CONTINUOUS
 62
3
 10
146.784513513983260
 20
-66.428978424315574
 11
146.784513513983260
 21
-132.629988551092540
  0
ARC
  8
0
  6
CONTINUOUS
 62
3
 10
148.784513513983260
 20
-66.428978424315574
 40
2.000000000000000
 50
90.000000000000000
 51
180.000000000000000
  0
LINE
  8
0
  6
CONTINUOUS
 62
3
 10
153.784513513983260
 20
-64.428978424315574
 11
148.784513513983260
 21
-64.428978424315574
  0
LINE
  8
0
  6
CONTINUOUS
 62
3
 10
153.784513513983260
 20
-88.096593274073712
 11
148.784513513983260
 21
-88.096593274073712
  0
LINE
  8
0
  6
CONTINUOUS
 62
3
 10
153.784513513983260
 20
-134.629988551092540
 11
148.784513513983260
 21
-134.629988551092540
  0
ARC
  8
0
  6
CONTINUOUS
 62
3
 10
148.784513513983260
 20
-146.629988551092540
 40
2.000000000000000
 50
90.000000000000000
 51
180.000000000000000
  0
ARC
  8
0
  6
CONTINUOUS
 62
3
 10
148.784513513983260
 20
-189.163383828111360
 40
2.000000000000000
 50
180.000000000000000
 51
270.000000000000000
  0
LINE
  8
0
  6
CONTINUOUS
 62
3
 10
146.784513513983260
 20
-212.830998677869500
 11
146.784513513983260
 21
-146.629988551092540
  0
ARC
  8
0
  6
CONTINUOUS
 62
3
 10
148.784513513983260
 20
-212.830998677869500
 40
2.000000000000000
 50
180.000000000000000
 51
270.000000000000000
  0
LINE
  8
0
  6
CONTINUOUS
 62
3
 10
153.784513513983260
 20
-214.830998677869500
 11
148.784513513983260
 21
-214.830998677869500
  0
LINE
  8
0
  6
CONTINUOUS
 62
3
 10
153.784513513983260
 20
-191.163383828111360
 11
148.784513513983260
 21
-191.163383828111360
  0
LINE
  8
0
  6
CONTINUOUS
 62
3
 10
153.784513513983260
 20
-144.629988551092540
 11
148.784513513983260
 21
-144.629988551092540
  0
ARC
  8
0
  6
CONTINUOUS
 62
3
 10
119.423925973410860
 20
-89.565866984074091
 40
5.000000000000000
 50
270.000000000000000
 51
310.170179485510800
  0
LINE
  8
0
  6
CONTINUOUS
 62
3
 10
122.649226325068630
 20
-93.386526304348081
 11
140.009813865641040
 21
-78.731173809956999
  0
ARC
  8
0
  6
CONTINUOUS
 62
3
 10
136.784513513983260
 20
-74.910514489683010
 40
5.000000000000030
 50
310.170179485510800
 51
0.000000000000000
  0
ARC
  8
0
  6
CONTINUOUS
 62
3
 10
119.423925973410860
 20
-84.787692391022574
 40
5.000000000000000
 50
270.000000000000000
 51
310.170179485510800
  0
LINE
  8
0
  6
CONTINUOUS
 62
3
 10
122.649226325068630
 20
-88.608351711296564
 11
140.009813865641040
 21
-73.952999216905482
  0
ARC
  8
0
  6
CONTINUOUS
 62
3
 10
136.784513513983260
 20
-70.132339896631493
 40
5.000000000000030
 50
310.170179485510800
 51
0.000000000000000
  0
LINE
  8
0
  6
CONTINUOUS
 62
3
 10
66.784513513983256
 20
-84.595067781600847
 11
130.019137519491320
 21
-82.386866052805999
  0
LINE
  8
0
  6
CONTINUOUS
 62
3
 10
123.714771850554820
 20
-94.565866984074091
 11
139.545321482852160
 21
-94.565866984074091
  0
LINE
  8
0
  6
DASHDOT
 62
4
 10
217.460316039602500
 20
-139.629988551092540
 11
124.790667845540150
 21
-139.629988551092540
  0
CIRCLE
  8
0
  6
CONTINUOUS
 62
4
 10
341.502160954786180
 20
-139.629988551092540
 40
4.000000000000000
  0
CIRCLE
  8
0
  6
CONTINUOUS
 62
3
 10
341.502160954786180
 20
-139.629988551092540
 40
3.323500000000024
  0
ARC
  8
0
  6
CONTINUOUS
 62
3
 10
341.502160954786180
 20
-139.629988551093450
 40
13.999999999999572
 50
196.601549599020760
 51
163.398450400979240
  0
LINE
  8
0
  6
CONTINUOUS
 62
3
 10
324.502160954786180
 20
-135.629988551093450
 11
331.502160954786180
 21
-135.629988551093450
  0
LINE
  8
0
  6
CONTINUOUS
 62
3
 10
331.502160954786180
 20
-143.629988551093450
 11
331.502160954786180
 21
-135.629988551093450
  0
LINE
  8
0
  6
CONTINUOUS
 62
3
 10
324.502160954786180
 20
-143.629988551093450
 11
331.502160954786180
 21
-143.629988551093450
  0
LINE
  8
0
  6
CONTINUOUS
 62
3
 10
324.502160954786180
 20
-143.629988551093450
 11
324.502160954786180
 21
-135.629988551093450
  0
LINE
  8
0
  6
CONTINUOUS
 62
3
 10
55.284513513989396
 20
-185.629988551092540
 11
33.784513513989396
 21
-185.629988551092540
  0
LINE
  8
0
  6
CONTINUOUS
 62
3
 10
33.784513513990305
 20
-145.629988551092540
 11
52.284513513990305
 21
-145.629988551092540
  0
LINE
  8
0
  6
CONTINUOUS
 62
3
 10
56.284513513989396
 20
-172.629988551091630
 11
59.284513513989396
 21
-172.629988551091630
  0
ARC
  8
0
  6
CONTINUOUS
 62
3
 10
56.284513513989396
 20
-173.629988551091630
 40
1.000000000000000
 50
90.000000000000000
 51
180.000000000000000
  0
ARC
  8
0
  6
CONTINUOUS
 62
3
 10
59.284513513989396
 20
-171.629988551091630
 40
1.000000000000000
 50
270.000000000000000
 51
0.000000000000000
  0
ARC
  8
0
  6
CONTINUOUS
 62
3
 10
54.284513513990305
 20
-140.629988551093450
 40
2.000000000000290
 50
104.477512185954690
 51
180.000000000000000
  0
ARC
  8
0
  6
CONTINUOUS
 62
3
 10
53.284513513989396
 20
-136.757005204885900
 40
2.000000000000063
 50
284.477512185929470
 51
359.999999999973970
  0
ARC
  8
0
  6
CONTINUOUS
 62
3
 10
54.284513513990305
 20
-152.629988551093450
 40
2.000000000000000
 50
180.000000000000000
 51
255.522487814045290
  0
LINE
  8
0
  6
CONTINUOUS
 62
3
 10
52.284513513990305
 20
-152.629988551093450
 11
52.284513513990305
 21
-140.629988551093450
  0
ARC
  8
0
  6
CONTINUOUS
 62
3
 10
53.284513513989396
 20
-156.502971897300990
 40
2.000000000000000
 50
0.000000000000000
 51
75.522487814070544
  0
LINE
  8
0
  6
CONTINUOUS
 62
3
 10
56.284513513989396
 20
-158.629988551092540
 11
59.284513513989396
 21
-158.629988551092540
  0
LINE
  8
0
  6
CONTINUOUS
 62
3
 10
60.284513513989396
 20
-171.629988551091630
 11
60.284513513989396
 21
-159.629988551092540
  0
ARC
  8
0
  6
CONTINUOUS
 62
3
 10
56.284513513989396
 20
-157.629988551092540
 40
1.000000000000000
 50
180.000000000000000
 51
270.000000000000000
  0
ARC
  8
0
  6
CONTINUOUS
 62
3
 10
59.284513513989396
 20
-159.629988551092540
 40
1.000000000000000
 50
0.000000000000000
 51
90.000000000000000
  0
LINE
  8
0
  6
CONTINUOUS
 62
3
 10
60.284513513991214
 20
-98.024001571657209
 11
60.284513513991214
 21
-89.220481810993988
  0
LINE
  8
0
  6
CONTINUOUS
 62
3
 10
56.284513513991214
 20
-99.024001571657209
 11
59.284513513991214
 21
-99.024001571657209
  0
ARC
  8
0
  6
CONTINUOUS
 62
3
 10
56.284513513991214
 20
-100.024001571657200
 40
1.000000000000000
 50
90.000000000000000
 51
180.000000000000000
  0
ARC
  8
0
  6
CONTINUOUS
 62
3
 10
59.284513513991214
 20
-98.024001571657209
 40
1.000000000000000
 50
270.000000000000000
 51
0.000000000000000
  0
LINE
  8
0
  6
CONTINUOUS
 62
3
 10
56.284513513991214
 20
-88.220481810993988
 11
59.284513513991214
 21
-88.220481810993988
  0
ARC
  8
0
  6
CONTINUOUS
 62
3
 10
56.284513513991214
 20
-87.220481810993988
 40
1.000000000000000
 50
180.000000000000000
 51
270.000000000000000
  0
ARC
  8
0
  6
CONTINUOUS
 62
3
 10
59.284513513991214
 20
-89.220481810993988
 40
1.000000000000000
 50
0.000000000000000
 51
90.000000000000000
  0
LINE
  8
0
  6
CONTINUOUS
 62
3
 10
56.284513513989396
 20
-231.607861276547740
 11
59.284513513989396
 21
-231.607861276547740
  0
ARC
  8
0
  6
CONTINUOUS
 62
3
 10
56.284513513989396
 20
-230.607861276547740
 40
1.000000000000000
 50
180.000000000000000
 51
270.000000000000000
  0
ARC
  8
0
  6
CONTINUOUS
 62
3
 10
59.284513513989396
 20
-232.607861276547740
 40
1.000000000000000
 50
0.000000000000000
 51
90.000000000000000
  0
ARC
  8
0
  6
CONTINUOUS
 62
3
 10
61.284513513989396
 20
-241.129988551092540
 40
1.000000000000000
 50
180.000000000000000
 51
270.000000000000000
  0
LINE
  8
0
  6
CONTINUOUS
 62
3
 10
55.284513513989396
 20
-170.629988551092540
 11
55.284513513989396
 21
-232.129988551092540
  0
LINE
  8
0
  6
CONTINUOUS
 62
3
 10
55.284513513990078
 20
-104.629988551092530
 11
54.284513513991214
 21
-104.629988551092530
  0
LINE
  8
0
  6
CONTINUOUS
 62
3
 10
60.284513513991214
 20
-94.629988551092538
 11
54.284513513991214
 21
-94.629988551092538
  0
LINE
  8
0
  6
CONTINUOUS
 62
3
 10
54.284513513991214
 20
-104.629988551092530
 11
54.284513513991214
 21
-94.629988551092538
  0
LINE
  8
0
  6
CONTINUOUS
 62
3
 10
60.284513513991214
 20
-93.529989123297128
 11
60.284513513991214
 21
-98.024001571657209
  0
LINE
  8
0
  6
CONTINUOUS
 62
3
 10
60.284513513989396
 20
-242.129988551092540
 11
54.284513513989396
 21
-242.129988551092540
  0
LINE
  8
0
  6
CONTINUOUS
 62
3
 10
60.162942599497164
 20
-232.129988551092540
 11
54.284513513989396
 21
-232.129988551092540
  0
LINE
  8
0
  6
CONTINUOUS
 62
3
 10
54.284513513989396
 20
-242.129988551092540
 11
54.284513513989396
 21
-232.129988551092540
  0
LINE
  8
0
  6
CONTINUOUS
 62
3
 10
60.284513513989396
 20
-232.607861276547740
 11
60.284513513989388
 21
-242.129988551092540
  0
LINE
  8
0
  6
CONTINUOUS
 62
3
 10
55.284513513991214
 20
-94.629988551092538
 11
55.284513513991214
 21
-86.629988551092538
  0
LINE
  8
0
  6
CONTINUOUS
 62
3
 10
66.284513513979391
 20
-165.629988551092540
 11
66.284513513991214
 21
-84.629988551092538
  0
LINE
  8
0
  6
CONTINUOUS
 62
3
 10
66.284513513989396
 20
-165.629988551092540
 11
66.284513513989396
 21
-242.129988551092540
  0
ARC
  8
0
  6
CONTINUOUS
 62
3
 10
57.284513513991214
 20
-86.629988551092538
 40
2.000000000000000
 50
90.000000000000000
 51
180.000000000000000
  0
LINE
  8
0
  6
CONTINUOUS
 62
3
 10
55.284513513989396
 20
-156.502971897300990
 11
55.284513513989396
 21
-160.629988551092540
  0
LINE
  8
0
  6
CONTINUOUS
 62
3
 10
55.284513513988486
 20
-136.757005204885900
 11
55.284513513990305
 21
-100.024001571657200
  0
LINE
  8
0
  6
CONTINUOUS
 62
3
 10
66.284513513989396
 20
-242.129988551092540
 11
60.284513513989396
 21
-242.129988551092540
  0
LINE
  8
0
  6
CONTINUOUS
 62
3
 10
66.284513513991214
 20
-84.629988551092538
 11
57.284514866731797
 21
-84.629988551092538
  0
LINE
  8
0
  6
CONTINUOUS
 62
3
 10
33.784513513990305
 20
-165.629988551092540
 11
33.784513513990305
 21
-107.077580771809150
  0
LINE
  8
0
  6
CONTINUOUS
 62
3
 10
50.546193295205512
 20
-106.199138357422270
 11
33.784513513990305
 21
-107.077580771809150
  0
ARC
  8
0
  6
CONTINUOUS
 62
3
 10
50.284513513990305
 20
-101.205990683649360
 40
5.000000000000066
 50
273.000000000005570
 51
323.130102354173290
  0
LINE
  8
0
  6
CONTINUOUS
 62
3
 10
33.784513513989396
 20
-165.629988551092540
 11
33.784513513989396
 21
-224.182396330375920
  0
LINE
  8
0
  6
CONTINUOUS
 62
3
 10
50.546193295203693
 20
-225.060838744762800
 11
33.784513513989396
 21
-224.182396330375920
  0
ARC
  8
0
  6
CONTINUOUS
 62
3
 10
50.284513513989396
 20
-230.053986418535710
 40
5.000000000000000
 50
0.000000000000000
 51
87.000000000004846
  0
LINE
  8
0
  6
CONTINUOUS
 62
3
 10
33.784513513990305
 20
-165.629988551092540
 11
33.784513513990305
 21
-107.077580771809380
  0
LINE
  8
0
  6
CONTINUOUS
 62
3
 10
33.784513513989396
 20
-165.629988551092540
 11
33.784513513989396
 21
-224.182396330375700
  0
LINE
  8
0
  6
CONTINUOUS
 62
3
 10
33.784513513990305
 20
-224.129988551092540
 11
33.784513513990305
 21
-165.629988551092540
  0
LINE
  8
0
  6
CONTINUOUS
 62
3
 10
33.784513513990305
 20
-107.129988551092530
 11
33.784513513990305
 21
-165.629988551092540
  0
ARC
  8
0
  6
DASHED
 62
3
 10
254.563391820804780
 20
-140.629988551092420
 40
5.000000000000000
 50
90.000000000000000
 51
175.138594604201610
  0
ENDSEC
  0
EOF
