  0
SECTION
  2
HEADER
  9
$FILLMODE
 70
1
  9
$TEXTSTYLE
  7
STANDARD1
  9
$ACADVER
  1
AC1009
  9
$DIMASZ
 40
1.931851648807023
  9
$DIMEXE
 40
2.000000000000000
  9
$DIMEXO
 40
1.000000000000000
  9
$DIMLFAC
 40
1.000000000000000
  9
$DIMSCALE
 40
1.000000000000000
  9
$DIMTAD
 70
1
  9
$DIMTFAC
 40
0.714285731315613
  9
$DIMTXT
 40
2.799999952316284
  9
$LUPREC
 70
3
  9
$TEXTSIZE
 40
3.299999952316284
  9
$REGENMODE
 70
1
  0
ENDSEC
  0
SECTION
  2
TABLES
  0
TABLE
  2
LTYPE
 70
4
  0
LTYPE
  2
CONTINUOUS
 70
64
  3
Solid line
 72
65
 73
0
 40
0.0
  0
LTYPE
  2
DASHED
 70
64
  3
-- -- -- -- -- -- -- -- -- -- -- -- -- -- --
 72
65
 73
2
 40
0.75
 49
0.5
 49
-0.25
  0
LTYPE
  2
DASHDOT
 70
64
  3
__ . __ . __ . __ . __ . __ . __ . __ . __ . __
 72
65
 73
4
 40
1.0
 49
0.5
 49
-0.25
 49
0.0
 49
-0.25
  0
LTYPE
  2
DIVIDE
 70
64
  3
__ . . __ . . __ . . __ . . __ . . __ . . __
 72
65
 73
6
 40
1.25
 49
0.5
 49
-0.25
 49
0.0
 49
-0.25
 49
0.0
 49
-0.25
  0
ENDTAB
  0
TABLE
  2
LAYER
 70
1
  0
LAYER
  2
0
 70
64
 62
2
  6
CONTINUOUS
  0
ENDTAB
  0
TABLE
  2
STYLE
 70
4
  0
STYLE
  2
STANDARD1
 70
64
 40
0.0
 41
1.0
 50
0.0
 71
0
 42
3.299999952316284
  3
MONOTXT
  4
BIGFONT
  0
STYLE
  2
STANDARD2
 70
68
 40
0.0
 41
1.0
 50
0.0
 71
0
 42
3.299999952316284
  3
MONOTXT
  4
BIGFONT
  0
STYLE
  2
STANDARD3
 70
64
 40
0.0
 41
1.0
 50
0.0
 71
0
 42
3.299999952316284
  3
MONOTXT
  4

  0
STYLE
  2
STANDARD4
 70
68
 40
0.0
 41
1.0
 50
0.0
 71
0
 42
3.299999952316284
  3
MONOTXT
  4

  0
ENDTAB
  0
TABLE
  2
VIEW
 70
0
  0
ENDTAB
  0
ENDSEC
  0
SECTION
  2
BLOCKS
  0
BLOCK
  8
0
  2
SYM1
 70
64
 10
0.000000000000000
 20
0.000000000000000
  0
ARC
  8
0
  6
CONTINUOUS
 62
3
 10
-0.979025304317474
 20
-2.200000762939453
 40
1.299999237060547
 50
196.601531107481040
 51
270.000000000000000
  0
ARC
  8
0
  6
CONTINUOUS
 62
3
 10
-0.979025304317474
 20
2.200000762939453
 40
1.299999237060547
 50
90.000000000000000
 51
163.398451589674950
  0
LINE
  8
0
  6
CONTINUOUS
 62
3
 10
-0.000000000000000
 20
-3.500000000000000
 11
-0.979025304317474
 21
-3.500000000000000
  0
LINE
  8
0
  6
CONTINUOUS
 62
3
 10
0.000000000000000
 20
3.500000000000000
 11
-0.979025304317474
 21
3.500000000000000
  0
LINE
  8
0
  6
CONTINUOUS
 62
3
 10
0.000000000000000
 20
-3.500000000000000
 11
-0.000000000000000
 21
3.500000000000000
  0
LINE
  8
0
  6
CONTINUOUS
 62
3
 10
0.000000000000000
 20
-3.500000000000000
 11
-0.000000000000000
 21
3.500000000000000
  0
POINT
  8
0
  6
CONTINUOUS
 62
3
 10
0.000000000000000
 20
0.000000000000000
  0
ARC
  8
0
  6
CONTINUOUS
 62
3
 10
6.399999618530273
 20
0.000000000000000
 40
9.000000000000000
 50
163.398451589674950
 51
196.601531107481040
  0
ENDBLK
  8
0
  0
BLOCK
  8
0
  2
SYM2
 70
64
 10
0.000000000000000
 20
0.000000000000000
  0
ARC
  8
0
  6
CONTINUOUS
 62
3
 10
-0.979025304317474
 20
-2.200000762939453
 40
1.299999237060547
 50
196.601531107481040
 51
270.000000000000000
  0
ARC
  8
0
  6
CONTINUOUS
 62
3
 10
-0.979025304317474
 20
2.200000762939453
 40
1.299999237060547
 50
90.000000000000000
 51
163.398451589674950
  0
LINE
  8
0
  6
CONTINUOUS
 62
3
 10
-0.000000000000000
 20
-3.500000000000000
 11
-0.979025304317474
 21
-3.500000000000000
  0
LINE
  8
0
  6
CONTINUOUS
 62
3
 10
0.000000000000000
 20
3.500000000000000
 11
-0.979025304317474
 21
3.500000000000000
  0
LINE
  8
0
  6
CONTINUOUS
 62
3
 10
0.000000000000000
 20
-3.500000000000000
 11
-0.000000000000000
 21
3.500000000000000
  0
LINE
  8
0
  6
CONTINUOUS
 62
3
 10
0.000000000000000
 20
-3.500000000000000
 11
-0.000000000000000
 21
3.500000000000000
  0
POINT
  8
0
  6
CONTINUOUS
 62
3
 10
0.000000000000000
 20
0.000000000000000
  0
ARC
  8
0
  6
CONTINUOUS
 62
3
 10
6.399999618530273
 20
0.000000000000000
 40
9.000000000000000
 50
163.398451589674950
 51
196.601531107481040
  0
ENDBLK
  8
0
  0
ENDSEC
  0
SECTION
  2
ENTITIES
  0
LINE
  8
0
  6
CONTINUOUS
 62
3
 10
-290.842464633047370
 20
-235.063010003650360
 11
-290.355661241341750
 21
-235.549813395355980
  0
LINE
  8
0
  6
CONTINUOUS
 62
3
 10
-297.489268106461050
 20
-241.709813477064100
 11
-297.002464714755430
 21
-242.196616868769690
  0
LINE
  8
0
  6
CONTINUOUS
 62
3
 10
-290.529326024078560
 20
-235.315556954500750
 11
-297.206425326551480
 21
-241.992656256973670
  0
LINE
  8
0
  6
CONTINUOUS
 62
3
 10
-290.842464633047370
 20
-235.063010003650360
 11
-297.489268106461050
 21
-241.709813477064100
  0
POINT
  8
0
  6
CONTINUOUS
 62
3
 10
-294.165866369754210
 20
-238.386411740357230
  0
ARC
  8
0
  6
CONTINUOUS
 62
3
 10
-296.428607934681220
 20
-236.123670175430190
 40
6.099999427795406
 50
264.601927898108500
 51
5.398089404735109
  0
LINE
  8
0
  6
CONTINUOUS
 62
3
 10
-400.868279515934200
 20
-235.063010003650360
 11
-401.355082907639830
 21
-235.549813395355980
  0
LINE
  8
0
  6
CONTINUOUS
 62
3
 10
-394.221476042520520
 20
-241.709813477064100
 11
-394.708279434226140
 21
-242.196616868769690
  0
LINE
  8
0
  6
CONTINUOUS
 62
3
 10
-401.181418124903020
 20
-235.315556954500750
 11
-394.504318822430090
 21
-241.992656256973670
  0
LINE
  8
0
  6
CONTINUOUS
 62
3
 10
-400.868279515934200
 20
-235.063010003650360
 11
-394.221476042520520
 21
-241.709813477064100
  0
POINT
  8
0
  6
CONTINUOUS
 62
3
 10
-397.544877779227360
 20
-238.386411740357230
  0
ARC
  8
0
  6
CONTINUOUS
 62
3
 10
-395.282136214300350
 20
-236.123670175430190
 40
6.099999427795398
 50
174.601910595264880
 51
275.398072101891500
  0
LINE
  8
0
  6
CONTINUOUS
 62
3
 10
-400.868279515934200
 20
-138.330802067590720
 11
-401.355082907639830
 21
-137.843998675885100
  0
LINE
  8
0
  6
CONTINUOUS
 62
3
 10
-394.221476042520520
 20
-131.683998594176980
 11
-394.708279434226140
 21
-131.197195202471390
  0
LINE
  8
0
  6
CONTINUOUS
 62
3
 10
-401.181418124903020
 20
-138.078255116740340
 11
-394.504318822430090
 21
-131.401155814267410
  0
LINE
  8
0
  6
CONTINUOUS
 62
3
 10
-400.868279515934200
 20
-138.330802067590720
 11
-394.221476042520520
 21
-131.683998594176980
  0
POINT
  8
0
  6
CONTINUOUS
 62
3
 10
-397.544877779227360
 20
-135.007400330883850
  0
ARC
  8
0
  6
CONTINUOUS
 62
3
 10
-395.282136214300350
 20
-137.270141895810890
 40
6.099999427795406
 50
84.601927898108471
 51
185.398089404735120
  0
LINE
  8
0
  6
CONTINUOUS
 62
3
 10
-290.842464633047370
 20
-138.330802067590720
 11
-290.355661241341750
 21
-137.843998675885100
  0
LINE
  8
0
  6
CONTINUOUS
 62
3
 10
-297.489268106461050
 20
-131.683998594176980
 11
-297.002464714755430
 21
-131.197195202471390
  0
LINE
  8
0
  6
CONTINUOUS
 62
3
 10
-290.529326024078560
 20
-138.078255116740340
 11
-297.206425326551480
 21
-131.401155814267410
  0
LINE
  8
0
  6
CONTINUOUS
 62
3
 10
-290.842464633047370
 20
-138.330802067590720
 11
-297.489268106461050
 21
-131.683998594176980
  0
POINT
  8
0
  6
CONTINUOUS
 62
3
 10
-294.165866369754210
 20
-135.007400330883850
  0
ARC
  8
0
  6
CONTINUOUS
 62
3
 10
-296.428607934681220
 20
-137.270141895810890
 40
6.099999427795398
 50
354.601910595264880
 51
95.398072101891529
  0
TEXT
  8
0
  6
CONTINUOUS
 62
3
 10
-388.710144042968750
 20
152.129730224609380
 40
10.295999526977539
  1
Ｓ１５３
 50
0.000002504478167
 41
0.984848625190477
  7
STANDARD1
  0
TEXT
  8
0
  6
CONTINUOUS
 62
3
 10
-388.710144042968750
 20
135.593719482421880
 40
10.295999526977539
  1
三菱ギヤードモートル
 50
0.000002504478167
 41
0.984848625190477
  7
STANDARD1
  0
TEXT
  8
0
  6
CONTINUOUS
 62
3
 10
-388.710144042968750
 20
119.057723999023430
 40
10.295999526977539
  1
ＧＭ－ＳＦＳ
 50
0.000002504478167
 41
0.984848625190477
  7
STANDARD1
  0
TEXT
  8
0
  6
CONTINUOUS
 62
3
 10
-388.710144042968750
 20
102.521720886230460
 40
10.295999526977539
  1
０．４ｋＷ
 50
0.000002504478167
 41
0.984848625190477
  7
STANDARD1
  0
TEXT
  8
0
  6
CONTINUOUS
 62
3
 10
-388.710144042968750
 20
85.985725402832031
 40
10.295999526977539
  1
１／１２０～１／２００
 50
0.000002504478167
 41
0.984848625190477
  7
STANDARD1
  0
TEXT
  8
0
  6
CONTINUOUS
 62
3
 10
-388.710144042968750
 20
69.449722290039062
 40
10.295999526977539
  1
ＳＣＡＬＥ１／１
 50
0.000002504478167
 41
0.984848625190477
  7
STANDARD1
  0
ARC
  8
0
  6
CONTINUOUS
 62
3
 10
35.167100594634121
 20
-109.951119679345010
 40
3.000000000000000
 50
0.000000000000000
 51
60.000010515703380
  0
LINE
  8
0
  6
CONTINUOUS
 62
3
 10
38.667100594634121
 20
-263.254966706037520
 11
38.667100594634121
 21
-276.254966706037520
  0
LINE
  8
0
  6
CONTINUOUS
 62
3
 10
38.667101859119043
 20
-276.254966683336530
 11
38.167100908925931
 21
-275.389037112268110
  0
LINE
  8
0
  6
CONTINUOUS
 62
3
 10
38.667101232491824
 20
-263.254966681969340
 11
38.167101206344867
 21
-264.121090822103380
  0
LINE
  8
0
  6
CONTINUOUS
 62
3
 10
46.167099640959805
 20
-276.254966706037520
 11
38.667101548308437
 21
-276.254966706037520
  0
LINE
  8
0
  6
CONTINUOUS
 62
3
 10
46.167099640959805
 20
-263.254966706037520
 11
38.667100594634121
 21
-263.254966706037520
  0
LINE
  8
0
  6
CONTINUOUS
 62
3
 10
38.167100594634121
 20
-264.121090859174730
 11
38.167100594634121
 21
-275.389037102460860
  0
LINE
  8
0
  6
CONTINUOUS
 62
3
 10
38.667100594634121
 20
-175.254966706037520
 11
38.667100594634121
 21
-188.254966706037520
  0
LINE
  8
0
  6
CONTINUOUS
 62
3
 10
38.667101859119043
 20
-188.254966683336530
 11
38.167100908925931
 21
-187.389037112268110
  0
LINE
  8
0
  6
CONTINUOUS
 62
3
 10
38.667101232491824
 20
-175.254966681969360
 11
38.167101206344867
 21
-176.121090822103380
  0
LINE
  8
0
  6
CONTINUOUS
 62
3
 10
46.167099640959805
 20
-188.254966706037520
 11
38.667101548308437
 21
-188.254966706037520
  0
LINE
  8
0
  6
CONTINUOUS
 62
3
 10
46.167099640959805
 20
-175.254966706037520
 11
38.667100594634121
 21
-175.254966706037520
  0
LINE
  8
0
  6
CONTINUOUS
 62
3
 10
38.167100594634121
 20
-176.121090859174730
 11
38.167100594634121
 21
-187.389037102460860
  0
LINE
  8
0
  6
CONTINUOUS
 62
3
 10
38.667100594634121
 20
-99.254966706037521
 11
38.667100594634121
 21
-112.254966706037520
  0
LINE
  8
0
  6
CONTINUOUS
 62
3
 10
38.667101859119043
 20
-112.254966683336530
 11
38.167100908925931
 21
-111.389037112268110
  0
LINE
  8
0
  6
CONTINUOUS
 62
3
 10
38.667101232491824
 20
-99.254966681969364
 11
38.167101206344867
 21
-100.121090822103360
  0
LINE
  8
0
  6
CONTINUOUS
 62
3
 10
46.167099640959805
 20
-112.254966706037520
 11
38.667101548308437
 21
-112.254966706037520
  0
LINE
  8
0
  6
CONTINUOUS
 62
3
 10
46.167099640959805
 20
-99.254966706037521
 11
38.667100594634121
 21
-99.254966706037521
  0
LINE
  8
0
  6
CONTINUOUS
 62
3
 10
38.167100594634121
 20
-100.121090859174720
 11
38.167100594634121
 21
-111.389037102460860
  0
LINE
  8
0
  6
CONTINUOUS
 62
3
 10
23.167100594637759
 20
-89.254966706037521
 11
23.167100594637759
 21
-102.254966706037520
  0
LINE
  8
0
  6
CONTINUOUS
 62
3
 10
23.167101859122681
 20
-102.254966683336530
 11
22.667100908929569
 21
-101.389037112268110
  0
LINE
  8
0
  6
CONTINUOUS
 62
3
 10
23.167101232495462
 20
-89.254966681969364
 11
22.667101206348509
 21
-90.121090822103369
  0
LINE
  8
0
  6
CONTINUOUS
 62
3
 10
30.667099640963443
 20
-102.254966706037520
 11
23.167101548312075
 21
-102.254966706037520
  0
LINE
  8
0
  6
CONTINUOUS
 62
3
 10
30.667099640963443
 20
-89.254966706037521
 11
23.167100594637759
 21
-89.254966706037521
  0
LINE
  8
0
  6
CONTINUOUS
 62
3
 10
22.667100594637759
 20
-90.121090859174728
 11
22.667100594637759
 21
-101.389037102460860
  0
LINE
  8
0
  6
CONTINUOUS
 62
3
 10
38.667100594637816
 20
97.628463278574600
 11
38.667100594637816
 21
84.628463278574600
  0
LINE
  8
0
  6
CONTINUOUS
 62
3
 10
38.667101859122738
 20
84.628463301275588
 11
38.167100908929626
 21
85.494392872344008
  0
LINE
  8
0
  6
CONTINUOUS
 62
3
 10
38.667101232495519
 20
97.628463302642757
 11
38.167101206348562
 21
96.762339162508752
  0
LINE
  8
0
  6
CONTINUOUS
 62
3
 10
46.167099640963499
 20
84.628463278574600
 11
38.667101548312132
 21
84.628463278574600
  0
LINE
  8
0
  6
CONTINUOUS
 62
3
 10
46.167099640963499
 20
97.628463278574600
 11
38.667100594637816
 21
97.628463278574600
  0
LINE
  8
0
  6
CONTINUOUS
 62
3
 10
38.167100594637816
 20
96.762339125437393
 11
38.167100594637816
 21
85.494392882151260
  0
LINE
  8
0
  6
CONTINUOUS
 62
3
 10
23.167100594643273
 20
137.128463278574600
 11
23.167100594643273
 21
124.128463278574600
  0
LINE
  8
0
  6
CONTINUOUS
 62
3
 10
23.167101859128195
 20
124.128463301275580
 11
22.667100908935083
 21
124.994392872344000
  0
LINE
  8
0
  6
CONTINUOUS
 62
3
 10
23.167101232500976
 20
137.128463302642760
 11
22.667101206354022
 21
136.262339162508740
  0
LINE
  8
0
  6
CONTINUOUS
 62
3
 10
30.667099640968956
 20
124.128463278574600
 11
23.167101548317589
 21
124.128463278574600
  0
LINE
  8
0
  6
CONTINUOUS
 62
3
 10
30.667099640968956
 20
137.128463278574600
 11
23.167100594643273
 21
137.128463278574600
  0
LINE
  8
0
  6
CONTINUOUS
 62
3
 10
22.667100594643273
 20
136.262339125437390
 11
22.667100594643273
 21
124.994392882151260
  0
LINE
  8
0
  6
CONTINUOUS
 62
3
 10
23.167100594643536
 20
145.128463278574770
 11
23.167100594644374
 21
158.128463278574770
  0
LINE
  8
0
  6
CONTINUOUS
 62
3
 10
23.167101859129296
 20
158.128463255873780
 11
22.667100908936128
 21
157.262533684805390
  0
LINE
  8
0
  6
CONTINUOUS
 62
3
 10
23.167101232501238
 20
145.128463254506580
 11
22.667101206354339
 21
145.994587394640630
  0
LINE
  8
0
  6
CONTINUOUS
 62
3
 10
30.667099640970058
 20
158.128463278574290
 11
23.167101548318691
 21
158.128463278574770
  0
LINE
  8
0
  6
CONTINUOUS
 62
3
 10
30.667099640969219
 20
145.128463278574290
 11
23.167100594643536
 21
145.128463278574770
  0
LINE
  8
0
  6
CONTINUOUS
 62
3
 10
22.667100594643593
 20
145.994587431712010
 11
22.667100594644317
 21
157.262533674998140
  0
LINE
  8
0
  6
CONTINUOUS
 62
3
 10
38.667100594640580
 20
184.628463278573860
 11
38.667100594641418
 21
197.628463278573860
  0
LINE
  8
0
  6
CONTINUOUS
 62
3
 10
38.667101859126340
 20
197.628463255872870
 11
38.167100908933172
 21
196.762533684804480
  0
LINE
  8
0
  6
CONTINUOUS
 62
3
 10
38.667101232498283
 20
184.628463254505680
 11
38.167101206351383
 21
185.494587394639720
  0
LINE
  8
0
  6
CONTINUOUS
 62
3
 10
46.167099640967102
 20
197.628463278573380
 11
38.667101548315735
 21
197.628463278573860
  0
LINE
  8
0
  6
CONTINUOUS
 62
3
 10
46.167099640966264
 20
184.628463278573380
 11
38.667100594640580
 21
184.628463278573860
  0
LINE
  8
0
  6
CONTINUOUS
 62
3
 10
38.167100594640637
 20
185.494587431711100
 11
38.167100594641362
 21
196.762533674997230
  0
LINE
  8
0
  6
CONTINUOUS
 62
3
 10
-348.855372074490790
 20
-62.157514021451050
 11
-348.855372074490790
 21
-81.236298049789809
  0
LINE
  8
0
  6
CONTINUOUS
 62
3
 10
-342.855372074490790
 20
-62.157514021451050
 11
-342.855372074490790
 21
-81.236298049789809
  0
CIRCLE
  8
0
  6
CONTINUOUS
 62
3
 10
-345.855372074490790
 20
-71.696906035620430
 40
10.000000000000000
  0
LINE
  8
0
  6
DASHDOT
 62
4
 10
-322.687459075609240
 20
-71.696906035620430
 11
-369.709972977143930
 21
-71.696906035620430
  0
LINE
  8
0
  6
CONTINUOUS
 62
3
 10
-325.355372074490790
 20
-61.696906035620430
 11
-325.355372074490790
 21
-87.194803970540477
  0
LINE
  8
0
  6
CONTINUOUS
 62
3
 10
-366.355372074490790
 20
-61.696906035620430
 11
-366.355372074490790
 21
-87.194803970540249
  0
ARC
  8
0
  6
CONTINUOUS
 62
3
 10
-356.355372074490790
 20
-61.696906035620430
 40
10.000000000000000
 50
90.000000000000000
 51
180.000000000000000
  0
LINE
  8
0
  6
CONTINUOUS
 62
3
 10
-335.355372074490790
 20
-51.696906035620430
 11
-356.355372074490790
 21
-51.696906035620430
  0
ARC
  8
0
  6
CONTINUOUS
 62
3
 10
-335.355372074490790
 20
-61.696906035620430
 40
10.000000000000000
 50
0.000000000000000
 51
90.000000000000000
  0
ARC
  8
0
  6
CONTINUOUS
 62
3
 10
-399.859779526887000
 20
-94.207217208985810
 40
3.000000000000024
 50
225.000000000003070
 51
298.814852117041600
  0
LINE
  8
0
  6
CONTINUOUS
 62
3
 10
-260.432161264664270
 20
-75.516335912913235
 11
-283.691493569897370
 21
-98.775668218146336
  0
LINE
  8
0
  6
CONTINUOUS
 62
3
 10
-264.674801951783590
 20
-71.273695225793915
 11
-289.729644278535260
 21
-96.328537552545583
  0
LINE
  8
0
  6
CONTINUOUS
 62
3
 10
-431.278582884317070
 20
-75.516335912913235
 11
-408.019250579084200
 21
-98.775668218146336
  0
LINE
  8
0
  6
CONTINUOUS
 62
3
 10
-427.035942197197980
 20
-71.273695225793915
 11
-401.981099870446090
 21
-96.328537552545583
  0
LINE
  8
0
  6
CONTINUOUS
 62
3
 10
-233.355372074490790
 20
-52.196906035620430
 11
-233.355372074490790
 21
-261.196906035620430
  0
LINE
  8
0
  6
CONTINUOUS
 62
3
 10
-450.355372074490790
 20
-44.196906035620430
 11
-241.355372074490790
 21
-44.196906035620430
  0
LINE
  8
0
  6
CONTINUOUS
 62
3
 10
-458.355372074490790
 20
-52.196906035620430
 11
-458.355372074490790
 21
-261.196906035620430
  0
LINE
  8
0
  6
CONTINUOUS
 62
3
 10
-450.355372074490790
 20
-269.196906035620430
 11
-407.917160902498380
 21
-269.196906035620430
  0
LINE
  8
0
  6
CONTINUOUS
 62
3
 10
-283.793583246483190
 20
-269.196906035620430
 11
-241.355372074490790
 21
-269.196906035620430
  0
LINE
  8
0
  6
DASHDOT
 62
4
 10
-345.855372074490790
 20
-156.696906035620430
 11
-345.855372074490790
 21
-186.696906035620430
  0
LINE
  8
0
  6
DASHDOT
 62
4
 10
-345.855372074490790
 20
-186.696906035620430
 11
-345.855372074490790
 21
-304.510098539815710
  0
LINE
  8
0
  6
CONTINUOUS
 62
3
 10
-293.855372074490790
 20
-279.696906035620430
 11
-345.855372074490560
 21
-279.696906035620430
  0
LINE
  8
0
  6
CONTINUOUS
 62
3
 10
-397.855372074490790
 20
-279.696906035620430
 11
-345.855372074490790
 21
-279.696906035620430
  0
ARC
  8
0
  6
CONTINUOUS
 62
3
 10
-281.570173226337830
 20
-100.896988561705880
 40
2.999999999999864
 50
135.000000000000000
 51
232.710272620194250
  0
ARC
  8
0
  6
CONTINUOUS
 62
3
 10
-258.310840921104500
 20
-77.637656256472781
 40
2.999999999999864
 50
45.000000000000000
 51
135.000000000003040
  0
ARC
  8
0
  6
CONTINUOUS
 62
3
 10
-266.796122295343140
 20
-69.152374882234142
 40
3.000000000000024
 50
314.999999999996870
 51
45.000000000000000
  0
ARC
  8
0
  6
CONTINUOUS
 62
3
 10
-424.914621853638440
 20
-69.152374882234369
 40
3.000000000000024
 50
134.999999999996930
 51
225.000000000000000
  0
ARC
  8
0
  6
CONTINUOUS
 62
3
 10
-433.399903227877080
 20
-77.637656256472781
 40
3.000000000000185
 50
44.999999999993868
 51
135.000000000000000
  0
ARC
  8
0
  6
CONTINUOUS
 62
3
 10
-410.140570922643750
 20
-100.896988561705880
 40
3.000000000000132
 50
307.289727379809220
 51
45.000000000000000
  0
ARC
  8
0
  6
CONTINUOUS
 62
3
 10
-339.855372074490790
 20
-49.696906035620430
 40
3.000000000000000
 50
90.000000000000000
 51
180.000000000000000
  0
ARC
  8
0
  6
CONTINUOUS
 62
3
 10
-351.855372074490790
 20
-49.696906035620430
 40
3.000000000000000
 50
0.000000000000000
 51
90.000000000000000
  0
CIRCLE
  8
0
  6
CONTINUOUS
 62
3
 10
-246.860422708374020
 20
-57.701956669503886
 40
7.500000000000000
  0
CIRCLE
  8
0
  6
CONTINUOUS
 62
3
 10
-444.850321440607330
 20
-57.701956669503886
 40
7.500000000000000
  0
CIRCLE
  8
0
  6
CONTINUOUS
 62
3
 10
-444.850321440607330
 20
-255.691855401736970
 40
7.500000000000000
  0
CIRCLE
  8
0
  6
CONTINUOUS
 62
3
 10
-246.860422708374020
 20
-255.691855401736970
 40
7.500000000000000
  0
ARC
  8
0
  6
CONTINUOUS
 62
3
 10
-241.355372074490790
 20
-52.196906035620430
 40
8.000000000000000
 50
0.000000000000000
 51
90.000000000000000
  0
ARC
  8
0
  6
CONTINUOUS
 62
3
 10
-450.355372074490790
 20
-52.196906035620430
 40
8.000000000000000
 50
90.000000000000000
 51
180.000000000000000
  0
ARC
  8
0
  6
CONTINUOUS
 62
3
 10
-450.355372074490790
 20
-261.196906035620430
 40
8.000000000000000
 50
180.000000000000000
 51
270.000000000000000
  0
ARC
  8
0
  6
CONTINUOUS
 62
3
 10
-241.355372074490790
 20
-261.196906035620430
 40
8.000000000000000
 50
270.000000000000000
 51
0.000000000000000
  0
ARC
  8
0
  6
CONTINUOUS
 62
3
 10
-293.855372074490790
 20
-269.696906035620430
 40
10.000000000000000
 50
270.000000000000000
 51
358.218230102088230
  0
ARC
  8
0
  6
CONTINUOUS
 62
3
 10
-397.855372074490790
 20
-269.696906035620430
 40
9.999999999999675
 50
181.781769897911860
 51
270.000000000000000
  0
ARC
  8
0
  6
CONTINUOUS
 62
3
 10
-415.846669144701540
 20
-270.256575341030550
 40
8.000000000000107
 50
1.781769897912753
 51
50.049766338017157
  0
LINE
  8
0
  6
CONTINUOUS
 62
3
 10
-342.855372074490790
 20
-49.696906035620430
 11
-342.855372074490790
 21
-51.696906035620430
  0
LINE
  8
0
  6
CONTINUOUS
 62
3
 10
-348.855372074490790
 20
-49.696906035620430
 11
-348.855372074490790
 21
-51.696906035620430
  0
ARC
  8
0
  6
CONTINUOUS
 62
3
 10
-291.850964622095030
 20
-94.207217208985810
 40
3.000000000000092
 50
241.185147882958400
 51
315.000000000000000
  0
ARC
  8
0
  6
CONTINUOUS
 62
3
 10
-275.864075004279810
 20
-270.256575341030550
 40
7.999999999999901
 50
129.950233661982820
 51
178.218230102087180
  0
LINE
  8
0
  6
CONTINUOUS
 62
3
 10
-255.357374847359550
 20
-153.696906035620430
 11
-260.855372074490790
 21
-153.696906035620430
  0
LINE
  8
0
  6
CONTINUOUS
 62
3
 10
-366.355372074490790
 20
-87.194803970540136
 11
-366.355372074490790
 21
-102.754906035620420
  0
LINE
  8
0
  6
CONTINUOUS
 62
3
 10
-397.855372074490790
 20
-279.696906035620430
 11
-345.855372074491240
 21
-279.696906035620430
  0
LINE
  8
0
  6
CONTINUOUS
 62
3
 10
-293.855372074491020
 20
-279.696906035620430
 11
-345.855372074491020
 21
-279.696906035620430
  0
LINE
  8
0
  6
CONTINUOUS
 62
3
 10
-251.855372074490790
 20
-166.930304219801830
 11
-251.855372074490790
 21
-222.683014466513610
  0
LINE
  8
0
  6
CONTINUOUS
 62
3
 10
-325.355372074490790
 20
-87.194803970540249
 11
-325.355372074490790
 21
-102.754906035620420
  0
LINE
  8
0
  6
CONTINUOUS
 62
4
 10
-345.855372074490790
 20
-186.696906035620430
 11
-345.471966846465880
 21
-186.313500807595290
  0
LINE
  8
0
  6
CONTINUOUS
 62
3
 10
-348.855372074490790
 20
-108.754906035620420
 11
-348.855372074490790
 21
-125.196906035620430
  0
LINE
  8
0
  6
CONTINUOUS
 62
3
 10
-328.355372074490790
 20
-105.754906035620420
 11
-363.355372074490790
 21
-105.754906035620420
  0
LINE
  8
0
  6
CONTINUOUS
 62
3
 10
-342.855372074490790
 20
-108.754906035620420
 11
-342.855372074490790
 21
-125.196906035620430
  0
ARC
  8
0
  6
CONTINUOUS
 62
3
 10
-255.357374847359550
 20
-151.696906035620430
 40
2.000000000000000
 50
270.000000000000000
 51
11.262247925638780
  0
ARC
  8
0
  6
CONTINUOUS
 62
3
 10
-331.855372074490790
 20
-166.930304219801830
 40
80.000000000000000
 50
0.000000000000000
 51
85.339580615885211
  0
ARC
  8
0
  6
CONTINUOUS
 62
3
 10
-275.864075004280040
 20
-270.256575341030550
 40
7.999999999999901
 50
129.950233661982820
 51
178.218230102087230
  0
ARC
  8
0
  6
CONTINUOUS
 62
3
 10
-293.855372074491020
 20
-269.696906035620430
 40
10.000000000000000
 50
270.000000000000000
 51
358.218230102088230
  0
ARC
  8
0
  6
CONTINUOUS
 62
3
 10
-397.855372074490790
 20
-269.696906035620430
 40
10.000000000000128
 50
181.781769897911770
 51
270.000000000000000
  0
ARC
  8
0
  6
CONTINUOUS
 62
3
 10
-415.846669144701990
 20
-270.256575341030550
 40
8.000000000000107
 50
1.781769897912753
 51
50.049766338017157
  0
ARC
  8
0
  6
CONTINUOUS
 62
3
 10
-256.855372074490790
 20
-222.683014466513610
 40
4.999999999999877
 50
337.984630459601990
 51
0.000000000000000
  0
ARC
  8
0
  6
CONTINUOUS
 62
3
 10
-434.855372074491240
 20
-222.683014466513610
 40
5.000000000000000
 50
180.000000000000000
 51
202.015369540398010
  0
ARC
  8
0
  6
CONTINUOUS
 62
3
 10
-345.855372074491240
 20
-186.696906035620430
 40
100.999999999999880
 50
202.015369540396900
 51
230.049766338017580
  0
ARC
  8
0
  6
CONTINUOUS
 62
3
 10
-345.855372074490790
 20
-186.696906035620430
 40
101.000000000000050
 50
309.950233661982400
 51
337.984630459603070
  0
ARC
  8
0
  6
CONTINUOUS
 62
3
 10
-363.355372074490790
 20
-102.754906035620420
 40
3.000000000000000
 50
180.000000000000000
 51
270.000000000000000
  0
ARC
  8
0
  6
CONTINUOUS
 62
3
 10
-328.355372074490790
 20
-102.754906035620420
 40
3.000000000000000
 50
270.000000000000000
 51
0.000000000000000
  0
ARC
  8
0
  6
CONTINUOUS
 62
3
 10
-351.855372074490790
 20
-108.754906035620420
 40
3.000000000000000
 50
0.000000000000000
 51
90.000000000000000
  0
ARC
  8
0
  6
CONTINUOUS
 62
3
 10
-339.855372074490790
 20
-108.754906035620420
 40
3.000000000000000
 50
90.000000000000000
 51
180.000000000000000
  0
LINE
  8
0
  6
DASHDOT
 62
4
 10
-236.904553656302600
 20
-265.647724453808220
 11
-256.050652065802070
 21
-246.501626044309090
  0
ARC
  8
0
  6
DASHDOT
 62
4
 10
-345.855372074490790
 20
-156.696906035620430
 40
140.000000000000030
 50
309.356931971768060
 51
320.325838107893280
  0
ARC
  8
0
  6
DASHDOT
 62
4
 10
-345.855372074490790
 20
-156.696906035620430
 40
140.000000000000030
 50
219.670619609464750
 51
230.317480547681410
  0
LINE
  8
0
  6
DASHDOT
 62
4
 10
-454.585503344415880
 20
-265.427037305545980
 11
-434.426039587923700
 21
-245.267573549053790
  0
LINE
  8
0
  6
DASHDOT
 62
4
 10
-454.870558779437720
 20
-47.681719330673502
 11
-434.096497908805990
 21
-68.455780201305231
  0
ARC
  8
0
  6
DASHDOT
 62
4
 10
-345.855372074490790
 20
-156.696906035620430
 40
139.999999999999970
 50
129.603526372502730
 51
140.502896119009340
  0
ARC
  8
0
  6
DASHDOT
 62
4
 10
-345.855372074490790
 20
-156.696906035620430
 40
140.000000000000000
 50
39.861442625687346
 51
50.245706383595447
  0
LINE
  8
0
  6
DASHDOT
 62
4
 10
-236.819961794471060
 20
-47.661495755601152
 11
-258.432947309908740
 21
-69.274481271038837
  0
INSERT
  8
0
  2
SYM1
 10
-433.300194280834150
 20
-227.615862646880880
 41
1.000000000000000
 42
1.000000000000000
 43
1.000000000000000
 50
357.137594773886350
  0
ARC
  8
0
  6
CONTINUOUS
 62
3
 10
-345.855372074490790
 20
53.903093964379707
 40
300.600000000000140
 50
270.000000000000000
 51
278.597082237249080
  0
ARC
  8
0
  6
CONTINUOUS
 62
4
 10
-345.855372074490790
 20
-427.296906035620340
 40
289.396999999999930
 50
90.000000000000000
 51
97.897988672427743
  0
ARC
  8
0
  6
CONTINUOUS
 62
4
 10
-384.796890029872880
 20
-146.588128495033690
 40
5.999999999999923
 50
97.897988672425626
 51
134.999999999996930
  0
LINE
  8
0
  6
CONTINUOUS
 62
4
 10
-389.039530716991980
 20
-142.345487807914140
 11
-393.615596109630590
 21
-146.921553200552750
  0
ARC
  8
0
  6
CONTINUOUS
 62
4
 10
-110.255372074490870
 20
-186.696906035620430
 40
289.396999999999930
 50
173.948014641331470
 51
180.000000000000000
  0
LINE
  8
0
  6
CONTINUOUS
 62
3
 10
-282.510377133949760
 20
-218.196906035620430
 11
-282.355372074490790
 21
-218.196906035620430
  0
LINE
  8
0
  6
CONTINUOUS
 62
3
 10
-282.355372074490790
 20
-156.704406973353510
 11
-282.355372074490790
 21
-155.196906035620200
  0
LINE
  8
0
  6
CONTINUOUS
 62
3
 10
-282.355372074490790
 20
-218.196906035620430
 11
-282.355372074490790
 21
-216.689405097887120
  0
LINE
  8
0
  6
CONTINUOUS
 62
3
 10
-258.916602940509390
 20
-156.696906035620200
 11
-282.356124332206950
 21
-156.696906035620200
  0
LINE
  8
0
  6
CONTINUOUS
 62
3
 10
-282.510377133949760
 20
-155.196906035620200
 11
-282.355372074490790
 21
-155.196906035620200
  0
LINE
  8
0
  6
CONTINUOUS
 62
3
 10
-252.355372074490790
 20
-189.196906035619970
 11
-252.355372074490790
 21
-184.196906035619970
  0
LINE
  8
0
  6
CONTINUOUS
 62
3
 10
-252.355372074490790
 20
-189.196906035619970
 11
-252.865788922008510
 21
-189.196906035619970
  0
LINE
  8
0
  6
CONTINUOUS
 62
3
 10
-252.355372074490790
 20
-184.196906035619970
 11
-252.865788922008510
 21
-184.196906035619970
  0
ARC
  8
0
  6
CONTINUOUS
 62
3
 10
-552.855372074490790
 20
-186.696906035619970
 40
300.000000000000000
 50
0.000000000000000
 51
4.861405395797992
  0
ARC
  8
0
  6
CONTINUOUS
 62
3
 10
-258.916602940509390
 20
-161.696906035620200
 40
5.000000000000119
 50
4.861405395798401
 51
90.000000000000000
  0
ARC
  8
0
  6
CONTINUOUS
 62
3
 10
-258.916602940509390
 20
-211.696906035619970
 40
5.000000000000000
 50
270.000000000000000
 51
355.138594604199000
  0
LINE
  8
0
  6
CONTINUOUS
 62
3
 10
-258.916602940509390
 20
-216.696906035619970
 11
-282.355372074490790
 21
-216.696906035619970
  0
ARC
  8
0
  6
CONTINUOUS
 62
3
 10
-552.855372074490790
 20
-186.696906035619970
 40
300.000000000000170
 50
355.138594604201900
 51
0.000000000000000
  0
ARC
  8
0
  6
CONTINUOUS
 62
3
 10
-389.803959504773270
 20
-136.600291568092130
 40
6.599999999999971
 50
98.597082237248614
 51
134.999999999998610
  0
ARC
  8
0
  6
CONTINUOUS
 62
3
 10
-349.855372074490790
 20
-157.974092802929990
 40
1.499999999999998
 50
277.928141766204020
 51
0.000000000000000
  0
ARC
  8
0
  6
CONTINUOUS
 62
3
 10
-345.855372074490330
 20
-186.696906035620430
 40
33.499999999999950
 50
97.180755781459069
 51
142.819244218541740
  0
ARC
  8
0
  6
CONTINUOUS
 62
3
 10
-345.855372074490330
 20
-186.696906035620430
 40
43.000000000000043
 50
95.531071524839788
 51
144.468928475160770
  0
ARC
  8
0
  6
CONTINUOUS
 62
3
 10
-345.855372074490330
 20
-186.696906035620430
 40
37.000000000000099
 50
95.963570118321798
 51
144.036429881678830
  0
ARC
  8
0
  6
CONTINUOUS
 62
3
 10
-368.730058002156510
 20
-168.871397804137300
 40
1.499999999999926
 50
239.999999999998410
 51
322.071858233800300
  0
ARC
  8
0
  6
CONTINUOUS
 62
3
 10
-371.350826244225350
 20
-167.358296554095150
 40
1.500000000000103
 50
142.819244218542510
 51
239.999999999998410
  0
ARC
  8
0
  6
CONTINUOUS
 62
3
 10
-377.016908528641580
 20
-164.086982421936850
 40
1.500000000000123
 50
240.000000000002730
 51
324.036429881683720
  0
LINE
  8
0
  6
CONTINUOUS
 62
3
 10
-369.480058002156510
 20
-170.170435909813880
 11
-372.100826244225350
 21
-168.657334659771720
  0
LINE
  8
0
  6
CONTINUOUS
 62
3
 10
-377.766908528641580
 20
-165.386020527613650
 11
-380.378092127625680
 21
-163.878452973836540
  0
ARC
  8
0
  6
CONTINUOUS
 62
3
 10
-379.628092127625680
 20
-162.579414868159740
 40
1.499999999999976
 50
144.468928475160790
 51
240.000000000002730
  0
ARC
  8
0
  6
CONTINUOUS
 62
3
 10
-375.350826244225800
 20
-199.107312286870130
 40
1.500000000000157
 50
202.819244218546660
 51
300.000000000001590
  0
LINE
  8
0
  6
CONTINUOUS
 62
3
 10
-374.600826244225800
 20
-200.406350392546700
 11
-371.980058002156510
 21
-198.893249142504770
  0
ARC
  8
0
  6
CONTINUOUS
 62
3
 10
-381.016908528642030
 20
-202.378626419028420
 40
1.499999999999926
 50
300.000000000001590
 51
24.036429881677126
  0
LINE
  8
0
  6
CONTINUOUS
 62
3
 10
-382.878092127626130
 20
-205.185232078482330
 11
-380.266908528642030
 21
-203.677664524704990
  0
ARC
  8
0
  6
CONTINUOUS
 62
3
 10
-383.628092127626130
 20
-203.886193972805300
 40
1.500000000000128
 50
204.468928475167470
 51
299.999999999992950
  0
ARC
  8
0
  6
CONTINUOUS
 62
3
 10
-372.730058002156510
 20
-197.594211036827740
 40
1.500000000000320
 50
299.999999999992950
 51
22.071858233784546
  0
ARC
  8
0
  6
CONTINUOUS
 62
3
 10
-345.855372074490560
 20
-186.696906035620880
 40
33.499999999999794
 50
157.180755781458400
 51
202.819244218540940
  0
ARC
  8
0
  6
CONTINUOUS
 62
3
 10
-345.855372074490560
 20
-186.696906035620880
 40
43.000000000000121
 50
155.531071524839230
 51
204.468928475160200
  0
ARC
  8
0
  6
CONTINUOUS
 62
3
 10
-345.855372074490560
 20
-186.696906035620880
 40
37.000000000000156
 50
155.963570118321120
 51
204.036429881678230
  0
ARC
  8
0
  6
CONTINUOUS
 62
3
 10
-345.855372074491240
 20
-186.696906035620430
 40
27.499999999999886
 50
157.928141766202200
 51
202.071858233798680
  0
ARC
  8
0
  6
CONTINUOUS
 62
3
 10
-372.730058002156740
 20
-175.799601034413120
 40
1.500000000000110
 50
337.928141766202600
 51
59.999999999998380
  0
ARC
  8
0
  6
CONTINUOUS
 62
3
 10
-375.350826244225570
 20
-174.286499784371190
 40
1.500000000000123
 50
60.000000000002721
 51
157.180755781457980
  0
ARC
  8
0
  6
CONTINUOUS
 62
3
 10
-381.016908528641810
 20
-171.015185652212890
 40
1.499999999999855
 50
335.963570118319300
 51
59.999999999990862
  0
LINE
  8
0
  6
CONTINUOUS
 62
3
 10
-371.980058002156740
 20
-174.500562928736540
 11
-374.600826244225570
 21
-172.987461678694390
  0
LINE
  8
0
  6
CONTINUOUS
 62
3
 10
-380.266908528641580
 20
-169.716147546536320
 11
-382.878092127626130
 21
-168.208579992759210
  0
ARC
  8
0
  6
CONTINUOUS
 62
3
 10
-383.628092127626130
 20
-169.507618098435780
 40
1.499999999999926
 50
59.999999999998380
 51
155.531071524840400
  0
ARC
  8
0
  6
CONTINUOUS
 62
3
 10
-371.350826244225800
 20
-206.035515517145480
 40
1.499999999999926
 50
120.000000000001620
 51
217.180755781464400
  0
LINE
  8
0
  6
CONTINUOUS
 62
3
 10
-372.100826244225800
 20
-204.736477411468910
 11
-369.480058002156510
 21
-203.223376161426530
  0
ARC
  8
0
  6
CONTINUOUS
 62
3
 10
-377.016908528642030
 20
-209.306829649303780
 40
1.499999999999968
 50
35.963570118309242
 51
120.000000000001620
  0
LINE
  8
0
  6
CONTINUOUS
 62
3
 10
-380.378092127626130
 20
-209.515359097404540
 11
-377.766908528642030
 21
-208.007791543627210
  0
ARC
  8
0
  6
CONTINUOUS
 62
3
 10
-379.628092127626130
 20
-210.814397203081110
 40
1.499999999999926
 50
120.000000000001620
 51
215.531071524832130
  0
ARC
  8
0
  6
CONTINUOUS
 62
3
 10
-368.730058002156510
 20
-204.522414267103560
 40
1.500000000000122
 50
37.928141766218701
 51
119.999999999992930
  0
ARC
  8
0
  6
CONTINUOUS
 62
3
 10
-345.855372074491020
 20
-186.696906035619970
 40
33.500000000000163
 50
217.180755781459110
 51
262.819244218541770
  0
ARC
  8
0
  6
CONTINUOUS
 62
3
 10
-345.855372074491020
 20
-186.696906035619970
 40
42.999999999999858
 50
215.531071524839690
 51
264.468928475160850
  0
ARC
  8
0
  6
CONTINUOUS
 62
3
 10
-345.855372074491020
 20
-186.696906035619970
 40
37.000000000000021
 50
215.963570118321970
 51
264.036429881678940
  0
ARC
  8
0
  6
CONTINUOUS
 62
3
 10
-345.855372074491020
 20
-186.696906035620880
 40
27.499999999999780
 50
217.928141766201070
 51
262.071858233797400
  0
ARC
  8
0
  6
CONTINUOUS
 62
3
 10
-349.855372074491020
 20
-215.419719268310870
 40
1.500000000000000
 50
0.000000000000000
 51
82.071858233804562
  0
ARC
  8
0
  6
CONTINUOUS
 62
3
 10
-349.855372074491020
 20
-218.445921768395180
 40
1.499999999999998
 50
262.819244218541710
 51
0.000000000000000
  0
ARC
  8
0
  6
CONTINUOUS
 62
3
 10
-349.855372074491020
 20
-224.988550032711770
 40
1.500000000000000
 50
0.000000000017370
 51
84.036429881682594
  0
LINE
  8
0
  6
CONTINUOUS
 62
3
 10
-348.355372074491020
 20
-215.419719268310870
 11
-348.355372074491020
 21
-218.445921768395180
  0
LINE
  8
0
  6
CONTINUOUS
 62
3
 10
-348.355372074491020
 20
-224.988550032711320
 11
-348.355372074491020
 21
-228.003685140265530
  0
ARC
  8
0
  6
CONTINUOUS
 62
3
 10
-349.855372074491020
 20
-228.003685140265530
 40
1.500000000000430
 50
264.468928475160000
 51
0.000000000000000
  0
ARC
  8
0
  6
CONTINUOUS
 62
3
 10
-320.359917904755780
 20
-206.035515517145480
 40
1.500000000000240
 50
322.819244218535570
 51
59.999999999998380
  0
LINE
  8
0
  6
CONTINUOUS
 62
3
 10
-319.609917904755780
 20
-204.736477411468910
 11
-322.230686146825060
 21
-203.223376161426530
  0
ARC
  8
0
  6
CONTINUOUS
 62
3
 10
-314.693835620339540
 20
-209.306829649303780
 40
1.499999999999926
 50
59.999999999998380
 51
144.036429881690740
  0
ARC
  8
0
  6
CONTINUOUS
 62
3
 10
-322.980686146825060
 20
-204.522414267103560
 40
1.500000000000320
 50
60.000000000007070
 51
142.071858233781280
  0
ARC
  8
0
  6
CONTINUOUS
 62
3
 10
-345.855372074490560
 20
-186.696906035619970
 40
33.500000000000114
 50
277.180755781458230
 51
322.819244218540860
  0
ARC
  8
0
  6
CONTINUOUS
 62
3
 10
-345.855372074490560
 20
-186.696906035619970
 40
43.000000000000199
 50
275.531071524838860
 51
324.468928475160340
  0
ARC
  8
0
  6
CONTINUOUS
 62
3
 10
-345.855372074490560
 20
-186.696906035619970
 40
37.000000000000028
 50
275.963570118320770
 51
324.036429881678030
  0
ARC
  8
0
  6
CONTINUOUS
 62
3
 10
-345.855372074490560
 20
-186.696906035620880
 40
27.499999999999879
 50
277.928141766202600
 51
322.071858233798930
  0
ARC
  8
0
  6
CONTINUOUS
 62
3
 10
-341.855372074490560
 20
-215.419719268310870
 40
1.499999999999967
 50
97.928141766195438
 51
180.000000000000000
  0
ARC
  8
0
  6
CONTINUOUS
 62
3
 10
-341.855372074490560
 20
-218.445921768395180
 40
1.500000000000000
 50
180.000000000000000
 51
277.180755781458290
  0
ARC
  8
0
  6
CONTINUOUS
 62
3
 10
-341.855372074490560
 20
-224.988550032711770
 40
1.500000000000182
 50
95.963570118326047
 51
179.999999999982630
  0
LINE
  8
0
  6
CONTINUOUS
 62
3
 10
-343.355372074490560
 20
-215.419719268310870
 11
-343.355372074490560
 21
-218.445921768395180
  0
LINE
  8
0
  6
CONTINUOUS
 62
3
 10
-343.355372074490560
 20
-224.988550032711320
 11
-343.355372074490560
 21
-228.003685140265530
  0
ARC
  8
0
  6
CONTINUOUS
 62
3
 10
-341.855372074490560
 20
-228.003685140265530
 40
1.500000000000000
 50
180.000000000000000
 51
275.531071524831360
  0
ARC
  8
0
  6
CONTINUOUS
 62
3
 10
-316.359917904755780
 20
-199.107312286870130
 40
1.499999999999926
 50
239.999999999998410
 51
337.180755781453340
  0
LINE
  8
0
  6
CONTINUOUS
 62
3
 10
-317.109917904755780
 20
-200.406350392546700
 11
-319.730686146825060
 21
-198.893249142504770
  0
ARC
  8
0
  6
CONTINUOUS
 62
3
 10
-318.980686146825060
 20
-197.594211036827740
 40
1.499999999999899
 50
157.928141766199360
 51
240.000000000007050
  0
ARC
  8
0
  6
CONTINUOUS
 62
3
 10
-345.855372074491020
 20
-186.696906035620880
 40
33.500000000000128
 50
337.180755781459030
 51
22.819244218541968
  0
ARC
  8
0
  6
CONTINUOUS
 62
3
 10
-345.855372074490330
 20
-186.696906035620430
 40
27.499999999999886
 50
337.928141766202200
 51
22.071858233797812
  0
ARC
  8
0
  6
CONTINUOUS
 62
3
 10
-318.980686146824840
 20
-175.799601034413120
 40
1.499999999999926
 50
120.000000000001620
 51
202.071858233797370
  0
ARC
  8
0
  6
CONTINUOUS
 62
3
 10
-316.359917904756000
 20
-174.286499784371190
 40
1.499999999999948
 50
22.819244218550043
 51
119.999999999997270
  0
LINE
  8
0
  6
CONTINUOUS
 62
3
 10
-319.730686146824840
 20
-174.500562928736540
 11
-317.109917904756000
 21
-172.987461678694390
  0
ARC
  8
0
  6
CONTINUOUS
 62
3
 10
-345.855372074491240
 20
-186.696906035620430
 40
33.500000000000071
 50
37.180755781458259
 51
82.819244218540931
  0
ARC
  8
0
  6
CONTINUOUS
 62
3
 10
-345.855372074491240
 20
-186.696906035620430
 40
36.999999999999943
 50
35.963570118321194
 51
84.036429881678174
  0
ARC
  8
0
  6
CONTINUOUS
 62
3
 10
-314.693835620340000
 20
-164.086982421936850
 40
1.500000000000102
 50
215.963570118316280
 51
299.999999999997270
  0
ARC
  8
0
  6
CONTINUOUS
 62
3
 10
-320.359917904756230
 20
-167.358296554095150
 40
1.499999999999926
 50
300.000000000001590
 51
37.180755781457485
  0
ARC
  8
0
  6
CONTINUOUS
 62
3
 10
-345.855372074490560
 20
-186.696906035619970
 40
27.500000000000060
 50
37.928141766201819
 51
82.071858233798309
  0
ARC
  8
0
  6
CONTINUOUS
 62
3
 10
-341.855372074490790
 20
-157.974092802929990
 40
1.500000000000000
 50
180.000000000000000
 51
262.071858233795980
  0
LINE
  8
0
  6
CONTINUOUS
 62
3
 10
-322.230686146825060
 20
-170.170435909813880
 11
-319.609917904756230
 21
-168.657334659771720
  0
ARC
  8
0
  6
CONTINUOUS
 62
3
 10
-322.980686146825060
 20
-168.871397804137300
 40
1.499999999999843
 50
217.928141766204990
 51
300.000000000001590
  0
CIRCLE
  8
0
  6
CONTINUOUS
 62
3
 10
-345.855372074490790
 20
-186.696906035619970
 40
5.000000000000000
  0
ARC
  8
0
  6
CONTINUOUS
 62
3
 10
-339.918118141296870
 20
-178.650228725526570
 40
1.499999999999693
 50
233.578178478195410
 51
300.000000000001590
  0
ARC
  8
0
  6
CONTINUOUS
 62
3
 10
-341.855372074490790
 20
-177.531754645708080
 40
1.500000000000000
 50
180.000000000000000
 51
246.421821521804280
  0
ARC
  8
0
  6
CONTINUOUS
 62
3
 10
-328.680192805446040
 20
-172.162009507740040
 40
1.499999999999926
 50
300.000000000001590
 51
40.240348321182964
  0
ARC
  8
0
  6
CONTINUOUS
 62
3
 10
-341.855372074490790
 20
-174.327589158767010
 40
1.500000000000138
 50
72.079786860605225
 51
180.000000000000000
  0
ARC
  8
0
  6
CONTINUOUS
 62
3
 10
-341.855372074490790
 20
-167.611571351627790
 40
1.500000000000000
 50
180.000000000000000
 51
258.162995844103310
  0
ARC
  8
0
  6
CONTINUOUS
 62
3
 10
-331.326987398424990
 20
-173.690137078486200
 40
1.499999999999967
 50
221.837004155893280
 51
300.000000000001590
  0
ARC
  8
0
  6
CONTINUOUS
 62
3
 10
-341.855372074490790
 20
-164.555316210135460
 40
1.499999999999952
 50
79.759651678814024
 51
180.000000000000000
  0
ARC
  8
0
  6
CONTINUOUS
 62
3
 10
-337.143229431676450
 20
-177.048145982055700
 40
1.499999999999926
 50
300.000000000001590
 51
47.920213139381872
  0
LINE
  8
0
  6
CONTINUOUS
 62
3
 10
-330.576987398424990
 20
-174.989175184162780
 11
-327.930192805446040
 21
-173.461047613416610
  0
ARC
  8
0
  6
CONTINUOUS
 62
3
 10
-345.855372074490560
 20
-186.696906035619970
 40
14.499999999999860
 50
47.920213139391755
 51
72.079786860608309
  0
LINE
  8
0
  6
CONTINUOUS
 62
3
 10
-343.355372074490790
 20
-174.327589158767010
 11
-343.355372074490790
 21
-177.531754645708080
  0
LINE
  8
0
  6
CONTINUOUS
 62
3
 10
-343.355372074490790
 20
-164.555316210135460
 11
-343.355372074490790
 21
-167.611571351627790
  0
LINE
  8
0
  6
CONTINUOUS
 62
3
 10
-339.168118141296870
 20
-179.949266831203150
 11
-336.393229431676450
 21
-178.347184087732270
  0
ARC
  8
0
  6
CONTINUOUS
 62
3
 10
-345.855372074490560
 20
-186.696906035619970
 40
23.999999999999819
 50
40.240348321186090
 51
79.759651678814322
  0
ARC
  8
0
  6
CONTINUOUS
 62
3
 10
-345.855372074490560
 20
-186.696906035619970
 40
8.500000000000101
 50
53.578178478202659
 51
66.421821521799089
  0
ARC
  8
0
  6
CONTINUOUS
 62
3
 10
-333.143229431676450
 20
-189.417462858908890
 40
1.499999999999926
 50
239.999999999998410
 51
347.920213139390400
  0
LINE
  8
0
  6
CONTINUOUS
 62
3
 10
-333.893229431676450
 20
-190.716500964585460
 11
-336.668118141296870
 21
-189.114418221115050
  0
ARC
  8
0
  6
CONTINUOUS
 62
3
 10
-335.918118141296870
 20
-187.815380115438470
 40
1.500000000000099
 50
173.578178478198990
 51
239.999999999998410
  0
ARC
  8
0
  6
CONTINUOUS
 62
3
 10
-345.855372074490560
 20
-186.696906035619970
 40
8.499999999999865
 50
353.578178478199500
 51
6.421821521797448
  0
ARC
  8
0
  6
CONTINUOUS
 62
3
 10
-335.918118141296870
 20
-185.578431955801930
 40
1.499999999999926
 50
120.000000000001620
 51
186.421821521801010
  0
LINE
  8
0
  6
CONTINUOUS
 62
3
 10
-336.668118141296870
 20
-184.279393850125360
 11
-333.893229431676450
 21
-182.677311106654490
  0
ARC
  8
0
  6
CONTINUOUS
 62
3
 10
-333.143229431676450
 20
-183.976349212331060
 40
1.500000000000192
 50
12.079786860592611
 51
120.000000000001620
  0
ARC
  8
0
  6
CONTINUOUS
 62
3
 10
-345.855372074490560
 20
-186.696906035619970
 40
14.500000000000169
 50
347.920213139391310
 51
12.079786860606980
  0
ARC
  8
0
  6
CONTINUOUS
 62
3
 10
-324.680192805446040
 20
-194.303599333224550
 40
1.499999999999926
 50
239.999999999998410
 51
340.240348321188210
  0
LINE
  8
0
  6
CONTINUOUS
 62
3
 10
-325.430192805446040
 20
-195.602637438901130
 11
-328.076987398424990
 21
-194.074509868155420
  0
ARC
  8
0
  6
CONTINUOUS
 62
3
 10
-327.326987398424990
 20
-192.775471762478390
 40
1.500000000000038
 50
161.837004155895410
 51
240.000000000007050
  0
ARC
  8
0
  6
CONTINUOUS
 62
3
 10
-345.855372074490560
 20
-186.696906035619970
 40
17.999999999999943
 50
341.837004155893340
 51
18.162995844106646
  0
ARC
  8
0
  6
CONTINUOUS
 62
3
 10
-327.326987398424990
 20
-180.618340308761560
 40
1.499999999999926
 50
120.000000000001620
 51
198.162995844104590
  0
LINE
  8
0
  6
CONTINUOUS
 62
3
 10
-328.076987398424990
 20
-179.319302203084990
 11
-325.430192805446040
 21
-177.791174632338820
  0
ARC
  8
0
  6
CONTINUOUS
 62
3
 10
-324.680192805446040
 20
-179.090212738015400
 40
1.500000000000246
 50
19.759651678811824
 51
120.000000000001620
  0
ARC
  8
0
  6
CONTINUOUS
 62
3
 10
-345.855372074490560
 20
-186.696906035619970
 40
24.000000000000139
 50
340.240348321186050
 51
19.759651678813924
  0
ARC
  8
0
  6
CONTINUOUS
 62
3
 10
-358.567514717305130
 20
-189.417462858908890
 40
1.500000000000287
 50
192.079786860609600
 51
300.000000000001590
  0
LINE
  8
0
  6
CONTINUOUS
 62
3
 10
-357.817514717305130
 20
-190.716500964585460
 11
-355.042626007684700
 21
-189.114418221115050
  0
ARC
  8
0
  6
CONTINUOUS
 62
3
 10
-355.792626007684700
 20
-187.815380115438470
 40
1.499999999999926
 50
300.000000000001590
 51
6.421821521801967
  0
ARC
  8
0
  6
CONTINUOUS
 62
3
 10
-345.855372074491240
 20
-186.696906035619970
 40
8.499999999999813
 50
173.578178478202550
 51
186.421821521800500
  0
ARC
  8
0
  6
CONTINUOUS
 62
3
 10
-355.792626007684700
 20
-185.578431955801930
 40
1.499999999999873
 50
353.578178478198030
 51
59.999999999998380
  0
LINE
  8
0
  6
CONTINUOUS
 62
3
 10
-355.042626007684700
 20
-184.279393850125360
 11
-357.817514717305360
 21
-182.677311106654490
  0
ARC
  8
0
  6
CONTINUOUS
 62
3
 10
-358.567514717305360
 20
-183.976349212331060
 40
1.499999999999926
 50
59.999999999998380
 51
167.920213139405550
  0
ARC
  8
0
  6
CONTINUOUS
 62
3
 10
-345.855372074491240
 20
-186.696906035619970
 40
14.499999999999851
 50
167.920213139392840
 51
192.079786860608920
  0
ARC
  8
0
  6
CONTINUOUS
 62
3
 10
-367.030551343535540
 20
-194.303599333224550
 40
1.500000000000246
 50
199.759651678811820
 51
300.000000000001590
  0
LINE
  8
0
  6
CONTINUOUS
 62
3
 10
-366.280551343535540
 20
-195.602637438901130
 11
-363.633756750556590
 21
-194.074509868155420
  0
ARC
  8
0
  6
CONTINUOUS
 62
3
 10
-364.383756750556590
 20
-192.775471762478390
 40
1.500000000000320
 50
299.999999999992950
 51
18.162995844104589
  0
ARC
  8
0
  6
CONTINUOUS
 62
3
 10
-345.855372074491240
 20
-186.696906035619970
 40
17.999999999999726
 50
161.837004155893140
 51
198.162995844106860
  0
ARC
  8
0
  6
CONTINUOUS
 62
3
 10
-364.383756750556590
 20
-180.618340308761560
 40
1.500000000000038
 50
341.837004155895390
 51
59.999999999998380
  0
LINE
  8
0
  6
CONTINUOUS
 62
3
 10
-363.633756750556590
 20
-179.319302203084990
 11
-366.280551343535760
 21
-177.791174632338820
  0
ARC
  8
0
  6
CONTINUOUS
 62
3
 10
-367.030551343535760
 20
-179.090212738015400
 40
1.499999999999926
 50
59.999999999998380
 51
160.240348321185250
  0
ARC
  8
0
  6
CONTINUOUS
 62
3
 10
-345.855372074491240
 20
-186.696906035619970
 40
23.999999999999925
 50
160.240348321185910
 51
199.759651678814090
  0
ARC
  8
0
  6
CONTINUOUS
 62
3
 10
-354.567514717305130
 20
-196.345666089184700
 40
1.500000000000320
 50
119.999999999992930
 51
227.920213139381870
  0
LINE
  8
0
  6
CONTINUOUS
 62
3
 10
-355.317514717305130
 20
-195.046627983507680
 11
-352.542626007684700
 21
-193.444545240037260
  0
ARC
  8
0
  6
CONTINUOUS
 62
3
 10
-351.792626007684700
 20
-194.743583345713830
 40
1.500000000000059
 50
53.578178478205707
 51
120.000000000001620
  0
ARC
  8
0
  6
CONTINUOUS
 62
3
 10
-345.855372074490790
 20
-186.696906035620430
 40
8.499999999999870
 50
233.578178478199590
 51
246.421821521797680
  0
ARC
  8
0
  6
CONTINUOUS
 62
3
 10
-349.855372074490790
 20
-195.862057425532330
 40
1.500000000000000
 50
0.000000000017370
 51
66.421821521804304
  0
LINE
  8
0
  6
CONTINUOUS
 62
3
 10
-348.355372074490790
 20
-195.862057425531870
 11
-348.355372074490790
 21
-199.066222912473170
  0
ARC
  8
0
  6
CONTINUOUS
 62
3
 10
-349.855372074490790
 20
-199.066222912473170
 40
1.500000000000355
 50
252.079786860607900
 51
0.000000000000000
  0
ARC
  8
0
  6
CONTINUOUS
 62
3
 10
-345.855372074490790
 20
-186.696906035620430
 40
14.500000000000011
 50
227.920213139391080
 51
252.079786860607410
  0
ARC
  8
0
  6
CONTINUOUS
 62
3
 10
-363.030551343535540
 20
-201.231802563500370
 40
1.499999999999926
 50
120.000000000001620
 51
220.240348321176330
  0
LINE
  8
0
  6
CONTINUOUS
 62
3
 10
-363.780551343535540
 20
-199.932764457823790
 11
-361.133756750556590
 21
-198.404636887077630
  0
ARC
  8
0
  6
CONTINUOUS
 62
3
 10
-360.383756750556590
 20
-199.703674992754200
 40
1.500000000000118
 50
41.837004155899741
 51
120.000000000001620
  0
ARC
  8
0
  6
CONTINUOUS
 62
3
 10
-345.855372074490790
 20
-186.696906035620430
 40
17.999999999999940
 50
221.837004155892320
 51
258.162995844106770
  0
ARC
  8
0
  6
CONTINUOUS
 62
3
 10
-349.855372074490790
 20
-205.782240719612620
 40
1.500000000000000
 50
0.000000000000000
 51
78.162995844101530
  0
LINE
  8
0
  6
CONTINUOUS
 62
3
 10
-348.355372074490790
 20
-205.782240719612620
 11
-348.355372074490790
 21
-208.838495861104950
  0
ARC
  8
0
  6
CONTINUOUS
 62
3
 10
-349.855372074490790
 20
-208.838495861104950
 40
1.499999999999728
 50
259.759651678812470
 51
0.000000000000000
  0
ARC
  8
0
  6
CONTINUOUS
 62
3
 10
-345.855372074490790
 20
-186.696906035620430
 40
23.999999999999844
 50
220.240348321185340
 51
259.759651678813730
  0
ARC
  8
0
  6
CONTINUOUS
 62
3
 10
-337.143229431676450
 20
-196.345666089184700
 40
1.499999999999944
 50
312.079786860618130
 51
60.000000000007070
  0
LINE
  8
0
  6
CONTINUOUS
 62
3
 10
-336.393229431676450
 20
-195.046627983507680
 11
-339.168118141296870
 21
-193.444545240037260
  0
ARC
  8
0
  6
CONTINUOUS
 62
3
 10
-339.918118141296870
 20
-194.743583345713830
 40
1.499999999999926
 50
59.999999999998380
 51
126.421821521801260
  0
ARC
  8
0
  6
CONTINUOUS
 62
3
 10
-345.855372074490790
 20
-186.696906035620430
 40
8.500000000000060
 50
293.578178478202350
 51
306.421821521799190
  0
ARC
  8
0
  6
CONTINUOUS
 62
3
 10
-341.855372074490790
 20
-195.862057425532330
 40
1.500000000000139
 50
113.578178478195690
 51
179.999999999982630
  0
LINE
  8
0
  6
CONTINUOUS
 62
3
 10
-343.355372074490790
 20
-195.862057425531870
 11
-343.355372074490790
 21
-199.066222912473170
  0
ARC
  8
0
  6
CONTINUOUS
 62
3
 10
-341.855372074490790
 20
-199.066222912473170
 40
1.500000000000000
 50
180.000000000000000
 51
287.920213139392100
  0
ARC
  8
0
  6
CONTINUOUS
 62
3
 10
-345.855372074490790
 20
-186.696906035620430
 40
14.500000000000121
 50
287.920213139392560
 51
312.079786860608860
  0
ARC
  8
0
  6
CONTINUOUS
 62
3
 10
-328.680192805446040
 20
-201.231802563500370
 40
1.499999999999828
 50
319.759651678823670
 51
59.999999999998380
  0
LINE
  8
0
  6
CONTINUOUS
 62
3
 10
-327.930192805446040
 20
-199.932764457823790
 11
-330.576987398424990
 21
-198.404636887077630
  0
ARC
  8
0
  6
CONTINUOUS
 62
3
 10
-331.326987398424990
 20
-199.703674992754200
 40
1.499999999999926
 50
59.999999999998380
 51
138.162995844100240
  0
ARC
  8
0
  6
CONTINUOUS
 62
3
 10
-345.855372074490790
 20
-186.696906035620430
 40
18.000000000000146
 50
281.837004155893230
 51
318.162995844107680
  0
ARC
  8
0
  6
CONTINUOUS
 62
3
 10
-341.855372074490790
 20
-205.782240719612620
 40
1.499999999999731
 50
101.837004155898450
 51
180.000000000000000
  0
LINE
  8
0
  6
CONTINUOUS
 62
3
 10
-343.355372074490790
 20
-205.782240719612620
 11
-343.355372074490790
 21
-208.838495861104950
  0
ARC
  8
0
  6
CONTINUOUS
 62
3
 10
-341.855372074490790
 20
-208.838495861104950
 40
1.500000000000000
 50
180.000000000000000
 51
280.240348321187530
  0
ARC
  8
0
  6
CONTINUOUS
 62
3
 10
-345.855372074490790
 20
-186.696906035620430
 40
23.999999999999716
 50
280.240348321186270
 51
319.759651678814690
  0
ARC
  8
0
  6
CONTINUOUS
 62
3
 10
-349.855372074490790
 20
-174.327589158767010
 40
1.500000000000000
 50
0.000000000000000
 51
107.920213139394770
  0
LINE
  8
0
  6
CONTINUOUS
 62
3
 10
-348.355372074490790
 20
-174.327589158767010
 11
-348.355372074490790
 21
-177.531754645708080
  0
ARC
  8
0
  6
CONTINUOUS
 62
3
 10
-349.855372074490790
 20
-177.531754645708080
 40
1.500000000000139
 50
293.578178478195700
 51
0.000000000000000
  0
ARC
  8
0
  6
CONTINUOUS
 62
3
 10
-345.855372074491240
 20
-186.696906035619970
 40
8.499999999999879
 50
113.578178478199500
 51
126.421821521797340
  0
ARC
  8
0
  6
CONTINUOUS
 62
3
 10
-351.792626007684700
 20
-178.650228725526570
 40
1.499999999999926
 50
239.999999999998410
 51
306.421821521797600
  0
LINE
  8
0
  6
CONTINUOUS
 62
3
 10
-352.542626007684700
 20
-179.949266831203150
 11
-355.317514717305360
 21
-178.347184087732270
  0
ARC
  8
0
  6
CONTINUOUS
 62
3
 10
-354.567514717305360
 20
-177.048145982055700
 40
1.499999999999792
 50
132.079786860611680
 51
239.999999999998410
  0
ARC
  8
0
  6
CONTINUOUS
 62
3
 10
-345.855372074491240
 20
-186.696906035619970
 40
14.499999999999980
 50
107.920213139390830
 51
132.079786860607560
  0
ARC
  8
0
  6
CONTINUOUS
 62
3
 10
-349.855372074490790
 20
-164.555316210135460
 40
1.500000000000000
 50
0.000000000000000
 51
100.240348321194510
  0
LINE
  8
0
  6
CONTINUOUS
 62
3
 10
-348.355372074490790
 20
-164.555316210135460
 11
-348.355372074490790
 21
-167.611571351627790
  0
ARC
  8
0
  6
CONTINUOUS
 62
3
 10
-349.855372074490790
 20
-167.611571351627790
 40
1.499999999999954
 50
281.837004155896690
 51
0.000000000000000
  0
ARC
  8
0
  6
CONTINUOUS
 62
3
 10
-345.855372074491240
 20
-186.696906035619970
 40
17.999999999999829
 50
101.837004155891980
 51
138.162995844106210
  0
ARC
  8
0
  6
CONTINUOUS
 62
3
 10
-360.383756750556590
 20
-173.690137078486200
 40
1.499999999999926
 50
239.999999999998410
 51
318.162995844106720
  0
LINE
  8
0
  6
CONTINUOUS
 62
3
 10
-361.133756750556590
 20
-174.989175184162780
 11
-363.780551343535760
 21
-173.461047613416610
  0
ARC
  8
0
  6
CONTINUOUS
 62
3
 10
-363.030551343535760
 20
-172.162009507740040
 40
1.499999999999802
 50
139.759651678811420
 51
239.999999999998410
  0
ARC
  8
0
  6
CONTINUOUS
 62
3
 10
-345.855372074491240
 20
-186.696906035619970
 40
23.999999999999901
 50
100.240348321185670
 51
139.759651678813550
  0
ARC
  8
0
  6
CONTINUOUS
 62
3
 10
-349.855372074490790
 20
-154.947890302845450
 40
1.500000000000000
 50
0.000000000000000
 51
97.180755781458288
  0
LINE
  8
0
  6
CONTINUOUS
 62
3
 10
-348.355372074490790
 20
-154.947890302845450
 11
-348.355372074490790
 21
-157.974092802929990
  0
ARC
  8
0
  6
CONTINUOUS
 62
3
 10
-349.855372074490790
 20
-148.405262038528860
 40
1.499999999999933
 50
275.963570118318330
 51
0.000000000000000
  0
LINE
  8
0
  6
CONTINUOUS
 62
3
 10
-348.355372074490790
 20
-145.390126930974650
 11
-348.355372074490790
 21
-148.405262038528860
  0
LINE
  8
0
  6
CONTINUOUS
 62
3
 10
-311.332652021355440
 20
-209.515359097404540
 11
-313.943835620339540
 21
-208.007791543627210
  0
ARC
  8
0
  6
CONTINUOUS
 62
3
 10
-312.082652021355440
 20
-210.814397203081110
 40
1.499999999999844
 50
324.468928475167900
 51
59.999999999998380
  0
ARC
  8
0
  6
CONTINUOUS
 62
3
 10
-310.693835620339540
 20
-202.378626419028420
 40
1.500000000000063
 50
155.963570118322880
 51
239.999999999998410
  0
LINE
  8
0
  6
CONTINUOUS
 62
3
 10
-308.832652021355440
 20
-205.185232078482330
 11
-311.443835620339540
 21
-203.677664524704990
  0
ARC
  8
0
  6
CONTINUOUS
 62
3
 10
-308.082652021355440
 20
-203.886193972805300
 40
1.500000000000320
 50
240.000000000007050
 51
335.531071524832500
  0
ARC
  8
0
  6
CONTINUOUS
 62
3
 10
-345.855372074491020
 20
-186.696906035620880
 40
42.999999999999936
 50
335.531071524839770
 51
24.468928475160769
  0
ARC
  8
0
  6
CONTINUOUS
 62
3
 10
-345.855372074491020
 20
-186.696906035620880
 40
36.999999999999972
 50
335.963570118321740
 51
24.036429881678870
  0
ARC
  8
0
  6
CONTINUOUS
 62
3
 10
-310.693835620339770
 20
-171.015185652212890
 40
1.500000000000123
 50
119.999999999997270
 51
204.036429881680680
  0
LINE
  8
0
  6
CONTINUOUS
 62
3
 10
-311.443835620339770
 20
-169.716147546536090
 11
-308.832652021355440
 21
-168.208579992758980
  0
ARC
  8
0
  6
CONTINUOUS
 62
3
 10
-308.082652021355440
 20
-169.507618098435780
 40
1.500000000000034
 50
24.468928475159590
 51
119.999999999997270
  0
ARC
  8
0
  6
CONTINUOUS
 62
3
 10
-345.855372074491240
 20
-186.696906035620430
 40
42.999999999999908
 50
35.531071524839248
 51
84.468928475160212
  0
ARC
  8
0
  6
CONTINUOUS
 62
3
 10
-312.082652021355900
 20
-162.579414868159740
 40
1.500000000000123
 50
299.999999999997270
 51
35.531071524839192
  0
ARC
  8
0
  6
CONTINUOUS
 62
3
 10
-341.855372074490790
 20
-148.405262038528860
 40
1.500000000000000
 50
180.000000000000000
 51
264.036429881682580
  0
ARC
  8
0
  6
CONTINUOUS
 62
3
 10
-341.855372074490790
 20
-154.947890302845450
 40
1.499999999999998
 50
82.819244218541712
 51
180.000000000000000
  0
LINE
  8
0
  6
CONTINUOUS
 62
3
 10
-343.355372074490790
 20
-154.947890302845450
 11
-343.355372074490790
 21
-157.974092802929990
  0
LINE
  8
0
  6
CONTINUOUS
 62
3
 10
-313.943835620340000
 20
-165.386020527613650
 11
-311.332652021355900
 21
-163.878452973836540
  0
LINE
  8
0
  6
CONTINUOUS
 62
3
 10
-343.355372074490790
 20
-145.390126930974870
 11
-343.355372074490790
 21
-148.405262038528860
  0
ARC
  8
0
  6
CONTINUOUS
 62
3
 10
-345.855372074491020
 20
-186.696906035619970
 40
27.499999999999815
 50
97.928141766201691
 51
142.071858233797880
  0
ARC
  8
0
  6
CONTINUOUS
 62
3
 10
-345.855372074490560
 20
-186.696906035619970
 40
17.999999999999922
 50
41.837004155893325
 51
78.162995844107314
  0
ARC
  8
0
  6
CONTINUOUS
 62
3
 10
-349.855372074490790
 20
-145.390126930974650
 40
1.500000000000000
 50
0.000000000000000
 51
95.531071524841693
  0
ARC
  8
0
  6
CONTINUOUS
 62
3
 10
-341.855372074490790
 20
-145.390126930974870
 40
1.500000000000203
 50
84.468928475159132
 51
180.000000000000000
  0
LINE
  8
0
  6
CONTINUOUS
 62
3
 10
-394.470864260604460
 20
-241.460425258980140
 11
-401.537313379263650
 21
-234.393976140320490
  0
LINE
  8
0
  6
CONTINUOUS
 62
3
 10
-297.239879888377120
 20
-131.933386812260950
 11
-290.173430769718150
 21
-138.999835930919910
  0
ARC
  8
0
  6
CONTINUOUS
 62
3
 10
-110.255372074490650
 20
-186.696906035620430
 40
300.600000000000080
 50
173.948014641331500
 51
186.051985358668500
  0
ARC
  8
0
  6
CONTINUOUS
 62
3
 10
-345.855372074490790
 20
-427.296906035620340
 40
300.599999999999910
 50
90.000000000000000
 51
98.597082237249069
  0
ARC
  8
0
  6
CONTINUOUS
 62
3
 10
-301.906784644208300
 20
-136.600291568092130
 40
6.600000000000118
 50
45.000000000001400
 51
81.402917762751386
  0
ARC
  8
0
  6
CONTINUOUS
 62
3
 10
-345.855372074490790
 20
-427.296906035620340
 40
300.599999999999800
 50
81.402917762750931
 51
90.000000000000000
  0
ARC
  8
0
  6
CONTINUOUS
 62
3
 10
-581.455372074490700
 20
-186.696906035620430
 40
300.600000000000080
 50
353.948014641331500
 51
6.051985358668499
  0
LINE
  8
0
  6
CONTINUOUS
 62
3
 10
-297.239879888377120
 20
-241.460425258980140
 11
-290.173430769717700
 21
-234.393976140320490
  0
ARC
  8
0
  6
CONTINUOUS
 62
3
 10
-301.906784644208300
 20
-236.793520503148950
 40
6.599999999999747
 50
278.597082237248910
 51
315.000000000000000
  0
ARC
  8
0
  6
CONTINUOUS
 62
3
 10
-345.855372074490790
 20
53.903093964379707
 40
300.600000000000020
 50
261.402917762750920
 51
270.000000000000000
  0
ARC
  8
0
  6
CONTINUOUS
 62
3
 10
-389.803959504773270
 20
-236.793520503148950
 40
6.599999999999957
 50
225.000000000000000
 51
261.402917762751090
  0
LINE
  8
0
  6
CONTINUOUS
 62
3
 10
-394.470864260604460
 20
-131.933386812260950
 11
-401.537313379263420
 21
-138.999835930919910
  0
ARC
  8
0
  6
CONTINUOUS
 62
3
 10
-308.982471149280400
 20
-157.808876310482160
 40
26.600000000000193
 50
6.051985358668552
 51
45.000000000000000
  0
ARC
  8
0
  6
CONTINUOUS
 62
3
 10
-382.728272999701180
 20
-157.808876310482160
 40
26.600000000000119
 50
135.000000000000000
 51
173.948014641331410
  0
ARC
  8
0
  6
CONTINUOUS
 62
3
 10
-382.728272999701180
 20
-215.584935760758700
 40
26.599999999999969
 50
186.051985358668590
 51
224.999999999998980
  0
ARC
  8
0
  6
CONTINUOUS
 62
3
 10
-308.982471149280170
 20
-215.584935760758700
 40
26.599999999999955
 50
315.000000000001020
 51
353.948014641331380
  0
ARC
  8
0
  6
CONTINUOUS
 62
4
 10
-382.728272999701180
 20
-157.808876310482160
 40
15.396999999999876
 50
135.000000000000000
 51
173.948014641331160
  0
ARC
  8
0
  6
CONTINUOUS
 62
4
 10
-581.455372074490700
 20
-186.696906035620430
 40
289.397000000000160
 50
0.000000000000000
 51
6.051985358668508
  0
ARC
  8
0
  6
CONTINUOUS
 62
4
 10
-308.982471149280170
 20
-157.808876310482160
 40
15.397000000000052
 50
6.051985358668849
 51
45.000000000000000
  0
LINE
  8
0
  6
CONTINUOUS
 62
4
 10
-302.671213431989370
 20
-142.345487807914140
 11
-298.095148039350760
 21
-146.921553200552750
  0
ARC
  8
0
  6
CONTINUOUS
 62
4
 10
-306.913854119108460
 20
-146.588128495033690
 40
6.000000000000049
 50
45.000000000003077
 51
82.102011327574374
  0
ARC
  8
0
  6
CONTINUOUS
 62
4
 10
-345.855372074490790
 20
-427.296906035620340
 40
289.396999999999820
 50
82.102011327572214
 51
90.000000000000000
  0
ARC
  8
0
  6
CONTINUOUS
 62
4
 10
-581.455372074490700
 20
-186.696906035620430
 40
289.397000000000160
 50
353.948014641331500
 51
0.000000000000000
  0
ARC
  8
0
  6
CONTINUOUS
 62
4
 10
-308.982471149280170
 20
-215.584935760758700
 40
15.396999999999876
 50
315.000000000000000
 51
353.948014641331160
  0
LINE
  8
0
  6
CONTINUOUS
 62
4
 10
-302.671213431989370
 20
-231.048324263326720
 11
-298.095148039350760
 21
-226.472258870688110
  0
ARC
  8
0
  6
CONTINUOUS
 62
4
 10
-306.913854119108460
 20
-226.805683576207170
 40
5.999999999999923
 50
277.897988672425640
 51
314.999999999996870
  0
ARC
  8
0
  6
CONTINUOUS
 62
4
 10
-345.855372074490790
 20
53.903093964379480
 40
289.396999999999930
 50
270.000000000000000
 51
277.897988672427800
  0
ARC
  8
0
  6
CONTINUOUS
 62
4
 10
-110.255372074490650
 20
-186.696906035620430
 40
289.397000000000160
 50
180.000000000000000
 51
186.051985358668500
  0
ARC
  8
0
  6
CONTINUOUS
 62
4
 10
-382.728272999701180
 20
-215.584935760758700
 40
15.397000000000052
 50
186.051985358668840
 51
225.000000000000000
  0
LINE
  8
0
  6
CONTINUOUS
 62
4
 10
-389.039530716991980
 20
-231.048324263326720
 11
-393.615596109630590
 21
-226.472258870688110
  0
ARC
  8
0
  6
CONTINUOUS
 62
4
 10
-384.796890029872880
 20
-226.805683576207170
 40
6.000000000000049
 50
225.000000000003070
 51
262.102011327574360
  0
ARC
  8
0
  6
CONTINUOUS
 62
4
 10
-345.855372074490560
 20
53.903093964379480
 40
289.396999999999820
 50
262.102011327572200
 51
270.000000000000000
  0
ARC
  8
0
  6
CONTINUOUS
 62
3
 10
-431.155372074490740
 20
-200.739406035620450
 40
20.800000000000082
 50
274.191726156007460
 51
354.952683218987430
  0
LINE
  8
0
  6
CONTINUOUS
 62
3
 10
-410.355372074490790
 20
-169.366297275395030
 11
-410.355372074490790
 21
-160.739406035620450
  0
POINT
  8
0
  6
DASHDOT
 62
4
 10
-410.355372074490790
 20
-186.710636528746420
  0
POINT
  8
0
  6
DASHDOT
 62
4
 10
-410.355372074490790
 20
-186.710636528746420
  0
ARC
  8
0
  6
CONTINUOUS
 62
3
 10
-429.155372074490740
 20
-160.739406035620450
 40
18.799999999999955
 50
0.000000000000000
 51
79.401214733933941
  0
ARC
  8
0
  6
CONTINUOUS
 62
3
 10
-431.155372074490740
 20
-200.739406035620450
 40
20.799999999999986
 50
174.275189547776620
 51
205.640070215894870
  0
ARC
  8
0
  6
CONTINUOUS
 62
3
 10
-431.155372074490740
 20
-200.739406035620450
 40
20.799999999999926
 50
205.640070215894870
 51
260.083463391769440
  0
ARC
  8
0
  6
CONTINUOUS
 62
3
 10
-431.155372074490740
 20
-200.739406035620450
 40
20.799999999999986
 50
174.275189547776620
 51
205.640070215894870
  0
ARC
  8
0
  6
CONTINUOUS
 62
3
 10
-425.329617440403810
 20
-140.294269658482730
 40
1.999999999999927
 50
177.137594773887290
 51
259.401214733934010
  0
ARC
  8
0
  6
CONTINUOUS
 62
3
 10
-430.922630538119620
 20
-140.014619003596920
 40
1.999999999999928
 50
274.873974813840960
 51
357.137594773887320
  0
ARC
  8
0
  6
CONTINUOUS
 62
3
 10
-429.488824808107210
 20
-223.478417012549760
 40
1.999999999999962
 50
94.191726156001650
 51
177.137594773887290
  0
LINE
  8
0
  6
CONTINUOUS
 62
3
 10
-427.657243566173970
 20
-130.776835869285210
 11
-432.750880494450940
 21
-232.649574434825300
  0
ARC
  8
0
  6
CONTINUOUS
 62
3
 10
-435.081837905823020
 20
-223.198766357663940
 40
2.000000000000154
 50
357.137594773887600
 51
80.083463391767268
  0
LINE
  8
0
  6
CONTINUOUS
 62
3
 10
-451.851631426111680
 20
-198.664593068039440
 11
-447.861606488455660
 21
-158.864094314922170
  0
ARC
  8
0
  6
CONTINUOUS
 62
3
 10
-429.155372074490740
 20
-160.739406035620450
 40
18.800000000000036
 50
94.873974813842736
 51
144.191373186504250
  0
ARC
  8
0
  6
CONTINUOUS
 62
3
 10
-429.155372074490740
 20
-160.739406035620450
 40
18.799999999999933
 50
144.191373186504250
 51
174.275189547776390
  0
LINE
  8
0
  6
CONTINUOUS
 62
3
 10
-428.456245437276270
 20
-130.736885775730060
 11
-426.858241695071680
 21
-130.816785962840240
  0
ARC
  8
0
  6
CONTINUOUS
 62
3
 10
-422.313918934170720
 20
-136.050248199510350
 40
9.000000000000060
 50
160.536063666407810
 51
193.739143184213500
  0
POINT
  8
0
  6
CONTINUOUS
 62
3
 10
-428.705933521995120
 20
-135.730647470119100
  0
LINE
  8
0
  6
CONTINUOUS
 62
3
 10
-428.531151862691560
 20
-132.235014284046710
 11
-428.880715181298680
 21
-139.226280656191590
  0
LINE
  8
0
  6
CONTINUOUS
 62
3
 10
-428.531151862691560
 20
-132.235014284046710
 11
-428.880715181298680
 21
-139.226280656191590
  0
LINE
  8
0
  6
CONTINUOUS
 62
3
 10
-428.880715181298680
 20
-139.226280656191590
 11
-429.858518993806460
 21
-139.177390465566250
  0
LINE
  8
0
  6
CONTINUOUS
 62
3
 10
-428.531151862691560
 20
-132.235014284046710
 11
-429.508955675199100
 21
-132.186124093421370
  0
ARC
  8
0
  6
CONTINUOUS
 62
3
 10
-429.793600129878770
 20
-137.879013187012620
 40
1.299999237060493
 50
193.739143184211430
 51
267.137612759980240
  0
ARC
  8
0
  6
CONTINUOUS
 62
3
 10
-429.573874539126790
 20
-133.484501371974890
 40
1.299999237060474
 50
87.137594090651831
 51
160.536063666412870
  0
LINE
  8
0
  6
CONTINUOUS
 62
3
 10
-428.456245437276270
 20
-130.736885775730060
 11
-433.549882365553230
 21
-232.609624341270030
  0
LINE
  8
0
  6
CONTINUOUS
 62
3
 10
-431.951878623348650
 20
-232.689524528381010
 11
-433.549882365553230
 21
-232.609624341270030
  0
LINE
  8
0
  6
CONTINUOUS
 62
3
 10
-426.858241695071680
 20
-130.816785962840240
 11
-431.951878623348650
 21
-232.689524528381010
  0
LINE
  8
0
  6
CONTINUOUS
 62
3
 10
-295.855376779479460
 20
-109.161004211369230
 11
-298.855369651591220
 21
-107.428952253653160
  0
LINE
  8
0
  6
CONTINUOUS
 62
3
 10
-295.855365455889110
 20
-102.232809139234800
 11
-292.855374648541780
 21
-103.964859253484060
  0
LINE
  8
0
  6
CONTINUOUS
 62
3
 10
-292.855373962397150
 20
-107.428957428399200
 11
-295.855376538902990
 21
-109.161004401035540
  0
LINE
  8
0
  6
CONTINUOUS
 62
3
 10
-295.855365372769940
 20
-102.232809035685190
 11
-298.855370014042360
 21
-103.964854213914860
  0
LINE
  8
0
  6
CONTINUOUS
 62
3
 10
-292.855375412350100
 20
-103.964859082394860
 11
-292.855374458675780
 21
-107.428957059079430
  0
LINE
  8
0
  6
CONTINUOUS
 62
3
 10
-298.855368736631700
 20
-107.428952035171670
 11
-298.855369690306020
 21
-103.964854058487100
  0
CIRCLE
  8
0
  6
CONTINUOUS
 62
3
 10
-295.855372074490790
 20
-105.696906035620430
 40
6.500000000000000
  0
CIRCLE
  8
0
  6
CONTINUOUS
 62
3
 10
-295.855372074490790
 20
-105.696906035620430
 40
5.633955001831055
  0
LINE
  8
0
  6
CONTINUOUS
 62
3
 10
-335.355376779479460
 20
-99.219004211369224
 11
-338.355369651591220
 21
-97.486952253653158
  0
LINE
  8
0
  6
CONTINUOUS
 62
3
 10
-335.355365455889110
 20
-92.290809139234796
 11
-332.355374648541780
 21
-94.022859253484057
  0
LINE
  8
0
  6
CONTINUOUS
 62
3
 10
-332.355373962397150
 20
-97.486957428399194
 11
-335.355376538902990
 21
-99.219004401035534
  0
LINE
  8
0
  6
CONTINUOUS
 62
3
 10
-335.355365372769940
 20
-92.290809035685186
 11
-338.355370014042360
 21
-94.022854213914854
  0
LINE
  8
0
  6
CONTINUOUS
 62
3
 10
-332.355375412350100
 20
-94.022859082394859
 11
-332.355374458675780
 21
-97.486957059079430
  0
LINE
  8
0
  6
CONTINUOUS
 62
3
 10
-338.355368736631700
 20
-97.486952035171669
 11
-338.355369690306020
 21
-94.022854058487098
  0
CIRCLE
  8
0
  6
CONTINUOUS
 62
3
 10
-335.355372074490790
 20
-95.754906035620422
 40
6.500000000000000
  0
CIRCLE
  8
0
  6
CONTINUOUS
 62
3
 10
-335.355372074490790
 20
-95.754906035620422
 40
5.633955001831055
  0
LINE
  8
0
  6
CONTINUOUS
 62
3
 10
-356.355367369502120
 20
-99.219004211369224
 11
-353.355374497390360
 21
-97.486952253653158
  0
LINE
  8
0
  6
CONTINUOUS
 62
3
 10
-356.355378693092580
 20
-92.290809139234796
 11
-359.355369500439790
 21
-94.022859253484057
  0
LINE
  8
0
  6
CONTINUOUS
 62
3
 10
-359.355370186584420
 20
-97.486957428399194
 11
-356.355367610078590
 21
-99.219004401035534
  0
LINE
  8
0
  6
CONTINUOUS
 62
3
 10
-356.355378776211640
 20
-92.290809035685186
 11
-353.355374134939210
 21
-94.022854213914854
  0
LINE
  8
0
  6
CONTINUOUS
 62
3
 10
-359.355368736631480
 20
-94.022859082394859
 11
-359.355369690305790
 21
-97.486957059079430
  0
LINE
  8
0
  6
CONTINUOUS
 62
3
 10
-353.355375412349870
 20
-97.486952035171669
 11
-353.355374458675560
 21
-94.022854058487098
  0
CIRCLE
  8
0
  6
CONTINUOUS
 62
3
 10
-356.355372074490790
 20
-95.754906035620422
 40
6.500000000000000
  0
CIRCLE
  8
0
  6
CONTINUOUS
 62
3
 10
-356.355372074490790
 20
-95.754906035620422
 40
5.633955001831055
  0
LINE
  8
0
  6
CONTINUOUS
 62
3
 10
-395.855367369502120
 20
-109.161004211369450
 11
-392.855374497390360
 21
-107.428952253653390
  0
LINE
  8
0
  6
CONTINUOUS
 62
3
 10
-395.855378693092580
 20
-102.232809139235030
 11
-398.855369500439790
 21
-103.964859253484290
  0
LINE
  8
0
  6
CONTINUOUS
 62
3
 10
-398.855370186584420
 20
-107.428957428399420
 11
-395.855367610078590
 21
-109.161004401035760
  0
LINE
  8
0
  6
CONTINUOUS
 62
3
 10
-395.855378776211640
 20
-102.232809035685420
 11
-392.855374134939210
 21
-103.964854213915080
  0
LINE
  8
0
  6
CONTINUOUS
 62
3
 10
-398.855368736631480
 20
-103.964859082395090
 11
-398.855369690305790
 21
-107.428957059079660
  0
LINE
  8
0
  6
CONTINUOUS
 62
3
 10
-392.855375412349870
 20
-107.428952035171900
 11
-392.855374458675560
 21
-103.964854058487330
  0
CIRCLE
  8
0
  6
CONTINUOUS
 62
3
 10
-395.855372074490790
 20
-105.696906035620650
 40
6.500000000000000
  0
CIRCLE
  8
0
  6
CONTINUOUS
 62
3
 10
-395.855372074490790
 20
-105.696906035620650
 40
5.633955001831055
  0
LINE
  8
0
  6
CONTINUOUS
 62
3
 10
-397.855367369502120
 20
-273.161004211369460
 11
-394.855374497390360
 21
-271.428952253653390
  0
LINE
  8
0
  6
CONTINUOUS
 62
3
 10
-397.855378693092460
 20
-266.232809139235030
 11
-400.855369500439790
 21
-267.964859253484290
  0
LINE
  8
0
  6
CONTINUOUS
 62
3
 10
-400.855370186584420
 20
-271.428957428399430
 11
-397.855367610078590
 21
-273.161004401035770
  0
LINE
  8
0
  6
CONTINUOUS
 62
3
 10
-397.855378776211640
 20
-266.232809035685420
 11
-394.855374134939210
 21
-267.964854213915090
  0
LINE
  8
0
  6
CONTINUOUS
 62
3
 10
-400.855368736631480
 20
-267.964859082395090
 11
-400.855369690305790
 21
-271.428957059079660
  0
LINE
  8
0
  6
CONTINUOUS
 62
3
 10
-394.855375412349870
 20
-271.428952035171900
 11
-394.855374458675560
 21
-267.964854058487330
  0
CIRCLE
  8
0
  6
CONTINUOUS
 62
3
 10
-397.855372074490790
 20
-269.696906035620660
 40
6.500000000000000
  0
CIRCLE
  8
0
  6
CONTINUOUS
 62
3
 10
-397.855372074490790
 20
-269.696906035620660
 40
5.633955001831055
  0
LINE
  8
0
  6
CONTINUOUS
 62
3
 10
-293.855376779479680
 20
-273.161004211369230
 11
-296.855369651591450
 21
-271.428952253653160
  0
LINE
  8
0
  6
CONTINUOUS
 62
3
 10
-293.855365455889340
 20
-266.232809139234800
 11
-290.855374648542010
 21
-267.964859253484060
  0
LINE
  8
0
  6
CONTINUOUS
 62
3
 10
-290.855373962397380
 20
-271.428957428399200
 11
-293.855376538903220
 21
-273.161004401035540
  0
LINE
  8
0
  6
CONTINUOUS
 62
3
 10
-293.855365372770170
 20
-266.232809035685190
 11
-296.855370014042590
 21
-267.964854213914860
  0
LINE
  8
0
  6
CONTINUOUS
 62
3
 10
-290.855375412350330
 20
-267.964859082394870
 11
-290.855374458676010
 21
-271.428957059079440
  0
LINE
  8
0
  6
CONTINUOUS
 62
3
 10
-296.855368736631930
 20
-271.428952035171680
 11
-296.855369690306250
 21
-267.964854058487110
  0
CIRCLE
  8
0
  6
CONTINUOUS
 62
3
 10
-293.855372074491020
 20
-269.696906035620430
 40
6.500000000000000
  0
CIRCLE
  8
0
  6
CONTINUOUS
 62
3
 10
-293.855372074491020
 20
-269.696906035620430
 40
5.633955001831055
  0
LINE
  8
0
  6
DASHDOT
 62
4
 10
-325.396131460518520
 20
-156.696906035620430
 11
-365.762321313515710
 21
-156.696906035620430
  0
ARC
  8
0
  6
CONTINUOUS
 62
3
 10
-253.855372074490790
 20
-171.696906035620430
 40
2.000000000000000
 50
0.000000000000000
 51
74.874433046238650
  0
ARC
  8
0
  6
CONTINUOUS
 62
3
 10
-260.855372074490790
 20
-161.696906035620430
 40
8.000000000000000
 50
90.000000000000000
 51
141.317812546508240
  0
ARC
  8
0
  6
CONTINUOUS
 62
3
 10
-339.855372074490790
 20
-125.196906035620430
 40
3.000000000000000
 50
180.000000000000000
 51
210.428285803703010
  0
ARC
  8
0
  6
CONTINUOUS
 62
3
 10
-351.855372074490790
 20
-125.196906035620430
 40
2.999999999999921
 50
329.571714196296970
 51
0.000000000000000
  0
ARC
  8
0
  6
CONTINUOUS
 62
3
 10
-359.855372074491240
 20
-166.930304219801830
 40
80.000000000000028
 50
94.660419384114462
 51
162.857588701217080
  0
LINE
  8
0
  6
CONTINUOUS
 62
3
 10
-439.855372074491240
 20
-219.632526476669650
 11
-439.855372074491240
 21
-222.683014466513610
  0
ARC
  8
0
  6
CONTINUOUS
 62
3
 10
-384.649644274849830
 20
-214.963572702286850
 40
26.999999999999968
 50
161.248570830536120
 51
231.704372189437920
  0
ARC
  8
0
  6
CONTINUOUS
 62
3
 10
-331.635995355102300
 20
-225.237473043138780
 40
27.000000000000018
 50
232.608236715358540
 51
313.223998195751050
  0
LINE
  8
0
  6
DASHDOT
 62
4
 10
-216.184961310218110
 20
-186.696906035620430
 11
-479.345538437265990
 21
-186.696906035620430
  0
LINE
  8
0
  6
DASHDOT
 62
4
 10
-345.855372074490790
 20
-26.381710840378219
 11
-345.855372074490790
 21
-156.696906035620430
  0
LINE
  8
0
  6
DASHDOT
 62
4
 10
174.303609000804950
 20
240.123412644690230
 11
135.307616811622720
 21
240.123412644690230
  0
LINE
  8
0
  6
DASHDOT
 62
4
 10
174.303609000804950
 20
42.133513912456692
 11
135.307616811622720
 21
42.133513912456692
  0
LINE
  8
0
  6
CONTINUOUS
 62
3
 10
154.667099640963440
 20
136.128463278573690
 11
158.667099640963670
 21
136.128463278573690
  0
LINE
  8
0
  6
CONTINUOUS
 62
3
 10
158.667099640963670
 20
74.679889959259981
 11
154.667099640963440
 21
74.679889959259981
  0
LINE
  8
0
  6
CONTINUOUS
 62
3
 10
158.667099640963670
 20
49.841666714170515
 11
154.667099640963440
 21
49.841666714170515
  0
ARC
  8
0
  6
CONTINUOUS
 62
3
 10
154.667099640963440
 20
52.841666714170515
 40
2.999999999999943
 50
180.000000000000000
 51
270.000000000000000
  0
LINE
  8
0
  6
CONTINUOUS
 62
3
 10
151.667099640963500
 20
133.128463278573690
 11
151.667099640963500
 21
52.841666714170515
  0
ARC
  8
0
  6
CONTINUOUS
 62
3
 10
154.667099640963440
 20
77.679889959259981
 40
2.999999999999943
 50
180.000000000000000
 51
270.000000000000000
  0
ARC
  8
0
  6
CONTINUOUS
 62
3
 10
154.667099640963440
 20
133.128463278573690
 40
3.000000000000000
 50
90.000000000000000
 51
180.000000000000000
  0
LINE
  8
0
  6
CONTINUOUS
 62
3
 10
154.667099640963440
 20
146.128463278573690
 11
158.667099640963670
 21
146.128463278573690
  0
LINE
  8
0
  6
CONTINUOUS
 62
3
 10
158.667099640963670
 20
207.577036597887400
 11
154.667099640963440
 21
207.577036597887400
  0
LINE
  8
0
  6
CONTINUOUS
 62
3
 10
158.667099640963670
 20
232.415259842976870
 11
154.667099640963440
 21
232.415259842976870
  0
ARC
  8
0
  6
CONTINUOUS
 62
3
 10
154.667099640963440
 20
229.415259842976870
 40
3.000000000000000
 50
90.000000000000000
 51
180.000000000000000
  0
LINE
  8
0
  6
CONTINUOUS
 62
3
 10
151.667099640963500
 20
149.128463278573690
 11
151.667099640963500
 21
229.415259842976870
  0
ARC
  8
0
  6
CONTINUOUS
 62
3
 10
154.667099640963440
 20
204.577036597887400
 40
3.000000000000000
 50
90.000000000000000
 51
180.000000000000000
  0
ARC
  8
0
  6
CONTINUOUS
 62
3
 10
154.667099640963440
 20
149.128463278573690
 40
2.999999999999943
 50
180.000000000000000
 51
270.000000000000000
  0
LINE
  8
0
  6
CONTINUOUS
 62
3
 10
158.667099640963440
 20
28.628463278573690
 11
144.667099640963500
 21
28.628463278573690
  0
LINE
  8
0
  6
CONTINUOUS
 62
3
 10
142.667099640963500
 20
30.628463278573690
 11
142.667099640963500
 21
251.628463278573690
  0
ARC
  8
0
  6
CONTINUOUS
 62
3
 10
144.667099640963500
 20
30.628463278573690
 40
2.000000000000000
 50
180.000000000000000
 51
270.000000000000000
  0
LINE
  8
0
  6
CONTINUOUS
 62
3
 10
162.667099640963440
 20
141.128463278573690
 11
162.667099640963440
 21
245.128463278573690
  0
ARC
  8
0
  6
CONTINUOUS
 62
3
 10
161.667099640963440
 20
186.281569578428840
 40
3.000000000000000
 50
0.000000000000000
 51
70.528779365509465
  0
ARC
  8
0
  6
CONTINUOUS
 62
3
 10
164.667099640963440
 20
90.779214361482445
 40
2.999999999999984
 50
120.000187270170780
 51
131.810314895779530
  0
LINE
  8
0
  6
CONTINUOUS
 62
3
 10
158.667099640963440
 20
141.128463278573690
 11
158.667099640963440
 21
28.628463278573236
  0
LINE
  8
0
  6
CONTINUOUS
 62
3
 10
162.667099640963440
 20
141.128463278573690
 11
162.667099640963440
 21
37.128463278573690
  0
LINE
  8
0
  6
CONTINUOUS
 62
3
 10
164.667099640963440
 20
141.128463278573690
 11
164.667099640963440
 21
95.975356978718082
  0
LINE
  8
0
  6
CONTINUOUS
 62
3
 10
158.667099640963670
 20
141.128463278573690
 11
158.667099640963440
 21
253.628463278573690
  0
LINE
  8
0
  6
CONTINUOUS
 62
3
 10
164.667099640963440
 20
141.128463278573690
 11
164.667099640963440
 21
186.281569578428840
  0
ARC
  8
0
  6
CONTINUOUS
 62
3
 10
144.667099640963500
 20
251.628463278573690
 40
2.000000000000000
 50
90.000000000000000
 51
180.000000000000000
  0
LINE
  8
0
  6
CONTINUOUS
 62
3
 10
144.667099640963500
 20
253.628463278573690
 11
158.667099640963440
 21
253.628463278573690
  0
ARC
  8
0
  6
CONTINUOUS
 62
3
 10
165.667099640963440
 20
175.628463278573690
 40
1.000000000000000
 50
180.000000000000000
 51
270.000000000000000
  0
ARC
  8
0
  6
CONTINUOUS
 62
3
 10
165.667099640963440
 20
106.628463278573690
 40
1.000000000000000
 50
90.000000000000000
 51
180.000000000000000
  0
ARC
  8
0
  6
CONTINUOUS
 62
3
 10
161.667082657453880
 20
95.975356978718082
 40
2.999999999999871
 50
300.000187270167030
 51
0.000000000000000
  0
LINE
  8
0
  6
CONTINUOUS
 62
3
 10
166.667099640963440
 20
107.628463278573690
 11
166.667099640963440
 21
174.628463278573690
  0
LINE
  8
0
  6
CONTINUOUS
 62
3
 10
165.667099640963440
 20
107.628463278573690
 11
166.667099640963440
 21
107.628463278573690
  0
LINE
  8
0
  6
CONTINUOUS
 62
3
 10
165.667099640963440
 20
174.628463278573690
 11
166.667099640963440
 21
174.628463278573690
  0
LINE
  8
0
  6
CONTINUOUS
 62
3
 10
158.667099640963440
 20
246.128463278573690
 11
161.667099640963440
 21
246.128463278573690
  0
LINE
  8
0
  6
CONTINUOUS
 62
3
 10
161.667099640963440
 20
246.128463278573690
 11
162.667099640963440
 21
245.128463278573690
  0
LINE
  8
0
  6
CONTINUOUS
 62
3
 10
161.667099640963440
 20
36.128463278573690
 11
158.667099640963440
 21
36.128463278573690
  0
LINE
  8
0
  6
CONTINUOUS
 62
3
 10
162.667099640963440
 20
37.128463278573690
 11
161.667099640963440
 21
36.128463278573690
  0
LINE
  8
0
  6
CONTINUOUS
 62
3
 10
151.621060240777350
 20
28.951032611235860
 11
151.621060240777350
 21
28.628463278573690
  0
ARC
  8
0
  6
CONTINUOUS
 62
3
 10
218.267099640984720
 20
125.528463278573320
 40
0.400000000000091
 50
270.000000000000000
 51
0.000000000000000
  0
LINE
  8
0
  6
CONTINUOUS
 62
3
 10
218.667099640984820
 20
141.128463278573690
 11
218.667099640984820
 21
156.728463278573600
  0
LINE
  8
0
  6
CONTINUOUS
 62
3
 10
168.667099640984820
 20
124.328463278573500
 11
168.467099640985000
 21
124.128463278573230
  0
ARC
  8
0
  6
CONTINUOUS
 62
3
 10
169.467099640985000
 20
124.478463278573140
 40
0.800000000000182
 50
90.000000000000000
 51
176.296803365719710
  0
LINE
  8
0
  6
CONTINUOUS
 62
3
 10
168.667099640984820
 20
124.328463278573500
 11
168.667099640984820
 21
141.128463278573240
  0
LINE
  8
0
  6
CONTINUOUS
 62
3
 10
170.667099640984820
 20
125.278463278573320
 11
169.467099640985000
 21
125.278463278573320
  0
LINE
  8
0
  6
CONTINUOUS
 62
3
 10
218.267099640984720
 20
125.128463278573230
 11
171.226907262120220
 21
125.128463278573230
  0
LINE
  8
0
  6
CONTINUOUS
 62
3
 10
166.667099640962530
 20
124.128463278572780
 11
168.467099640985000
 21
124.128463278573230
  0
LINE
  8
0
  6
CONTINUOUS
 62
3
 10
170.667099640984820
 20
125.278463278573320
 11
171.226907262120220
 21
125.128463278573230
  0
LINE
  8
0
  6
CONTINUOUS
 62
3
 10
168.667099640984820
 20
157.928463278573420
 11
168.467099640985000
 21
158.128463278573240
  0
ARC
  8
0
  6
CONTINUOUS
 62
3
 10
169.467099640985000
 20
157.778463278573330
 40
0.800000000000237
 50
183.703196634280290
 51
270.000000000000000
  0
LINE
  8
0
  6
CONTINUOUS
 62
3
 10
168.667099640984820
 20
157.928463278573420
 11
168.667099640984820
 21
141.128463278573240
  0
LINE
  8
0
  6
CONTINUOUS
 62
3
 10
166.667099640962530
 20
158.128463278573690
 11
168.467099640985000
 21
158.128463278573240
  0
LINE
  8
0
  6
CONTINUOUS
 62
3
 10
170.667099640984820
 20
156.978463278573140
 11
169.467099640985000
 21
156.978463278573140
  0
LINE
  8
0
  6
CONTINUOUS
 62
3
 10
170.667099640984820
 20
156.978463278573140
 11
171.226907262120220
 21
157.128463278573240
  0
LINE
  8
0
  6
CONTINUOUS
 62
3
 10
173.667099640984820
 20
125.128463278573690
 11
173.667099640984820
 21
122.128463278573690
  0
LINE
  8
0
  6
CONTINUOUS
 62
3
 10
218.267099640984720
 20
157.128463278573240
 11
171.226907262120220
 21
157.128463278573240
  0
LINE
  8
0
  6
CONTINUOUS
 62
3
 10
218.667099640984820
 20
122.128463278573690
 11
173.667099640984820
 21
122.128463278573690
  0
ARC
  8
0
  6
CONTINUOUS
 62
3
 10
218.267099640984720
 20
156.728463278573140
 40
0.400000000000091
 50
0.000000000000000
 51
90.000000000000000
  0
LINE
  8
0
  6
CONTINUOUS
 62
3
 10
218.667099640984820
 20
141.128463278573690
 11
218.667099640984820
 21
122.128463278573690
  0
LINE
  8
0
  6
CONTINUOUS
 62
3
 10
123.826312823772750
 20
144.128463278573690
 11
139.667099640963500
 21
144.128463278573690
  0
LINE
  8
0
  6
CONTINUOUS
 62
3
 10
123.826312823772750
 20
138.128463278573690
 11
139.667099640963500
 21
138.128463278573690
  0
ARC
  8
0
  6
CONTINUOUS
 62
3
 10
139.667099640963500
 20
147.128463278573690
 40
3.000000000000000
 50
270.000000000000000
 51
0.000000000000000
  0
ARC
  8
0
  6
CONTINUOUS
 62
3
 10
139.667099640963500
 20
135.128463278573690
 40
3.000000000000000
 50
0.000000000000000
 51
90.000000000000000
  0
ARC
  8
0
  6
CONTINUOUS
 62
3
 10
123.826312823772750
 20
135.128463278573690
 40
3.000000000000000
 50
90.000000000000000
 51
180.000000000000000
  0
ARC
  8
0
  6
CONTINUOUS
 62
3
 10
123.826312823772750
 20
147.128463278574150
 40
3.000000000000000
 50
180.000000000000000
 51
270.000000000000000
  0
LINE
  8
0
  6
CONTINUOUS
 62
3
 10
139.411798790547040
 20
195.637852937327350
 11
124.429083851459430
 21
195.637852937327350
  0
LINE
  8
0
  6
CONTINUOUS
 62
3
 10
121.727135062461740
 20
196.774145639460580
 11
142.017970779047630
 21
222.368905132183500
  0
ARC
  8
0
  6
CONTINUOUS
 62
3
 10
119.376263924377380
 20
198.637852937327350
 40
3.000000000000000
 50
270.000000000000000
 51
321.593567086411040
  0
ARC
  8
0
  6
CONTINUOUS
 62
3
 10
139.667099640963500
 20
224.232612430050270
 40
2.999999999999804
 50
321.593567086408370
 51
0.000000000000000
  0
ARC
  8
0
  6
CONTINUOUS
 62
3
 10
139.667099640963500
 20
229.717893804288910
 40
2.999999999999804
 50
321.593567086408370
 51
0.000000000000000
  0
LINE
  8
0
  6
CONTINUOUS
 62
3
 10
121.727135062461740
 20
202.259427013699220
 11
142.017970779047630
 21
227.854186506422140
  0
ARC
  8
0
  6
CONTINUOUS
 62
3
 10
119.376263924377380
 20
204.123134311565990
 40
3.000000000000000
 50
270.000000000000000
 51
321.593567086411040
  0
LINE
  8
0
  6
CONTINUOUS
 62
3
 10
139.411798790547040
 20
86.619073619820028
 11
124.429083851459430
 21
86.619073619820028
  0
ARC
  8
0
  6
CONTINUOUS
 62
3
 10
139.667099640963500
 20
52.539032752858475
 40
3.000000000000000
 50
0.000000000000000
 51
38.406432913591630
  0
LINE
  8
0
  6
CONTINUOUS
 62
3
 10
121.727135062461740
 20
79.997499543448157
 11
142.017970779047630
 21
54.402740050725242
  0
ARC
  8
0
  6
CONTINUOUS
 62
3
 10
119.376263924377380
 20
78.133792245581390
 40
2.999999999999982
 50
38.406432913588930
 51
90.000000000000000
  0
ARC
  8
0
  6
CONTINUOUS
 62
3
 10
139.667099640963500
 20
58.024314127097114
 40
3.000000000000000
 50
0.000000000000000
 51
38.406432913591630
  0
LINE
  8
0
  6
CONTINUOUS
 62
3
 10
121.727135062461740
 20
85.482780917686796
 11
142.017970779047630
 21
59.888021424963881
  0
ARC
  8
0
  6
CONTINUOUS
 62
3
 10
119.376263924377380
 20
83.619073619820028
 40
2.999999999999982
 50
38.406432913588930
 51
90.000000000000000
  0
LINE
  8
0
  6
CONTINUOUS
 62
3
 10
23.667099640966228
 20
158.128463278574600
 11
23.667099640968956
 21
200.628463278574600
  0
LINE
  8
0
  6
CONTINUOUS
 62
3
 10
23.667099640968956
 20
200.628463278574600
 11
43.324107509696489
 21
201.658643408322860
  0
ARC
  8
0
  6
CONTINUOUS
 62
3
 10
43.167099640967592
 20
204.654532012586510
 40
2.999999999999937
 50
273.000000000001360
 51
359.999999999991300
  0
LINE
  8
0
  6
CONTINUOUS
 62
3
 10
46.167099640964864
 20
164.628463278573690
 11
46.167099640969411
 21
233.128463278573240
  0
LINE
  8
0
  6
CONTINUOUS
 62
3
 10
44.167099640968452
 20
219.860514086142440
 11
44.167099640969411
 21
233.128463278573240
  0
LINE
  8
0
  6
CONTINUOUS
 62
3
 10
38.667100594642818
 20
218.628463278573690
 11
38.667100594643500
 21
231.628463278573690
  0
LINE
  8
0
  6
CONTINUOUS
 62
3
 10
38.667101859128536
 20
231.628463255872700
 11
38.167100908935311
 21
230.762533684804570
  0
LINE
  8
0
  6
CONTINUOUS
 62
3
 10
38.667101232500556
 20
218.628463254505730
 11
38.167101206353493
 21
219.494587394639890
  0
LINE
  8
0
  6
CONTINUOUS
 62
3
 10
44.167099640969305
 20
231.628463278573350
 11
38.667101548317817
 21
231.628463278573690
  0
LINE
  8
0
  6
CONTINUOUS
 62
3
 10
44.591647068667882
 20
218.628463278573320
 11
38.667100594642818
 21
218.628463278573690
  0
LINE
  8
0
  6
CONTINUOUS
 62
3
 10
38.167100594642818
 20
219.494587431711350
 11
38.167100594643500
 21
230.762533674997480
  0
ARC
  8
0
  6
CONTINUOUS
 62
3
 10
46.167099640969411
 20
233.128463278573240
 40
2.000000000000000
 50
90.000000000000000
 51
180.000000000000000
  0
LINE
  8
0
  6
CONTINUOUS
 62
3
 10
58.667099640963499
 20
235.128463278572330
 11
46.167099640969411
 21
235.128463278573240
  0
ARC
  8
0
  6
CONTINUOUS
 62
3
 10
46.167099640968502
 20
219.860514086142300
 40
2.000000000000000
 50
180.000000000000000
 51
239.999999999997070
  0
ARC
  8
0
  6
CONTINUOUS
 62
3
 10
44.167099640968274
 20
216.396412471004170
 40
2.000000000000000
 50
0.000000000000000
 51
60.000000000002721
  0
LINE
  8
0
  6
CONTINUOUS
 62
3
 10
23.667099640965318
 20
141.128463278574600
 11
23.667099640965546
 21
145.128463278574600
  0
LINE
  8
0
  6
CONTINUOUS
 62
3
 10
35.167099640970548
 20
161.628463278574150
 11
30.667099640969639
 21
161.628463278574150
  0
LINE
  8
0
  6
CONTINUOUS
 62
3
 10
35.167099640969411
 20
141.128463278574600
 11
35.167099640970548
 21
161.628463278574150
  0
LINE
  8
0
  6
CONTINUOUS
 62
3
 10
30.667099640968502
 20
141.128463278574150
 11
30.667099640969639
 21
161.628463278574150
  0
ARC
  8
0
  6
CONTINUOUS
 62
3
 10
43.167099640964864
 20
164.628463278573690
 40
3.000000000000000
 50
270.000000000000000
 51
359.999999999991300
  0
LINE
  8
0
  6
CONTINUOUS
 62
3
 10
43.167099640964636
 20
161.628463278573690
 11
38.167099640970548
 21
161.628463278573690
  0
ARC
  8
0
  6
CONTINUOUS
 62
3
 10
38.167099640970548
 20
158.628463278573690
 40
3.000000000000000
 50
90.000000000000000
 51
179.999999999991330
  0
ARC
  8
0
  6
CONTINUOUS
 62
3
 10
48.167099640969411
 20
233.128463278573240
 40
2.000000000000000
 50
90.000000000000000
 51
180.000000000000000
  0
LINE
  8
0
  6
CONTINUOUS
 62
3
 10
58.167099640963499
 20
141.128463278573690
 11
58.167099640969411
 21
235.128463278572330
  0
LINE
  8
0
  6
CONTINUOUS
 62
3
 10
23.667099640965318
 20
124.128463278574600
 11
23.667099640965318
 21
81.628463278574600
  0
LINE
  8
0
  6
CONTINUOUS
 62
3
 10
23.667099640965318
 20
81.628463278574600
 11
43.324107509692624
 21
80.598283148825431
  0
ARC
  8
0
  6
CONTINUOUS
 62
3
 10
43.167099640963499
 20
77.602394544561776
 40
3.000000000000000
 50
0.000000000000000
 51
86.999999999994344
  0
LINE
  8
0
  6
CONTINUOUS
 62
3
 10
46.167099640963499
 20
117.628463278574600
 11
46.167099640963499
 21
49.128463278574600
  0
LINE
  8
0
  6
CONTINUOUS
 62
3
 10
44.167099640963499
 20
62.396412471005533
 11
44.167099640963499
 21
49.128463278574600
  0
LINE
  8
0
  6
CONTINUOUS
 62
3
 10
38.667100594637816
 20
63.628463278574600
 11
38.667100594637816
 21
50.628463278574600
  0
LINE
  8
0
  6
CONTINUOUS
 62
3
 10
38.667101859122852
 20
50.628463301275588
 11
38.167100908929626
 21
51.494392872344179
  0
LINE
  8
0
  6
CONTINUOUS
 62
3
 10
38.667101232495554
 20
63.628463302642558
 11
38.167101206348491
 21
62.762339162508852
  0
LINE
  8
0
  6
CONTINUOUS
 62
3
 10
44.167099640963499
 20
50.628463278574600
 11
38.667101548312132
 21
50.628463278574600
  0
LINE
  8
0
  6
CONTINUOUS
 62
3
 10
44.591647068662951
 20
63.628463278574600
 11
38.667100594637816
 21
63.628463278574600
  0
LINE
  8
0
  6
CONTINUOUS
 62
3
 10
38.167100594637816
 20
62.762339125437393
 11
38.167100594637816
 21
51.494392882151260
  0
ARC
  8
0
  6
CONTINUOUS
 62
3
 10
46.167099640963499
 20
49.128463278574600
 40
2.000000000000000
 50
180.000000000000000
 51
270.000000000000000
  0
LINE
  8
0
  6
CONTINUOUS
 62
3
 10
58.667099640963499
 20
47.128463278574600
 11
46.167099640963499
 21
47.128463278574600
  0
ARC
  8
0
  6
CONTINUOUS
 62
3
 10
46.167099640963499
 20
62.396412471005533
 40
2.000000000000164
 50
119.999999999997270
 51
180.000000000000000
  0
ARC
  8
0
  6
CONTINUOUS
 62
3
 10
44.167099640963499
 20
65.860514086143667
 40
2.000000000000164
 50
299.999999999997270
 51
0.000000000000000
  0
LINE
  8
0
  6
CONTINUOUS
 62
3
 10
23.667099640965318
 20
141.128463278574600
 11
23.667099640965318
 21
137.128463278574600
  0
LINE
  8
0
  6
CONTINUOUS
 62
3
 10
35.167099640969411
 20
120.628463278574600
 11
30.667099640968502
 21
120.628463278574600
  0
LINE
  8
0
  6
CONTINUOUS
 62
3
 10
35.167099640969411
 20
141.128463278574150
 11
35.167099640969411
 21
120.628463278574600
  0
LINE
  8
0
  6
CONTINUOUS
 62
3
 10
30.667099640968502
 20
141.128463278574600
 11
30.667099640968502
 21
120.628463278574600
  0
ARC
  8
0
  6
CONTINUOUS
 62
3
 10
43.167099640963499
 20
117.628463278574600
 40
3.000000000000000
 50
0.000000000000000
 51
90.000000000000000
  0
LINE
  8
0
  6
CONTINUOUS
 62
3
 10
43.167099640963499
 20
120.628463278574600
 11
38.167099640969411
 21
120.628463278574600
  0
ARC
  8
0
  6
CONTINUOUS
 62
3
 10
38.167099640969411
 20
123.628463278574600
 40
3.000000000000000
 50
180.000000000000000
 51
270.000000000000000
  0
ARC
  8
0
  6
CONTINUOUS
 62
3
 10
48.167099640963499
 20
49.128463278574600
 40
2.000000000000000
 50
180.000000000000000
 51
270.000000000000000
  0
LINE
  8
0
  6
CONTINUOUS
 62
3
 10
58.167099640963499
 20
141.128463278573240
 11
58.167099640963499
 21
47.128463278574600
  0
ARC
  8
0
  6
CONTINUOUS
 62
3
 10
139.667099640963500
 20
240.958874240300250
 40
2.999999999999993
 50
271.999999999999320
 51
0.000000000000000
  0
LINE
  8
0
  6
CONTINUOUS
 62
3
 10
58.667099640963499
 20
235.128463278572780
 11
139.771798131070970
 21
237.960701759242970
  0
ARC
  8
0
  6
CONTINUOUS
 62
3
 10
139.667099640963500
 20
41.298052316847134
 40
3.000000000000000
 50
0.000000000000000
 51
88.000000000000682
  0
LINE
  8
0
  6
CONTINUOUS
 62
3
 10
58.667099640963499
 20
47.128463278574600
 11
139.771798131070970
 21
44.296224797904415
  0
LINE
  8
0
  6
CONTINUOUS
 62
3
 10
58.667099640963499
 20
47.128463278574600
 11
58.667099640963499
 21
235.128463278573240
  0
POLYLINE
  8
0
  6
CONTINUOUS
 62
3
 66
1
 70
1
  0
VERTEX
  8
0
  6
CONTINUOUS
 62
3
 10
-131.632900359034240
 20
89.204938246513848
  0
VERTEX
  8
0
  6
CONTINUOUS
 62
3
 10
-131.723209541139060
 20
89.907895212714209
  0
VERTEX
  8
0
  6
CONTINUOUS
 62
3
 10
-131.990666556231190
 20
90.583837936926301
  0
VERTEX
  8
0
  6
CONTINUOUS
 62
3
 10
-132.424993181212270
 20
91.206790319331702
  0
VERTEX
  8
0
  6
CONTINUOUS
 62
3
 10
-133.009498487457450
 20
91.752812649230279
  0
VERTEX
  8
0
  6
CONTINUOUS
 62
3
 10
-133.721720263842120
 20
92.200921594696894
  0
VERTEX
  8
0
  6
CONTINUOUS
 62
3
 10
-134.534288226918310
 20
92.533896580259665
  0
VERTEX
  8
0
  6
CONTINUOUS
 62
3
 10
-135.415975845558420
 20
92.738941563957908
  0
VERTEX
  8
0
  6
CONTINUOUS
 62
3
 10
-136.332900359034230
 20
92.808176782058680
  0
VERTEX
  8
0
  6
CONTINUOUS
 62
3
 10
-137.249824872510030
 20
92.738941563957908
  0
VERTEX
  8
0
  6
CONTINUOUS
 62
3
 10
-138.131512491150150
 20
92.533896580259665
  0
VERTEX
  8
0
  6
CONTINUOUS
 62
3
 10
-138.944080454226340
 20
92.200921594696894
  0
VERTEX
  8
0
  6
CONTINUOUS
 62
3
 10
-139.656302230611000
 20
91.752812649230279
  0
VERTEX
  8
0
  6
CONTINUOUS
 62
3
 10
-140.240807536856180
 20
91.206790319331702
  0
VERTEX
  8
0
  6
CONTINUOUS
 62
3
 10
-140.675134161837260
 20
90.583837936926301
  0
VERTEX
  8
0
  6
CONTINUOUS
 62
3
 10
-140.942591176929400
 20
89.907895212714209
  0
VERTEX
  8
0
  6
CONTINUOUS
 62
3
 10
-141.032900359034220
 20
89.204938246513848
  0
VERTEX
  8
0
  6
CONTINUOUS
 62
3
 10
-140.942591176929400
 20
88.501981280313487
  0
VERTEX
  8
0
  6
CONTINUOUS
 62
3
 10
-140.675134161837260
 20
87.826038556101395
  0
VERTEX
  8
0
  6
CONTINUOUS
 62
3
 10
-140.240807536856180
 20
87.203086173695993
  0
VERTEX
  8
0
  6
CONTINUOUS
 62
3
 10
-139.656302230610980
 20
86.657063843797417
  0
VERTEX
  8
0
  6
CONTINUOUS
 62
3
 10
-138.944080454226340
 20
86.208954898330802
  0
VERTEX
  8
0
  6
CONTINUOUS
 62
3
 10
-138.131512491150150
 20
85.875979912768031
  0
VERTEX
  8
0
  6
CONTINUOUS
 62
3
 10
-137.249824872510030
 20
85.670934929069787
  0
VERTEX
  8
0
  6
CONTINUOUS
 62
3
 10
-136.332900359034230
 20
85.601699710969015
  0
VERTEX
  8
0
  6
CONTINUOUS
 62
3
 10
-135.415975845558420
 20
85.670934929069787
  0
VERTEX
  8
0
  6
CONTINUOUS
 62
3
 10
-134.534288226918310
 20
85.875979912768031
  0
VERTEX
  8
0
  6
CONTINUOUS
 62
3
 10
-133.721720263842120
 20
86.208954898330802
  0
VERTEX
  8
0
  6
CONTINUOUS
 62
3
 10
-133.009498487457480
 20
86.657063843797417
  0
VERTEX
  8
0
  6
CONTINUOUS
 62
3
 10
-132.424993181212270
 20
87.203086173695993
  0
VERTEX
  8
0
  6
CONTINUOUS
 62
3
 10
-131.990666556231190
 20
87.826038556101395
  0
VERTEX
  8
0
  6
CONTINUOUS
 62
3
 10
-131.723209541139060
 20
88.501981280313487
  0
SEQEND
  8
0
  6
CONTINUOUS
 62
3
  0
LINE
  8
0
  6
CONTINUOUS
 62
3
 10
-138.332900359034230
 20
86.212562692513529
 11
-136.332900359034230
 21
87.388348178135857
  0
LINE
  8
0
  6
CONTINUOUS
 62
3
 10
-136.332900359034230
 20
87.388348178135857
 11
-134.332900359034230
 21
89.040989817259288
  0
LINE
  8
0
  6
CONTINUOUS
 62
3
 10
-134.332900359034230
 20
86.212562692513529
 11
-136.332900359034230
 21
87.388348178135857
  0
LINE
  8
0
  6
CONTINUOUS
 62
3
 10
-136.332900359034230
 20
87.388348178135857
 11
-138.332900359034230
 21
89.040989817259288
  0
POLYLINE
  8
0
  6
CONTINUOUS
 62
3
 66
1
 70
1
  0
VERTEX
  8
0
  6
CONTINUOUS
 62
3
 10
-131.632900359034240
 20
193.051988310633760
  0
VERTEX
  8
0
  6
CONTINUOUS
 62
3
 10
-131.723209541139060
 20
193.754945276834120
  0
VERTEX
  8
0
  6
CONTINUOUS
 62
3
 10
-131.990666556231190
 20
194.430888001046210
  0
VERTEX
  8
0
  6
CONTINUOUS
 62
3
 10
-132.424993181212270
 20
195.053840383451610
  0
VERTEX
  8
0
  6
CONTINUOUS
 62
3
 10
-133.009498487457450
 20
195.599862713350210
  0
VERTEX
  8
0
  6
CONTINUOUS
 62
3
 10
-133.721720263842120
 20
196.047971658816830
  0
VERTEX
  8
0
  6
CONTINUOUS
 62
3
 10
-134.534288226918310
 20
196.380946644379580
  0
VERTEX
  8
0
  6
CONTINUOUS
 62
3
 10
-135.415975845558420
 20
196.585991628077840
  0
VERTEX
  8
0
  6
CONTINUOUS
 62
3
 10
-136.332900359034230
 20
196.655226846178610
  0
VERTEX
  8
0
  6
CONTINUOUS
 62
3
 10
-137.249824872510030
 20
196.585991628077840
  0
VERTEX
  8
0
  6
CONTINUOUS
 62
3
 10
-138.131512491150150
 20
196.380946644379580
  0
VERTEX
  8
0
  6
CONTINUOUS
 62
3
 10
-138.944080454226340
 20
196.047971658816830
  0
VERTEX
  8
0
  6
CONTINUOUS
 62
3
 10
-139.656302230611000
 20
195.599862713350210
  0
VERTEX
  8
0
  6
CONTINUOUS
 62
3
 10
-140.240807536856180
 20
195.053840383451610
  0
VERTEX
  8
0
  6
CONTINUOUS
 62
3
 10
-140.675134161837260
 20
194.430888001046210
  0
VERTEX
  8
0
  6
CONTINUOUS
 62
3
 10
-140.942591176929400
 20
193.754945276834120
  0
VERTEX
  8
0
  6
CONTINUOUS
 62
3
 10
-141.032900359034220
 20
193.051988310633760
  0
VERTEX
  8
0
  6
CONTINUOUS
 62
3
 10
-140.942591176929400
 20
192.349031344433400
  0
VERTEX
  8
0
  6
CONTINUOUS
 62
3
 10
-140.675134161837260
 20
191.673088620221310
  0
VERTEX
  8
0
  6
CONTINUOUS
 62
3
 10
-140.240807536856180
 20
191.050136237815910
  0
VERTEX
  8
0
  6
CONTINUOUS
 62
3
 10
-139.656302230610980
 20
190.504113907917310
  0
VERTEX
  8
0
  6
CONTINUOUS
 62
3
 10
-138.944080454226340
 20
190.056004962450690
  0
VERTEX
  8
0
  6
CONTINUOUS
 62
3
 10
-138.131512491150150
 20
189.723029976887940
  0
VERTEX
  8
0
  6
CONTINUOUS
 62
3
 10
-137.249824872510030
 20
189.517984993189690
  0
VERTEX
  8
0
  6
CONTINUOUS
 62
3
 10
-136.332900359034230
 20
189.448749775088910
  0
VERTEX
  8
0
  6
CONTINUOUS
 62
3
 10
-135.415975845558420
 20
189.517984993189690
  0
VERTEX
  8
0
  6
CONTINUOUS
 62
3
 10
-134.534288226918310
 20
189.723029976887940
  0
VERTEX
  8
0
  6
CONTINUOUS
 62
3
 10
-133.721720263842120
 20
190.056004962450690
  0
VERTEX
  8
0
  6
CONTINUOUS
 62
3
 10
-133.009498487457480
 20
190.504113907917310
  0
VERTEX
  8
0
  6
CONTINUOUS
 62
3
 10
-132.424993181212270
 20
191.050136237815910
  0
VERTEX
  8
0
  6
CONTINUOUS
 62
3
 10
-131.990666556231190
 20
191.673088620221310
  0
VERTEX
  8
0
  6
CONTINUOUS
 62
3
 10
-131.723209541139060
 20
192.349031344433400
  0
SEQEND
  8
0
  6
CONTINUOUS
 62
3
  0
LINE
  8
0
  6
CONTINUOUS
 62
3
 10
-138.332900359034230
 20
196.044363864634080
 11
-136.332900359034230
 21
194.868578379011300
  0
LINE
  8
0
  6
CONTINUOUS
 62
3
 10
-136.332900359034230
 20
194.868578379011300
 11
-134.332900359034230
 21
193.215936739887870
  0
LINE
  8
0
  6
CONTINUOUS
 62
3
 10
-134.332900359034230
 20
196.044363864634080
 11
-136.332900359034230
 21
194.868578379011300
  0
LINE
  8
0
  6
CONTINUOUS
 62
3
 10
-136.332900359034230
 20
194.868578379011300
 11
-138.332900359034230
 21
193.215936739887870
  0
LINE
  8
0
  6
CONTINUOUS
 62
3
 10
-125.332900359034900
 20
141.128463278573690
 11
-125.332900359034900
 21
206.128463278573690
  0
LINE
  8
0
  6
CONTINUOUS
 62
3
 10
-125.332900359034900
 20
206.128463278573690
 11
-154.026924581455150
 21
206.128463278573690
  0
LINE
  8
0
  6
CONTINUOUS
 62
3
 10
-176.332900358984660
 20
141.128463278573690
 11
-176.332900358984660
 21
193.571668335819140
  0
ARC
  8
0
  6
CONTINUOUS
 62
3
 10
-154.026924581455150
 20
186.128463278573690
 40
20.000000000000000
 50
90.000000000000000
 51
125.000000000000240
  0
LINE
  8
0
  6
CONTINUOUS
 62
3
 10
-165.498453308476140
 20
202.511504164353480
 11
-175.224199093497130
 21
195.701463650970250
  0
ARC
  8
0
  6
CONTINUOUS
 62
3
 10
-173.732900358984520
 20
193.571668335819140
 40
2.599999999999721
 50
125.000000000001370
 51
180.000000000000000
  0
LINE
  8
0
  6
CONTINUOUS
 62
3
 10
-125.332900359034900
 20
141.128463278573690
 11
-125.332900359034900
 21
82.509242361700899
  0
LINE
  8
0
  6
CONTINUOUS
 62
3
 10
-176.332900358984660
 20
141.128463278573690
 11
-176.332900358984660
 21
88.685258221328240
  0
LINE
  8
0
  6
CONTINUOUS
 62
3
 10
-165.498453308476140
 20
79.745422392793898
 11
-175.224199093497130
 21
86.555462906177127
  0
ARC
  8
0
  6
CONTINUOUS
 62
3
 10
-173.732900358984520
 20
88.685258221328240
 40
2.600000000000136
 50
180.000000000000000
 51
234.999999999998610
  0
LINE
  8
0
  6
CONTINUOUS
 62
3
 10
-135.332900359034680
 20
76.128463278573690
 11
-154.026924581455150
 21
76.128463278573690
  0
ARC
  8
0
  6
CONTINUOUS
 62
3
 10
-154.026924581455150
 20
96.128463278573690
 40
20.000000000000007
 50
234.999999999999740
 51
270.000000000000000
  0
LINE
  8
0
  6
CONTINUOUS
 62
3
 10
-133.332900359034680
 20
77.628463278573918
 11
-133.332900359034680
 21
79.337669486447112
  0
LINE
  8
0
  6
CONTINUOUS
 62
3
 10
-58.332900359034909
 20
82.628463278573918
 11
-125.332900359034900
 21
82.628463278573918
  0
LINE
  8
0
  6
CONTINUOUS
 62
3
 10
-58.332900359034909
 20
77.628463278573918
 11
-133.332900359034680
 21
77.628463278573918
  0
LINE
  8
0
  6
CONTINUOUS
 62
3
 10
-132.332900359034680
 20
49.128463278574145
 11
-132.332900359034680
 21
77.628463278573918
  0
LINE
  8
0
  6
CONTINUOUS
 62
3
 10
-59.332900359034909
 20
49.128463278574145
 11
-59.332900359034909
 21
77.628463278573918
  0
ARC
  8
0
  6
CONTINUOUS
 62
3
 10
-60.332900359034909
 20
49.128463278574145
 40
1.000000000000000
 50
270.000000000000000
 51
0.000000000000000
  0
ARC
  8
0
  6
CONTINUOUS
 62
3
 10
-131.332900359034680
 20
49.128463278574145
 40
1.000000000000000
 50
180.000000000000000
 51
270.000000000000000
  0
LINE
  8
0
  6
CONTINUOUS
 62
3
 10
-60.332900359034909
 20
48.128463278574145
 11
-131.332900359034680
 21
48.128463278574145
  0
LINE
  8
0
  6
CONTINUOUS
 62
3
 10
-66.332900359034909
 20
48.128463278574145
 11
-66.332900359034909
 21
47.628463278574145
  0
LINE
  8
0
  6
CONTINUOUS
 62
3
 10
-68.832900359034909
 20
48.128463278574145
 11
-68.832900359034909
 21
47.628463278574145
  0
LINE
  8
0
  6
CONTINUOUS
 62
3
 10
-74.332900359034909
 20
48.128463278574145
 11
-74.332900359034909
 21
47.628463278574145
  0
LINE
  8
0
  6
CONTINUOUS
 62
3
 10
-66.332900359034909
 20
47.628463278574145
 11
-74.332900359034909
 21
47.628463278574145
  0
LINE
  8
0
  6
CONTINUOUS
 62
3
 10
-58.332900359034909
 20
77.628463278573918
 11
-58.332900359034909
 21
82.628463278573918
  0
LINE
  8
0
  6
CONTINUOUS
 62
3
 10
-132.332900359034680
 20
79.509242361700899
 11
-128.332900359034910
 21
79.509242361700899
  0
LINE
  8
0
  6
CONTINUOUS
 62
3
 10
-135.332900359034680
 20
76.128463278573690
 11
-135.332900359034680
 21
76.509242361700899
  0
ARC
  8
0
  6
CONTINUOUS
 62
3
 10
-128.332900359034910
 20
82.509242361700899
 40
3.000000000000000
 50
270.000000000000000
 51
0.000000000000000
  0
ARC
  8
0
  6
CONTINUOUS
 62
3
 10
-132.332900359034680
 20
76.509242361700899
 40
3.000000000000000
 50
90.000000000000000
 51
180.000000000000000
  0
LINE
  8
0
  6
CONTINUOUS
 62
3
 10
-125.332900359034900
 20
200.628463278573460
 11
23.667099640965091
 21
200.628463278573460
  0
LINE
  8
0
  6
CONTINUOUS
 62
3
 10
-58.332900359034909
 20
81.628463278573690
 11
23.667099640965091
 21
81.628463278573690
  0
LINE
  8
0
  6
CONTINUOUS
 62
4
 10
-125.332900359034900
 20
84.128463278573690
 11
23.667099640965091
 21
84.128463278573690
  0
LINE
  8
0
  6
CONTINUOUS
 62
4
 10
-125.332900359034900
 20
85.128463278573690
 11
23.667099640965091
 21
85.128463278573690
  0
LINE
  8
0
  6
CONTINUOUS
 62
4
 10
-125.332900359034900
 20
86.128463278573690
 11
23.667099640965091
 21
86.128463278573690
  0
LINE
  8
0
  6
CONTINUOUS
 62
4
 10
-125.332900359034900
 20
90.812929091797969
 11
23.667099640965091
 21
90.812929091797969
  0
LINE
  8
0
  6
CONTINUOUS
 62
4
 10
-125.332900359034900
 20
95.762676560103728
 11
23.667099640965091
 21
95.762676560103728
  0
LINE
  8
0
  6
CONTINUOUS
 62
4
 10
-125.332900359034900
 20
103.809278222837740
 11
23.667099640965091
 21
103.809278222837740
  0
LINE
  8
0
  6
CONTINUOUS
 62
4
 10
-125.332900359034900
 20
105.413926138399800
 11
23.667099640965091
 21
105.413926138399800
  0
LINE
  8
0
  6
CONTINUOUS
 62
4
 10
-125.332900359034900
 20
109.377671562199330
 11
23.667099640965091
 21
109.377671562199330
  0
LINE
  8
0
  6
CONTINUOUS
 62
4
 10
-125.332900359034900
 20
110.846028952003960
 11
23.667099640965091
 21
110.846028952003960
  0
LINE
  8
0
  6
CONTINUOUS
 62
4
 10
-125.332900359034900
 20
114.936529486093830
 11
23.667099640965091
 21
114.936529486093830
  0
LINE
  8
0
  6
CONTINUOUS
 62
4
 10
-125.332900359034900
 20
116.298409821443100
 11
23.667099640965091
 21
116.298409821443100
  0
LINE
  8
0
  6
CONTINUOUS
 62
4
 10
-125.332900359034900
 20
120.488963552985290
 11
23.667099640965091
 21
120.488963552985290
  0
LINE
  8
0
  6
CONTINUOUS
 62
4
 10
-125.332900359034900
 20
121.755201469072510
 11
23.667099640965091
 21
121.755201469072510
  0
LINE
  8
0
  6
CONTINUOUS
 62
4
 10
-125.332900359034900
 20
178.447648334309630
 11
23.667099640965091
 21
178.447648334309630
  0
LINE
  8
0
  6
CONTINUOUS
 62
4
 10
-125.332900359034900
 20
176.843000418747580
 11
23.667099640965091
 21
176.843000418747580
  0
LINE
  8
0
  6
CONTINUOUS
 62
4
 10
-125.332900359034900
 20
172.879254994948040
 11
23.667099640965091
 21
172.879254994948040
  0
LINE
  8
0
  6
CONTINUOUS
 62
4
 10
-125.332900359034900
 20
171.410897605143420
 11
23.667099640965091
 21
171.410897605143420
  0
LINE
  8
0
  6
CONTINUOUS
 62
4
 10
-125.332900359034900
 20
167.320397071053550
 11
23.667099640965091
 21
167.320397071053550
  0
LINE
  8
0
  6
CONTINUOUS
 62
4
 10
-125.332900359034900
 20
165.958516735704280
 11
23.667099640965091
 21
165.958516735704280
  0
LINE
  8
0
  6
CONTINUOUS
 62
4
 10
-125.332900359034900
 20
161.767963004162080
 11
23.667099640965091
 21
161.767963004162080
  0
LINE
  8
0
  6
CONTINUOUS
 62
4
 10
-125.332900359034900
 20
160.501725088074860
 11
23.667099640965091
 21
160.501725088074860
  0
LINE
  8
0
  6
CONTINUOUS
 62
4
 10
-125.332900359034900
 20
186.494249997043650
 11
23.667099640965091
 21
186.494249997043650
  0
LINE
  8
0
  6
CONTINUOUS
 62
4
 10
-125.332900359034900
 20
191.443997465349410
 11
23.667099640965091
 21
191.443997465349410
  0
LINE
  8
0
  6
CONTINUOUS
 62
4
 10
-125.332900359034900
 20
196.128463278573690
 11
23.667099640965091
 21
196.128463278573690
  0
LINE
  8
0
  6
CONTINUOUS
 62
4
 10
-125.332900359034900
 20
197.128463278573690
 11
23.667099640965091
 21
197.128463278573690
  0
LINE
  8
0
  6
CONTINUOUS
 62
4
 10
-125.332900359034900
 20
198.128463278573690
 11
23.667099640965091
 21
198.128463278573690
  0
LINE
  8
0
  6
CONTINUOUS
 62
3
 10
-58.332900359034909
 20
200.628463278573690
 11
23.667099640965091
 21
200.628463278573690
  0
LINE
  8
0
  6
CONTINUOUS
 62
3
 10
-0.832900359034909
 20
200.628463278573460
 11
-124.832900359034900
 21
200.628463278573460
  0
LINE
  8
0
  6
DASHDOT
 62
3
 10
-0.832900359034909
 20
200.628463278573460
 11
-0.832900359034909
 21
205.628463278573460
  0
LINE
  8
0
  6
CONTINUOUS
 62
3
 10
-124.832900359034900
 20
200.628463278573460
 11
-124.832900359034900
 21
205.628463278573460
  0
ARC
  8
0
  6
CONTINUOUS
 62
3
 10
0.167099640965091
 20
224.131332899154360
 40
2.000000000000000
 50
270.000000000000000
 51
0.000000000000000
  0
ARC
  8
0
  6
CONTINUOUS
 62
3
 10
0.167099640965091
 20
224.930334770273250
 40
2.000000000000000
 50
270.000000000000000
 51
0.000000000000000
  0
ARC
  8
0
  6
CONTINUOUS
 62
3
 10
0.167099640965091
 20
225.729336641358490
 40
2.000000000000000
 50
270.000000000000000
 51
0.000000000000000
  0
ARC
  8
0
  6
CONTINUOUS
 62
3
 10
0.167099640965091
 20
226.822973569635680
 40
2.000000000000000
 50
0.000000000000000
 51
90.000000000000000
  0
LINE
  8
0
  6
CONTINUOUS
 62
3
 10
-0.832900359034909
 20
228.822973569635680
 11
0.167099640965091
 21
228.822973569635680
  0
LINE
  8
0
  6
CONTINUOUS
 62
3
 10
0.167099640965091
 20
222.131332899154360
 11
-125.832900359034900
 21
222.131332899154360
  0
LINE
  8
0
  6
CONTINUOUS
 62
3
 10
0.167099640965091
 20
222.930334770256420
 11
-125.832900359034900
 21
222.930334770256420
  0
LINE
  8
0
  6
CONTINUOUS
 62
3
 10
2.167099640965091
 20
226.822973569635680
 11
2.167099640965091
 21
224.131332899154360
  0
LINE
  8
0
  6
CONTINUOUS
 62
3
 10
-0.832900359034909
 20
210.628463278573460
 11
-0.832900359034909
 21
221.930334770273250
  0
LINE
  8
0
  6
CONTINUOUS
 62
3
 10
-119.832900359034900
 20
247.228463278573370
 11
-5.832900359034909
 21
247.228463278573370
  0
ARC
  8
0
  6
CONTINUOUS
 62
3
 10
-5.832900359034909
 20
242.228463278573370
 40
5.000000000000000
 50
0.000000000000000
 51
90.000000000000000
  0
LINE
  8
0
  6
CONTINUOUS
 62
3
 10
-124.832900359034900
 20
210.628463278573460
 11
-124.832900359034900
 21
222.131332899154360
  0
ARC
  8
0
  6
CONTINUOUS
 62
3
 10
-125.832900359034900
 20
224.131332899154360
 40
2.000000000000000
 50
180.000000000000000
 51
270.000000000000000
  0
LINE
  8
0
  6
CONTINUOUS
 62
3
 10
-127.832900359034900
 20
226.822973569635680
 11
-127.832900359034900
 21
224.131332899154360
  0
ARC
  8
0
  6
CONTINUOUS
 62
3
 10
-125.832900359034900
 20
224.930334770273250
 40
2.000000000000000
 50
180.000000000000000
 51
270.000000000000000
  0
ARC
  8
0
  6
CONTINUOUS
 62
3
 10
-125.832900359034900
 20
225.729336641358490
 40
2.000000000000000
 50
180.000000000000000
 51
270.000000000000000
  0
ARC
  8
0
  6
CONTINUOUS
 62
3
 10
-125.832900359034900
 20
226.822973569635680
 40
2.000000000000000
 50
90.000000000000000
 51
180.000000000000000
  0
ARC
  8
0
  6
CONTINUOUS
 62
3
 10
-119.832900359034900
 20
242.228463278573370
 40
5.000000000000000
 50
90.000000000000000
 51
180.000000000000000
  0
ARC
  8
0
  6
CONTINUOUS
 62
3
 10
-119.832900359034900
 20
210.628463278573460
 40
5.000000000000000
 50
180.000000000000000
 51
270.000000000000000
  0
LINE
  8
0
  6
CONTINUOUS
 62
3
 10
0.167099640965091
 20
223.729336641358490
 11
-125.832900359034900
 21
223.729336641358490
  0
LINE
  8
0
  6
CONTINUOUS
 62
3
 10
-124.832900359034900
 20
228.822973569635680
 11
-125.832900359034900
 21
228.822973569635680
  0
LINE
  8
0
  6
CONTINUOUS
 62
3
 10
-124.832900359034900
 20
229.289488338260300
 11
-124.832900359034900
 21
242.228463278573370
  0
ARC
  8
0
  6
CONTINUOUS
 62
3
 10
-5.832900359034909
 20
210.628463278573460
 40
5.000000000000000
 50
270.000000000000000
 51
0.000000000000000
  0
LINE
  8
0
  6
CONTINUOUS
 62
3
 10
-0.832900359034909
 20
229.289488338260300
 11
-0.832900359034909
 21
242.228463278573370
  0
POLYLINE
  8
0
  6
CONTINUOUS
 62
3
 66
1
  0
VERTEX
  8
0
  6
CONTINUOUS
 62
3
 10
-121.332900359034900
 20
223.979024726078250
  0
VERTEX
  8
0
  6
CONTINUOUS
 62
3
 10
-121.265648840446210
 20
223.944926515882260
  0
VERTEX
  8
0
  6
CONTINUOUS
 62
3
 10
-121.066478722824410
 20
223.912138680781620
  0
VERTEX
  8
0
  6
CONTINUOUS
 62
3
 10
-120.743044002093810
 20
223.881921238891610
  0
VERTEX
  8
0
  6
CONTINUOUS
 62
3
 10
-120.307774093187830
 20
223.855435429557900
  0
VERTEX
  8
0
  6
CONTINUOUS
 62
3
 10
-119.777396174603520
 20
223.833699087579820
  0
VERTEX
  8
0
  6
CONTINUOUS
 62
3
 10
-119.172292372312720
 20
223.817547528389640
  0
VERTEX
  8
0
  6
CONTINUOUS
 62
3
 10
-118.515716486091360
 20
223.807601447349190
  0
VERTEX
  8
0
  6
CONTINUOUS
 62
3
 10
-117.832900359034900
 20
223.804243066775030
  0
VERTEX
  8
0
  6
CONTINUOUS
 62
3
 10
-117.150084231978460
 20
223.807601447349190
  0
VERTEX
  8
0
  6
CONTINUOUS
 62
3
 10
-116.493508345757090
 20
223.817547528389640
  0
VERTEX
  8
0
  6
CONTINUOUS
 62
3
 10
-115.888404543466300
 20
223.833699087579820
  0
VERTEX
  8
0
  6
CONTINUOUS
 62
3
 10
-115.358026624882000
 20
223.855435429557900
  0
VERTEX
  8
0
  6
CONTINUOUS
 62
3
 10
-114.922756715976000
 20
223.881921238891610
  0
VERTEX
  8
0
  6
CONTINUOUS
 62
3
 10
-114.599321995245400
 20
223.912138680781620
  0
VERTEX
  8
0
  6
CONTINUOUS
 62
3
 10
-114.400151877623600
 20
223.944926515882260
  0
VERTEX
  8
0
  6
CONTINUOUS
 62
3
 10
-114.332900359034900
 20
223.979024726078250
  0
SEQEND
  8
0
  6
CONTINUOUS
 62
3
  0
ARC
  8
0
  6
CONTINUOUS
 62
3
 10
-115.632900359035090
 20
224.966034464002630
 40
1.300000000000182
 50
0.000000000000000
 51
73.398450400977637
  0
ARC
  8
0
  6
CONTINUOUS
 62
3
 10
-117.832900359034900
 20
217.587010138253160
 40
9.000000000000123
 50
73.398450400980877
 51
106.601549599019120
  0
ARC
  8
0
  6
CONTINUOUS
 62
3
 10
-120.032900359034720
 20
224.966034464002630
 40
1.300000000000019
 50
106.601549599022360
 51
180.000000000000000
  0
LINE
  8
0
  6
CONTINUOUS
 62
3
 10
-114.332900359034900
 20
224.966034464002630
 11
-114.332900359034900
 21
223.979024726078250
  0
LINE
  8
0
  6
CONTINUOUS
 62
3
 10
-121.332900359034900
 20
224.966034464002630
 11
-121.332900359034900
 21
223.979024726078250
  0
ARC
  8
0
  6
CONTINUOUS
 62
3
 10
-119.832900359034900
 20
229.289488338260300
 40
5.000000000000000
 50
180.000000000000000
 51
252.542396876278160
  0
LINE
  8
0
  6
CONTINUOUS
 62
3
 10
-11.332900359034909
 20
224.966034464002630
 11
-11.332900359034909
 21
223.979024726078250
  0
POLYLINE
  8
0
  6
CONTINUOUS
 62
3
 66
1
  0
VERTEX
  8
0
  6
CONTINUOUS
 62
3
 10
-11.332900359034909
 20
223.979024726078250
  0
VERTEX
  8
0
  6
CONTINUOUS
 62
3
 10
-11.265648840446215
 20
223.944926515882260
  0
VERTEX
  8
0
  6
CONTINUOUS
 62
3
 10
-11.066478722824412
 20
223.912138680781620
  0
VERTEX
  8
0
  6
CONTINUOUS
 62
3
 10
-10.743044002093818
 20
223.881921238891610
  0
VERTEX
  8
0
  6
CONTINUOUS
 62
3
 10
-10.307774093187826
 20
223.855435429557900
  0
VERTEX
  8
0
  6
CONTINUOUS
 62
3
 10
-9.777396174603517
 20
223.833699087579820
  0
VERTEX
  8
0
  6
CONTINUOUS
 62
3
 10
-9.172292372312723
 20
223.817547528389640
  0
VERTEX
  8
0
  6
CONTINUOUS
 62
3
 10
-8.515716486091359
 20
223.807601447349190
  0
VERTEX
  8
0
  6
CONTINUOUS
 62
3
 10
-7.832900359034910
 20
223.804243066775030
  0
VERTEX
  8
0
  6
CONTINUOUS
 62
3
 10
-7.150084231978461
 20
223.807601447349190
  0
VERTEX
  8
0
  6
CONTINUOUS
 62
3
 10
-6.493508345757096
 20
223.817547528389640
  0
VERTEX
  8
0
  6
CONTINUOUS
 62
3
 10
-5.888404543466303
 20
223.833699087579820
  0
VERTEX
  8
0
  6
CONTINUOUS
 62
3
 10
-5.358026624881994
 20
223.855435429557900
  0
VERTEX
  8
0
  6
CONTINUOUS
 62
3
 10
-4.922756715976003
 20
223.881921238891610
  0
VERTEX
  8
0
  6
CONTINUOUS
 62
3
 10
-4.599321995245408
 20
223.912138680781620
  0
VERTEX
  8
0
  6
CONTINUOUS
 62
3
 10
-4.400151877623605
 20
223.944926515882260
  0
VERTEX
  8
0
  6
CONTINUOUS
 62
3
 10
-4.332900359034911
 20
223.979024726078250
  0
SEQEND
  8
0
  6
CONTINUOUS
 62
3
  0
LINE
  8
0
  6
CONTINUOUS
 62
3
 10
-4.332900359034909
 20
224.966034464002630
 11
-4.332900359034909
 21
223.979024726078250
  0
ARC
  8
0
  6
CONTINUOUS
 62
3
 10
-10.032900359034727
 20
224.966034464002630
 40
1.300000000000019
 50
106.601549599022360
 51
180.000000000000000
  0
ARC
  8
0
  6
CONTINUOUS
 62
3
 10
-7.832900359034909
 20
217.587010138253160
 40
9.000000000000123
 50
73.398450400980877
 51
106.601549599019120
  0
ARC
  8
0
  6
CONTINUOUS
 62
3
 10
-5.632900359035091
 20
224.966034464002630
 40
1.300000000000182
 50
0.000000000000000
 51
73.398450400977637
  0
ARC
  8
0
  6
CONTINUOUS
 62
3
 10
-5.832900359034909
 20
229.289488338260300
 40
5.000000000000072
 50
287.457603123721870
 51
0.000000000000000
  0
LINE
  8
0
  6
CONTINUOUS
 62
3
 10
-11.332900359034909
 20
224.289488338260300
 11
-114.332900359034900
 21
224.289488338260300
  0
LINE
  8
0
  6
CONTINUOUS
 62
3
 10
-124.832900359034900
 20
205.628463278573460
 11
-0.832900359034909
 21
205.628463278573460
  0
LINE
  8
0
  6
DASHDOT
 62
3
 10
-0.832900359034909
 20
200.628463278573460
 11
-0.832900359034909
 21
205.628463278573460
  0
LINE
  8
0
  6
DASHDOT
 62
4
 10
-197.202986478839590
 20
141.128463278573690
 11
239.826925727872090
 21
141.128463278573690
  0
LINE
  8
0
  6
DASHDOT
 62
4
 10
-82.116429774761571
 20
63.128463278573918
 11
-60.349452366233152
 21
63.128463278573918
  0
LINE
  8
0
  6
DASHDOT
 62
4
 10
-70.832900359034909
 20
54.184306020897793
 11
-70.832900359034909
 21
76.163808153433138
  0
LINE
  8
0
  6
DASHDOT
 62
4
 10
-129.918589465618600
 20
63.128463278573918
 11
-109.432001231909160
 21
63.128463278573918
  0
LINE
  8
0
  6
DASHDOT
 62
4
 10
-120.832900359034900
 20
54.184306020897793
 11
-120.832900359034900
 21
75.732795001429849
  0
ARC
  8
0
  6
DASHED
 62
4
 10
-120.832900359034900
 20
63.128463278573918
 40
7.000000000000000
 50
180.000000000000000
 51
0.000000000000000
  0
LINE
  8
0
  6
DASHED
 62
4
 10
-127.832900359034900
 20
63.128463278573918
 11
-127.832900359034900
 21
77.628463278573918
  0
LINE
  8
0
  6
DASHED
 62
4
 10
-113.832900359034900
 20
63.128463278573918
 11
-113.832900359034900
 21
77.628463278573918
  0
CIRCLE
  8
0
  6
DASHED
 62
4
 10
-70.832900359034909
 20
63.128463278573918
 40
6.000000000000000
  0
ARC
  8
0
  6
DASHED
 62
4
 10
-70.832900359034909
 20
63.128463278573918
 40
7.000000000000000
 50
180.000000000000000
 51
0.000000000000000
  0
LINE
  8
0
  6
DASHED
 62
4
 10
-77.832900359034909
 20
63.128463278573918
 11
-77.832900359034909
 21
77.628463278573918
  0
LINE
  8
0
  6
DASHED
 62
4
 10
-63.832900359034909
 20
63.128463278573918
 11
-63.832900359034909
 21
77.628463278573918
  0
LINE
  8
0
  6
CONTINUOUS
 62
4
 10
-125.332900359034900
 20
156.128463278573690
 11
22.667100594644246
 21
156.128463278573690
  0
LINE
  8
0
  6
CONTINUOUS
 62
4
 10
-125.332900359034900
 20
126.128463278573690
 11
22.667100594643273
 21
126.128463278573690
  0
ARC
  8
0
  6
CONTINUOUS
 62
3
 10
391.570589917818550
 20
-166.988364890219150
 40
77.139211988464112
 50
14.640477209921681
 51
88.089786828290116
  0
INSERT
  8
0
  2
SYM2
 10
465.015412124161680
 20
-227.673923317297980
 41
-1.000000000000000
 42
1.000000000000000
 43
1.000000000000000
 50
2.862405226113666
  0
LINE
  8
0
  6
DASHED
 62
3
 10
458.573459538399220
 20
-130.874846633257330
 11
463.667096466676180
 21
-232.747585198798110
  0
LINE
  8
0
  6
DASHED
 62
3
 10
463.667096466676180
 20
-232.747585198798110
 11
465.265100208880770
 21
-232.667685011687130
  0
LINE
  8
0
  6
DASHED
 62
3
 10
460.171463280603800
 20
-130.794946446147150
 11
465.265100208880770
 21
-232.667685011687130
  0
ARC
  8
0
  6
DASHED
 62
3
 10
461.289092382454330
 20
-133.542562042391980
 40
1.299999237060645
 50
19.463936333587132
 51
92.862405909348169
  0
ARC
  8
0
  6
DASHED
 62
3
 10
461.508817973206310
 20
-137.937073857429710
 40
1.299999237060550
 50
272.862387240019760
 51
346.260856815788600
  0
LINE
  8
0
  6
DASHED
 62
3
 10
460.246369706019100
 20
-132.293074954463800
 11
461.224173518526640
 21
-132.244184763838460
  0
LINE
  8
0
  6
DASHED
 62
3
 10
460.595933024626220
 20
-139.284341326608680
 11
461.573736837133990
 21
-139.235451135983340
  0
LINE
  8
0
  6
DASHED
 62
3
 10
460.246369706019100
 20
-132.293074954463800
 11
460.595933024626220
 21
-139.284341326608680
  0
LINE
  8
0
  6
DASHED
 62
3
 10
460.246369706019100
 20
-132.293074954463800
 11
460.595933024626220
 21
-139.284341326608680
  0
POINT
  8
0
  6
DASHED
 62
3
 10
460.421151365322660
 20
-135.788708140536190
  0
ARC
  8
0
  6
DASHED
 62
3
 10
454.029136777498250
 20
-136.108308869927440
 40
8.999999999999948
 50
346.260856815786500
 51
19.463936333592187
  0
LINE
  8
0
  6
DASHED
 62
3
 10
460.171463280603800
 20
-130.794946446147150
 11
458.573459538399220
 21
-130.874846633257330
  0
ARC
  8
0
  6
DASHED
 62
3
 10
460.870589917818280
 20
-160.797466706037540
 40
18.799999999999837
 50
5.724810452223617
 51
35.808626813495749
  0
ARC
  8
0
  6
DASHED
 62
3
 10
460.870589917818280
 20
-160.797466706037540
 40
18.799999999999933
 50
35.808626813495749
 51
85.126025186157264
  0
LINE
  8
0
  6
DASHED
 62
3
 10
483.566849269439220
 20
-198.722653738456530
 11
479.576824331783200
 21
-158.922154985339260
  0
ARC
  8
0
  6
DASHED
 62
3
 10
466.797055749150560
 20
-223.256827028081030
 40
1.999999999999995
 50
99.916536608232732
 51
182.862405226112400
  0
LINE
  8
0
  6
DASHED
 62
3
 10
459.372461409501510
 20
-130.834896539702300
 11
464.466098337778480
 21
-232.707635105242390
  0
ARC
  8
0
  6
DASHED
 62
3
 10
461.204042651434750
 20
-223.536477682966850
 40
1.999999999999927
 50
2.862405226112724
 51
85.808273843998350
  0
ARC
  8
0
  6
DASHED
 62
3
 10
462.637848381447160
 20
-140.072679674014010
 40
1.999999999999927
 50
182.862405226112710
 51
265.126025186159040
  0
ARC
  8
0
  6
DASHED
 62
3
 10
457.044835283731350
 20
-140.352330328899820
 40
1.999999999999958
 50
280.598785266065990
 51
2.862405226112724
  0
ARC
  8
0
  6
DASHED
 62
3
 10
462.870589917818280
 20
-200.797466706037540
 40
20.799999999999926
 50
334.359929784105190
 51
5.724810452223396
  0
ARC
  8
0
  6
DASHED
 62
3
 10
462.870589917818280
 20
-200.797466706037540
 40
20.800000000000040
 50
279.916536608230560
 51
334.359929784105190
  0
ARC
  8
0
  6
DASHED
 62
3
 10
462.870589917818280
 20
-200.797466706037540
 40
20.799999999999926
 50
334.359929784105190
 51
5.724810452223396
  0
ARC
  8
0
  6
DASHED
 62
3
 10
460.870589917818280
 20
-160.797466706037540
 40
18.799999999999983
 50
100.598785266066050
 51
180.000000000000000
  0
POINT
  8
0
  6
DASHED
 62
3
 10
442.070589917818320
 20
-186.768697199163510
  0
POINT
  8
0
  6
DASHED
 62
3
 10
442.070589917818320
 20
-186.768697199163510
  0
ARC
  8
0
  6
DASHED
 62
3
 10
462.870589917818280
 20
-200.797466706037540
 40
20.799999999999898
 50
185.047316781012510
 51
265.808273843992540
  0
LINE
  8
0
  6
DASHED
 62
3
 10
445.300478961239610
 20
-186.754966706037520
 11
435.668575572193390
 21
-186.754966706037520
  0
LINE
  8
0
  6
DASHED
 62
3
 10
442.070589917818320
 20
-202.627417509400830
 11
442.070589917818320
 21
-160.797466706037540
  0
LINE
  8
0
  6
CONTINUOUS
 62
3
 10
-132.332900359038150
 20
-157.696906035620430
 11
-132.332900359038380
 21
-186.696906035620430
  0
LINE
  8
0
  6
CONTINUOUS
 62
3
 10
-59.332900359038263
 20
-157.696906035620430
 11
-59.332900359038263
 21
-186.696906035620430
  0
LINE
  8
0
  6
CONTINUOUS
 62
4
 10
-58.492303574132166
 20
-156.414471709051160
 11
23.667099640961624
 21
-156.414471709051160
  0
LINE
  8
0
  6
CONTINUOUS
 62
4
 10
-135.332900359038150
 20
-156.414471709051160
 11
-133.173497143944360
 21
-156.414471709051160
  0
LINE
  8
0
  6
CONTINUOUS
 62
4
 10
-58.332900359038263
 20
-161.866852578490070
 11
23.667099640961624
 21
-161.866852578490070
  0
LINE
  8
0
  6
CONTINUOUS
 62
4
 10
-135.332900359038150
 20
-161.866852578490070
 11
-133.332900359038150
 21
-161.866852578490070
  0
LINE
  8
0
  6
CONTINUOUS
 62
4
 10
-58.332900359038263
 20
-160.504972243140800
 11
23.667099640961624
 21
-160.504972243140800
  0
LINE
  8
0
  6
CONTINUOUS
 62
4
 10
-135.332900359038150
 20
-160.504972243140800
 11
-133.332900359038150
 21
-160.504972243140800
  0
LINE
  8
0
  6
CONTINUOUS
 62
4
 10
-58.332900359038263
 20
-166.696906035620430
 11
23.667099640961624
 21
-166.696906035620430
  0
LINE
  8
0
  6
CONTINUOUS
 62
4
 10
-135.332900359038150
 20
-166.696906035620430
 11
-133.332900359038150
 21
-166.696906035620430
  0
LINE
  8
0
  6
CONTINUOUS
 62
4
 10
-125.332900359038260
 20
-129.696906035620430
 11
23.667099640961624
 21
-129.696906035620430
  0
LINE
  8
0
  6
CONTINUOUS
 62
4
 10
-125.332900359038260
 20
-129.196906035620430
 11
23.667099640961624
 21
-129.196906035620430
  0
LINE
  8
0
  6
CONTINUOUS
 62
4
 10
-125.332900359038260
 20
-130.696906035620430
 11
23.667099640961624
 21
-130.696906035620430
  0
LINE
  8
0
  6
CONTINUOUS
 62
4
 10
-125.332900359038260
 20
-131.696906035620430
 11
23.667099640961624
 21
-131.696906035620430
  0
LINE
  8
0
  6
CONTINUOUS
 62
4
 10
-125.332900359038260
 20
-136.381371848844940
 11
23.667099640961624
 21
-136.381371848844940
  0
LINE
  8
0
  6
CONTINUOUS
 62
4
 10
-125.332900359038260
 20
-141.331119317150690
 11
23.667099640961624
 21
-141.331119317150690
  0
LINE
  8
0
  6
CONTINUOUS
 62
4
 10
-134.235892917418370
 20
-149.377720979884490
 11
23.667099640961624
 21
-149.377720979884490
  0
LINE
  8
0
  6
CONTINUOUS
 62
4
 10
-135.246564148035080
 20
-150.982368895446540
 11
23.667099640961624
 21
-150.982368895446540
  0
LINE
  8
0
  6
CONTINUOUS
 62
4
 10
-135.332900359038150
 20
-154.946114319246080
 11
23.667099640961624
 21
-154.946114319246080
  0
LINE
  8
0
  6
CONTINUOUS
 62
3
 10
-60.332900359038263
 20
-156.696906035620430
 11
-131.332900359038150
 21
-156.696906035620430
  0
ARC
  8
0
  6
CONTINUOUS
 62
3
 10
-131.332900359038150
 20
-157.696906035620430
 40
1.000000000000000
 50
90.000000000000000
 51
180.000000000000000
  0
ARC
  8
0
  6
CONTINUOUS
 62
3
 10
-60.332900359038263
 20
-157.696906035620430
 40
1.000000000000000
 50
0.000000000000000
 51
90.000000000000000
  0
ARC
  8
0
  6
CONTINUOUS
 62
3
 10
-60.332900359038263
 20
-157.196906035620430
 40
2.000000000000000
 50
0.000000000000000
 51
90.000000000000000
  0
LINE
  8
0
  6
CONTINUOUS
 62
3
 10
-58.332900359038263
 20
-186.696906035620430
 11
-58.332900359038263
 21
-157.196906035620430
  0
LINE
  8
0
  6
CONTINUOUS
 62
3
 10
-133.332900359038150
 20
-186.696906035620430
 11
-133.332900359038150
 21
-157.196906035620430
  0
ARC
  8
0
  6
CONTINUOUS
 62
3
 10
-131.332900359038150
 20
-157.196906035620430
 40
2.000000000000000
 50
90.000000000000000
 51
180.000000000000000
  0
LINE
  8
0
  6
CONTINUOUS
 62
3
 10
-60.332900359038263
 20
-155.196906035620430
 11
-131.332900359038150
 21
-155.196906035620430
  0
LINE
  8
0
  6
CONTINUOUS
 62
3
 10
-125.332900359038260
 20
-145.696906035620430
 11
-125.332900359038260
 21
-126.696906035620430
  0
ARC
  8
0
  6
CONTINUOUS
 62
3
 10
-132.332900359038150
 20
-151.696906035620430
 40
3.000000000000000
 50
90.000000000000000
 51
180.000000000000000
  0
LINE
  8
0
  6
CONTINUOUS
 62
3
 10
-128.332900359038260
 20
-148.696906035620430
 11
-132.332900359038150
 21
-148.696906035620430
  0
ARC
  8
0
  6
CONTINUOUS
 62
3
 10
-128.332900359038260
 20
-145.696906035620430
 40
3.000000000000000
 50
270.000000000000000
 51
0.000000000000000
  0
LINE
  8
0
  6
CONTINUOUS
 62
3
 10
-135.332900359038150
 20
-151.696906035620430
 11
-135.332900359038150
 21
-186.696906035620430
  0
LINE
  8
0
  6
CONTINUOUS
 62
3
 10
23.667099640961624
 20
-128.196906035620430
 11
-125.332900359038260
 21
-128.196906035620430
  0
LINE
  8
0
  6
CONTINUOUS
 62
3
 10
-125.332900359038260
 20
-126.696906035620430
 11
-154.026924581458620
 21
-126.696906035620430
  0
LINE
  8
0
  6
CONTINUOUS
 62
3
 10
-176.332900358988130
 20
-186.696906035620430
 11
-176.332900358988130
 21
-139.253700978374980
  0
ARC
  8
0
  6
CONTINUOUS
 62
3
 10
-154.026924581458620
 20
-146.696906035620430
 40
20.000000000000000
 50
90.000000000000000
 51
125.000000000000240
  0
LINE
  8
0
  6
CONTINUOUS
 62
3
 10
-165.498453308479610
 20
-130.313865149840640
 11
-175.224199093500600
 21
-137.123905663223870
  0
ARC
  8
0
  6
CONTINUOUS
 62
3
 10
-173.732900358987990
 20
-139.253700978374980
 40
2.599999999999721
 50
125.000000000001370
 51
180.000000000000000
  0
LINE
  8
0
  6
CONTINUOUS
 62
3
 10
-132.332900359038150
 20
-215.696906035620430
 11
-132.332900359038380
 21
-186.696906035620430
  0
LINE
  8
0
  6
CONTINUOUS
 62
3
 10
-59.332900359038263
 20
-215.696906035620430
 11
-59.332900359038263
 21
-186.696906035620430
  0
LINE
  8
0
  6
CONTINUOUS
 62
4
 10
-58.492303574132166
 20
-216.979340362189700
 11
23.667099640961624
 21
-216.979340362189700
  0
LINE
  8
0
  6
CONTINUOUS
 62
4
 10
-135.332900359038150
 20
-216.979340362189700
 11
-133.173497143944360
 21
-216.979340362189700
  0
LINE
  8
0
  6
CONTINUOUS
 62
4
 10
-58.332900359038263
 20
-211.526959492750790
 11
23.667099640961624
 21
-211.526959492750790
  0
LINE
  8
0
  6
CONTINUOUS
 62
4
 10
-135.332900359038150
 20
-211.526959492750790
 11
-133.332900359038150
 21
-211.526959492750790
  0
LINE
  8
0
  6
CONTINUOUS
 62
4
 10
-58.332900359038263
 20
-212.888839828100060
 11
23.667099640961624
 21
-212.888839828100060
  0
LINE
  8
0
  6
CONTINUOUS
 62
4
 10
-135.332900359038150
 20
-212.888839828100060
 11
-133.332900359038150
 21
-212.888839828100060
  0
LINE
  8
0
  6
CONTINUOUS
 62
4
 10
-58.332900359038263
 20
-206.696906035620430
 11
23.667099640961624
 21
-206.696906035620430
  0
LINE
  8
0
  6
CONTINUOUS
 62
4
 10
-135.332900359038150
 20
-206.696906035620430
 11
-133.332900359038150
 21
-206.696906035620430
  0
LINE
  8
0
  6
CONTINUOUS
 62
4
 10
-125.332900359038260
 20
-243.696906035620430
 11
23.667099640961624
 21
-243.696906035620430
  0
LINE
  8
0
  6
CONTINUOUS
 62
4
 10
-125.332900359038260
 20
-244.196906035620430
 11
23.667099640961624
 21
-244.196906035620430
  0
LINE
  8
0
  6
CONTINUOUS
 62
4
 10
-125.332900359038260
 20
-242.696906035620430
 11
23.667099640961624
 21
-242.696906035620430
  0
LINE
  8
0
  6
CONTINUOUS
 62
4
 10
-125.332900359038260
 20
-241.696906035620430
 11
23.667099640961624
 21
-241.696906035620430
  0
LINE
  8
0
  6
CONTINUOUS
 62
4
 10
-125.332900359038260
 20
-237.012440222395920
 11
23.667099640961624
 21
-237.012440222395920
  0
LINE
  8
0
  6
CONTINUOUS
 62
4
 10
-125.332900359038260
 20
-232.062692754090160
 11
23.667099640961624
 21
-232.062692754090160
  0
LINE
  8
0
  6
CONTINUOUS
 62
4
 10
-134.235892917418370
 20
-224.016091091356370
 11
23.667099640961624
 21
-224.016091091356370
  0
LINE
  8
0
  6
CONTINUOUS
 62
4
 10
-135.246564148035080
 20
-222.411443175794320
 11
23.667099640961624
 21
-222.411443175794320
  0
LINE
  8
0
  6
CONTINUOUS
 62
4
 10
-135.332900359038150
 20
-218.447697751994780
 11
23.667099640961624
 21
-218.447697751994780
  0
LINE
  8
0
  6
CONTINUOUS
 62
3
 10
-60.332900359038263
 20
-216.696906035620430
 11
-131.332900359038150
 21
-216.696906035620430
  0
ARC
  8
0
  6
CONTINUOUS
 62
3
 10
-131.332900359038150
 20
-215.696906035620430
 40
1.000000000000000
 50
180.000000000000000
 51
270.000000000000000
  0
ARC
  8
0
  6
CONTINUOUS
 62
3
 10
-60.332900359038263
 20
-215.696906035620430
 40
1.000000000000000
 50
270.000000000000000
 51
0.000000000000000
  0
ARC
  8
0
  6
CONTINUOUS
 62
3
 10
-60.332900359038263
 20
-216.196906035620430
 40
2.000000000000000
 50
270.000000000000000
 51
0.000000000000000
  0
LINE
  8
0
  6
CONTINUOUS
 62
3
 10
-58.332900359038263
 20
-186.696906035620430
 11
-58.332900359038263
 21
-216.196906035620430
  0
LINE
  8
0
  6
CONTINUOUS
 62
3
 10
-133.332900359038150
 20
-186.696906035620430
 11
-133.332900359038150
 21
-216.196906035620430
  0
ARC
  8
0
  6
CONTINUOUS
 62
3
 10
-131.332900359038150
 20
-216.196906035620430
 40
2.000000000000000
 50
180.000000000000000
 51
270.000000000000000
  0
LINE
  8
0
  6
CONTINUOUS
 62
3
 10
-60.332900359038263
 20
-218.196906035620430
 11
-131.332900359038150
 21
-218.196906035620430
  0
LINE
  8
0
  6
CONTINUOUS
 62
3
 10
-125.332900359038260
 20
-227.696906035620430
 11
-125.332900359038260
 21
-246.696906035620430
  0
ARC
  8
0
  6
CONTINUOUS
 62
3
 10
-132.332900359038150
 20
-221.696906035620430
 40
3.000000000000000
 50
180.000000000000000
 51
270.000000000000000
  0
LINE
  8
0
  6
CONTINUOUS
 62
3
 10
-128.332900359038260
 20
-224.696906035620430
 11
-132.332900359038150
 21
-224.696906035620430
  0
ARC
  8
0
  6
CONTINUOUS
 62
3
 10
-128.332900359038260
 20
-227.696906035620430
 40
3.000000000000000
 50
0.000000000000000
 51
90.000000000000000
  0
LINE
  8
0
  6
CONTINUOUS
 62
3
 10
-135.332900359038150
 20
-221.696906035620430
 11
-135.332900359038150
 21
-186.696906035620430
  0
LINE
  8
0
  6
CONTINUOUS
 62
3
 10
23.667099640961624
 20
-245.196906035620430
 11
-125.332900359038260
 21
-245.196906035620430
  0
LINE
  8
0
  6
CONTINUOUS
 62
3
 10
-125.332900359038260
 20
-246.696906035620430
 11
-154.026924581458620
 21
-246.696906035620430
  0
LINE
  8
0
  6
CONTINUOUS
 62
3
 10
-176.332900358988130
 20
-186.696906035620430
 11
-176.332900358988130
 21
-234.140111092865880
  0
ARC
  8
0
  6
CONTINUOUS
 62
3
 10
-154.026924581458620
 20
-226.696906035620430
 40
20.000000000000007
 50
234.999999999999740
 51
270.000000000000000
  0
LINE
  8
0
  6
CONTINUOUS
 62
3
 10
-165.498453308479610
 20
-243.079946921400220
 11
-175.224199093500600
 21
-236.269906408016990
  0
ARC
  8
0
  6
CONTINUOUS
 62
3
 10
-173.732900358987990
 20
-234.140111092865880
 40
2.600000000000136
 50
180.000000000000000
 51
234.999999999998610
  0
POLYLINE
  8
0
  6
CONTINUOUS
 62
3
 66
1
 70
1
  0
VERTEX
  8
0
  6
CONTINUOUS
 62
3
 10
-131.632900359037710
 20
-134.773381003560360
  0
VERTEX
  8
0
  6
CONTINUOUS
 62
3
 10
-131.723209541142520
 20
-134.070424037360000
  0
VERTEX
  8
0
  6
CONTINUOUS
 62
3
 10
-131.990666556234660
 20
-133.394481313147910
  0
VERTEX
  8
0
  6
CONTINUOUS
 62
3
 10
-132.424993181215740
 20
-132.771528930742510
  0
VERTEX
  8
0
  6
CONTINUOUS
 62
3
 10
-133.009498487460920
 20
-132.225506600843910
  0
VERTEX
  8
0
  6
CONTINUOUS
 62
3
 10
-133.721720263845580
 20
-131.777397655377290
  0
VERTEX
  8
0
  6
CONTINUOUS
 62
3
 10
-134.534288226921770
 20
-131.444422669814540
  0
VERTEX
  8
0
  6
CONTINUOUS
 62
3
 10
-135.415975845561890
 20
-131.239377686116280
  0
VERTEX
  8
0
  6
CONTINUOUS
 62
3
 10
-136.332900359037690
 20
-131.170142468015510
  0
VERTEX
  8
0
  6
CONTINUOUS
 62
3
 10
-137.249824872513500
 20
-131.239377686116280
  0
VERTEX
  8
0
  6
CONTINUOUS
 62
3
 10
-138.131512491153610
 20
-131.444422669814540
  0
VERTEX
  8
0
  6
CONTINUOUS
 62
3
 10
-138.944080454229810
 20
-131.777397655377290
  0
VERTEX
  8
0
  6
CONTINUOUS
 62
3
 10
-139.656302230614470
 20
-132.225506600843910
  0
VERTEX
  8
0
  6
CONTINUOUS
 62
3
 10
-140.240807536859650
 20
-132.771528930742510
  0
VERTEX
  8
0
  6
CONTINUOUS
 62
3
 10
-140.675134161840730
 20
-133.394481313147910
  0
VERTEX
  8
0
  6
CONTINUOUS
 62
3
 10
-140.942591176932860
 20
-134.070424037360000
  0
VERTEX
  8
0
  6
CONTINUOUS
 62
3
 10
-141.032900359037680
 20
-134.773381003560360
  0
VERTEX
  8
0
  6
CONTINUOUS
 62
3
 10
-140.942591176932860
 20
-135.476337969760720
  0
VERTEX
  8
0
  6
CONTINUOUS
 62
3
 10
-140.675134161840730
 20
-136.152280693972810
  0
VERTEX
  8
0
  6
CONTINUOUS
 62
3
 10
-140.240807536859650
 20
-136.775233076378210
  0
VERTEX
  8
0
  6
CONTINUOUS
 62
3
 10
-139.656302230614440
 20
-137.321255406276800
  0
VERTEX
  8
0
  6
CONTINUOUS
 62
3
 10
-138.944080454229810
 20
-137.769364351743430
  0
VERTEX
  8
0
  6
CONTINUOUS
 62
3
 10
-138.131512491153610
 20
-138.102339337306180
  0
VERTEX
  8
0
  6
CONTINUOUS
 62
3
 10
-137.249824872513500
 20
-138.307384321004430
  0
VERTEX
  8
0
  6
CONTINUOUS
 62
3
 10
-136.332900359037690
 20
-138.376619539105210
  0
VERTEX
  8
0
  6
CONTINUOUS
 62
3
 10
-135.415975845561890
 20
-138.307384321004430
  0
VERTEX
  8
0
  6
CONTINUOUS
 62
3
 10
-134.534288226921770
 20
-138.102339337306180
  0
VERTEX
  8
0
  6
CONTINUOUS
 62
3
 10
-133.721720263845580
 20
-137.769364351743430
  0
VERTEX
  8
0
  6
CONTINUOUS
 62
3
 10
-133.009498487460950
 20
-137.321255406276800
  0
VERTEX
  8
0
  6
CONTINUOUS
 62
3
 10
-132.424993181215740
 20
-136.775233076378210
  0
VERTEX
  8
0
  6
CONTINUOUS
 62
3
 10
-131.990666556234660
 20
-136.152280693972810
  0
VERTEX
  8
0
  6
CONTINUOUS
 62
3
 10
-131.723209541142520
 20
-135.476337969760720
  0
SEQEND
  8
0
  6
CONTINUOUS
 62
3
  0
LINE
  8
0
  6
CONTINUOUS
 62
3
 10
-138.332900359037690
 20
-131.781005449560040
 11
-136.332900359037690
 21
-132.956790935182820
  0
LINE
  8
0
  6
CONTINUOUS
 62
3
 10
-136.332900359037690
 20
-132.956790935182820
 11
-134.332900359037690
 21
-134.609432574306250
  0
LINE
  8
0
  6
CONTINUOUS
 62
3
 10
-134.332900359037690
 20
-131.781005449560040
 11
-136.332900359037690
 21
-132.956790935182820
  0
LINE
  8
0
  6
CONTINUOUS
 62
3
 10
-136.332900359037690
 20
-132.956790935182820
 11
-138.332900359037690
 21
-134.609432574306250
  0
POLYLINE
  8
0
  6
CONTINUOUS
 62
3
 66
1
 70
1
  0
VERTEX
  8
0
  6
CONTINUOUS
 62
3
 10
-131.632900359037710
 20
-238.620431067680270
  0
VERTEX
  8
0
  6
CONTINUOUS
 62
3
 10
-131.723209541142520
 20
-237.917474101479910
  0
VERTEX
  8
0
  6
CONTINUOUS
 62
3
 10
-131.990666556234660
 20
-237.241531377267820
  0
VERTEX
  8
0
  6
CONTINUOUS
 62
3
 10
-132.424993181215740
 20
-236.618578994862420
  0
VERTEX
  8
0
  6
CONTINUOUS
 62
3
 10
-133.009498487460920
 20
-236.072556664963830
  0
VERTEX
  8
0
  6
CONTINUOUS
 62
3
 10
-133.721720263845580
 20
-235.624447719497200
  0
VERTEX
  8
0
  6
CONTINUOUS
 62
3
 10
-134.534288226921770
 20
-235.291472733934460
  0
VERTEX
  8
0
  6
CONTINUOUS
 62
3
 10
-135.415975845561890
 20
-235.086427750236200
  0
VERTEX
  8
0
  6
CONTINUOUS
 62
3
 10
-136.332900359037690
 20
-235.017192532135430
  0
VERTEX
  8
0
  6
CONTINUOUS
 62
3
 10
-137.249824872513500
 20
-235.086427750236200
  0
VERTEX
  8
0
  6
CONTINUOUS
 62
3
 10
-138.131512491153610
 20
-235.291472733934460
  0
VERTEX
  8
0
  6
CONTINUOUS
 62
3
 10
-138.944080454229810
 20
-235.624447719497200
  0
VERTEX
  8
0
  6
CONTINUOUS
 62
3
 10
-139.656302230614470
 20
-236.072556664963830
  0
VERTEX
  8
0
  6
CONTINUOUS
 62
3
 10
-140.240807536859650
 20
-236.618578994862420
  0
VERTEX
  8
0
  6
CONTINUOUS
 62
3
 10
-140.675134161840730
 20
-237.241531377267820
  0
VERTEX
  8
0
  6
CONTINUOUS
 62
3
 10
-140.942591176932860
 20
-237.917474101479910
  0
VERTEX
  8
0
  6
CONTINUOUS
 62
3
 10
-141.032900359037680
 20
-238.620431067680270
  0
VERTEX
  8
0
  6
CONTINUOUS
 62
3
 10
-140.942591176932860
 20
-239.323388033880630
  0
VERTEX
  8
0
  6
CONTINUOUS
 62
3
 10
-140.675134161840730
 20
-239.999330758092730
  0
VERTEX
  8
0
  6
CONTINUOUS
 62
3
 10
-140.240807536859650
 20
-240.622283140498130
  0
VERTEX
  8
0
  6
CONTINUOUS
 62
3
 10
-139.656302230614440
 20
-241.168305470396720
  0
VERTEX
  8
0
  6
CONTINUOUS
 62
3
 10
-138.944080454229810
 20
-241.616414415863350
  0
VERTEX
  8
0
  6
CONTINUOUS
 62
3
 10
-138.131512491153610
 20
-241.949389401426090
  0
VERTEX
  8
0
  6
CONTINUOUS
 62
3
 10
-137.249824872513500
 20
-242.154434385124350
  0
VERTEX
  8
0
  6
CONTINUOUS
 62
3
 10
-136.332900359037690
 20
-242.223669603225120
  0
VERTEX
  8
0
  6
CONTINUOUS
 62
3
 10
-135.415975845561890
 20
-242.154434385124350
  0
VERTEX
  8
0
  6
CONTINUOUS
 62
3
 10
-134.534288226921770
 20
-241.949389401426090
  0
VERTEX
  8
0
  6
CONTINUOUS
 62
3
 10
-133.721720263845580
 20
-241.616414415863350
  0
VERTEX
  8
0
  6
CONTINUOUS
 62
3
 10
-133.009498487460950
 20
-241.168305470396720
  0
VERTEX
  8
0
  6
CONTINUOUS
 62
3
 10
-132.424993181215740
 20
-240.622283140498130
  0
VERTEX
  8
0
  6
CONTINUOUS
 62
3
 10
-131.990666556234660
 20
-239.999330758092730
  0
VERTEX
  8
0
  6
CONTINUOUS
 62
3
 10
-131.723209541142520
 20
-239.323388033880630
  0
SEQEND
  8
0
  6
CONTINUOUS
 62
3
  0
LINE
  8
0
  6
CONTINUOUS
 62
3
 10
-138.332900359037690
 20
-241.612806621680590
 11
-136.332900359037690
 21
-240.437021136058260
  0
LINE
  8
0
  6
CONTINUOUS
 62
3
 10
-136.332900359037690
 20
-240.437021136058260
 11
-134.332900359037690
 21
-238.784379496934830
  0
LINE
  8
0
  6
CONTINUOUS
 62
3
 10
-134.332900359037690
 20
-241.612806621680590
 11
-136.332900359037690
 21
-240.437021136058260
  0
LINE
  8
0
  6
CONTINUOUS
 62
3
 10
-136.332900359037690
 20
-240.437021136058260
 11
-138.332900359037690
 21
-238.784379496934830
  0
LINE
  8
0
  6
DASHDOT
 62
4
 10
73.946029183071460
 20
-186.696906035620430
 11
-196.861610927052880
 21
-186.696906035620430
  0
ARC
  8
0
  6
CONTINUOUS
 62
3
 10
391.570589917818780
 20
-166.988364890219150
 40
77.139211988464155
 50
58.529969569331058
 51
88.089786828290116
  0
ARC
  8
0
  6
CONTINUOUS
 62
3
 10
276.901957024665530
 20
-222.068260539863330
 40
9.999999999999920
 50
315.000000000000910
 51
32.975300819434352
  0
CIRCLE
  8
0
  6
CONTINUOUS
 62
3
 10
377.570589917818320
 20
-156.754966706037520
 40
99.000000000000000
  0
ARC
  8
0
  6
CONTINUOUS
 62
3
 10
291.431377929353860
 20
-194.385222591513410
 40
5.000000000000000
 50
180.000000000000000
 51
203.598301736362150
  0
ARC
  8
0
  6
CONTINUOUS
 62
3
 10
364.412442816128990
 20
-225.507153324721000
 40
37.999999999999908
 50
128.284839477505610
 51
189.449699705365900
  0
ARC
  8
0
  6
CONTINUOUS
 62
3
 10
321.995947755563520
 20
-232.566965416910080
 40
4.999999999999974
 50
233.756397618482510
 51
9.449699705361777
  0
ARC
  8
0
  6
CONTINUOUS
 62
3
 10
326.924760869416100
 20
-150.754966706037520
 40
3.000000000000000
 50
270.000000000000000
 51
353.243672969409600
  0
ARC
  8
0
  6
CONTINUOUS
 62
3
 10
326.924760869416100
 20
-162.754966706037520
 40
2.999999999999939
 50
6.756327030581794
 51
90.000000000000000
  0
ARC
  8
0
  6
CONTINUOUS
 62
3
 10
281.758273381790560
 20
-162.754966706037520
 40
3.000000000000000
 50
90.000000000000000
 51
183.583321698471880
  0
ARC
  8
0
  6
CONTINUOUS
 62
3
 10
281.758273381790560
 20
-150.754966706037520
 40
3.000000000000075
 50
176.416678301528120
 51
270.000000000000000
  0
ARC
  8
0
  6
CONTINUOUS
 62
3
 10
363.570589917818100
 20
-166.988364890219150
 40
77.139211988464083
 50
91.910213171709884
 51
165.359522790078330
  0
ARC
  8
0
  6
CONTINUOUS
 62
3
 10
293.773676683967550
 20
-148.754966706037520
 40
4.999999999999902
 50
165.359522790080040
 51
270.000000000000000
  0
ARC
  8
0
  6
CONTINUOUS
 62
3
 10
363.570589917818100
 20
-166.988364890219150
 40
77.139211988464211
 50
178.225864444680160
 51
180.000000000000000
  0
ARC
  8
0
  6
CONTINUOUS
 62
3
 10
291.465958729055500
 20
-164.754966706037520
 40
5.000000000000000
 50
90.000000000000000
 51
178.225864444681920
  0
ARC
  8
0
  6
CONTINUOUS
 62
3
 10
377.570589917818320
 20
-156.754966706037520
 40
109.999999999999900
 50
183.563302831523370
 51
212.975300819434320
  0
LINE
  8
0
  6
DASHDOT
 62
4
 10
250.935932598404180
 20
-156.754966706037520
 11
507.089581846368670
 21
-156.754966706037520
  0
LINE
  8
0
  6
CONTINUOUS
 62
3
 10
265.656376355445450
 20
-247.455976832814490
 11
283.973024836531070
 21
-229.139328351728640
  0
LINE
  8
0
  6
DASHDOT
 62
4
 10
268.840458647893230
 20
-265.485097975963070
 11
288.999922404385420
 21
-245.325634219470890
  0
LINE
  8
0
  6
CONTINUOUS
 62
3
 10
286.431377929353860
 20
-166.988364890219150
 11
286.431377929353860
 21
-194.385222591513410
  0
LINE
  8
0
  6
CONTINUOUS
 62
3
 10
281.758273381790560
 20
-159.754966706037520
 11
326.924760869416100
 21
-159.754966706037520
  0
LINE
  8
0
  6
CONTINUOUS
 62
3
 10
281.758273381790560
 20
-153.754966706037520
 11
326.924760869416100
 21
-153.754966706037520
  0
LINE
  8
0
  6
DASHED
 62
3
 10
319.070589917818320
 20
-207.254966706037520
 11
317.770589917818370
 21
-207.254966706037520
  0
LINE
  8
0
  6
DASHED
 62
3
 10
317.570589917818320
 20
-186.754966706037520
 11
317.570589917818320
 21
-207.054966706037530
  0
ARC
  8
0
  6
DASHED
 62
3
 10
317.770589917818370
 20
-207.054966706037530
 40
0.200000000000045
 50
180.000000000000000
 51
270.000000000000000
  0
LINE
  8
0
  6
DASHED
 62
3
 10
319.070589917818320
 20
-166.254966706037520
 11
319.070589917818320
 21
-155.254966706037520
  0
LINE
  8
0
  6
DASHED
 62
3
 10
319.070589917818320
 20
-166.254966706037520
 11
317.770589917818370
 21
-166.254966706037520
  0
LINE
  8
0
  6
DASHED
 62
3
 10
317.570589917818320
 20
-186.754966706037520
 11
317.570589917818320
 21
-166.454966706037510
  0
ARC
  8
0
  6
DASHED
 62
3
 10
317.770589917818370
 20
-166.454966706037510
 40
0.199999999999989
 50
90.000000000000000
 51
180.000000000000000
  0
LINE
  8
0
  6
DASHED
 62
3
 10
319.070589917818320
 20
-155.254966706037520
 11
314.070589917818320
 21
-155.254966706037520
  0
LINE
  8
0
  6
DASHED
 62
3
 10
314.070589917818320
 20
-218.254966706037520
 11
314.070589917818320
 21
-155.254966706037520
  0
LINE
  8
0
  6
DASHED
 62
3
 10
319.070589917818320
 20
-207.254966706037520
 11
319.070589917818320
 21
-218.254966706037520
  0
LINE
  8
0
  6
DASHED
 62
3
 10
319.070589917818320
 20
-218.254966706037520
 11
314.070589917818320
 21
-218.254966706037520
  0
ARC
  8
0
  6
DASHED
 62
3
 10
584.570589917818440
 20
-186.754966706037520
 40
300.000000000000110
 50
180.000000000000000
 51
184.861405395798040
  0
LINE
  8
0
  6
DASHED
 62
3
 10
290.631820783836930
 20
-216.754966706037520
 11
314.070589917818320
 21
-216.754966706037520
  0
ARC
  8
0
  6
DASHED
 62
3
 10
290.631820783836930
 20
-211.754966706037520
 40
4.999999999999890
 50
184.861405395798270
 51
270.000000000000000
  0
ARC
  8
0
  6
DASHED
 62
3
 10
290.631820783836930
 20
-161.754966706037520
 40
5.000000000000000
 50
90.000000000000000
 51
175.138594604202010
  0
LINE
  8
0
  6
DASHED
 62
3
 10
290.631820783836930
 20
-156.754966706037520
 11
314.070589917818320
 21
-156.754966706037520
  0
ARC
  8
0
  6
DASHED
 62
3
 10
584.570589917818440
 20
-186.754966706037520
 40
300.000000000000000
 50
175.138594604201960
 51
180.000000000000000
  0
LINE
  8
0
  6
DASHED
 62
3
 10
284.070589917818320
 20
-184.254966706037520
 11
284.581006765336270
 21
-184.254966706037520
  0
LINE
  8
0
  6
DASHED
 62
3
 10
284.070589917818320
 20
-189.254966706037520
 11
284.581006765336270
 21
-189.254966706037520
  0
LINE
  8
0
  6
DASHED
 62
3
 10
284.070589917818320
 20
-189.254966706037520
 11
284.070589917818320
 21
-184.254966706037520
  0
CIRCLE
  8
0
  6
CONTINUOUS
 62
3
 10
377.570589917818320
 20
-156.754966706037520
 40
105.000000000000000
  0
ARC
  8
0
  6
CONTINUOUS
 62
3
 10
119.407225046406890
 20
-92.829231335849727
 40
3.000000000000000
 50
270.000000000000000
 51
320.631038306637150
  0
LINE
  8
0
  6
CONTINUOUS
 62
3
 10
121.726456966566730
 20
-94.732166778925148
 11
141.986331561122370
 21
-70.040132149421424
  0
ARC
  8
0
  6
CONTINUOUS
 62
3
 10
139.667099640962990
 20
-68.137196706346458
 40
2.999999999999515
 50
320.631038306638350
 51
0.000000000000000
  0
ARC
  8
0
  6
CONTINUOUS
 62
3
 10
139.667099640962990
 20
-73.622478080584642
 40
2.999999999999515
 50
320.631038306638350
 51
0.000000000000000
  0
ARC
  8
0
  6
CONTINUOUS
 62
3
 10
119.407225046406890
 20
-98.314512710087911
 40
3.000000000000000
 50
270.000000000000000
 51
320.631038306637150
  0
LINE
  8
0
  6
CONTINUOUS
 62
3
 10
121.726456966566730
 20
-100.217448153163330
 11
141.986331561122370
 21
-75.525413523659608
  0
LINE
  8
0
  6
CONTINUOUS
 62
3
 10
139.686084362654580
 20
-101.314512710087910
 11
122.936645479252540
 21
-101.314512710087910
  0
LINE
  8
0
  6
CONTINUOUS
 62
3
 10
358.570589917817870
 20
-161.754966706037520
 11
366.570589917817870
 21
-161.754966706037520
  0
LINE
  8
0
  6
CONTINUOUS
 62
3
 10
366.570589917817870
 20
-161.754966706037520
 11
366.570589917817870
 21
-151.754966706037520
  0
ARC
  8
0
  6
CONTINUOUS
 62
3
 10
377.570589917817870
 20
-156.754966706037520
 40
16.000000000000192
 50
198.209956864282790
 51
161.790043135717210
  0
LINE
  8
0
  6
CONTINUOUS
 62
3
 10
358.570589917817870
 20
-161.754966706037520
 11
358.570589917817870
 21
-151.754966706037520
  0
LINE
  8
0
  6
CONTINUOUS
 62
3
 10
358.570589917817870
 20
-151.754966706037520
 11
366.570589917817870
 21
-151.754966706037520
  0
CIRCLE
  8
0
  6
CONTINUOUS
 62
3
 10
377.570589917818780
 20
-156.754966706037520
 40
3.323500000000024
  0
CIRCLE
  8
0
  6
CONTINUOUS
 62
4
 10
377.570589917818780
 20
-156.754966706037520
 40
4.000000000000000
  0
LINE
  8
0
  6
CONTINUOUS
 62
3
 10
218.667099640984820
 20
-156.754966706037520
 11
218.667099640984820
 21
-141.154966706037160
  0
ARC
  8
0
  6
CONTINUOUS
 62
3
 10
218.267099640984720
 20
-141.154966706037160
 40
0.400000000000091
 50
0.000000000000000
 51
90.000000000000000
  0
LINE
  8
0
  6
CONTINUOUS
 62
3
 10
218.267099640984720
 20
-140.754966706037520
 11
171.226907262120220
 21
-140.754966706037520
  0
LINE
  8
0
  6
CONTINUOUS
 62
3
 10
170.667099640984820
 20
-140.904966706037160
 11
171.226907262120220
 21
-140.754966706037520
  0
LINE
  8
0
  6
CONTINUOUS
 62
3
 10
170.667099640984820
 20
-140.904966706037160
 11
169.467099640985000
 21
-140.904966706037160
  0
LINE
  8
0
  6
CONTINUOUS
 62
3
 10
166.667099640962990
 20
-139.754966706037520
 11
168.467099640985000
 21
-139.754966706037520
  0
LINE
  8
0
  6
CONTINUOUS
 62
3
 10
168.667099640984820
 20
-139.954966706037340
 11
168.667099640984820
 21
-156.754966706037520
  0
ARC
  8
0
  6
CONTINUOUS
 62
3
 10
169.467099640985000
 20
-140.104966706037430
 40
0.800000000000237
 50
183.703196634280290
 51
270.000000000000000
  0
LINE
  8
0
  6
CONTINUOUS
 62
3
 10
168.667099640984820
 20
-139.954966706037340
 11
168.467099640985000
 21
-139.754966706037520
  0
LINE
  8
0
  6
CONTINUOUS
 62
3
 10
170.667099640984820
 20
-172.604966706037430
 11
171.226907262120220
 21
-172.754966706037520
  0
LINE
  8
0
  6
CONTINUOUS
 62
3
 10
166.667099640962990
 20
-173.754966706037520
 11
168.467099640985000
 21
-173.754966706037520
  0
LINE
  8
0
  6
CONTINUOUS
 62
3
 10
218.267099640984720
 20
-172.754966706037520
 11
171.226907262120220
 21
-172.754966706037520
  0
LINE
  8
0
  6
CONTINUOUS
 62
3
 10
170.667099640984820
 20
-172.604966706037430
 11
169.467099640985000
 21
-172.604966706037430
  0
LINE
  8
0
  6
CONTINUOUS
 62
3
 10
168.667099640984820
 20
-173.554966706037250
 11
168.667099640984820
 21
-156.754966706037520
  0
ARC
  8
0
  6
CONTINUOUS
 62
3
 10
169.467099640985000
 20
-173.404966706037160
 40
0.799999999999727
 50
90.000000000000000
 51
176.296803365752200
  0
LINE
  8
0
  6
CONTINUOUS
 62
3
 10
168.667099640984820
 20
-173.554966706037250
 11
168.467099640985000
 21
-173.754966706037520
  0
LINE
  8
0
  6
CONTINUOUS
 62
3
 10
218.667099640984820
 20
-156.754966706037520
 11
218.667099640984820
 21
-172.354966706037430
  0
ARC
  8
0
  6
CONTINUOUS
 62
3
 10
218.267099640984720
 20
-172.354966706037430
 40
0.400000000000091
 50
270.000000000000000
 51
0.000000000000000
  0
LINE
  8
0
  6
CONTINUOUS
 62
3
 10
218.667099640984820
 20
-151.754966706037520
 11
178.667099640985730
 21
-151.754966706037520
  0
LINE
  8
0
  6
CONTINUOUS
 62
3
 10
218.667099640984820
 20
-161.754966706037520
 11
178.667099640985730
 21
-161.754966706037520
  0
ARC
  8
0
  6
CONTINUOUS
 62
3
 10
178.667099640985730
 20
-156.754966706037520
 40
5.000000000000000
 50
90.000000000000000
 51
270.000000000000000
  0
LINE
  8
0
  6
DASHDOT
 62
4
 10
174.303609000804500
 20
-255.749916072154520
 11
135.307616811622210
 21
-255.749916072154520
  0
LINE
  8
0
  6
DASHDOT
 62
4
 10
174.303609000804500
 20
-57.760017339920978
 11
135.307616811622210
 21
-57.760017339920978
  0
ARC
  8
0
  6
CONTINUOUS
 62
3
 10
154.667099640962990
 20
-164.754966706037520
 40
3.000000000000000
 50
90.000000000000000
 51
180.000000000000000
  0
ARC
  8
0
  6
CONTINUOUS
 62
3
 10
154.667099640962990
 20
-220.203540025351230
 40
3.000000000000000
 50
180.000000000000000
 51
270.000000000000000
  0
LINE
  8
0
  6
CONTINUOUS
 62
3
 10
151.667099640962990
 20
-164.754966706037520
 11
151.667099640962990
 21
-245.041763270440700
  0
ARC
  8
0
  6
CONTINUOUS
 62
3
 10
154.667099640962990
 20
-245.041763270440700
 40
3.000000000000000
 50
180.000000000000000
 51
270.000000000000000
  0
LINE
  8
0
  6
CONTINUOUS
 62
3
 10
158.667099640963220
 20
-248.041763270440700
 11
154.667099640962990
 21
-248.041763270440700
  0
LINE
  8
0
  6
CONTINUOUS
 62
3
 10
158.667099640963220
 20
-223.203540025351230
 11
154.667099640962990
 21
-223.203540025351230
  0
LINE
  8
0
  6
CONTINUOUS
 62
3
 10
154.667099640962990
 20
-161.754966706037520
 11
158.667099640963220
 21
-161.754966706037520
  0
ARC
  8
0
  6
CONTINUOUS
 62
3
 10
154.667099640962990
 20
-68.468170141634346
 40
3.000000000000000
 50
90.000000000000000
 51
180.000000000000000
  0
ARC
  8
0
  6
CONTINUOUS
 62
3
 10
154.667099640962990
 20
-93.306393386723812
 40
3.000000000000000
 50
90.000000000000000
 51
180.000000000000000
  0
ARC
  8
0
  6
CONTINUOUS
 62
3
 10
154.667099640962990
 20
-148.754966706037520
 40
3.000000000000000
 50
180.000000000000000
 51
270.000000000000000
  0
LINE
  8
0
  6
CONTINUOUS
 62
3
 10
154.667099640962990
 20
-151.754966706037520
 11
158.667099640963220
 21
-151.754966706037520
  0
LINE
  8
0
  6
CONTINUOUS
 62
3
 10
158.667099640963220
 20
-90.306393386723812
 11
154.667099640962990
 21
-90.306393386723812
  0
LINE
  8
0
  6
CONTINUOUS
 62
3
 10
158.667099640963220
 20
-65.468170141634346
 11
154.667099640962990
 21
-65.468170141634346
  0
LINE
  8
0
  6
CONTINUOUS
 62
3
 10
151.667099640962990
 20
-148.754966706037520
 11
151.667099640962990
 21
-68.468170141634346
  0
ARC
  8
0
  6
CONTINUOUS
 62
3
 10
144.667099640962990
 20
-267.254966706037520
 40
2.000000000000000
 50
180.000000000000000
 51
270.000000000000000
  0
ARC
  8
0
  6
CONTINUOUS
 62
3
 10
139.677466091234240
 20
-45.933163910179701
 40
3.000000000000246
 50
330.000000000002730
 51
356.309860996867310
  0
LINE
  8
0
  6
CONTINUOUS
 62
3
 10
490.070589917818320
 20
-161.754966706037520
 11
490.070589917818320
 21
-261.254966706037520
  0
LINE
  8
0
  6
CONTINUOUS
 62
3
 10
490.070589917818320
 20
-151.754966706037520
 11
490.070589917818320
 21
-161.754966706037520
  0
LINE
  8
0
  6
CONTINUOUS
 62
3
 10
490.070589917818320
 20
-52.254966706037521
 11
490.070589917818320
 21
-151.754966706037520
  0
LINE
  8
0
  6
DASHDOT
 62
4
 10
377.570589917818320
 20
-30.862968019468099
 11
377.570589917818320
 21
-297.133757221712590
  0
LINE
  8
0
  6
CONTINUOUS
 62
3
 10
374.570589917818550
 20
-60.942650170009983
 11
374.570589917818320
 21
-106.109137657635070
  0
LINE
  8
0
  6
CONTINUOUS
 62
3
 10
380.570589917818550
 20
-60.942650170009983
 11
380.570589917818320
 21
-106.109137657635070
  0
LINE
  8
0
  6
CONTINUOUS
 62
3
 10
473.382906453846320
 20
-153.754966706037520
 11
428.216418966220770
 21
-153.754966706037520
  0
LINE
  8
0
  6
CONTINUOUS
 62
3
 10
473.382906453846320
 20
-159.754966706037520
 11
428.216418966220770
 21
-159.754966706037520
  0
LINE
  8
0
  6
DASHDOT
 62
4
 10
408.754840651904940
 20
-186.754966706037520
 11
348.742568676283100
 21
-186.754966706037520
  0
LINE
  8
0
  6
CONTINUOUS
 62
3
 10
468.709801906282790
 20
-166.988364890219150
 11
468.709801906282790
 21
-194.385222591513410
  0
LINE
  8
0
  6
CONTINUOUS
 62
3
 10
162.667099640962990
 20
-156.754966706037520
 11
162.667099640962990
 21
-260.754966706037520
  0
LINE
  8
0
  6
CONTINUOUS
 62
3
 10
151.621060240776840
 20
-268.932397373375350
 11
151.621060240776840
 21
-269.254966706037520
  0
LINE
  8
0
  6
CONTINUOUS
 62
3
 10
162.667099640962990
 20
-260.754966706037520
 11
161.667099640962990
 21
-261.754966706037520
  0
LINE
  8
0
  6
CONTINUOUS
 62
3
 10
161.667099640962990
 20
-261.754966706037520
 11
158.667099640962990
 21
-261.754966706037520
  0
LINE
  8
0
  6
CONTINUOUS
 62
3
 10
161.667099640962990
 20
-51.754966706037521
 11
162.667099640962990
 21
-52.754966706037521
  0
LINE
  8
0
  6
CONTINUOUS
 62
3
 10
158.667099640962990
 20
-51.754966706037521
 11
161.667099640962990
 21
-51.754966706037521
  0
LINE
  8
0
  6
CONTINUOUS
 62
3
 10
162.667099640962990
 20
-156.754966706037520
 11
162.667099640962990
 21
-52.754966706037521
  0
LINE
  8
0
  6
CONTINUOUS
 62
3
 10
58.667099640962988
 20
-86.754966706037521
 11
130.324951139316450
 21
-84.252619391590088
  0
LINE
  8
0
  6
CONTINUOUS
 62
3
 10
121.657776400951430
 20
-83.144181990375273
 11
142.275542302587840
 21
-47.433163910179701
  0
LINE
  8
0
  6
CONTINUOUS
 62
3
 10
142.667099640962990
 20
-267.254966706037520
 11
142.667099640962990
 21
-46.254966706037521
  0
LINE
  8
0
  6
CONTINUOUS
 62
3
 10
58.667099640962988
 20
-279.754966706037520
 11
144.581828278305470
 21
-282.197975767665870
  0
LINE
  8
0
  6
CONTINUOUS
 62
3
 10
147.667099640962990
 20
-272.254966706037520
 11
147.667099640962990
 21
-279.199187880083630
  0
LINE
  8
0
  6
CONTINUOUS
 62
3
 10
144.667099640962990
 20
-44.254966706037521
 11
158.667099640962990
 21
-44.254966706037521
  0
LINE
  8
0
  6
CONTINUOUS
 62
3
 10
325.570589917818780
 20
-282.254966706037520
 11
377.570589917818780
 21
-282.254966706037520
  0
LINE
  8
0
  6
CONTINUOUS
 62
3
 10
429.570589917818320
 20
-282.254966706037520
 11
377.570589917818780
 21
-282.254966706037520
  0
LINE
  8
0
  6
CONTINUOUS
 62
3
 10
165.667099640962990
 20
-123.254966706037520
 11
166.667099640962990
 21
-123.254966706037520
  0
LINE
  8
0
  6
CONTINUOUS
 62
3
 10
165.667099640962990
 20
-190.254966706037520
 11
166.667099640962990
 21
-190.254966706037520
  0
LINE
  8
0
  6
DASHDOT
 62
4
 10
103.366115122706560
 20
-156.754966706037520
 11
238.652889813648020
 21
-156.754966706037520
  0
LINE
  8
0
  6
DASHDOT
 62
4
 10
486.606000197838060
 20
-47.719556426018244
 11
464.993014682400370
 21
-69.332541941455929
  0
LINE
  8
0
  6
CONTINUOUS
 62
3
 10
468.271600044595290
 20
-44.840753143664642
 11
449.954951563509440
 21
-63.157401624750491
  0
LINE
  8
0
  6
CONTINUOUS
 62
3
 10
489.484803480191660
 20
-66.053956579261012
 11
471.168154999105810
 21
-84.370605060346861
  0
LINE
  8
0
  6
CONTINUOUS
 62
3
 10
273.070589917818320
 20
-269.254966706037520
 11
482.070589917818320
 21
-269.254966706037520
  0
LINE
  8
0
  6
CONTINUOUS
 62
3
 10
273.070589917818320
 20
-44.254966706037521
 11
482.070589917818320
 21
-44.254966706037521
  0
LINE
  8
0
  6
CONTINUOUS
 62
3
 10
265.070589917818320
 20
-52.254966706037521
 11
265.070589917818320
 21
-261.254966706037520
  0
LINE
  8
0
  6
DASHDOT
 62
4
 10
268.555403212871400
 20
-47.739780001090594
 11
289.329464083503130
 21
-68.513840871722323
  0
LINE
  8
0
  6
CONTINUOUS
 62
3
 10
265.656376355445450
 20
-66.053956579261012
 11
283.973024836531070
 21
-84.370605060346861
  0
LINE
  8
0
  6
CONTINUOUS
 62
3
 10
286.869579791041820
 20
-44.840753143664642
 11
305.186228272127660
 21
-63.157401624750491
  0
LINE
  8
0
  6
CONTINUOUS
 62
3
 10
286.869579791041820
 20
-268.669180268410860
 11
305.186228272127660
 21
-250.352531787325010
  0
LINE
  8
0
  6
DASHDOT
 62
4
 10
486.521408336006520
 20
-265.705785124225320
 11
467.375309926507040
 21
-246.559686714726180
  0
LINE
  8
0
  6
CONTINUOUS
 62
3
 10
489.484803480191660
 20
-247.455976832814490
 11
471.168154999105810
 21
-229.139328351728640
  0
LINE
  8
0
  6
CONTINUOUS
 62
3
 10
468.271600044595290
 20
-268.669180268410860
 11
449.954951563509440
 21
-250.352531787325010
  0
LINE
  8
0
  6
CONTINUOUS
 62
3
 10
166.667099640962990
 20
-190.254966706037520
 11
166.667099640962990
 21
-123.254966706037520
  0
LINE
  8
0
  6
CONTINUOUS
 62
3
 10
158.667099640963220
 20
-156.754966706037520
 11
158.667099640962990
 21
-44.254966706037521
  0
LINE
  8
0
  6
CONTINUOUS
 62
3
 10
58.667099640962988
 20
-279.754966706037520
 11
58.667099640962988
 21
-86.754966706037521
  0
LINE
  8
0
  6
CONTINUOUS
 62
3
 10
158.667099640962990
 20
-269.254966706037520
 11
144.667099640962990
 21
-269.254966706037520
  0
LINE
  8
0
  6
CONTINUOUS
 62
3
 10
164.667099640962990
 20
-156.754966706037520
 11
164.667099640962990
 21
-201.908073005893130
  0
LINE
  8
0
  6
CONTINUOUS
 62
3
 10
164.667099640962990
 20
-156.754966706037520
 11
164.667099640962990
 21
-111.601860406182360
  0
LINE
  8
0
  6
CONTINUOUS
 62
3
 10
158.667099640962990
 20
-156.754966706037520
 11
158.667099640962990
 21
-269.254966706037980
  0
ARC
  8
0
  6
CONTINUOUS
 62
3
 10
377.570589917818320
 20
-156.754966706037520
 40
109.999999999999600
 50
147.024699180565850
 51
176.212931966134700
  0
ARC
  8
0
  6
CONTINUOUS
 62
3
 10
377.570589917818320
 20
-156.754966706037520
 40
110.000000000000220
 50
327.024699180565790
 51
356.436697168476600
  0
ARC
  8
0
  6
CONTINUOUS
 62
3
 10
377.570589917818320
 20
-156.754966706037520
 40
110.000000000000090
 50
3.787068033865307
 51
32.975300819434004
  0
ARC
  8
0
  6
CONTINUOUS
 62
3
 10
264.817336576246130
 20
-149.291464787286710
 40
3.000000000000147
 50
296.785437820008440
 51
356.212931966127880
  0
ARC
  8
0
  6
CONTINUOUS
 62
3
 10
267.070589917818320
 20
-153.754966706037980
 40
2.000000000000098
 50
116.785437820008410
 51
180.000000000000000
  0
ARC
  8
0
  6
CONTINUOUS
 62
3
 10
264.789048275934650
 20
-163.778061812899980
 40
2.999999999999995
 50
3.563302831523953
 51
56.843785530307450
  0
ARC
  8
0
  6
CONTINUOUS
 62
3
 10
268.070589917818320
 20
-158.754966706037980
 40
3.000000000000000
 50
180.000000000000000
 51
236.843785530306350
  0
ARC
  8
0
  6
CONTINUOUS
 62
3
 10
490.352131559702230
 20
-163.778061812899980
 40
3.000000000000153
 50
123.156214469692540
 51
176.436697168476060
  0
ARC
  8
0
  6
CONTINUOUS
 62
3
 10
487.070589917818320
 20
-158.754966706037520
 40
3.000000000000153
 50
303.156214469692540
 51
0.000000000000000
  0
ARC
  8
0
  6
CONTINUOUS
 62
3
 10
490.323843259390740
 20
-149.291464787286710
 40
2.999999999999937
 50
183.787068033872120
 51
243.214562179991560
  0
ARC
  8
0
  6
CONTINUOUS
 62
3
 10
488.070589917818320
 20
-153.754966706037520
 40
2.000000000000000
 50
0.000000000000000
 51
63.214562179979900
  0
ARC
  8
0
  6
CONTINUOUS
 62
3
 10
371.570589917818550
 20
-92.652183041970147
 40
2.999999999999773
 50
0.000000000000000
 51
90.695721199139356
  0
ARC
  8
0
  6
CONTINUOUS
 62
3
 10
377.570589917818550
 20
-586.754966706037520
 40
497.139211988464010
 50
90.695721199138291
 51
91.910213171709984
  0
ARC
  8
0
  6
CONTINUOUS
 62
3
 10
383.570589917818550
 20
-92.652183041970147
 40
2.999999999999991
 50
89.304278800864978
 51
180.000000000000000
  0
ARC
  8
0
  6
CONTINUOUS
 62
3
 10
377.570589917818320
 20
-586.754966706037520
 40
497.139211988463840
 50
88.089786828290016
 51
89.304278800861709
  0
ARC
  8
0
  6
CONTINUOUS
 62
3
 10
371.570589917818550
 20
-60.942650170009983
 40
3.000000000000000
 50
0.000000000000000
 51
93.583321698471892
  0
ARC
  8
0
  6
CONTINUOUS
 62
3
 10
383.570589917818550
 20
-60.942650170009983
 40
3.000000000000075
 50
86.416678301528108
 51
180.000000000000000
  0
ARC
  8
0
  6
CONTINUOUS
 62
3
 10
383.570589917818320
 20
-106.109137657635070
 40
3.000000000000000
 50
180.000000000000000
 51
263.243672969414940
  0
ARC
  8
0
  6
CONTINUOUS
 62
3
 10
371.570589917818320
 20
-106.109137657635070
 40
3.000000000000444
 50
276.756327030589380
 51
0.000000000000000
  0
ARC
  8
0
  6
CONTINUOUS
 62
3
 10
391.570589917818780
 20
-166.988364890219150
 40
77.139211988464012
 50
0.000000000000000
 51
1.774135555319842
  0
ARC
  8
0
  6
CONTINUOUS
 62
3
 10
391.570589917818780
 20
-166.988364890219150
 40
77.139211988464112
 50
14.640477209921681
 51
31.372166333680646
  0
ARC
  8
0
  6
CONTINUOUS
 62
3
 10
428.216418966220770
 20
-162.754966706037520
 40
3.000000000000000
 50
90.000000000000000
 51
173.243672969418210
  0
ARC
  8
0
  6
CONTINUOUS
 62
3
 10
428.216418966220770
 20
-150.754966706037520
 40
2.999999999999992
 50
186.756327030590430
 51
270.000000000000000
  0
ARC
  8
0
  6
CONTINUOUS
 62
3
 10
473.382906453846320
 20
-150.754966706037520
 40
3.000000000000000
 50
270.000000000000000
 51
3.583321698471884
  0
ARC
  8
0
  6
CONTINUOUS
 62
3
 10
473.382906453846320
 20
-162.754966706037520
 40
3.000000000000075
 50
356.416678301528120
 51
90.000000000000000
  0
ARC
  8
0
  6
CONTINUOUS
 62
3
 10
461.367503151669330
 20
-148.754966706037520
 40
5.000000000000000
 50
270.000000000000000
 51
14.640477209919299
  0
ARC
  8
0
  6
CONTINUOUS
 62
3
 10
463.675221106581380
 20
-164.754966706037520
 40
4.999999999999986
 50
1.774135555318083
 51
90.000000000000000
  0
ARC
  8
0
  6
CONTINUOUS
 62
3
 10
337.770874445260230
 20
-191.754718823779970
 40
4.999999999999969
 50
308.284839477505780
 51
41.328301793388754
  0
ARC
  8
0
  6
CONTINUOUS
 62
3
 10
454.175386522296320
 20
-211.231614337721110
 40
4.999999999999943
 50
185.724045726879840
 51
324.581888853422470
  0
ARC
  8
0
  6
CONTINUOUS
 62
3
 10
416.364862118177370
 20
-215.021633372703950
 40
33.000000000000149
 50
5.724045726881005
 51
75.297858639473745
  0
ARC
  8
0
  6
CONTINUOUS
 62
3
 10
426.009037723276830
 20
-178.265819180960080
 40
4.999999999999789
 50
156.054647304130040
 51
255.297858639474210
  0
ARC
  8
0
  6
CONTINUOUS
 62
3
 10
448.134055305668200
 20
-218.858085407578980
 40
5.000000000000110
 50
173.114296223340490
 51
318.648896542795460
  0
ARC
  8
0
  6
CONTINUOUS
 62
3
 10
423.177456516323450
 20
-183.755220761623600
 40
5.000000000000131
 50
149.373547225009280
 51
257.708022749950660
  0
ARC
  8
0
  6
CONTINUOUS
 62
3
 10
416.364862118177370
 20
-215.021633372703950
 40
27.000000000000107
 50
353.114296223340200
 51
77.708022749951269
  0
ARC
  8
0
  6
CONTINUOUS
 62
3
 10
329.401458647949310
 20
-237.475068246522370
 40
4.999999999999703
 50
239.173668330593100
 51
18.872128672724504
  0
ARC
  8
0
  6
CONTINUOUS
 62
3
 10
364.412442816128990
 20
-225.507153324721000
 40
31.999999999999872
 50
127.256131004967170
 51
198.872128672720690
  0
ARC
  8
0
  6
CONTINUOUS
 62
3
 10
342.013413831555910
 20
-196.057475897825040
 40
4.999999999999726
 50
307.256131004969010
 51
47.864198486307934
  0
ARC
  8
0
  6
CONTINUOUS
 62
3
 10
463.709801906282790
 20
-194.385222591513410
 40
5.000000000000139
 50
336.401698263638880
 51
0.000000000000000
  0
ARC
  8
0
  6
CONTINUOUS
 62
3
 10
164.667099640962990
 20
-207.104215623128770
 40
2.999999999999984
 50
120.000187270170780
 51
131.810314895779530
  0
ARC
  8
0
  6
CONTINUOUS
 62
3
 10
161.667082657453420
 20
-201.908073005893130
 40
2.999999999999871
 50
300.000187270167030
 51
0.000000000000000
  0
ARC
  8
0
  6
CONTINUOUS
 62
3
 10
119.059700189598060
 20
-81.644181990375273
 40
3.000000000000001
 50
272.000000000003640
 51
330.000000000000570
  0
ARC
  8
0
  6
CONTINUOUS
 62
3
 10
150.667099640962990
 20
-272.254966706037520
 40
3.000000000000000
 50
90.000000000000000
 51
180.000000000000000
  0
ARC
  8
0
  6
CONTINUOUS
 62
3
 10
144.667099640962990
 20
-279.199187880083630
 40
2.999999999999903
 50
268.371217566509590
 51
0.000000000000000
  0
CIRCLE
  8
0
  6
CONTINUOUS
 62
3
 10
377.570589917818780
 20
-156.754966706037520
 40
33.500000000000000
  0
ARC
  8
0
  6
CONTINUOUS
 62
3
 10
144.667099640962990
 20
-46.254966706037521
 40
2.000000000000000
 50
90.000000000000000
 51
180.000000000000000
  0
ARC
  8
0
  6
CONTINUOUS
 62
3
 10
307.579292847607580
 20
-270.314636011447870
 40
5.469260394190242
 50
1.781769897912350
 51
11.246070515048286
  0
ARC
  8
0
  6
CONTINUOUS
 62
3
 10
447.561886988029530
 20
-270.314636011447870
 40
5.433559099403096
 50
168.753929484950930
 51
178.218230102085810
  0
ARC
  8
0
  6
CONTINUOUS
 62
3
 10
325.570589917818780
 20
-269.754966706037520
 40
12.530739605810000
 50
181.781769897913190
 51
270.000000000000000
  0
ARC
  8
0
  6
CONTINUOUS
 62
3
 10
429.570589917818320
 20
-269.754966706037520
 40
12.566440900597172
 50
270.000000000000000
 51
358.218230102087600
  0
ARC
  8
0
  6
CONTINUOUS
 62
3
 10
165.667099640962990
 20
-191.254966706037520
 40
1.000000000000000
 50
90.000000000000000
 51
180.000000000000000
  0
ARC
  8
0
  6
CONTINUOUS
 62
3
 10
161.667099640962990
 20
-111.601860406182360
 40
3.000000000000000
 50
0.000000000000000
 51
70.528779365509465
  0
ARC
  8
0
  6
CONTINUOUS
 62
3
 10
377.570589917818320
 20
-156.754966706037520
 40
109.999999999999850
 50
57.024699180565683
 51
90.000000000000000
  0
ARC
  8
0
  6
CONTINUOUS
 62
3
 10
442.883883751644130
 20
-56.086333812884732
 40
10.000000000000284
 50
237.024699180565620
 51
314.999999999998120
  0
ARC
  8
0
  6
CONTINUOUS
 62
3
 10
478.239222810971110
 20
-91.441672872212166
 40
9.999999999999758
 50
135.000000000000000
 51
212.975300819435770
  0
ARC
  8
0
  6
CONTINUOUS
 62
3
 10
482.070589917818320
 20
-52.254966706037521
 40
8.000000000000000
 50
0.000000000000000
 51
90.000000000000000
  0
ARC
  8
0
  6
DASHDOT
 62
4
 10
377.570589917818320
 20
-156.754966706037520
 40
140.000000000000000
 50
39.861442625687346
 51
50.245706383595447
  0
CIRCLE
  8
0
  6
CONTINUOUS
 62
3
 10
476.565539283935320
 20
-57.760017339920978
 40
7.500000000000000
  0
ARC
  8
0
  6
CONTINUOUS
 62
3
 10
469.685813606968170
 20
-46.254966706037521
 40
2.000000000000000
 50
90.000000000000000
 51
135.000000000000000
  0
ARC
  8
0
  6
CONTINUOUS
 62
3
 10
488.070589917818320
 20
-64.639743016888133
 40
2.000000000000016
 50
315.000000000009210
 51
0.000000000000000
  0
ARC
  8
0
  6
CONTINUOUS
 62
3
 10
273.070589917818320
 20
-261.254966706037520
 40
8.000000000000000
 50
180.000000000000000
 51
270.000000000000000
  0
ARC
  8
0
  6
CONTINUOUS
 62
3
 10
482.070589917818320
 20
-261.254966706037520
 40
8.000000000000000
 50
270.000000000000000
 51
0.000000000000000
  0
ARC
  8
0
  6
CONTINUOUS
 62
3
 10
273.070589917818320
 20
-52.254966706037521
 40
8.000000000000000
 50
90.000000000000000
 51
180.000000000000000
  0
ARC
  8
0
  6
CONTINUOUS
 62
3
 10
276.901957024665530
 20
-91.441672872212166
 40
10.000000000000284
 50
327.024699180565620
 51
44.999999999999083
  0
ARC
  8
0
  6
CONTINUOUS
 62
3
 10
377.570589917818320
 20
-156.754966706037520
 40
110.000000000000000
 50
90.000000000000000
 51
122.975300819434110
  0
ARC
  8
0
  6
CONTINUOUS
 62
3
 10
312.257296083992970
 20
-56.086333812884732
 40
10.000000000000082
 50
225.000000000001850
 51
302.975300819434380
  0
ARC
  8
0
  6
CONTINUOUS
 62
3
 10
267.070589917818320
 20
-64.639743016888133
 40
2.000000000000000
 50
180.000000000000000
 51
225.000000000000000
  0
ARC
  8
0
  6
DASHDOT
 62
4
 10
377.570589917818320
 20
-156.754966706037520
 40
139.999999999999970
 50
129.603526372502730
 51
140.502896119009340
  0
CIRCLE
  8
0
  6
CONTINUOUS
 62
3
 10
278.575640551701780
 20
-57.760017339920978
 40
7.500000000000000
  0
ARC
  8
0
  6
CONTINUOUS
 62
3
 10
285.455366228668710
 20
-46.254966706037521
 40
1.999999999999855
 50
44.999999999995396
 51
90.000000000000000
  0
ARC
  8
0
  6
CONTINUOUS
 62
3
 10
377.570589917818320
 20
-156.754966706037520
 40
109.999999999999980
 50
237.024699180566050
 51
270.000000000000000
  0
ARC
  8
0
  6
CONTINUOUS
 62
3
 10
312.257296083992970
 20
-257.423599599190310
 40
9.999999999999902
 50
57.024699180564248
 51
135.000000000000000
  0
ARC
  8
0
  6
CONTINUOUS
 62
3
 10
267.070589917818320
 20
-248.870190395187360
 40
1.999999999999694
 50
135.000000000000000
 51
180.000000000000000
  0
ARC
  8
0
  6
DASHDOT
 62
4
 10
377.570589917818320
 20
-156.754966706037520
 40
140.000000000000030
 50
219.670619609464750
 51
230.317480547681410
  0
CIRCLE
  8
0
  6
CONTINUOUS
 62
3
 10
278.575640551701780
 20
-255.749916072154060
 40
7.500000000000000
  0
ARC
  8
0
  6
CONTINUOUS
 62
3
 10
285.455366228668710
 20
-267.254966706037520
 40
2.000000000000000
 50
270.000000000000000
 51
314.999999999995400
  0
ARC
  8
0
  6
CONTINUOUS
 62
3
 10
478.239222810971110
 20
-222.068260539863330
 40
9.999999999999902
 50
147.024699180564230
 51
225.000000000000000
  0
ARC
  8
0
  6
CONTINUOUS
 62
3
 10
377.570589917818320
 20
-156.754966706037520
 40
110.000000000000000
 50
270.000000000000000
 51
302.975300819434150
  0
ARC
  8
0
  6
CONTINUOUS
 62
3
 10
442.883883751644130
 20
-257.423599599190310
 40
9.999999999999758
 50
45.000000000000000
 51
122.975300819435740
  0
ARC
  8
0
  6
CONTINUOUS
 62
3
 10
488.070589917818320
 20
-248.870190395187360
 40
2.000000000000000
 50
0.000000000000000
 51
44.999999999990798
  0
ARC
  8
0
  6
DASHDOT
 62
4
 10
377.570589917818320
 20
-156.754966706037520
 40
140.000000000000030
 50
309.356931971768060
 51
320.325838107893280
  0
CIRCLE
  8
0
  6
CONTINUOUS
 62
3
 10
476.565539283935320
 20
-255.749916072154060
 40
7.500000000000000
  0
ARC
  8
0
  6
CONTINUOUS
 62
3
 10
469.685813606968170
 20
-267.254966706037520
 40
2.000000000000016
 50
225.000000000009210
 51
270.000000000000000
  0
CIRCLE
  8
0
  6
CONTINUOUS
 62
3
 10
377.570589917818320
 20
-156.754966706037520
 40
48.000000000000000
  0
CIRCLE
  8
0
  6
CONTINUOUS
 62
3
 10
377.570589917818780
 20
-156.754966706037520
 40
23.500000000000000
  0
ARC
  8
0
  6
CONTINUOUS
 62
3
 10
165.667099640962990
 20
-122.254966706037520
 40
1.000000000000000
 50
180.000000000000000
 51
270.000000000000000
  0
LINE
  8
0
  6
CONTINUOUS
 62
3
 10
30.667099640966171
 20
-51.754966706037521
 11
35.167099640966171
 21
-51.754966706037521
  0
LINE
  8
0
  6
DASHDOT
 62
4
 10
24.936852240149619
 20
-71.754966706037521
 11
43.036118255441124
 21
-71.754966706037521
  0
LINE
  8
0
  6
CONTINUOUS
 62
3
 10
35.167099640966171
 20
-51.754966706037521
 11
35.167099640966171
 21
-105.754966706037520
  0
LINE
  8
0
  6
CONTINUOUS
 62
3
 10
30.667099640962533
 20
-105.754966706037520
 11
30.667099640966171
 21
-51.754966706037521
  0
LINE
  8
0
  6
CONTINUOUS
 62
3
 10
30.667099640962533
 20
-105.754966706037520
 11
35.167099640962533
 21
-105.754966706037520
  0
LINE
  8
0
  6
CONTINUOUS
 62
3
 10
38.167099640964352
 20
-124.648160206287680
 11
38.167099640966512
 21
-109.948727608120800
  0
ARC
  8
0
  6
CONTINUOUS
 62
3
 10
38.167099640965262
 20
-104.754966706037520
 40
3.000000000000000
 50
180.000000000000000
 51
240.000010515703510
  0
LINE
  8
0
  6
CONTINUOUS
 62
3
 10
23.667099640961624
 20
-206.754966706037520
 11
46.167099640959805
 21
-206.754966706037520
  0
LINE
  8
0
  6
CONTINUOUS
 62
3
 10
23.667099640961624
 20
-166.754966706037520
 11
44.167099640959805
 21
-166.754966706037520
  0
ARC
  8
0
  6
CONTINUOUS
 62
3
 10
44.167099640959805
 20
-152.290865090899840
 40
1.999999999999770
 50
300.000000000003810
 51
0.000000000000000
  0
ARC
  8
0
  6
CONTINUOUS
 62
3
 10
46.167099640959805
 20
-155.754966706037520
 40
2.000000000000164
 50
119.999999999997270
 51
180.000000000000000
  0
ARC
  8
0
  6
CONTINUOUS
 62
3
 10
44.167099640959805
 20
-171.219068321175200
 40
2.000000000000000
 50
0.000000000000000
 51
59.999999999996206
  0
ARC
  8
0
  6
CONTINUOUS
 62
3
 10
46.167099640959805
 20
-167.754966706037520
 40
2.000000000000000
 50
180.000000000000000
 51
240.000000000002730
  0
LINE
  8
0
  6
CONTINUOUS
 62
3
 10
44.167099640959805
 20
-155.754966706037520
 11
44.167099640959805
 21
-167.754966706037520
  0
ARC
  8
0
  6
CONTINUOUS
 62
3
 10
43.167099640964352
 20
-124.228897972023330
 40
2.999999999999901
 50
272.999999999988290
 51
0.000000000000000
  0
LINE
  8
0
  6
CONTINUOUS
 62
3
 10
46.167099640959805
 20
-89.754966706036612
 11
46.167099640959805
 21
-152.290865090899840
  0
LINE
  8
0
  6
CONTINUOUS
 62
3
 10
58.167099640961624
 20
-186.754966706037520
 11
58.167099640966171
 21
-86.754966706037521
  0
LINE
  8
0
  6
CONTINUOUS
 62
3
 10
58.167099640959805
 20
-186.754966706037520
 11
58.167099640959805
 21
-279.754966706037520
  0
LINE
  8
0
  6
CONTINUOUS
 62
3
 10
23.667099640961624
 20
-186.754966706036160
 11
23.667099640961624
 21
-248.247860953121740
  0
LINE
  8
0
  6
CONTINUOUS
 62
3
 10
23.667099640961624
 20
-186.754966706036160
 11
23.667099640961624
 21
-128.254966706036160
  0
LINE
  8
0
  6
CONTINUOUS
 62
3
 10
43.324107509693476
 20
-127.224786576286980
 11
23.667099640961624
 21
-128.254966706036610
  0
ARC
  8
0
  6
CONTINUOUS
 62
3
 10
48.167099640959805
 20
-277.754966706037520
 40
2.000000000000000
 50
180.000000000000000
 51
270.000000000000000
  0
ARC
  8
0
  6
CONTINUOUS
 62
3
 10
43.167099640959805
 20
-252.273929687134570
 40
3.000000000000000
 50
0.000000000000000
 51
86.999999999994344
  0
ARC
  8
0
  6
CONTINUOUS
 62
3
 10
35.167099640964352
 20
-124.648160206287680
 40
2.999999999999901
 50
272.999999999988290
 51
0.000000000000000
  0
ARC
  8
0
  6
CONTINUOUS
 62
3
 10
38.167099640966171
 20
-89.754966706036157
 40
3.000000000000000
 50
90.000000000000000
 51
179.999999999991330
  0
ARC
  8
0
  6
CONTINUOUS
 62
3
 10
49.167099640966171
 20
-89.754966706036612
 40
3.000000000000000
 50
90.000000000000000
 51
180.000000000000000
  0
LINE
  8
0
  6
CONTINUOUS
 62
3
 10
23.667099640961624
 20
-248.247860953121740
 11
43.324107509688929
 21
-249.278041082870910
  0
LINE
  8
0
  6
CONTINUOUS
 62
3
 10
58.167099640959805
 20
-279.754966706037520
 11
48.167099640959805
 21
-279.754966706037520
  0
LINE
  8
0
  6
CONTINUOUS
 62
3
 10
58.167099640966171
 20
-86.754966706037521
 11
38.167099640966171
 21
-86.754966706036157
  0
LINE
  8
0
  6
CONTINUOUS
 62
3
 10
35.167099640965262
 20
-104.754966706037520
 11
35.167099640966171
 21
-89.754966706035702
  0
LINE
  8
0
  6
CONTINUOUS
 62
3
 10
46.167099640959805
 20
-171.219068321175200
 11
46.167099640959805
 21
-277.754966706037520
  0
LINE
  8
0
  6
CONTINUOUS
 62
3
 10
23.667099640961624
 20
-128.254966706036160
 11
23.667099640961624
 21
-186.754966706036160
  0
LINE
  8
0
  6
CONTINUOUS
 62
3
 10
23.667099640961624
 20
-245.254966706036160
 11
23.667099640961624
 21
-186.754966706036160
  0
LINE
  8
0
  6
CONTINUOUS
 62
3
 10
23.607888109567284
 20
-186.696906035620490
 11
23.607888109567284
 21
-248.189800282706070
  0
LINE
  8
0
  6
CONTINUOUS
 62
3
 10
23.607888109567284
 20
-186.696906035620490
 11
23.607888109567284
 21
-128.196906035620490
  0
ENDSEC
  0
EOF
