  0
SECTION
  2
HEADER
  9
$FILLMODE
 70
1
  9
$TEXTSTYLE
  7
STANDARD1
  9
$ACADVER
  1
AC1009
  9
$DIMASZ
 40
1.931851648807023
  9
$DIMEXE
 40
2.000000000000000
  9
$DIMEXO
 40
1.000000000000000
  9
$DIMLFAC
 40
1.000000000000000
  9
$DIMSCALE
 40
1.000000000000000
  9
$DIMTAD
 70
1
  9
$DIMTFAC
 40
0.714285731315613
  9
$DIMTXT
 40
3.200000047683716
  9
$LUPREC
 70
3
  9
$TEXTSIZE
 40
3.299999952316284
  9
$REGENMODE
 70
1
  0
ENDSEC
  0
SECTION
  2
TABLES
  0
TABLE
  2
LTYPE
 70
4
  0
LTYPE
  2
CONTINUOUS
 70
64
  3
Solid line
 72
65
 73
0
 40
0.0
  0
LTYPE
  2
DASHED
 70
64
  3
-- -- -- -- -- -- -- -- -- -- -- -- -- -- --
 72
65
 73
2
 40
0.75
 49
0.5
 49
-0.25
  0
LTYPE
  2
DASHDOT
 70
64
  3
__ . __ . __ . __ . __ . __ . __ . __ . __ . __
 72
65
 73
4
 40
1.0
 49
0.5
 49
-0.25
 49
0.0
 49
-0.25
  0
LTYPE
  2
DIVIDE
 70
64
  3
__ . . __ . . __ . . __ . . __ . . __ . . __
 72
65
 73
6
 40
1.25
 49
0.5
 49
-0.25
 49
0.0
 49
-0.25
 49
0.0
 49
-0.25
  0
ENDTAB
  0
TABLE
  2
LAYER
 70
1
  0
LAYER
  2
0
 70
64
 62
2
  6
CONTINUOUS
  0
ENDTAB
  0
TABLE
  2
STYLE
 70
4
  0
STYLE
  2
STANDARD1
 70
64
 40
0.0
 41
1.0
 50
0.0
 71
0
 42
3.299999952316284
  3
MONOTXT
  4
BIGFONT
  0
STYLE
  2
STANDARD2
 70
68
 40
0.0
 41
1.0
 50
0.0
 71
0
 42
3.299999952316284
  3
MONOTXT
  4
BIGFONT
  0
STYLE
  2
STANDARD3
 70
64
 40
0.0
 41
1.0
 50
0.0
 71
0
 42
3.299999952316284
  3
MONOTXT
  4

  0
STYLE
  2
STANDARD4
 70
68
 40
0.0
 41
1.0
 50
0.0
 71
0
 42
3.299999952316284
  3
MONOTXT
  4

  0
ENDTAB
  0
TABLE
  2
VIEW
 70
0
  0
ENDTAB
  0
ENDSEC
  0
SECTION
  2
BLOCKS
  0
BLOCK
  8
0
  2
SYM1
 70
64
 10
0.000000000000000
 20
0.000000000000000
  0
POINT
  8
0
  6
CONTINUOUS
 62
3
 10
0.000000000000000
 20
0.000000000000000
  0
LINE
  8
0
  6
CONTINUOUS
 62
3
 10
0.000000000000000
 20
-6.500000000000000
 11
-0.000000000000000
 21
6.500000000000000
  0
LINE
  8
0
  6
CONTINUOUS
 62
3
 10
-7.999999046325684
 20
5.633875846862793
 11
-7.999999046325684
 21
-5.634070396423340
  0
LINE
  8
0
  6
CONTINUOUS
 62
3
 10
0.000000000000000
 20
6.500000000000000
 11
-7.499999046325684
 21
6.500000000000000
  0
LINE
  8
0
  6
CONTINUOUS
 62
3
 10
-0.000000000000000
 20
-6.500000000000000
 11
-7.499998092651367
 21
-6.500000000000000
  0
LINE
  8
0
  6
CONTINUOUS
 62
3
 10
-7.499999203818277
 20
6.499999909101064
 11
-7.999999021366804
 21
5.633876130311293
  0
LINE
  8
0
  6
CONTINUOUS
 62
3
 10
-7.499997911632022
 20
-6.499999445138201
 11
-7.999998623386432
 21
-5.634070287011241
  0
LINE
  8
0
  6
CONTINUOUS
 62
3
 10
-7.499999046325684
 20
6.500000000000000
 11
-7.499999046325684
 21
-6.500000000000000
  0
ENDBLK
  8
0
  0
BLOCK
  8
0
  2
SYM2
 70
64
 10
0.000000000000000
 20
0.000000000000000
  0
POINT
  8
0
  6
CONTINUOUS
 62
3
 10
0.000000000000000
 20
0.000000000000000
  0
LINE
  8
0
  6
CONTINUOUS
 62
3
 10
0.000000000000000
 20
5.000000000000000
 11
0.000000000000000
 21
-5.000000000000000
  0
LINE
  8
0
  6
CONTINUOUS
 62
3
 10
-6.000000000000000
 20
-5.000000000000000
 11
-6.000000000000000
 21
5.000000000000000
  0
LINE
  8
0
  6
CONTINUOUS
 62
3
 10
0.000000000000000
 20
5.000000000000000
 11
-6.000000000000000
 21
5.000000000000000
  0
LINE
  8
0
  6
CONTINUOUS
 62
3
 10
-0.000000000000000
 20
-5.000000000000000
 11
-6.000000000000000
 21
-5.000000000000000
  0
ENDBLK
  8
0
  0
BLOCK
  8
0
  2
SYM3
 70
64
 10
0.000000000000000
 20
0.000000000000000
  0
POINT
  8
0
  6
CONTINUOUS
 62
3
 10
0.000000000000000
 20
0.000000000000000
  0
LINE
  8
0
  6
CONTINUOUS
 62
3
 10
0.000000000000000
 20
-6.500000000000000
 11
-0.000000000000000
 21
6.500000000000000
  0
LINE
  8
0
  6
CONTINUOUS
 62
3
 10
-7.999999046325684
 20
5.633875846862793
 11
-7.999999046325684
 21
-5.634070396423340
  0
LINE
  8
0
  6
CONTINUOUS
 62
3
 10
0.000000000000000
 20
6.500000000000000
 11
-7.499999046325684
 21
6.500000000000000
  0
LINE
  8
0
  6
CONTINUOUS
 62
3
 10
-0.000000000000000
 20
-6.500000000000000
 11
-7.499998092651367
 21
-6.500000000000000
  0
LINE
  8
0
  6
CONTINUOUS
 62
3
 10
-7.499999203818277
 20
6.499999909101064
 11
-7.999999021366804
 21
5.633876130311293
  0
LINE
  8
0
  6
CONTINUOUS
 62
3
 10
-7.499997911632022
 20
-6.499999445138201
 11
-7.999998623386432
 21
-5.634070287011241
  0
LINE
  8
0
  6
CONTINUOUS
 62
3
 10
-7.499999046325684
 20
6.500000000000000
 11
-7.499999046325684
 21
-6.500000000000000
  0
ENDBLK
  8
0
  0
BLOCK
  8
0
  2
SYM4
 70
64
 10
0.000000000000000
 20
0.000000000000000
  0
POINT
  8
0
  6
CONTINUOUS
 62
3
 10
0.000000000000000
 20
0.000000000000000
  0
LINE
  8
0
  6
CONTINUOUS
 62
3
 10
0.000000000000000
 20
5.000000000000000
 11
0.000000000000000
 21
-5.000000000000000
  0
LINE
  8
0
  6
CONTINUOUS
 62
3
 10
-6.000000000000000
 20
-5.000000000000000
 11
-6.000000000000000
 21
5.000000000000000
  0
LINE
  8
0
  6
CONTINUOUS
 62
3
 10
0.000000000000000
 20
5.000000000000000
 11
-6.000000000000000
 21
5.000000000000000
  0
LINE
  8
0
  6
CONTINUOUS
 62
3
 10
-0.000000000000000
 20
-5.000000000000000
 11
-6.000000000000000
 21
-5.000000000000000
  0
ENDBLK
  8
0
  0
BLOCK
  8
0
  2
SYM5
 70
64
 10
0.000000000000000
 20
0.000000000000000
  0
POINT
  8
0
  6
CONTINUOUS
 62
3
 10
0.000000000000000
 20
0.000000000000000
  0
LINE
  8
0
  6
CONTINUOUS
 62
3
 10
0.000000000000000
 20
-6.500000000000000
 11
-0.000000000000000
 21
6.500000000000000
  0
LINE
  8
0
  6
CONTINUOUS
 62
3
 10
-7.999999046325684
 20
5.633875846862793
 11
-7.999999046325684
 21
-5.634070396423340
  0
LINE
  8
0
  6
CONTINUOUS
 62
3
 10
0.000000000000000
 20
6.500000000000000
 11
-7.499999046325684
 21
6.500000000000000
  0
LINE
  8
0
  6
CONTINUOUS
 62
3
 10
-0.000000000000000
 20
-6.500000000000000
 11
-7.499998092651367
 21
-6.500000000000000
  0
LINE
  8
0
  6
CONTINUOUS
 62
3
 10
-7.499999203818277
 20
6.499999909101064
 11
-7.999999021366804
 21
5.633876130311293
  0
LINE
  8
0
  6
CONTINUOUS
 62
3
 10
-7.499997911632022
 20
-6.499999445138201
 11
-7.999998623386432
 21
-5.634070287011241
  0
LINE
  8
0
  6
CONTINUOUS
 62
3
 10
-7.499999046325684
 20
6.500000000000000
 11
-7.499999046325684
 21
-6.500000000000000
  0
ENDBLK
  8
0
  0
BLOCK
  8
0
  2
SYM6
 70
64
 10
0.000000000000000
 20
0.000000000000000
  0
POINT
  8
0
  6
CONTINUOUS
 62
3
 10
0.000000000000000
 20
0.000000000000000
  0
LINE
  8
0
  6
CONTINUOUS
 62
3
 10
0.000000000000000
 20
-6.500000000000000
 11
-0.000000000000000
 21
6.500000000000000
  0
LINE
  8
0
  6
CONTINUOUS
 62
3
 10
-7.999999046325684
 20
5.633875846862793
 11
-7.999999046325684
 21
-5.634070396423340
  0
LINE
  8
0
  6
CONTINUOUS
 62
3
 10
0.000000000000000
 20
6.500000000000000
 11
-7.499999046325684
 21
6.500000000000000
  0
LINE
  8
0
  6
CONTINUOUS
 62
3
 10
-0.000000000000000
 20
-6.500000000000000
 11
-7.499998092651367
 21
-6.500000000000000
  0
LINE
  8
0
  6
CONTINUOUS
 62
3
 10
-7.499999203818277
 20
6.499999909101064
 11
-7.999999021366804
 21
5.633876130311293
  0
LINE
  8
0
  6
CONTINUOUS
 62
3
 10
-7.499997911632022
 20
-6.499999445138201
 11
-7.999998623386432
 21
-5.634070287011241
  0
LINE
  8
0
  6
CONTINUOUS
 62
3
 10
-7.499999046325684
 20
6.500000000000000
 11
-7.499999046325684
 21
-6.500000000000000
  0
ENDBLK
  8
0
  0
BLOCK
  8
0
  2
SYM7
 70
64
 10
0.000000000000000
 20
0.000000000000000
  0
POINT
  8
0
  6
CONTINUOUS
 62
3
 10
0.000000000000000
 20
0.000000000000000
  0
LINE
  8
0
  6
CONTINUOUS
 62
3
 10
0.000000000000000
 20
-6.500000000000000
 11
-0.000000000000000
 21
6.500000000000000
  0
LINE
  8
0
  6
CONTINUOUS
 62
3
 10
-7.999999046325684
 20
5.633875846862793
 11
-7.999999046325684
 21
-5.634070396423340
  0
LINE
  8
0
  6
CONTINUOUS
 62
3
 10
0.000000000000000
 20
6.500000000000000
 11
-7.499999046325684
 21
6.500000000000000
  0
LINE
  8
0
  6
CONTINUOUS
 62
3
 10
-0.000000000000000
 20
-6.500000000000000
 11
-7.499998092651367
 21
-6.500000000000000
  0
LINE
  8
0
  6
CONTINUOUS
 62
3
 10
-7.499999203818277
 20
6.499999909101064
 11
-7.999999021366804
 21
5.633876130311293
  0
LINE
  8
0
  6
CONTINUOUS
 62
3
 10
-7.499997911632022
 20
-6.499999445138201
 11
-7.999998623386432
 21
-5.634070287011241
  0
LINE
  8
0
  6
CONTINUOUS
 62
3
 10
-7.499999046325684
 20
6.500000000000000
 11
-7.499999046325684
 21
-6.500000000000000
  0
ENDBLK
  8
0
  0
BLOCK
  8
0
  2
SYM8
 70
64
 10
0.000000000000000
 20
0.000000000000000
  0
POINT
  8
0
  6
CONTINUOUS
 62
3
 10
0.000000000000000
 20
0.000000000000000
  0
LINE
  8
0
  6
CONTINUOUS
 62
3
 10
-0.000027060931608
 20
-5.749995231614290
 11
-3.250020760774497
 21
-5.749981880178368
  0
LINE
  8
0
  6
CONTINUOUS
 62
3
 10
-3.250024308998832
 20
-5.749987011620533
 11
-4.000020133420207
 21
-4.899982163000686
  0
LINE
  8
0
  6
CONTINUOUS
 62
3
 10
-4.000014781949545
 20
-4.899978112209579
 11
-3.999973773958658
 21
4.900011588107803
  0
LINE
  8
0
  6
CONTINUOUS
 62
3
 10
-3.999972830514309
 20
4.900008662670757
 11
-3.249970339875063
 21
5.750006850331147
  0
LINE
  8
0
  6
CONTINUOUS
 62
3
 10
-3.249972343459831
 20
5.750005722029982
 11
0.000027906669402
 21
5.749993324257003
  0
LINE
  8
0
  6
CONTINUOUS
 62
3
 10
0.000023687533422
 20
5.749999046325684
 11
-0.000023687533422
 21
-5.749999046325684
  0
LINE
  8
0
  6
CONTINUOUS
 62
3
 10
-3.250009052584916
 20
-2.899986267083180
 11
-0.000013285950788
 21
-2.899999618524636
  0
LINE
  8
0
  6
CONTINUOUS
 62
3
 10
-3.249984168999890
 20
2.900012016287064
 11
0.000013133145058
 21
2.899999618522375
  0
ARC
  8
0
  6
CONTINUOUS
 62
3
 10
-2.270017623901367
 20
-4.324990272521973
 40
1.729999542236328
 50
124.499759285265280
 51
179.999745461767870
  0
ARC
  8
0
  6
CONTINUOUS
 62
3
 10
-2.269982337951660
 20
4.325008392333984
 40
1.729999542236328
 50
179.999745461767870
 51
235.499786279783790
  0
ARC
  8
0
  6
CONTINUOUS
 62
3
 10
1.981662750244141
 20
-0.000008163610801
 40
5.981661796569824
 50
150.999363302540700
 51
209.000072979481700
  0
ENDBLK
  8
0
  0
BLOCK
  8
0
  2
SYM9
 70
64
 10
0.000000000000000
 20
0.000000000000000
  0
POINT
  8
0
  6
CONTINUOUS
 62
3
 10
0.000000000000000
 20
0.000000000000000
  0
LINE
  8
0
  6
CONTINUOUS
 62
3
 10
-0.000027060931608
 20
-5.749995231614290
 11
-3.250020760774497
 21
-5.749981880178368
  0
LINE
  8
0
  6
CONTINUOUS
 62
3
 10
-3.250024308998832
 20
-5.749987011620533
 11
-4.000020133420207
 21
-4.899982163000686
  0
LINE
  8
0
  6
CONTINUOUS
 62
3
 10
-4.000014781949545
 20
-4.899978112209579
 11
-3.999973773958658
 21
4.900011588107803
  0
LINE
  8
0
  6
CONTINUOUS
 62
3
 10
-3.999972830514309
 20
4.900008662670757
 11
-3.249970339875063
 21
5.750006850331147
  0
LINE
  8
0
  6
CONTINUOUS
 62
3
 10
-3.249972343459831
 20
5.750005722029982
 11
0.000027906669402
 21
5.749993324257003
  0
LINE
  8
0
  6
CONTINUOUS
 62
3
 10
0.000023687533422
 20
5.749999046325684
 11
-0.000023687533422
 21
-5.749999046325684
  0
LINE
  8
0
  6
CONTINUOUS
 62
3
 10
-3.250009052584916
 20
-2.899986267083180
 11
-0.000013285950788
 21
-2.899999618524636
  0
LINE
  8
0
  6
CONTINUOUS
 62
3
 10
-3.249984168999890
 20
2.900012016287064
 11
0.000013133145058
 21
2.899999618522375
  0
ARC
  8
0
  6
CONTINUOUS
 62
3
 10
-2.270017623901367
 20
-4.324990272521973
 40
1.729999542236328
 50
124.499759285265280
 51
179.999745461767870
  0
ARC
  8
0
  6
CONTINUOUS
 62
3
 10
-2.269982337951660
 20
4.325008392333984
 40
1.729999542236328
 50
179.999745461767870
 51
235.499786279783790
  0
ARC
  8
0
  6
CONTINUOUS
 62
3
 10
1.981662750244141
 20
-0.000008163610801
 40
5.981661796569824
 50
150.999363302540700
 51
209.000072979481700
  0
ENDBLK
  8
0
  0
BLOCK
  8
0
  2
SYM10
 70
64
 10
0.000000000000000
 20
0.000000000000000
  0
LINE
  8
0
  6
CONTINUOUS
 62
3
 10
-7.499999046325684
 20
6.500000000000000
 11
-7.499999046325684
 21
-6.500000000000000
  0
LINE
  8
0
  6
CONTINUOUS
 62
3
 10
-7.499997911632022
 20
-6.499999445138201
 11
-7.999998623386432
 21
-5.634070287011241
  0
LINE
  8
0
  6
CONTINUOUS
 62
3
 10
-7.499999203818277
 20
6.499999909101064
 11
-7.999999021366804
 21
5.633876130311293
  0
LINE
  8
0
  6
CONTINUOUS
 62
3
 10
-0.000000000000000
 20
-6.500000000000000
 11
-7.499998092651367
 21
-6.500000000000000
  0
LINE
  8
0
  6
CONTINUOUS
 62
3
 10
0.000000000000000
 20
6.500000000000000
 11
-7.499999046325684
 21
6.500000000000000
  0
LINE
  8
0
  6
CONTINUOUS
 62
3
 10
-7.999999046325684
 20
5.633875846862793
 11
-7.999999046325684
 21
-5.634070396423340
  0
LINE
  8
0
  6
CONTINUOUS
 62
3
 10
0.000000000000000
 20
-6.500000000000000
 11
-0.000000000000000
 21
6.500000000000000
  0
POINT
  8
0
  6
CONTINUOUS
 62
3
 10
0.000000000000000
 20
0.000000000000000
  0
ENDBLK
  8
0
  0
BLOCK
  8
0
  2
SYM11
 70
64
 10
0.000000000000000
 20
0.000000000000000
  0
LINE
  8
0
  6
CONTINUOUS
 62
3
 10
-7.499999046325684
 20
6.500000000000000
 11
-7.499999046325684
 21
-6.500000000000000
  0
LINE
  8
0
  6
CONTINUOUS
 62
3
 10
-7.499997911632022
 20
-6.499999445138201
 11
-7.999998623386432
 21
-5.634070287011241
  0
LINE
  8
0
  6
CONTINUOUS
 62
3
 10
-7.499999203818277
 20
6.499999909101064
 11
-7.999999021366804
 21
5.633876130311293
  0
LINE
  8
0
  6
CONTINUOUS
 62
3
 10
-0.000000000000000
 20
-6.500000000000000
 11
-7.499998092651367
 21
-6.500000000000000
  0
LINE
  8
0
  6
CONTINUOUS
 62
3
 10
0.000000000000000
 20
6.500000000000000
 11
-7.499999046325684
 21
6.500000000000000
  0
LINE
  8
0
  6
CONTINUOUS
 62
3
 10
-7.999999046325684
 20
5.633875846862793
 11
-7.999999046325684
 21
-5.634070396423340
  0
LINE
  8
0
  6
CONTINUOUS
 62
3
 10
0.000000000000000
 20
-6.500000000000000
 11
-0.000000000000000
 21
6.500000000000000
  0
POINT
  8
0
  6
CONTINUOUS
 62
3
 10
0.000000000000000
 20
0.000000000000000
  0
ENDBLK
  8
0
  0
BLOCK
  8
0
  2
SYM12
 70
64
 10
0.000000000000000
 20
0.000000000000000
  0
LINE
  8
0
  6
CONTINUOUS
 62
3
 10
-7.499999046325684
 20
6.500000000000000
 11
-7.499999046325684
 21
-6.500000000000000
  0
LINE
  8
0
  6
CONTINUOUS
 62
3
 10
-7.499997911632022
 20
-6.499999445138201
 11
-7.999998623386432
 21
-5.634070287011241
  0
LINE
  8
0
  6
CONTINUOUS
 62
3
 10
-7.499999203818277
 20
6.499999909101064
 11
-7.999999021366804
 21
5.633876130311293
  0
LINE
  8
0
  6
CONTINUOUS
 62
3
 10
-0.000000000000000
 20
-6.500000000000000
 11
-7.499998092651367
 21
-6.500000000000000
  0
LINE
  8
0
  6
CONTINUOUS
 62
3
 10
0.000000000000000
 20
6.500000000000000
 11
-7.499999046325684
 21
6.500000000000000
  0
LINE
  8
0
  6
CONTINUOUS
 62
3
 10
-7.999999046325684
 20
5.633875846862793
 11
-7.999999046325684
 21
-5.634070396423340
  0
LINE
  8
0
  6
CONTINUOUS
 62
3
 10
0.000000000000000
 20
-6.500000000000000
 11
-0.000000000000000
 21
6.500000000000000
  0
POINT
  8
0
  6
CONTINUOUS
 62
3
 10
0.000000000000000
 20
0.000000000000000
  0
ENDBLK
  8
0
  0
BLOCK
  8
0
  2
SYM13
 70
64
 10
0.000000000000000
 20
0.000000000000000
  0
LINE
  8
0
  6
CONTINUOUS
 62
3
 10
-7.499999046325684
 20
6.500000000000000
 11
-7.499999046325684
 21
-6.500000000000000
  0
LINE
  8
0
  6
CONTINUOUS
 62
3
 10
-7.499997911632022
 20
-6.499999445138201
 11
-7.999998623386432
 21
-5.634070287011241
  0
LINE
  8
0
  6
CONTINUOUS
 62
3
 10
-7.499999203818277
 20
6.499999909101064
 11
-7.999999021366804
 21
5.633876130311293
  0
LINE
  8
0
  6
CONTINUOUS
 62
3
 10
-0.000000000000000
 20
-6.500000000000000
 11
-7.499998092651367
 21
-6.500000000000000
  0
LINE
  8
0
  6
CONTINUOUS
 62
3
 10
0.000000000000000
 20
6.500000000000000
 11
-7.499999046325684
 21
6.500000000000000
  0
LINE
  8
0
  6
CONTINUOUS
 62
3
 10
-7.999999046325684
 20
5.633875846862793
 11
-7.999999046325684
 21
-5.634070396423340
  0
LINE
  8
0
  6
CONTINUOUS
 62
3
 10
0.000000000000000
 20
-6.500000000000000
 11
-0.000000000000000
 21
6.500000000000000
  0
POINT
  8
0
  6
CONTINUOUS
 62
3
 10
0.000000000000000
 20
0.000000000000000
  0
ENDBLK
  8
0
  0
BLOCK
  8
0
  2
SYM14
 70
64
 10
0.000000000000000
 20
0.000000000000000
  0
POINT
  8
0
  6
CONTINUOUS
 62
3
 10
0.000000000000000
 20
5.633955001831055
  0
POINT
  8
0
  6
CONTINUOUS
 62
3
 10
0.500000119209290
 20
6.500000000000000
  0
LINE
  8
0
  6
CONTINUOUS
 62
3
 10
-0.000004704988612
 20
-3.464098175748802
 11
-2.999997577100373
 21
-1.732046218032735
  0
LINE
  8
0
  6
CONTINUOUS
 62
3
 10
0.000006618601731
 20
3.464096896385627
 11
2.999997425948948
 21
1.732046782136365
  0
LINE
  8
0
  6
CONTINUOUS
 62
3
 10
2.999998112093635
 20
-1.732051392778772
 11
-0.000004464412200
 21
-3.464098365415111
  0
LINE
  8
0
  6
CONTINUOUS
 62
3
 10
0.000006701720849
 20
3.464096999935236
 11
-2.999997939551520
 21
1.732051821705568
  0
LINE
  8
0
  6
CONTINUOUS
 62
3
 10
2.999996662140697
 20
1.732046953225571
 11
2.999997615814979
 21
-1.732051023458999
  0
LINE
  8
0
  6
CONTINUOUS
 62
3
 10
-2.999996662140960
 20
-1.732045999551255
 11
-2.999997615815242
 21
1.732051977133316
  0
POINT
  8
0
  6
CONTINUOUS
 62
3
 10
0.000000000000000
 20
0.000000000000000
  0
CIRCLE
  8
0
  6
CONTINUOUS
 62
3
 10
0.000000000000000
 20
0.000000000000000
 40
6.500000000000000
  0
CIRCLE
  8
0
  6
CONTINUOUS
 62
3
 10
0.000000000000000
 20
0.000000000000000
 40
5.633955001831055
  0
ENDBLK
  8
0
  0
BLOCK
  8
0
  2
SYM15
 70
64
 10
0.000000000000000
 20
0.000000000000000
  0
POINT
  8
0
  6
CONTINUOUS
 62
3
 10
0.000000000000000
 20
5.633955001831055
  0
POINT
  8
0
  6
CONTINUOUS
 62
3
 10
0.500000119209290
 20
6.500000000000000
  0
LINE
  8
0
  6
CONTINUOUS
 62
3
 10
-0.000004704988612
 20
-3.464098175748802
 11
-2.999997577100373
 21
-1.732046218032735
  0
LINE
  8
0
  6
CONTINUOUS
 62
3
 10
0.000006618601731
 20
3.464096896385627
 11
2.999997425948948
 21
1.732046782136365
  0
LINE
  8
0
  6
CONTINUOUS
 62
3
 10
2.999998112093635
 20
-1.732051392778772
 11
-0.000004464412200
 21
-3.464098365415111
  0
LINE
  8
0
  6
CONTINUOUS
 62
3
 10
0.000006701720849
 20
3.464096999935236
 11
-2.999997939551520
 21
1.732051821705568
  0
LINE
  8
0
  6
CONTINUOUS
 62
3
 10
2.999996662140697
 20
1.732046953225571
 11
2.999997615814979
 21
-1.732051023458999
  0
LINE
  8
0
  6
CONTINUOUS
 62
3
 10
-2.999996662140960
 20
-1.732045999551255
 11
-2.999997615815242
 21
1.732051977133316
  0
POINT
  8
0
  6
CONTINUOUS
 62
3
 10
0.000000000000000
 20
0.000000000000000
  0
CIRCLE
  8
0
  6
CONTINUOUS
 62
3
 10
0.000000000000000
 20
0.000000000000000
 40
6.500000000000000
  0
CIRCLE
  8
0
  6
CONTINUOUS
 62
3
 10
0.000000000000000
 20
0.000000000000000
 40
5.633955001831055
  0
ENDBLK
  8
0
  0
BLOCK
  8
0
  2
SYM16
 70
64
 10
0.000000000000000
 20
0.000000000000000
  0
POINT
  8
0
  6
CONTINUOUS
 62
3
 10
0.000000000000000
 20
5.633955001831055
  0
POINT
  8
0
  6
CONTINUOUS
 62
3
 10
0.500000119209290
 20
6.500000000000000
  0
LINE
  8
0
  6
CONTINUOUS
 62
3
 10
-0.000004704988612
 20
-3.464098175748802
 11
-2.999997577100373
 21
-1.732046218032735
  0
LINE
  8
0
  6
CONTINUOUS
 62
3
 10
0.000006618601731
 20
3.464096896385627
 11
2.999997425948948
 21
1.732046782136365
  0
LINE
  8
0
  6
CONTINUOUS
 62
3
 10
2.999998112093635
 20
-1.732051392778772
 11
-0.000004464412200
 21
-3.464098365415111
  0
LINE
  8
0
  6
CONTINUOUS
 62
3
 10
0.000006701720849
 20
3.464096999935236
 11
-2.999997939551520
 21
1.732051821705568
  0
LINE
  8
0
  6
CONTINUOUS
 62
3
 10
2.999996662140697
 20
1.732046953225571
 11
2.999997615814979
 21
-1.732051023458999
  0
LINE
  8
0
  6
CONTINUOUS
 62
3
 10
-2.999996662140960
 20
-1.732045999551255
 11
-2.999997615815242
 21
1.732051977133316
  0
POINT
  8
0
  6
CONTINUOUS
 62
3
 10
0.000000000000000
 20
0.000000000000000
  0
CIRCLE
  8
0
  6
CONTINUOUS
 62
3
 10
0.000000000000000
 20
0.000000000000000
 40
6.500000000000000
  0
CIRCLE
  8
0
  6
CONTINUOUS
 62
3
 10
0.000000000000000
 20
0.000000000000000
 40
5.633955001831055
  0
ENDBLK
  8
0
  0
BLOCK
  8
0
  2
SYM17
 70
64
 10
0.000000000000000
 20
0.000000000000000
  0
POINT
  8
0
  6
CONTINUOUS
 62
3
 10
0.000000000000000
 20
5.633955001831055
  0
POINT
  8
0
  6
CONTINUOUS
 62
3
 10
0.500000119209290
 20
6.500000000000000
  0
LINE
  8
0
  6
CONTINUOUS
 62
3
 10
-0.000004704988612
 20
-3.464098175748802
 11
-2.999997577100373
 21
-1.732046218032735
  0
LINE
  8
0
  6
CONTINUOUS
 62
3
 10
0.000006618601731
 20
3.464096896385627
 11
2.999997425948948
 21
1.732046782136365
  0
LINE
  8
0
  6
CONTINUOUS
 62
3
 10
2.999998112093635
 20
-1.732051392778772
 11
-0.000004464412200
 21
-3.464098365415111
  0
LINE
  8
0
  6
CONTINUOUS
 62
3
 10
0.000006701720849
 20
3.464096999935236
 11
-2.999997939551520
 21
1.732051821705568
  0
LINE
  8
0
  6
CONTINUOUS
 62
3
 10
2.999996662140697
 20
1.732046953225571
 11
2.999997615814979
 21
-1.732051023458999
  0
LINE
  8
0
  6
CONTINUOUS
 62
3
 10
-2.999996662140960
 20
-1.732045999551255
 11
-2.999997615815242
 21
1.732051977133316
  0
POINT
  8
0
  6
CONTINUOUS
 62
3
 10
0.000000000000000
 20
0.000000000000000
  0
CIRCLE
  8
0
  6
CONTINUOUS
 62
3
 10
0.000000000000000
 20
0.000000000000000
 40
6.500000000000000
  0
CIRCLE
  8
0
  6
CONTINUOUS
 62
3
 10
0.000000000000000
 20
0.000000000000000
 40
5.633955001831055
  0
ENDBLK
  8
0
  0
BLOCK
  8
0
  2
SYM18
 70
64
 10
0.000000000000000
 20
0.000000000000000
  0
POINT
  8
0
  6
CONTINUOUS
 62
3
 10
0.000000000000000
 20
5.633955001831055
  0
POINT
  8
0
  6
CONTINUOUS
 62
3
 10
0.500000119209290
 20
6.500000000000000
  0
LINE
  8
0
  6
CONTINUOUS
 62
3
 10
-0.000004704988612
 20
-3.464098175748802
 11
-2.999997577100373
 21
-1.732046218032735
  0
LINE
  8
0
  6
CONTINUOUS
 62
3
 10
0.000006618601731
 20
3.464096896385627
 11
2.999997425948948
 21
1.732046782136365
  0
LINE
  8
0
  6
CONTINUOUS
 62
3
 10
2.999998112093635
 20
-1.732051392778772
 11
-0.000004464412200
 21
-3.464098365415111
  0
LINE
  8
0
  6
CONTINUOUS
 62
3
 10
0.000006701720849
 20
3.464096999935236
 11
-2.999997939551520
 21
1.732051821705568
  0
LINE
  8
0
  6
CONTINUOUS
 62
3
 10
2.999996662140697
 20
1.732046953225571
 11
2.999997615814979
 21
-1.732051023458999
  0
LINE
  8
0
  6
CONTINUOUS
 62
3
 10
-2.999996662140960
 20
-1.732045999551255
 11
-2.999997615815242
 21
1.732051977133316
  0
POINT
  8
0
  6
CONTINUOUS
 62
3
 10
0.000000000000000
 20
0.000000000000000
  0
CIRCLE
  8
0
  6
CONTINUOUS
 62
3
 10
0.000000000000000
 20
0.000000000000000
 40
6.500000000000000
  0
CIRCLE
  8
0
  6
CONTINUOUS
 62
3
 10
0.000000000000000
 20
0.000000000000000
 40
5.633955001831055
  0
ENDBLK
  8
0
  0
BLOCK
  8
0
  2
SYM19
 70
64
 10
0.000000000000000
 20
0.000000000000000
  0
POINT
  8
0
  6
CONTINUOUS
 62
3
 10
0.000000000000000
 20
5.633955001831055
  0
POINT
  8
0
  6
CONTINUOUS
 62
3
 10
0.500000119209290
 20
6.500000000000000
  0
LINE
  8
0
  6
CONTINUOUS
 62
3
 10
-0.000004704988612
 20
-3.464098175748802
 11
-2.999997577100373
 21
-1.732046218032735
  0
LINE
  8
0
  6
CONTINUOUS
 62
3
 10
0.000006618601731
 20
3.464096896385627
 11
2.999997425948948
 21
1.732046782136365
  0
LINE
  8
0
  6
CONTINUOUS
 62
3
 10
2.999998112093635
 20
-1.732051392778772
 11
-0.000004464412200
 21
-3.464098365415111
  0
LINE
  8
0
  6
CONTINUOUS
 62
3
 10
0.000006701720849
 20
3.464096999935236
 11
-2.999997939551520
 21
1.732051821705568
  0
LINE
  8
0
  6
CONTINUOUS
 62
3
 10
2.999996662140697
 20
1.732046953225571
 11
2.999997615814979
 21
-1.732051023458999
  0
LINE
  8
0
  6
CONTINUOUS
 62
3
 10
-2.999996662140960
 20
-1.732045999551255
 11
-2.999997615815242
 21
1.732051977133316
  0
POINT
  8
0
  6
CONTINUOUS
 62
3
 10
0.000000000000000
 20
0.000000000000000
  0
CIRCLE
  8
0
  6
CONTINUOUS
 62
3
 10
0.000000000000000
 20
0.000000000000000
 40
6.500000000000000
  0
CIRCLE
  8
0
  6
CONTINUOUS
 62
3
 10
0.000000000000000
 20
0.000000000000000
 40
5.633955001831055
  0
ENDBLK
  8
0
  0
BLOCK
  8
0
  2
SYM20
 70
64
 10
0.000000000000000
 20
0.000000000000000
  0
POINT
  8
0
  6
CONTINUOUS
 62
3
 10
0.000000000000000
 20
5.633955001831055
  0
POINT
  8
0
  6
CONTINUOUS
 62
3
 10
0.500000119209290
 20
6.500000000000000
  0
LINE
  8
0
  6
CONTINUOUS
 62
3
 10
-0.000004704988612
 20
-3.464098175748802
 11
-2.999997577100373
 21
-1.732046218032735
  0
LINE
  8
0
  6
CONTINUOUS
 62
3
 10
0.000006618601731
 20
3.464096896385627
 11
2.999997425948948
 21
1.732046782136365
  0
LINE
  8
0
  6
CONTINUOUS
 62
3
 10
2.999998112093635
 20
-1.732051392778772
 11
-0.000004464412200
 21
-3.464098365415111
  0
LINE
  8
0
  6
CONTINUOUS
 62
3
 10
0.000006701720849
 20
3.464096999935236
 11
-2.999997939551520
 21
1.732051821705568
  0
LINE
  8
0
  6
CONTINUOUS
 62
3
 10
2.999996662140697
 20
1.732046953225571
 11
2.999997615814979
 21
-1.732051023458999
  0
LINE
  8
0
  6
CONTINUOUS
 62
3
 10
-2.999996662140960
 20
-1.732045999551255
 11
-2.999997615815242
 21
1.732051977133316
  0
POINT
  8
0
  6
CONTINUOUS
 62
3
 10
0.000000000000000
 20
0.000000000000000
  0
CIRCLE
  8
0
  6
CONTINUOUS
 62
3
 10
0.000000000000000
 20
0.000000000000000
 40
6.500000000000000
  0
CIRCLE
  8
0
  6
CONTINUOUS
 62
3
 10
0.000000000000000
 20
0.000000000000000
 40
5.633955001831055
  0
ENDBLK
  8
0
  0
BLOCK
  8
0
  2
SYM21
 70
64
 10
0.000000000000000
 20
0.000000000000000
  0
POINT
  8
0
  6
CONTINUOUS
 62
3
 10
0.000000000000000
 20
5.633955001831055
  0
POINT
  8
0
  6
CONTINUOUS
 62
3
 10
0.500000119209290
 20
6.500000000000000
  0
LINE
  8
0
  6
CONTINUOUS
 62
3
 10
-0.000004704988612
 20
-3.464098175748802
 11
-2.999997577100373
 21
-1.732046218032735
  0
LINE
  8
0
  6
CONTINUOUS
 62
3
 10
0.000006618601731
 20
3.464096896385627
 11
2.999997425948948
 21
1.732046782136365
  0
LINE
  8
0
  6
CONTINUOUS
 62
3
 10
2.999998112093635
 20
-1.732051392778772
 11
-0.000004464412200
 21
-3.464098365415111
  0
LINE
  8
0
  6
CONTINUOUS
 62
3
 10
0.000006701720849
 20
3.464096999935236
 11
-2.999997939551520
 21
1.732051821705568
  0
LINE
  8
0
  6
CONTINUOUS
 62
3
 10
2.999996662140697
 20
1.732046953225571
 11
2.999997615814979
 21
-1.732051023458999
  0
LINE
  8
0
  6
CONTINUOUS
 62
3
 10
-2.999996662140960
 20
-1.732045999551255
 11
-2.999997615815242
 21
1.732051977133316
  0
POINT
  8
0
  6
CONTINUOUS
 62
3
 10
0.000000000000000
 20
0.000000000000000
  0
CIRCLE
  8
0
  6
CONTINUOUS
 62
3
 10
0.000000000000000
 20
0.000000000000000
 40
6.500000000000000
  0
CIRCLE
  8
0
  6
CONTINUOUS
 62
3
 10
0.000000000000000
 20
0.000000000000000
 40
5.633955001831055
  0
ENDBLK
  8
0
  0
BLOCK
  8
0
  2
SYM22
 70
64
 10
0.000000000000000
 20
0.000000000000000
  0
POINT
  8
0
  6
CONTINUOUS
 62
3
 10
0.000000000000000
 20
5.633955001831055
  0
POINT
  8
0
  6
CONTINUOUS
 62
3
 10
0.500000119209290
 20
6.500000000000000
  0
LINE
  8
0
  6
CONTINUOUS
 62
3
 10
-0.000004704988612
 20
-3.464098175748802
 11
-2.999997577100373
 21
-1.732046218032735
  0
LINE
  8
0
  6
CONTINUOUS
 62
3
 10
0.000006618601731
 20
3.464096896385627
 11
2.999997425948948
 21
1.732046782136365
  0
LINE
  8
0
  6
CONTINUOUS
 62
3
 10
2.999998112093635
 20
-1.732051392778772
 11
-0.000004464412200
 21
-3.464098365415111
  0
LINE
  8
0
  6
CONTINUOUS
 62
3
 10
0.000006701720849
 20
3.464096999935236
 11
-2.999997939551520
 21
1.732051821705568
  0
LINE
  8
0
  6
CONTINUOUS
 62
3
 10
2.999996662140697
 20
1.732046953225571
 11
2.999997615814979
 21
-1.732051023458999
  0
LINE
  8
0
  6
CONTINUOUS
 62
3
 10
-2.999996662140960
 20
-1.732045999551255
 11
-2.999997615815242
 21
1.732051977133316
  0
POINT
  8
0
  6
CONTINUOUS
 62
3
 10
0.000000000000000
 20
0.000000000000000
  0
CIRCLE
  8
0
  6
CONTINUOUS
 62
3
 10
0.000000000000000
 20
0.000000000000000
 40
6.500000000000000
  0
CIRCLE
  8
0
  6
CONTINUOUS
 62
3
 10
0.000000000000000
 20
0.000000000000000
 40
5.633955001831055
  0
ENDBLK
  8
0
  0
BLOCK
  8
0
  2
SYM23
 70
64
 10
0.000000000000000
 20
0.000000000000000
  0
CIRCLE
  8
0
  6
CONTINUOUS
 62
3
 10
0.000000000000000
 20
0.000000000000000
 40
5.000000000000000
  0
LINE
  8
0
  6
CONTINUOUS
 62
3
 10
4.989816965891634
 20
-2.892629271321994
 11
0.010171343047148
 21
-5.767622431692701
  0
LINE
  8
0
  6
CONTINUOUS
 62
3
 10
4.979648434603448
 20
2.874994693650046
 11
4.989821279270270
 21
-2.892629961559101
  0
LINE
  8
0
  6
CONTINUOUS
 62
3
 10
-0.010171198458579
 20
5.767622839547471
 11
4.979645433681753
 21
2.874994469174567
  0
LINE
  8
0
  6
CONTINUOUS
 62
3
 10
-4.989816965891634
 20
2.892629271321994
 11
-0.010171343047148
 21
5.767622431692701
  0
LINE
  8
0
  6
CONTINUOUS
 62
3
 10
-4.979648434603448
 20
-2.874994693650046
 11
-4.989821279270270
 21
2.892629961559101
  0
LINE
  8
0
  6
CONTINUOUS
 62
3
 10
0.010171198458579
 20
-5.767622839547471
 11
-4.979645433681753
 21
-2.874994469174567
  0
POINT
  8
0
  6
CONTINUOUS
 62
3
 10
0.000000000000000
 20
0.000000000000000
  0
ENDBLK
  8
0
  0
BLOCK
  8
0
  2
SYM24
 70
64
 10
0.000000000000000
 20
0.000000000000000
  0
CIRCLE
  8
0
  6
CONTINUOUS
 62
3
 10
0.000000000000000
 20
0.000000000000000
 40
5.000000000000000
  0
LINE
  8
0
  6
CONTINUOUS
 62
3
 10
4.989816965891634
 20
-2.892629271321994
 11
0.010171343047148
 21
-5.767622431692701
  0
LINE
  8
0
  6
CONTINUOUS
 62
3
 10
4.979648434603448
 20
2.874994693650046
 11
4.989821279270270
 21
-2.892629961559101
  0
LINE
  8
0
  6
CONTINUOUS
 62
3
 10
-0.010171198458579
 20
5.767622839547471
 11
4.979645433681753
 21
2.874994469174567
  0
LINE
  8
0
  6
CONTINUOUS
 62
3
 10
-4.989816965891634
 20
2.892629271321994
 11
-0.010171343047148
 21
5.767622431692701
  0
LINE
  8
0
  6
CONTINUOUS
 62
3
 10
-4.979648434603448
 20
-2.874994693650046
 11
-4.989821279270270
 21
2.892629961559101
  0
LINE
  8
0
  6
CONTINUOUS
 62
3
 10
0.010171198458579
 20
-5.767622839547471
 11
-4.979645433681753
 21
-2.874994469174567
  0
POINT
  8
0
  6
CONTINUOUS
 62
3
 10
0.000000000000000
 20
0.000000000000000
  0
ENDBLK
  8
0
  0
BLOCK
  8
0
  2
SYM25
 70
64
 10
0.000000000000000
 20
0.000000000000000
  0
ARC
  8
0
  6
CONTINUOUS
 62
3
 10
-0.979025304317474
 20
-2.200000762939453
 40
1.299999237060547
 50
196.601531107481040
 51
270.000000000000000
  0
ARC
  8
0
  6
CONTINUOUS
 62
3
 10
-0.979025304317474
 20
2.200000762939453
 40
1.299999237060547
 50
90.000000000000000
 51
163.398451589674950
  0
LINE
  8
0
  6
CONTINUOUS
 62
3
 10
-0.000000000000000
 20
-3.500000000000000
 11
-0.979025304317474
 21
-3.500000000000000
  0
LINE
  8
0
  6
CONTINUOUS
 62
3
 10
0.000000000000000
 20
3.500000000000000
 11
-0.979025304317474
 21
3.500000000000000
  0
LINE
  8
0
  6
CONTINUOUS
 62
3
 10
0.000000000000000
 20
-3.500000000000000
 11
-0.000000000000000
 21
3.500000000000000
  0
LINE
  8
0
  6
CONTINUOUS
 62
3
 10
0.000000000000000
 20
-3.500000000000000
 11
-0.000000000000000
 21
3.500000000000000
  0
POINT
  8
0
  6
CONTINUOUS
 62
3
 10
0.000000000000000
 20
0.000000000000000
  0
ARC
  8
0
  6
CONTINUOUS
 62
3
 10
6.399999618530273
 20
0.000000000000000
 40
9.000000000000000
 50
163.398451589674950
 51
196.601531107481040
  0
ENDBLK
  8
0
  0
BLOCK
  8
0
  2
SYM26
 70
64
 10
0.000000000000000
 20
0.000000000000000
  0
ARC
  8
0
  6
CONTINUOUS
 62
3
 10
-0.979025304317474
 20
-2.200000762939453
 40
1.299999237060547
 50
196.601531107481040
 51
270.000000000000000
  0
ARC
  8
0
  6
CONTINUOUS
 62
3
 10
-0.979025304317474
 20
2.200000762939453
 40
1.299999237060547
 50
90.000000000000000
 51
163.398451589674950
  0
LINE
  8
0
  6
CONTINUOUS
 62
3
 10
-0.000000000000000
 20
-3.500000000000000
 11
-0.979025304317474
 21
-3.500000000000000
  0
LINE
  8
0
  6
CONTINUOUS
 62
3
 10
0.000000000000000
 20
3.500000000000000
 11
-0.979025304317474
 21
3.500000000000000
  0
LINE
  8
0
  6
CONTINUOUS
 62
3
 10
0.000000000000000
 20
-3.500000000000000
 11
-0.000000000000000
 21
3.500000000000000
  0
LINE
  8
0
  6
CONTINUOUS
 62
3
 10
0.000000000000000
 20
-3.500000000000000
 11
-0.000000000000000
 21
3.500000000000000
  0
POINT
  8
0
  6
CONTINUOUS
 62
3
 10
0.000000000000000
 20
0.000000000000000
  0
ARC
  8
0
  6
CONTINUOUS
 62
3
 10
6.399999618530273
 20
0.000000000000000
 40
9.000000000000000
 50
163.398451589674950
 51
196.601531107481040
  0
ENDBLK
  8
0
  0
ENDSEC
  0
SECTION
  2
ENTITIES
  0
LINE
  8
0
  6
CONTINUOUS
 62
3
 10
363.490294089222740
 20
-302.375906381662390
 11
349.934568437562920
 21
-302.375906381662390
  0
LINE
  8
0
  6
CONTINUOUS
 62
3
 10
483.934568437562750
 20
-302.375906381662390
 11
497.490294089222570
 21
-302.375906381662390
  0
LINE
  8
0
  6
CONTINUOUS
 62
3
 10
400.712431263392770
 20
-162.375906381662390
 11
408.712431263392770
 21
-162.375906381662390
  0
LINE
  8
0
  6
CONTINUOUS
 62
3
 10
400.712431263392770
 20
-150.375906381662390
 11
408.712431263392770
 21
-150.375906381662390
  0
LINE
  8
0
  6
CONTINUOUS
 62
3
 10
202.889431900070580
 20
-162.375906381662390
 11
251.889431900070550
 21
-162.375906381662390
  0
ARC
  8
0
  6
CONTINUOUS
 62
3
 10
202.889431900070580
 20
-156.375906381662390
 40
6.000000000000000
 50
180.000000000000000
 51
270.000000000000000
  0
ARC
  8
0
  6
CONTINUOUS
 62
3
 10
202.889431900070580
 20
-156.375906381662390
 40
6.000000000000000
 50
90.000000000000000
 51
180.000000000000000
  0
LINE
  8
0
  6
CONTINUOUS
 62
3
 10
196.889431900070580
 20
-156.375920046249580
 11
196.889431900070580
 21
-156.375906381662390
  0
LINE
  8
0
  6
CONTINUOUS
 62
3
 10
202.889431900070580
 20
-150.375906381662390
 11
251.889431900070550
 21
-150.375906381662390
  0
LINE
  8
0
  6
CONTINUOUS
 62
3
 10
-368.004246475786770
 20
-206.242010349691750
 11
-367.517443084081150
 21
-206.728813741397370
  0
LINE
  8
0
  6
CONTINUOUS
 62
3
 10
-374.651049949200460
 20
-212.888813823105490
 11
-374.164246557494830
 21
-213.375617214811090
  0
LINE
  8
0
  6
CONTINUOUS
 62
3
 10
-367.691107866817960
 20
-206.494557300542140
 11
-374.368207169290880
 21
-213.171656603015070
  0
LINE
  8
0
  6
CONTINUOUS
 62
3
 10
-368.004246475786770
 20
-206.242010349691750
 11
-374.651049949200460
 21
-212.888813823105490
  0
POINT
  8
0
  6
CONTINUOUS
 62
3
 10
-371.327648212493610
 20
-209.565412086398620
  0
ARC
  8
0
  6
CONTINUOUS
 62
3
 10
-373.590389777420630
 20
-207.302670521471580
 40
6.099999427795406
 50
264.601927898108500
 51
5.398089404735109
  0
LINE
  8
0
  6
CONTINUOUS
 62
3
 10
-478.030061358673610
 20
-206.242010349691750
 11
-478.516864750379230
 21
-206.728813741397370
  0
LINE
  8
0
  6
CONTINUOUS
 62
3
 10
-471.383257885259920
 20
-212.888813823105490
 11
-471.870061276965540
 21
-213.375617214811090
  0
LINE
  8
0
  6
CONTINUOUS
 62
3
 10
-478.343199967642420
 20
-206.494557300542140
 11
-471.666100665169490
 21
-213.171656603015070
  0
LINE
  8
0
  6
CONTINUOUS
 62
3
 10
-478.030061358673610
 20
-206.242010349691750
 11
-471.383257885259920
 21
-212.888813823105490
  0
POINT
  8
0
  6
CONTINUOUS
 62
3
 10
-474.706659621966760
 20
-209.565412086398620
  0
ARC
  8
0
  6
CONTINUOUS
 62
3
 10
-472.443918057039750
 20
-207.302670521471580
 40
6.099999427795398
 50
174.601910595264880
 51
275.398072101891500
  0
LINE
  8
0
  6
CONTINUOUS
 62
3
 10
-478.030061358673610
 20
-109.509802413632100
 11
-478.516864750379230
 21
-109.022999021926480
  0
LINE
  8
0
  6
CONTINUOUS
 62
3
 10
-471.383257885259920
 20
-102.862998940218390
 11
-471.870061276965540
 21
-102.376195548512760
  0
LINE
  8
0
  6
CONTINUOUS
 62
3
 10
-478.343199967642420
 20
-109.257255462781720
 11
-471.666100665169490
 21
-102.580156160308810
  0
LINE
  8
0
  6
CONTINUOUS
 62
3
 10
-478.030061358673610
 20
-109.509802413632100
 11
-471.383257885259920
 21
-102.862998940218390
  0
POINT
  8
0
  6
CONTINUOUS
 62
3
 10
-474.706659621966760
 20
-106.186400676925240
  0
ARC
  8
0
  6
CONTINUOUS
 62
3
 10
-472.443918057039750
 20
-108.449142241852280
 40
6.099999427795419
 50
84.601927898108485
 51
185.398089404735120
  0
LINE
  8
0
  6
CONTINUOUS
 62
3
 10
-368.004246475786770
 20
-109.509802413632100
 11
-367.517443084081150
 21
-109.022999021926480
  0
LINE
  8
0
  6
CONTINUOUS
 62
3
 10
-374.651049949200460
 20
-102.862998940218390
 11
-374.164246557494830
 21
-102.376195548512760
  0
LINE
  8
0
  6
CONTINUOUS
 62
3
 10
-367.691107866817960
 20
-109.257255462781720
 11
-374.368207169290880
 21
-102.580156160308810
  0
LINE
  8
0
  6
CONTINUOUS
 62
3
 10
-368.004246475786770
 20
-109.509802413632100
 11
-374.651049949200460
 21
-102.862998940218390
  0
POINT
  8
0
  6
CONTINUOUS
 62
3
 10
-371.327648212493610
 20
-106.186400676925240
  0
ARC
  8
0
  6
CONTINUOUS
 62
3
 10
-373.590389777420630
 20
-108.449142241852280
 40
6.099999427795398
 50
354.601910595264880
 51
95.398072101891515
  0
ARC
  8
0
  6
CONTINUOUS
 62
3
 10
-412.517153917230190
 20
-84.375894371771665
 40
10.000000000000000
 50
270.000000000000000
 51
0.000000000000000
  0
ARC
  8
0
  6
CONTINUOUS
 62
3
 10
-433.517153917230190
 20
-84.375894371771665
 40
10.000000000000000
 50
180.000000000000000
 51
270.000000000000000
  0
LINE
  8
0
  6
CONTINUOUS
 62
3
 10
-412.517153917230190
 20
-94.375894371771665
 11
-433.517153917230190
 21
-94.375894371771665
  0
INSERT
  8
0
  2
SYM1
 10
48.389425848865301
 20
-291.375894371770760
  0
INSERT
  8
0
  2
SYM2
 10
12.889425848864448
 20
-243.176681923619750
  0
INSERT
  8
0
  2
SYM3
 10
48.389425848865358
 20
-233.375894371771210
  0
INSERT
  8
0
  2
SYM4
 10
12.889425848864448
 20
-133.575130839705030
  0
INSERT
  8
0
  2
SYM5
 10
48.389425848865358
 20
-167.375894371771210
  0
INSERT
  8
0
  2
SYM6
 10
48.389425848865358
 20
-91.868453880433663
  0
INSERT
  8
0
  2
SYM7
 10
31.889425848862629
 20
-84.375894371772119
  0
LINE
  8
0
  6
CONTINUOUS
 62
3
 10
22.889425848858991
 20
-271.806032720223360
 11
43.563923332378181
 21
-272.528002081203790
  0
LINE
  8
0
  6
CONTINUOUS
 62
3
 10
59.389425848865358
 20
-299.375909071877230
 11
59.389425848865358
 21
-188.375906381662390
  0
LINE
  8
0
  6
CONTINUOUS
 62
3
 10
59.889425848865358
 20
-299.375909071877230
 11
51.389425848865358
 21
-299.375909071877230
  0
LINE
  8
0
  6
CONTINUOUS
 62
3
 10
59.389425848865358
 20
-71.375927291327571
 11
59.389425848865358
 21
-188.375906381662390
  0
LINE
  8
0
  6
CONTINUOUS
 62
3
 10
48.389425848865358
 20
-295.375909071877230
 11
48.389425848865358
 21
-188.375906381662390
  0
ARC
  8
0
  6
CONTINUOUS
 62
3
 10
51.389425848865358
 20
-296.375909071877230
 40
3.000000000000000
 50
180.000000000000000
 51
270.000000000000000
  0
ARC
  8
0
  6
CONTINUOUS
 62
3
 10
51.389425848865358
 20
-74.375906381662389
 40
3.000000000000000
 50
90.000000000000000
 51
180.000000000000000
  0
ARC
  8
0
  6
CONTINUOUS
 62
3
 10
46.389425848865358
 20
-126.643843564202140
 40
2.000000000000000
 50
270.000000000000000
 51
0.000000000000000
  0
ARC
  8
0
  6
CONTINUOUS
 62
3
 10
46.389425848865358
 20
-156.107945179340280
 40
2.000000000000000
 50
0.000000000000000
 51
90.000000000000000
  0
LINE
  8
0
  6
CONTINUOUS
 62
3
 10
46.389425848865358
 20
-154.107945179340280
 11
43.389425848865358
 21
-154.107945179340280
  0
ARC
  8
0
  6
CONTINUOUS
 62
3
 10
43.389425848865358
 20
-152.107945179340280
 40
2.000000000000000
 50
180.000000000000000
 51
270.000000000000000
  0
LINE
  8
0
  6
CONTINUOUS
 62
3
 10
41.389425848865358
 20
-130.643843564202140
 11
41.389425848865358
 21
-152.107945179340280
  0
LINE
  8
0
  6
CONTINUOUS
 62
3
 10
46.389425848865358
 20
-128.643843564202140
 11
43.389425848865358
 21
-128.643843564202140
  0
ARC
  8
0
  6
CONTINUOUS
 62
3
 10
43.389425848865358
 20
-130.643843564202140
 40
2.000000000000000
 50
90.000000000000000
 51
180.000000000000000
  0
LINE
  8
0
  6
CONTINUOUS
 62
3
 10
48.389425848865358
 20
-74.375906381662389
 11
48.389425848865358
 21
-126.643843564202140
  0
LINE
  8
0
  6
CONTINUOUS
 62
3
 10
48.389425848865358
 20
-156.107945179340280
 11
48.389425848865358
 21
-188.375906381662390
  0
LINE
  8
0
  6
CONTINUOUS
 62
3
 10
22.889425848858991
 20
-271.806032720223360
 11
22.889425848864448
 21
-188.375906381662390
  0
ARC
  8
0
  6
CONTINUOUS
 62
3
 10
43.389425848865358
 20
-277.524956216298510
 40
5.000000000000000
 50
0.000000000000000
 51
87.999999999996049
  0
LINE
  8
0
  6
CONTINUOUS
 62
3
 10
22.889425848858991
 20
-104.945715798190570
 11
43.563923332378181
 21
-104.223746437211040
  0
LINE
  8
0
  6
CONTINUOUS
 62
3
 10
22.889425848858991
 20
-104.945715798190570
 11
22.889425848866267
 21
-188.375906381662390
  0
LINE
  8
0
  6
CONTINUOUS
 62
3
 10
39.389425848865358
 20
-96.572046794478410
 11
39.389425848865358
 21
-101.472456777155450
  0
ARC
  8
0
  6
CONTINUOUS
 62
3
 10
36.389425848865358
 20
-101.472456777155450
 40
3.000000000000001
 50
272.000000000003640
 51
0.000000000000000
  0
ARC
  8
0
  6
CONTINUOUS
 62
3
 10
43.389425848865358
 20
-99.226792302115427
 40
5.000000000000153
 50
272.000000000003580
 51
356.081795638019740
  0
LINE
  8
0
  6
CONTINUOUS
 62
3
 10
59.889425848865358
 20
-71.375906381662389
 11
39.389425848865358
 21
-71.375906381662389
  0
LINE
  8
0
  6
CONTINUOUS
 62
3
 10
36.389425848865358
 20
-74.375906381662844
 11
36.389425848865358
 21
-91.375894371772119
  0
LINE
  8
0
  6
CONTINUOUS
 62
3
 10
36.389425848865358
 20
-74.375885471997208
 11
36.389425848865358
 21
-91.375873462106483
  0
LINE
  8
0
  6
CONTINUOUS
 62
3
 10
31.889425848861720
 20
-94.375894371771665
 11
36.389425848861720
 21
-94.375894371771665
  0
LINE
  8
0
  6
DASHDOT
 62
4
 10
26.159178448048806
 20
-56.375894371771665
 11
44.258444463340311
 21
-56.375894371771665
  0
LINE
  8
0
  6
CONTINUOUS
 62
3
 10
31.889425848865358
 20
-36.375894371771665
 11
36.389425848865358
 21
-36.375894371771665
  0
LINE
  8
0
  6
CONTINUOUS
 62
3
 10
36.389425848865358
 20
-36.375894371771665
 11
36.389425848865358
 21
-94.375894371771665
  0
LINE
  8
0
  6
CONTINUOUS
 62
3
 10
31.889425848861720
 20
-94.375894371771665
 11
31.889425848865358
 21
-36.375894371771665
  0
LINE
  8
0
  6
DASHDOT
 62
4
 10
16.588973060574972
 20
-84.375894371771665
 11
39.664781507087355
 21
-84.375894371771665
  0
ARC
  8
0
  6
CONTINUOUS
 62
3
 10
39.389425848865358
 20
-74.375885471997208
 40
3.000000000000000
 50
90.000000000000000
 51
180.000000000000000
  0
LINE
  8
0
  6
CONTINUOUS
 62
3
 10
191.489431900070490
 20
-178.875920046249580
 11
189.889431900071490
 21
-178.875920046249580
  0
LINE
  8
0
  6
CONTINUOUS
 62
3
 10
191.489431900070490
 20
-133.875920046249580
 11
189.889431900071490
 21
-133.875920046249580
  0
LINE
  8
0
  6
CONTINUOUS
 62
3
 10
251.489431900070490
 20
-136.375920046249580
 11
194.949246647075140
 21
-136.375920046249580
  0
ARC
  8
0
  6
CONTINUOUS
 62
3
 10
193.489431900070490
 20
-134.925920046249760
 40
1.599999999999909
 50
180.000000000000000
 51
270.000000000000000
  0
LINE
  8
0
  6
CONTINUOUS
 62
3
 10
194.389439025939280
 20
-136.525920046250120
 11
193.489431900070490
 21
-136.525920046250120
  0
LINE
  8
0
  6
CONTINUOUS
 62
3
 10
191.489431900070490
 20
-133.875920046249580
 11
191.889431900070580
 21
-134.275920046250120
  0
LINE
  8
0
  6
CONTINUOUS
 62
3
 10
191.889431900070580
 20
-156.375920046249580
 11
191.889431900070580
 21
-134.275920046250120
  0
LINE
  8
0
  6
CONTINUOUS
 62
3
 10
194.949246647074690
 20
-136.375920046249580
 11
194.389439025939280
 21
-136.525920046250120
  0
ARC
  8
0
  6
CONTINUOUS
 62
3
 10
193.489431900070490
 20
-177.825920046249390
 40
1.599999999999454
 50
90.000000000000000
 51
180.000000000000000
  0
LINE
  8
0
  6
CONTINUOUS
 62
3
 10
194.389439025939280
 20
-176.225920046249940
 11
193.489431900070490
 21
-176.225920046249940
  0
LINE
  8
0
  6
CONTINUOUS
 62
3
 10
191.489431900070490
 20
-178.875920046249580
 11
191.889431900070580
 21
-178.475920046249940
  0
LINE
  8
0
  6
CONTINUOUS
 62
3
 10
191.889431900070580
 20
-156.375920046249580
 11
191.889431900070580
 21
-178.475920046249940
  0
LINE
  8
0
  6
CONTINUOUS
 62
3
 10
251.489431900070490
 20
-176.375920046249580
 11
194.949246647075140
 21
-176.375920046249580
  0
LINE
  8
0
  6
CONTINUOUS
 62
3
 10
194.949246647074690
 20
-176.375920046249580
 11
194.389439025939280
 21
-176.225920046249940
  0
ARC
  8
0
  6
CONTINUOUS
 62
3
 10
162.389431900071260
 20
-293.375892717075200
 40
2.999999999999773
 50
180.000000000000000
 51
270.000000000000000
  0
LINE
  8
0
  6
CONTINUOUS
 62
3
 10
156.086307747001460
 20
-84.395082617202206
 11
140.915546648923960
 21
-84.395082617202206
  0
LINE
  8
0
  6
CONTINUOUS
 62
3
 10
138.767237233892270
 20
-83.312556717385860
 11
158.696658173137390
 21
-59.332215291331067
  0
LINE
  8
0
  6
CONTINUOUS
 62
3
 10
138.767237233892270
 20
-77.473721952553888
 11
158.696658173137390
 21
-53.493380526499095
  0
ARC
  8
0
  6
CONTINUOUS
 62
3
 10
156.389431900071490
 20
-51.575906426315669
 40
2.999999999999973
 50
320.270935214704250
 51
0.000000000000000
  0
ARC
  8
0
  6
CONTINUOUS
 62
3
 10
136.460010960825910
 20
-75.556247852370007
 40
3.000000000000227
 50
270.000000000000000
 51
320.270935214703170
  0
ARC
  8
0
  6
CONTINUOUS
 62
3
 10
156.389431900071490
 20
-57.414741191147641
 40
2.999999999999973
 50
320.270935214704250
 51
0.000000000000000
  0
ARC
  8
0
  6
CONTINUOUS
 62
3
 10
136.460010960825910
 20
-81.395082617201979
 40
3.000000000000227
 50
270.000000000000000
 51
320.270935214703170
  0
ARC
  8
0
  6
CONTINUOUS
 62
3
 10
136.100966252416810
 20
-65.712746687975141
 40
2.999999999999993
 50
271.999999999999320
 51
330.000000000000570
  0
ARC
  8
0
  6
CONTINUOUS
 62
3
 10
156.389431900071490
 20
-30.572093378621503
 40
3.000000000000049
 50
330.000000000000570
 51
0.000000000000000
  0
ARC
  8
0
  6
CONTINUOUS
 62
3
 10
184.889431850251870
 20
-106.222574379515660
 40
3.000000000000000
 50
0.000000000000000
 51
86.999999999998920
  0
ARC
  8
0
  6
CONTINUOUS
 62
3
 10
168.389431900071260
 20
-299.375906381662390
 40
3.000000000000000
 50
90.000000000000000
 51
180.000000000000000
  0
ARC
  8
0
  6
CONTINUOUS
 62
3
 10
162.389431900071260
 20
-299.374625194760030
 40
3.000000000000011
 50
268.323529052110760
 51
0.000000000000000
  0
ARC
  8
0
  6
CONTINUOUS
 62
3
 10
184.889431850251870
 20
-206.529040010692140
 40
3.000000000000164
 50
273.000000000001080
 51
0.000000000000000
  0
ARC
  8
0
  6
CONTINUOUS
 62
3
 10
188.889431875162020
 20
-198.375920071158820
 40
1.000000024909241
 50
90.000000000000000
 51
180.000000000000000
  0
ARC
  8
0
  6
CONTINUOUS
 62
3
 10
188.889431875162020
 20
-114.375920021340330
 40
1.000000024909241
 50
180.000000000000000
 51
270.000000000000000
  0
ARC
  8
0
  6
CONTINUOUS
 62
3
 10
162.389431900071260
 20
-19.375920046249576
 40
3.000000000000000
 50
90.000000000000000
 51
180.000000000000000
  0
LINE
  8
0
  6
CONTINUOUS
 62
3
 10
158.987508111424860
 20
-32.072093378621503
 11
138.699042463770180
 21
-67.212746687975141
  0
LINE
  8
0
  6
CONTINUOUS
 62
3
 10
188.889431875162020
 20
-115.375920046249570
 11
189.889431900071490
 21
-115.375920046249570
  0
LINE
  8
0
  6
CONTINUOUS
 62
3
 10
181.389431900071710
 20
-285.375906381662390
 11
180.389431900071710
 21
-286.375906381662390
  0
LINE
  8
0
  6
CONTINUOUS
 62
3
 10
188.889431875162020
 20
-197.375920046249580
 11
189.889431900071490
 21
-197.375920046249580
  0
LINE
  8
0
  6
CONTINUOUS
 62
3
 10
180.389431900071490
 20
-26.375920046249576
 11
181.389431900071490
 21
-27.375920046249576
  0
LINE
  8
0
  6
CONTINUOUS
 62
3
 10
180.389431900071710
 20
-286.375906381662390
 11
177.389431900071260
 21
-286.375906381662390
  0
LINE
  8
0
  6
CONTINUOUS
 62
3
 10
177.389431900071260
 20
-296.375906381662390
 11
177.389431900071260
 21
-156.375906381662390
  0
LINE
  8
0
  6
CONTINUOUS
 62
3
 10
185.046439718980760
 20
-209.524928614956020
 11
181.389431900071710
 21
-209.716584273565560
  0
LINE
  8
0
  6
CONTINUOUS
 62
3
 10
181.389431900071710
 20
-285.375906381662390
 11
181.389431900071710
 21
-156.375906381662390
  0
LINE
  8
0
  6
CONTINUOUS
 62
3
 10
187.889431850251870
 20
-206.529040010692140
 11
187.889431850251870
 21
-156.375906381662390
  0
LINE
  8
0
  6
CONTINUOUS
 62
3
 10
189.889431900071490
 20
-115.375920046249570
 11
189.889431900071490
 21
-197.375920046249580
  0
LINE
  8
0
  6
CONTINUOUS
 62
3
 10
187.889431850251870
 20
-106.222574379515660
 11
187.889431850251870
 21
-156.375906381662390
  0
LINE
  8
0
  6
CONTINUOUS
 62
3
 10
181.389431900071710
 20
-103.035030116642240
 11
185.046439718980760
 21
-103.226685775251780
  0
LINE
  8
0
  6
CONTINUOUS
 62
3
 10
180.389431900071490
 20
-26.375920046249576
 11
177.389431900071710
 21
-26.375920046249576
  0
LINE
  8
0
  6
CONTINUOUS
 62
3
 10
177.389431900071490
 20
-16.375920046249576
 11
162.389431900071260
 21
-16.375920046249576
  0
LINE
  8
0
  6
CONTINUOUS
 62
3
 10
177.389431900071490
 20
-16.375920046249576
 11
177.389431900074670
 21
-156.375906381662390
  0
LINE
  8
0
  6
CONTINUOUS
 62
3
 10
159.389431900071490
 20
-19.375920046249576
 11
159.389431900071490
 21
-293.375892717075200
  0
LINE
  8
0
  6
CONTINUOUS
 62
3
 10
181.389431900071490
 20
-27.375920046249576
 11
181.389431900071710
 21
-156.375906381662390
  0
LINE
  8
0
  6
CONTINUOUS
 62
3
 10
177.389431900071260
 20
-296.375906381662390
 11
162.389431900071260
 21
-296.375906381662390
  0
LINE
  8
0
  6
CONTINUOUS
 62
3
 10
59.889425848865358
 20
-71.375940955914757
 11
59.889425848865358
 21
-299.375909868978620
  0
LINE
  8
0
  6
CONTINUOUS
 62
3
 10
59.889425848865358
 20
-71.375940955914757
 11
146.344000382807960
 21
-68.356880687108060
  0
LINE
  8
0
  6
CONTINUOUS
 62
3
 10
59.889425848865358
 20
-299.375909868978620
 11
162.301664611330580
 21
-302.373341070435340
  0
LINE
  8
0
  6
DASHDOT
 62
4
 10
186.437572553591050
 20
-36.167753579959026
 11
132.506013159608300
 21
-36.167753579959026
  0
LINE
  8
0
  6
DASHDOT
 62
4
 10
186.437572553591050
 20
-276.584059183384850
 11
132.506013159608300
 21
-276.584059183384850
  0
LINE
  8
0
  6
CONTINUOUS
 62
3
 10
-248.610574151085300
 20
-157.875906381661820
 11
-248.610574151085300
 21
-110.432701324416370
  0
LINE
  8
0
  6
CONTINUOUS
 62
3
 10
-248.610574151085300
 20
-157.875906381661820
 11
-248.610574151085300
 21
-205.319111438907270
  0
ARC
  8
0
  6
CONTINUOUS
 62
3
 10
39.389425848865358
 20
-91.375873462106938
 40
3.000000000000000
 50
180.000000000000000
 51
239.999999999989710
  0
ARC
  8
0
  6
CONTINUOUS
 62
3
 10
36.389425848865358
 20
-96.572046794478410
 40
3.000000000000000
 50
0.000000000000000
 51
59.999999999998380
  0
LINE
  8
0
  6
CONTINUOUS
 62
3
 10
-132.610574151135440
 20
-189.375906381661820
 11
-203.610574151135320
 21
-189.375906381661820
  0
ARC
  8
0
  6
CONTINUOUS
 62
3
 10
-203.610574151135320
 20
-187.375906381661820
 40
2.000000000000000
 50
180.000000000000000
 51
270.000000000000000
  0
ARC
  8
0
  6
CONTINUOUS
 62
3
 10
-203.610574151135320
 20
-186.875906381661820
 40
1.000000000000000
 50
180.000000000000000
 51
270.000000000000000
  0
LINE
  8
0
  6
CONTINUOUS
 62
3
 10
-204.610574151135320
 20
-186.875906381661820
 11
-204.610574151135550
 21
-157.875906381661820
  0
LINE
  8
0
  6
CONTINUOUS
 62
3
 10
-205.610574151135320
 20
-157.875906381661820
 11
-205.610574151135320
 21
-187.375906381661820
  0
ARC
  8
0
  6
CONTINUOUS
 62
3
 10
-132.610574151135440
 20
-186.875906381661820
 40
1.000000000000000
 50
270.000000000000000
 51
0.000000000000000
  0
ARC
  8
0
  6
CONTINUOUS
 62
3
 10
-132.610574151135440
 20
-187.375906381661820
 40
2.000000000000000
 50
270.000000000000000
 51
0.000000000000000
  0
LINE
  8
0
  6
CONTINUOUS
 62
3
 10
-132.610574151135440
 20
-187.875906381661820
 11
-203.610574151135320
 21
-187.875906381661820
  0
LINE
  8
0
  6
CONTINUOUS
 62
3
 10
-131.610574151135440
 20
-186.875906381661820
 11
-131.610574151135440
 21
-157.875906381661820
  0
LINE
  8
0
  6
CONTINUOUS
 62
3
 10
-130.610574151135440
 20
-157.875906381661820
 11
-130.610574151135440
 21
-187.375906381661820
  0
ARC
  8
0
  6
CONTINUOUS
 62
3
 10
-132.610574151135440
 20
-128.375906381661820
 40
2.000000000000000
 50
0.000000000000000
 51
90.000000000000000
  0
ARC
  8
0
  6
CONTINUOUS
 62
3
 10
-132.610574151135440
 20
-128.875906381661820
 40
1.000000000000000
 50
0.000000000000000
 51
90.000000000000000
  0
LINE
  8
0
  6
CONTINUOUS
 62
3
 10
-131.610574151135440
 20
-128.875906381661820
 11
-131.610574151135440
 21
-157.875906381661820
  0
LINE
  8
0
  6
CONTINUOUS
 62
3
 10
-130.610574151135440
 20
-157.875906381661820
 11
-130.610574151135440
 21
-128.375906381661820
  0
LINE
  8
0
  6
CONTINUOUS
 62
3
 10
-204.610574151135320
 20
-128.875906381661820
 11
-204.610574151135550
 21
-157.875906381661820
  0
LINE
  8
0
  6
CONTINUOUS
 62
3
 10
-205.610574151135320
 20
-157.875906381661820
 11
-205.610574151135320
 21
-128.375906381661820
  0
LINE
  8
0
  6
CONTINUOUS
 62
3
 10
-132.610574151135440
 20
-127.875906381661820
 11
-203.610574151135320
 21
-127.875906381661820
  0
LINE
  8
0
  6
CONTINUOUS
 62
3
 10
-132.610574151135440
 20
-126.375906381661820
 11
-203.610574151135320
 21
-126.375906381661820
  0
ARC
  8
0
  6
CONTINUOUS
 62
3
 10
-203.610574151135320
 20
-128.875906381661820
 40
1.000000000000000
 50
90.000000000000000
 51
180.000000000000000
  0
ARC
  8
0
  6
CONTINUOUS
 62
3
 10
-203.610574151135320
 20
-128.375906381661820
 40
2.000000000000000
 50
90.000000000000000
 51
180.000000000000000
  0
LINE
  8
0
  6
CONTINUOUS
 62
3
 10
-208.610574151134870
 20
-211.616021482099650
 11
-210.610574151134870
 21
-209.963379842976220
  0
LINE
  8
0
  6
CONTINUOUS
 62
3
 10
-206.610574151134870
 20
-212.791806967721980
 11
-208.610574151134870
 21
-211.616021482099650
  0
LINE
  8
0
  6
CONTINUOUS
 62
3
 10
-208.610574151134870
 20
-211.616021482099650
 11
-206.610574151134870
 21
-209.963379842976220
  0
LINE
  8
0
  6
CONTINUOUS
 62
3
 10
-210.610574151134870
 20
-212.791806967721980
 11
-208.610574151134870
 21
-211.616021482099650
  0
POLYLINE
  8
0
  6
CONTINUOUS
 62
3
 66
1
 70
1
  0
VERTEX
  8
0
  6
CONTINUOUS
 62
3
 10
-203.910574151134880
 20
-209.799431413721660
  0
VERTEX
  8
0
  6
CONTINUOUS
 62
3
 10
-204.000883333239700
 20
-209.096474447521300
  0
VERTEX
  8
0
  6
CONTINUOUS
 62
3
 10
-204.268340348331830
 20
-208.420531723309210
  0
VERTEX
  8
0
  6
CONTINUOUS
 62
3
 10
-204.702666973312920
 20
-207.797579340903810
  0
VERTEX
  8
0
  6
CONTINUOUS
 62
3
 10
-205.287172279558090
 20
-207.251557011005220
  0
VERTEX
  8
0
  6
CONTINUOUS
 62
3
 10
-205.999394055942760
 20
-206.803448065538590
  0
VERTEX
  8
0
  6
CONTINUOUS
 62
3
 10
-206.811962019018950
 20
-206.470473079975850
  0
VERTEX
  8
0
  6
CONTINUOUS
 62
3
 10
-207.693649637659060
 20
-206.265428096277590
  0
VERTEX
  8
0
  6
CONTINUOUS
 62
3
 10
-208.610574151134870
 20
-206.196192878176820
  0
VERTEX
  8
0
  6
CONTINUOUS
 62
3
 10
-209.527498664610680
 20
-206.265428096277590
  0
VERTEX
  8
0
  6
CONTINUOUS
 62
3
 10
-210.409186283250790
 20
-206.470473079975850
  0
VERTEX
  8
0
  6
CONTINUOUS
 62
3
 10
-211.221754246326980
 20
-206.803448065538590
  0
VERTEX
  8
0
  6
CONTINUOUS
 62
3
 10
-211.933976022711650
 20
-207.251557011005220
  0
VERTEX
  8
0
  6
CONTINUOUS
 62
3
 10
-212.518481328956820
 20
-207.797579340903810
  0
VERTEX
  8
0
  6
CONTINUOUS
 62
3
 10
-212.952807953937910
 20
-208.420531723309210
  0
VERTEX
  8
0
  6
CONTINUOUS
 62
3
 10
-213.220264969030040
 20
-209.096474447521300
  0
VERTEX
  8
0
  6
CONTINUOUS
 62
3
 10
-213.310574151134860
 20
-209.799431413721660
  0
VERTEX
  8
0
  6
CONTINUOUS
 62
3
 10
-213.220264969030040
 20
-210.502388379922020
  0
VERTEX
  8
0
  6
CONTINUOUS
 62
3
 10
-212.952807953937910
 20
-211.178331104134120
  0
VERTEX
  8
0
  6
CONTINUOUS
 62
3
 10
-212.518481328956820
 20
-211.801283486539520
  0
VERTEX
  8
0
  6
CONTINUOUS
 62
3
 10
-211.933976022711620
 20
-212.347305816438110
  0
VERTEX
  8
0
  6
CONTINUOUS
 62
3
 10
-211.221754246326980
 20
-212.795414761904740
  0
VERTEX
  8
0
  6
CONTINUOUS
 62
3
 10
-210.409186283250790
 20
-213.128389747467480
  0
VERTEX
  8
0
  6
CONTINUOUS
 62
3
 10
-209.527498664610680
 20
-213.333434731165740
  0
VERTEX
  8
0
  6
CONTINUOUS
 62
3
 10
-208.610574151134870
 20
-213.402669949266510
  0
VERTEX
  8
0
  6
CONTINUOUS
 62
3
 10
-207.693649637659060
 20
-213.333434731165740
  0
VERTEX
  8
0
  6
CONTINUOUS
 62
3
 10
-206.811962019018950
 20
-213.128389747467480
  0
VERTEX
  8
0
  6
CONTINUOUS
 62
3
 10
-205.999394055942760
 20
-212.795414761904740
  0
VERTEX
  8
0
  6
CONTINUOUS
 62
3
 10
-205.287172279558120
 20
-212.347305816438110
  0
VERTEX
  8
0
  6
CONTINUOUS
 62
3
 10
-204.702666973312920
 20
-211.801283486539520
  0
VERTEX
  8
0
  6
CONTINUOUS
 62
3
 10
-204.268340348331830
 20
-211.178331104134120
  0
VERTEX
  8
0
  6
CONTINUOUS
 62
3
 10
-204.000883333239700
 20
-210.502388379922020
  0
SEQEND
  8
0
  6
CONTINUOUS
 62
3
  0
LINE
  8
0
  6
CONTINUOUS
 62
3
 10
-208.610574151134870
 20
-104.135791281224210
 11
-210.610574151134870
 21
-105.788432920347640
  0
LINE
  8
0
  6
CONTINUOUS
 62
3
 10
-206.610574151134870
 20
-102.960005795601430
 11
-208.610574151134870
 21
-104.135791281224210
  0
LINE
  8
0
  6
CONTINUOUS
 62
3
 10
-208.610574151134870
 20
-104.135791281224210
 11
-206.610574151134870
 21
-105.788432920347640
  0
LINE
  8
0
  6
CONTINUOUS
 62
3
 10
-210.610574151134870
 20
-102.960005795601430
 11
-208.610574151134870
 21
-104.135791281224210
  0
POLYLINE
  8
0
  6
CONTINUOUS
 62
3
 66
1
 70
1
  0
VERTEX
  8
0
  6
CONTINUOUS
 62
3
 10
-203.910574151134880
 20
-105.952381349601750
  0
VERTEX
  8
0
  6
CONTINUOUS
 62
3
 10
-204.000883333239700
 20
-105.249424383401390
  0
VERTEX
  8
0
  6
CONTINUOUS
 62
3
 10
-204.268340348331830
 20
-104.573481659189290
  0
VERTEX
  8
0
  6
CONTINUOUS
 62
3
 10
-204.702666973312920
 20
-103.950529276783890
  0
VERTEX
  8
0
  6
CONTINUOUS
 62
3
 10
-205.287172279558090
 20
-103.404506946885320
  0
VERTEX
  8
0
  6
CONTINUOUS
 62
3
 10
-205.999394055942760
 20
-102.956398001418700
  0
VERTEX
  8
0
  6
CONTINUOUS
 62
3
 10
-206.811962019018950
 20
-102.623423015855930
  0
VERTEX
  8
0
  6
CONTINUOUS
 62
3
 10
-207.693649637659060
 20
-102.418378032157690
  0
VERTEX
  8
0
  6
CONTINUOUS
 62
3
 10
-208.610574151134870
 20
-102.349142814056910
  0
VERTEX
  8
0
  6
CONTINUOUS
 62
3
 10
-209.527498664610680
 20
-102.418378032157690
  0
VERTEX
  8
0
  6
CONTINUOUS
 62
3
 10
-210.409186283250790
 20
-102.623423015855930
  0
VERTEX
  8
0
  6
CONTINUOUS
 62
3
 10
-211.221754246326980
 20
-102.956398001418700
  0
VERTEX
  8
0
  6
CONTINUOUS
 62
3
 10
-211.933976022711650
 20
-103.404506946885320
  0
VERTEX
  8
0
  6
CONTINUOUS
 62
3
 10
-212.518481328956820
 20
-103.950529276783890
  0
VERTEX
  8
0
  6
CONTINUOUS
 62
3
 10
-212.952807953937910
 20
-104.573481659189290
  0
VERTEX
  8
0
  6
CONTINUOUS
 62
3
 10
-213.220264969030040
 20
-105.249424383401390
  0
VERTEX
  8
0
  6
CONTINUOUS
 62
3
 10
-213.310574151134860
 20
-105.952381349601750
  0
VERTEX
  8
0
  6
CONTINUOUS
 62
3
 10
-213.220264969030040
 20
-106.655338315802110
  0
VERTEX
  8
0
  6
CONTINUOUS
 62
3
 10
-212.952807953937910
 20
-107.331281040014200
  0
VERTEX
  8
0
  6
CONTINUOUS
 62
3
 10
-212.518481328956820
 20
-107.954233422419600
  0
VERTEX
  8
0
  6
CONTINUOUS
 62
3
 10
-211.933976022711620
 20
-108.500255752318180
  0
VERTEX
  8
0
  6
CONTINUOUS
 62
3
 10
-211.221754246326980
 20
-108.948364697784790
  0
VERTEX
  8
0
  6
CONTINUOUS
 62
3
 10
-210.409186283250790
 20
-109.281339683347560
  0
VERTEX
  8
0
  6
CONTINUOUS
 62
3
 10
-209.527498664610680
 20
-109.486384667045810
  0
VERTEX
  8
0
  6
CONTINUOUS
 62
3
 10
-208.610574151134870
 20
-109.555619885146580
  0
VERTEX
  8
0
  6
CONTINUOUS
 62
3
 10
-207.693649637659060
 20
-109.486384667045810
  0
VERTEX
  8
0
  6
CONTINUOUS
 62
3
 10
-206.811962019018950
 20
-109.281339683347560
  0
VERTEX
  8
0
  6
CONTINUOUS
 62
3
 10
-205.999394055942760
 20
-108.948364697784790
  0
VERTEX
  8
0
  6
CONTINUOUS
 62
3
 10
-205.287172279558120
 20
-108.500255752318180
  0
VERTEX
  8
0
  6
CONTINUOUS
 62
3
 10
-204.702666973312920
 20
-107.954233422419600
  0
VERTEX
  8
0
  6
CONTINUOUS
 62
3
 10
-204.268340348331830
 20
-107.331281040014200
  0
VERTEX
  8
0
  6
CONTINUOUS
 62
3
 10
-204.000883333239700
 20
-106.655338315802110
  0
SEQEND
  8
0
  6
CONTINUOUS
 62
3
  0
ARC
  8
0
  6
CONTINUOUS
 62
3
 10
-246.010574151085170
 20
-205.319111438907270
 40
2.600000000000136
 50
180.000000000000000
 51
234.999999999998610
  0
LINE
  8
0
  6
CONTINUOUS
 62
3
 10
-237.776127100576790
 20
-214.258947267441610
 11
-247.501872885597780
 21
-207.448906754058380
  0
ARC
  8
0
  6
CONTINUOUS
 62
3
 10
-226.304598373555790
 20
-197.875906381661820
 40
20.000000000000007
 50
234.999999999999740
 51
270.000000000000000
  0
LINE
  8
0
  6
CONTINUOUS
 62
3
 10
-197.610574151135440
 20
-217.875906381661820
 11
-226.304598373555790
 21
-217.875906381661820
  0
LINE
  8
0
  6
CONTINUOUS
 62
3
 10
-48.610574151135552
 20
-216.375906381661820
 11
-197.610574151135440
 21
-216.375906381661820
  0
LINE
  8
0
  6
CONTINUOUS
 62
3
 10
-207.610574151135320
 20
-192.875906381661820
 11
-207.610574151135320
 21
-157.875906381661820
  0
ARC
  8
0
  6
CONTINUOUS
 62
3
 10
-200.610574151135440
 20
-198.875906381661820
 40
3.000000000000000
 50
0.000000000000000
 51
90.000000000000000
  0
LINE
  8
0
  6
CONTINUOUS
 62
3
 10
-200.610574151135440
 20
-195.875906381661820
 11
-204.610574151135320
 21
-195.875906381661820
  0
ARC
  8
0
  6
CONTINUOUS
 62
3
 10
-204.610574151135320
 20
-192.875906381661820
 40
3.000000000000000
 50
180.000000000000000
 51
270.000000000000000
  0
LINE
  8
0
  6
CONTINUOUS
 62
3
 10
-197.610574151135440
 20
-198.875906381661820
 11
-197.610574151135440
 21
-217.875906381661820
  0
LINE
  8
0
  6
CONTINUOUS
 62
4
 10
-207.610574151135320
 20
-189.626698098036170
 11
-48.610574151135552
 21
-189.626698098036170
  0
LINE
  8
0
  6
CONTINUOUS
 62
4
 10
-207.524237940132250
 20
-193.590443521835710
 11
-48.610574151135552
 21
-193.590443521835710
  0
LINE
  8
0
  6
CONTINUOUS
 62
4
 10
-206.513566709515540
 20
-195.195091437397760
 11
-48.610574151135552
 21
-195.195091437397760
  0
LINE
  8
0
  6
CONTINUOUS
 62
4
 10
-197.610574151135440
 20
-203.241693100131560
 11
-48.610574151135552
 21
-203.241693100131560
  0
LINE
  8
0
  6
CONTINUOUS
 62
4
 10
-197.610574151135440
 20
-208.191440568437320
 11
-48.610574151135552
 21
-208.191440568437320
  0
LINE
  8
0
  6
CONTINUOUS
 62
4
 10
-197.610574151135440
 20
-212.875906381661820
 11
-48.610574151135552
 21
-212.875906381661820
  0
LINE
  8
0
  6
CONTINUOUS
 62
4
 10
-197.610574151135440
 20
-213.875906381661820
 11
-48.610574151135552
 21
-213.875906381661820
  0
LINE
  8
0
  6
CONTINUOUS
 62
4
 10
-197.610574151135440
 20
-215.375906381661820
 11
-48.610574151135552
 21
-215.375906381661820
  0
LINE
  8
0
  6
CONTINUOUS
 62
4
 10
-197.610574151135440
 20
-214.875906381661820
 11
-48.610574151135552
 21
-214.875906381661820
  0
LINE
  8
0
  6
CONTINUOUS
 62
4
 10
-207.610574151135320
 20
-177.875906381661820
 11
-205.610574151135320
 21
-177.875906381661820
  0
LINE
  8
0
  6
CONTINUOUS
 62
4
 10
-130.610574151135440
 20
-177.875906381661820
 11
-48.610574151135552
 21
-177.875906381661820
  0
LINE
  8
0
  6
CONTINUOUS
 62
4
 10
-207.610574151135320
 20
-184.067840174141450
 11
-205.610574151135320
 21
-184.067840174141450
  0
LINE
  8
0
  6
CONTINUOUS
 62
4
 10
-130.610574151135440
 20
-184.067840174141450
 11
-48.610574151135552
 21
-184.067840174141450
  0
LINE
  8
0
  6
CONTINUOUS
 62
4
 10
-207.610574151135320
 20
-182.705959838792180
 11
-205.610574151135320
 21
-182.705959838792180
  0
LINE
  8
0
  6
CONTINUOUS
 62
4
 10
-130.610574151135440
 20
-182.705959838792180
 11
-48.610574151135552
 21
-182.705959838792180
  0
LINE
  8
0
  6
CONTINUOUS
 62
4
 10
-207.610574151135320
 20
-188.158340708231090
 11
-205.451170936041540
 21
-188.158340708231090
  0
LINE
  8
0
  6
CONTINUOUS
 62
4
 10
-130.769977366229340
 20
-188.158340708231090
 11
-48.610574151135552
 21
-188.158340708231090
  0
ARC
  8
0
  6
CONTINUOUS
 62
3
 10
-246.010574151085170
 20
-110.432701324416370
 40
2.599999999999721
 50
125.000000000001370
 51
180.000000000000000
  0
LINE
  8
0
  6
CONTINUOUS
 62
3
 10
-237.776127100576790
 20
-101.492865495882020
 11
-247.501872885597780
 21
-108.302906009265250
  0
ARC
  8
0
  6
CONTINUOUS
 62
3
 10
-226.304598373555790
 20
-117.875906381661820
 40
20.000000000000000
 50
90.000000000000000
 51
125.000000000000240
  0
LINE
  8
0
  6
CONTINUOUS
 62
3
 10
-197.610574151135440
 20
-97.875906381661821
 11
-226.304598373555790
 21
-97.875906381661821
  0
LINE
  8
0
  6
CONTINUOUS
 62
3
 10
-48.610574151135552
 20
-99.375906381661821
 11
-197.610574151135440
 21
-99.375906381661821
  0
LINE
  8
0
  6
CONTINUOUS
 62
3
 10
-207.610574151135320
 20
-122.875906381661820
 11
-207.610574151135320
 21
-157.875906381661820
  0
ARC
  8
0
  6
CONTINUOUS
 62
3
 10
-200.610574151135440
 20
-116.875906381661820
 40
3.000000000000000
 50
270.000000000000000
 51
0.000000000000000
  0
LINE
  8
0
  6
CONTINUOUS
 62
3
 10
-200.610574151135440
 20
-119.875906381661820
 11
-204.610574151135320
 21
-119.875906381661820
  0
ARC
  8
0
  6
CONTINUOUS
 62
3
 10
-204.610574151135320
 20
-122.875906381661820
 40
3.000000000000000
 50
90.000000000000000
 51
180.000000000000000
  0
LINE
  8
0
  6
CONTINUOUS
 62
3
 10
-197.610574151135440
 20
-116.875906381661820
 11
-197.610574151135440
 21
-97.875906381661821
  0
LINE
  8
0
  6
CONTINUOUS
 62
4
 10
-207.610574151135320
 20
-126.125114665287470
 11
-48.610574151135552
 21
-126.125114665287470
  0
LINE
  8
0
  6
CONTINUOUS
 62
4
 10
-207.524237940132250
 20
-122.161369241487930
 11
-48.610574151135552
 21
-122.161369241487930
  0
LINE
  8
0
  6
CONTINUOUS
 62
4
 10
-206.513566709515540
 20
-120.556721325925870
 11
-48.610574151135552
 21
-120.556721325925870
  0
LINE
  8
0
  6
CONTINUOUS
 62
4
 10
-197.610574151135440
 20
-112.510119663192080
 11
-48.610574151135552
 21
-112.510119663192080
  0
LINE
  8
0
  6
CONTINUOUS
 62
4
 10
-197.610574151135440
 20
-107.560372194886320
 11
-48.610574151135552
 21
-107.560372194886320
  0
LINE
  8
0
  6
CONTINUOUS
 62
4
 10
-197.610574151135440
 20
-102.875906381661820
 11
-48.610574151135552
 21
-102.875906381661820
  0
LINE
  8
0
  6
CONTINUOUS
 62
4
 10
-197.610574151135440
 20
-101.875906381661820
 11
-48.610574151135552
 21
-101.875906381661820
  0
LINE
  8
0
  6
CONTINUOUS
 62
4
 10
-197.610574151135440
 20
-100.375906381661820
 11
-48.610574151135552
 21
-100.375906381661820
  0
LINE
  8
0
  6
CONTINUOUS
 62
4
 10
-197.610574151135440
 20
-100.875906381661820
 11
-48.610574151135552
 21
-100.875906381661820
  0
LINE
  8
0
  6
CONTINUOUS
 62
4
 10
-207.610574151135320
 20
-137.875906381661820
 11
-205.610574151135320
 21
-137.875906381661820
  0
LINE
  8
0
  6
CONTINUOUS
 62
4
 10
-130.610574151135440
 20
-137.875906381661820
 11
-48.610574151135552
 21
-137.875906381661820
  0
LINE
  8
0
  6
CONTINUOUS
 62
4
 10
-207.610574151135320
 20
-131.683972589182190
 11
-205.610574151135320
 21
-131.683972589182190
  0
LINE
  8
0
  6
CONTINUOUS
 62
4
 10
-130.610574151135440
 20
-131.683972589182190
 11
-48.610574151135552
 21
-131.683972589182190
  0
LINE
  8
0
  6
CONTINUOUS
 62
4
 10
-207.610574151135320
 20
-133.045852924531460
 11
-205.610574151135320
 21
-133.045852924531460
  0
LINE
  8
0
  6
CONTINUOUS
 62
4
 10
-130.610574151135440
 20
-133.045852924531460
 11
-48.610574151135552
 21
-133.045852924531460
  0
LINE
  8
0
  6
CONTINUOUS
 62
4
 10
-207.610574151135320
 20
-127.593472055092540
 11
-205.451170936041540
 21
-127.593472055092540
  0
LINE
  8
0
  6
CONTINUOUS
 62
4
 10
-130.769977366229340
 20
-127.593472055092540
 11
-48.610574151135552
 21
-127.593472055092540
  0
LINE
  8
0
  6
CONTINUOUS
 62
3
 10
177.389431900072110
 20
-44.660177629144052
 11
173.389431900072170
 21
-44.660177629144052
  0
LINE
  8
0
  6
CONTINUOUS
 62
3
 10
177.389431900072820
 20
-76.112004062906124
 11
173.389431900072940
 21
-76.112004062906124
  0
LINE
  8
0
  6
CONTINUOUS
 62
3
 10
173.389431900074500
 20
-151.375906381662390
 11
177.389431900074560
 21
-151.375906381662390
  0
LINE
  8
0
  6
CONTINUOUS
 62
3
 10
170.389431900072200
 20
-47.660177629144115
 11
170.389431900074500
 21
-148.375906381662450
  0
ARC
  8
0
  6
CONTINUOUS
 62
3
 10
173.389431900072200
 20
-47.660177629144052
 40
3.000000000000000
 50
90.000000000000000
 51
180.000000000001220
  0
ARC
  8
0
  6
CONTINUOUS
 62
3
 10
173.389431900074500
 20
-148.375906381662390
 40
3.000000000000000
 50
180.000000000001080
 51
270.000000000000000
  0
ARC
  8
0
  6
CONTINUOUS
 62
3
 10
173.389431900072910
 20
-79.112004062906124
 40
3.000000000000000
 50
90.000000000000000
 51
180.000000000001080
  0
ARC
  8
0
  6
CONTINUOUS
 62
3
 10
173.389431900072910
 20
-233.639808700418660
 40
3.000000000000000
 50
179.999999999998890
 51
270.000000000000000
  0
ARC
  8
0
  6
CONTINUOUS
 62
3
 10
173.389431900074500
 20
-164.375906381662390
 40
3.000000000000000
 50
90.000000000000000
 51
179.999999999998890
  0
LINE
  8
0
  6
CONTINUOUS
 62
3
 10
170.389431900072200
 20
-265.091635134180650
 11
170.389431900074500
 21
-164.375906381662330
  0
ARC
  8
0
  6
CONTINUOUS
 62
3
 10
173.389431900072200
 20
-265.091635134180710
 40
3.000000000000000
 50
179.999999999998890
 51
270.000000000000000
  0
LINE
  8
0
  6
CONTINUOUS
 62
3
 10
177.389431900072820
 20
-236.639808700418660
 11
173.389431900072940
 21
-236.639808700418660
  0
LINE
  8
0
  6
CONTINUOUS
 62
3
 10
177.389431900072110
 20
-268.091635134180710
 11
173.389431900072170
 21
-268.091635134180710
  0
LINE
  8
0
  6
CONTINUOUS
 62
3
 10
173.389431900074500
 20
-161.375906381662390
 11
177.389431900074560
 21
-161.375906381662390
  0
LINE
  8
0
  6
CONTINUOUS
 62
3
 10
-34.872253932350191
 20
-98.655911527916032
 11
-48.610574151135552
 21
-99.375906381661821
  0
LINE
  8
0
  6
CONTINUOUS
 62
3
 10
7.889425848864448
 20
-122.375906381662380
 11
-24.610574151136120
 21
-122.375906381662380
  0
LINE
  8
0
  6
CONTINUOUS
 62
3
 10
8.031309026113604
 20
-111.375906381662160
 11
-24.610574151135665
 21
-111.375906381662160
  0
LINE
  8
0
  6
CONTINUOUS
 62
3
 10
-29.610574151137371
 20
-148.375906381662050
 11
-29.610574151135665
 21
-106.375906381661930
  0
ARC
  8
0
  6
CONTINUOUS
 62
3
 10
-24.610574151136120
 20
-117.375906381662380
 40
5.000000000000000
 50
179.999999999997410
 51
270.000000000000000
  0
ARC
  8
0
  6
CONTINUOUS
 62
3
 10
-24.610574151135665
 20
-106.375906381662160
 40
5.000000000000000
 50
179.999999999997410
 51
270.000000000000000
  0
LINE
  8
0
  6
CONTINUOUS
 62
3
 10
-29.610574151135665
 20
-106.375906381661930
 11
-29.610574151135552
 21
-103.649059201689050
  0
ARC
  8
0
  6
CONTINUOUS
 62
3
 10
-34.610574151135552
 20
-103.649059201688940
 40
5.000000000000000
 50
359.999999999998690
 51
92.999999999999048
  0
LINE
  8
0
  6
CONTINUOUS
 62
3
 10
-24.610574151137371
 20
-153.375906381662280
 11
9.889425848864448
 21
-153.375906381662280
  0
ARC
  8
0
  6
CONTINUOUS
 62
3
 10
-24.610574151137371
 20
-148.375906381662280
 40
5.000000000000000
 50
179.999999999997410
 51
270.000000000000000
  0
LINE
  8
0
  6
CONTINUOUS
 62
3
 10
-29.610574151136916
 20
-137.875906381663980
 11
-48.610574151135552
 21
-137.875906381663980
  0
LINE
  8
0
  6
CONTINUOUS
 62
3
 10
-48.610574151135552
 20
-216.375906381662160
 11
-48.610574151135552
 21
-99.375906381661594
  0
LINE
  8
0
  6
CONTINUOUS
 62
3
 10
-0.676543699735134
 20
-218.888022469708630
 11
-48.610574151139303
 21
-216.375906381661930
  0
LINE
  8
0
  6
CONTINUOUS
 62
3
 10
11.896385072065073
 20
-265.545423271944510
 11
-22.430426005470395
 21
-219.554117158280860
  0
LINE
  8
0
  6
CONTINUOUS
 62
3
 10
-48.610574151135552
 20
-177.875906381663980
 11
9.889425848864448
 21
-177.875906381663980
  0
LINE
  8
0
  6
CONTINUOUS
 62
3
 10
-48.610574151135552
 20
-199.072928805927970
 11
-26.110574151135552
 21
-199.072928805928090
  0
LINE
  8
0
  6
CONTINUOUS
 62
3
 10
-21.110574151135552
 20
-217.817120311947520
 11
-21.110574151135552
 21
-204.072928805928090
  0
ARC
  8
0
  6
CONTINUOUS
 62
3
 10
-26.110574151135552
 20
-204.072928805928090
 40
5.000000000000000
 50
0.000000000000000
 51
90.000000000000000
  0
ARC
  8
0
  6
CONTINUOUS
 62
3
 10
-26.437385228671019
 20
-222.544815702702860
 40
5.000000000000044
 50
36.736779968242502
 51
86.999999999997044
  0
LINE
  8
0
  6
CONTINUOUS
 62
3
 10
12.889425848864448
 20
-107.875906381662160
 11
12.889425848864448
 21
-256.168143465814410
  0
ARC
  8
0
  6
CONTINUOUS
 62
3
 10
9.889425848864448
 20
-180.875906381663980
 40
3.000000000000000
 50
0.000000000000000
 51
90.000000000000000
  0
LINE
  8
0
  6
CONTINUOUS
 62
3
 10
15.889425848864448
 20
-104.875906381662160
 11
22.889425848864448
 21
-104.875906381662160
  0
ARC
  8
0
  6
CONTINUOUS
 62
3
 10
15.889425848864448
 20
-107.875906381662160
 40
3.000000000000000
 50
90.000000000000000
 51
180.000000000000000
  0
ARC
  8
0
  6
CONTINUOUS
 62
3
 10
8.031309026113604
 20
-106.375906381662160
 40
5.000000000000000
 50
270.000000000000000
 51
349.193077125139720
  0
ARC
  8
0
  6
CONTINUOUS
 62
3
 10
7.889425848864448
 20
-117.375906381662380
 40
5.000000000000000
 50
270.000000000000000
 51
0.000000000000000
  0
ARC
  8
0
  6
CONTINUOUS
 62
3
 10
-0.938223480950114
 20
-223.881170143481540
 40
4.999999999999903
 50
15.000000000000158
 51
86.999999999997044
  0
LINE
  8
0
  6
CONTINUOUS
 62
3
 10
8.068628257977821
 20
-238.176681923619750
 11
3.891405650495130
 21
-222.587074917968950
  0
LINE
  8
0
  6
CONTINUOUS
 62
3
 10
12.889425848864448
 20
-256.168143465814520
 11
12.889425848864448
 21
-268.629632362323490
  0
LINE
  8
0
  6
CONTINUOUS
 62
3
 10
15.784727358756982
 20
-271.627804843380770
 11
22.889425848864448
 21
-271.875906381662160
  0
ARC
  8
0
  6
CONTINUOUS
 62
3
 10
15.889425848864448
 20
-268.629632362323490
 40
3.000000000000000
 50
180.000000000000000
 51
268.000000000000680
  0
POINT
  8
0
  6
CONTINUOUS
 62
3
 10
12.889425848864448
 20
-266.875906381662160
  0
ARC
  8
0
  6
CONTINUOUS
 62
3
 10
7.889425848864448
 20
-268.536121816366400
 40
5.000000000000000
 50
0.000000000000000
 51
36.736779968241457
  0
LINE
  8
0
  6
CONTINUOUS
 62
3
 10
12.889425848864448
 20
-256.168143465814520
 11
10.748120182289028
 21
-248.176681923619750
  0
LINE
  8
0
  6
CONTINUOUS
 62
3
 10
22.889425848864448
 20
-104.875906381662160
 11
22.889425848864448
 21
-259.375906381661930
  0
LINE
  8
0
  6
CONTINUOUS
 62
3
 10
22.889425848864448
 20
-271.875906381662160
 11
22.889425848864448
 21
-259.375906381661930
  0
ARC
  8
0
  6
CONTINUOUS
 62
3
 10
9.889425848864448
 20
-150.375906381662280
 40
3.000000000000000
 50
270.000000000000000
 51
0.000000000000000
  0
LINE
  8
0
  6
DASHDOT
 62
4
 10
118.914002186842930
 20
-156.375906381662390
 11
263.068343882105640
 21
-156.375906381662390
  0
LINE
  8
0
  6
DASHDOT
 62
4
 10
-33.685027661047116
 20
-157.875906381661820
 11
-260.919792151600180
 21
-157.875906381661820
  0
LINE
  8
0
  6
DASHDOT
 62
4
 10
-7.110574151135552
 20
-136.120018373381300
 11
-7.110574151135552
 21
-106.218989091895310
  0
INSERT
  8
0
  2
SYM8
 10
12.889425848864335
 20
115.415196966669320
  0
INSERT
  8
0
  2
SYM9
 10
12.889425848864335
 20
225.016748050584060
 41
-1.000000000000000
 50
180.000000000000000
  0
INSERT
  8
0
  2
SYM10
 10
31.889425848855240
 20
159.715972508626460
 50
0.000000000000014
  0
INSERT
  8
0
  2
SYM11
 10
48.389425848865699
 20
103.215972508626460
 50
0.000000000000014
  0
INSERT
  8
0
  2
SYM12
 10
31.889425848855240
 20
180.715972508626460
 41
-1.000000000000000
 50
180.000000000000000
  0
INSERT
  8
0
  2
SYM13
 10
48.389425848865699
 20
237.215972508626460
 41
-1.000000000000000
 50
180.000000000000000
  0
LINE
  8
0
  6
DASHDOT
 62
4
 10
-154.394103566862210
 20
92.215972508627146
 11
-132.627126158333910
 21
92.215972508627146
  0
CIRCLE
  8
0
  6
DASHED
 62
4
 10
-143.110574151135550
 20
92.215972508627146
 40
6.000000000000000
  0
ARC
  8
0
  6
DASHED
 62
4
 10
-193.110574151135550
 20
92.215972508627146
 40
7.000000000000000
 50
180.000000000000000
 51
0.000000000000000
  0
ARC
  8
0
  6
DASHED
 62
4
 10
-143.110574151135550
 20
92.215972508627146
 40
7.000000000000000
 50
180.000000000000000
 51
0.000000000000000
  0
LINE
  8
0
  6
DASHDOT
 62
4
 10
-202.196263257719120
 20
92.215972508627146
 11
-181.709675024009810
 21
92.215972508627146
  0
LINE
  8
0
  6
DASHED
 62
4
 10
-200.110574151135550
 20
92.215972508627146
 11
-200.110574151135550
 21
106.715972508627140
  0
LINE
  8
0
  6
DASHED
 62
4
 10
-186.110574151135550
 20
92.215972508627146
 11
-186.110574151135550
 21
106.715972508627140
  0
LINE
  8
0
  6
DASHED
 62
4
 10
-150.110574151135550
 20
92.215972508627146
 11
-150.110574151135550
 21
106.715972508627140
  0
LINE
  8
0
  6
DASHED
 62
4
 10
-136.110574151135550
 20
92.215972508627146
 11
-136.110574151135550
 21
106.715972508627140
  0
LINE
  8
0
  6
DASHDOT
 62
4
 10
-143.110574151135550
 20
83.271815250951022
 11
-143.110574151135550
 21
105.251317383486360
  0
LINE
  8
0
  6
DASHDOT
 62
4
 10
-193.110574151135550
 20
83.271815250951022
 11
-193.110574151135550
 21
104.820304231483070
  0
POLYLINE
  8
0
  6
CONTINUOUS
 62
3
 66
1
 70
1
  0
VERTEX
  8
0
  6
CONTINUOUS
 62
3
 10
-203.910574151134990
 20
118.292447476566840
  0
VERTEX
  8
0
  6
CONTINUOUS
 62
3
 10
-204.000883333239810
 20
118.995404442767210
  0
VERTEX
  8
0
  6
CONTINUOUS
 62
3
 10
-204.268340348331950
 20
119.671347166979300
  0
VERTEX
  8
0
  6
CONTINUOUS
 62
3
 10
-204.702666973313030
 20
120.294299549384700
  0
VERTEX
  8
0
  6
CONTINUOUS
 62
3
 10
-205.287172279558210
 20
120.840321879283280
  0
VERTEX
  8
0
  6
CONTINUOUS
 62
3
 10
-205.999394055942870
 20
121.288430824749890
  0
VERTEX
  8
0
  6
CONTINUOUS
 62
3
 10
-206.811962019019060
 20
121.621405810312660
  0
VERTEX
  8
0
  6
CONTINUOUS
 62
3
 10
-207.693649637659180
 20
121.826450794010910
  0
VERTEX
  8
0
  6
CONTINUOUS
 62
3
 10
-208.610574151134980
 20
121.895686012111680
  0
VERTEX
  8
0
  6
CONTINUOUS
 62
3
 10
-209.527498664610790
 20
121.826450794010910
  0
VERTEX
  8
0
  6
CONTINUOUS
 62
3
 10
-210.409186283250900
 20
121.621405810312660
  0
VERTEX
  8
0
  6
CONTINUOUS
 62
3
 10
-211.221754246327090
 20
121.288430824749890
  0
VERTEX
  8
0
  6
CONTINUOUS
 62
3
 10
-211.933976022711760
 20
120.840321879283280
  0
VERTEX
  8
0
  6
CONTINUOUS
 62
3
 10
-212.518481328956940
 20
120.294299549384700
  0
VERTEX
  8
0
  6
CONTINUOUS
 62
3
 10
-212.952807953938020
 20
119.671347166979300
  0
VERTEX
  8
0
  6
CONTINUOUS
 62
3
 10
-213.220264969030150
 20
118.995404442767210
  0
VERTEX
  8
0
  6
CONTINUOUS
 62
3
 10
-213.310574151134970
 20
118.292447476566840
  0
VERTEX
  8
0
  6
CONTINUOUS
 62
3
 10
-213.220264969030150
 20
117.589490510366480
  0
VERTEX
  8
0
  6
CONTINUOUS
 62
3
 10
-212.952807953938020
 20
116.913547786154390
  0
VERTEX
  8
0
  6
CONTINUOUS
 62
3
 10
-212.518481328956940
 20
116.290595403748990
  0
VERTEX
  8
0
  6
CONTINUOUS
 62
3
 10
-211.933976022711730
 20
115.744573073850410
  0
VERTEX
  8
0
  6
CONTINUOUS
 62
3
 10
-211.221754246327090
 20
115.296464128383800
  0
VERTEX
  8
0
  6
CONTINUOUS
 62
3
 10
-210.409186283250900
 20
114.963489142821030
  0
VERTEX
  8
0
  6
CONTINUOUS
 62
3
 10
-209.527498664610790
 20
114.758444159122780
  0
VERTEX
  8
0
  6
CONTINUOUS
 62
3
 10
-208.610574151134980
 20
114.689208941022010
  0
VERTEX
  8
0
  6
CONTINUOUS
 62
3
 10
-207.693649637659180
 20
114.758444159122780
  0
VERTEX
  8
0
  6
CONTINUOUS
 62
3
 10
-206.811962019019060
 20
114.963489142821030
  0
VERTEX
  8
0
  6
CONTINUOUS
 62
3
 10
-205.999394055942870
 20
115.296464128383800
  0
VERTEX
  8
0
  6
CONTINUOUS
 62
3
 10
-205.287172279558230
 20
115.744573073850410
  0
VERTEX
  8
0
  6
CONTINUOUS
 62
3
 10
-204.702666973313030
 20
116.290595403748990
  0
VERTEX
  8
0
  6
CONTINUOUS
 62
3
 10
-204.268340348331950
 20
116.913547786154390
  0
VERTEX
  8
0
  6
CONTINUOUS
 62
3
 10
-204.000883333239810
 20
117.589490510366480
  0
SEQEND
  8
0
  6
CONTINUOUS
 62
3
  0
LINE
  8
0
  6
CONTINUOUS
 62
3
 10
-210.610574151134980
 20
115.300071922566530
 11
-208.610574151134980
 21
116.475857408188850
  0
LINE
  8
0
  6
CONTINUOUS
 62
3
 10
-208.610574151134980
 20
116.475857408188850
 11
-206.610574151134980
 21
118.128499047312280
  0
LINE
  8
0
  6
CONTINUOUS
 62
3
 10
-206.610574151134980
 20
115.300071922566530
 11
-208.610574151134980
 21
116.475857408188850
  0
LINE
  8
0
  6
CONTINUOUS
 62
3
 10
-208.610574151134980
 20
116.475857408188850
 11
-210.610574151134980
 21
118.128499047312280
  0
POLYLINE
  8
0
  6
CONTINUOUS
 62
3
 66
1
 70
1
  0
VERTEX
  8
0
  6
CONTINUOUS
 62
3
 10
-203.910574151134990
 20
222.139497540686760
  0
VERTEX
  8
0
  6
CONTINUOUS
 62
3
 10
-204.000883333239810
 20
222.842454506887120
  0
VERTEX
  8
0
  6
CONTINUOUS
 62
3
 10
-204.268340348331950
 20
223.518397231099210
  0
VERTEX
  8
0
  6
CONTINUOUS
 62
3
 10
-204.702666973313030
 20
224.141349613504620
  0
VERTEX
  8
0
  6
CONTINUOUS
 62
3
 10
-205.287172279558210
 20
224.687371943403210
  0
VERTEX
  8
0
  6
CONTINUOUS
 62
3
 10
-205.999394055942870
 20
225.135480888869840
  0
VERTEX
  8
0
  6
CONTINUOUS
 62
3
 10
-206.811962019019060
 20
225.468455874432580
  0
VERTEX
  8
0
  6
CONTINUOUS
 62
3
 10
-207.693649637659180
 20
225.673500858130840
  0
VERTEX
  8
0
  6
CONTINUOUS
 62
3
 10
-208.610574151134980
 20
225.742736076231610
  0
VERTEX
  8
0
  6
CONTINUOUS
 62
3
 10
-209.527498664610790
 20
225.673500858130840
  0
VERTEX
  8
0
  6
CONTINUOUS
 62
3
 10
-210.409186283250900
 20
225.468455874432580
  0
VERTEX
  8
0
  6
CONTINUOUS
 62
3
 10
-211.221754246327090
 20
225.135480888869840
  0
VERTEX
  8
0
  6
CONTINUOUS
 62
3
 10
-211.933976022711760
 20
224.687371943403210
  0
VERTEX
  8
0
  6
CONTINUOUS
 62
3
 10
-212.518481328956940
 20
224.141349613504620
  0
VERTEX
  8
0
  6
CONTINUOUS
 62
3
 10
-212.952807953938020
 20
223.518397231099210
  0
VERTEX
  8
0
  6
CONTINUOUS
 62
3
 10
-213.220264969030150
 20
222.842454506887120
  0
VERTEX
  8
0
  6
CONTINUOUS
 62
3
 10
-213.310574151134970
 20
222.139497540686760
  0
VERTEX
  8
0
  6
CONTINUOUS
 62
3
 10
-213.220264969030150
 20
221.436540574486400
  0
VERTEX
  8
0
  6
CONTINUOUS
 62
3
 10
-212.952807953938020
 20
220.760597850274310
  0
VERTEX
  8
0
  6
CONTINUOUS
 62
3
 10
-212.518481328956940
 20
220.137645467868910
  0
VERTEX
  8
0
  6
CONTINUOUS
 62
3
 10
-211.933976022711730
 20
219.591623137970320
  0
VERTEX
  8
0
  6
CONTINUOUS
 62
3
 10
-211.221754246327090
 20
219.143514192503690
  0
VERTEX
  8
0
  6
CONTINUOUS
 62
3
 10
-210.409186283250900
 20
218.810539206940940
  0
VERTEX
  8
0
  6
CONTINUOUS
 62
3
 10
-209.527498664610790
 20
218.605494223242690
  0
VERTEX
  8
0
  6
CONTINUOUS
 62
3
 10
-208.610574151134980
 20
218.536259005141910
  0
VERTEX
  8
0
  6
CONTINUOUS
 62
3
 10
-207.693649637659180
 20
218.605494223242690
  0
VERTEX
  8
0
  6
CONTINUOUS
 62
3
 10
-206.811962019019060
 20
218.810539206940940
  0
VERTEX
  8
0
  6
CONTINUOUS
 62
3
 10
-205.999394055942870
 20
219.143514192503690
  0
VERTEX
  8
0
  6
CONTINUOUS
 62
3
 10
-205.287172279558230
 20
219.591623137970320
  0
VERTEX
  8
0
  6
CONTINUOUS
 62
3
 10
-204.702666973313030
 20
220.137645467868910
  0
VERTEX
  8
0
  6
CONTINUOUS
 62
3
 10
-204.268340348331950
 20
220.760597850274310
  0
VERTEX
  8
0
  6
CONTINUOUS
 62
3
 10
-204.000883333239810
 20
221.436540574486400
  0
SEQEND
  8
0
  6
CONTINUOUS
 62
3
  0
LINE
  8
0
  6
CONTINUOUS
 62
3
 10
-210.610574151134980
 20
225.131873094687080
 11
-208.610574151134980
 21
223.956087609064300
  0
LINE
  8
0
  6
CONTINUOUS
 62
3
 10
-208.610574151134980
 20
223.956087609064300
 11
-206.610574151134980
 21
222.303445969940870
  0
LINE
  8
0
  6
CONTINUOUS
 62
3
 10
-206.610574151134980
 20
225.131873094687080
 11
-208.610574151134980
 21
223.956087609064300
  0
LINE
  8
0
  6
CONTINUOUS
 62
3
 10
-208.610574151134980
 20
223.956087609064300
 11
-210.610574151134980
 21
222.303445969940870
  0
LINE
  8
0
  6
CONTINUOUS
 62
3
 10
-197.610574151135550
 20
170.215972508626690
 11
-197.610574151135550
 21
235.215972508626690
  0
LINE
  8
0
  6
CONTINUOUS
 62
3
 10
-48.610574151135665
 20
229.715972508626460
 11
-48.610574151135665
 21
170.215972508626690
  0
LINE
  8
0
  6
CONTINUOUS
 62
3
 10
-197.610574151135550
 20
235.215972508626690
 11
-226.304598373555900
 21
235.215972508626690
  0
LINE
  8
0
  6
CONTINUOUS
 62
3
 10
-248.610574151085420
 20
170.215972508626690
 11
-248.610574151085420
 21
222.659177565872140
  0
ARC
  8
0
  6
CONTINUOUS
 62
3
 10
-226.304598373555900
 20
215.215972508626690
 40
20.000000000000000
 50
90.000000000000000
 51
125.000000000000240
  0
LINE
  8
0
  6
CONTINUOUS
 62
3
 10
-237.776127100576900
 20
231.599013394406480
 11
-247.501872885597890
 21
224.788972881023260
  0
ARC
  8
0
  6
CONTINUOUS
 62
3
 10
-246.010574151085280
 20
222.659177565872140
 40
2.599999999999721
 50
125.000000000001370
 51
180.000000000000000
  0
LINE
  8
0
  6
CONTINUOUS
 62
3
 10
-197.610574151135550
 20
170.215972508626690
 11
-197.610574151135550
 21
111.596751591753900
  0
LINE
  8
0
  6
CONTINUOUS
 62
3
 10
-48.610574151135665
 20
110.715972508626690
 11
-48.610574151135665
 21
170.215972508626690
  0
LINE
  8
0
  6
CONTINUOUS
 62
3
 10
-248.610574151085420
 20
170.215972508626690
 11
-248.610574151085420
 21
117.772767451381240
  0
LINE
  8
0
  6
CONTINUOUS
 62
3
 10
-237.776127100576900
 20
108.832931622846900
 11
-247.501872885597890
 21
115.642972136230120
  0
ARC
  8
0
  6
CONTINUOUS
 62
3
 10
-246.010574151085280
 20
117.772767451381240
 40
2.600000000000136
 50
180.000000000000000
 51
234.999999999998610
  0
LINE
  8
0
  6
CONTINUOUS
 62
3
 10
-207.610574151135440
 20
105.215972508626690
 11
-226.304598373555900
 21
105.215972508626690
  0
ARC
  8
0
  6
CONTINUOUS
 62
3
 10
-226.304598373555900
 20
125.215972508626690
 40
20.000000000000007
 50
234.999999999999740
 51
270.000000000000000
  0
LINE
  8
0
  6
CONTINUOUS
 62
3
 10
-205.610574151135440
 20
106.715972508626910
 11
-205.610574151135440
 21
108.425178716500110
  0
LINE
  8
0
  6
CONTINUOUS
 62
3
 10
-130.610574151135550
 20
111.715972508626910
 11
-197.610574151135550
 21
111.715972508626910
  0
LINE
  8
0
  6
CONTINUOUS
 62
3
 10
-130.610574151135550
 20
106.715972508626910
 11
-205.610574151135440
 21
106.715972508626910
  0
LINE
  8
0
  6
CONTINUOUS
 62
3
 10
-204.610574151135440
 20
78.215972508627146
 11
-204.610574151135440
 21
106.715972508626910
  0
LINE
  8
0
  6
CONTINUOUS
 62
3
 10
-131.610574151135550
 20
78.215972508627146
 11
-131.610574151135550
 21
106.715972508626910
  0
ARC
  8
0
  6
CONTINUOUS
 62
3
 10
-132.610574151135550
 20
78.215972508627146
 40
1.000000000000000
 50
270.000000000000000
 51
0.000000000000000
  0
ARC
  8
0
  6
CONTINUOUS
 62
3
 10
-203.610574151135440
 20
78.215972508627146
 40
1.000000000000000
 50
180.000000000000000
 51
270.000000000000000
  0
LINE
  8
0
  6
CONTINUOUS
 62
3
 10
-132.610574151135550
 20
77.215972508627146
 11
-203.610574151135440
 21
77.215972508627146
  0
LINE
  8
0
  6
CONTINUOUS
 62
3
 10
-138.610574151135550
 20
77.215972508627146
 11
-138.610574151135550
 21
76.715972508627146
  0
LINE
  8
0
  6
CONTINUOUS
 62
3
 10
-141.110574151135550
 20
77.215972508627146
 11
-141.110574151135550
 21
76.715972508627146
  0
LINE
  8
0
  6
CONTINUOUS
 62
3
 10
-146.610574151135550
 20
77.215972508627146
 11
-146.610574151135550
 21
76.715972508627146
  0
LINE
  8
0
  6
CONTINUOUS
 62
3
 10
-138.610574151135550
 20
76.715972508627146
 11
-146.610574151135550
 21
76.715972508627146
  0
LINE
  8
0
  6
CONTINUOUS
 62
3
 10
-130.610574151135550
 20
106.715972508626910
 11
-130.610574151135550
 21
111.715972508626910
  0
LINE
  8
0
  6
CONTINUOUS
 62
3
 10
-204.610574151135440
 20
108.596751591753900
 11
-200.610574151135550
 21
108.596751591753900
  0
LINE
  8
0
  6
CONTINUOUS
 62
3
 10
-207.610574151135440
 20
105.215972508626690
 11
-207.610574151135440
 21
105.596751591753900
  0
ARC
  8
0
  6
CONTINUOUS
 62
3
 10
-200.610574151135550
 20
111.596751591753900
 40
3.000000000000000
 50
270.000000000000000
 51
0.000000000000000
  0
ARC
  8
0
  6
CONTINUOUS
 62
3
 10
-204.610574151135440
 20
105.596751591753900
 40
3.000000000000000
 50
90.000000000000000
 51
180.000000000000000
  0
LINE
  8
0
  6
CONTINUOUS
 62
3
 10
-197.610574151135550
 20
229.715972508626460
 11
-48.610574151135665
 21
229.715972508626460
  0
LINE
  8
0
  6
CONTINUOUS
 62
3
 10
-130.610574151135550
 20
110.715972508626690
 11
-48.610574151135665
 21
110.715972508626690
  0
LINE
  8
0
  6
CONTINUOUS
 62
4
 10
-197.610574151135550
 20
113.215972508626690
 11
-48.610574151135665
 21
113.215972508626690
  0
LINE
  8
0
  6
CONTINUOUS
 62
4
 10
-197.610574151135550
 20
114.215972508626690
 11
-48.610574151135665
 21
114.215972508626690
  0
LINE
  8
0
  6
CONTINUOUS
 62
4
 10
-197.610574151135550
 20
115.215972508626690
 11
-48.610574151135665
 21
115.215972508626690
  0
LINE
  8
0
  6
CONTINUOUS
 62
4
 10
-197.610574151135550
 20
119.900438321850970
 11
-48.610574151135665
 21
119.900438321850970
  0
LINE
  8
0
  6
CONTINUOUS
 62
4
 10
-197.610574151135550
 20
124.850185790156720
 11
-48.610574151135665
 21
124.850185790156720
  0
LINE
  8
0
  6
CONTINUOUS
 62
4
 10
-197.610574151135550
 20
132.896787452890750
 11
-48.610574151135665
 21
132.896787452890750
  0
LINE
  8
0
  6
CONTINUOUS
 62
4
 10
-197.610574151135550
 20
134.501435368452800
 11
-48.610574151135665
 21
134.501435368452800
  0
LINE
  8
0
  6
CONTINUOUS
 62
4
 10
-197.610574151135550
 20
138.465180792252340
 11
-48.610574151135665
 21
138.465180792252340
  0
LINE
  8
0
  6
CONTINUOUS
 62
4
 10
-197.610574151135550
 20
139.933538182056960
 11
-48.610574151135665
 21
139.933538182056960
  0
LINE
  8
0
  6
CONTINUOUS
 62
4
 10
-197.610574151135550
 20
144.024038716146830
 11
-48.610574151135665
 21
144.024038716146830
  0
LINE
  8
0
  6
CONTINUOUS
 62
4
 10
-197.610574151135550
 20
145.385919051496100
 11
-48.610574151135665
 21
145.385919051496100
  0
LINE
  8
0
  6
CONTINUOUS
 62
4
 10
-197.610574151135550
 20
149.576472783038300
 11
-48.610574151135665
 21
149.576472783038300
  0
LINE
  8
0
  6
CONTINUOUS
 62
4
 10
-197.610574151135550
 20
150.842710699125520
 11
-48.610574151135665
 21
150.842710699125520
  0
LINE
  8
0
  6
CONTINUOUS
 62
4
 10
-197.610574151135550
 20
155.215972508626690
 11
-48.610574151135665
 21
155.215972508626690
  0
LINE
  8
0
  6
CONTINUOUS
 62
4
 10
-197.610574151135550
 20
207.535157564362630
 11
-48.610574151135665
 21
207.535157564362630
  0
LINE
  8
0
  6
CONTINUOUS
 62
4
 10
-197.610574151135550
 20
205.930509648800580
 11
-48.610574151135665
 21
205.930509648800580
  0
LINE
  8
0
  6
CONTINUOUS
 62
4
 10
-197.610574151135550
 20
201.966764225001040
 11
-48.610574151135665
 21
201.966764225001040
  0
LINE
  8
0
  6
CONTINUOUS
 62
4
 10
-197.610574151135550
 20
200.498406835196420
 11
-48.610574151135665
 21
200.498406835196420
  0
LINE
  8
0
  6
CONTINUOUS
 62
4
 10
-197.610574151135550
 20
196.407906301106550
 11
-48.610574151135665
 21
196.407906301106550
  0
LINE
  8
0
  6
CONTINUOUS
 62
4
 10
-197.610574151135550
 20
195.046025965757280
 11
-48.610574151135665
 21
195.046025965757280
  0
LINE
  8
0
  6
CONTINUOUS
 62
4
 10
-197.610574151135550
 20
190.855472234215090
 11
-48.610574151135665
 21
190.855472234215090
  0
LINE
  8
0
  6
CONTINUOUS
 62
4
 10
-197.610574151135550
 20
189.589234318127860
 11
-48.610574151135665
 21
189.589234318127860
  0
LINE
  8
0
  6
CONTINUOUS
 62
4
 10
-197.610574151135550
 20
185.215972508626690
 11
-48.610574151135665
 21
185.215972508626690
  0
LINE
  8
0
  6
CONTINUOUS
 62
4
 10
-197.610574151135550
 20
215.581759227096650
 11
-48.610574151135665
 21
215.581759227096650
  0
LINE
  8
0
  6
CONTINUOUS
 62
4
 10
-197.610574151135550
 20
220.531506695402410
 11
-48.610574151135665
 21
220.531506695402410
  0
LINE
  8
0
  6
CONTINUOUS
 62
4
 10
-197.610574151135550
 20
225.215972508626690
 11
-48.610574151135665
 21
225.215972508626690
  0
LINE
  8
0
  6
CONTINUOUS
 62
4
 10
-197.610574151135550
 20
226.215972508626690
 11
-48.610574151135665
 21
226.215972508626690
  0
LINE
  8
0
  6
CONTINUOUS
 62
4
 10
-197.610574151135550
 20
227.215972508626690
 11
-48.610574151135665
 21
227.215972508626690
  0
LINE
  8
0
  6
CONTINUOUS
 62
3
 10
-130.610574151135550
 20
229.715972508626690
 11
-48.610574151135665
 21
229.715972508626690
  0
LINE
  8
0
  6
CONTINUOUS
 62
3
 10
-73.110574151135665
 20
229.715972508626460
 11
-197.110574151135670
 21
229.715972508626460
  0
LINE
  8
0
  6
DASHDOT
 62
3
 10
-73.110574151135665
 20
229.715972508626460
 11
-73.110574151135665
 21
234.715972508626460
  0
LINE
  8
0
  6
CONTINUOUS
 62
3
 10
-197.110574151135670
 20
229.715972508626460
 11
-197.110574151135670
 21
234.715972508626460
  0
ARC
  8
0
  6
CONTINUOUS
 62
3
 10
-72.110574151135665
 20
253.218842129207360
 40
2.000000000000000
 50
270.000000000000000
 51
0.000000000000000
  0
ARC
  8
0
  6
CONTINUOUS
 62
3
 10
-72.110574151135665
 20
254.017844000326250
 40
2.000000000000000
 50
270.000000000000000
 51
0.000000000000000
  0
ARC
  8
0
  6
CONTINUOUS
 62
3
 10
-72.110574151135665
 20
254.816845871411490
 40
2.000000000000000
 50
270.000000000000000
 51
0.000000000000000
  0
ARC
  8
0
  6
CONTINUOUS
 62
3
 10
-72.110574151135665
 20
255.910482799688680
 40
2.000000000000000
 50
0.000000000000000
 51
90.000000000000000
  0
LINE
  8
0
  6
CONTINUOUS
 62
3
 10
-73.110574151135665
 20
257.910482799688680
 11
-72.110574151135665
 21
257.910482799688680
  0
LINE
  8
0
  6
CONTINUOUS
 62
3
 10
-72.110574151135665
 20
251.218842129207360
 11
-198.110574151135670
 21
251.218842129207360
  0
LINE
  8
0
  6
CONTINUOUS
 62
3
 10
-72.110574151135665
 20
252.017844000309420
 11
-198.110574151135670
 21
252.017844000309420
  0
LINE
  8
0
  6
CONTINUOUS
 62
3
 10
-70.110574151135665
 20
255.910482799688680
 11
-70.110574151135665
 21
253.218842129207360
  0
LINE
  8
0
  6
CONTINUOUS
 62
3
 10
-73.110574151135665
 20
239.715972508626460
 11
-73.110574151135665
 21
251.017844000326250
  0
LINE
  8
0
  6
CONTINUOUS
 62
3
 10
-192.110574151135670
 20
276.315972508626370
 11
-78.110574151135665
 21
276.315972508626370
  0
ARC
  8
0
  6
CONTINUOUS
 62
3
 10
-78.110574151135665
 20
271.315972508626370
 40
5.000000000000000
 50
0.000000000000000
 51
90.000000000000000
  0
LINE
  8
0
  6
CONTINUOUS
 62
3
 10
-197.110574151135670
 20
239.715972508626460
 11
-197.110574151135670
 21
251.218842129207360
  0
ARC
  8
0
  6
CONTINUOUS
 62
3
 10
-198.110574151135670
 20
253.218842129207360
 40
2.000000000000000
 50
180.000000000000000
 51
270.000000000000000
  0
LINE
  8
0
  6
CONTINUOUS
 62
3
 10
-200.110574151135670
 20
255.910482799688680
 11
-200.110574151135670
 21
253.218842129207360
  0
ARC
  8
0
  6
CONTINUOUS
 62
3
 10
-198.110574151135670
 20
254.017844000326250
 40
2.000000000000000
 50
180.000000000000000
 51
270.000000000000000
  0
ARC
  8
0
  6
CONTINUOUS
 62
3
 10
-198.110574151135670
 20
254.816845871411490
 40
2.000000000000000
 50
180.000000000000000
 51
270.000000000000000
  0
ARC
  8
0
  6
CONTINUOUS
 62
3
 10
-198.110574151135670
 20
255.910482799688680
 40
2.000000000000000
 50
90.000000000000000
 51
180.000000000000000
  0
ARC
  8
0
  6
CONTINUOUS
 62
3
 10
-192.110574151135670
 20
271.315972508626370
 40
5.000000000000000
 50
90.000000000000000
 51
180.000000000000000
  0
ARC
  8
0
  6
CONTINUOUS
 62
3
 10
-192.110574151135670
 20
239.715972508626460
 40
5.000000000000000
 50
180.000000000000000
 51
270.000000000000000
  0
LINE
  8
0
  6
CONTINUOUS
 62
3
 10
-72.110574151135665
 20
252.816845871411490
 11
-198.110574151135670
 21
252.816845871411490
  0
LINE
  8
0
  6
CONTINUOUS
 62
3
 10
-197.110574151135670
 20
257.910482799688680
 11
-198.110574151135670
 21
257.910482799688680
  0
LINE
  8
0
  6
CONTINUOUS
 62
3
 10
-197.110574151135670
 20
258.376997568313300
 11
-197.110574151135670
 21
271.315972508626370
  0
ARC
  8
0
  6
CONTINUOUS
 62
3
 10
-78.110574151135665
 20
239.715972508626460
 40
5.000000000000000
 50
270.000000000000000
 51
0.000000000000000
  0
LINE
  8
0
  6
CONTINUOUS
 62
3
 10
-73.110574151135665
 20
258.376997568313300
 11
-73.110574151135665
 21
271.315972508626370
  0
POLYLINE
  8
0
  6
CONTINUOUS
 62
3
 66
1
  0
VERTEX
  8
0
  6
CONTINUOUS
 62
3
 10
-193.610574151135670
 20
253.066533956131250
  0
VERTEX
  8
0
  6
CONTINUOUS
 62
3
 10
-193.543322632546960
 20
253.032435745935260
  0
VERTEX
  8
0
  6
CONTINUOUS
 62
3
 10
-193.344152514925160
 20
252.999647910834630
  0
VERTEX
  8
0
  6
CONTINUOUS
 62
3
 10
-193.020717794194580
 20
252.969430468944610
  0
VERTEX
  8
0
  6
CONTINUOUS
 62
3
 10
-192.585447885288570
 20
252.942944659610900
  0
VERTEX
  8
0
  6
CONTINUOUS
 62
3
 10
-192.055069966704280
 20
252.921208317632820
  0
VERTEX
  8
0
  6
CONTINUOUS
 62
3
 10
-191.449966164413470
 20
252.905056758442640
  0
VERTEX
  8
0
  6
CONTINUOUS
 62
3
 10
-190.793390278192110
 20
252.895110677402190
  0
VERTEX
  8
0
  6
CONTINUOUS
 62
3
 10
-190.110574151135670
 20
252.891752296828030
  0
VERTEX
  8
0
  6
CONTINUOUS
 62
3
 10
-189.427758024079220
 20
252.895110677402190
  0
VERTEX
  8
0
  6
CONTINUOUS
 62
3
 10
-188.771182137857860
 20
252.905056758442640
  0
VERTEX
  8
0
  6
CONTINUOUS
 62
3
 10
-188.166078335567050
 20
252.921208317632820
  0
VERTEX
  8
0
  6
CONTINUOUS
 62
3
 10
-187.635700416982760
 20
252.942944659610900
  0
VERTEX
  8
0
  6
CONTINUOUS
 62
3
 10
-187.200430508076750
 20
252.969430468944610
  0
VERTEX
  8
0
  6
CONTINUOUS
 62
3
 10
-186.876995787346170
 20
252.999647910834630
  0
VERTEX
  8
0
  6
CONTINUOUS
 62
3
 10
-186.677825669724370
 20
253.032435745935260
  0
VERTEX
  8
0
  6
CONTINUOUS
 62
3
 10
-186.610574151135670
 20
253.066533956131250
  0
SEQEND
  8
0
  6
CONTINUOUS
 62
3
  0
ARC
  8
0
  6
CONTINUOUS
 62
3
 10
-187.910574151135850
 20
254.053543694055630
 40
1.300000000000182
 50
0.000000000000000
 51
73.398450400977637
  0
ARC
  8
0
  6
CONTINUOUS
 62
3
 10
-190.110574151135670
 20
246.674519368306160
 40
9.000000000000123
 50
73.398450400980877
 51
106.601549599019120
  0
ARC
  8
0
  6
CONTINUOUS
 62
3
 10
-192.310574151135480
 20
254.053543694055630
 40
1.300000000000019
 50
106.601549599022360
 51
180.000000000000000
  0
LINE
  8
0
  6
CONTINUOUS
 62
3
 10
-186.610574151135670
 20
254.053543694055630
 11
-186.610574151135670
 21
253.066533956131250
  0
LINE
  8
0
  6
CONTINUOUS
 62
3
 10
-193.610574151135670
 20
254.053543694055630
 11
-193.610574151135670
 21
253.066533956131250
  0
ARC
  8
0
  6
CONTINUOUS
 62
3
 10
-192.110574151135670
 20
258.376997568313300
 40
5.000000000000000
 50
180.000000000000000
 51
252.542396876278160
  0
LINE
  8
0
  6
CONTINUOUS
 62
3
 10
-83.610574151135665
 20
254.053543694055630
 11
-83.610574151135665
 21
253.066533956131250
  0
POLYLINE
  8
0
  6
CONTINUOUS
 62
3
 66
1
  0
VERTEX
  8
0
  6
CONTINUOUS
 62
3
 10
-83.610574151135665
 20
253.066533956131250
  0
VERTEX
  8
0
  6
CONTINUOUS
 62
3
 10
-83.543322632546975
 20
253.032435745935260
  0
VERTEX
  8
0
  6
CONTINUOUS
 62
3
 10
-83.344152514925170
 20
252.999647910834630
  0
VERTEX
  8
0
  6
CONTINUOUS
 62
3
 10
-83.020717794194567
 20
252.969430468944610
  0
VERTEX
  8
0
  6
CONTINUOUS
 62
3
 10
-82.585447885288588
 20
252.942944659610900
  0
VERTEX
  8
0
  6
CONTINUOUS
 62
3
 10
-82.055069966704281
 20
252.921208317632820
  0
VERTEX
  8
0
  6
CONTINUOUS
 62
3
 10
-81.449966164413482
 20
252.905056758442640
  0
VERTEX
  8
0
  6
CONTINUOUS
 62
3
 10
-80.793390278192120
 20
252.895110677402190
  0
VERTEX
  8
0
  6
CONTINUOUS
 62
3
 10
-80.110574151135665
 20
252.891752296828030
  0
VERTEX
  8
0
  6
CONTINUOUS
 62
3
 10
-79.427758024079225
 20
252.895110677402190
  0
VERTEX
  8
0
  6
CONTINUOUS
 62
3
 10
-78.771182137857849
 20
252.905056758442640
  0
VERTEX
  8
0
  6
CONTINUOUS
 62
3
 10
-78.166078335567065
 20
252.921208317632820
  0
VERTEX
  8
0
  6
CONTINUOUS
 62
3
 10
-77.635700416982758
 20
252.942944659610900
  0
VERTEX
  8
0
  6
CONTINUOUS
 62
3
 10
-77.200430508076764
 20
252.969430468944610
  0
VERTEX
  8
0
  6
CONTINUOUS
 62
3
 10
-76.876995787346161
 20
252.999647910834630
  0
VERTEX
  8
0
  6
CONTINUOUS
 62
3
 10
-76.677825669724356
 20
253.032435745935260
  0
VERTEX
  8
0
  6
CONTINUOUS
 62
3
 10
-76.610574151135665
 20
253.066533956131250
  0
SEQEND
  8
0
  6
CONTINUOUS
 62
3
  0
LINE
  8
0
  6
CONTINUOUS
 62
3
 10
-76.610574151135665
 20
254.053543694055630
 11
-76.610574151135665
 21
253.066533956131250
  0
ARC
  8
0
  6
CONTINUOUS
 62
3
 10
-82.310574151135484
 20
254.053543694055630
 40
1.300000000000019
 50
106.601549599022360
 51
180.000000000000000
  0
ARC
  8
0
  6
CONTINUOUS
 62
3
 10
-80.110574151135665
 20
246.674519368306160
 40
9.000000000000123
 50
73.398450400980877
 51
106.601549599019120
  0
ARC
  8
0
  6
CONTINUOUS
 62
3
 10
-77.910574151135847
 20
254.053543694055630
 40
1.300000000000182
 50
0.000000000000000
 51
73.398450400977637
  0
ARC
  8
0
  6
CONTINUOUS
 62
3
 10
-78.110574151135665
 20
258.376997568313300
 40
5.000000000000072
 50
287.457603123721870
 51
0.000000000000000
  0
LINE
  8
0
  6
CONTINUOUS
 62
3
 10
-83.610574151135665
 20
253.376997568313300
 11
-186.610574151135670
 21
253.376997568313300
  0
LINE
  8
0
  6
CONTINUOUS
 62
3
 10
-197.110574151135670
 20
234.715972508626460
 11
-73.110574151135665
 21
234.715972508626460
  0
LINE
  8
0
  6
DASHDOT
 62
3
 10
-73.110574151135665
 20
229.715972508626460
 11
-73.110574151135665
 21
234.715972508626460
  0
LINE
  8
0
  6
CONTINUOUS
 62
3
 10
12.889425848864335
 20
170.215972508626690
 11
12.889425848864335
 21
89.962246527965362
  0
LINE
  8
0
  6
CONTINUOUS
 62
3
 10
15.784727358756641
 20
86.964074046908081
 11
22.889425848864335
 21
86.715972508626692
  0
ARC
  8
0
  6
CONTINUOUS
 62
3
 10
15.889425848864335
 20
89.962246527965362
 40
3.000000000000000
 50
180.000000000000000
 51
267.999999999996360
  0
ARC
  8
0
  6
CONTINUOUS
 62
3
 10
7.889425848864335
 20
105.715972508626570
 40
5.000000000000000
 50
0.000000000000000
 51
52.171363151968755
  0
ARC
  8
0
  6
CONTINUOUS
 62
3
 10
7.889425848864335
 20
234.715972508626810
 40
4.999999999999939
 50
307.828636848031240
 51
0.000000000000000
  0
LINE
  8
0
  6
CONTINUOUS
 62
3
 10
15.784727358756641
 20
253.467870970345300
 11
22.889425848864335
 21
253.715972508626690
  0
LINE
  8
0
  6
CONTINUOUS
 62
3
 10
12.889425848864335
 20
170.215972508626690
 11
12.889425848864335
 21
250.469698489288020
  0
ARC
  8
0
  6
CONTINUOUS
 62
3
 10
15.889425848864335
 20
250.469698489288020
 40
3.000000000000001
 50
92.000000000003652
 51
180.000000000000000
  0
LINE
  8
0
  6
CONTINUOUS
 62
3
 10
59.389425848865699
 20
53.215972508626919
 11
59.389425848865244
 21
170.215972508626460
  0
ARC
  8
0
  6
CONTINUOUS
 62
3
 10
43.389425848865699
 20
79.215972508626464
 40
2.000000000000000
 50
90.000000000000000
 51
180.000000000000000
  0
LINE
  8
0
  6
CONTINUOUS
 62
3
 10
46.389425848865699
 20
81.215972508626010
 11
43.389425848865699
 21
81.215972508626464
  0
ARC
  8
0
  6
CONTINUOUS
 62
3
 10
46.389425848865699
 20
83.215972508626010
 40
2.000000000000000
 50
270.000000000000000
 51
0.000000000000000
  0
LINE
  8
0
  6
CONTINUOUS
 62
3
 10
41.389425848865699
 20
79.215972508626464
 11
41.389425848865699
 21
56.215972508626464
  0
LINE
  8
0
  6
CONTINUOUS
 62
3
 10
59.889425848865358
 20
53.215972508626919
 11
44.389425848865699
 21
53.215972508626464
  0
ARC
  8
0
  6
CONTINUOUS
 62
3
 10
44.389425848865699
 20
56.215972508626464
 40
3.000000000000000
 50
180.000000000000000
 51
270.000000000000000
  0
LINE
  8
0
  6
CONTINUOUS
 62
3
 10
40.389426802540015
 20
69.849848355489257
 11
40.389426802540015
 21
58.581902112203124
  0
LINE
  8
0
  6
CONTINUOUS
 62
3
 10
40.889427440397753
 20
70.715972532694877
 11
40.389427414250690
 21
69.849848392560716
  0
LINE
  8
0
  6
CONTINUOUS
 62
3
 10
40.889428067025051
 20
57.715972531327452
 11
40.389427116831826
 21
58.581902102396043
  0
LINE
  8
0
  6
CONTINUOUS
 62
3
 10
40.889426802540015
 20
70.715972508626464
 11
40.889426802540015
 21
57.715972508626464
  0
LINE
  8
0
  6
CONTINUOUS
 62
3
 10
41.389425848865699
 20
57.715972508626464
 11
40.889427756214332
 21
57.715972508626464
  0
LINE
  8
0
  6
CONTINUOUS
 62
3
 10
41.389425848865699
 20
70.715972508626464
 11
40.889426802540015
 21
70.715972508626464
  0
ARC
  8
0
  6
CONTINUOUS
 62
3
 10
51.389425848865699
 20
56.215972508626464
 40
3.000000000000000
 50
180.000000000000000
 51
270.000000000000000
  0
ARC
  8
0
  6
CONTINUOUS
 62
3
 10
45.389425848865699
 20
146.715972508626460
 40
3.000000000000000
 50
0.000000000000000
 51
90.000000000000000
  0
ARC
  8
0
  6
CONTINUOUS
 62
3
 10
39.389425848865699
 20
152.715972508626460
 40
3.000000000000000
 50
180.000000000000000
 51
270.000000000000000
  0
LINE
  8
0
  6
CONTINUOUS
 62
3
 10
36.389425848865699
 20
170.215972508626460
 11
36.389425848865699
 21
149.715972508626460
  0
LINE
  8
0
  6
CONTINUOUS
 62
3
 10
31.889425848854785
 20
149.715972508626460
 11
31.889425848856149
 21
170.215972508626460
  0
LINE
  8
0
  6
CONTINUOUS
 62
3
 10
31.889425848854785
 20
149.715972508626460
 11
36.389425848865699
 21
149.715972508626460
  0
LINE
  8
0
  6
CONTINUOUS
 62
3
 10
39.389425848865699
 20
149.715972508626460
 11
45.389425848865699
 21
149.715972508626460
  0
LINE
  8
0
  6
CONTINUOUS
 62
3
 10
48.389425848865699
 20
56.215972508626464
 11
48.389425848865699
 21
146.715972508626460
  0
LINE
  8
0
  6
CONTINUOUS
 62
3
 10
22.889425848858878
 20
86.785846170065497
 11
43.563923332378067
 21
86.063876809085059
  0
LINE
  8
0
  6
CONTINUOUS
 62
3
 10
22.889425848858878
 20
86.785846170065497
 11
22.889425848864335
 21
170.215972508626690
  0
ARC
  8
0
  6
CONTINUOUS
 62
3
 10
43.389425848865244
 20
81.066922673990348
 40
4.999999999999970
 50
15.348930286009365
 51
87.999999999996049
  0
LINE
  8
0
  6
CONTINUOUS
 62
3
 10
59.389425848865471
 20
287.215972508626010
 11
59.389425848865244
 21
170.215972508626460
  0
ARC
  8
0
  6
CONTINUOUS
 62
3
 10
43.389425848865699
 20
261.215972508626460
 40
2.000000000000000
 50
180.000000000000000
 51
270.000000000000000
  0
LINE
  8
0
  6
CONTINUOUS
 62
3
 10
46.389425848865699
 20
259.215972508626920
 11
43.389425848865699
 21
259.215972508626460
  0
ARC
  8
0
  6
CONTINUOUS
 62
3
 10
46.389425848865699
 20
257.215972508626920
 40
2.000000000000000
 50
0.000000000000000
 51
90.000000000000000
  0
LINE
  8
0
  6
CONTINUOUS
 62
3
 10
41.389425848865699
 20
261.215972508626460
 11
41.389425848865471
 21
284.215972508626460
  0
LINE
  8
0
  6
CONTINUOUS
 62
3
 10
59.889425848865358
 20
287.215972508626010
 11
44.389425848865471
 21
287.215972508626460
  0
ARC
  8
0
  6
CONTINUOUS
 62
3
 10
44.389425848865471
 20
284.215972508626460
 40
3.000000000000000
 50
90.000000000000000
 51
180.000000000000000
  0
LINE
  8
0
  6
CONTINUOUS
 62
3
 10
40.389426802539788
 20
270.582096661763670
 11
40.389426802539788
 21
281.850042905049800
  0
LINE
  8
0
  6
CONTINUOUS
 62
3
 10
40.889427440397526
 20
269.715972484558050
 11
40.389427414250463
 21
270.582096624692210
  0
LINE
  8
0
  6
CONTINUOUS
 62
3
 10
40.889428067024824
 20
282.715972485925480
 11
40.389427116831598
 21
281.850042914856890
  0
LINE
  8
0
  6
CONTINUOUS
 62
3
 10
40.889426802539788
 20
269.715972508626460
 11
40.889426802539788
 21
282.715972508626460
  0
LINE
  8
0
  6
CONTINUOUS
 62
3
 10
41.389425848865699
 20
282.715972508626460
 11
40.889427756214104
 21
282.715972508626460
  0
LINE
  8
0
  6
CONTINUOUS
 62
3
 10
41.389425848865699
 20
269.715972508626460
 11
40.889426802539788
 21
269.715972508626460
  0
ARC
  8
0
  6
CONTINUOUS
 62
3
 10
51.389425848865471
 20
284.215972508626460
 40
3.000000000000000
 50
90.000000000000000
 51
180.000000000000000
  0
ARC
  8
0
  6
CONTINUOUS
 62
3
 10
45.389425848865699
 20
193.715972508626460
 40
3.000000000000000
 50
270.000000000000000
 51
0.000000000000000
  0
ARC
  8
0
  6
CONTINUOUS
 62
3
 10
39.389425848865699
 20
187.715972508626460
 40
3.000000000000000
 50
90.000000000000000
 51
180.000000000000000
  0
LINE
  8
0
  6
CONTINUOUS
 62
3
 10
36.389425848865699
 20
170.215972508626460
 11
36.389425848865699
 21
190.715972508626460
  0
LINE
  8
0
  6
CONTINUOUS
 62
3
 10
31.889425848854785
 20
190.715972508626460
 11
31.889425848856149
 21
170.215972508626460
  0
LINE
  8
0
  6
CONTINUOUS
 62
3
 10
31.889425848854785
 20
190.715972508626460
 11
36.389425848865699
 21
190.715972508626460
  0
LINE
  8
0
  6
CONTINUOUS
 62
3
 10
39.389425848865699
 20
190.715972508626460
 11
45.389425848865699
 21
190.715972508626460
  0
LINE
  8
0
  6
CONTINUOUS
 62
3
 10
48.389425848865471
 20
284.215972508626460
 11
48.389425848865699
 21
193.715972508626460
  0
LINE
  8
0
  6
CONTINUOUS
 62
3
 10
22.889425848858878
 20
253.646098847187430
 11
43.563923332378067
 21
254.368068208167870
  0
LINE
  8
0
  6
CONTINUOUS
 62
3
 10
22.889425848858878
 20
253.646098847187430
 11
22.889425848864221
 21
170.215972508626690
  0
ARC
  8
0
  6
CONTINUOUS
 62
3
 10
43.389425848865244
 20
259.365022343262580
 40
4.999999999999244
 50
272.000000000003920
 51
344.651069713990640
  0
LINE
  8
0
  6
DASHDOT
 62
4
 10
186.437572553590940
 20
50.007819706904229
 11
132.506013159608190
 21
50.007819706904229
  0
LINE
  8
0
  6
DASHDOT
 62
4
 10
186.437572553590940
 20
290.424125310330060
 11
132.506013159608190
 21
290.424125310330060
  0
LINE
  8
0
  6
CONTINUOUS
 62
3
 10
59.889425848865244
 20
287.215972508626690
 11
153.598828880286310
 21
290.488376971095930
  0
LINE
  8
0
  6
CONTINUOUS
 62
3
 10
59.889425848865244
 20
287.215972508627150
 11
59.889425848865244
 21
53.215972508626692
  0
LINE
  8
0
  6
CONTINUOUS
 62
3
 10
177.389431900071370
 20
310.215958844039510
 11
162.389431900071140
 21
310.215958844039510
  0
LINE
  8
0
  6
CONTINUOUS
 62
3
 10
180.389431900071370
 20
300.215958844039510
 11
177.389431900071600
 21
300.215958844039510
  0
LINE
  8
0
  6
CONTINUOUS
 62
3
 10
189.889431900071370
 20
211.215958844039510
 11
189.889431900071370
 21
129.215958844039510
  0
LINE
  8
0
  6
CONTINUOUS
 62
3
 10
180.389431900071600
 20
40.215972508626692
 11
177.389431900071140
 21
40.215972508626692
  0
LINE
  8
0
  6
CONTINUOUS
 62
3
 10
180.389431900071370
 20
300.215958844039510
 11
181.389431900071370
 21
299.215958844039510
  0
LINE
  8
0
  6
CONTINUOUS
 62
3
 10
188.889431875161900
 20
129.215958844039510
 11
189.889431900071370
 21
129.215958844039510
  0
LINE
  8
0
  6
CONTINUOUS
 62
3
 10
181.389431900071600
 20
41.215972508626692
 11
180.389431900071600
 21
40.215972508626692
  0
LINE
  8
0
  6
CONTINUOUS
 62
3
 10
188.889431875161900
 20
211.215958844039510
 11
189.889431900071370
 21
211.215958844039510
  0
ARC
  8
0
  6
CONTINUOUS
 62
3
 10
162.389431900071140
 20
307.215958844039510
 40
3.000000000000000
 50
90.000000000000000
 51
180.000000000000000
  0
ARC
  8
0
  6
CONTINUOUS
 62
3
 10
153.389431900071370
 20
296.484721933210490
 40
5.999999999999986
 50
271.999999999999320
 51
0.000000000000000
  0
ARC
  8
0
  6
CONTINUOUS
 62
3
 10
188.889431875161900
 20
212.215958868948750
 40
1.000000024909241
 50
180.000000000000000
 51
270.000000000000000
  0
ARC
  8
0
  6
CONTINUOUS
 62
3
 10
188.889431875161900
 20
128.215958819130260
 40
1.000000024909241
 50
90.000000000000000
 51
180.000000000000000
  0
ARC
  8
0
  6
CONTINUOUS
 62
3
 10
184.889431850251750
 20
120.062838879596710
 40
2.999999999999937
 50
273.000000000001360
 51
0.000000000000000
  0
ARC
  8
0
  6
CONTINUOUS
 62
3
 10
184.889431850251750
 20
220.369304510773420
 40
3.000000000000000
 50
0.000000000000000
 51
86.999999999998678
  0
LINE
  8
0
  6
CONTINUOUS
 62
3
 10
185.046439718980650
 20
117.066950275333050
 11
181.389431900071600
 21
116.875294616723290
  0
ARC
  8
0
  6
CONTINUOUS
 62
3
 10
162.389431900071140
 20
33.215986173213878
 40
2.999999999999773
 50
180.000000000000000
 51
270.000000000000000
  0
LINE
  8
0
  6
CONTINUOUS
 62
3
 10
177.389431900071140
 20
30.215972508626692
 11
162.389431900071140
 21
30.215972508626692
  0
LINE
  8
0
  6
CONTINUOUS
 62
3
 10
159.389431900071370
 20
307.215958844039510
 11
159.389431900071370
 21
33.215986173213878
  0
LINE
  8
0
  6
CONTINUOUS
 62
3
 10
181.389431900071600
 20
223.556848773646830
 11
185.046439718980650
 21
223.365193115037070
  0
LINE
  8
0
  6
CONTINUOUS
 62
3
 10
181.389431900071370
 20
299.215958844039510
 11
181.389431900071600
 21
170.215972508626690
  0
LINE
  8
0
  6
CONTINUOUS
 62
3
 10
177.389431900071370
 20
310.215958844039510
 11
177.389431900074560
 21
170.215972508626690
  0
LINE
  8
0
  6
CONTINUOUS
 62
3
 10
187.889431850251750
 20
220.369304510773420
 11
187.889431850251750
 21
170.215972508626690
  0
LINE
  8
0
  6
CONTINUOUS
 62
3
 10
187.889431850251750
 20
120.062838879596710
 11
187.889431850251750
 21
170.215972508626690
  0
LINE
  8
0
  6
CONTINUOUS
 62
3
 10
181.389431900071600
 20
41.215972508626692
 11
181.389431900071600
 21
170.215972508626690
  0
LINE
  8
0
  6
CONTINUOUS
 62
3
 10
177.389431900071140
 20
30.215972508626692
 11
177.389431900071140
 21
170.215972508626690
  0
ARC
  8
0
  6
CONTINUOUS
 62
3
 10
156.389431900071370
 20
71.329055232275095
 40
3.000000000000000
 50
0.000000000000000
 51
37.200872172621111
  0
LINE
  8
0
  6
CONTINUOUS
 62
3
 10
138.767956557154660
 20
99.505623926783755
 11
158.778994043728860
 21
73.142888951665554
  0
ARC
  8
0
  6
CONTINUOUS
 62
3
 10
136.378394413496950
 20
97.691790207392842
 40
3.000000000000254
 50
37.200872172625409
 51
90.000000000000000
  0
ARC
  8
0
  6
CONTINUOUS
 62
3
 10
136.378394413496950
 20
91.852955442560415
 40
3.000000000000254
 50
37.200872172625409
 51
90.000000000000000
  0
ARC
  8
0
  6
CONTINUOUS
 62
3
 10
156.389431900071370
 20
65.490220467442668
 40
3.000000000000000
 50
0.000000000000000
 51
37.200872172621111
  0
LINE
  8
0
  6
CONTINUOUS
 62
3
 10
138.767956557154660
 20
93.666789161951328
 11
158.778994043728860
 21
67.304054186833127
  0
LINE
  8
0
  6
CONTINUOUS
 62
3
 10
156.357449747439320
 20
100.691790207392840
 11
140.760627944774680
 21
100.691790207392840
  0
ARC
  8
0
  6
CONTINUOUS
 62
3
 10
136.378394413496950
 20
242.740154809860540
 40
3.000000000000000
 50
270.000000000000000
 51
322.799127827374600
  0
ARC
  8
0
  6
CONTINUOUS
 62
3
 10
156.389431900071370
 20
269.102889784978290
 40
2.999999999999797
 50
322.799127827378920
 51
0.000000000000000
  0
ARC
  8
0
  6
CONTINUOUS
 62
3
 10
136.378394413496950
 20
248.578989574692970
 40
3.000000000000000
 50
270.000000000000000
 51
322.799127827374600
  0
ARC
  8
0
  6
CONTINUOUS
 62
3
 10
156.389431900071370
 20
274.941724549810710
 40
2.999999999999797
 50
322.799127827378920
 51
0.000000000000000
  0
LINE
  8
0
  6
CONTINUOUS
 62
3
 10
138.767956557154660
 20
246.765155855302050
 11
158.778994043728860
 21
273.127890830420260
  0
ARC
  8
0
  6
CONTINUOUS
 62
3
 10
140.867578886591100
 20
176.465972508626690
 40
3.000000000000000
 50
180.000000000000000
 51
270.000000000000000
  0
LINE
  8
0
  6
CONTINUOUS
 62
3
 10
138.767956557154660
 20
240.926321090469630
 11
158.778994043728860
 21
267.289056065587830
  0
ARC
  8
0
  6
CONTINUOUS
 62
3
 10
140.867578886591100
 20
163.965972508626690
 40
3.000000000000000
 50
90.000000000000000
 51
180.000000000000000
  0
ARC
  8
0
  6
CONTINUOUS
 62
3
 10
156.389431900071370
 20
163.965972508626690
 40
3.000000000000000
 50
0.000000000000000
 51
90.000000000000000
  0
ARC
  8
0
  6
CONTINUOUS
 62
3
 10
156.389431900071370
 20
176.465972508626690
 40
3.000000000000000
 50
270.000000000000000
 51
0.000000000000000
  0
LINE
  8
0
  6
CONTINUOUS
 62
3
 10
156.357449747439320
 20
239.740154809860540
 11
140.760627944774680
 21
239.740154809860540
  0
LINE
  8
0
  6
CONTINUOUS
 62
3
 10
140.867578886591100
 20
166.965972508626690
 11
156.389431900071370
 21
166.965972508626690
  0
LINE
  8
0
  6
CONTINUOUS
 62
3
 10
140.867578886591100
 20
173.465972508626690
 11
156.389431900071370
 21
173.465972508626690
  0
LINE
  8
0
  6
CONTINUOUS
 62
3
 10
59.889425848865244
 20
53.215972508626692
 11
153.598828880286310
 21
49.943568046157452
  0
ARC
  8
0
  6
CONTINUOUS
 62
3
 10
153.389431900071370
 20
43.947223084042889
 40
6.000000000000000
 50
0.000000000000000
 51
88.000000000000682
  0
LINE
  8
0
  6
CONTINUOUS
 62
3
 10
196.889431900070460
 20
150.215958844039510
 11
196.889431900070460
 21
147.215958844039510
  0
ARC
  8
0
  6
CONTINUOUS
 62
3
 10
193.489431900070370
 20
191.665958844039320
 40
1.599999999999909
 50
180.000000000000000
 51
270.000000000000000
  0
LINE
  8
0
  6
CONTINUOUS
 62
3
 10
194.389439025939170
 20
190.065958844038960
 11
193.489431900070370
 21
190.065958844038960
  0
LINE
  8
0
  6
CONTINUOUS
 62
3
 10
191.489431900070370
 20
192.715958844039510
 11
191.889431900070460
 21
192.315958844038960
  0
LINE
  8
0
  6
CONTINUOUS
 62
3
 10
191.489431900070370
 20
192.715958844039510
 11
189.889431900071370
 21
192.715958844039510
  0
LINE
  8
0
  6
CONTINUOUS
 62
3
 10
191.889431900070460
 20
170.215958844039510
 11
191.889431900070460
 21
192.315958844038960
  0
LINE
  8
0
  6
CONTINUOUS
 62
3
 10
194.949246647074570
 20
190.215958844038600
 11
194.389439025939170
 21
190.065958844038960
  0
LINE
  8
0
  6
CONTINUOUS
 62
3
 10
191.489431900070370
 20
147.715958844039510
 11
189.889431900071370
 21
147.715958844039510
  0
ARC
  8
0
  6
CONTINUOUS
 62
3
 10
193.489431900070370
 20
148.765958844039690
 40
1.599999999999454
 50
90.000000000000000
 51
180.000000000000000
  0
LINE
  8
0
  6
CONTINUOUS
 62
3
 10
194.389439025939170
 20
150.365958844039140
 11
193.489431900070370
 21
150.365958844039140
  0
LINE
  8
0
  6
CONTINUOUS
 62
3
 10
191.489431900070370
 20
147.715958844039510
 11
191.889431900070460
 21
148.115958844039140
  0
LINE
  8
0
  6
CONTINUOUS
 62
3
 10
191.889431900070460
 20
170.215958844039510
 11
191.889431900070460
 21
148.115958844039140
  0
LINE
  8
0
  6
CONTINUOUS
 62
3
 10
194.949246647074570
 20
150.215958844039510
 11
194.389439025939170
 21
150.365958844039140
  0
LINE
  8
0
  6
CONTINUOUS
 62
3
 10
251.889439025939170
 20
147.215958844039510
 11
196.889439025939170
 21
147.215958844039510
  0
LINE
  8
0
  6
CONTINUOUS
 62
3
 10
251.489431900070370
 20
190.215958844039510
 11
194.949246647075030
 21
190.215958844038600
  0
LINE
  8
0
  6
CONTINUOUS
 62
3
 10
251.489431900070370
 20
150.215958844039510
 11
194.949246647075030
 21
150.215958844039510
  0
LINE
  8
0
  6
DASHDOT
 62
4
 10
-280.946637041169770
 20
170.215972508626690
 11
268.835483150315780
 21
170.215972508626690
  0
ARC
  8
0
  6
CONTINUOUS
 62
3
 10
-34.610574151142828
 20
224.715972508626810
 40
5.000000000000000
 50
0.000000000000000
 51
90.000000000000000
  0
ARC
  8
0
  6
CONTINUOUS
 62
3
 10
-26.610574151142828
 20
188.215972508626810
 40
3.000000000000000
 50
180.000000000000000
 51
270.000000000000000
  0
LINE
  8
0
  6
CONTINUOUS
 62
3
 10
-29.610574151142828
 20
224.715972508626810
 11
-29.610574151142828
 21
170.215972508626690
  0
LINE
  8
0
  6
CONTINUOUS
 62
3
 10
-29.610574151142828
 20
170.215972508626690
 11
-29.610574151142828
 21
115.715972508626570
  0
LINE
  8
0
  6
CONTINUOUS
 62
3
 10
-26.610574151142828
 20
185.215972508626810
 11
9.889425848864335
 21
185.215972508626810
  0
CIRCLE
  8
0
  6
CONTINUOUS
 62
3
 10
-7.110574151135665
 20
170.215972508626690
 40
10.500000000000000
  0
LINE
  8
0
  6
CONTINUOUS
 62
3
 10
-48.610574151135665
 20
229.715972508626810
 11
8.889411906966984
 21
229.715972508626810
  0
ARC
  8
0
  6
CONTINUOUS
 62
3
 10
-26.610574151142828
 20
152.215972508626580
 40
3.000000000000000
 50
90.000000000000000
 51
180.000000000000000
  0
LINE
  8
0
  6
DASHDOT
 62
4
 10
-7.110574151135665
 20
153.463634067728780
 11
-7.110574151135665
 21
184.986441404264840
  0
LINE
  8
0
  6
CONTINUOUS
 62
3
 10
-26.610574151142828
 20
155.215972508626580
 11
9.889425848864335
 21
155.215972508626580
  0
ARC
  8
0
  6
CONTINUOUS
 62
3
 10
9.889425848864335
 20
188.215972508626810
 40
3.000000000000000
 50
270.000000000000000
 51
0.000000000000000
  0
ARC
  8
0
  6
CONTINUOUS
 62
3
 10
9.889425848864335
 20
152.215972508626580
 40
3.000000000000000
 50
0.000000000000000
 51
90.000000000000000
  0
ARC
  8
0
  6
CONTINUOUS
 62
3
 10
-34.610574151142828
 20
115.715972508626570
 40
5.000000000000000
 50
270.000000000000000
 51
0.000000000000000
  0
LINE
  8
0
  6
CONTINUOUS
 62
3
 10
-48.610574151135665
 20
110.715972508626570
 11
8.889909861667661
 21
110.715972508626570
  0
LINE
  8
0
  6
CONTINUOUS
 62
3
 10
-48.610574151135665
 20
110.715972508626570
 11
-48.610574151135665
 21
170.215972508626690
  0
LINE
  8
0
  6
CONTINUOUS
 62
3
 10
-48.610574151135665
 20
229.715972508626810
 11
-48.610574151135665
 21
170.215972508626690
  0
LINE
  8
0
  6
CONTINUOUS
 62
3
 10
177.389431900072740
 20
250.479888491970090
 11
173.389431900072850
 21
250.479888491970090
  0
LINE
  8
0
  6
CONTINUOUS
 62
3
 10
177.389431900072000
 20
281.931714925732190
 11
173.389431900072050
 21
281.931714925732190
  0
ARC
  8
0
  6
CONTINUOUS
 62
3
 10
173.389431900072790
 20
247.479888491970090
 40
3.000000000000000
 50
90.000000000000000
 51
180.000000000000000
  0
LINE
  8
0
  6
CONTINUOUS
 62
3
 10
170.389431900072050
 20
278.931714925732190
 11
170.389431900074560
 21
170.215972508626690
  0
ARC
  8
0
  6
CONTINUOUS
 62
3
 10
173.389431900072050
 20
278.931714925732190
 40
3.000000000000000
 50
90.000000000000000
 51
180.000000000000000
  0
ARC
  8
0
  6
CONTINUOUS
 62
3
 10
173.389431900072790
 20
92.952083854457669
 40
3.000000000000000
 50
180.000000000000000
 51
270.000000000000000
  0
LINE
  8
0
  6
CONTINUOUS
 62
3
 10
170.389431900072050
 20
61.500257420695618
 11
170.389431900074560
 21
170.215972508626690
  0
ARC
  8
0
  6
CONTINUOUS
 62
3
 10
173.389431900072050
 20
61.500257420695561
 40
3.000000000000000
 50
179.999999999998890
 51
270.000000000000000
  0
LINE
  8
0
  6
CONTINUOUS
 62
3
 10
177.389431900072740
 20
89.952083854457669
 11
173.389431900072850
 21
89.952083854457669
  0
LINE
  8
0
  6
CONTINUOUS
 62
3
 10
177.389431900072000
 20
58.500257420695561
 11
173.389431900072050
 21
58.500257420695561
  0
LINE
  8
0
  6
CONTINUOUS
 62
3
 10
-426.267153917230190
 20
-65.833046541348153
 11
-426.267153917230190
 21
-46.918766221970486
  0
LINE
  8
0
  6
CONTINUOUS
 62
3
 10
-419.767153917230190
 20
-65.833046541348153
 11
-419.767153917230190
 21
-46.918766221970486
  0
LINE
  8
0
  6
CONTINUOUS
 62
3
 10
-426.267153917230190
 20
-36.375906381659320
 11
-426.267153917230190
 21
-34.375940955911688
  0
LINE
  8
0
  6
CONTINUOUS
 62
3
 10
-419.767153917230190
 20
-36.375906381659320
 11
-419.767153917230190
 21
-34.375940955911688
  0
ARC
  8
0
  6
CONTINUOUS
 62
3
 10
-416.767153917230190
 20
-34.375940955911688
 40
3.000000000000000
 50
90.000000000000000
 51
180.000000000000000
  0
ARC
  8
0
  6
CONTINUOUS
 62
3
 10
-342.197495387938030
 20
-84.395082617199023
 40
3.000000000000024
 50
134.999999999996930
 51
236.305204991199280
  0
ARC
  8
0
  6
CONTINUOUS
 62
3
 10
-503.836812446522340
 20
-84.395082617199023
 40
2.999999999999895
 50
303.694795008801920
 51
45.000000000003077
  0
ARC
  8
0
  6
CONTINUOUS
 62
3
 10
-319.301038839704690
 20
-61.498626068965450
 40
2.999999999999933
 50
42.451607436419486
 51
135.000000000000000
  0
ARC
  8
0
  6
CONTINUOUS
 62
3
 10
-353.492971615996340
 20
-78.012889315593725
 40
3.000000000000066
 50
244.759981864147700
 51
315.000000000000000
  0
ARC
  8
0
  6
CONTINUOUS
 62
3
 10
-328.139873604536660
 20
-52.659791304133478
 40
3.000000000000265
 50
315.000000000004600
 51
47.548392563578922
  0
ARC
  8
0
  6
CONTINUOUS
 62
3
 10
-526.733268994755690
 20
-61.498626068965450
 40
2.999999999999864
 50
45.000000000000000
 51
137.548392563578910
  0
ARC
  8
0
  6
CONTINUOUS
 62
3
 10
-517.894434229923720
 20
-52.659791304133478
 40
3.000000000000009
 50
132.451607436421090
 51
224.999999999995400
  0
CIRCLE
  8
0
  6
CONTINUOUS
 62
3
 10
-302.809001115526310
 20
-36.167753579936857
 40
9.500000000000000
  0
ARC
  8
0
  6
CONTINUOUS
 62
3
 10
-293.017153917230130
 20
-26.375906381659320
 40
10.000000000000000
 50
0.000000000000000
 51
90.000000000000000
  0
ARC
  8
0
  6
CONTINUOUS
 62
3
 10
-492.541336218464040
 20
-78.012889315593725
 40
2.999999999999864
 50
225.000000000000000
 51
295.240018135852320
  0
CIRCLE
  8
0
  6
CONTINUOUS
 62
3
 10
-543.225306718952650
 20
-36.167753579955956
 40
9.500000000000000
  0
ARC
  8
0
  6
CONTINUOUS
 62
3
 10
-553.017153917230190
 20
-26.375906381659320
 40
10.000000000000000
 50
90.000000000000000
 51
180.000000000000000
  0
CIRCLE
  8
0
  6
CONTINUOUS
 62
3
 10
-302.809001115507210
 20
-276.584059183363020
 40
9.500000000000000
  0
ARC
  8
0
  6
CONTINUOUS
 62
3
 10
-293.017153917230130
 20
-286.375906381659210
 40
10.000000000000000
 50
270.000000000000000
 51
0.000000000000000
  0
CIRCLE
  8
0
  6
CONTINUOUS
 62
3
 10
-543.225306718933550
 20
-276.584059183382120
 40
9.500000000000000
  0
ARC
  8
0
  6
CONTINUOUS
 62
3
 10
-553.017153917230190
 20
-286.375906381659210
 40
10.000000000000000
 50
180.000000000000000
 51
270.000000000000000
  0
ARC
  8
0
  6
CONTINUOUS
 62
3
 10
-429.267153917230190
 20
-34.375940955911688
 40
3.000000000000000
 50
0.000000000000000
 51
90.000000000000000
  0
LINE
  8
0
  6
CONTINUOUS
 62
3
 10
-344.318815731497580
 20
-82.273762273639250
 11
-321.422359183264230
 21
-59.377305725405904
  0
LINE
  8
0
  6
CONTINUOUS
 62
3
 10
-351.371651272436790
 20
-80.134209659153271
 11
-326.018553260976660
 21
-54.781111647693137
  0
LINE
  8
0
  6
CONTINUOUS
 62
3
 10
-553.017153917230190
 20
-16.375906381659320
 11
-293.017153917230130
 21
-16.375906381659320
  0
LINE
  8
0
  6
CONTINUOUS
 62
3
 10
-283.017153917230130
 20
-286.375906381659210
 11
-283.017153917230130
 21
-26.375906381659320
  0
LINE
  8
0
  6
CONTINUOUS
 62
3
 10
-347.356899879385760
 20
-296.375906381659210
 11
-293.017153917230130
 21
-296.375906381659210
  0
LINE
  8
0
  6
CONTINUOUS
 62
3
 10
-563.017153917230190
 20
-286.375906381659210
 11
-563.017153917230190
 21
-26.375906381659320
  0
LINE
  8
0
  6
CONTINUOUS
 62
3
 10
-553.017153917230190
 20
-296.375906381659210
 11
-498.677407955074610
 21
-296.375906381659210
  0
LINE
  8
0
  6
CONTINUOUS
 62
3
 10
-494.662656562023590
 20
-80.134209659153271
 11
-520.015754573483720
 21
-54.781111647693137
  0
LINE
  8
0
  6
CONTINUOUS
 62
3
 10
-501.715492102962800
 20
-82.273762273639250
 11
-524.611948651196140
 21
-59.377305725405904
  0
LINE
  8
0
  6
CONTINUOUS
 62
3
 10
-443.517153917230190
 20
-46.375906381659320
 11
-443.517153917230190
 21
-71.796333140318552
  0
CIRCLE
  8
0
  6
CONTINUOUS
 62
3
 10
-423.017153917230190
 20
-56.375906381659320
 40
10.000000000000000
  0
LINE
  8
0
  6
DASHDOT
 62
4
 10
-399.849240918348640
 20
-56.375906381659320
 11
-446.871754819883340
 21
-56.375906381659320
  0
ARC
  8
0
  6
CONTINUOUS
 62
3
 10
-433.517153917230190
 20
-46.375906381659320
 40
10.000000000000000
 50
90.000000000000000
 51
180.000000000000000
  0
LINE
  8
0
  6
CONTINUOUS
 62
3
 10
-412.517153917230190
 20
-36.375906381659320
 11
-433.517153917230190
 21
-36.375906381659320
  0
LINE
  8
0
  6
CONTINUOUS
 62
3
 10
-402.517153917230190
 20
-46.375906381659320
 11
-402.517153917230190
 21
-71.796333140318552
  0
ARC
  8
0
  6
CONTINUOUS
 62
3
 10
-412.517153917230190
 20
-46.375906381659320
 40
10.000000000000000
 50
0.000000000000000
 51
90.000000000000000
  0
ARC
  8
0
  6
CONTINUOUS
 62
3
 10
-423.017153917230190
 20
-571.375906381659320
 40
499.999999999999940
 50
85.577622414021945
 51
87.650214394539574
  0
ARC
  8
0
  6
CONTINUOUS
 62
3
 10
-423.017153917230190
 20
-571.375906381659320
 40
499.999999999999940
 50
92.349785605460426
 51
94.422377585978055
  0
LINE
  8
0
  6
CONTINUOUS
 62
3
 10
-443.517153917230190
 20
-71.796333140318779
 11
-443.517153917230190
 21
-93.375906381659320
  0
LINE
  8
0
  6
CONTINUOUS
 62
3
 10
-402.517153917230190
 20
-71.796333140318779
 11
-402.517153917230190
 21
-93.375906381659320
  0
ARC
  8
0
  6
CONTINUOUS
 62
3
 10
-455.017153917230190
 20
-157.611480651268610
 40
84.999999999999972
 50
94.422377585978197
 51
180.000000000000000
  0
ARC
  8
0
  6
CONTINUOUS
 62
3
 10
-349.859179744214090
 20
-252.695046586944160
 40
2.999999999999677
 50
148.296383256597580
 51
225.000000000003070
  0
ARC
  8
0
  6
CONTINUOUS
 62
3
 10
-358.002267018393920
 20
-262.229628842428040
 40
3.000000000000185
 50
44.999999999993868
 51
130.705112768216340
  0
ARC
  8
0
  6
CONTINUOUS
 62
3
 10
-331.735956965201240
 20
-270.818269365956780
 40
2.999999999999864
 50
225.000000000000000
 51
317.912625209518070
  0
ARC
  8
0
  6
CONTINUOUS
 62
3
 10
-340.574791730033210
 20
-279.657104130788530
 40
3.000000000000218
 50
312.087374790476080
 51
45.000000000000000
  0
ARC
  8
0
  6
CONTINUOUS
 62
3
 10
-505.459516104427170
 20
-279.657104130788750
 40
3.000000000000024
 50
134.999999999996930
 51
227.912625209521000
  0
ARC
  8
0
  6
CONTINUOUS
 62
3
 10
-514.298350869259140
 20
-270.818269365956780
 40
3.000000000000218
 50
222.087374790476100
 51
314.999999999996870
  0
ARC
  8
0
  6
CONTINUOUS
 62
3
 10
-483.526996202828290
 20
-257.724584229189650
 40
3.000000000000124
 50
49.911473410096967
 51
135.000000000000000
  0
ARC
  8
0
  6
CONTINUOUS
 62
3
 10
-492.365830967659800
 20
-248.885749464357900
 40
3.000000000000024
 50
314.999999999996870
 51
40.088526589902528
  0
ARC
  8
0
  6
CONTINUOUS
 62
3
 10
-309.017153917230130
 20
-157.375906381659090
 40
3.000000000000000
 50
0.000000000000000
 51
90.000000000000000
  0
ARC
  8
0
  6
CONTINUOUS
 62
3
 10
-315.619091929480870
 20
-125.375906381659090
 40
3.000000000000000
 50
270.000000000000000
 51
23.148572820069919
  0
ARC
  8
0
  6
CONTINUOUS
 62
3
 10
-516.676779727674780
 20
-103.555116133147630
 40
2.999999999999864
 50
45.000000000000000
 51
138.759285791780480
  0
ARC
  8
0
  6
CONTINUOUS
 62
3
 10
-483.526996202828290
 20
-119.027230128330410
 40
2.999999999999864
 50
225.000000000000000
 51
231.837567454073850
  0
ARC
  8
0
  6
CONTINUOUS
 62
3
 10
-507.743489983237850
 20
-94.810736347921079
 40
2.999999999999794
 50
130.016194045864520
 51
225.000000000003070
  0
ARC
  8
0
  6
CONTINUOUS
 62
3
 10
-338.290817851222530
 20
-94.810736347921079
 40
3.000000000000024
 50
314.999999999996870
 51
49.983805954135455
  0
ARC
  8
0
  6
CONTINUOUS
 62
3
 10
-362.507311631632090
 20
-119.027230128330410
 40
3.000000000000151
 50
308.162432545929560
 51
315.000000000000000
  0
ARC
  8
0
  6
CONTINUOUS
 62
3
 10
-329.357528106785590
 20
-103.555116133147630
 40
3.000000000000097
 50
41.240714208219508
 51
135.000000000000000
  0
ARC
  8
0
  6
CONTINUOUS
 62
3
 10
-353.668476866800570
 20
-127.866064893162160
 40
2.999999999999864
 50
135.000000000000000
 51
180.187958922173890
  0
ARC
  8
0
  6
CONTINUOUS
 62
3
 10
-429.267153917230190
 20
-99.375906381659320
 40
3.000000000000352
 50
29.515318985821764
 51
90.000000000000000
  0
ARC
  8
0
  6
CONTINUOUS
 62
3
 10
-416.767153917230190
 20
-99.375906381659320
 40
3.000000000000000
 50
90.000000000000000
 51
150.484681014176090
  0
ARC
  8
0
  6
CONTINUOUS
 62
3
 10
-388.796620355510640
 20
-273.956830375661980
 40
5.000000000000205
 50
84.588104602569331
 51
106.037937568522150
  0
ARC
  8
0
  6
CONTINUOUS
 62
3
 10
-341.851095859824000
 20
-234.222538950425470
 40
4.999999999999917
 50
154.450645436618710
 51
175.900478402575570
  0
ARC
  8
0
  6
CONTINUOUS
 62
3
 10
-384.741075194594940
 20
-231.148506962477650
 40
37.999999999999936
 50
264.588104602568250
 51
355.900478402576140
  0
ARC
  8
0
  6
CONTINUOUS
 62
3
 10
-440.517153917230190
 20
-93.375906381659320
 40
3.000000000000000
 50
180.000000000000000
 51
270.000000000000000
  0
ARC
  8
0
  6
CONTINUOUS
 62
3
 10
-405.517153917230190
 20
-93.375906381659320
 40
3.000000000000000
 50
270.000000000000000
 51
0.000000000000000
  0
ARC
  8
0
  6
CONTINUOUS
 62
3
 10
-356.017153917230190
 20
-291.375906381659320
 40
10.000000000000053
 50
306.869864344412290
 51
358.093887109017660
  0
ARC
  8
0
  6
CONTINUOUS
 62
3
 10
-356.017153917230190
 20
-291.375906381659320
 40
10.000000000000158
 50
224.427031979599950
 51
233.130135655587680
  0
ARC
  8
0
  6
CONTINUOUS
 62
3
 10
-490.017153917230190
 20
-291.375906381659320
 40
10.000000000000130
 50
181.906112890982260
 51
233.130135655587680
  0
ARC
  8
0
  6
CONTINUOUS
 62
3
 10
-508.007194029881250
 20
-291.974618954775790
 40
7.999999999999923
 50
1.906112890982627
 51
50.635320748643942
  0
ARC
  8
0
  6
CONTINUOUS
 62
3
 10
-490.017153917230190
 20
-291.375906381659320
 40
10.000000000000053
 50
306.869864344412290
 51
315.572968020398260
  0
ARC
  8
0
  6
CONTINUOUS
 62
3
 10
-338.027113804579130
 20
-291.974618954775790
 40
8.000000000000215
 50
129.364679251358580
 51
178.093887109017460
  0
ARC
  8
0
  6
CONTINUOUS
 62
3
 10
-391.017153917230190
 20
-157.611480651268610
 40
85.000000000000057
 50
0.000000000000000
 51
85.577622414021803
  0
ARC
  8
0
  6
CONTINUOUS
 62
3
 10
-423.017153917230190
 20
-188.375907178760030
 40
126.000000000000180
 50
202.331645009221490
 51
230.635320748643100
  0
ARC
  8
0
  6
CONTINUOUS
 62
3
 10
-312.017153917230190
 20
-233.971959639471950
 40
6.000000000000267
 50
337.668354990778250
 51
0.000000000000000
  0
ARC
  8
0
  6
CONTINUOUS
 62
3
 10
-423.017153917230190
 20
-188.375907178760030
 40
125.999999999999870
 50
309.364679251356730
 51
337.668354990778540
  0
ARC
  8
0
  6
CONTINUOUS
 62
3
 10
-321.017153917230190
 20
-141.375906381659090
 40
13.000000000000000
 50
90.000000000000000
 51
140.762594090374360
  0
ARC
  8
0
  6
CONTINUOUS
 62
3
 10
-531.915391218534300
 20
-126.375906381659090
 40
2.000000000000116
 50
157.893323870137750
 51
270.000000000000000
  0
ARC
  8
0
  6
CONTINUOUS
 62
3
 10
-525.017153917230190
 20
-141.375906381659090
 40
13.000000000000021
 50
88.958206691632810
 51
90.000000000000000
  0
LINE
  8
0
  6
CONTINUOUS
 62
3
 10
-355.880946674833920
 20
-260.108308498868500
 11
-338.453471386473670
 21
-277.535783787228980
  0
LINE
  8
0
  6
CONTINUOUS
 62
3
 10
-351.980500087773630
 20
-254.816366930503930
 11
-333.857277308760790
 21
-272.939589709516330
  0
LINE
  8
0
  6
CONTINUOUS
 62
3
 10
-485.648316546387830
 20
-255.603263885630100
 11
-507.580836447986710
 21
-277.535783787228980
  0
LINE
  8
0
  6
CONTINUOUS
 62
3
 10
-490.244510624100260
 20
-251.007069807917670
 11
-512.177030525699590
 21
-272.939589709516550
  0
LINE
  8
0
  6
CONTINUOUS
 62
3
 10
-502.473800601129370
 20
-113.515454572573780
 11
-504.494949505764000
 21
-111.494305667939270
  0
LINE
  8
0
  6
CONTINUOUS
 62
3
 10
-485.648316546387830
 20
-121.148550471889960
 11
-504.057216736458030
 21
-102.739650281820160
  0
LINE
  8
0
  6
CONTINUOUS
 62
3
 10
-360.385991288072550
 20
-121.148550471889960
 11
-336.169497507662980
 21
-96.932056691480852
  0
LINE
  8
0
  6
CONTINUOUS
 62
3
 10
-355.789797210360120
 20
-125.744744549602610
 11
-331.478848450345140
 21
-101.433795789588080
  0
LINE
  8
0
  6
CONTINUOUS
 62
3
 10
-423.017153917230190
 20
-96.375906381659320
 11
-440.517153917230190
 21
-96.375906381659320
  0
LINE
  8
0
  6
CONTINUOUS
 62
3
 10
-423.017153917230190
 20
-96.375906381659320
 11
-405.517153917230190
 21
-96.375906381659320
  0
LINE
  8
0
  6
CONTINUOUS
 62
3
 10
-484.017158566988200
 20
-299.375909868975780
 11
-496.017149267472180
 21
-299.375909868975780
  0
LINE
  8
0
  6
CONTINUOUS
 62
3
 10
-362.017149267472180
 20
-299.375909868975780
 11
-350.017158566988200
 21
-299.375909868975780
  0
LINE
  8
0
  6
CONTINUOUS
 62
3
 10
-306.017153917230130
 20
-233.971959639471950
 11
-306.017153917230130
 21
-156.375906381659090
  0
LINE
  8
0
  6
CONTINUOUS
 62
3
 10
-423.017153917230190
 20
-298.375909868975780
 11
-482.875728906943100
 21
-298.375909868975780
  0
LINE
  8
0
  6
CONTINUOUS
 62
3
 10
-423.017153917230190
 20
-298.375909868975780
 11
-363.158578927517740
 21
-298.375909868975780
  0
LINE
  8
0
  6
CONTINUOUS
 62
3
 10
-321.017153917230190
 20
-128.375906381659090
 11
-315.619091929480870
 21
-128.375906381659090
  0
LINE
  8
0
  6
CONTINUOUS
 62
3
 10
-321.017153917230190
 20
-154.375906381659090
 11
-309.017153917230130
 21
-154.375906381659090
  0
LINE
  8
0
  6
CONTINUOUS
 62
3
 10
-525.017153917230190
 20
-128.375906381659090
 11
-531.915391218534300
 21
-128.375906381659090
  0
LINE
  8
0
  6
CONTINUOUS
 62
3
 10
-527.462767952317560
 20
-154.375906381659120
 11
-538.017153917230190
 21
-154.375906381659090
  0
ARC
  8
0
  6
CONTINUOUS
 62
3
 10
-534.017153917230190
 20
-233.971959639471950
 40
6.000000000000000
 50
180.000000000000000
 51
202.331645009221920
  0
ARC
  8
0
  6
CONTINUOUS
 62
3
 10
-538.017153917230190
 20
-156.375906381659090
 40
2.000000000000000
 50
90.000000000000000
 51
180.000000000000000
  0
LINE
  8
0
  6
CONTINUOUS
 62
3
 10
-540.017153917230190
 20
-233.971959639471950
 11
-540.017153917230190
 21
-157.611480651268610
  0
INSERT
  8
0
  2
SYM14
 10
-433.517153917230190
 20
-84.375906381659320
 41
-1.000000000000000
  0
INSERT
  8
0
  2
SYM15
 10
-490.017153917230190
 20
-91.375906381659092
 41
-1.000000000000000
  0
INSERT
  8
0
  2
SYM16
 10
-530.017153917230190
 20
-233.375906381659320
 41
-1.000000000000000
  0
INSERT
  8
0
  2
SYM17
 10
-490.017153917230190
 20
-291.375906381659320
 41
-1.000000000000000
  0
INSERT
  8
0
  2
SYM18
 10
-356.017153917230190
 20
-291.375906381659320
  0
INSERT
  8
0
  2
SYM19
 10
-316.017153917230190
 20
-233.375906381659320
  0
INSERT
  8
0
  2
SYM20
 10
-317.017153917230190
 20
-167.375906381659090
  0
INSERT
  8
0
  2
SYM21
 10
-356.017153917230190
 20
-91.375906381659092
  0
INSERT
  8
0
  2
SYM22
 10
-412.517153917230190
 20
-84.375906381659320
  0
LINE
  8
0
  6
DASHDOT
 62
4
 10
-423.017153917230190
 20
-312.484220861841210
 11
-423.017153917230190
 21
-5.040064050599653
  0
LINE
  8
0
  6
CONTINUOUS
 62
3
 10
-529.017160535831860
 20
-163.911809485273470
 11
-532.017151343179190
 21
-165.643859599522730
  0
LINE
  8
0
  6
CONTINUOUS
 62
3
 10
-532.017152029323820
 20
-169.107957774437860
 11
-529.087045234426800
 21
-170.799650522753350
  0
LINE
  8
0
  6
CONTINUOUS
 62
3
 10
-529.017160618951040
 20
-163.911809381723860
 11
-528.451488966281430
 21
-164.238398495949980
  0
LINE
  8
0
  6
CONTINUOUS
 62
3
 10
-532.017150579370760
 20
-165.643859428433530
 11
-532.017151533045080
 21
-169.107957405118100
  0
LINE
  8
0
  6
CONTINUOUS
 62
3
 10
-508.471061280300550
 20
-107.518193893402720
 11
-514.555459384115240
 21
-101.433795789588080
  0
POINT
  8
0
  6
CONTINUOUS
 62
3
 10
-529.017153917230190
 20
-167.375906381659090
  0
INSERT
  8
0
  2
SYM23
 10
-477.817929459187780
 20
-243.176681923617370
  0
INSERT
  8
0
  2
SYM24
 10
-368.216378375272600
 20
-243.176681923617370
  0
ARC
  8
0
  6
CONTINUOUS
 62
3
 10
-409.517153917230190
 20
-201.875906381660000
 40
70.000000000000000
 50
270.000000000000000
 51
0.000000000000000
  0
LINE
  8
0
  6
CONTINUOUS
 62
3
 10
-409.517153917230190
 20
-271.875906381660000
 11
-436.517153917230190
 21
-271.875906381660000
  0
ARC
  8
0
  6
CONTINUOUS
 62
3
 10
-436.517153917230190
 20
-201.875906381660000
 40
70.000000000000000
 50
180.000000000000000
 51
270.000000000000000
  0
ARC
  8
0
  6
CONTINUOUS
 62
3
 10
-483.524884860469230
 20
-234.363018664348600
 40
2.999999999999999
 50
217.235576313379800
 51
302.923553630029910
  0
ARC
  8
0
  6
CONTINUOUS
 62
3
 10
-469.004266199918670
 20
-248.883637324898810
 40
3.000000000000205
 50
147.076446369973640
 51
232.764423686618530
  0
ARC
  8
0
  6
CONTINUOUS
 62
3
 10
-377.030041634541700
 20
-248.883637324898810
 40
3.000000000000068
 50
307.235576313381440
 51
32.923553630026383
  0
ARC
  8
0
  6
CONTINUOUS
 62
3
 10
-362.509422973991150
 20
-234.363018664348600
 40
2.999999999999918
 50
237.076446369970110
 51
322.764423686620200
  0
ARC
  8
0
  6
CONTINUOUS
 62
3
 10
-477.817929459187780
 20
-243.176681923617370
 40
7.500000000000062
 50
327.076446369969290
 51
122.923553630030650
  0
ARC
  8
0
  6
CONTINUOUS
 62
3
 10
-368.216378375272600
 20
-243.176681923617370
 40
7.500000000000062
 50
57.076446369969339
 51
212.923553630030680
  0
ARC
  8
0
  6
CONTINUOUS
 62
3
 10
-448.517153917230190
 20
-217.879635441888690
 40
3.000000000000000
 50
0.000000000000000
 51
16.586214890014475
  0
ARC
  8
0
  6
CONTINUOUS
 62
3
 10
-437.517153917230190
 20
-223.500683961026990
 40
3.000000000000127
 50
67.568479364624565
 51
180.000000000000000
  0
ARC
  8
0
  6
CONTINUOUS
 62
3
 10
-408.517153917230190
 20
-223.500683961026990
 40
3.000000000000000
 50
0.000000000000000
 51
112.431520635375430
  0
ARC
  8
0
  6
CONTINUOUS
 62
3
 10
-397.517153917230190
 20
-217.879635441888690
 40
3.000000000000254
 50
163.413785109985530
 51
180.000000000000000
  0
LINE
  8
0
  6
CONTINUOUS
 62
3
 10
-504.842188981585200
 20
-101.954678036692990
 11
-509.864810326797400
 21
-96.932056691480852
  0
ARC
  8
0
  6
CONTINUOUS
 62
3
 10
-529.017153917230190
 20
-167.375906381659090
 40
6.499999999999999
 50
82.072061951415037
 51
269.932260131924120
  0
ARC
  8
0
  6
CONTINUOUS
 62
3
 10
-448.517153917230190
 20
-263.875906381660000
 40
3.000000000000000
 50
270.000000000000000
 51
0.000000000000000
  0
ARC
  8
0
  6
CONTINUOUS
 62
3
 10
-437.517153917230190
 20
-263.875906381660000
 40
3.000000000000000
 50
180.000000000000000
 51
270.000000000000000
  0
ARC
  8
0
  6
CONTINUOUS
 62
3
 10
-408.517153917230190
 20
-263.875906381660000
 40
3.000000000000000
 50
270.000000000000000
 51
0.000000000000000
  0
ARC
  8
0
  6
CONTINUOUS
 62
3
 10
-397.517153917230190
 20
-263.875906381660000
 40
3.000000000000000
 50
180.000000000000000
 51
270.000000000000000
  0
LINE
  8
0
  6
CONTINUOUS
 62
3
 10
-445.517153917230190
 20
-217.879635441888690
 11
-445.517153917230190
 21
-263.875906381660000
  0
LINE
  8
0
  6
CONTINUOUS
 62
3
 10
-440.517153917230190
 20
-223.500683961026990
 11
-440.517153917230190
 21
-263.875906381660000
  0
LINE
  8
0
  6
CONTINUOUS
 62
3
 10
-405.517153917230190
 20
-223.500683961026990
 11
-405.517153917230190
 21
-263.875906381660000
  0
LINE
  8
0
  6
CONTINUOUS
 62
3
 10
-400.517153917230190
 20
-217.879635441888690
 11
-400.517153917230190
 21
-263.875906381660000
  0
ARC
  8
0
  6
CONTINUOUS
 62
3
 10
-436.517153917230190
 20
-174.875906381660000
 40
69.999999999999943
 50
135.306935940307620
 51
137.401051550010270
  0
ARC
  8
0
  6
CONTINUOUS
 62
3
 10
-409.517153917230190
 20
-174.875906381660000
 40
70.000000000000071
 50
42.177418600897582
 51
44.693064059692254
  0
LINE
  8
0
  6
CONTINUOUS
 62
3
 10
-339.517153917230190
 20
-187.875906381661370
 11
-339.517153917230190
 21
-201.875906381660000
  0
LINE
  8
0
  6
CONTINUOUS
 62
3
 10
-506.517153917230190
 20
-192.661874733666710
 11
-506.517153917230190
 21
-201.875906381660000
  0
POINT
  8
0
  6
DASHED
 62
3
 10
-423.017153917230190
 20
-188.375906381660000
  0
POINT
  8
0
  6
DASHDOT
 62
4
 10
-423.017153917230190
 20
-188.375906381660000
  0
POINT
  8
0
  6
DASHDOT
 62
4
 10
-423.017153917230190
 20
-188.375906381660000
  0
POINT
  8
0
  6
CONTINUOUS
 62
4
 10
-423.017153917230190
 20
-188.375906381660000
  0
INSERT
  8
0
  2
SYM25
 10
-510.461976123573550
 20
-198.794862992922280
 41
1.000000000000000
 42
1.000000000000000
 43
1.000000000000000
 50
357.137594773886350
  0
LINE
  8
0
  6
CONTINUOUS
 62
3
 10
-504.020023537811080
 20
-101.995786308881630
 11
-509.113660466088050
 21
-203.868524874422410
  0
LINE
  8
0
  6
CONTINUOUS
 62
3
 10
-509.113660466088050
 20
-203.868524874422410
 11
-510.711664208292630
 21
-203.788624687311430
  0
LINE
  8
0
  6
CONTINUOUS
 62
3
 10
-505.618027280015670
 20
-101.915886121771450
 11
-510.711664208292630
 21
-203.788624687311430
  0
ARC
  8
0
  6
CONTINUOUS
 62
3
 10
-506.735656381866190
 20
-104.663501718016270
 40
1.299999237060474
 50
87.137594090651831
 51
160.536063666412870
  0
ARC
  8
0
  6
CONTINUOUS
 62
3
 10
-506.955381972618170
 20
-109.058013533054000
 40
1.299999237060493
 50
193.739143184211430
 51
267.137612759980240
  0
LINE
  8
0
  6
CONTINUOUS
 62
3
 10
-505.692933705430960
 20
-103.414014630088100
 11
-506.670737517938510
 21
-103.365124439462760
  0
LINE
  8
0
  6
CONTINUOUS
 62
3
 10
-506.042497024038080
 20
-110.405281002232980
 11
-507.020300836545860
 21
-110.356390811607630
  0
LINE
  8
0
  6
CONTINUOUS
 62
3
 10
-505.692933705430960
 20
-103.414014630088100
 11
-506.042497024038080
 21
-110.405281002232980
  0
LINE
  8
0
  6
CONTINUOUS
 62
3
 10
-505.692933705430960
 20
-103.414014630088100
 11
-506.042497024038080
 21
-110.405281002232980
  0
POINT
  8
0
  6
CONTINUOUS
 62
3
 10
-505.867715364734520
 20
-106.909647816160480
  0
ARC
  8
0
  6
CONTINUOUS
 62
3
 10
-499.475700776910120
 20
-107.229248545551740
 40
9.000000000000060
 50
160.536063666407810
 51
193.739143184213500
  0
LINE
  8
0
  6
CONTINUOUS
 62
3
 10
-505.618027280015670
 20
-101.915886121771450
 11
-504.020023537811080
 21
-101.995786308881630
  0
ARC
  8
0
  6
CONTINUOUS
 62
3
 10
-506.317153917230140
 20
-131.918406381661840
 40
18.799999999999933
 50
144.191373186504250
 51
174.275189547776390
  0
ARC
  8
0
  6
CONTINUOUS
 62
3
 10
-506.317153917230140
 20
-131.918406381661840
 40
18.800000000000036
 50
94.873974813842736
 51
144.191373186504250
  0
LINE
  8
0
  6
CONTINUOUS
 62
3
 10
-529.013413268851080
 20
-169.843593414080830
 11
-525.023388331195060
 21
-130.043094660963560
  0
ARC
  8
0
  6
CONTINUOUS
 62
3
 10
-512.243619748562420
 20
-194.377766703705330
 40
2.000000000000154
 50
357.137594773887600
 51
80.083463391767268
  0
LINE
  8
0
  6
CONTINUOUS
 62
3
 10
-504.819025408913380
 20
-101.955836215326590
 11
-509.912662337190340
 21
-203.828574780866690
  0
ARC
  8
0
  6
CONTINUOUS
 62
3
 10
-506.650606650846610
 20
-194.657417358591150
 40
1.999999999999962
 50
94.191726156001650
 51
177.137594773887290
  0
ARC
  8
0
  6
CONTINUOUS
 62
3
 10
-508.084412380859020
 20
-111.193619349638310
 40
1.999999999999928
 50
274.873974813840960
 51
357.137594773887320
  0
ARC
  8
0
  6
CONTINUOUS
 62
3
 10
-502.491399283143210
 20
-111.473270004524120
 40
1.999999999999927
 50
177.137594773887290
 51
259.401214733934010
  0
ARC
  8
0
  6
CONTINUOUS
 62
3
 10
-508.317153917230140
 20
-171.918406381661840
 40
20.799999999999986
 50
174.275189547776620
 51
205.640070215894870
  0
ARC
  8
0
  6
CONTINUOUS
 62
3
 10
-508.317153917230140
 20
-171.918406381661840
 40
20.799999999999926
 50
205.640070215894870
 51
260.083463391769440
  0
ARC
  8
0
  6
CONTINUOUS
 62
3
 10
-508.317153917230140
 20
-171.918406381661840
 40
20.799999999999986
 50
174.275189547776620
 51
205.640070215894870
  0
ARC
  8
0
  6
CONTINUOUS
 62
3
 10
-506.317153917230140
 20
-131.918406381661840
 40
18.799999999999955
 50
0.000000000000000
 51
79.401214733933941
  0
POINT
  8
0
  6
DASHDOT
 62
4
 10
-487.517153917230190
 20
-157.889636874787810
  0
POINT
  8
0
  6
DASHDOT
 62
4
 10
-487.517153917230190
 20
-157.889636874787810
  0
LINE
  8
0
  6
CONTINUOUS
 62
3
 10
-487.517153917230190
 20
-140.545297621436420
 11
-487.517153917230190
 21
-131.918406381661840
  0
ARC
  8
0
  6
CONTINUOUS
 62
3
 10
-508.317153917230140
 20
-171.918406381661840
 40
20.800000000000082
 50
274.191726156007460
 51
354.952683218987430
  0
ARC
  8
0
  6
CONTINUOUS
 62
4
 10
-423.017153917229960
 20
82.724093618338088
 40
289.396999999999820
 50
262.102011327572200
 51
270.000000000000000
  0
ARC
  8
0
  6
CONTINUOUS
 62
4
 10
-461.958671872612290
 20
-197.984683922248560
 40
6.000000000000049
 50
225.000000000003070
 51
262.102011327574360
  0
LINE
  8
0
  6
CONTINUOUS
 62
4
 10
-466.201312559731380
 20
-202.227324609368110
 11
-470.777377952369990
 21
-197.651259216729500
  0
ARC
  8
0
  6
CONTINUOUS
 62
4
 10
-459.890054842440580
 20
-186.763936106800090
 40
15.397000000000052
 50
186.051985358668840
 51
225.000000000000000
  0
ARC
  8
0
  6
CONTINUOUS
 62
4
 10
-187.417153917230000
 20
-157.875906381661820
 40
289.397000000000220
 50
180.000000000000000
 51
186.051985358668500
  0
ARC
  8
0
  6
CONTINUOUS
 62
4
 10
-423.017153917230190
 20
82.724093618338088
 40
289.396999999999930
 50
270.000000000000000
 51
277.897988672427800
  0
ARC
  8
0
  6
CONTINUOUS
 62
4
 10
-384.075635961847870
 20
-197.984683922248560
 40
5.999999999999923
 50
277.897988672425640
 51
314.999999999996870
  0
LINE
  8
0
  6
CONTINUOUS
 62
4
 10
-379.832995274728770
 20
-202.227324609368110
 11
-375.256929882090160
 21
-197.651259216729500
  0
ARC
  8
0
  6
CONTINUOUS
 62
4
 10
-386.144252992019570
 20
-186.763936106800090
 40
15.396999999999876
 50
315.000000000000000
 51
353.948014641331160
  0
ARC
  8
0
  6
CONTINUOUS
 62
4
 10
-658.617153917230100
 20
-157.875906381661820
 40
289.397000000000160
 50
353.948014641331500
 51
0.000000000000000
  0
ARC
  8
0
  6
CONTINUOUS
 62
4
 10
-423.017153917230190
 20
-398.475906381661730
 40
289.396999999999820
 50
82.102011327572214
 51
90.000000000000000
  0
ARC
  8
0
  6
CONTINUOUS
 62
4
 10
-384.075635961847870
 20
-117.767128841075070
 40
6.000000000000049
 50
45.000000000003077
 51
82.102011327574374
  0
LINE
  8
0
  6
CONTINUOUS
 62
4
 10
-379.832995274728770
 20
-113.524488153955530
 11
-375.256929882090160
 21
-118.100553546594140
  0
ARC
  8
0
  6
CONTINUOUS
 62
4
 10
-386.144252992019570
 20
-128.987876656523550
 40
15.397000000000052
 50
6.051985358668849
 51
45.000000000000000
  0
ARC
  8
0
  6
CONTINUOUS
 62
4
 10
-658.617153917230100
 20
-157.875906381661820
 40
289.397000000000160
 50
0.000000000000000
 51
6.051985358668508
  0
ARC
  8
0
  6
CONTINUOUS
 62
4
 10
-459.890054842440580
 20
-128.987876656523550
 40
15.396999999999876
 50
135.000000000000000
 51
173.948014641331160
  0
ARC
  8
0
  6
CONTINUOUS
 62
3
 10
-386.144252992019570
 20
-186.763936106800090
 40
26.599999999999955
 50
315.000000000001020
 51
353.948014641331380
  0
ARC
  8
0
  6
CONTINUOUS
 62
3
 10
-459.890054842440580
 20
-186.763936106800090
 40
26.599999999999969
 50
186.051985358668590
 51
224.999999999998980
  0
ARC
  8
0
  6
CONTINUOUS
 62
3
 10
-459.890054842440580
 20
-128.987876656523550
 40
26.600000000000119
 50
135.000000000000000
 51
173.948014641331410
  0
ARC
  8
0
  6
CONTINUOUS
 62
3
 10
-386.144252992019800
 20
-128.987876656523550
 40
26.600000000000193
 50
6.051985358668552
 51
45.000000000000000
  0
ARC
  8
0
  6
CONTINUOUS
 62
3
 10
-321.017153917230190
 20
-141.375906381659090
 40
12.999999999999845
 50
225.656361257207520
 51
270.000000000000000
  0
ARC
  8
0
  6
CONTINUOUS
 62
3
 10
-529.017153917230190
 20
-167.375906381659090
 40
5.633955001831048
 50
81.733192209472151
 51
269.274191502609940
  0
LINE
  8
0
  6
CONTINUOUS
 62
3
 10
-471.632646103343860
 20
-103.112387158302340
 11
-478.699095222002820
 21
-110.178836276961300
  0
ARC
  8
0
  6
CONTINUOUS
 62
3
 10
-466.965741347512680
 20
-207.972520849190350
 40
6.599999999999957
 50
225.000000000000000
 51
261.402917762751090
  0
ARC
  8
0
  6
CONTINUOUS
 62
3
 10
-423.017153917230190
 20
82.724093618338316
 40
300.600000000000020
 50
261.402917762750920
 51
270.000000000000000
  0
ARC
  8
0
  6
CONTINUOUS
 62
3
 10
-379.068566486947700
 20
-207.972520849190350
 40
6.599999999999747
 50
278.597082237248910
 51
315.000000000000000
  0
LINE
  8
0
  6
CONTINUOUS
 62
3
 10
-374.401661731116520
 20
-212.639425605021530
 11
-367.335212612457100
 21
-205.572976486361880
  0
ARC
  8
0
  6
CONTINUOUS
 62
3
 10
-658.617153917230100
 20
-157.875906381661820
 40
300.600000000000080
 50
353.948014641331500
 51
6.051985358668499
  0
ARC
  8
0
  6
CONTINUOUS
 62
3
 10
-423.017153917230190
 20
-398.475906381661730
 40
300.599999999999800
 50
81.402917762750931
 51
90.000000000000000
  0
ARC
  8
0
  6
CONTINUOUS
 62
3
 10
-379.068566486947700
 20
-107.779291914133520
 40
6.600000000000118
 50
45.000000000001400
 51
81.402917762751386
  0
ARC
  8
0
  6
CONTINUOUS
 62
3
 10
-423.017153917230190
 20
82.724093618338316
 40
300.600000000000140
 50
270.000000000000000
 51
278.597082237249080
  0
ARC
  8
0
  6
CONTINUOUS
 62
3
 10
-423.017153917230190
 20
-398.475906381661730
 40
300.599999999999910
 50
90.000000000000000
 51
98.597082237249069
  0
ARC
  8
0
  6
CONTINUOUS
 62
3
 10
-187.417153917230110
 20
-157.875906381661820
 40
300.600000000000020
 50
173.948014641331500
 51
186.051985358668500
  0
LINE
  8
0
  6
CONTINUOUS
 62
3
 10
-374.401661731116520
 20
-103.112387158302340
 11
-367.335212612457550
 21
-110.178836276961300
  0
LINE
  8
0
  6
CONTINUOUS
 62
3
 10
-471.632646103343860
 20
-212.639425605021530
 11
-478.699095222003050
 21
-205.572976486361880
  0
ARC
  8
0
  6
CONTINUOUS
 62
3
 10
-419.017153917230190
 20
-116.569127277016260
 40
1.500000000000203
 50
84.468928475159132
 51
180.000000000000000
  0
ARC
  8
0
  6
CONTINUOUS
 62
3
 10
-427.017153917230190
 20
-116.569127277016030
 40
1.500000000000000
 50
0.000000000000000
 51
95.531071524841693
  0
ARC
  8
0
  6
CONTINUOUS
 62
3
 10
-423.017153917229960
 20
-157.875906381661370
 40
17.999999999999922
 50
41.837004155893325
 51
78.162995844107314
  0
ARC
  8
0
  6
CONTINUOUS
 62
3
 10
-423.017153917230420
 20
-157.875906381661370
 40
27.499999999999815
 50
97.928141766201691
 51
142.071858233797880
  0
LINE
  8
0
  6
CONTINUOUS
 62
3
 10
-420.517153917230190
 20
-116.569127277016260
 11
-420.517153917230190
 21
-119.584262384570250
  0
LINE
  8
0
  6
CONTINUOUS
 62
3
 10
-391.105617463079400
 20
-136.565020873655040
 11
-388.494433864095300
 21
-135.057453319877940
  0
LINE
  8
0
  6
CONTINUOUS
 62
3
 10
-420.517153917230190
 20
-126.126890648886840
 11
-420.517153917230190
 21
-129.153093148971380
  0
ARC
  8
0
  6
CONTINUOUS
 62
3
 10
-419.017153917230190
 20
-126.126890648886840
 40
1.499999999999998
 50
82.819244218541712
 51
180.000000000000000
  0
ARC
  8
0
  6
CONTINUOUS
 62
3
 10
-419.017153917230190
 20
-119.584262384570250
 40
1.500000000000000
 50
180.000000000000000
 51
264.036429881682580
  0
ARC
  8
0
  6
CONTINUOUS
 62
3
 10
-389.244433864095300
 20
-133.758415214201140
 40
1.500000000000123
 50
299.999999999997270
 51
35.531071524839192
  0
ARC
  8
0
  6
CONTINUOUS
 62
3
 10
-423.017153917230640
 20
-157.875906381661820
 40
42.999999999999908
 50
35.531071524839248
 51
84.468928475160212
  0
ARC
  8
0
  6
CONTINUOUS
 62
3
 10
-385.244433864094840
 20
-140.686618444477180
 40
1.500000000000034
 50
24.468928475159590
 51
119.999999999997270
  0
LINE
  8
0
  6
CONTINUOUS
 62
3
 10
-388.605617463079170
 20
-140.895147892577480
 11
-385.994433864094840
 21
-139.387580338800380
  0
ARC
  8
0
  6
CONTINUOUS
 62
3
 10
-387.855617463079170
 20
-142.194185998254280
 40
1.500000000000123
 50
119.999999999997270
 51
204.036429881680680
  0
ARC
  8
0
  6
CONTINUOUS
 62
3
 10
-423.017153917230420
 20
-157.875906381662280
 40
36.999999999999972
 50
335.963570118321740
 51
24.036429881678870
  0
ARC
  8
0
  6
CONTINUOUS
 62
3
 10
-423.017153917230420
 20
-157.875906381662280
 40
42.999999999999936
 50
335.531071524839770
 51
24.468928475160769
  0
ARC
  8
0
  6
CONTINUOUS
 62
3
 10
-385.244433864094840
 20
-175.065194318846690
 40
1.500000000000320
 50
240.000000000007050
 51
335.531071524832500
  0
LINE
  8
0
  6
CONTINUOUS
 62
3
 10
-385.994433864094840
 20
-176.364232424523720
 11
-388.605617463078940
 21
-174.856664870746390
  0
ARC
  8
0
  6
CONTINUOUS
 62
3
 10
-387.855617463078940
 20
-173.557626765069810
 40
1.500000000000063
 50
155.963570118322880
 51
239.999999999998410
  0
ARC
  8
0
  6
CONTINUOUS
 62
3
 10
-389.244433864094840
 20
-181.993397549122510
 40
1.499999999999844
 50
324.468928475167900
 51
59.999999999998380
  0
LINE
  8
0
  6
CONTINUOUS
 62
3
 10
-388.494433864094840
 20
-180.694359443445930
 11
-391.105617463078940
 21
-179.186791889668600
  0
LINE
  8
0
  6
CONTINUOUS
 62
3
 10
-425.517153917230190
 20
-116.569127277016030
 11
-425.517153917230190
 21
-119.584262384570250
  0
ARC
  8
0
  6
CONTINUOUS
 62
3
 10
-427.017153917230190
 20
-119.584262384570250
 40
1.499999999999933
 50
275.963570118318330
 51
0.000000000000000
  0
LINE
  8
0
  6
CONTINUOUS
 62
3
 10
-425.517153917230190
 20
-126.126890648886840
 11
-425.517153917230190
 21
-129.153093148971380
  0
ARC
  8
0
  6
CONTINUOUS
 62
3
 10
-427.017153917230190
 20
-126.126890648886840
 40
1.500000000000000
 50
0.000000000000000
 51
97.180755781458288
  0
ARC
  8
0
  6
CONTINUOUS
 62
3
 10
-423.017153917230640
 20
-157.875906381661370
 40
23.999999999999901
 50
100.240348321185670
 51
139.759651678813550
  0
ARC
  8
0
  6
CONTINUOUS
 62
3
 10
-440.192333186275160
 20
-143.341009853781430
 40
1.499999999999802
 50
139.759651678811420
 51
239.999999999998410
  0
LINE
  8
0
  6
CONTINUOUS
 62
3
 10
-438.295538593295990
 20
-146.168175530204170
 11
-440.942333186275160
 21
-144.640047959458000
  0
ARC
  8
0
  6
CONTINUOUS
 62
3
 10
-437.545538593295990
 20
-144.869137424527590
 40
1.499999999999926
 50
239.999999999998410
 51
318.162995844106720
  0
ARC
  8
0
  6
CONTINUOUS
 62
3
 10
-423.017153917230640
 20
-157.875906381661370
 40
17.999999999999829
 50
101.837004155891980
 51
138.162995844106210
  0
ARC
  8
0
  6
CONTINUOUS
 62
3
 10
-427.017153917230190
 20
-138.790571697669180
 40
1.499999999999954
 50
281.837004155896690
 51
0.000000000000000
  0
LINE
  8
0
  6
CONTINUOUS
 62
3
 10
-425.517153917230190
 20
-135.734316556176850
 11
-425.517153917230190
 21
-138.790571697669180
  0
ARC
  8
0
  6
CONTINUOUS
 62
3
 10
-427.017153917230190
 20
-135.734316556176850
 40
1.500000000000000
 50
0.000000000000000
 51
100.240348321194510
  0
ARC
  8
0
  6
CONTINUOUS
 62
3
 10
-423.017153917230640
 20
-157.875906381661370
 40
14.499999999999980
 50
107.920213139390830
 51
132.079786860607560
  0
ARC
  8
0
  6
CONTINUOUS
 62
3
 10
-431.729296560044760
 20
-148.227146328097090
 40
1.499999999999792
 50
132.079786860611680
 51
239.999999999998410
  0
LINE
  8
0
  6
CONTINUOUS
 62
3
 10
-429.704407850424100
 20
-151.128267177244540
 11
-432.479296560044760
 21
-149.526184433773660
  0
ARC
  8
0
  6
CONTINUOUS
 62
3
 10
-428.954407850424100
 20
-149.829229071567970
 40
1.499999999999926
 50
239.999999999998410
 51
306.421821521797600
  0
ARC
  8
0
  6
CONTINUOUS
 62
3
 10
-423.017153917230640
 20
-157.875906381661370
 40
8.499999999999879
 50
113.578178478199500
 51
126.421821521797340
  0
ARC
  8
0
  6
CONTINUOUS
 62
3
 10
-427.017153917230190
 20
-148.710754991749470
 40
1.500000000000139
 50
293.578178478195700
 51
0.000000000000000
  0
LINE
  8
0
  6
CONTINUOUS
 62
3
 10
-425.517153917230190
 20
-145.506589504808400
 11
-425.517153917230190
 21
-148.710754991749470
  0
ARC
  8
0
  6
CONTINUOUS
 62
3
 10
-427.017153917230190
 20
-145.506589504808400
 40
1.500000000000000
 50
0.000000000000000
 51
107.920213139394770
  0
ARC
  8
0
  6
CONTINUOUS
 62
3
 10
-423.017153917230190
 20
-157.875906381661820
 40
23.999999999999716
 50
280.240348321186270
 51
319.759651678814690
  0
ARC
  8
0
  6
CONTINUOUS
 62
3
 10
-419.017153917230190
 20
-180.017496207146340
 40
1.500000000000000
 50
180.000000000000000
 51
280.240348321187530
  0
LINE
  8
0
  6
CONTINUOUS
 62
3
 10
-420.517153917230190
 20
-176.961241065654010
 11
-420.517153917230190
 21
-180.017496207146340
  0
ARC
  8
0
  6
CONTINUOUS
 62
3
 10
-419.017153917230190
 20
-176.961241065654010
 40
1.499999999999731
 50
101.837004155898450
 51
180.000000000000000
  0
ARC
  8
0
  6
CONTINUOUS
 62
3
 10
-423.017153917230190
 20
-157.875906381661820
 40
18.000000000000146
 50
281.837004155893230
 51
318.162995844107680
  0
ARC
  8
0
  6
CONTINUOUS
 62
3
 10
-408.488769241164390
 20
-170.882675338795590
 40
1.499999999999926
 50
59.999999999998380
 51
138.162995844100240
  0
LINE
  8
0
  6
CONTINUOUS
 62
3
 10
-405.091974648185440
 20
-171.111764803865190
 11
-407.738769241164390
 21
-169.583637233119020
  0
ARC
  8
0
  6
CONTINUOUS
 62
3
 10
-405.841974648185440
 20
-172.410802909541760
 40
1.499999999999828
 50
319.759651678823670
 51
59.999999999998380
  0
ARC
  8
0
  6
CONTINUOUS
 62
3
 10
-423.017153917230190
 20
-157.875906381661820
 40
14.500000000000121
 50
287.920213139392560
 51
312.079786860608860
  0
ARC
  8
0
  6
CONTINUOUS
 62
3
 10
-419.017153917230190
 20
-170.245223258514560
 40
1.500000000000000
 50
180.000000000000000
 51
287.920213139392100
  0
LINE
  8
0
  6
CONTINUOUS
 62
3
 10
-420.517153917230190
 20
-167.041057771573260
 11
-420.517153917230190
 21
-170.245223258514560
  0
ARC
  8
0
  6
CONTINUOUS
 62
3
 10
-419.017153917230190
 20
-167.041057771573720
 40
1.500000000000139
 50
113.578178478195690
 51
179.999999999982630
  0
ARC
  8
0
  6
CONTINUOUS
 62
3
 10
-423.017153917230190
 20
-157.875906381661820
 40
8.500000000000060
 50
293.578178478202350
 51
306.421821521799190
  0
ARC
  8
0
  6
CONTINUOUS
 62
3
 10
-417.079899984036270
 20
-165.922583691755220
 40
1.499999999999926
 50
59.999999999998380
 51
126.421821521801260
  0
LINE
  8
0
  6
CONTINUOUS
 62
3
 10
-413.555011274415850
 20
-166.225628329549070
 11
-416.329899984036270
 21
-164.623545586078650
  0
ARC
  8
0
  6
CONTINUOUS
 62
3
 10
-414.305011274415850
 20
-167.524666435226100
 40
1.499999999999944
 50
312.079786860618130
 51
60.000000000007070
  0
ARC
  8
0
  6
CONTINUOUS
 62
3
 10
-423.017153917230190
 20
-157.875906381661820
 40
23.999999999999844
 50
220.240348321185340
 51
259.759651678813730
  0
ARC
  8
0
  6
CONTINUOUS
 62
3
 10
-427.017153917230190
 20
-180.017496207146340
 40
1.499999999999728
 50
259.759651678812470
 51
0.000000000000000
  0
LINE
  8
0
  6
CONTINUOUS
 62
3
 10
-425.517153917230190
 20
-176.961241065654010
 11
-425.517153917230190
 21
-180.017496207146340
  0
ARC
  8
0
  6
CONTINUOUS
 62
3
 10
-427.017153917230190
 20
-176.961241065654010
 40
1.500000000000000
 50
0.000000000000000
 51
78.162995844101530
  0
ARC
  8
0
  6
CONTINUOUS
 62
3
 10
-423.017153917230190
 20
-157.875906381661820
 40
17.999999999999940
 50
221.837004155892320
 51
258.162995844106770
  0
ARC
  8
0
  6
CONTINUOUS
 62
3
 10
-437.545538593295990
 20
-170.882675338795590
 40
1.500000000000118
 50
41.837004155899741
 51
120.000000000001620
  0
LINE
  8
0
  6
CONTINUOUS
 62
3
 10
-440.942333186274940
 20
-171.111764803865190
 11
-438.295538593295990
 21
-169.583637233119020
  0
ARC
  8
0
  6
CONTINUOUS
 62
3
 10
-440.192333186274940
 20
-172.410802909541760
 40
1.499999999999926
 50
120.000000000001620
 51
220.240348321176330
  0
ARC
  8
0
  6
CONTINUOUS
 62
3
 10
-423.017153917230190
 20
-157.875906381661820
 40
14.500000000000011
 50
227.920213139391080
 51
252.079786860607410
  0
ARC
  8
0
  6
CONTINUOUS
 62
3
 10
-427.017153917230190
 20
-170.245223258514560
 40
1.500000000000355
 50
252.079786860607900
 51
0.000000000000000
  0
LINE
  8
0
  6
CONTINUOUS
 62
3
 10
-425.517153917230190
 20
-167.041057771573260
 11
-425.517153917230190
 21
-170.245223258514560
  0
ARC
  8
0
  6
CONTINUOUS
 62
3
 10
-427.017153917230190
 20
-167.041057771573720
 40
1.500000000000000
 50
0.000000000017370
 51
66.421821521804304
  0
ARC
  8
0
  6
CONTINUOUS
 62
3
 10
-423.017153917230190
 20
-157.875906381661820
 40
8.499999999999870
 50
233.578178478199590
 51
246.421821521797680
  0
ARC
  8
0
  6
CONTINUOUS
 62
3
 10
-428.954407850424100
 20
-165.922583691755220
 40
1.500000000000059
 50
53.578178478205707
 51
120.000000000001620
  0
LINE
  8
0
  6
CONTINUOUS
 62
3
 10
-432.479296560044530
 20
-166.225628329549070
 11
-429.704407850424100
 21
-164.623545586078650
  0
ARC
  8
0
  6
CONTINUOUS
 62
3
 10
-431.729296560044530
 20
-167.524666435226100
 40
1.500000000000320
 50
119.999999999992930
 51
227.920213139381870
  0
ARC
  8
0
  6
CONTINUOUS
 62
3
 10
-423.017153917230640
 20
-157.875906381661370
 40
23.999999999999925
 50
160.240348321185910
 51
199.759651678814090
  0
ARC
  8
0
  6
CONTINUOUS
 62
3
 10
-444.192333186275160
 20
-150.269213084056790
 40
1.499999999999926
 50
59.999999999998380
 51
160.240348321185250
  0
LINE
  8
0
  6
CONTINUOUS
 62
3
 10
-440.795538593295990
 20
-150.498302549126380
 11
-443.442333186275160
 21
-148.970174978380210
  0
ARC
  8
0
  6
CONTINUOUS
 62
3
 10
-441.545538593295990
 20
-151.797340654802950
 40
1.500000000000038
 50
341.837004155895390
 51
59.999999999998380
  0
ARC
  8
0
  6
CONTINUOUS
 62
3
 10
-423.017153917230640
 20
-157.875906381661370
 40
17.999999999999726
 50
161.837004155893140
 51
198.162995844106860
  0
ARC
  8
0
  6
CONTINUOUS
 62
3
 10
-441.545538593295990
 20
-163.954472108519780
 40
1.500000000000320
 50
299.999999999992950
 51
18.162995844104589
  0
LINE
  8
0
  6
CONTINUOUS
 62
3
 10
-443.442333186274940
 20
-166.781637784942520
 11
-440.795538593295990
 21
-165.253510214196810
  0
ARC
  8
0
  6
CONTINUOUS
 62
3
 10
-444.192333186274940
 20
-165.482599679265950
 40
1.500000000000246
 50
199.759651678811820
 51
300.000000000001590
  0
ARC
  8
0
  6
CONTINUOUS
 62
3
 10
-423.017153917230640
 20
-157.875906381661370
 40
14.499999999999851
 50
167.920213139392840
 51
192.079786860608920
  0
ARC
  8
0
  6
CONTINUOUS
 62
3
 10
-435.729296560044760
 20
-155.155349558372450
 40
1.499999999999926
 50
59.999999999998380
 51
167.920213139405550
  0
LINE
  8
0
  6
CONTINUOUS
 62
3
 10
-432.204407850424100
 20
-155.458394196166750
 11
-434.979296560044760
 21
-153.856311452695880
  0
ARC
  8
0
  6
CONTINUOUS
 62
3
 10
-432.954407850424100
 20
-156.757432301843320
 40
1.499999999999873
 50
353.578178478198030
 51
59.999999999998380
  0
ARC
  8
0
  6
CONTINUOUS
 62
3
 10
-423.017153917230640
 20
-157.875906381661370
 40
8.499999999999813
 50
173.578178478202550
 51
186.421821521800500
  0
ARC
  8
0
  6
CONTINUOUS
 62
3
 10
-432.954407850424100
 20
-158.994380461479860
 40
1.499999999999926
 50
300.000000000001590
 51
6.421821521801967
  0
LINE
  8
0
  6
CONTINUOUS
 62
3
 10
-434.979296560044530
 20
-161.895501310626860
 11
-432.204407850424100
 21
-160.293418567156440
  0
ARC
  8
0
  6
CONTINUOUS
 62
3
 10
-435.729296560044530
 20
-160.596463204950280
 40
1.500000000000287
 50
192.079786860609600
 51
300.000000000001590
  0
ARC
  8
0
  6
CONTINUOUS
 62
3
 10
-423.017153917229960
 20
-157.875906381661370
 40
24.000000000000139
 50
340.240348321186050
 51
19.759651678813924
  0
ARC
  8
0
  6
CONTINUOUS
 62
3
 10
-401.841974648185440
 20
-150.269213084056790
 40
1.500000000000246
 50
19.759651678811824
 51
120.000000000001620
  0
LINE
  8
0
  6
CONTINUOUS
 62
3
 10
-405.238769241164390
 20
-150.498302549126380
 11
-402.591974648185440
 21
-148.970174978380210
  0
ARC
  8
0
  6
CONTINUOUS
 62
3
 10
-404.488769241164390
 20
-151.797340654802950
 40
1.499999999999926
 50
120.000000000001620
 51
198.162995844104590
  0
ARC
  8
0
  6
CONTINUOUS
 62
3
 10
-423.017153917229960
 20
-157.875906381661370
 40
17.999999999999943
 50
341.837004155893340
 51
18.162995844106646
  0
ARC
  8
0
  6
CONTINUOUS
 62
3
 10
-404.488769241164390
 20
-163.954472108519780
 40
1.500000000000038
 50
161.837004155895410
 51
240.000000000007050
  0
LINE
  8
0
  6
CONTINUOUS
 62
3
 10
-402.591974648185440
 20
-166.781637784942520
 11
-405.238769241164390
 21
-165.253510214196810
  0
ARC
  8
0
  6
CONTINUOUS
 62
3
 10
-401.841974648185440
 20
-165.482599679265950
 40
1.499999999999926
 50
239.999999999998410
 51
340.240348321188210
  0
ARC
  8
0
  6
CONTINUOUS
 62
3
 10
-423.017153917229960
 20
-157.875906381661370
 40
14.500000000000169
 50
347.920213139391310
 51
12.079786860606980
  0
ARC
  8
0
  6
CONTINUOUS
 62
3
 10
-410.305011274415850
 20
-155.155349558372450
 40
1.500000000000192
 50
12.079786860592611
 51
120.000000000001620
  0
LINE
  8
0
  6
CONTINUOUS
 62
3
 10
-413.829899984036270
 20
-155.458394196166750
 11
-411.055011274415850
 21
-153.856311452695880
  0
ARC
  8
0
  6
CONTINUOUS
 62
3
 10
-413.079899984036270
 20
-156.757432301843320
 40
1.499999999999926
 50
120.000000000001620
 51
186.421821521801010
  0
ARC
  8
0
  6
CONTINUOUS
 62
3
 10
-423.017153917229960
 20
-157.875906381661370
 40
8.499999999999865
 50
353.578178478199500
 51
6.421821521797448
  0
ARC
  8
0
  6
CONTINUOUS
 62
3
 10
-413.079899984036270
 20
-158.994380461479860
 40
1.500000000000099
 50
173.578178478198990
 51
239.999999999998410
  0
LINE
  8
0
  6
CONTINUOUS
 62
3
 10
-411.055011274415850
 20
-161.895501310626860
 11
-413.829899984036270
 21
-160.293418567156440
  0
ARC
  8
0
  6
CONTINUOUS
 62
3
 10
-410.305011274415850
 20
-160.596463204950280
 40
1.499999999999926
 50
239.999999999998410
 51
347.920213139390400
  0
ARC
  8
0
  6
CONTINUOUS
 62
3
 10
-423.017153917229960
 20
-157.875906381661370
 40
8.500000000000101
 50
53.578178478202659
 51
66.421821521799089
  0
ARC
  8
0
  6
CONTINUOUS
 62
3
 10
-423.017153917229960
 20
-157.875906381661370
 40
23.999999999999819
 50
40.240348321186090
 51
79.759651678814322
  0
LINE
  8
0
  6
CONTINUOUS
 62
3
 10
-416.329899984036270
 20
-151.128267177244540
 11
-413.555011274415850
 21
-149.526184433773660
  0
LINE
  8
0
  6
CONTINUOUS
 62
3
 10
-420.517153917230190
 20
-135.734316556176850
 11
-420.517153917230190
 21
-138.790571697669180
  0
LINE
  8
0
  6
CONTINUOUS
 62
3
 10
-420.517153917230190
 20
-145.506589504808400
 11
-420.517153917230190
 21
-148.710754991749470
  0
ARC
  8
0
  6
CONTINUOUS
 62
3
 10
-423.017153917229960
 20
-157.875906381661370
 40
14.499999999999860
 50
47.920213139391755
 51
72.079786860608309
  0
LINE
  8
0
  6
CONTINUOUS
 62
3
 10
-407.738769241164390
 20
-146.168175530204170
 11
-405.091974648185440
 21
-144.640047959458000
  0
ARC
  8
0
  6
CONTINUOUS
 62
3
 10
-414.305011274415850
 20
-148.227146328097090
 40
1.499999999999926
 50
300.000000000001590
 51
47.920213139381872
  0
ARC
  8
0
  6
CONTINUOUS
 62
3
 10
-419.017153917230190
 20
-135.734316556176850
 40
1.499999999999952
 50
79.759651678814024
 51
180.000000000000000
  0
ARC
  8
0
  6
CONTINUOUS
 62
3
 10
-408.488769241164390
 20
-144.869137424527590
 40
1.499999999999967
 50
221.837004155893280
 51
300.000000000001590
  0
ARC
  8
0
  6
CONTINUOUS
 62
3
 10
-419.017153917230190
 20
-138.790571697669180
 40
1.500000000000000
 50
180.000000000000000
 51
258.162995844103310
  0
ARC
  8
0
  6
CONTINUOUS
 62
3
 10
-419.017153917230190
 20
-145.506589504808400
 40
1.500000000000138
 50
72.079786860605225
 51
180.000000000000000
  0
ARC
  8
0
  6
CONTINUOUS
 62
3
 10
-405.841974648185440
 20
-143.341009853781430
 40
1.499999999999926
 50
300.000000000001590
 51
40.240348321182964
  0
ARC
  8
0
  6
CONTINUOUS
 62
3
 10
-419.017153917230190
 20
-148.710754991749470
 40
1.500000000000000
 50
180.000000000000000
 51
246.421821521804280
  0
ARC
  8
0
  6
CONTINUOUS
 62
3
 10
-417.079899984036270
 20
-149.829229071567970
 40
1.499999999999693
 50
233.578178478195410
 51
300.000000000001590
  0
CIRCLE
  8
0
  6
CONTINUOUS
 62
3
 10
-423.017153917230190
 20
-157.875906381661370
 40
5.000000000000000
  0
ARC
  8
0
  6
CONTINUOUS
 62
3
 10
-400.142467989564470
 20
-140.050398150178690
 40
1.499999999999843
 50
217.928141766204990
 51
300.000000000001590
  0
LINE
  8
0
  6
CONTINUOUS
 62
3
 10
-399.392467989564470
 20
-141.349436255855270
 11
-396.771699747495630
 21
-139.836335005813110
  0
ARC
  8
0
  6
CONTINUOUS
 62
3
 10
-419.017153917230190
 20
-129.153093148971380
 40
1.500000000000000
 50
180.000000000000000
 51
262.071858233795980
  0
ARC
  8
0
  6
CONTINUOUS
 62
3
 10
-423.017153917229960
 20
-157.875906381661370
 40
27.500000000000060
 50
37.928141766201819
 51
82.071858233798309
  0
ARC
  8
0
  6
CONTINUOUS
 62
3
 10
-397.521699747495630
 20
-138.537296900136540
 40
1.499999999999926
 50
300.000000000001590
 51
37.180755781457485
  0
ARC
  8
0
  6
CONTINUOUS
 62
3
 10
-391.855617463079400
 20
-135.265982767978240
 40
1.500000000000102
 50
215.963570118316280
 51
299.999999999997270
  0
ARC
  8
0
  6
CONTINUOUS
 62
3
 10
-423.017153917230640
 20
-157.875906381661820
 40
36.999999999999943
 50
35.963570118321194
 51
84.036429881678174
  0
ARC
  8
0
  6
CONTINUOUS
 62
3
 10
-423.017153917230640
 20
-157.875906381661820
 40
33.500000000000071
 50
37.180755781458259
 51
82.819244218540931
  0
LINE
  8
0
  6
CONTINUOUS
 62
3
 10
-396.892467989564240
 20
-145.679563274777930
 11
-394.271699747495400
 21
-144.166462024735780
  0
ARC
  8
0
  6
CONTINUOUS
 62
3
 10
-393.521699747495400
 20
-145.465500130412580
 40
1.499999999999948
 50
22.819244218550043
 51
119.999999999997270
  0
ARC
  8
0
  6
CONTINUOUS
 62
3
 10
-396.142467989564240
 20
-146.978601380454510
 40
1.499999999999926
 50
120.000000000001620
 51
202.071858233797370
  0
ARC
  8
0
  6
CONTINUOUS
 62
3
 10
-423.017153917229730
 20
-157.875906381661820
 40
27.499999999999886
 50
337.928141766202200
 51
22.071858233797812
  0
ARC
  8
0
  6
CONTINUOUS
 62
3
 10
-423.017153917230420
 20
-157.875906381662280
 40
33.500000000000128
 50
337.180755781459030
 51
22.819244218541968
  0
ARC
  8
0
  6
CONTINUOUS
 62
3
 10
-396.142467989564470
 20
-168.773211382869140
 40
1.499999999999899
 50
157.928141766199360
 51
240.000000000007050
  0
LINE
  8
0
  6
CONTINUOUS
 62
3
 10
-394.271699747495180
 20
-171.585350738588090
 11
-396.892467989564470
 21
-170.072249488546160
  0
ARC
  8
0
  6
CONTINUOUS
 62
3
 10
-393.521699747495180
 20
-170.286312632911520
 40
1.499999999999926
 50
239.999999999998410
 51
337.180755781453340
  0
ARC
  8
0
  6
CONTINUOUS
 62
3
 10
-419.017153917229960
 20
-199.182685486306920
 40
1.500000000000000
 50
180.000000000000000
 51
275.531071524831360
  0
LINE
  8
0
  6
CONTINUOUS
 62
3
 10
-420.517153917229960
 20
-196.167550378752710
 11
-420.517153917229960
 21
-199.182685486306920
  0
LINE
  8
0
  6
CONTINUOUS
 62
3
 10
-420.517153917229960
 20
-186.598719614352260
 11
-420.517153917229960
 21
-189.624922114436570
  0
ARC
  8
0
  6
CONTINUOUS
 62
3
 10
-419.017153917229960
 20
-196.167550378753160
 40
1.500000000000182
 50
95.963570118326047
 51
179.999999999982630
  0
ARC
  8
0
  6
CONTINUOUS
 62
3
 10
-419.017153917229960
 20
-189.624922114436570
 40
1.500000000000000
 50
180.000000000000000
 51
277.180755781458290
  0
ARC
  8
0
  6
CONTINUOUS
 62
3
 10
-419.017153917229960
 20
-186.598719614352260
 40
1.499999999999967
 50
97.928141766195438
 51
180.000000000000000
  0
ARC
  8
0
  6
CONTINUOUS
 62
3
 10
-423.017153917229960
 20
-157.875906381662280
 40
27.499999999999879
 50
277.928141766202600
 51
322.071858233798930
  0
ARC
  8
0
  6
CONTINUOUS
 62
3
 10
-423.017153917229960
 20
-157.875906381661370
 40
37.000000000000028
 50
275.963570118320770
 51
324.036429881678030
  0
ARC
  8
0
  6
CONTINUOUS
 62
3
 10
-423.017153917229960
 20
-157.875906381661370
 40
43.000000000000199
 50
275.531071524838860
 51
324.468928475160340
  0
ARC
  8
0
  6
CONTINUOUS
 62
3
 10
-423.017153917229960
 20
-157.875906381661370
 40
33.500000000000114
 50
277.180755781458230
 51
322.819244218540860
  0
ARC
  8
0
  6
CONTINUOUS
 62
3
 10
-400.142467989564470
 20
-175.701414613144950
 40
1.500000000000320
 50
60.000000000007070
 51
142.071858233781280
  0
ARC
  8
0
  6
CONTINUOUS
 62
3
 10
-391.855617463078940
 20
-180.485829995345170
 40
1.499999999999926
 50
59.999999999998380
 51
144.036429881690740
  0
LINE
  8
0
  6
CONTINUOUS
 62
3
 10
-396.771699747495180
 20
-175.915477757510300
 11
-399.392467989564470
 21
-174.402376507467920
  0
ARC
  8
0
  6
CONTINUOUS
 62
3
 10
-397.521699747495180
 20
-177.214515863186880
 40
1.500000000000240
 50
322.819244218535570
 51
59.999999999998380
  0
ARC
  8
0
  6
CONTINUOUS
 62
3
 10
-427.017153917230420
 20
-199.182685486306920
 40
1.500000000000430
 50
264.468928475160000
 51
0.000000000000000
  0
LINE
  8
0
  6
CONTINUOUS
 62
3
 10
-425.517153917230420
 20
-196.167550378752710
 11
-425.517153917230420
 21
-199.182685486306920
  0
LINE
  8
0
  6
CONTINUOUS
 62
3
 10
-425.517153917230420
 20
-186.598719614352260
 11
-425.517153917230420
 21
-189.624922114436570
  0
ARC
  8
0
  6
CONTINUOUS
 62
3
 10
-427.017153917230420
 20
-196.167550378753160
 40
1.500000000000000
 50
0.000000000017370
 51
84.036429881682594
  0
ARC
  8
0
  6
CONTINUOUS
 62
3
 10
-427.017153917230420
 20
-189.624922114436570
 40
1.499999999999998
 50
262.819244218541710
 51
0.000000000000000
  0
ARC
  8
0
  6
CONTINUOUS
 62
3
 10
-427.017153917230420
 20
-186.598719614352260
 40
1.500000000000000
 50
0.000000000000000
 51
82.071858233804562
  0
ARC
  8
0
  6
CONTINUOUS
 62
3
 10
-423.017153917230420
 20
-157.875906381662280
 40
27.499999999999780
 50
217.928141766201070
 51
262.071858233797400
  0
ARC
  8
0
  6
CONTINUOUS
 62
3
 10
-423.017153917230420
 20
-157.875906381661370
 40
37.000000000000021
 50
215.963570118321970
 51
264.036429881678940
  0
ARC
  8
0
  6
CONTINUOUS
 62
3
 10
-423.017153917230420
 20
-157.875906381661370
 40
42.999999999999858
 50
215.531071524839690
 51
264.468928475160850
  0
ARC
  8
0
  6
CONTINUOUS
 62
3
 10
-423.017153917230420
 20
-157.875906381661370
 40
33.500000000000163
 50
217.180755781459110
 51
262.819244218541770
  0
ARC
  8
0
  6
CONTINUOUS
 62
3
 10
-445.891839844895910
 20
-175.701414613144950
 40
1.500000000000122
 50
37.928141766218701
 51
119.999999999992930
  0
ARC
  8
0
  6
CONTINUOUS
 62
3
 10
-456.789873970365530
 20
-181.993397549122510
 40
1.499999999999926
 50
120.000000000001620
 51
215.531071524832130
  0
LINE
  8
0
  6
CONTINUOUS
 62
3
 10
-457.539873970365530
 20
-180.694359443445930
 11
-454.928690371381440
 21
-179.186791889668600
  0
ARC
  8
0
  6
CONTINUOUS
 62
3
 10
-454.178690371381440
 20
-180.485829995345170
 40
1.499999999999968
 50
35.963570118309242
 51
120.000000000001620
  0
LINE
  8
0
  6
CONTINUOUS
 62
3
 10
-449.262608086965200
 20
-175.915477757510300
 11
-446.641839844895910
 21
-174.402376507467920
  0
ARC
  8
0
  6
CONTINUOUS
 62
3
 10
-448.512608086965200
 20
-177.214515863186880
 40
1.499999999999926
 50
120.000000000001620
 51
217.180755781464400
  0
ARC
  8
0
  6
CONTINUOUS
 62
3
 10
-460.789873970365530
 20
-140.686618444477180
 40
1.499999999999926
 50
59.999999999998380
 51
155.531071524840400
  0
LINE
  8
0
  6
CONTINUOUS
 62
3
 10
-457.428690371380980
 20
-140.895147892577710
 11
-460.039873970365530
 21
-139.387580338800600
  0
LINE
  8
0
  6
CONTINUOUS
 62
3
 10
-449.141839844896140
 20
-145.679563274777930
 11
-451.762608086964970
 21
-144.166462024735780
  0
ARC
  8
0
  6
CONTINUOUS
 62
3
 10
-458.178690371381210
 20
-142.194185998254280
 40
1.499999999999855
 50
335.963570118319300
 51
59.999999999990862
  0
ARC
  8
0
  6
CONTINUOUS
 62
3
 10
-452.512608086964970
 20
-145.465500130412580
 40
1.500000000000123
 50
60.000000000002721
 51
157.180755781457980
  0
ARC
  8
0
  6
CONTINUOUS
 62
3
 10
-449.891839844896140
 20
-146.978601380454510
 40
1.500000000000110
 50
337.928141766202600
 51
59.999999999998380
  0
ARC
  8
0
  6
CONTINUOUS
 62
3
 10
-423.017153917230640
 20
-157.875906381661820
 40
27.499999999999886
 50
157.928141766202200
 51
202.071858233798680
  0
ARC
  8
0
  6
CONTINUOUS
 62
3
 10
-423.017153917229960
 20
-157.875906381662280
 40
37.000000000000156
 50
155.963570118321120
 51
204.036429881678230
  0
ARC
  8
0
  6
CONTINUOUS
 62
3
 10
-423.017153917229960
 20
-157.875906381662280
 40
43.000000000000121
 50
155.531071524839230
 51
204.468928475160200
  0
ARC
  8
0
  6
CONTINUOUS
 62
3
 10
-423.017153917229960
 20
-157.875906381662280
 40
33.499999999999794
 50
157.180755781458400
 51
202.819244218540940
  0
ARC
  8
0
  6
CONTINUOUS
 62
3
 10
-449.891839844895910
 20
-168.773211382869140
 40
1.500000000000320
 50
299.999999999992950
 51
22.071858233784546
  0
ARC
  8
0
  6
CONTINUOUS
 62
3
 10
-460.789873970365530
 20
-175.065194318846690
 40
1.500000000000128
 50
204.468928475167470
 51
299.999999999992950
  0
LINE
  8
0
  6
CONTINUOUS
 62
3
 10
-460.039873970365530
 20
-176.364232424523720
 11
-457.428690371381440
 21
-174.856664870746390
  0
ARC
  8
0
  6
CONTINUOUS
 62
3
 10
-458.178690371381440
 20
-173.557626765069810
 40
1.499999999999926
 50
300.000000000001590
 51
24.036429881677126
  0
LINE
  8
0
  6
CONTINUOUS
 62
3
 10
-451.762608086965200
 20
-171.585350738588090
 11
-449.141839844895910
 21
-170.072249488546160
  0
ARC
  8
0
  6
CONTINUOUS
 62
3
 10
-452.512608086965200
 20
-170.286312632911520
 40
1.500000000000157
 50
202.819244218546660
 51
300.000000000001590
  0
ARC
  8
0
  6
CONTINUOUS
 62
3
 10
-456.789873970365080
 20
-133.758415214201140
 40
1.499999999999976
 50
144.468928475160790
 51
240.000000000002730
  0
LINE
  8
0
  6
CONTINUOUS
 62
3
 10
-454.928690371380980
 20
-136.565020873655040
 11
-457.539873970365080
 21
-135.057453319877940
  0
LINE
  8
0
  6
CONTINUOUS
 62
3
 10
-446.641839844895910
 20
-141.349436255855270
 11
-449.262608086964750
 21
-139.836335005813110
  0
ARC
  8
0
  6
CONTINUOUS
 62
3
 10
-454.178690371380980
 20
-135.265982767978240
 40
1.500000000000123
 50
240.000000000002730
 51
324.036429881683720
  0
ARC
  8
0
  6
CONTINUOUS
 62
3
 10
-448.512608086964750
 20
-138.537296900136540
 40
1.500000000000103
 50
142.819244218542510
 51
239.999999999998410
  0
ARC
  8
0
  6
CONTINUOUS
 62
3
 10
-445.891839844895910
 20
-140.050398150178690
 40
1.499999999999926
 50
239.999999999998410
 51
322.071858233800300
  0
ARC
  8
0
  6
CONTINUOUS
 62
3
 10
-423.017153917229730
 20
-157.875906381661820
 40
37.000000000000099
 50
95.963570118321798
 51
144.036429881678830
  0
ARC
  8
0
  6
CONTINUOUS
 62
3
 10
-423.017153917229730
 20
-157.875906381661820
 40
43.000000000000043
 50
95.531071524839788
 51
144.468928475160770
  0
ARC
  8
0
  6
CONTINUOUS
 62
3
 10
-423.017153917229730
 20
-157.875906381661820
 40
33.499999999999950
 50
97.180755781459069
 51
142.819244218541740
  0
ARC
  8
0
  6
CONTINUOUS
 62
3
 10
-427.017153917230190
 20
-129.153093148971380
 40
1.499999999999998
 50
277.928141766204020
 51
0.000000000000000
  0
ARC
  8
0
  6
CONTINUOUS
 62
3
 10
-466.965741347512680
 20
-107.779291914133520
 40
6.599999999999971
 50
98.597082237248614
 51
134.999999999998610
  0
ARC
  8
0
  6
CONTINUOUS
 62
3
 10
-630.017153917230190
 20
-157.875906381661370
 40
300.000000000000170
 50
355.138594604201900
 51
0.000000000000000
  0
LINE
  8
0
  6
CONTINUOUS
 62
3
 10
-336.078384783248790
 20
-187.875906381661370
 11
-359.517153917230190
 21
-187.875906381661370
  0
ARC
  8
0
  6
CONTINUOUS
 62
3
 10
-336.078384783248790
 20
-182.875906381661370
 40
5.000000000000000
 50
270.000000000000000
 51
355.138594604199000
  0
ARC
  8
0
  6
CONTINUOUS
 62
3
 10
-336.078384783248790
 20
-132.875906381661590
 40
5.000000000000119
 50
4.861405395798401
 51
90.000000000000000
  0
ARC
  8
0
  6
CONTINUOUS
 62
3
 10
-630.017153917230190
 20
-157.875906381661370
 40
300.000000000000000
 50
0.000000000000000
 51
4.861405395797992
  0
LINE
  8
0
  6
CONTINUOUS
 62
3
 10
-329.517153917230190
 20
-155.375906381661370
 11
-330.027570764747910
 21
-155.375906381661370
  0
LINE
  8
0
  6
CONTINUOUS
 62
3
 10
-329.517153917230190
 20
-160.375906381661370
 11
-330.027570764747910
 21
-160.375906381661370
  0
LINE
  8
0
  6
CONTINUOUS
 62
3
 10
-329.517153917230190
 20
-160.375906381661370
 11
-329.517153917230190
 21
-155.375906381661370
  0
LINE
  8
0
  6
CONTINUOUS
 62
3
 10
-359.672158976689160
 20
-126.375906381661590
 11
-359.517153917230190
 21
-126.375906381661590
  0
LINE
  8
0
  6
CONTINUOUS
 62
3
 10
-336.078384783248790
 20
-127.875906381661590
 11
-359.517906174946350
 21
-127.875906381661590
  0
LINE
  8
0
  6
CONTINUOUS
 62
3
 10
-359.517153917230190
 20
-189.375906381661820
 11
-359.517153917230190
 21
-187.868405443928510
  0
LINE
  8
0
  6
CONTINUOUS
 62
3
 10
-359.517153917230190
 20
-127.883407319394900
 11
-359.517153917230190
 21
-126.375906381661590
  0
LINE
  8
0
  6
CONTINUOUS
 62
3
 10
-359.672158976689160
 20
-189.375906381661820
 11
-359.517153917230190
 21
-189.375906381661820
  0
ARC
  8
0
  6
CONTINUOUS
 62
4
 10
-187.417153917230220
 20
-157.875906381661820
 40
289.396999999999990
 50
173.948014641331470
 51
180.000000000000000
  0
LINE
  8
0
  6
CONTINUOUS
 62
4
 10
-466.201312559731380
 20
-113.524488153955530
 11
-470.777377952369990
 21
-118.100553546594140
  0
ARC
  8
0
  6
CONTINUOUS
 62
4
 10
-461.958671872612290
 20
-117.767128841075070
 40
5.999999999999923
 50
97.897988672425626
 51
134.999999999996930
  0
ARC
  8
0
  6
CONTINUOUS
 62
4
 10
-423.017153917230190
 20
-398.475906381661730
 40
289.396999999999930
 50
90.000000000000000
 51
97.897988672427743
  0
POINT
  8
0
  6
CONTINUOUS
 62
3
 10
-423.017153917230190
 20
-188.375906381660000
  0
POINT
  8
0
  6
CONTINUOUS
 62
4
 10
-423.017153917230190
 20
-188.375906381660000
  0
POINT
  8
0
  6
DASHDOT
 62
4
 10
-423.017153917230190
 20
-188.375906381660000
  0
POINT
  8
0
  6
CONTINUOUS
 62
3
 10
-423.017153917230190
 20
-188.375906381660000
  0
POINT
  8
0
  6
CONTINUOUS
 62
4
 10
-423.017153917230190
 20
-188.375906381660000
  0
POINT
  8
0
  6
DASHDOT
 62
4
 10
-423.017153917230190
 20
-188.375906381660000
  0
ARC
  8
0
  6
CONTINUOUS
 62
3
 10
-423.017153917230190
 20
-188.375906381660000
 40
35.000000000000092
 50
235.503770534084790
 51
304.496229465915180
  0
LINE
  8
0
  6
DASHDOT
 62
4
 10
-574.370419424512420
 20
-157.875906381661820
 11
-271.042455593936610
 21
-157.875906381661820
  0
LINE
  8
0
  6
DASHDOT
 62
4
 10
-391.438024474563920
 20
-156.375906381659320
 11
-453.973805162147530
 21
-156.375906381659320
  0
LINE
  8
0
  6
DASHDOT
 62
4
 10
-314.785710782386330
 20
-264.607349516486520
 11
-288.980457756203120
 21
-290.412602542665700
  0
ARC
  8
0
  6
DASHDOT
 62
4
 10
-423.017153917230640
 20
-156.375906381659770
 40
169.999999999999910
 50
309.022036604029950
 51
320.510120061771720
  0
LINE
  8
0
  6
DASHDOT
 62
4
 10
-529.898050891736490
 20
-263.256803356182440
 11
-556.936371225672700
 21
-290.295123690123090
  0
ARC
  8
0
  6
DASHDOT
 62
4
 10
-423.017153917230640
 20
-156.375906381659320
 40
169.999999999999910
 50
219.385140374273080
 51
230.518027218992360
  0
LINE
  8
0
  6
DASHDOT
 62
4
 10
-530.136726385183580
 20
-49.256333913722443
 11
-557.053850078257260
 21
-22.339210220652944
  0
ARC
  8
0
  6
DASHDOT
 62
4
 10
-423.017153917230190
 20
-156.375906381659320
 40
169.999999999999890
 50
129.221126534335330
 51
140.544537862046920
  0
ARC
  8
0
  6
DASHDOT
 62
4
 10
-423.017153917230190
 20
-156.375906381659320
 40
169.999999999999910
 50
39.470956708202117
 51
50.764203165602218
  0
LINE
  8
0
  6
DASHDOT
 62
4
 10
-316.267818507244500
 20
-49.626570971690072
 11
-288.980457756203120
 21
-22.339210220652944
  0
TEXT
  8
0
  6
CONTINUOUS
 62
3
 10
-482.761474609375000
 20
198.986724853515620
 40
12.355199813842773
  1
Ｓ１５４
 50
0.000002504478167
 41
0.984848607647724
  7
STANDARD1
  0
TEXT
  8
0
  6
CONTINUOUS
 62
3
 10
-482.761474609375000
 20
179.143524169921880
 40
12.355199813842773
  1
三菱ギヤードモートル
 50
0.000002504478167
 41
0.984848607647724
  7
STANDARD1
  0
TEXT
  8
0
  6
CONTINUOUS
 62
3
 10
-482.761474609375000
 20
159.300323486328120
 40
12.355199813842773
  1
ＧＭ－ＳＦＳ
 50
0.000002504478167
 41
0.984848607647724
  7
STANDARD1
  0
TEXT
  8
0
  6
CONTINUOUS
 62
3
 10
-482.761474609375000
 20
139.457122802734380
 40
12.355199813842773
  1
０．４ｋＷ
 50
0.000002504478167
 41
0.984848607647724
  7
STANDARD1
  0
TEXT
  8
0
  6
CONTINUOUS
 62
3
 10
-482.761474609375000
 20
119.613922119140620
 40
12.355199813842773
  1
１／２７０～１／４５０
 50
0.000002504478167
 41
0.984848607647724
  7
STANDARD1
  0
TEXT
  8
0
  6
CONTINUOUS
 62
3
 10
-482.761474609375000
 20
99.770721435546875
 40
12.355199813842773
  1
ＳＣＡＬＥ１／１
 50
0.000002504478167
 41
0.984848607647724
  7
STANDARD1
  0
ARC
  8
0
  6
CONTINUOUS
 62
3
 10
251.489431900070370
 20
150.615958844039140
 40
0.399999999999636
 50
270.000000000000000
 51
0.000000000000000
  0
LINE
  8
0
  6
CONTINUOUS
 62
3
 10
251.889431900070460
 20
170.215958844039510
 11
251.889431900070460
 21
147.215958844039510
  0
LINE
  8
0
  6
CONTINUOUS
 62
3
 10
251.889431900070460
 20
170.215958844039510
 11
251.889431900070460
 21
189.815958844038960
  0
ARC
  8
0
  6
CONTINUOUS
 62
3
 10
251.489431900070370
 20
189.815958844038960
 40
0.400000000000091
 50
0.000000000000000
 51
90.000000000000000
  0
LINE
  8
0
  6
CONTINUOUS
 62
3
 10
303.374625483164440
 20
-153.125906381662390
 11
368.062282742171650
 21
-153.125906381662390
  0
LINE
  8
0
  6
CONTINUOUS
 62
3
 10
303.374625483164440
 20
-159.625906381662390
 11
368.062282742171650
 21
-159.625906381662390
  0
ARC
  8
0
  6
CONTINUOUS
 62
3
 10
368.062282742171650
 20
-162.625906381662390
 40
3.000000000000179
 50
6.407967039624588
 51
90.000000000000000
  0
ARC
  8
0
  6
CONTINUOUS
 62
3
 10
368.062282742171650
 20
-150.125906381662390
 40
3.000000000000000
 50
270.000000000000000
 51
353.592032960371110
  0
ARC
  8
0
  6
CONTINUOUS
 62
3
 10
385.436352540757070
 20
-231.148506962480950
 40
50.500000000000078
 50
111.298869871463080
 51
165.196482760921950
  0
ARC
  8
0
  6
CONTINUOUS
 62
3
 10
365.678631746781090
 20
-180.892835948880020
 40
9.999999999999874
 50
291.461978362654920
 51
22.902088473504499
  0
ARC
  8
0
  6
CONTINUOUS
 62
3
 10
363.460764916573000
 20
-174.780754225904500
 40
10.000000000000039
 50
291.298869871463920
 51
16.986140903216128
  0
ARC
  8
0
  6
CONTINUOUS
 62
3
 10
385.436352540757070
 20
-231.148506962480950
 40
44.000000000000121
 50
111.461978362654540
 51
171.603097720444280
  0
ARC
  8
0
  6
CONTINUOUS
 62
3
 10
285.944510469036690
 20
-148.375906381662390
 40
3.000000000000000
 50
270.000000000000000
 51
356.676642326013850
  0
CIRCLE
  8
0
  6
CONTINUOUS
 62
3
 10
423.712431263392770
 20
-156.375906381662390
 40
3.324999999999989
  0
CIRCLE
  8
0
  6
CONTINUOUS
 62
4
 10
423.712431263392770
 20
-156.375906381662390
 40
4.000000000000000
  0
LINE
  8
0
  6
CONTINUOUS
 62
3
 10
400.712431263392770
 20
-150.375906381662390
 11
400.712431263392720
 21
-162.375906381662390
  0
ARC
  8
0
  6
CONTINUOUS
 62
3
 10
423.712431263392770
 20
-156.375906381662390
 40
31.000000000000256
 50
70.008590721901967
 51
180.000000000000000
  0
CIRCLE
  8
0
  6
CONTINUOUS
 62
3
 10
423.712431263392770
 20
-156.375906381662390
 40
31.000000000000057
  0
LINE
  8
0
  6
CONTINUOUS
 62
3
 10
408.712431263392770
 20
-150.375906381662390
 11
408.712431263392720
 21
-162.375906381662390
  0
ARC
  8
0
  6
CONTINUOUS
 62
3
 10
423.712431263392770
 20
-156.375906381662390
 40
20.000000000000014
 50
197.457603123722070
 51
162.542396876277930
  0
LINE
  8
0
  6
CONTINUOUS
 62
3
 10
426.962431263392770
 20
-36.038100601434053
 11
426.962431263392770
 21
-100.725757860441490
  0
LINE
  8
0
  6
CONTINUOUS
 62
3
 10
420.462431263392770
 20
-36.038100601434053
 11
420.462431263392770
 21
-100.725757860441490
  0
LINE
  8
0
  6
DASHDOT
 62
4
 10
423.712431263392770
 20
-313.488830232460710
 11
423.712431263392770
 21
-2.686993773621907
  0
LINE
  8
0
  6
CONTINUOUS
 62
3
 10
283.712431263392770
 20
-286.375906381662390
 11
283.712431263392770
 21
-26.375906381662389
  0
LINE
  8
0
  6
CONTINUOUS
 62
3
 10
563.712431263392770
 20
-286.375906381662390
 11
563.712431263392770
 21
-26.375906381662389
  0
LINE
  8
0
  6
CONTINUOUS
 62
3
 10
309.524113047690660
 20
-164.625906381662390
 11
309.524113047690660
 21
-202.421114223810260
  0
LINE
  8
0
  6
CONTINUOUS
 62
3
 10
285.712431263392770
 20
-151.375906381662390
 11
285.944510469036690
 21
-151.375906381662390
  0
LINE
  8
0
  6
CONTINUOUS
 62
3
 10
285.712431263392770
 20
-161.375906381662390
 11
285.944510469036690
 21
-161.375906381662390
  0
LINE
  8
0
  6
CONTINUOUS
 62
3
 10
561.712431263392770
 20
-161.375906381662620
 11
561.480352057748630
 21
-161.375906381662620
  0
LINE
  8
0
  6
CONTINUOUS
 62
3
 10
561.712431263392770
 20
-151.375906381662390
 11
561.480352057748630
 21
-151.375906381662390
  0
ARC
  8
0
  6
CONTINUOUS
 62
3
 10
315.099807473155120
 20
-148.125906381662390
 40
5.000000000000173
 50
172.942004709554080
 51
270.000000000000000
  0
ARC
  8
0
  6
CONTINUOUS
 62
3
 10
303.374625483164440
 20
-150.125906381662390
 40
3.000000000000144
 50
177.026893139963730
 51
270.000000000000000
  0
ARC
  8
0
  6
CONTINUOUS
 62
3
 10
417.462431263392770
 20
-100.725757860441490
 40
2.999999999999952
 50
276.407967039625080
 51
0.000000000000000
  0
ARC
  8
0
  6
CONTINUOUS
 62
3
 10
303.374625483164440
 20
-162.625906381662390
 40
3.000000000000000
 50
90.000000000000000
 51
182.973106860036270
  0
ARC
  8
0
  6
CONTINUOUS
 62
3
 10
314.524113047690660
 20
-164.625906381662390
 40
5.000000000000000
 50
90.000000000000000
 51
180.000000000000000
  0
ARC
  8
0
  6
CONTINUOUS
 62
3
 10
429.962431263392770
 20
-100.725757860441490
 40
3.000000000000000
 50
180.000000000000000
 51
263.592032960370600
  0
ARC
  8
0
  6
CONTINUOUS
 62
3
 10
314.524113047690890
 20
-202.421114223810260
 40
5.000000000000227
 50
180.000000000000000
 51
202.865372927123560
  0
ARC
  8
0
  6
CONTINUOUS
 62
3
 10
472.480559022967550
 20
-196.259128876390150
 40
10.000000000000023
 50
140.723243944674460
 51
242.705659254349090
  0
ARC
  8
0
  6
CONTINUOUS
 62
3
 10
502.742912197447370
 20
-237.840211959824050
 40
10.000000000000245
 50
177.185211996777720
 51
314.131204225173580
  0
ARC
  8
0
  6
CONTINUOUS
 62
3
 10
302.187214589107500
 20
-235.474716184769930
 40
10.000000000000401
 50
315.000000000003640
 51
33.059456039395712
  0
ARC
  8
0
  6
CONTINUOUS
 62
3
 10
452.303840650453820
 20
-235.360280211309600
 40
34.000000000000107
 50
348.145311946518920
 51
62.705659254348859
  0
ARC
  8
0
  6
CONTINUOUS
 62
3
 10
545.237647937689870
 20
-235.474716184751290
 40
10.000000000000053
 50
146.940543960613670
 51
225.000000000003690
  0
ARC
  8
0
  6
CONTINUOUS
 62
3
 10
532.900749479094430
 20
-202.421114223810260
 40
5.000000000000118
 50
337.134627072876410
 51
0.000000000000000
  0
ARC
  8
0
  6
CONTINUOUS
 62
3
 10
423.712431263392770
 20
-156.375906381662390
 40
134.999999999999740
 50
146.940543960613410
 51
176.676642326013510
  0
ARC
  8
0
  6
CONTINUOUS
 62
3
 10
332.015220144648080
 20
-223.262911644600760
 40
10.000000000000107
 50
216.108259096316600
 51
351.603097720444510
  0
ARC
  8
0
  6
CONTINUOUS
 62
3
 10
423.712431263392770
 20
-156.375906381662390
 40
31.000000000000000
 50
180.000000000000000
 51
0.000000000000000
  0
ARC
  8
0
  6
CONTINUOUS
 62
3
 10
423.712431263392770
 20
-156.375906381662390
 40
31.000000000000000
 50
0.000000000000000
 51
180.000000000000000
  0
ARC
  8
0
  6
CONTINUOUS
 62
3
 10
391.712431263392770
 20
-157.611480651271900
 40
82.197605165243203
 50
94.422377585978424
 51
172.942004709553000
  0
ARC
  8
0
  6
CONTINUOUS
 62
3
 10
423.712431263392770
 20
-156.375906381662390
 40
41.000000000000000
 50
0.000000000000000
 51
180.000000000000000
  0
ARC
  8
0
  6
CONTINUOUS
 62
3
 10
423.712431263392770
 20
-156.375906381662390
 40
41.000000000000000
 50
180.000000000000000
 51
0.000000000000000
  0
ARC
  8
0
  6
CONTINUOUS
 62
3
 10
326.944486350068470
 20
-215.690447914509380
 40
10.000000000000037
 50
211.506485838553940
 51
345.196482760921980
  0
ARC
  8
0
  6
CONTINUOUS
 62
3
 10
285.712431263392770
 20
-153.375906381662390
 40
2.000000000000000
 50
90.000000000000000
 51
180.000000000000000
  0
ARC
  8
0
  6
CONTINUOUS
 62
3
 10
285.944510469036690
 20
-164.375906381662620
 40
3.000000000000096
 50
3.323357673986185
 51
90.000000000000000
  0
ARC
  8
0
  6
CONTINUOUS
 62
3
 10
285.712431263392770
 20
-159.375906381662390
 40
2.000000000000000
 50
180.000000000000000
 51
270.000000000000000
  0
ARC
  8
0
  6
CONTINUOUS
 62
3
 10
561.480352057748630
 20
-164.375906381662620
 40
3.000000000000000
 50
90.000000000000000
 51
176.676642326013820
  0
ARC
  8
0
  6
CONTINUOUS
 62
3
 10
561.712431263392770
 20
-159.375906381662620
 40
2.000000000000000
 50
270.000000000000000
 51
0.000000000000000
  0
ARC
  8
0
  6
CONTINUOUS
 62
3
 10
561.480352057748630
 20
-148.375906381662390
 40
3.000000000000096
 50
183.323357673986180
 51
270.000000000000000
  0
ARC
  8
0
  6
CONTINUOUS
 62
3
 10
561.712431263392770
 20
-153.375906381662390
 40
2.000000000000000
 50
0.000000000000000
 51
90.000000000000000
  0
ARC
  8
0
  6
CONTINUOUS
 62
3
 10
423.712431263392770
 20
-156.375906381662390
 40
134.999999999999830
 50
183.323357673986610
 51
213.059456039395680
  0
LINE
  8
0
  6
DASHDOT
 62
4
 10
380.151853819238110
 20
-157.875906381662390
 11
467.748409342445030
 21
-157.875906381662390
  0
ARC
  8
0
  6
CONTINUOUS
 62
3
 10
423.712431263392770
 20
-156.375906381662390
 40
135.000000000000030
 50
3.323357673986484
 51
33.059456039395677
  0
ARC
  8
0
  6
CONTINUOUS
 62
3
 10
423.712431263392770
 20
-156.375906381662390
 40
135.000000000000260
 50
326.940543960613130
 51
356.676642326013450
  0
ARC
  8
0
  6
CONTINUOUS
 62
3
 10
455.712431263392550
 20
-157.611480651271900
 40
82.197605165243033
 50
7.057995290447003
 51
85.577622414021747
  0
ARC
  8
0
  6
CONTINUOUS
 62
3
 10
532.325055053630420
 20
-148.125906381662620
 40
5.000000000000000
 50
270.000000000000000
 51
7.057995290449153
  0
ARC
  8
0
  6
CONTINUOUS
 62
3
 10
476.369141069669470
 20
-190.963080798138440
 40
9.999999999999941
 50
146.701382572444940
 51
241.540294027493160
  0
CIRCLE
  8
0
  6
CONTINUOUS
 62
3
 10
423.712431263392770
 20
-156.375906381662390
 40
123.500000000000000
  0
ARC
  8
0
  6
CONTINUOUS
 62
3
 10
452.303840650453820
 20
-235.360280211309600
 40
40.499999999999986
 50
357.185211996778430
 51
61.540294027493751
  0
ARC
  8
0
  6
CONTINUOUS
 62
3
 10
532.900749479094430
 20
-164.625906381662620
 40
5.000000000000000
 50
0.000000000000000
 51
90.000000000000000
  0
ARC
  8
0
  6
CONTINUOUS
 62
3
 10
544.050237043620880
 20
-150.125906381662390
 40
3.000000000000000
 50
270.000000000000000
 51
2.973106860036494
  0
ARC
  8
0
  6
CONTINUOUS
 62
3
 10
544.050237043620880
 20
-162.625906381662390
 40
2.999999999999917
 50
357.026893139963530
 51
90.000000000000000
  0
ARC
  8
0
  6
CONTINUOUS
 62
3
 10
479.362579784613670
 20
-162.625906381662620
 40
3.000000000000227
 50
90.000000000000000
 51
173.592032960374920
  0
ARC
  8
0
  6
CONTINUOUS
 62
3
 10
479.362579784613670
 20
-150.125906381662390
 40
2.999999999999978
 50
186.407967039629400
 51
270.000000000000000
  0
LINE
  8
0
  6
CONTINUOUS
 62
3
 10
537.900749479094430
 20
-164.625906381662620
 11
537.900749479094430
 21
-202.421114223810260
  0
LINE
  8
0
  6
CONTINUOUS
 62
3
 10
544.050237043620880
 20
-153.125906381662390
 11
479.362579784613670
 21
-153.125906381662390
  0
LINE
  8
0
  6
CONTINUOUS
 62
3
 10
544.050237043620880
 20
-159.625906381662390
 11
479.362579784613670
 21
-159.625906381662390
  0
CIRCLE
  8
0
  6
CONTINUOUS
 62
3
 10
423.712431263392770
 20
-156.375906381662390
 40
130.000000000000000
  0
CIRCLE
  8
0
  6
CONTINUOUS
 62
3
 10
423.712431263392770
 20
-156.375906381662390
 40
53.000013664587186
  0
LINE
  8
0
  6
DASHDOT
 62
4
 10
268.737687159819420
 20
-156.375906381662390
 11
581.194617584398660
 21
-156.375906381662390
  0
ARC
  8
0
  6
DASHED
 62
3
 10
630.712431263393000
 20
-157.875906381662390
 40
300.000000000000170
 50
175.138594604201960
 51
180.000000000000000
  0
LINE
  8
0
  6
DASHED
 62
3
 10
336.773662129411600
 20
-127.875906381662380
 11
360.212431263393000
 21
-127.875906381662380
  0
ARC
  8
0
  6
DASHED
 62
3
 10
336.773662129411600
 20
-132.875906381662390
 40
5.000000000000000
 50
90.000000000000000
 51
175.138594604201610
  0
LINE
  8
0
  6
DASHED
 62
3
 10
360.212431263393000
 20
-189.375906381662390
 11
360.212431263393000
 21
-126.375906381662380
  0
LINE
  8
0
  6
DASHED
 62
3
 10
365.212431263393000
 20
-126.375906381662380
 11
360.212431263393000
 21
-126.375906381662380
  0
ARC
  8
0
  6
DASHED
 62
3
 10
363.912431263393050
 20
-137.575906381662430
 40
0.200000000000045
 50
90.000000000000000
 51
180.000000000000000
  0
LINE
  8
0
  6
DASHED
 62
3
 10
363.712431263393000
 20
-157.875906381662390
 11
363.712431263393000
 21
-137.575906381662430
  0
LINE
  8
0
  6
DASHED
 62
3
 10
365.212431263393000
 20
-137.375906381662390
 11
363.912431263393050
 21
-137.375906381662390
  0
LINE
  8
0
  6
DASHED
 62
3
 10
365.212431263393000
 20
-137.375906381662390
 11
365.212431263393000
 21
-126.375906381662380
  0
ARC
  8
0
  6
DASHED
 62
3
 10
336.773662129411600
 20
-182.875906381662390
 40
5.000000000000119
 50
184.861405395798390
 51
270.000000000000000
  0
LINE
  8
0
  6
DASHED
 62
3
 10
336.773662129411600
 20
-187.875906381662390
 11
360.212431263393000
 21
-187.875906381662390
  0
ARC
  8
0
  6
DASHED
 62
3
 10
630.712431263393000
 20
-157.875906381662390
 40
300.000000000000000
 50
180.000000000000000
 51
184.861405395798040
  0
LINE
  8
0
  6
DASHED
 62
3
 10
330.212431263393000
 20
-160.375906381662390
 11
330.212431263393000
 21
-155.375906381662390
  0
LINE
  8
0
  6
DASHED
 62
3
 10
330.212431263393000
 20
-155.375906381662390
 11
330.722848110910720
 21
-155.375906381662390
  0
LINE
  8
0
  6
DASHED
 62
3
 10
330.212431263393000
 20
-160.375906381662390
 11
330.722848110910720
 21
-160.375906381662390
  0
LINE
  8
0
  6
DASHED
 62
3
 10
365.212431263393000
 20
-178.375906381662390
 11
365.212431263393000
 21
-189.375906381662390
  0
ARC
  8
0
  6
DASHED
 62
3
 10
363.912431263393050
 20
-178.175906381662340
 40
0.200000000000045
 50
180.000000000000000
 51
270.000000000000000
  0
LINE
  8
0
  6
DASHED
 62
3
 10
363.712431263393000
 20
-157.875906381662390
 11
363.712431263393000
 21
-178.175906381662340
  0
LINE
  8
0
  6
DASHED
 62
3
 10
365.212431263393000
 20
-178.375906381662390
 11
363.912431263393050
 21
-178.375906381662390
  0
LINE
  8
0
  6
DASHED
 62
3
 10
365.212431263393000
 20
-189.375906381662390
 11
360.212431263393000
 21
-189.375906381662390
  0
LINE
  8
0
  6
DASHED
 62
3
 10
504.715300883973730
 20
-101.995786308882200
 11
509.808937812250630
 21
-203.868524874422970
  0
ARC
  8
0
  6
DASHED
 62
3
 10
507.012431263392780
 20
-131.918406381662410
 40
18.799999999999780
 50
5.724810452223634
 51
35.808626813495849
  0
ARC
  8
0
  6
DASHED
 62
3
 10
507.012431263392780
 20
-131.918406381662410
 40
18.799999999999887
 50
35.808626813495849
 51
85.126025186157264
  0
LINE
  8
0
  6
DASHED
 62
3
 10
529.708690615013670
 20
-169.843593414081400
 11
525.718665677357650
 21
-130.043094660964130
  0
LINE
  8
0
  6
DASHED
 62
3
 10
505.514302755076020
 20
-101.955836215327160
 11
510.607939683352920
 21
-203.828574780867260
  0
ARC
  8
0
  6
DASHED
 62
3
 10
507.012431263392780
 20
-131.918406381662410
 40
18.799999999999983
 50
100.598785266066050
 51
180.000000000000000
  0
LINE
  8
0
  6
DASHED
 62
3
 10
506.313304626178310
 20
-101.915886121772010
 11
511.406941554455220
 21
-203.788624687311990
  0
LINE
  8
0
  6
DASHED
 62
3
 10
488.212431263392830
 20
-173.731075827573480
 11
488.212431263392830
 21
-131.918406381662410
  0
ARC
  8
0
  6
DASHED
 62
3
 10
507.430933728028830
 20
-104.663501718016840
 40
1.299999237060645
 50
19.463936333587132
 51
92.862405909348169
  0
ARC
  8
0
  6
DASHED
 62
3
 10
507.650659318780810
 20
-109.058013533054570
 40
1.299999237060550
 50
272.862387240019760
 51
346.260856815788600
  0
LINE
  8
0
  6
DASHED
 62
3
 10
506.388211051593600
 20
-103.414014630088670
 11
507.366014864101150
 21
-103.365124439463330
  0
LINE
  8
0
  6
DASHED
 62
3
 10
506.737774370200730
 20
-110.405281002233550
 11
507.715578182708500
 21
-110.356390811608200
  0
LINE
  8
0
  6
DASHED
 62
3
 10
506.388211051593600
 20
-103.414014630088670
 11
506.737774370200730
 21
-110.405281002233550
  0
LINE
  8
0
  6
DASHED
 62
3
 10
506.388211051593600
 20
-103.414014630088670
 11
506.737774370200730
 21
-110.405281002233550
  0
ARC
  8
0
  6
DASHED
 62
3
 10
500.170978123072760
 20
-107.229248545552300
 40
8.999999999999948
 50
346.260856815786500
 51
19.463936333592187
  0
ARC
  8
0
  6
DASHED
 62
3
 10
508.779689727021660
 20
-111.193619349638880
 40
1.999999999999927
 50
182.862405226112710
 51
265.126025186159040
  0
ARC
  8
0
  6
DASHED
 62
3
 10
503.186676629305850
 20
-111.473270004524690
 40
1.999999999999958
 50
280.598785266065990
 51
2.862405226112724
  0
LINE
  8
0
  6
DASHED
 62
3
 10
506.313304626178310
 20
-101.915886121772010
 11
504.715300883973730
 21
-101.995786308882200
  0
LINE
  8
0
  6
DASHED
 62
3
 10
509.808937812250630
 20
-203.868524874422970
 11
511.406941554455220
 21
-203.788624687311990
  0
INSERT
  8
0
  2
SYM26
 10
511.157253469736130
 20
-198.794862992922840
 41
-1.000000000000000
 42
1.000000000000000
 43
1.000000000000000
 50
2.862405226113666
  0
ARC
  8
0
  6
DASHED
 62
3
 10
512.938897094725010
 20
-194.377766703705900
 40
1.999999999999995
 50
99.916536608232732
 51
182.862405226112400
  0
ARC
  8
0
  6
DASHED
 62
3
 10
507.345883997009200
 20
-194.657417358591720
 40
1.999999999999927
 50
2.862405226112724
 51
85.808273843998350
  0
ARC
  8
0
  6
DASHED
 62
3
 10
509.012431263392780
 20
-171.918406381662410
 40
20.799999999999876
 50
334.359929784105080
 51
5.724810452223412
  0
ARC
  8
0
  6
DASHED
 62
3
 10
509.012431263392780
 20
-171.918406381662410
 40
20.800000000000029
 50
279.916536608230390
 51
334.359929784105080
  0
ARC
  8
0
  6
DASHED
 62
3
 10
509.012431263392780
 20
-171.918406381662410
 40
20.799999999999876
 50
334.359929784105080
 51
5.724810452223412
  0
ARC
  8
0
  6
DASHED
 62
3
 10
509.012431263392780
 20
-171.918406381662410
 40
20.799999999999901
 50
185.047316781012600
 51
265.808273843992370
  0
ARC
  8
0
  6
CONTINUOUS
 62
3
 10
251.489431900070490
 20
-175.975920046249940
 40
0.399999999999636
 50
270.000000000000000
 51
0.000000000000000
  0
LINE
  8
0
  6
CONTINUOUS
 62
3
 10
251.889431900070580
 20
-156.375920046249580
 11
251.889431900070580
 21
-175.975920046249940
  0
ARC
  8
0
  6
CONTINUOUS
 62
3
 10
251.489431900070490
 20
-136.775920046250120
 40
0.400000000000091
 50
0.000000000000000
 51
90.000000000000000
  0
LINE
  8
0
  6
CONTINUOUS
 62
3
 10
251.889431900070580
 20
-156.375920046249580
 11
251.889431900070580
 21
-136.775920046250120
  0
ARC
  8
0
  6
DASHDOT
 62
4
 10
423.712431263392320
 20
-156.375906381662390
 40
169.999999999999910
 50
219.385140374273080
 51
230.518027218992360
  0
ARC
  8
0
  6
DASHDOT
 62
4
 10
423.712431263392770
 20
-156.375906381662390
 40
169.999999999999910
 50
39.470956708202117
 51
50.764203165602218
  0
LINE
  8
0
  6
DASHDOT
 62
4
 10
316.592858795439380
 20
-49.256333913725513
 11
289.675735102365710
 21
-22.339210220656014
  0
LINE
  8
0
  6
DASHDOT
 62
4
 10
530.461766673378410
 20
-49.626570971693141
 11
557.749127424419840
 21
-22.339210220656014
  0
LINE
  8
0
  6
DASHDOT
 62
4
 10
316.831534288886470
 20
-263.256803356185510
 11
289.793213954950260
 21
-290.295123690126160
  0
LINE
  8
0
  6
DASHDOT
 62
4
 10
531.943874398236630
 20
-264.607349516489590
 11
557.749127424419840
 21
-290.412602542668760
  0
ARC
  8
0
  6
CONTINUOUS
 62
3
 10
537.499227827776850
 20
-21.375906381662389
 40
5.000000000000000
 50
90.000000000000000
 51
135.000000000003670
  0
ARC
  8
0
  6
CONTINUOUS
 62
3
 10
558.712431263392770
 20
-42.589109817239660
 40
4.999999999999879
 50
315.000000000003640
 51
0.000000000000000
  0
ARC
  8
0
  6
CONTINUOUS
 62
3
 10
558.712431263392770
 20
-270.162702946046690
 40
5.000000000000000
 50
0.000000000000000
 51
45.000000000003688
  0
ARC
  8
0
  6
CONTINUOUS
 62
3
 10
537.499227827815500
 20
-291.375906381662390
 40
5.000000000000041
 50
225.000000000005540
 51
270.000000000000000
  0
ARC
  8
0
  6
CONTINUOUS
 62
3
 10
309.925634699008470
 20
-291.375906381662390
 40
5.000000000000000
 50
270.000000000000000
 51
315.000000000003640
  0
ARC
  8
0
  6
CONTINUOUS
 62
3
 10
288.712431263392770
 20
-270.162702946085570
 40
5.000000000000041
 50
135.000000000005510
 51
180.000000000000000
  0
ARC
  8
0
  6
CONTINUOUS
 62
3
 10
288.712431263392770
 20
-42.589109817278313
 40
5.000000000000000
 50
180.000000000000000
 51
225.000000000003690
  0
ARC
  8
0
  6
CONTINUOUS
 62
3
 10
356.712431263392550
 20
-291.375906381662390
 40
12.920504033734950
 50
202.766828500557860
 51
238.359897358094540
  0
ARC
  8
0
  6
CONTINUOUS
 62
3
 10
356.712431263392550
 20
-291.375906381662390
 40
12.920504033735121
 50
301.640102641905460
 51
308.669817960896750
  0
ARC
  8
0
  6
CONTINUOUS
 62
3
 10
309.925634698969590
 20
-21.375906381662389
 40
4.999999999999879
 50
45.000000000003688
 51
90.000000000000000
  0
ARC
  8
0
  6
CONTINUOUS
 62
3
 10
558.712431263392770
 20
-42.589109817239660
 40
4.999999999999879
 50
315.000000000003640
 51
0.000000000000000
  0
ARC
  8
0
  6
CONTINUOUS
 62
3
 10
537.499227827776850
 20
-21.375906381662389
 40
5.000000000000000
 50
90.000000000000000
 51
135.000000000003670
  0
ARC
  8
0
  6
CONTINUOUS
 62
3
 10
423.712431263392770
 20
-571.375906381662390
 40
497.197605165242980
 50
90.960411656887317
 51
94.422377585978097
  0
ARC
  8
0
  6
CONTINUOUS
 62
3
 10
545.237647937677590
 20
-77.277096578554847
 40
10.000000000000082
 50
135.000000000005510
 51
213.059456039395710
  0
ARC
  8
0
  6
CONTINUOUS
 62
3
 10
502.811241066481220
 20
-34.850689707365291
 40
10.000000000000053
 50
236.940543960613670
 51
315.000000000003640
  0
CIRCLE
  8
0
  6
CONTINUOUS
 62
3
 10
543.920584065096590
 20
-36.167753579939927
 40
9.500000000000000
  0
ARC
  8
0
  6
CONTINUOUS
 62
3
 10
553.712431263392770
 20
-26.375906381662389
 40
10.000000000000000
 50
0.000000000000000
 51
90.000000000000000
  0
ARC
  8
0
  6
CONTINUOUS
 62
3
 10
423.712431263392550
 20
-571.375906381662390
 40
497.197605165242980
 50
85.577622414021931
 51
89.039588343112683
  0
ARC
  8
0
  6
CONTINUOUS
 62
3
 10
431.962431263392770
 20
-79.247447511012979
 40
4.999999999999934
 50
89.039588343113039
 51
180.000000000000000
  0
ARC
  8
0
  6
CONTINUOUS
 62
3
 10
423.712431263392770
 20
-156.375906381662390
 40
135.000000000000000
 50
56.940543960613276
 51
123.059456039395760
  0
ARC
  8
0
  6
DASHDOT
 62
4
 10
423.712431263392770
 20
-156.375906381662390
 40
169.999999999999910
 50
129.221126534335350
 51
140.544537862046920
  0
ARC
  8
0
  6
CONTINUOUS
 62
3
 10
302.187214589095220
 20
-77.277096578573946
 40
10.000000000000053
 50
326.940543960613700
 51
45.000000000001855
  0
ARC
  8
0
  6
CONTINUOUS
 62
3
 10
344.613621460285230
 20
-34.850689707377569
 40
10.000000000000401
 50
225.000000000003690
 51
303.059456039395680
  0
CIRCLE
  8
0
  6
CONTINUOUS
 62
3
 10
303.504278461670310
 20
-36.167753579959026
 40
9.500000000000000
  0
ARC
  8
0
  6
CONTINUOUS
 62
3
 10
293.712431263392770
 20
-26.375906381662389
 40
10.000000000000000
 50
90.000000000000000
 51
180.000000000000000
  0
ARC
  8
0
  6
DASHDOT
 62
4
 10
423.712431263392320
 20
-156.375906381662840
 40
169.999999999999910
 50
309.022036604029950
 51
320.510120061771720
  0
CIRCLE
  8
0
  6
CONTINUOUS
 62
3
 10
543.920584065115690
 20
-276.584059183366210
 40
9.500000000000000
  0
ARC
  8
0
  6
CONTINUOUS
 62
3
 10
553.712431263392770
 20
-286.375906381662390
 40
10.000000000000000
 50
270.000000000000000
 51
0.000000000000000
  0
ARC
  8
0
  6
CONTINUOUS
 62
3
 10
502.811241066499860
 20
-277.901123055947660
 40
10.000000000000401
 50
45.000000000003688
 51
123.059456039393490
  0
ARC
  8
0
  6
CONTINUOUS
 62
3
 10
423.712431263392770
 20
-156.375906381662390
 40
135.000000000000000
 50
236.940543960613270
 51
303.059456039395570
  0
ARC
  8
0
  6
CONTINUOUS
 62
3
 10
490.712431263392770
 20
-291.375906381662390
 40
12.920504033735355
 50
231.330182039103220
 51
238.359897358093660
  0
ARC
  8
0
  6
CONTINUOUS
 62
3
 10
490.712431263392770
 20
-291.375906381662390
 40
12.920504033735240
 50
301.640102641906310
 51
337.233171499442110
  0
ARC
  8
0
  6
CONTINUOUS
 62
3
 10
344.613621460303880
 20
-277.901123055959940
 40
10.000000000000053
 50
56.940543960613702
 51
135.000000000001820
  0
CIRCLE
  8
0
  6
CONTINUOUS
 62
3
 10
303.504278461689410
 20
-276.584059183385310
 40
9.500000000000000
  0
ARC
  8
0
  6
CONTINUOUS
 62
3
 10
293.712431263392770
 20
-286.375906381662390
 40
10.000000000000000
 50
180.000000000000000
 51
270.000000000000000
  0
ARC
  8
0
  6
CONTINUOUS
 62
3
 10
495.365397833284530
 20
-244.399212282622560
 40
10.000000000000044
 50
168.145311946518550
 51
309.146370585137730
  0
ARC
  8
0
  6
CONTINUOUS
 62
3
 10
415.462431263392770
 20
-79.247447511012979
 40
5.000000000000000
 50
0.000000000000000
 51
90.960411656889562
  0
ARC
  8
0
  6
CONTINUOUS
 62
3
 10
417.462431263392770
 20
-36.038100601434053
 40
3.000000000000000
 50
0.000000000000000
 51
92.973106860036722
  0
ARC
  8
0
  6
CONTINUOUS
 62
3
 10
429.962431263392770
 20
-36.038100601434053
 40
2.999999999999690
 50
87.026893139963278
 51
180.000000000000000
  0
LINE
  8
0
  6
CONTINUOUS
 62
3
 10
423.712431263392770
 20
-301.463714741843890
 11
364.785568632100190
 21
-301.463714741843890
  0
LINE
  8
0
  6
CONTINUOUS
 62
3
 10
538.166580125811380
 20
-70.206028766689997
 11
562.247965169325650
 21
-46.124643723172085
  0
LINE
  8
0
  6
CONTINUOUS
 62
3
 10
509.882308878347430
 20
-41.921757519230596
 11
533.963693921843970
 21
-17.840372475729964
  0
LINE
  8
0
  6
CONTINUOUS
 62
3
 10
293.712431263392770
 20
-16.375906381662389
 11
553.712431263392770
 21
-16.375906381662389
  0
LINE
  8
0
  6
CONTINUOUS
 62
3
 10
309.258282400960520
 20
-70.206028766708187
 11
285.176897357460120
 21
-46.124643723211193
  0
LINE
  8
0
  6
CONTINUOUS
 62
3
 10
337.542553648419930
 20
-41.921757519243783
 11
313.461168604902240
 21
-17.840372475729509
  0
LINE
  8
0
  6
CONTINUOUS
 62
3
 10
538.166580125825020
 20
-242.545783996617050
 11
562.247965169324970
 21
-266.627169040113810
  0
LINE
  8
0
  6
CONTINUOUS
 62
3
 10
423.712431263392770
 20
-296.375906381662390
 11
553.712431263392770
 21
-296.375906381662390
  0
LINE
  8
0
  6
CONTINUOUS
 62
3
 10
509.882308878365170
 20
-270.830055244081450
 11
533.963693921883080
 21
-294.911440287595720
  0
LINE
  8
0
  6
CONTINUOUS
 62
3
 10
423.712431263392550
 20
-301.463714741843890
 11
482.639293894685120
 21
-301.463714741843890
  0
LINE
  8
0
  6
CONTINUOUS
 62
3
 10
293.712431263392770
 20
-296.375906381662390
 11
423.712431263392770
 21
-296.375906381662390
  0
LINE
  8
0
  6
CONTINUOUS
 62
3
 10
337.542553648438120
 20
-270.830055244094640
 11
313.461168604941580
 21
-294.911440287595040
  0
LINE
  8
0
  6
CONTINUOUS
 62
3
 10
309.258282400973710
 20
-242.545783996635240
 11
285.176897357459440
 21
-266.627169040152920
  0
ENDSEC
  0
EOF
