  0
SECTION
  2
HEADER
  9
$FILLMODE
 70
1
  9
$TEXTSTYLE
  7
STANDARD1
  9
$ACADVER
  1
AC1009
  9
$DIMASZ
 40
1.931851648807023
  9
$DIMEXE
 40
2.000000000000000
  9
$DIMEXO
 40
1.000000000000000
  9
$DIMLFAC
 40
1.000000000000000
  9
$DIMSCALE
 40
1.000000000000000
  9
$DIMTAD
 70
1
  9
$DIMTFAC
 40
0.714285731315613
  9
$DIMTXT
 40
2.799999952316284
  9
$LUPREC
 70
3
  9
$TEXTSIZE
 40
3.299999952316284
  9
$REGENMODE
 70
1
  0
ENDSEC
  0
SECTION
  2
TABLES
  0
TABLE
  2
LTYPE
 70
4
  0
LTYPE
  2
CONTINUOUS
 70
64
  3
Solid line
 72
65
 73
0
 40
0.0
  0
LTYPE
  2
DASHED
 70
64
  3
-- -- -- -- -- -- -- -- -- -- -- -- -- -- --
 72
65
 73
2
 40
0.75
 49
0.5
 49
-0.25
  0
LTYPE
  2
DASHDOT
 70
64
  3
__ . __ . __ . __ . __ . __ . __ . __ . __ . __
 72
65
 73
4
 40
1.0
 49
0.5
 49
-0.25
 49
0.0
 49
-0.25
  0
LTYPE
  2
DIVIDE
 70
64
  3
__ . . __ . . __ . . __ . . __ . . __ . . __
 72
65
 73
6
 40
1.25
 49
0.5
 49
-0.25
 49
0.0
 49
-0.25
 49
0.0
 49
-0.25
  0
ENDTAB
  0
TABLE
  2
LAYER
 70
1
  0
LAYER
  2
0
 70
64
 62
2
  6
CONTINUOUS
  0
ENDTAB
  0
TABLE
  2
STYLE
 70
4
  0
STYLE
  2
STANDARD1
 70
64
 40
0.0
 41
1.0
 50
0.0
 71
0
 42
3.299999952316284
  3
MONOTXT
  4
BIGFONT
  0
STYLE
  2
STANDARD2
 70
68
 40
0.0
 41
1.0
 50
0.0
 71
0
 42
3.299999952316284
  3
MONOTXT
  4
BIGFONT
  0
STYLE
  2
STANDARD3
 70
64
 40
0.0
 41
1.0
 50
0.0
 71
0
 42
3.299999952316284
  3
MONOTXT
  4

  0
STYLE
  2
STANDARD4
 70
68
 40
0.0
 41
1.0
 50
0.0
 71
0
 42
3.299999952316284
  3
MONOTXT
  4

  0
ENDTAB
  0
TABLE
  2
VIEW
 70
0
  0
ENDTAB
  0
ENDSEC
  0
SECTION
  2
BLOCKS
  0
BLOCK
  8
0
  2
SYM1
 70
64
 10
0.000000000000000
 20
0.000000000000000
  0
LINE
  8
0
  6
CONTINUOUS
 62
3
 10
-7.499999046325684
 20
6.500000000000000
 11
-7.499999046325684
 21
-6.500000000000000
  0
LINE
  8
0
  6
CONTINUOUS
 62
3
 10
-7.499997911632022
 20
-6.499999445138201
 11
-7.999998623386432
 21
-5.634070287011241
  0
LINE
  8
0
  6
CONTINUOUS
 62
3
 10
-7.499999203818277
 20
6.499999909101064
 11
-7.999999021366804
 21
5.633876130311293
  0
LINE
  8
0
  6
CONTINUOUS
 62
3
 10
-0.000000000000000
 20
-6.500000000000000
 11
-7.499998092651367
 21
-6.500000000000000
  0
LINE
  8
0
  6
CONTINUOUS
 62
3
 10
0.000000000000000
 20
6.500000000000000
 11
-7.499999046325684
 21
6.500000000000000
  0
LINE
  8
0
  6
CONTINUOUS
 62
3
 10
-7.999999046325684
 20
5.633875846862793
 11
-7.999999046325684
 21
-5.634070396423340
  0
LINE
  8
0
  6
CONTINUOUS
 62
3
 10
0.000000000000000
 20
-6.500000000000000
 11
-0.000000000000000
 21
6.500000000000000
  0
POINT
  8
0
  6
CONTINUOUS
 62
3
 10
0.000000000000000
 20
0.000000000000000
  0
ENDBLK
  8
0
  0
BLOCK
  8
0
  2
SYM2
 70
64
 10
0.000000000000000
 20
0.000000000000000
  0
LINE
  8
0
  6
CONTINUOUS
 62
3
 10
-7.499999046325684
 20
6.500000000000000
 11
-7.499999046325684
 21
-6.500000000000000
  0
LINE
  8
0
  6
CONTINUOUS
 62
3
 10
-7.499997911632022
 20
-6.499999445138201
 11
-7.999998623386432
 21
-5.634070287011241
  0
LINE
  8
0
  6
CONTINUOUS
 62
3
 10
-7.499999203818277
 20
6.499999909101064
 11
-7.999999021366804
 21
5.633876130311293
  0
LINE
  8
0
  6
CONTINUOUS
 62
3
 10
-0.000000000000000
 20
-6.500000000000000
 11
-7.499998092651367
 21
-6.500000000000000
  0
LINE
  8
0
  6
CONTINUOUS
 62
3
 10
0.000000000000000
 20
6.500000000000000
 11
-7.499999046325684
 21
6.500000000000000
  0
LINE
  8
0
  6
CONTINUOUS
 62
3
 10
-7.999999046325684
 20
5.633875846862793
 11
-7.999999046325684
 21
-5.634070396423340
  0
LINE
  8
0
  6
CONTINUOUS
 62
3
 10
0.000000000000000
 20
-6.500000000000000
 11
-0.000000000000000
 21
6.500000000000000
  0
POINT
  8
0
  6
CONTINUOUS
 62
3
 10
0.000000000000000
 20
0.000000000000000
  0
ENDBLK
  8
0
  0
BLOCK
  8
0
  2
SYM3
 70
64
 10
0.000000000000000
 20
0.000000000000000
  0
LINE
  8
0
  6
CONTINUOUS
 62
3
 10
-0.000000000000000
 20
-5.000000000000000
 11
-6.000000000000000
 21
-5.000000000000000
  0
LINE
  8
0
  6
CONTINUOUS
 62
3
 10
0.000000000000000
 20
5.000000000000000
 11
-6.000000000000000
 21
5.000000000000000
  0
LINE
  8
0
  6
CONTINUOUS
 62
3
 10
-6.000000000000000
 20
-5.000000000000000
 11
-6.000000000000000
 21
5.000000000000000
  0
LINE
  8
0
  6
CONTINUOUS
 62
3
 10
0.000000000000000
 20
5.000000000000000
 11
0.000000000000000
 21
-5.000000000000000
  0
POINT
  8
0
  6
CONTINUOUS
 62
3
 10
0.000000000000000
 20
0.000000000000000
  0
ENDBLK
  8
0
  0
BLOCK
  8
0
  2
SYM4
 70
64
 10
0.000000000000000
 20
0.000000000000000
  0
LINE
  8
0
  6
CONTINUOUS
 62
3
 10
-7.499999046325684
 20
6.500000000000000
 11
-7.499999046325684
 21
-6.500000000000000
  0
LINE
  8
0
  6
CONTINUOUS
 62
3
 10
-7.499997911632022
 20
-6.499999445138201
 11
-7.999998623386432
 21
-5.634070287011241
  0
LINE
  8
0
  6
CONTINUOUS
 62
3
 10
-7.499999203818277
 20
6.499999909101064
 11
-7.999999021366804
 21
5.633876130311293
  0
LINE
  8
0
  6
CONTINUOUS
 62
3
 10
-0.000000000000000
 20
-6.500000000000000
 11
-7.499998092651367
 21
-6.500000000000000
  0
LINE
  8
0
  6
CONTINUOUS
 62
3
 10
0.000000000000000
 20
6.500000000000000
 11
-7.499999046325684
 21
6.500000000000000
  0
LINE
  8
0
  6
CONTINUOUS
 62
3
 10
-7.999999046325684
 20
5.633875846862793
 11
-7.999999046325684
 21
-5.634070396423340
  0
LINE
  8
0
  6
CONTINUOUS
 62
3
 10
0.000000000000000
 20
-6.500000000000000
 11
-0.000000000000000
 21
6.500000000000000
  0
POINT
  8
0
  6
CONTINUOUS
 62
3
 10
0.000000000000000
 20
0.000000000000000
  0
ENDBLK
  8
0
  0
BLOCK
  8
0
  2
SYM5
 70
64
 10
0.000000000000000
 20
0.000000000000000
  0
LINE
  8
0
  6
CONTINUOUS
 62
3
 10
-7.499999046325684
 20
6.500000000000000
 11
-7.499999046325684
 21
-6.500000000000000
  0
LINE
  8
0
  6
CONTINUOUS
 62
3
 10
-7.499997911632022
 20
-6.499999445138201
 11
-7.999998623386432
 21
-5.634070287011241
  0
LINE
  8
0
  6
CONTINUOUS
 62
3
 10
-7.499999203818277
 20
6.499999909101064
 11
-7.999999021366804
 21
5.633876130311293
  0
LINE
  8
0
  6
CONTINUOUS
 62
3
 10
-0.000000000000000
 20
-6.500000000000000
 11
-7.499998092651367
 21
-6.500000000000000
  0
LINE
  8
0
  6
CONTINUOUS
 62
3
 10
0.000000000000000
 20
6.500000000000000
 11
-7.499999046325684
 21
6.500000000000000
  0
LINE
  8
0
  6
CONTINUOUS
 62
3
 10
-7.999999046325684
 20
5.633875846862793
 11
-7.999999046325684
 21
-5.634070396423340
  0
LINE
  8
0
  6
CONTINUOUS
 62
3
 10
0.000000000000000
 20
-6.500000000000000
 11
-0.000000000000000
 21
6.500000000000000
  0
POINT
  8
0
  6
CONTINUOUS
 62
3
 10
0.000000000000000
 20
0.000000000000000
  0
ENDBLK
  8
0
  0
BLOCK
  8
0
  2
SYM6
 70
64
 10
0.000000000000000
 20
0.000000000000000
  0
LINE
  8
0
  6
CONTINUOUS
 62
3
 10
-0.000000000000000
 20
-5.000000000000000
 11
-6.000000000000000
 21
-5.000000000000000
  0
LINE
  8
0
  6
CONTINUOUS
 62
3
 10
0.000000000000000
 20
5.000000000000000
 11
-6.000000000000000
 21
5.000000000000000
  0
LINE
  8
0
  6
CONTINUOUS
 62
3
 10
-6.000000000000000
 20
-5.000000000000000
 11
-6.000000000000000
 21
5.000000000000000
  0
LINE
  8
0
  6
CONTINUOUS
 62
3
 10
0.000000000000000
 20
5.000000000000000
 11
0.000000000000000
 21
-5.000000000000000
  0
POINT
  8
0
  6
CONTINUOUS
 62
3
 10
0.000000000000000
 20
0.000000000000000
  0
ENDBLK
  8
0
  0
BLOCK
  8
0
  2
SYM7
 70
64
 10
0.000000000000000
 20
0.000000000000000
  0
POINT
  8
0
  6
CONTINUOUS
 62
3
 10
0.000000000000000
 20
0.000000000000000
  0
LINE
  8
0
  6
CONTINUOUS
 62
3
 10
0.000000000000000
 20
-6.500000000000000
 11
-0.000000000000000
 21
6.500000000000000
  0
LINE
  8
0
  6
CONTINUOUS
 62
3
 10
-7.999999046325684
 20
5.633875846862793
 11
-7.999999046325684
 21
-5.634070396423340
  0
LINE
  8
0
  6
CONTINUOUS
 62
3
 10
0.000000000000000
 20
6.500000000000000
 11
-7.499999046325684
 21
6.500000000000000
  0
LINE
  8
0
  6
CONTINUOUS
 62
3
 10
-0.000000000000000
 20
-6.500000000000000
 11
-7.499998092651367
 21
-6.500000000000000
  0
LINE
  8
0
  6
CONTINUOUS
 62
3
 10
-7.499999203818277
 20
6.499999909101064
 11
-7.999999021366804
 21
5.633876130311293
  0
LINE
  8
0
  6
CONTINUOUS
 62
3
 10
-7.499997911632022
 20
-6.499999445138201
 11
-7.999998623386432
 21
-5.634070287011241
  0
LINE
  8
0
  6
CONTINUOUS
 62
3
 10
-7.499999046325684
 20
6.500000000000000
 11
-7.499999046325684
 21
-6.500000000000000
  0
ENDBLK
  8
0
  0
BLOCK
  8
0
  2
SYM8
 70
64
 10
0.000000000000000
 20
0.000000000000000
  0
POINT
  8
0
  6
CONTINUOUS
 62
3
 10
0.000000000000000
 20
0.000000000000000
  0
LINE
  8
0
  6
CONTINUOUS
 62
3
 10
0.010171198458579
 20
-5.767622839547471
 11
-4.979645433681753
 21
-2.874994469174567
  0
LINE
  8
0
  6
CONTINUOUS
 62
3
 10
-4.979648434603448
 20
-2.874994693650046
 11
-4.989821279270270
 21
2.892629961559101
  0
LINE
  8
0
  6
CONTINUOUS
 62
3
 10
-4.989816965891634
 20
2.892629271321994
 11
-0.010171343047148
 21
5.767622431692701
  0
LINE
  8
0
  6
CONTINUOUS
 62
3
 10
-0.010171198458579
 20
5.767622839547471
 11
4.979645433681753
 21
2.874994469174567
  0
LINE
  8
0
  6
CONTINUOUS
 62
3
 10
4.979648434603448
 20
2.874994693650046
 11
4.989821279270270
 21
-2.892629961559101
  0
LINE
  8
0
  6
CONTINUOUS
 62
3
 10
4.989816965891634
 20
-2.892629271321994
 11
0.010171343047148
 21
-5.767622431692701
  0
CIRCLE
  8
0
  6
CONTINUOUS
 62
3
 10
0.000000000000000
 20
0.000000000000000
 40
5.000000000000000
  0
ENDBLK
  8
0
  0
BLOCK
  8
0
  2
SYM9
 70
64
 10
0.000000000000000
 20
0.000000000000000
  0
POINT
  8
0
  6
CONTINUOUS
 62
3
 10
0.000000000000000
 20
0.000000000000000
  0
LINE
  8
0
  6
CONTINUOUS
 62
3
 10
0.010171198458579
 20
-5.767622839547471
 11
-4.979645433681753
 21
-2.874994469174567
  0
LINE
  8
0
  6
CONTINUOUS
 62
3
 10
-4.979648434603448
 20
-2.874994693650046
 11
-4.989821279270270
 21
2.892629961559101
  0
LINE
  8
0
  6
CONTINUOUS
 62
3
 10
-4.989816965891634
 20
2.892629271321994
 11
-0.010171343047148
 21
5.767622431692701
  0
LINE
  8
0
  6
CONTINUOUS
 62
3
 10
-0.010171198458579
 20
5.767622839547471
 11
4.979645433681753
 21
2.874994469174567
  0
LINE
  8
0
  6
CONTINUOUS
 62
3
 10
4.979648434603448
 20
2.874994693650046
 11
4.989821279270270
 21
-2.892629961559101
  0
LINE
  8
0
  6
CONTINUOUS
 62
3
 10
4.989816965891634
 20
-2.892629271321994
 11
0.010171343047148
 21
-5.767622431692701
  0
CIRCLE
  8
0
  6
CONTINUOUS
 62
3
 10
0.000000000000000
 20
0.000000000000000
 40
5.000000000000000
  0
ENDBLK
  8
0
  0
BLOCK
  8
0
  2
SYM10
 70
64
 10
0.000000000000000
 20
0.000000000000000
  0
POINT
  8
0
  6
CONTINUOUS
 62
3
 10
0.000000000000000
 20
5.633955001831055
  0
POINT
  8
0
  6
CONTINUOUS
 62
3
 10
0.500000119209290
 20
6.500000000000000
  0
LINE
  8
0
  6
CONTINUOUS
 62
3
 10
-0.000004704988612
 20
-3.464098175748802
 11
-2.999997577100373
 21
-1.732046218032735
  0
LINE
  8
0
  6
CONTINUOUS
 62
3
 10
0.000006618601731
 20
3.464096896385627
 11
2.999997425948948
 21
1.732046782136365
  0
LINE
  8
0
  6
CONTINUOUS
 62
3
 10
2.999998112093635
 20
-1.732051392778772
 11
-0.000004464412200
 21
-3.464098365415111
  0
LINE
  8
0
  6
CONTINUOUS
 62
3
 10
0.000006701720849
 20
3.464096999935236
 11
-2.999997939551520
 21
1.732051821705568
  0
LINE
  8
0
  6
CONTINUOUS
 62
3
 10
2.999996662140697
 20
1.732046953225571
 11
2.999997615814979
 21
-1.732051023458999
  0
LINE
  8
0
  6
CONTINUOUS
 62
3
 10
-2.999996662140960
 20
-1.732045999551255
 11
-2.999997615815242
 21
1.732051977133316
  0
POINT
  8
0
  6
CONTINUOUS
 62
3
 10
0.000000000000000
 20
0.000000000000000
  0
CIRCLE
  8
0
  6
CONTINUOUS
 62
3
 10
0.000000000000000
 20
0.000000000000000
 40
6.500000000000000
  0
CIRCLE
  8
0
  6
CONTINUOUS
 62
3
 10
0.000000000000000
 20
0.000000000000000
 40
5.633955001831055
  0
ENDBLK
  8
0
  0
BLOCK
  8
0
  2
SYM11
 70
64
 10
0.000000000000000
 20
0.000000000000000
  0
POINT
  8
0
  6
CONTINUOUS
 62
3
 10
0.000000000000000
 20
5.633955001831055
  0
POINT
  8
0
  6
CONTINUOUS
 62
3
 10
0.500000119209290
 20
6.500000000000000
  0
LINE
  8
0
  6
CONTINUOUS
 62
3
 10
-0.000004704988612
 20
-3.464098175748802
 11
-2.999997577100373
 21
-1.732046218032735
  0
LINE
  8
0
  6
CONTINUOUS
 62
3
 10
0.000006618601731
 20
3.464096896385627
 11
2.999997425948948
 21
1.732046782136365
  0
LINE
  8
0
  6
CONTINUOUS
 62
3
 10
2.999998112093635
 20
-1.732051392778772
 11
-0.000004464412200
 21
-3.464098365415111
  0
LINE
  8
0
  6
CONTINUOUS
 62
3
 10
0.000006701720849
 20
3.464096999935236
 11
-2.999997939551520
 21
1.732051821705568
  0
LINE
  8
0
  6
CONTINUOUS
 62
3
 10
2.999996662140697
 20
1.732046953225571
 11
2.999997615814979
 21
-1.732051023458999
  0
LINE
  8
0
  6
CONTINUOUS
 62
3
 10
-2.999996662140960
 20
-1.732045999551255
 11
-2.999997615815242
 21
1.732051977133316
  0
POINT
  8
0
  6
CONTINUOUS
 62
3
 10
0.000000000000000
 20
0.000000000000000
  0
CIRCLE
  8
0
  6
CONTINUOUS
 62
3
 10
0.000000000000000
 20
0.000000000000000
 40
6.500000000000000
  0
CIRCLE
  8
0
  6
CONTINUOUS
 62
3
 10
0.000000000000000
 20
0.000000000000000
 40
5.633955001831055
  0
ENDBLK
  8
0
  0
BLOCK
  8
0
  2
SYM12
 70
64
 10
0.000000000000000
 20
0.000000000000000
  0
POINT
  8
0
  6
CONTINUOUS
 62
3
 10
0.000000000000000
 20
5.633955001831055
  0
POINT
  8
0
  6
CONTINUOUS
 62
3
 10
0.500000119209290
 20
6.500000000000000
  0
LINE
  8
0
  6
CONTINUOUS
 62
3
 10
-0.000004704988612
 20
-3.464098175748802
 11
-2.999997577100373
 21
-1.732046218032735
  0
LINE
  8
0
  6
CONTINUOUS
 62
3
 10
0.000006618601731
 20
3.464096896385627
 11
2.999997425948948
 21
1.732046782136365
  0
LINE
  8
0
  6
CONTINUOUS
 62
3
 10
2.999998112093635
 20
-1.732051392778772
 11
-0.000004464412200
 21
-3.464098365415111
  0
LINE
  8
0
  6
CONTINUOUS
 62
3
 10
0.000006701720849
 20
3.464096999935236
 11
-2.999997939551520
 21
1.732051821705568
  0
LINE
  8
0
  6
CONTINUOUS
 62
3
 10
2.999996662140697
 20
1.732046953225571
 11
2.999997615814979
 21
-1.732051023458999
  0
LINE
  8
0
  6
CONTINUOUS
 62
3
 10
-2.999996662140960
 20
-1.732045999551255
 11
-2.999997615815242
 21
1.732051977133316
  0
POINT
  8
0
  6
CONTINUOUS
 62
3
 10
0.000000000000000
 20
0.000000000000000
  0
CIRCLE
  8
0
  6
CONTINUOUS
 62
3
 10
0.000000000000000
 20
0.000000000000000
 40
6.500000000000000
  0
CIRCLE
  8
0
  6
CONTINUOUS
 62
3
 10
0.000000000000000
 20
0.000000000000000
 40
5.633955001831055
  0
ENDBLK
  8
0
  0
BLOCK
  8
0
  2
SYM13
 70
64
 10
0.000000000000000
 20
0.000000000000000
  0
POINT
  8
0
  6
CONTINUOUS
 62
3
 10
0.000000000000000
 20
5.633955001831055
  0
POINT
  8
0
  6
CONTINUOUS
 62
3
 10
0.500000119209290
 20
6.500000000000000
  0
LINE
  8
0
  6
CONTINUOUS
 62
3
 10
-0.000004704988612
 20
-3.464098175748802
 11
-2.999997577100373
 21
-1.732046218032735
  0
LINE
  8
0
  6
CONTINUOUS
 62
3
 10
0.000006618601731
 20
3.464096896385627
 11
2.999997425948948
 21
1.732046782136365
  0
LINE
  8
0
  6
CONTINUOUS
 62
3
 10
2.999998112093635
 20
-1.732051392778772
 11
-0.000004464412200
 21
-3.464098365415111
  0
LINE
  8
0
  6
CONTINUOUS
 62
3
 10
0.000006701720849
 20
3.464096999935236
 11
-2.999997939551520
 21
1.732051821705568
  0
LINE
  8
0
  6
CONTINUOUS
 62
3
 10
2.999996662140697
 20
1.732046953225571
 11
2.999997615814979
 21
-1.732051023458999
  0
LINE
  8
0
  6
CONTINUOUS
 62
3
 10
-2.999996662140960
 20
-1.732045999551255
 11
-2.999997615815242
 21
1.732051977133316
  0
POINT
  8
0
  6
CONTINUOUS
 62
3
 10
0.000000000000000
 20
0.000000000000000
  0
CIRCLE
  8
0
  6
CONTINUOUS
 62
3
 10
0.000000000000000
 20
0.000000000000000
 40
6.500000000000000
  0
CIRCLE
  8
0
  6
CONTINUOUS
 62
3
 10
0.000000000000000
 20
0.000000000000000
 40
5.633955001831055
  0
ENDBLK
  8
0
  0
BLOCK
  8
0
  2
SYM14
 70
64
 10
0.000000000000000
 20
0.000000000000000
  0
POINT
  8
0
  6
CONTINUOUS
 62
3
 10
0.000000000000000
 20
5.633955001831055
  0
POINT
  8
0
  6
CONTINUOUS
 62
3
 10
0.500000119209290
 20
6.500000000000000
  0
LINE
  8
0
  6
CONTINUOUS
 62
3
 10
-0.000004704988612
 20
-3.464098175748802
 11
-2.999997577100373
 21
-1.732046218032735
  0
LINE
  8
0
  6
CONTINUOUS
 62
3
 10
0.000006618601731
 20
3.464096896385627
 11
2.999997425948948
 21
1.732046782136365
  0
LINE
  8
0
  6
CONTINUOUS
 62
3
 10
2.999998112093635
 20
-1.732051392778772
 11
-0.000004464412200
 21
-3.464098365415111
  0
LINE
  8
0
  6
CONTINUOUS
 62
3
 10
0.000006701720849
 20
3.464096999935236
 11
-2.999997939551520
 21
1.732051821705568
  0
LINE
  8
0
  6
CONTINUOUS
 62
3
 10
2.999996662140697
 20
1.732046953225571
 11
2.999997615814979
 21
-1.732051023458999
  0
LINE
  8
0
  6
CONTINUOUS
 62
3
 10
-2.999996662140960
 20
-1.732045999551255
 11
-2.999997615815242
 21
1.732051977133316
  0
POINT
  8
0
  6
CONTINUOUS
 62
3
 10
0.000000000000000
 20
0.000000000000000
  0
CIRCLE
  8
0
  6
CONTINUOUS
 62
3
 10
0.000000000000000
 20
0.000000000000000
 40
6.500000000000000
  0
CIRCLE
  8
0
  6
CONTINUOUS
 62
3
 10
0.000000000000000
 20
0.000000000000000
 40
5.633955001831055
  0
ENDBLK
  8
0
  0
BLOCK
  8
0
  2
SYM15
 70
64
 10
0.000000000000000
 20
0.000000000000000
  0
POINT
  8
0
  6
CONTINUOUS
 62
3
 10
0.000000000000000
 20
5.633955001831055
  0
POINT
  8
0
  6
CONTINUOUS
 62
3
 10
0.500000119209290
 20
6.500000000000000
  0
LINE
  8
0
  6
CONTINUOUS
 62
3
 10
-0.000004704988612
 20
-3.464098175748802
 11
-2.999997577100373
 21
-1.732046218032735
  0
LINE
  8
0
  6
CONTINUOUS
 62
3
 10
0.000006618601731
 20
3.464096896385627
 11
2.999997425948948
 21
1.732046782136365
  0
LINE
  8
0
  6
CONTINUOUS
 62
3
 10
2.999998112093635
 20
-1.732051392778772
 11
-0.000004464412200
 21
-3.464098365415111
  0
LINE
  8
0
  6
CONTINUOUS
 62
3
 10
0.000006701720849
 20
3.464096999935236
 11
-2.999997939551520
 21
1.732051821705568
  0
LINE
  8
0
  6
CONTINUOUS
 62
3
 10
2.999996662140697
 20
1.732046953225571
 11
2.999997615814979
 21
-1.732051023458999
  0
LINE
  8
0
  6
CONTINUOUS
 62
3
 10
-2.999996662140960
 20
-1.732045999551255
 11
-2.999997615815242
 21
1.732051977133316
  0
POINT
  8
0
  6
CONTINUOUS
 62
3
 10
0.000000000000000
 20
0.000000000000000
  0
CIRCLE
  8
0
  6
CONTINUOUS
 62
3
 10
0.000000000000000
 20
0.000000000000000
 40
6.500000000000000
  0
CIRCLE
  8
0
  6
CONTINUOUS
 62
3
 10
0.000000000000000
 20
0.000000000000000
 40
5.633955001831055
  0
ENDBLK
  8
0
  0
BLOCK
  8
0
  2
SYM16
 70
64
 10
0.000000000000000
 20
0.000000000000000
  0
POINT
  8
0
  6
CONTINUOUS
 62
3
 10
0.000000000000000
 20
5.633955001831055
  0
POINT
  8
0
  6
CONTINUOUS
 62
3
 10
0.500000119209290
 20
6.500000000000000
  0
LINE
  8
0
  6
CONTINUOUS
 62
3
 10
-0.000004704988612
 20
-3.464098175748802
 11
-2.999997577100373
 21
-1.732046218032735
  0
LINE
  8
0
  6
CONTINUOUS
 62
3
 10
0.000006618601731
 20
3.464096896385627
 11
2.999997425948948
 21
1.732046782136365
  0
LINE
  8
0
  6
CONTINUOUS
 62
3
 10
2.999998112093635
 20
-1.732051392778772
 11
-0.000004464412200
 21
-3.464098365415111
  0
LINE
  8
0
  6
CONTINUOUS
 62
3
 10
0.000006701720849
 20
3.464096999935236
 11
-2.999997939551520
 21
1.732051821705568
  0
LINE
  8
0
  6
CONTINUOUS
 62
3
 10
2.999996662140697
 20
1.732046953225571
 11
2.999997615814979
 21
-1.732051023458999
  0
LINE
  8
0
  6
CONTINUOUS
 62
3
 10
-2.999996662140960
 20
-1.732045999551255
 11
-2.999997615815242
 21
1.732051977133316
  0
POINT
  8
0
  6
CONTINUOUS
 62
3
 10
0.000000000000000
 20
0.000000000000000
  0
CIRCLE
  8
0
  6
CONTINUOUS
 62
3
 10
0.000000000000000
 20
0.000000000000000
 40
6.500000000000000
  0
CIRCLE
  8
0
  6
CONTINUOUS
 62
3
 10
0.000000000000000
 20
0.000000000000000
 40
5.633955001831055
  0
ENDBLK
  8
0
  0
BLOCK
  8
0
  2
SYM17
 70
64
 10
0.000000000000000
 20
0.000000000000000
  0
POINT
  8
0
  6
CONTINUOUS
 62
3
 10
0.000000000000000
 20
5.633955001831055
  0
POINT
  8
0
  6
CONTINUOUS
 62
3
 10
0.500000119209290
 20
6.500000000000000
  0
LINE
  8
0
  6
CONTINUOUS
 62
3
 10
-0.000004704988612
 20
-3.464098175748802
 11
-2.999997577100373
 21
-1.732046218032735
  0
LINE
  8
0
  6
CONTINUOUS
 62
3
 10
0.000006618601731
 20
3.464096896385627
 11
2.999997425948948
 21
1.732046782136365
  0
LINE
  8
0
  6
CONTINUOUS
 62
3
 10
2.999998112093635
 20
-1.732051392778772
 11
-0.000004464412200
 21
-3.464098365415111
  0
LINE
  8
0
  6
CONTINUOUS
 62
3
 10
0.000006701720849
 20
3.464096999935236
 11
-2.999997939551520
 21
1.732051821705568
  0
LINE
  8
0
  6
CONTINUOUS
 62
3
 10
2.999996662140697
 20
1.732046953225571
 11
2.999997615814979
 21
-1.732051023458999
  0
LINE
  8
0
  6
CONTINUOUS
 62
3
 10
-2.999996662140960
 20
-1.732045999551255
 11
-2.999997615815242
 21
1.732051977133316
  0
POINT
  8
0
  6
CONTINUOUS
 62
3
 10
0.000000000000000
 20
0.000000000000000
  0
CIRCLE
  8
0
  6
CONTINUOUS
 62
3
 10
0.000000000000000
 20
0.000000000000000
 40
6.500000000000000
  0
CIRCLE
  8
0
  6
CONTINUOUS
 62
3
 10
0.000000000000000
 20
0.000000000000000
 40
5.633955001831055
  0
ENDBLK
  8
0
  0
BLOCK
  8
0
  2
SYM18
 70
64
 10
0.000000000000000
 20
0.000000000000000
  0
POINT
  8
0
  6
CONTINUOUS
 62
3
 10
0.000000000000000
 20
5.633955001831055
  0
POINT
  8
0
  6
CONTINUOUS
 62
3
 10
0.500000119209290
 20
6.500000000000000
  0
LINE
  8
0
  6
CONTINUOUS
 62
3
 10
-0.000004704988612
 20
-3.464098175748802
 11
-2.999997577100373
 21
-1.732046218032735
  0
LINE
  8
0
  6
CONTINUOUS
 62
3
 10
0.000006618601731
 20
3.464096896385627
 11
2.999997425948948
 21
1.732046782136365
  0
LINE
  8
0
  6
CONTINUOUS
 62
3
 10
2.999998112093635
 20
-1.732051392778772
 11
-0.000004464412200
 21
-3.464098365415111
  0
LINE
  8
0
  6
CONTINUOUS
 62
3
 10
0.000006701720849
 20
3.464096999935236
 11
-2.999997939551520
 21
1.732051821705568
  0
LINE
  8
0
  6
CONTINUOUS
 62
3
 10
2.999996662140697
 20
1.732046953225571
 11
2.999997615814979
 21
-1.732051023458999
  0
LINE
  8
0
  6
CONTINUOUS
 62
3
 10
-2.999996662140960
 20
-1.732045999551255
 11
-2.999997615815242
 21
1.732051977133316
  0
POINT
  8
0
  6
CONTINUOUS
 62
3
 10
0.000000000000000
 20
0.000000000000000
  0
CIRCLE
  8
0
  6
CONTINUOUS
 62
3
 10
0.000000000000000
 20
0.000000000000000
 40
6.500000000000000
  0
CIRCLE
  8
0
  6
CONTINUOUS
 62
3
 10
0.000000000000000
 20
0.000000000000000
 40
5.633955001831055
  0
ENDBLK
  8
0
  0
BLOCK
  8
0
  2
SYM19
 70
64
 10
0.000000000000000
 20
0.000000000000000
  0
POINT
  8
0
  6
CONTINUOUS
 62
3
 10
0.000000000000000
 20
5.633955001831055
  0
POINT
  8
0
  6
CONTINUOUS
 62
3
 10
0.500000119209290
 20
6.500000000000000
  0
LINE
  8
0
  6
CONTINUOUS
 62
3
 10
-0.000004704988612
 20
-3.464098175748802
 11
-2.999997577100373
 21
-1.732046218032735
  0
LINE
  8
0
  6
CONTINUOUS
 62
3
 10
0.000006618601731
 20
3.464096896385627
 11
2.999997425948948
 21
1.732046782136365
  0
LINE
  8
0
  6
CONTINUOUS
 62
3
 10
2.999998112093635
 20
-1.732051392778772
 11
-0.000004464412200
 21
-3.464098365415111
  0
LINE
  8
0
  6
CONTINUOUS
 62
3
 10
0.000006701720849
 20
3.464096999935236
 11
-2.999997939551520
 21
1.732051821705568
  0
LINE
  8
0
  6
CONTINUOUS
 62
3
 10
2.999996662140697
 20
1.732046953225571
 11
2.999997615814979
 21
-1.732051023458999
  0
LINE
  8
0
  6
CONTINUOUS
 62
3
 10
-2.999996662140960
 20
-1.732045999551255
 11
-2.999997615815242
 21
1.732051977133316
  0
POINT
  8
0
  6
CONTINUOUS
 62
3
 10
0.000000000000000
 20
0.000000000000000
  0
CIRCLE
  8
0
  6
CONTINUOUS
 62
3
 10
0.000000000000000
 20
0.000000000000000
 40
6.500000000000000
  0
CIRCLE
  8
0
  6
CONTINUOUS
 62
3
 10
0.000000000000000
 20
0.000000000000000
 40
5.633955001831055
  0
ENDBLK
  8
0
  0
BLOCK
  8
0
  2
SYM20
 70
64
 10
0.000000000000000
 20
0.000000000000000
  0
POINT
  8
0
  6
CONTINUOUS
 62
3
 10
0.000000000000000
 20
5.633955001831055
  0
POINT
  8
0
  6
CONTINUOUS
 62
3
 10
0.500000119209290
 20
6.500000000000000
  0
LINE
  8
0
  6
CONTINUOUS
 62
3
 10
-0.000004704988612
 20
-3.464098175748802
 11
-2.999997577100373
 21
-1.732046218032735
  0
LINE
  8
0
  6
CONTINUOUS
 62
3
 10
0.000006618601731
 20
3.464096896385627
 11
2.999997425948948
 21
1.732046782136365
  0
LINE
  8
0
  6
CONTINUOUS
 62
3
 10
2.999998112093635
 20
-1.732051392778772
 11
-0.000004464412200
 21
-3.464098365415111
  0
LINE
  8
0
  6
CONTINUOUS
 62
3
 10
0.000006701720849
 20
3.464096999935236
 11
-2.999997939551520
 21
1.732051821705568
  0
LINE
  8
0
  6
CONTINUOUS
 62
3
 10
2.999996662140697
 20
1.732046953225571
 11
2.999997615814979
 21
-1.732051023458999
  0
LINE
  8
0
  6
CONTINUOUS
 62
3
 10
-2.999996662140960
 20
-1.732045999551255
 11
-2.999997615815242
 21
1.732051977133316
  0
POINT
  8
0
  6
CONTINUOUS
 62
3
 10
0.000000000000000
 20
0.000000000000000
  0
CIRCLE
  8
0
  6
CONTINUOUS
 62
3
 10
0.000000000000000
 20
0.000000000000000
 40
6.500000000000000
  0
CIRCLE
  8
0
  6
CONTINUOUS
 62
3
 10
0.000000000000000
 20
0.000000000000000
 40
5.633955001831055
  0
ENDBLK
  8
0
  0
BLOCK
  8
0
  2
SYM21
 70
64
 10
0.000000000000000
 20
0.000000000000000
  0
ARC
  8
0
  6
CONTINUOUS
 62
3
 10
6.399999618530273
 20
0.000000000000000
 40
9.000000000000000
 50
163.398451589674950
 51
196.601531107481040
  0
POINT
  8
0
  6
CONTINUOUS
 62
3
 10
0.000000000000000
 20
0.000000000000000
  0
LINE
  8
0
  6
CONTINUOUS
 62
3
 10
0.000000000000000
 20
-3.500000000000000
 11
-0.000000000000000
 21
3.500000000000000
  0
LINE
  8
0
  6
CONTINUOUS
 62
3
 10
0.000000000000000
 20
-3.500000000000000
 11
-0.000000000000000
 21
3.500000000000000
  0
LINE
  8
0
  6
CONTINUOUS
 62
3
 10
0.000000000000000
 20
3.500000000000000
 11
-0.979025304317474
 21
3.500000000000000
  0
LINE
  8
0
  6
CONTINUOUS
 62
3
 10
-0.000000000000000
 20
-3.500000000000000
 11
-0.979025304317474
 21
-3.500000000000000
  0
ARC
  8
0
  6
CONTINUOUS
 62
3
 10
-0.979025304317474
 20
2.200000762939453
 40
1.299999237060547
 50
90.000000000000000
 51
163.398451589674950
  0
ARC
  8
0
  6
CONTINUOUS
 62
3
 10
-0.979025304317474
 20
-2.200000762939453
 40
1.299999237060547
 50
196.601531107481040
 51
270.000000000000000
  0
ENDBLK
  8
0
  0
BLOCK
  8
0
  2
SYM22
 70
64
 10
0.000000000000000
 20
0.000000000000000
  0
POINT
  8
0
  6
CONTINUOUS
 62
3
 10
0.000000000000000
 20
0.000000000000000
  0
LINE
  8
0
  6
CONTINUOUS
 62
3
 10
-0.000027060931608
 20
-5.749995231614290
 11
-3.250020760774497
 21
-5.749981880178368
  0
LINE
  8
0
  6
CONTINUOUS
 62
3
 10
-3.250024308998832
 20
-5.749987011620533
 11
-4.000020133420207
 21
-4.899982163000686
  0
LINE
  8
0
  6
CONTINUOUS
 62
3
 10
-4.000014781949545
 20
-4.899978112209579
 11
-3.999973773958658
 21
4.900011588107803
  0
LINE
  8
0
  6
CONTINUOUS
 62
3
 10
-3.999972830514309
 20
4.900008662670757
 11
-3.249970339875063
 21
5.750006850331147
  0
LINE
  8
0
  6
CONTINUOUS
 62
3
 10
-3.249972343459831
 20
5.750005722029982
 11
0.000027906669402
 21
5.749993324257003
  0
LINE
  8
0
  6
CONTINUOUS
 62
3
 10
0.000023687533422
 20
5.749999046325684
 11
-0.000023687533422
 21
-5.749999046325684
  0
LINE
  8
0
  6
CONTINUOUS
 62
3
 10
-3.250009052584916
 20
-2.899986267083180
 11
-0.000013285950788
 21
-2.899999618524636
  0
LINE
  8
0
  6
CONTINUOUS
 62
3
 10
-3.249984168999890
 20
2.900012016287064
 11
0.000013133145058
 21
2.899999618522375
  0
ARC
  8
0
  6
CONTINUOUS
 62
3
 10
-2.270017623901367
 20
-4.324990272521973
 40
1.729999542236328
 50
124.499759285265280
 51
179.999745461767870
  0
ARC
  8
0
  6
CONTINUOUS
 62
3
 10
-2.269982337951660
 20
4.325008392333984
 40
1.729999542236328
 50
179.999745461767870
 51
235.499786279783790
  0
ARC
  8
0
  6
CONTINUOUS
 62
3
 10
1.981662750244141
 20
-0.000008163610801
 40
5.981661796569824
 50
150.999363302540700
 51
209.000072979481700
  0
ENDBLK
  8
0
  0
BLOCK
  8
0
  2
SYM23
 70
64
 10
0.000000000000000
 20
0.000000000000000
  0
POINT
  8
0
  6
CONTINUOUS
 62
3
 10
0.000000000000000
 20
0.000000000000000
  0
LINE
  8
0
  6
CONTINUOUS
 62
3
 10
-0.000027060931608
 20
-5.749995231614290
 11
-3.250020760774497
 21
-5.749981880178368
  0
LINE
  8
0
  6
CONTINUOUS
 62
3
 10
-3.250024308998832
 20
-5.749987011620533
 11
-4.000020133420207
 21
-4.899982163000686
  0
LINE
  8
0
  6
CONTINUOUS
 62
3
 10
-4.000014781949545
 20
-4.899978112209579
 11
-3.999973773958658
 21
4.900011588107803
  0
LINE
  8
0
  6
CONTINUOUS
 62
3
 10
-3.999972830514309
 20
4.900008662670757
 11
-3.249970339875063
 21
5.750006850331147
  0
LINE
  8
0
  6
CONTINUOUS
 62
3
 10
-3.249972343459831
 20
5.750005722029982
 11
0.000027906669402
 21
5.749993324257003
  0
LINE
  8
0
  6
CONTINUOUS
 62
3
 10
0.000023687533422
 20
5.749999046325684
 11
-0.000023687533422
 21
-5.749999046325684
  0
LINE
  8
0
  6
CONTINUOUS
 62
3
 10
-3.250009052584916
 20
-2.899986267083180
 11
-0.000013285950788
 21
-2.899999618524636
  0
LINE
  8
0
  6
CONTINUOUS
 62
3
 10
-3.249984168999890
 20
2.900012016287064
 11
0.000013133145058
 21
2.899999618522375
  0
ARC
  8
0
  6
CONTINUOUS
 62
3
 10
-2.270017623901367
 20
-4.324990272521973
 40
1.729999542236328
 50
124.499759285265280
 51
179.999745461767870
  0
ARC
  8
0
  6
CONTINUOUS
 62
3
 10
-2.269982337951660
 20
4.325008392333984
 40
1.729999542236328
 50
179.999745461767870
 51
235.499786279783790
  0
ARC
  8
0
  6
CONTINUOUS
 62
3
 10
1.981662750244141
 20
-0.000008163610801
 40
5.981661796569824
 50
150.999363302540700
 51
209.000072979481700
  0
ENDBLK
  8
0
  0
BLOCK
  8
0
  2
SYM24
 70
64
 10
0.000000000000000
 20
0.000000000000000
  0
LINE
  8
0
  6
CONTINUOUS
 62
3
 10
-7.499999046325684
 20
6.500000000000000
 11
-7.499999046325684
 21
-6.500000000000000
  0
LINE
  8
0
  6
CONTINUOUS
 62
3
 10
-7.499997911632022
 20
-6.499999445138201
 11
-7.999998623386432
 21
-5.634070287011241
  0
LINE
  8
0
  6
CONTINUOUS
 62
3
 10
-7.499999203818277
 20
6.499999909101064
 11
-7.999999021366804
 21
5.633876130311293
  0
LINE
  8
0
  6
CONTINUOUS
 62
3
 10
-0.000000000000000
 20
-6.500000000000000
 11
-7.499998092651367
 21
-6.500000000000000
  0
LINE
  8
0
  6
CONTINUOUS
 62
3
 10
0.000000000000000
 20
6.500000000000000
 11
-7.499999046325684
 21
6.500000000000000
  0
LINE
  8
0
  6
CONTINUOUS
 62
3
 10
-7.999999046325684
 20
5.633875846862793
 11
-7.999999046325684
 21
-5.634070396423340
  0
LINE
  8
0
  6
CONTINUOUS
 62
3
 10
0.000000000000000
 20
-6.500000000000000
 11
-0.000000000000000
 21
6.500000000000000
  0
POINT
  8
0
  6
CONTINUOUS
 62
3
 10
0.000000000000000
 20
0.000000000000000
  0
ENDBLK
  8
0
  0
BLOCK
  8
0
  2
SYM25
 70
64
 10
0.000000000000000
 20
0.000000000000000
  0
LINE
  8
0
  6
CONTINUOUS
 62
3
 10
-7.499999046325684
 20
6.500000000000000
 11
-7.499999046325684
 21
-6.500000000000000
  0
LINE
  8
0
  6
CONTINUOUS
 62
3
 10
-7.499997911632022
 20
-6.499999445138201
 11
-7.999998623386432
 21
-5.634070287011241
  0
LINE
  8
0
  6
CONTINUOUS
 62
3
 10
-7.499999203818277
 20
6.499999909101064
 11
-7.999999021366804
 21
5.633876130311293
  0
LINE
  8
0
  6
CONTINUOUS
 62
3
 10
-0.000000000000000
 20
-6.500000000000000
 11
-7.499998092651367
 21
-6.500000000000000
  0
LINE
  8
0
  6
CONTINUOUS
 62
3
 10
0.000000000000000
 20
6.500000000000000
 11
-7.499999046325684
 21
6.500000000000000
  0
LINE
  8
0
  6
CONTINUOUS
 62
3
 10
-7.999999046325684
 20
5.633875846862793
 11
-7.999999046325684
 21
-5.634070396423340
  0
LINE
  8
0
  6
CONTINUOUS
 62
3
 10
0.000000000000000
 20
-6.500000000000000
 11
-0.000000000000000
 21
6.500000000000000
  0
POINT
  8
0
  6
CONTINUOUS
 62
3
 10
0.000000000000000
 20
0.000000000000000
  0
ENDBLK
  8
0
  0
BLOCK
  8
0
  2
SYM26
 70
64
 10
0.000000000000000
 20
0.000000000000000
  0
LINE
  8
0
  6
CONTINUOUS
 62
3
 10
-7.499999046325684
 20
6.500000000000000
 11
-7.499999046325684
 21
-6.500000000000000
  0
LINE
  8
0
  6
CONTINUOUS
 62
3
 10
-7.499997911632022
 20
-6.499999445138201
 11
-7.999998623386432
 21
-5.634070287011241
  0
LINE
  8
0
  6
CONTINUOUS
 62
3
 10
-7.499999203818277
 20
6.499999909101064
 11
-7.999999021366804
 21
5.633876130311293
  0
LINE
  8
0
  6
CONTINUOUS
 62
3
 10
-0.000000000000000
 20
-6.500000000000000
 11
-7.499998092651367
 21
-6.500000000000000
  0
LINE
  8
0
  6
CONTINUOUS
 62
3
 10
0.000000000000000
 20
6.500000000000000
 11
-7.499999046325684
 21
6.500000000000000
  0
LINE
  8
0
  6
CONTINUOUS
 62
3
 10
-7.999999046325684
 20
5.633875846862793
 11
-7.999999046325684
 21
-5.634070396423340
  0
LINE
  8
0
  6
CONTINUOUS
 62
3
 10
0.000000000000000
 20
-6.500000000000000
 11
-0.000000000000000
 21
6.500000000000000
  0
POINT
  8
0
  6
CONTINUOUS
 62
3
 10
0.000000000000000
 20
0.000000000000000
  0
ENDBLK
  8
0
  0
BLOCK
  8
0
  2
SYM27
 70
64
 10
0.000000000000000
 20
0.000000000000000
  0
LINE
  8
0
  6
CONTINUOUS
 62
3
 10
-7.499999046325684
 20
6.500000000000000
 11
-7.499999046325684
 21
-6.500000000000000
  0
LINE
  8
0
  6
CONTINUOUS
 62
3
 10
-7.499997911632022
 20
-6.499999445138201
 11
-7.999998623386432
 21
-5.634070287011241
  0
LINE
  8
0
  6
CONTINUOUS
 62
3
 10
-7.499999203818277
 20
6.499999909101064
 11
-7.999999021366804
 21
5.633876130311293
  0
LINE
  8
0
  6
CONTINUOUS
 62
3
 10
-0.000000000000000
 20
-6.500000000000000
 11
-7.499998092651367
 21
-6.500000000000000
  0
LINE
  8
0
  6
CONTINUOUS
 62
3
 10
0.000000000000000
 20
6.500000000000000
 11
-7.499999046325684
 21
6.500000000000000
  0
LINE
  8
0
  6
CONTINUOUS
 62
3
 10
-7.999999046325684
 20
5.633875846862793
 11
-7.999999046325684
 21
-5.634070396423340
  0
LINE
  8
0
  6
CONTINUOUS
 62
3
 10
0.000000000000000
 20
-6.500000000000000
 11
-0.000000000000000
 21
6.500000000000000
  0
POINT
  8
0
  6
CONTINUOUS
 62
3
 10
0.000000000000000
 20
0.000000000000000
  0
ENDBLK
  8
0
  0
BLOCK
  8
0
  2
SYM28
 70
64
 10
0.000000000000000
 20
0.000000000000000
  0
LINE
  8
0
  6
CONTINUOUS
 62
3
 10
-7.499999046325684
 20
6.500000000000000
 11
-7.499999046325684
 21
-6.500000000000000
  0
LINE
  8
0
  6
CONTINUOUS
 62
3
 10
-7.499997911632022
 20
-6.499999445138201
 11
-7.999998623386432
 21
-5.634070287011241
  0
LINE
  8
0
  6
CONTINUOUS
 62
3
 10
-7.499999203818277
 20
6.499999909101064
 11
-7.999999021366804
 21
5.633876130311293
  0
LINE
  8
0
  6
CONTINUOUS
 62
3
 10
-0.000000000000000
 20
-6.500000000000000
 11
-7.499998092651367
 21
-6.500000000000000
  0
LINE
  8
0
  6
CONTINUOUS
 62
3
 10
0.000000000000000
 20
6.500000000000000
 11
-7.499999046325684
 21
6.500000000000000
  0
LINE
  8
0
  6
CONTINUOUS
 62
3
 10
-7.999999046325684
 20
5.633875846862793
 11
-7.999999046325684
 21
-5.634070396423340
  0
LINE
  8
0
  6
CONTINUOUS
 62
3
 10
0.000000000000000
 20
-6.500000000000000
 11
-0.000000000000000
 21
6.500000000000000
  0
POINT
  8
0
  6
CONTINUOUS
 62
3
 10
0.000000000000000
 20
0.000000000000000
  0
ENDBLK
  8
0
  0
BLOCK
  8
0
  2
SYM29
 70
64
 10
0.000000000000000
 20
0.000000000000000
  0
LINE
  8
0
  6
CONTINUOUS
 62
3
 10
-7.499999046325684
 20
6.500000000000000
 11
-7.499999046325684
 21
-6.500000000000000
  0
LINE
  8
0
  6
CONTINUOUS
 62
3
 10
-7.499997911632022
 20
-6.499999445138201
 11
-7.999998623386432
 21
-5.634070287011241
  0
LINE
  8
0
  6
CONTINUOUS
 62
3
 10
-7.499999203818277
 20
6.499999909101064
 11
-7.999999021366804
 21
5.633876130311293
  0
LINE
  8
0
  6
CONTINUOUS
 62
3
 10
-0.000000000000000
 20
-6.500000000000000
 11
-7.499998092651367
 21
-6.500000000000000
  0
LINE
  8
0
  6
CONTINUOUS
 62
3
 10
0.000000000000000
 20
6.500000000000000
 11
-7.499999046325684
 21
6.500000000000000
  0
LINE
  8
0
  6
CONTINUOUS
 62
3
 10
-7.999999046325684
 20
5.633875846862793
 11
-7.999999046325684
 21
-5.634070396423340
  0
LINE
  8
0
  6
CONTINUOUS
 62
3
 10
0.000000000000000
 20
-6.500000000000000
 11
-0.000000000000000
 21
6.500000000000000
  0
POINT
  8
0
  6
CONTINUOUS
 62
3
 10
0.000000000000000
 20
0.000000000000000
  0
ENDBLK
  8
0
  0
BLOCK
  8
0
  2
SYM30
 70
64
 10
0.000000000000000
 20
0.000000000000000
  0
ARC
  8
0
  6
CONTINUOUS
 62
3
 10
-0.979025304317474
 20
-2.200000762939453
 40
1.299999237060547
 50
196.601531107481040
 51
270.000000000000000
  0
ARC
  8
0
  6
CONTINUOUS
 62
3
 10
-0.979025304317474
 20
2.200000762939453
 40
1.299999237060547
 50
90.000000000000000
 51
163.398451589674950
  0
LINE
  8
0
  6
CONTINUOUS
 62
3
 10
-0.000000000000000
 20
-3.500000000000000
 11
-0.979025304317474
 21
-3.500000000000000
  0
LINE
  8
0
  6
CONTINUOUS
 62
3
 10
0.000000000000000
 20
3.500000000000000
 11
-0.979025304317474
 21
3.500000000000000
  0
LINE
  8
0
  6
CONTINUOUS
 62
3
 10
0.000000000000000
 20
-3.500000000000000
 11
-0.000000000000000
 21
3.500000000000000
  0
LINE
  8
0
  6
CONTINUOUS
 62
3
 10
0.000000000000000
 20
-3.500000000000000
 11
-0.000000000000000
 21
3.500000000000000
  0
POINT
  8
0
  6
CONTINUOUS
 62
3
 10
0.000000000000000
 20
0.000000000000000
  0
ARC
  8
0
  6
CONTINUOUS
 62
3
 10
6.399999618530273
 20
0.000000000000000
 40
9.000000000000000
 50
163.398451589674950
 51
196.601531107481040
  0
ENDBLK
  8
0
  0
ENDSEC
  0
SECTION
  2
ENTITIES
  0
ARC
  8
0
  6
CONTINUOUS
 62
3
 10
-413.399529489755480
 20
-232.265580810034980
 40
6.099999427795406
 50
264.601927898108500
 51
5.398089404735109
  0
POINT
  8
0
  6
CONTINUOUS
 62
3
 10
-411.136787924828470
 20
-234.528322374962020
  0
LINE
  8
0
  6
CONTINUOUS
 62
3
 10
-407.813386188121630
 20
-231.204920638255150
 11
-414.460189661535310
 21
-237.851724111668890
  0
LINE
  8
0
  6
CONTINUOUS
 62
3
 10
-407.500247579152810
 20
-231.457467589105530
 11
-414.177346881625740
 21
-238.134566891578460
  0
LINE
  8
0
  6
CONTINUOUS
 62
3
 10
-414.460189661535310
 20
-237.851724111668890
 11
-413.973386269829690
 21
-238.338527503374480
  0
LINE
  8
0
  6
CONTINUOUS
 62
3
 10
-407.813386188121630
 20
-231.204920638255150
 11
-407.326582796416010
 21
-231.691724029960770
  0
ARC
  8
0
  6
CONTINUOUS
 62
3
 10
-512.253057769374550
 20
-232.265580810034980
 40
6.099999427795398
 50
174.601910595264880
 51
275.398072101890990
  0
POINT
  8
0
  6
CONTINUOUS
 62
3
 10
-514.515799334301620
 20
-234.528322374962020
  0
LINE
  8
0
  6
CONTINUOUS
 62
3
 10
-517.839201071008460
 20
-231.204920638255150
 11
-511.192397597594780
 21
-237.851724111668890
  0
LINE
  8
0
  6
CONTINUOUS
 62
3
 10
-518.152339679977220
 20
-231.457467589105530
 11
-511.475240377504350
 21
-238.134566891578460
  0
LINE
  8
0
  6
CONTINUOUS
 62
3
 10
-511.192397597594780
 20
-237.851724111668890
 11
-511.679200989300400
 21
-238.338527503374480
  0
LINE
  8
0
  6
CONTINUOUS
 62
3
 10
-517.839201071008460
 20
-231.204920638255150
 11
-518.326004462714080
 21
-231.691724029960770
  0
ARC
  8
0
  6
CONTINUOUS
 62
3
 10
-512.253057769374550
 20
-133.412052530415680
 40
6.099999427795414
 50
84.601927898109011
 51
185.398089404735120
  0
POINT
  8
0
  6
CONTINUOUS
 62
3
 10
-514.515799334301620
 20
-131.149310965488640
  0
LINE
  8
0
  6
CONTINUOUS
 62
3
 10
-517.839201071008460
 20
-134.472712702195510
 11
-511.192397597594780
 21
-127.825909228781780
  0
LINE
  8
0
  6
CONTINUOUS
 62
3
 10
-518.152339679977220
 20
-134.220165751345120
 11
-511.475240377504350
 21
-127.543066448872210
  0
LINE
  8
0
  6
CONTINUOUS
 62
3
 10
-511.192397597594780
 20
-127.825909228781780
 11
-511.679200989300400
 21
-127.339105837076160
  0
LINE
  8
0
  6
CONTINUOUS
 62
3
 10
-517.839201071008460
 20
-134.472712702195510
 11
-518.326004462714080
 21
-133.985909310489890
  0
ARC
  8
0
  6
CONTINUOUS
 62
3
 10
-413.399529489755480
 20
-133.412052530415680
 40
6.099999427795398
 50
354.601910595264880
 51
95.398072101891515
  0
POINT
  8
0
  6
CONTINUOUS
 62
3
 10
-411.136787924828470
 20
-131.149310965488640
  0
LINE
  8
0
  6
CONTINUOUS
 62
3
 10
-407.813386188121630
 20
-134.472712702195510
 11
-414.460189661535310
 21
-127.825909228781780
  0
LINE
  8
0
  6
CONTINUOUS
 62
3
 10
-407.500247579152810
 20
-134.220165751345120
 11
-414.177346881625740
 21
-127.543066448872210
  0
LINE
  8
0
  6
CONTINUOUS
 62
3
 10
-414.460189661535310
 20
-127.825909228781780
 11
-413.973386269829690
 21
-127.339105837076160
  0
LINE
  8
0
  6
CONTINUOUS
 62
3
 10
-407.813386188121630
 20
-134.472712702195510
 11
-407.326582796416010
 21
-133.985909310489890
  0
ARC
  8
0
  6
CONTINUOUS
 62
3
 10
153.564344469386920
 20
-59.972201349277498
 40
5.000000000000051
 50
305.248603455045550
 51
0.000000000000000
  0
ARC
  8
0
  6
CONTINUOUS
 62
3
 10
153.564344469386920
 20
-54.771079691681848
 40
5.000000000000051
 50
305.248603455045550
 51
0.000000000000000
  0
LINE
  8
0
  6
CONTINUOUS
 62
3
 10
156.449970893353570
 20
-64.055479461444975
 11
122.611565023849830
 21
-87.968863619868785
  0
ARC
  8
0
  6
CONTINUOUS
 62
3
 10
119.725938599883640
 20
-83.885585507701308
 40
5.000000000000000
 50
270.000000000000000
 51
305.248603455041290
  0
LINE
  8
0
  6
CONTINUOUS
 62
3
 10
156.449970893353570
 20
-58.854357803849325
 11
122.611565023849830
 21
-82.767741962273135
  0
ARC
  8
0
  6
CONTINUOUS
 62
3
 10
119.725938599883640
 20
-78.684463850105658
 40
5.000000000000000
 50
270.000000000000000
 51
305.248603455041290
  0
LINE
  8
0
  6
CONTINUOUS
 62
3
 10
153.869664615092920
 20
-88.885585507701308
 11
126.026154504732400
 21
-88.885585507701308
  0
LINE
  8
0
  6
CONTINUOUS
 62
3
 10
157.099878375319800
 20
-29.785833015941876
 11
122.707050314029400
 21
-64.178661077232846
  0
LINE
  8
0
  6
CONTINUOUS
 62
3
 10
187.064344469386920
 20
-217.338816670225920
 11
188.064344469386920
 21
-217.338816670225920
  0
LINE
  8
0
  6
CONTINUOUS
 62
3
 10
187.064344469386920
 20
-129.338816670225920
 11
188.064344469386920
 21
-129.338816670226150
  0
LINE
  8
0
  6
CONTINUOUS
 62
3
 10
182.564344469386920
 20
-29.338816670225924
 11
181.564344469386920
 21
-28.338816670225924
  0
LINE
  8
0
  6
CONTINUOUS
 62
3
 10
182.564344469386920
 20
-317.338816670225470
 11
181.564344469386920
 21
-318.338816670225470
  0
LINE
  8
0
  6
CONTINUOUS
 62
3
 10
42.564344469387152
 20
-341.338816670225920
 11
161.466036638924830
 21
-345.237232806932070
  0
LINE
  8
0
  6
CONTINUOUS
 62
3
 10
164.564344469386920
 20
-342.238843977832400
 11
164.564344469386920
 21
-333.838816670225700
  0
LINE
  8
0
  6
CONTINUOUS
 62
3
 10
42.564344469387152
 20
-341.338816670225920
 11
42.564344469387152
 21
-68.321356285479851
  0
LINE
  8
0
  6
CONTINUOUS
 62
3
 10
188.064344469386920
 20
-217.338816670225920
 11
188.064344469386920
 21
-129.338816670226150
  0
LINE
  8
0
  6
CONTINUOUS
 62
3
 10
181.564344469386920
 20
-28.338816670225924
 11
178.564344469386920
 21
-28.338816670225924
  0
LINE
  8
0
  6
CONTINUOUS
 62
3
 10
178.564344469386920
 20
-15.838816670225924
 11
161.564344469386920
 21
-15.838816670225924
  0
LINE
  8
0
  6
CONTINUOUS
 62
3
 10
181.564344469386920
 20
-318.338816670225470
 11
178.564344469386920
 21
-318.338816670225470
  0
ARC
  8
0
  6
CONTINUOUS
 62
3
 10
181.064344469386920
 20
-238.338816670225920
 40
4.999999999999939
 50
303.367012969232230
 51
0.000000000000000
  0
ARC
  8
0
  6
CONTINUOUS
 62
3
 10
119.171516408096520
 20
-60.643127171300193
 40
4.999999999999909
 50
271.999999999998470
 51
315.000000000001820
  0
ARC
  8
0
  6
CONTINUOUS
 62
3
 10
153.564344469386920
 20
-26.250299110009109
 40
5.000000000000121
 50
315.000000000000910
 51
0.000000000000000
  0
ARC
  8
0
  6
CONTINUOUS
 62
3
 10
161.564344469386920
 20
-342.238843977832400
 40
2.999999999999973
 50
268.122122552718340
 51
0.000000000000000
  0
ARC
  8
0
  6
CONTINUOUS
 62
3
 10
167.564344469386920
 20
-333.838816670225700
 40
3.000000000000000
 50
90.000000000000000
 51
180.000000000000000
  0
ARC
  8
0
  6
CONTINUOUS
 62
3
 10
161.564344469386920
 20
-18.838816670225924
 40
3.000000000000000
 50
90.000000000000000
 51
180.000000000000000
  0
ARC
  8
0
  6
CONTINUOUS
 62
3
 10
187.064344469386920
 20
-128.338816670225920
 40
1.000000000000000
 50
180.000000000000000
 51
270.000000000000000
  0
ARC
  8
0
  6
CONTINUOUS
 62
3
 10
187.064344469386920
 20
-218.338816670225920
 40
1.000000000000000
 50
90.000000000000000
 51
180.000000000000000
  0
LINE
  8
0
  6
CONTINUOUS
 62
3
 10
178.564344469386920
 20
-173.338816670225920
 11
178.564344469386920
 21
-15.838816670225924
  0
LINE
  8
0
  6
CONTINUOUS
 62
3
 10
186.064344469387380
 20
-173.338816670225920
 11
186.064344469386920
 21
-108.083639503800440
  0
LINE
  8
0
  6
CONTINUOUS
 62
3
 10
182.564344469386920
 20
-173.338816670225920
 11
182.564344469386920
 21
-29.338816670225924
  0
ARC
  8
0
  6
CONTINUOUS
 62
3
 10
181.064344469386920
 20
-108.083639503800440
 40
5.000000000000000
 50
0.000000000000000
 51
72.542396876277792
  0
ARC
  8
0
  6
CONTINUOUS
 62
3
 10
161.564344469386920
 20
-327.838816670225920
 40
3.000000000000000
 50
180.000000000000000
 51
270.000000000000000
  0
LINE
  8
0
  6
CONTINUOUS
 62
3
 10
178.564344469386920
 20
-330.838816670225700
 11
161.564344469386920
 21
-330.838816670225700
  0
LINE
  8
0
  6
CONTINUOUS
 62
3
 10
186.064344469386920
 20
-173.338816670225920
 11
186.064344469386920
 21
-238.338816670225920
  0
LINE
  8
0
  6
CONTINUOUS
 62
3
 10
182.564344469386920
 20
-173.338816670225920
 11
182.564344469386920
 21
-317.338816670225470
  0
LINE
  8
0
  6
CONTINUOUS
 62
3
 10
178.564344469386920
 20
-173.338816670225920
 11
178.564344469386920
 21
-330.838816670225470
  0
ARC
  8
0
  6
CONTINUOUS
 62
3
 10
186.564344469386920
 20
-246.690463214471040
 40
5.000000000000129
 50
123.367012969230780
 51
143.130102354155980
  0
LINE
  8
0
  6
CONTINUOUS
 62
3
 10
148.277528225986320
 20
-64.629770563277816
 11
42.564039882896623
 21
-68.321366921874642
  0
LINE
  8
0
  6
CONTINUOUS
 62
3
 10
158.564344469386920
 20
-327.838816670225920
 11
158.564344469386920
 21
-18.838816670225924
  0
LINE
  8
0
  6
DASHDOT
 62
4
 10
196.702214100369020
 20
-38.988528244781719
 11
144.547168978686390
 21
-38.988528244781719
  0
LINE
  8
0
  6
DASHDOT
 62
4
 10
196.702214100369020
 20
-307.689105095669900
 11
144.547168978686390
 21
-307.689105095669900
  0
ARC
  8
0
  6
CONTINUOUS
 62
3
 10
173.564344469386920
 20
-166.338816670225920
 40
2.000000000000000
 50
180.000000000000000
 51
270.000000000000000
  0
ARC
  8
0
  6
CONTINUOUS
 62
3
 10
173.564344469386920
 20
-88.433982883130057
 40
2.000000000000000
 50
90.000000000000000
 51
180.000000000000000
  0
LINE
  8
0
  6
CONTINUOUS
 62
3
 10
171.564344469386920
 20
-166.338816670225920
 11
171.564344469386920
 21
-53.194155729553358
  0
ARC
  8
0
  6
CONTINUOUS
 62
3
 10
173.564344469386920
 20
-53.194155729553358
 40
2.000000000000000
 50
90.000000000000000
 51
180.000000000000000
  0
LINE
  8
0
  6
CONTINUOUS
 62
3
 10
178.564344469386920
 20
-51.194155729553358
 11
173.564344469386920
 21
-51.194155729553358
  0
LINE
  8
0
  6
CONTINUOUS
 62
3
 10
178.564344469386920
 20
-86.433982883130057
 11
173.564344469386920
 21
-86.433982883130057
  0
LINE
  8
0
  6
CONTINUOUS
 62
3
 10
178.564344469386920
 20
-168.338816670225920
 11
173.564344469386920
 21
-168.338816670225920
  0
ARC
  8
0
  6
CONTINUOUS
 62
3
 10
173.564344469386920
 20
-180.338816670225920
 40
2.000000000000000
 50
90.000000000000000
 51
180.000000000000000
  0
ARC
  8
0
  6
CONTINUOUS
 62
3
 10
173.564344469386920
 20
-258.243650457321790
 40
2.000000000000000
 50
180.000000000000000
 51
270.000000000000000
  0
LINE
  8
0
  6
CONTINUOUS
 62
3
 10
171.564344469386920
 20
-180.338816670225920
 11
171.564344469386920
 21
-293.483477610898490
  0
ARC
  8
0
  6
CONTINUOUS
 62
3
 10
173.564344469386920
 20
-293.483477610898490
 40
2.000000000000000
 50
180.000000000000000
 51
270.000000000000000
  0
LINE
  8
0
  6
CONTINUOUS
 62
3
 10
178.564344469386920
 20
-295.483477610898490
 11
173.564344469386920
 21
-295.483477610898490
  0
LINE
  8
0
  6
CONTINUOUS
 62
3
 10
178.564344469386920
 20
-260.243650457321790
 11
173.564344469386920
 21
-260.243650457321790
  0
LINE
  8
0
  6
CONTINUOUS
 62
3
 10
178.564344469386920
 20
-178.338816670225920
 11
173.564344469386920
 21
-178.338816670225920
  0
LINE
  8
0
  6
CONTINUOUS
 62
3
 10
190.064344469386920
 20
-173.338816670225920
 11
190.064344469386920
 21
-148.688816670225380
  0
LINE
  8
0
  6
CONTINUOUS
 62
3
 10
192.064344469386920
 20
-149.488816670226470
 11
192.624152090522330
 21
-149.338816670225920
  0
LINE
  8
0
  6
CONTINUOUS
 62
3
 10
192.064344469386920
 20
-149.488816670226470
 11
190.864344469387110
 21
-149.488816670226470
  0
LINE
  8
0
  6
CONTINUOUS
 62
3
 10
190.064344469386920
 20
-148.688816670225380
 11
190.064344469386920
 21
-148.538816670225740
  0
ARC
  8
0
  6
CONTINUOUS
 62
3
 10
190.864344469387110
 20
-148.688816670225380
 40
0.800000000000182
 50
180.000000000000000
 51
270.000000000000000
  0
LINE
  8
0
  6
CONTINUOUS
 62
3
 10
190.064344469386920
 20
-148.538816670225740
 11
189.864344469387110
 21
-148.338816670225920
  0
LINE
  8
0
  6
CONTINUOUS
 62
3
 10
190.064344469386920
 20
-173.338816670225920
 11
190.064344469386920
 21
-197.988816670226470
  0
LINE
  8
0
  6
CONTINUOUS
 62
3
 10
192.064344469386920
 20
-197.188816670225380
 11
192.624152090522330
 21
-197.338816670225920
  0
LINE
  8
0
  6
CONTINUOUS
 62
3
 10
192.064344469386920
 20
-197.188816670225380
 11
190.864344469387110
 21
-197.188816670225380
  0
LINE
  8
0
  6
CONTINUOUS
 62
3
 10
190.064344469386920
 20
-197.988816670226470
 11
190.064344469386920
 21
-198.138816670226110
  0
ARC
  8
0
  6
CONTINUOUS
 62
3
 10
190.864344469387110
 20
-197.988816670226470
 40
0.800000000001091
 50
90.000000000000000
 51
180.000000000000000
  0
LINE
  8
0
  6
CONTINUOUS
 62
3
 10
190.064344469386920
 20
-198.138816670226110
 11
189.864344469387110
 21
-198.338816670225920
  0
LINE
  8
0
  6
CONTINUOUS
 62
3
 10
189.864344469387110
 20
-198.338816670225920
 11
188.064344469386920
 21
-198.338816670225920
  0
LINE
  8
0
  6
CONTINUOUS
 62
3
 10
189.864344469387110
 20
-148.338816670225920
 11
188.064344469386920
 21
-148.338816670225920
  0
LINE
  8
0
  6
CONTINUOUS
 62
3
 10
264.664344469387290
 20
-197.338816670225920
 11
192.624152090522330
 21
-197.338816670225920
  0
LINE
  8
0
  6
CONTINUOUS
 62
3
 10
265.064344469386920
 20
-173.338816670225920
 11
265.064344469386920
 21
-196.938816670225380
  0
ARC
  8
0
  6
CONTINUOUS
 62
3
 10
264.664344469387290
 20
-196.938816670225380
 40
0.400000000000546
 50
270.000000000000000
 51
0.000000000000000
  0
LINE
  8
0
  6
CONTINUOUS
 62
3
 10
264.664344469387290
 20
-149.338816670225920
 11
192.624152090522330
 21
-149.338816670225920
  0
ARC
  8
0
  6
CONTINUOUS
 62
3
 10
264.664344469387290
 20
-149.738816670226470
 40
0.399999999999636
 50
0.000000000000000
 51
90.000000000000000
  0
LINE
  8
0
  6
CONTINUOUS
 62
3
 10
265.064344469386920
 20
-173.338816670225920
 11
265.064344469386920
 21
-149.738816670226470
  0
LINE
  8
0
  6
CONTINUOUS
 62
3
 10
265.064344469386920
 20
-180.370049221490940
 11
202.063937090245870
 21
-180.370049221490940
  0
LINE
  8
0
  6
CONTINUOUS
 62
3
 10
265.064344469386920
 20
-166.370049221490940
 11
202.063937090245870
 21
-166.370049221490940
  0
ARC
  8
0
  6
CONTINUOUS
 62
3
 10
202.063937090245870
 20
-173.370049221490940
 40
7.000000000000000
 50
90.000000000000000
 51
270.000000000000000
  0
LINE
  8
0
  6
DASHDOT
 62
4
 10
-0.927299745300843
 20
-81.338816670225924
 11
25.387360132954200
 21
-81.338816670225924
  0
LINE
  8
0
  6
CONTINUOUS
 62
3
 10
14.564344469383286
 20
-91.338816670226834
 11
14.564344469386924
 21
-33.338816670226834
  0
LINE
  8
0
  6
CONTINUOUS
 62
3
 10
14.564344469386924
 20
-33.338816670226834
 11
19.064344469386924
 21
-33.338816670226834
  0
LINE
  8
0
  6
CONTINUOUS
 62
3
 10
19.064344469386924
 20
-33.338816670226834
 11
19.064344469386924
 21
-91.338816670226834
  0
LINE
  8
0
  6
DASHDOT
 62
4
 10
8.834097068573101
 20
-53.338816670226834
 11
26.933363083864606
 21
-53.338816670226834
  0
LINE
  8
0
  6
CONTINUOUS
 62
3
 10
14.564344469383286
 20
-91.338816670226834
 11
19.064344469383286
 21
-91.338816670226834
  0
ARC
  8
0
  6
CONTINUOUS
 62
3
 10
33.064344469386924
 20
-339.338816670225920
 40
2.000000000000000
 50
180.000000000000000
 51
270.000000000000000
  0
LINE
  8
0
  6
CONTINUOUS
 62
3
 10
42.064344469386924
 20
-213.338816670225920
 11
42.064344469386924
 21
-341.338816670225920
  0
LINE
  8
0
  6
CONTINUOUS
 62
3
 10
26.064344469386924
 20
-224.338816670224110
 11
26.064344469386924
 21
-217.338816670224110
  0
LINE
  8
0
  6
CONTINUOUS
 62
3
 10
26.064344469386924
 20
-210.338816670224110
 11
26.064344469386924
 21
-217.338816670224110
  0
ARC
  8
0
  6
CONTINUOUS
 62
3
 10
28.064344469386924
 20
-230.254896453323230
 40
3.000000000000000
 50
0.000000000000000
 51
80.405931773138747
  0
ARC
  8
0
  6
CONTINUOUS
 62
3
 10
28.064344469386924
 20
-204.422736887124070
 40
3.000000000000653
 50
279.594068226858330
 51
0.000000000000000
  0
ARC
  8
0
  6
CONTINUOUS
 62
3
 10
29.064344469386924
 20
-224.338816670224110
 40
3.000000000000000
 50
180.000000000000000
 51
260.405931773138780
  0
ARC
  8
0
  6
CONTINUOUS
 62
3
 10
29.064344469386924
 20
-210.338816670224110
 40
2.999999999999756
 50
99.594068226861253
 51
180.000000000000000
  0
ARC
  8
0
  6
CONTINUOUS
 62
3
 10
33.064344469386924
 20
-70.338816670225924
 40
2.000000000000000
 50
90.000000000000000
 51
180.000000000000000
  0
LINE
  8
0
  6
CONTINUOUS
 62
3
 10
31.064344469386924
 20
-230.254896453323230
 11
31.064344469386924
 21
-339.338816670225920
  0
LINE
  8
0
  6
CONTINUOUS
 62
3
 10
42.064344469386924
 20
-213.338816670225920
 11
42.064344469386924
 21
-68.338816670225924
  0
LINE
  8
0
  6
CONTINUOUS
 62
3
 10
31.064344469386924
 20
-204.422736887124070
 11
31.064344469386924
 21
-70.338816670225924
  0
ARC
  8
0
  6
CONTINUOUS
 62
3
 10
21.064344469386924
 20
-70.338816670225924
 40
2.000000000000000
 50
90.000000000000000
 51
180.000000000000000
  0
LINE
  8
0
  6
CONTINUOUS
 62
3
 10
19.064344469386924
 20
-90.338816670225924
 11
19.064344469386924
 21
-70.338816670225924
  0
ARC
  8
0
  6
CONTINUOUS
 62
3
 10
26.064344469386924
 20
-98.338816670225924
 40
5.000000000000000
 50
0.000000000000000
 51
90.000000000000000
  0
ARC
  8
0
  6
CONTINUOUS
 62
3
 10
20.064344469386924
 20
-95.995670919717440
 40
3.000000000000000
 50
0.000000000000000
 51
70.528779365506566
  0
ARC
  8
0
  6
CONTINUOUS
 62
3
 10
22.064344469386924
 20
-90.338816670225924
 40
3.000000000000000
 50
180.000000000000000
 51
270.000000000000000
  0
LINE
  8
0
  6
CONTINUOUS
 62
3
 10
22.064344469386924
 20
-93.338816670225924
 11
26.064344469386924
 21
-93.338816670225924
  0
LINE
  8
0
  6
CONTINUOUS
 62
3
 10
23.064344469386924
 20
-124.491304374896340
 11
23.064344469386924
 21
-95.995670919717440
  0
ARC
  8
0
  6
CONTINUOUS
 62
3
 10
13.564344469387834
 20
-131.736745803654910
 40
1.999999999999663
 50
93.000000000006111
 51
180.000000000000000
  0
ARC
  8
0
  6
CONTINUOUS
 62
3
 10
18.064344469386924
 20
-124.491304374896340
 40
5.000000000000018
 50
272.999999999995110
 51
0.000000000000000
  0
LINE
  8
0
  6
CONTINUOUS
 62
3
 10
26.326024250601222
 20
-129.065189814404900
 11
13.459672556901751
 21
-129.739486734146110
  0
ARC
  8
0
  6
CONTINUOUS
 62
3
 10
26.064344469386924
 20
-124.072042140631990
 40
5.000000000000018
 50
272.999999999995110
 51
0.000000000000000
  0
ARC
  8
0
  6
CONTINUOUS
 62
3
 10
9.564344469391472
 20
-137.338816670225920
 40
2.000000000000000
 50
270.000000000000000
 51
0.000000000000000
  0
LINE
  8
0
  6
CONTINUOUS
 62
3
 10
11.564344469387834
 20
-213.338816670225920
 11
11.564344469387834
 21
-131.736745803654910
  0
ARC
  8
0
  6
CONTINUOUS
 62
3
 10
13.564344469391472
 20
-294.940887536796030
 40
2.000000000000000
 50
180.000000000000000
 51
266.999999999993860
  0
ARC
  8
0
  6
CONTINUOUS
 62
3
 10
9.564344469391472
 20
-289.338816670225010
 40
2.000000000000000
 50
0.000000000000000
 51
90.000000000000000
  0
LINE
  8
0
  6
CONTINUOUS
 62
3
 10
11.564344469391472
 20
-213.338816670225920
 11
11.564344469391472
 21
-294.940887536796030
  0
LINE
  8
0
  6
CONTINUOUS
 62
3
 10
26.326024250601222
 20
-297.612443526046040
 11
13.459672556905389
 21
-296.938146606304830
  0
ARC
  8
0
  6
CONTINUOUS
 62
3
 10
26.064344469386924
 20
-302.605591199818950
 40
5.000000000000000
 50
0.000000000000000
 51
87.000000000004846
  0
LINE
  8
0
  6
CONTINUOUS
 62
3
 10
19.064344469386924
 20
-300.078768714992980
 11
19.064344469386924
 21
-304.474044499566620
  0
ARC
  8
0
  6
CONTINUOUS
 62
3
 10
26.064344469386924
 20
-314.592583518112180
 40
5.000000000000000
 50
0.000000000000000
 51
87.000000000004846
  0
ARC
  8
0
  6
CONTINUOUS
 62
3
 10
24.064344469386924
 20
-304.474044499566620
 40
5.000000000000000
 50
180.000000000000000
 51
267.000000000004890
  0
LINE
  8
0
  6
CONTINUOUS
 62
3
 10
23.802664688172626
 20
-309.467192173339530
 11
26.326024250601222
 21
-309.599435844339270
  0
ARC
  8
0
  6
CONTINUOUS
 62
3
 10
16.064344469386924
 20
-300.078768714992980
 40
3.000000000000000
 50
0.000000000000000
 51
86.999999999994799
  0
LINE
  8
0
  6
CONTINUOUS
 62
3
 10
21.064344469386924
 20
-68.338816670225924
 11
42.564344469387152
 21
-68.338816670225924
  0
LINE
  8
0
  6
CONTINUOUS
 62
3
 10
33.064344469386924
 20
-341.338816670225920
 11
42.564344469387152
 21
-341.338816670225920
  0
LINE
  8
0
  6
DASHDOT
 62
4
 10
275.740042759753120
 20
-173.338816670225920
 11
134.755562098116570
 21
-173.338816670225920
  0
INSERT
  8
0
  2
SYM1
 10
14.564344469383286
 20
-81.338816670226834
  0
INSERT
  8
0
  2
SYM2
 10
31.064344469386924
 20
-82.338817483118646
  0
INSERT
  8
0
  2
SYM3
 10
-0.435655530629901
 20
-158.538041128268560
  0
INSERT
  8
0
  2
SYM4
 10
31.064344469386924
 20
-151.338817483118650
  0
INSERT
  8
0
  2
SYM5
 10
31.064344469386924
 20
-241.338816670225010
  0
INSERT
  8
0
  2
SYM6
 10
-0.435655530629901
 20
-268.139592212183290
  0
INSERT
  8
0
  2
SYM7
 10
31.064344469386924
 20
-332.338816670225010
  0
ARC
  8
0
  6
CONTINUOUS
 62
3
 10
-145.935655530631150
 20
-211.838816670225240
 40
1.000000000000000
 50
270.000000000000000
 51
0.000000000000000
  0
ARC
  8
0
  6
CONTINUOUS
 62
3
 10
-145.935655530631150
 20
-212.338816670225240
 40
2.000000000000000
 50
270.000000000000000
 51
0.000000000000000
  0
LINE
  8
0
  6
CONTINUOUS
 62
3
 10
-144.935655530631150
 20
-211.838816670225240
 11
-144.935655530631150
 21
-182.838816670225240
  0
LINE
  8
0
  6
CONTINUOUS
 62
3
 10
-145.935655530631150
 20
-214.338816670225240
 11
-216.935655530631040
 21
-214.338816670225240
  0
ARC
  8
0
  6
CONTINUOUS
 62
3
 10
-216.935655530631040
 20
-212.338816670225240
 40
2.000000000000000
 50
180.000000000000000
 51
270.000000000000000
  0
LINE
  8
0
  6
CONTINUOUS
 62
3
 10
-145.935655530631150
 20
-212.838816670225240
 11
-216.935655530631040
 21
-212.838816670225240
  0
ARC
  8
0
  6
CONTINUOUS
 62
3
 10
-216.935655530631040
 20
-211.838816670225240
 40
1.000000000000000
 50
180.000000000000000
 51
270.000000000000000
  0
LINE
  8
0
  6
CONTINUOUS
 62
3
 10
-217.935655530631040
 20
-211.838816670225240
 11
-217.935655530631270
 21
-182.838816670225240
  0
LINE
  8
0
  6
CONTINUOUS
 62
3
 10
-218.935655530631040
 20
-182.838816670225240
 11
-218.935655530631040
 21
-212.338816670225240
  0
LINE
  8
0
  6
CONTINUOUS
 62
3
 10
-217.935655530631040
 20
-153.838816670225240
 11
-217.935655530631270
 21
-182.838816670225240
  0
ARC
  8
0
  6
CONTINUOUS
 62
3
 10
-216.935655530631040
 20
-153.838816670225240
 40
1.000000000000000
 50
90.000000000000000
 51
180.000000000000000
  0
LINE
  8
0
  6
CONTINUOUS
 62
3
 10
-218.935655530631040
 20
-182.838816670225240
 11
-218.935655530631040
 21
-153.338816670225240
  0
ARC
  8
0
  6
CONTINUOUS
 62
3
 10
-216.935655530631040
 20
-153.338816670225240
 40
2.000000000000000
 50
90.000000000000000
 51
180.000000000000000
  0
LINE
  8
0
  6
CONTINUOUS
 62
3
 10
-145.935655530631150
 20
-152.838816670225240
 11
-216.935655530631040
 21
-152.838816670225240
  0
ARC
  8
0
  6
CONTINUOUS
 62
3
 10
-145.935655530631150
 20
-153.838816670225240
 40
1.000000000000000
 50
0.000000000000000
 51
90.000000000000000
  0
ARC
  8
0
  6
CONTINUOUS
 62
3
 10
-145.935655530631150
 20
-153.338816670225240
 40
2.000000000000000
 50
0.000000000000000
 51
90.000000000000000
  0
LINE
  8
0
  6
CONTINUOUS
 62
3
 10
-145.935655530631150
 20
-151.338816670225240
 11
-216.935655530631040
 21
-151.338816670225240
  0
LINE
  8
0
  6
CONTINUOUS
 62
3
 10
-143.935655530631150
 20
-182.838816670225240
 11
-143.935655530631150
 21
-212.338816670225240
  0
LINE
  8
0
  6
CONTINUOUS
 62
3
 10
-144.935655530631150
 20
-153.838816670225240
 11
-144.935655530631150
 21
-182.838816670225240
  0
LINE
  8
0
  6
CONTINUOUS
 62
3
 10
-143.935655530631150
 20
-182.838816670225240
 11
-143.935655530631150
 21
-153.338816670225240
  0
LINE
  8
0
  6
CONTINUOUS
 62
3
 10
-221.935655530630580
 20
-236.578931770663080
 11
-223.935655530630580
 21
-234.926290131539640
  0
LINE
  8
0
  6
CONTINUOUS
 62
3
 10
-219.935655530630580
 20
-237.754717256285400
 11
-221.935655530630580
 21
-236.578931770663080
  0
LINE
  8
0
  6
CONTINUOUS
 62
3
 10
-221.935655530630580
 20
-236.578931770663080
 11
-219.935655530630580
 21
-234.926290131539640
  0
LINE
  8
0
  6
CONTINUOUS
 62
3
 10
-223.935655530630580
 20
-237.754717256285400
 11
-221.935655530630580
 21
-236.578931770663080
  0
POLYLINE
  8
0
  6
CONTINUOUS
 62
3
 66
1
 70
1
  0
VERTEX
  8
0
  6
CONTINUOUS
 62
3
 10
-217.235655530630590
 20
-234.762341702285080
  0
VERTEX
  8
0
  6
CONTINUOUS
 62
3
 10
-217.325964712735410
 20
-234.059384736084720
  0
VERTEX
  8
0
  6
CONTINUOUS
 62
3
 10
-217.593421727827550
 20
-233.383442011872630
  0
VERTEX
  8
0
  6
CONTINUOUS
 62
3
 10
-218.027748352808630
 20
-232.760489629467230
  0
VERTEX
  8
0
  6
CONTINUOUS
 62
3
 10
-218.612253659053810
 20
-232.214467299568640
  0
VERTEX
  8
0
  6
CONTINUOUS
 62
3
 10
-219.324475435438470
 20
-231.766358354102010
  0
VERTEX
  8
0
  6
CONTINUOUS
 62
3
 10
-220.137043398514660
 20
-231.433383368539270
  0
VERTEX
  8
0
  6
CONTINUOUS
 62
3
 10
-221.018731017154780
 20
-231.228338384841010
  0
VERTEX
  8
0
  6
CONTINUOUS
 62
3
 10
-221.935655530630580
 20
-231.159103166740240
  0
VERTEX
  8
0
  6
CONTINUOUS
 62
3
 10
-222.852580044106390
 20
-231.228338384841010
  0
VERTEX
  8
0
  6
CONTINUOUS
 62
3
 10
-223.734267662746500
 20
-231.433383368539270
  0
VERTEX
  8
0
  6
CONTINUOUS
 62
3
 10
-224.546835625822690
 20
-231.766358354102010
  0
VERTEX
  8
0
  6
CONTINUOUS
 62
3
 10
-225.259057402207360
 20
-232.214467299568640
  0
VERTEX
  8
0
  6
CONTINUOUS
 62
3
 10
-225.843562708452540
 20
-232.760489629467230
  0
VERTEX
  8
0
  6
CONTINUOUS
 62
3
 10
-226.277889333433620
 20
-233.383442011872630
  0
VERTEX
  8
0
  6
CONTINUOUS
 62
3
 10
-226.545346348525750
 20
-234.059384736084720
  0
VERTEX
  8
0
  6
CONTINUOUS
 62
3
 10
-226.635655530630570
 20
-234.762341702285080
  0
VERTEX
  8
0
  6
CONTINUOUS
 62
3
 10
-226.545346348525750
 20
-235.465298668485450
  0
VERTEX
  8
0
  6
CONTINUOUS
 62
3
 10
-226.277889333433620
 20
-236.141241392697540
  0
VERTEX
  8
0
  6
CONTINUOUS
 62
3
 10
-225.843562708452540
 20
-236.764193775102940
  0
VERTEX
  8
0
  6
CONTINUOUS
 62
3
 10
-225.259057402207330
 20
-237.310216105001530
  0
VERTEX
  8
0
  6
CONTINUOUS
 62
3
 10
-224.546835625822690
 20
-237.758325050468160
  0
VERTEX
  8
0
  6
CONTINUOUS
 62
3
 10
-223.734267662746500
 20
-238.091300036030900
  0
VERTEX
  8
0
  6
CONTINUOUS
 62
3
 10
-222.852580044106390
 20
-238.296345019729160
  0
VERTEX
  8
0
  6
CONTINUOUS
 62
3
 10
-221.935655530630580
 20
-238.365580237829930
  0
VERTEX
  8
0
  6
CONTINUOUS
 62
3
 10
-221.018731017154780
 20
-238.296345019729160
  0
VERTEX
  8
0
  6
CONTINUOUS
 62
3
 10
-220.137043398514660
 20
-238.091300036030900
  0
VERTEX
  8
0
  6
CONTINUOUS
 62
3
 10
-219.324475435438470
 20
-237.758325050468160
  0
VERTEX
  8
0
  6
CONTINUOUS
 62
3
 10
-218.612253659053830
 20
-237.310216105001530
  0
VERTEX
  8
0
  6
CONTINUOUS
 62
3
 10
-218.027748352808630
 20
-236.764193775102940
  0
VERTEX
  8
0
  6
CONTINUOUS
 62
3
 10
-217.593421727827550
 20
-236.141241392697540
  0
VERTEX
  8
0
  6
CONTINUOUS
 62
3
 10
-217.325964712735410
 20
-235.465298668485450
  0
SEQEND
  8
0
  6
CONTINUOUS
 62
3
  0
LINE
  8
0
  6
CONTINUOUS
 62
3
 10
-221.935655530630580
 20
-129.098701569787640
 11
-223.935655530630580
 21
-130.751343208911070
  0
LINE
  8
0
  6
CONTINUOUS
 62
3
 10
-219.935655530630580
 20
-127.922916084164850
 11
-221.935655530630580
 21
-129.098701569787640
  0
LINE
  8
0
  6
CONTINUOUS
 62
3
 10
-221.935655530630580
 20
-129.098701569787640
 11
-219.935655530630580
 21
-130.751343208911070
  0
LINE
  8
0
  6
CONTINUOUS
 62
3
 10
-223.935655530630580
 20
-127.922916084164850
 11
-221.935655530630580
 21
-129.098701569787640
  0
POLYLINE
  8
0
  6
CONTINUOUS
 62
3
 66
1
 70
1
  0
VERTEX
  8
0
  6
CONTINUOUS
 62
3
 10
-217.235655530630590
 20
-130.915291638165170
  0
VERTEX
  8
0
  6
CONTINUOUS
 62
3
 10
-217.325964712735410
 20
-130.212334671964810
  0
VERTEX
  8
0
  6
CONTINUOUS
 62
3
 10
-217.593421727827550
 20
-129.536391947752720
  0
VERTEX
  8
0
  6
CONTINUOUS
 62
3
 10
-218.027748352808630
 20
-128.913439565347320
  0
VERTEX
  8
0
  6
CONTINUOUS
 62
3
 10
-218.612253659053810
 20
-128.367417235448730
  0
VERTEX
  8
0
  6
CONTINUOUS
 62
3
 10
-219.324475435438470
 20
-127.919308289982120
  0
VERTEX
  8
0
  6
CONTINUOUS
 62
3
 10
-220.137043398514660
 20
-127.586333304419350
  0
VERTEX
  8
0
  6
CONTINUOUS
 62
3
 10
-221.018731017154780
 20
-127.381288320721110
  0
VERTEX
  8
0
  6
CONTINUOUS
 62
3
 10
-221.935655530630580
 20
-127.312053102620330
  0
VERTEX
  8
0
  6
CONTINUOUS
 62
3
 10
-222.852580044106390
 20
-127.381288320721110
  0
VERTEX
  8
0
  6
CONTINUOUS
 62
3
 10
-223.734267662746500
 20
-127.586333304419350
  0
VERTEX
  8
0
  6
CONTINUOUS
 62
3
 10
-224.546835625822690
 20
-127.919308289982120
  0
VERTEX
  8
0
  6
CONTINUOUS
 62
3
 10
-225.259057402207360
 20
-128.367417235448730
  0
VERTEX
  8
0
  6
CONTINUOUS
 62
3
 10
-225.843562708452540
 20
-128.913439565347320
  0
VERTEX
  8
0
  6
CONTINUOUS
 62
3
 10
-226.277889333433620
 20
-129.536391947752720
  0
VERTEX
  8
0
  6
CONTINUOUS
 62
3
 10
-226.545346348525750
 20
-130.212334671964810
  0
VERTEX
  8
0
  6
CONTINUOUS
 62
3
 10
-226.635655530630570
 20
-130.915291638165170
  0
VERTEX
  8
0
  6
CONTINUOUS
 62
3
 10
-226.545346348525750
 20
-131.618248604365530
  0
VERTEX
  8
0
  6
CONTINUOUS
 62
3
 10
-226.277889333433620
 20
-132.294191328577630
  0
VERTEX
  8
0
  6
CONTINUOUS
 62
3
 10
-225.843562708452540
 20
-132.917143710983030
  0
VERTEX
  8
0
  6
CONTINUOUS
 62
3
 10
-225.259057402207330
 20
-133.463166040881620
  0
VERTEX
  8
0
  6
CONTINUOUS
 62
3
 10
-224.546835625822690
 20
-133.911274986348220
  0
VERTEX
  8
0
  6
CONTINUOUS
 62
3
 10
-223.734267662746500
 20
-134.244249971910990
  0
VERTEX
  8
0
  6
CONTINUOUS
 62
3
 10
-222.852580044106390
 20
-134.449294955609250
  0
VERTEX
  8
0
  6
CONTINUOUS
 62
3
 10
-221.935655530630580
 20
-134.518530173709990
  0
VERTEX
  8
0
  6
CONTINUOUS
 62
3
 10
-221.018731017154780
 20
-134.449294955609250
  0
VERTEX
  8
0
  6
CONTINUOUS
 62
3
 10
-220.137043398514660
 20
-134.244249971910990
  0
VERTEX
  8
0
  6
CONTINUOUS
 62
3
 10
-219.324475435438470
 20
-133.911274986348220
  0
VERTEX
  8
0
  6
CONTINUOUS
 62
3
 10
-218.612253659053830
 20
-133.463166040881620
  0
VERTEX
  8
0
  6
CONTINUOUS
 62
3
 10
-218.027748352808630
 20
-132.917143710983030
  0
VERTEX
  8
0
  6
CONTINUOUS
 62
3
 10
-217.593421727827550
 20
-132.294191328577630
  0
VERTEX
  8
0
  6
CONTINUOUS
 62
3
 10
-217.325964712735410
 20
-131.618248604365530
  0
SEQEND
  8
0
  6
CONTINUOUS
 62
3
  0
ARC
  8
0
  6
CONTINUOUS
 62
3
 10
-259.335655530580880
 20
-230.282021727470690
 40
2.600000000000136
 50
180.000000000000000
 51
234.999999999998610
  0
LINE
  8
0
  6
CONTINUOUS
 62
3
 10
-251.101208480072500
 20
-239.221857556005030
 11
-260.826954265093490
 21
-232.411817042621810
  0
ARC
  8
0
  6
CONTINUOUS
 62
3
 10
-239.629679753051510
 20
-222.838816670225240
 40
20.000000000000007
 50
234.999999999999740
 51
270.000000000000000
  0
LINE
  8
0
  6
CONTINUOUS
 62
3
 10
-261.935655530581020
 20
-182.838816670225240
 11
-261.935655530581020
 21
-230.282021727470690
  0
LINE
  8
0
  6
CONTINUOUS
 62
3
 10
-210.935655530631150
 20
-242.838816670225240
 11
-239.629679753051510
 21
-242.838816670225240
  0
LINE
  8
0
  6
CONTINUOUS
 62
3
 10
-61.935655530631266
 20
-241.338816670225240
 11
-210.935655530631150
 21
-241.338816670225240
  0
LINE
  8
0
  6
CONTINUOUS
 62
3
 10
-220.935655530631040
 20
-217.838816670225240
 11
-220.935655530631040
 21
-182.838816670225240
  0
ARC
  8
0
  6
CONTINUOUS
 62
3
 10
-213.935655530631150
 20
-223.838816670225240
 40
3.000000000000000
 50
0.000000000000000
 51
90.000000000000000
  0
LINE
  8
0
  6
CONTINUOUS
 62
3
 10
-213.935655530631150
 20
-220.838816670225240
 11
-217.935655530631040
 21
-220.838816670225240
  0
ARC
  8
0
  6
CONTINUOUS
 62
3
 10
-217.935655530631040
 20
-217.838816670225240
 40
3.000000000000000
 50
180.000000000000000
 51
270.000000000000000
  0
LINE
  8
0
  6
CONTINUOUS
 62
3
 10
-210.935655530631150
 20
-223.838816670225240
 11
-210.935655530631150
 21
-242.838816670225240
  0
LINE
  8
0
  6
CONTINUOUS
 62
4
 10
-220.935655530631040
 20
-214.589608386599590
 11
-61.935655530631266
 21
-214.589608386599590
  0
LINE
  8
0
  6
CONTINUOUS
 62
4
 10
-220.849319319627970
 20
-218.553353810399130
 11
-61.935655530631266
 21
-218.553353810399130
  0
LINE
  8
0
  6
CONTINUOUS
 62
4
 10
-219.838648089011260
 20
-220.158001725961190
 11
-61.935655530631266
 21
-220.158001725961190
  0
LINE
  8
0
  6
CONTINUOUS
 62
4
 10
-210.935655530631150
 20
-228.204603388694980
 11
-61.935655530631266
 21
-228.204603388694980
  0
LINE
  8
0
  6
CONTINUOUS
 62
4
 10
-210.935655530631150
 20
-233.154350857000740
 11
-61.935655530631266
 21
-233.154350857000740
  0
LINE
  8
0
  6
CONTINUOUS
 62
4
 10
-210.935655530631150
 20
-237.838816670225240
 11
-61.935655530631266
 21
-237.838816670225240
  0
LINE
  8
0
  6
CONTINUOUS
 62
4
 10
-210.935655530631150
 20
-238.838816670225240
 11
-61.935655530631266
 21
-238.838816670225240
  0
LINE
  8
0
  6
CONTINUOUS
 62
4
 10
-210.935655530631150
 20
-240.338816670225240
 11
-61.935655530631266
 21
-240.338816670225240
  0
LINE
  8
0
  6
CONTINUOUS
 62
4
 10
-210.935655530631150
 20
-239.838816670225240
 11
-61.935655530631266
 21
-239.838816670225240
  0
LINE
  8
0
  6
CONTINUOUS
 62
4
 10
-220.935655530631040
 20
-202.838816670225240
 11
-218.935655530631040
 21
-202.838816670225240
  0
LINE
  8
0
  6
CONTINUOUS
 62
4
 10
-143.935655530631150
 20
-202.838816670225240
 11
-61.935655530631266
 21
-202.838816670225240
  0
LINE
  8
0
  6
CONTINUOUS
 62
4
 10
-220.935655530631040
 20
-209.030750462704870
 11
-218.935655530631040
 21
-209.030750462704870
  0
LINE
  8
0
  6
CONTINUOUS
 62
4
 10
-143.935655530631150
 20
-209.030750462704870
 11
-61.935655530631266
 21
-209.030750462704870
  0
LINE
  8
0
  6
CONTINUOUS
 62
4
 10
-220.935655530631040
 20
-207.668870127355600
 11
-218.935655530631040
 21
-207.668870127355600
  0
LINE
  8
0
  6
CONTINUOUS
 62
4
 10
-143.935655530631150
 20
-207.668870127355600
 11
-61.935655530631266
 21
-207.668870127355600
  0
LINE
  8
0
  6
CONTINUOUS
 62
4
 10
-220.935655530631040
 20
-213.121250996794520
 11
-218.776252315537250
 21
-213.121250996794520
  0
LINE
  8
0
  6
CONTINUOUS
 62
4
 10
-144.095058745725050
 20
-213.121250996794520
 11
-61.935655530631266
 21
-213.121250996794520
  0
ARC
  8
0
  6
CONTINUOUS
 62
3
 10
-259.335655530580880
 20
-135.395611612979790
 40
2.599999999999721
 50
125.000000000001370
 51
180.000000000000000
  0
LINE
  8
0
  6
CONTINUOUS
 62
3
 10
-251.101208480072500
 20
-126.455775784445450
 11
-260.826954265093490
 21
-133.265816297828680
  0
ARC
  8
0
  6
CONTINUOUS
 62
3
 10
-239.629679753051510
 20
-142.838816670225240
 40
20.000000000000000
 50
90.000000000000000
 51
125.000000000000240
  0
LINE
  8
0
  6
CONTINUOUS
 62
3
 10
-261.935655530581020
 20
-182.838816670225240
 11
-261.935655530581020
 21
-135.395611612979790
  0
LINE
  8
0
  6
CONTINUOUS
 62
3
 10
-210.935655530631150
 20
-122.838816670225240
 11
-239.629679753051510
 21
-122.838816670225240
  0
LINE
  8
0
  6
CONTINUOUS
 62
3
 10
-61.935655530631266
 20
-124.338816670225240
 11
-210.935655530631150
 21
-124.338816670225240
  0
LINE
  8
0
  6
CONTINUOUS
 62
3
 10
-220.935655530631040
 20
-147.838816670225240
 11
-220.935655530631040
 21
-182.838816670225240
  0
ARC
  8
0
  6
CONTINUOUS
 62
3
 10
-213.935655530631150
 20
-141.838816670225240
 40
3.000000000000000
 50
270.000000000000000
 51
0.000000000000000
  0
LINE
  8
0
  6
CONTINUOUS
 62
3
 10
-213.935655530631150
 20
-144.838816670225240
 11
-217.935655530631040
 21
-144.838816670225240
  0
ARC
  8
0
  6
CONTINUOUS
 62
3
 10
-217.935655530631040
 20
-147.838816670225240
 40
3.000000000000000
 50
90.000000000000000
 51
180.000000000000000
  0
LINE
  8
0
  6
CONTINUOUS
 62
3
 10
-210.935655530631150
 20
-141.838816670225240
 11
-210.935655530631150
 21
-122.838816670225240
  0
LINE
  8
0
  6
CONTINUOUS
 62
4
 10
-220.935655530631040
 20
-151.088024953850890
 11
-61.935655530631266
 21
-151.088024953850890
  0
LINE
  8
0
  6
CONTINUOUS
 62
4
 10
-220.849319319627970
 20
-147.124279530051350
 11
-61.935655530631266
 21
-147.124279530051350
  0
LINE
  8
0
  6
CONTINUOUS
 62
4
 10
-219.838648089011260
 20
-145.519631614489300
 11
-61.935655530631266
 21
-145.519631614489300
  0
LINE
  8
0
  6
CONTINUOUS
 62
4
 10
-210.935655530631150
 20
-137.473029951755510
 11
-61.935655530631266
 21
-137.473029951755510
  0
LINE
  8
0
  6
CONTINUOUS
 62
4
 10
-210.935655530631150
 20
-132.523282483449750
 11
-61.935655530631266
 21
-132.523282483449750
  0
LINE
  8
0
  6
CONTINUOUS
 62
4
 10
-210.935655530631150
 20
-127.838816670225240
 11
-61.935655530631266
 21
-127.838816670225240
  0
LINE
  8
0
  6
CONTINUOUS
 62
4
 10
-210.935655530631150
 20
-126.838816670225240
 11
-61.935655530631266
 21
-126.838816670225240
  0
LINE
  8
0
  6
CONTINUOUS
 62
4
 10
-210.935655530631150
 20
-125.338816670225240
 11
-61.935655530631266
 21
-125.338816670225240
  0
LINE
  8
0
  6
CONTINUOUS
 62
4
 10
-210.935655530631150
 20
-125.838816670225240
 11
-61.935655530631266
 21
-125.838816670225240
  0
LINE
  8
0
  6
CONTINUOUS
 62
4
 10
-220.935655530631040
 20
-162.838816670225240
 11
-218.935655530631040
 21
-162.838816670225240
  0
LINE
  8
0
  6
CONTINUOUS
 62
4
 10
-143.935655530631150
 20
-162.838816670225240
 11
-61.935655530631266
 21
-162.838816670225240
  0
LINE
  8
0
  6
CONTINUOUS
 62
4
 10
-220.935655530631040
 20
-156.646882877745610
 11
-218.935655530631040
 21
-156.646882877745610
  0
LINE
  8
0
  6
CONTINUOUS
 62
4
 10
-143.935655530631150
 20
-156.646882877745610
 11
-61.935655530631266
 21
-156.646882877745610
  0
LINE
  8
0
  6
CONTINUOUS
 62
4
 10
-220.935655530631040
 20
-158.008763213094880
 11
-218.935655530631040
 21
-158.008763213094880
  0
LINE
  8
0
  6
CONTINUOUS
 62
4
 10
-143.935655530631150
 20
-158.008763213094880
 11
-61.935655530631266
 21
-158.008763213094880
  0
LINE
  8
0
  6
CONTINUOUS
 62
4
 10
-220.935655530631040
 20
-152.556382343655970
 11
-218.776252315537250
 21
-152.556382343655970
  0
LINE
  8
0
  6
CONTINUOUS
 62
4
 10
-144.095058745725050
 20
-152.556382343655970
 11
-61.935655530631266
 21
-152.556382343655970
  0
LINE
  8
0
  6
CONTINUOUS
 62
3
 10
-48.197335311845904
 20
-123.618821816479340
 11
-61.935655530631266
 21
-124.338816670225240
  0
LINE
  8
0
  6
CONTINUOUS
 62
3
 10
-5.435655530631266
 20
-147.338816670225700
 11
-37.935655530631834
 21
-147.338816670225700
  0
LINE
  8
0
  6
CONTINUOUS
 62
3
 10
-5.293772353382110
 20
-136.338816670225470
 11
-37.935655530631379
 21
-136.338816670225470
  0
LINE
  8
0
  6
CONTINUOUS
 62
3
 10
-42.935655530633085
 20
-173.338816670225240
 11
-42.935655530631379
 21
-131.338816670225240
  0
ARC
  8
0
  6
CONTINUOUS
 62
3
 10
-37.935655530631834
 20
-142.338816670225700
 40
5.000000000000000
 50
179.999999999997410
 51
270.000000000000000
  0
ARC
  8
0
  6
CONTINUOUS
 62
3
 10
-37.935655530631379
 20
-131.338816670225470
 40
5.000000000000000
 50
179.999999999997410
 51
270.000000000000000
  0
LINE
  8
0
  6
CONTINUOUS
 62
3
 10
-42.935655530631379
 20
-131.338816670225240
 11
-42.935655530631266
 21
-128.611969490252480
  0
ARC
  8
0
  6
CONTINUOUS
 62
3
 10
-47.935655530631266
 20
-128.611969490252250
 40
5.000000000000000
 50
359.999999999997390
 51
92.999999999999048
  0
LINE
  8
0
  6
CONTINUOUS
 62
3
 10
-37.935655530633085
 20
-178.338816670225470
 11
-3.435655530631266
 21
-178.338816670225470
  0
ARC
  8
0
  6
CONTINUOUS
 62
3
 10
-37.935655530633085
 20
-173.338816670225470
 40
5.000000000000000
 50
179.999999999997410
 51
270.000000000000000
  0
LINE
  8
0
  6
CONTINUOUS
 62
3
 10
-42.935655530632630
 20
-162.838816670227290
 11
-61.935655530631266
 21
-162.838816670227290
  0
LINE
  8
0
  6
CONTINUOUS
 62
3
 10
-61.935655530631266
 20
-241.338816670225470
 11
-61.935655530631266
 21
-124.338816670224780
  0
LINE
  8
0
  6
CONTINUOUS
 62
3
 10
-14.001625079230848
 20
-243.850932758271940
 11
-61.935655530635017
 21
-241.338816670225240
  0
LINE
  8
0
  6
CONTINUOUS
 62
3
 10
-1.428696307430641
 20
-290.508333560507940
 11
-35.755507384966108
 21
-244.517027446844170
  0
LINE
  8
0
  6
CONTINUOUS
 62
3
 10
-61.935655530631266
 20
-202.838816670227290
 11
-3.435655530631266
 21
-202.838816670227290
  0
LINE
  8
0
  6
CONTINUOUS
 62
3
 10
-61.935655530631266
 20
-224.035839094491280
 11
-39.435655530631266
 21
-224.035839094491390
  0
LINE
  8
0
  6
CONTINUOUS
 62
3
 10
-34.435655530631266
 20
-242.780030600510830
 11
-34.435655530631266
 21
-229.035839094491390
  0
ARC
  8
0
  6
CONTINUOUS
 62
3
 10
-39.435655530631266
 20
-229.035839094491390
 40
5.000000000000000
 50
0.000000000000000
 51
90.000000000000000
  0
ARC
  8
0
  6
CONTINUOUS
 62
3
 10
-39.762466608166733
 20
-247.507725991266170
 40
5.000000000000044
 50
36.736779968242502
 51
86.999999999997044
  0
LINE
  8
0
  6
CONTINUOUS
 62
3
 10
-0.435655530631266
 20
-132.838816670225470
 11
-0.435655530631266
 21
-281.131053754377720
  0
ARC
  8
0
  6
CONTINUOUS
 62
3
 10
-3.435655530631266
 20
-205.838816670227290
 40
3.000000000000000
 50
0.000000000000000
 51
90.000000000000000
  0
LINE
  8
0
  6
CONTINUOUS
 62
3
 10
2.564344469368734
 20
-129.838816670225470
 11
9.564344469368734
 21
-129.838816670225470
  0
ARC
  8
0
  6
CONTINUOUS
 62
3
 10
2.564344469368734
 20
-132.838816670225470
 40
3.000000000000000
 50
90.000000000000000
 51
180.000000000000000
  0
ARC
  8
0
  6
CONTINUOUS
 62
3
 10
-5.293772353382110
 20
-131.338816670225470
 40
5.000000000000000
 50
270.000000000000000
 51
349.193077125139720
  0
ARC
  8
0
  6
CONTINUOUS
 62
3
 10
-5.435655530631266
 20
-142.338816670225700
 40
5.000000000000000
 50
270.000000000000000
 51
0.000000000000000
  0
ARC
  8
0
  6
CONTINUOUS
 62
3
 10
-14.263304860445828
 20
-248.844080432044850
 40
4.999999999999903
 50
15.000000000000158
 51
86.999999999997044
  0
LINE
  8
0
  6
CONTINUOUS
 62
3
 10
-5.256453121517836
 20
-263.139592212183290
 11
-9.433675729000583
 21
-247.549985206532260
  0
LINE
  8
0
  6
CONTINUOUS
 62
3
 10
-0.435655530631266
 20
-281.131053754377940
 11
-0.435655530631266
 21
-293.592542650886800
  0
LINE
  8
0
  6
CONTINUOUS
 62
3
 10
2.459645979261268
 20
-296.590715131944080
 11
9.564344469368734
 21
-296.838816670225470
  0
ARC
  8
0
  6
CONTINUOUS
 62
3
 10
2.564344469368734
 20
-293.592542650886800
 40
3.000000000000000
 50
180.000000000000000
 51
268.000000000000680
  0
POINT
  8
0
  6
CONTINUOUS
 62
3
 10
-0.435655530631266
 20
-291.838816670225470
  0
ARC
  8
0
  6
CONTINUOUS
 62
3
 10
-5.435655530631266
 20
-293.499032104929710
 40
5.000000000000000
 50
0.000000000000000
 51
36.736779968240413
  0
LINE
  8
0
  6
CONTINUOUS
 62
3
 10
-0.435655530631266
 20
-281.131053754377940
 11
-2.576961197206458
 21
-273.139592212183290
  0
LINE
  8
0
  6
CONTINUOUS
 62
3
 10
9.564344469368734
 20
-129.838816670225470
 11
9.564344469368734
 21
-284.338816670225240
  0
LINE
  8
0
  6
CONTINUOUS
 62
3
 10
9.564344469368734
 20
-296.838816670225470
 11
9.564344469368734
 21
-284.338816670225240
  0
LINE
  8
0
  6
DASHDOT
 62
4
 10
-20.435655530631266
 20
-161.082928661944610
 11
-20.435655530631266
 21
-132.443026401129150
  0
ARC
  8
0
  6
CONTINUOUS
 62
3
 10
-3.435655530631266
 20
-175.338816670225470
 40
3.000000000000000
 50
270.000000000000000
 51
0.000000000000000
  0
LINE
  8
0
  6
DASHDOT
 62
4
 10
-43.616268880072312
 20
-182.838816670225240
 11
-279.308958306755810
 21
-182.838816670225240
  0
INSERT
  8
0
  2
SYM8
 10
-408.025518087607910
 20
-268.139592212181010
  0
INSERT
  8
0
  2
SYM9
 10
-517.627069171523090
 20
-268.139592212181010
  0
INSERT
  8
0
  2
SYM10
 10
-452.326293629565040
 20
-81.338816670223650
  0
INSERT
  8
0
  2
SYM11
 10
-412.826293629565040
 20
-82.338817483116827
  0
INSERT
  8
0
  2
SYM12
 10
-341.826293629565040
 20
-151.338817483116600
  0
INSERT
  8
0
  2
SYM13
 10
-340.826293629564590
 20
-241.338816670223200
  0
INSERT
  8
0
  2
SYM14
 10
-385.326293629565040
 20
-333.338816670223200
  0
INSERT
  8
0
  2
SYM15
 10
-455.326293629565040
 20
-332.338816670223200
  0
INSERT
  8
0
  2
SYM16
 10
-583.826293629565040
 20
-151.338817483116830
 41
-1.000000000000000
  0
INSERT
  8
0
  2
SYM17
 10
-584.826293629565500
 20
-241.338816670223420
 41
-1.000000000000000
  0
INSERT
  8
0
  2
SYM18
 10
-540.326293629564590
 20
-333.338816670223200
 41
-1.000000000000000
  0
INSERT
  8
0
  2
SYM19
 10
-473.326293629565040
 20
-81.338816670223650
 41
-1.000000000000000
  0
INSERT
  8
0
  2
SYM20
 10
-512.826293629565040
 20
-82.338817483116827
 41
-1.000000000000000
  0
INSERT
  8
0
  2
SYM21
 10
-550.271115835908400
 20
-223.757773281485670
 41
1.000000000000000
 42
1.000000000000000
 43
1.000000000000000
 50
357.137594773886350
  0
ARC
  8
0
  6
CONTINUOUS
 62
3
 10
-462.826293629565500
 20
-213.338816670223420
 40
34.999999999999972
 50
235.503770534084650
 51
270.000000000000000
  0
ARC
  8
0
  6
CONTINUOUS
 62
3
 10
-476.326293629565500
 20
-226.838816670223420
 40
70.000000000000000
 50
180.000000000000000
 51
270.000000000000000
  0
ARC
  8
0
  6
CONTINUOUS
 62
3
 10
-449.326293629565500
 20
-226.838816670223420
 40
70.000000000000000
 50
270.000000000000000
 51
0.000000000000000
  0
LINE
  8
0
  6
CONTINUOUS
 62
3
 10
-546.326293629565500
 20
-217.603285688636620
 11
-546.326293629565500
 21
-226.838816670223420
  0
LINE
  8
0
  6
CONTINUOUS
 62
3
 10
-449.326293629565500
 20
-296.838816670223420
 11
-476.326293629565500
 21
-296.838816670223420
  0
LINE
  8
0
  6
CONTINUOUS
 62
3
 10
-379.326293629565500
 20
-212.838816670224760
 11
-379.326293629565500
 21
-226.838816670223420
  0
ARC
  8
0
  6
CONTINUOUS
 62
3
 10
-449.326293629565500
 20
-199.838816670223420
 40
70.000000000000000
 50
42.177418600897667
 51
44.693064059691736
  0
ARC
  8
0
  6
CONTINUOUS
 62
3
 10
-476.326293629565500
 20
-199.838816670223420
 40
70.000000000000057
 50
135.313567302927940
 51
137.401051550009840
  0
LINE
  8
0
  6
CONTINUOUS
 62
3
 10
-440.326293629565500
 20
-242.842545730452230
 11
-440.326293629565500
 21
-288.838816670223420
  0
LINE
  8
0
  6
CONTINUOUS
 62
3
 10
-445.326293629565500
 20
-248.463594249590640
 11
-445.326293629565500
 21
-288.838816670223420
  0
LINE
  8
0
  6
CONTINUOUS
 62
3
 10
-480.326293629565500
 20
-248.463594249590640
 11
-480.326293629565500
 21
-288.838816670223420
  0
LINE
  8
0
  6
CONTINUOUS
 62
3
 10
-485.326293629565500
 20
-242.842545730452230
 11
-485.326293629565500
 21
-288.838816670223420
  0
ARC
  8
0
  6
CONTINUOUS
 62
3
 10
-437.326293629565500
 20
-288.838816670223420
 40
3.000000000000000
 50
180.000000000000000
 51
270.000000000000000
  0
ARC
  8
0
  6
CONTINUOUS
 62
3
 10
-448.326293629565500
 20
-288.838816670223420
 40
3.000000000000000
 50
270.000000000000000
 51
0.000000000000000
  0
ARC
  8
0
  6
CONTINUOUS
 62
3
 10
-477.326293629565500
 20
-288.838816670223420
 40
3.000000000000000
 50
180.000000000000000
 51
270.000000000000000
  0
ARC
  8
0
  6
CONTINUOUS
 62
3
 10
-488.326293629565500
 20
-288.838816670223420
 40
3.000000000000000
 50
270.000000000000000
 51
0.000000000000000
  0
ARC
  8
0
  6
CONTINUOUS
 62
3
 10
-437.326293629565500
 20
-242.842545730452230
 40
3.000000000000287
 50
163.413785109983450
 51
180.000000000000000
  0
ARC
  8
0
  6
CONTINUOUS
 62
3
 10
-448.326293629565500
 20
-248.463594249590640
 40
3.000000000000000
 50
0.000000000000000
 51
112.431520635375430
  0
ARC
  8
0
  6
CONTINUOUS
 62
3
 10
-477.326293629565500
 20
-248.463594249590640
 40
3.000000000000127
 50
67.568479364624565
 51
180.000000000000000
  0
ARC
  8
0
  6
CONTINUOUS
 62
3
 10
-488.326293629565500
 20
-242.842545730452230
 40
3.000000000000000
 50
0.000000000000000
 51
16.586214890021640
  0
ARC
  8
0
  6
CONTINUOUS
 62
3
 10
-408.025518087607910
 20
-268.139592212181010
 40
7.500000000000062
 50
57.076446369969339
 51
212.923553630030680
  0
ARC
  8
0
  6
CONTINUOUS
 62
3
 10
-517.627069171523090
 20
-268.139592212181010
 40
7.500000000000062
 50
327.076446369969290
 51
122.923553630030650
  0
ARC
  8
0
  6
CONTINUOUS
 62
3
 10
-402.318562686326460
 20
-259.325928952912140
 40
3.000000000000014
 50
237.076446369971220
 51
322.764423686621970
  0
ARC
  8
0
  6
CONTINUOUS
 62
3
 10
-416.839181346877010
 20
-273.846547613462460
 40
3.000000000000068
 50
307.235576313381440
 51
32.923553630026383
  0
ARC
  8
0
  6
CONTINUOUS
 62
3
 10
-508.813405912253980
 20
-273.846547613462460
 40
3.000000000000205
 50
147.076446369973640
 51
232.764423686618530
  0
ARC
  8
0
  6
CONTINUOUS
 62
3
 10
-523.334024572804540
 20
-259.325928952912140
 40
2.999999999999930
 50
217.235576313378060
 51
302.923553630028720
  0
LINE
  8
0
  6
CONTINUOUS
 62
3
 10
-466.326293629565040
 20
-43.971319672626123
 11
-466.326293629565040
 21
-62.706313667820723
  0
LINE
  8
0
  6
CONTINUOUS
 62
3
 10
-459.326293629565040
 20
-43.971319672625441
 11
-459.326293629565040
 21
-62.706313667821405
  0
LINE
  8
0
  6
CONTINUOUS
 62
3
 10
-348.563460816328190
 20
-64.025731325292099
 11
-369.887781092802470
 21
-85.350051601766381
  0
LINE
  8
0
  6
CONTINUOUS
 62
3
 10
-355.332901907209820
 20
-60.895677479561755
 11
-377.150177326668650
 21
-82.712952899021047
  0
LINE
  8
0
  6
CONTINUOUS
 62
3
 10
-577.089126442802350
 20
-64.025731325292099
 11
-555.764806166328070
 21
-85.350051601766381
  0
LINE
  8
0
  6
CONTINUOUS
 62
3
 10
-570.319685351921180
 20
-60.895677479561755
 11
-548.502409932461890
 21
-82.712952899021047
  0
LINE
  8
0
  6
CONTINUOUS
 62
3
 10
-459.326293629565040
 20
-33.321356285477805
 11
-459.326293629565040
 21
-33.338816670223423
  0
LINE
  8
0
  6
CONTINUOUS
 62
3
 10
-466.326293629565040
 20
-33.321356285477805
 11
-466.326293629565040
 21
-33.338816670223423
  0
LINE
  8
0
  6
CONTINUOUS
 62
3
 10
-320.326293629565040
 20
-330.838816670224110
 11
-374.360785846843100
 21
-330.838816670224110
  0
LINE
  8
0
  6
CONTINUOUS
 62
3
 10
-551.220748178096980
 20
-330.838816670224110
 11
-605.326293629565040
 21
-330.838816670224110
  0
LINE
  8
0
  6
CONTINUOUS
 62
3
 10
-305.326293629565040
 20
-30.838816670223650
 11
-305.326293629565040
 21
-315.838816670224110
  0
LINE
  8
0
  6
CONTINUOUS
 62
3
 10
-620.326293629565040
 20
-30.838816670223650
 11
-620.326293629565040
 21
-315.838816670224110
  0
LINE
  8
0
  6
CONTINUOUS
 62
3
 10
-320.326293629565040
 20
-15.838816670223650
 11
-605.326293629565040
 21
-15.838816670223650
  0
LINE
  8
0
  6
DASHDOT
 62
4
 10
-583.387999821871740
 20
-293.900522862530350
 11
-610.965164288146750
 21
-321.477687328805810
  0
LINE
  8
0
  6
DASHDOT
 62
4
 10
-342.264587437258800
 20
-293.900522862530350
 11
-314.687422970983330
 21
-321.477687328805810
  0
LINE
  8
0
  6
DASHDOT
 62
4
 10
-342.264587437258340
 20
-52.777110477917404
 11
-314.687422970983330
 21
-25.199946011642396
  0
LINE
  8
0
  6
DASHDOT
 62
4
 10
-583.387999821871290
 20
-52.777110477917404
 11
-610.965164288146300
 21
-25.199946011641941
  0
ARC
  8
0
  6
CONTINUOUS
 62
3
 10
-358.868435813142240
 20
-57.360143573629102
 40
4.999999999999718
 50
314.999999999998120
 51
57.006973874308571
  0
ARC
  8
0
  6
CONTINUOUS
 62
3
 10
-345.027926910395310
 20
-67.561265231224752
 40
5.000000000000075
 50
50.209020423819034
 51
135.000000000001820
  0
ARC
  8
0
  6
CONTINUOUS
 62
3
 10
-380.685711232601530
 20
-79.177418993088395
 40
4.999999999999973
 50
240.206558325790580
 51
315.000000000001820
  0
ARC
  8
0
  6
CONTINUOUS
 62
3
 10
-366.352247186870040
 20
-88.885585507699261
 40
4.999999999999879
 50
134.999999999996310
 51
231.573261158808440
  0
ARC
  8
0
  6
CONTINUOUS
 62
3
 10
-580.624660348735230
 20
-67.561265231224752
 40
5.000000000000041
 50
44.999999999998167
 51
129.790979576180970
  0
ARC
  8
0
  6
CONTINUOUS
 62
3
 10
-559.300340072260950
 20
-88.885585507699261
 40
5.000000000000195
 50
308.426738841195630
 51
45.000000000000000
  0
ARC
  8
0
  6
CONTINUOUS
 62
3
 10
-544.966876026529010
 20
-79.177418993088395
 40
5.000000000000041
 50
224.999999999998180
 51
299.793441674209420
  0
ARC
  8
0
  6
CONTINUOUS
 62
3
 10
-566.784151445988300
 20
-57.360143573629102
 40
4.999999999999924
 50
122.993026125691440
 51
224.999999999998180
  0
ARC
  8
0
  6
CONTINUOUS
 62
3
 10
-454.326293629565040
 20
-33.321356285477805
 40
5.000000000000000
 50
90.000000000000000
 51
180.000000000000000
  0
ARC
  8
0
  6
CONTINUOUS
 62
3
 10
-461.326293629565040
 20
-44.961739004556648
 40
2.000000000000000
 50
0.000000000000000
 51
33.678870779012470
  0
ARC
  8
0
  6
CONTINUOUS
 62
3
 10
-471.326293629565040
 20
-33.321356285477805
 40
5.000000000000000
 50
0.000000000000000
 51
90.000000000000000
  0
ARC
  8
0
  6
CONTINUOUS
 62
3
 10
-464.326293629565040
 20
-44.961739004556648
 40
2.000000000000244
 50
146.321129221012820
 51
180.000000000000000
  0
CIRCLE
  8
0
  6
CONTINUOUS
 62
3
 10
-597.176582055009020
 20
-307.689105095668080
 40
12.000000000000000
  0
ARC
  8
0
  6
CONTINUOUS
 62
3
 10
-605.326293629565040
 20
-30.838816670223650
 40
15.000000000000000
 50
90.000000000000000
 51
180.000000000000000
  0
ARC
  8
0
  6
CONTINUOUS
 62
3
 10
-605.326293629565040
 20
-315.838816670224110
 40
15.000000000000000
 50
180.000000000000000
 51
270.000000000000000
  0
ARC
  8
0
  6
CONTINUOUS
 62
3
 10
-320.326293629565040
 20
-315.838816670224110
 40
15.000000000000000
 50
270.000000000000000
 51
0.000000000000000
  0
ARC
  8
0
  6
CONTINUOUS
 62
3
 10
-320.326293629565040
 20
-30.838816670223650
 40
15.000000000000000
 50
0.000000000000000
 51
90.000000000000000
  0
ARC
  8
0
  6
DASHDOT
 62
4
 10
-462.826293629565040
 20
-173.338816670223650
 40
190.000000000000260
 50
219.119041968700600
 51
230.880958031302730
  0
ARC
  8
0
  6
DASHDOT
 62
4
 10
-462.826293629565040
 20
-173.338816670223650
 40
190.000000000000310
 50
309.119041968700400
 51
320.880958031302500
  0
CIRCLE
  8
0
  6
CONTINUOUS
 62
3
 10
-328.476005204121070
 20
-307.689105095668080
 40
12.000000000000000
  0
ARC
  8
0
  6
DASHDOT
 62
4
 10
-462.826293629565040
 20
-173.338816670223650
 40
189.999999999999690
 50
39.119041968700387
 51
50.880958031302640
  0
CIRCLE
  8
0
  6
CONTINUOUS
 62
3
 10
-328.476005204121070
 20
-38.988528244779673
 40
12.000000000000000
  0
ARC
  8
0
  6
DASHDOT
 62
4
 10
-462.826293629565040
 20
-173.338816670223650
 40
189.999999999999970
 50
129.119041968700490
 51
140.880958031302610
  0
CIRCLE
  8
0
  6
CONTINUOUS
 62
3
 10
-597.176582055009020
 20
-38.988528244779673
 40
12.000000000000000
  0
ARC
  8
0
  6
CONTINUOUS
 62
3
 10
-571.990029642114680
 20
-116.195895937846670
 40
5.000000000000201
 50
45.000000000000000
 51
143.279272265286270
  0
ARC
  8
0
  6
CONTINUOUS
 62
3
 10
-560.731107996854460
 20
-103.413187022764070
 40
4.999999999999923
 50
133.973975518351350
 51
225.000000000003690
  0
ARC
  8
0
  6
CONTINUOUS
 62
3
 10
-353.662557617015410
 20
-116.195895937846670
 40
5.000000000000055
 50
36.720727734715837
 51
135.000000000000000
  0
LINE
  8
0
  6
CONTINUOUS
 62
3
 10
-462.826293629565040
 20
-93.338816670223650
 11
-445.326293629565040
 21
-93.338816670223650
  0
LINE
  8
0
  6
CONTINUOUS
 62
3
 10
-480.326293629565040
 20
-93.338816670223650
 11
-462.826293629565040
 21
-93.338816670223650
  0
ARC
  8
0
  6
CONTINUOUS
 62
3
 10
-471.326293629565040
 20
-98.338816670223650
 40
5.000000000000000
 50
0.000000000000000
 51
90.000000000000000
  0
ARC
  8
0
  6
CONTINUOUS
 62
3
 10
-454.326293629565040
 20
-98.338816670223650
 40
5.000000000000000
 50
90.000000000000000
 51
180.000000000000000
  0
ARC
  8
0
  6
CONTINUOUS
 62
3
 10
-445.326293629565040
 20
-90.338816670223650
 40
3.000000000000000
 50
270.000000000000000
 51
0.000000000000000
  0
ARC
  8
0
  6
CONTINUOUS
 62
3
 10
-480.326293629565040
 20
-90.338816670223650
 40
3.000000000000000
 50
180.000000000000000
 51
270.000000000000000
  0
ARC
  8
0
  6
CONTINUOUS
 62
3
 10
-364.921479262275620
 20
-103.413187022764070
 40
5.000000000000041
 50
315.000000000001820
 51
46.026024481648633
  0
LINE
  8
0
  6
CONTINUOUS
 62
3
 10
-466.326293629565040
 20
-97.338816670223650
 11
-466.326293629565040
 21
-122.859193275690920
  0
LINE
  8
0
  6
CONTINUOUS
 62
3
 10
-459.326293629565040
 20
-98.338816670223650
 11
-459.326293629565040
 21
-122.859193275690920
  0
LINE
  8
0
  6
CONTINUOUS
 62
3
 10
-327.826293629565040
 20
-178.976988158434550
 11
-327.826293629565040
 21
-228.746062490345820
  0
LINE
  8
0
  6
CONTINUOUS
 62
3
 10
-597.826293629565500
 20
-178.976988158434550
 11
-597.826293629565500
 21
-228.746062490345820
  0
LINE
  8
0
  6
CONTINUOUS
 62
3
 10
-328.505105590865240
 20
-233.912462859384280
 11
-343.918309976723320
 21
-291.554418369213860
  0
LINE
  8
0
  6
CONTINUOUS
 62
3
 10
-597.147481668265750
 20
-233.912462859384280
 11
-581.734277282407670
 21
-291.554418369213860
  0
LINE
  8
0
  6
CONTINUOUS
 62
3
 10
-377.590804625977400
 20
-293.624558205504400
 11
-360.968336377995460
 21
-310.247026453486110
  0
LINE
  8
0
  6
CONTINUOUS
 62
3
 10
-381.599045063123410
 20
-299.515812704969900
 11
-365.283712878940610
 21
-315.831144889152710
  0
LINE
  8
0
  6
CONTINUOUS
 62
3
 10
-399.109849293280150
 20
-144.672624865633680
 11
-361.385945356342750
 21
-106.948720928696730
  0
LINE
  8
0
  6
CONTINUOUS
 62
3
 10
-394.160101824974390
 20
-149.622372333939440
 11
-357.198091522948290
 21
-112.660362031913790
  0
LINE
  8
0
  6
CONTINUOUS
 62
3
 10
-542.724027185944460
 20
-138.390830582150900
 11
-544.255189284541420
 21
-136.859668483553950
  0
LINE
  8
0
  6
CONTINUOUS
 62
3
 10
-526.542737965849940
 20
-144.672624865633680
 11
-543.849520535093230
 21
-127.365842296390550
  0
LINE
  8
0
  6
CONTINUOUS
 62
3
 10
-531.492485434155700
 20
-277.055261006507640
 11
-564.684250881134630
 21
-310.247026453486110
  0
LINE
  8
0
  6
CONTINUOUS
 62
3
 10
-530.103000656502900
 20
-285.565271165466580
 11
-560.368874380189480
 21
-315.831144889152940
  0
ARC
  8
0
  6
CONTINUOUS
 62
3
 10
-437.826293629564590
 20
-178.976988158434550
 40
110.000000000000000
 50
0.000000000000000
 51
87.075476210271844
  0
ARC
  8
0
  6
CONTINUOUS
 62
3
 10
-347.826293629565040
 20
-228.746062490345820
 40
19.999999999999925
 50
345.029598694534740
 51
0.000000000000000
  0
ARC
  8
0
  6
CONTINUOUS
 62
3
 10
-577.826293629565500
 20
-228.746062490345820
 40
20.000000000000000
 50
180.000000000000000
 51
194.970401305464950
  0
ARC
  8
0
  6
CONTINUOUS
 62
3
 10
-374.055270720044970
 20
-290.089024299571520
 40
4.999999999999973
 50
149.498945295270290
 51
225.000000000003690
  0
ARC
  8
0
  6
CONTINUOUS
 62
3
 10
-385.134578969056290
 20
-303.051346610902560
 40
5.000000000000041
 50
44.999999999998167
 51
129.457930749405760
  0
ARC
  8
0
  6
CONTINUOUS
 62
3
 10
-472.840191143524860
 20
-301.838816670223650
 40
5.000000000000000
 50
90.000000000000000
 51
124.921969447764190
  0
ARC
  8
0
  6
CONTINUOUS
 62
3
 10
-494.021222604480500
 20
-271.501316670223560
 40
31.999999999999829
 50
191.617396360406130
 51
304.921969447764520
  0
ARC
  8
0
  6
CONTINUOUS
 62
3
 10
-530.263246243730920
 20
-278.952204035633260
 40
5.000000000000277
 50
11.617396360404429
 51
44.014880135744747
  0
ARC
  8
0
  6
CONTINUOUS
 62
3
 10
-448.831965232172930
 20
-301.838816670223650
 40
5.000000000000199
 50
48.360992047546546
 51
90.000000000000000
  0
ARC
  8
0
  6
CONTINUOUS
 62
3
 10
-375.230991301775250
 20
-238.452867339711930
 40
5.000000000000142
 50
171.091670649431510
 51
213.109776708314170
  0
ARC
  8
0
  6
CONTINUOUS
 62
3
 10
-402.645383199213030
 20
-141.137090959700800
 40
4.999999999999995
 50
293.429622538529090
 51
315.000000000000000
  0
ARC
  8
0
  6
CONTINUOUS
 62
3
 10
-390.624567919041510
 20
-153.157906239872320
 40
5.000000000000201
 50
135.000000000000000
 51
176.341016329417360
  0
ARC
  8
0
  6
CONTINUOUS
 62
3
 10
-523.007204059917060
 20
-141.137090959700800
 40
5.000000000000201
 50
225.000000000000000
 51
246.570377461470910
  0
ARC
  8
0
  6
CONTINUOUS
 62
3
 10
-535.028019340088580
 20
-273.519727100574980
 40
5.000000000000041
 50
315.000000000001820
 51
38.492496408252435
  0
ARC
  8
0
  6
CONTINUOUS
 62
3
 10
-416.274641777237780
 20
-265.218867333137720
 40
44.000000000000071
 50
319.912288498426220
 51
33.109776708315003
  0
ARC
  8
0
  6
CONTINUOUS
 62
3
 10
-416.274641777237780
 20
-265.218867333137720
 40
43.999999999999915
 50
228.360992047548710
 51
319.912288498426220
  0
ARC
  8
0
  6
CONTINUOUS
 62
3
 10
-526.567466750570020
 20
-289.100805071399240
 40
4.999999999999702
 50
28.402451678796261
 51
135.000000000001820
  0
ARC
  8
0
  6
CONTINUOUS
 62
3
 10
-509.377945481892310
 20
-265.218867333137720
 40
76.999999999999844
 50
199.999999999999770
 51
234.885533069884020
  0
ARC
  8
0
  6
CONTINUOUS
 62
3
 10
-558.270949577143260
 20
-334.749250264211700
 40
8.000000000000373
 50
4.494156527999717
 51
54.885533069884232
  0
ARC
  8
0
  6
CONTINUOUS
 62
3
 10
-540.326293629565040
 20
-333.338816670223200
 40
9.999999999999778
 50
184.494156527999370
 51
233.130102354155980
  0
LINE
  8
0
  6
CONTINUOUS
 62
3
 10
-462.826293629565040
 20
-341.338816670223200
 11
-546.326293629565040
 21
-341.338816670223200
  0
LINE
  8
0
  6
CONTINUOUS
 62
3
 10
-462.826293629565040
 20
-341.338816670223200
 11
-379.326293629565040
 21
-341.338816670223200
  0
ARC
  8
0
  6
CONTINUOUS
 62
3
 10
-385.326293629565040
 20
-333.338816670223200
 40
10.000000000000000
 50
306.869897645843990
 51
355.505843472000610
  0
ARC
  8
0
  6
CONTINUOUS
 62
3
 10
-367.381637681986830
 20
-334.749250264211700
 40
7.999999999999969
 50
125.114466930115760
 51
175.505843472000290
  0
ARC
  8
0
  6
CONTINUOUS
 62
3
 10
-416.274641777237780
 20
-265.218867333137720
 40
77.000000000000085
 50
305.114466930115950
 51
340.000000000000340
  0
ARC
  8
0
  6
CONTINUOUS
 62
3
 10
-556.833340474257060
 20
-319.366678795085590
 40
4.999999999999718
 50
134.999999999998150
 51
228.768523924279320
  0
ARC
  8
0
  6
CONTINUOUS
 62
3
 10
-568.219784787067510
 20
-306.711492547553460
 40
4.999999999999545
 50
215.189773733130520
 51
315.000000000001820
  0
ARC
  8
0
  6
CONTINUOUS
 62
3
 10
-368.819246784873030
 20
-319.366678795085590
 40
4.999999999999826
 50
311.231476075720650
 51
45.000000000003688
  0
ARC
  8
0
  6
CONTINUOUS
 62
3
 10
-357.432802472062580
 20
-306.711492547553230
 40
5.000000000000201
 50
225.000000000000000
 51
324.810226266870360
  0
LINE
  8
0
  6
CONTINUOUS
 62
3
 10
-584.826293629565500
 20
-230.338816670223200
 11
-594.195473023539760
 21
-230.338816670223200
  0
LINE
  8
0
  6
CONTINUOUS
 62
3
 10
-584.826293629565500
 20
-204.338816670223200
 11
-594.826293629565500
 21
-204.338816670223200
  0
ARC
  8
0
  6
CONTINUOUS
 62
3
 10
-584.826293629565500
 20
-217.338816670223200
 40
13.000000000000000
 50
270.000000000000000
 51
90.000000000000000
  0
ARC
  8
0
  6
CONTINUOUS
 62
3
 10
-594.826293629565500
 20
-201.338816670223200
 40
3.000000000000000
 50
180.000000000000000
 51
270.000000000000000
  0
ARC
  8
0
  6
CONTINUOUS
 62
3
 10
-594.195473023539760
 20
-233.338816670223200
 40
3.000000000000000
 50
90.000000000000000
 51
194.970401305463840
  0
ARC
  8
0
  6
CONTINUOUS
 62
3
 10
-330.826293629564590
 20
-201.338816670223200
 40
3.000000000000000
 50
270.000000000000000
 51
0.000000000000000
  0
LINE
  8
0
  6
CONTINUOUS
 62
3
 10
-340.826293629564590
 20
-204.338816670223200
 11
-330.826293629564590
 21
-204.338816670223200
  0
ARC
  8
0
  6
CONTINUOUS
 62
3
 10
-340.826293629564590
 20
-217.338816670223200
 40
13.000000000000000
 50
90.000000000000000
 51
270.000000000000000
  0
ARC
  8
0
  6
CONTINUOUS
 62
3
 10
-331.457114235590320
 20
-233.338816670223200
 40
2.999999999999921
 50
345.029598694536160
 51
90.000000000000000
  0
LINE
  8
0
  6
CONTINUOUS
 62
3
 10
-340.826293629564590
 20
-230.338816670223200
 11
-331.457114235590320
 21
-230.338816670223200
  0
LINE
  8
0
  6
CONTINUOUS
 62
3
 10
-442.326293629565040
 20
-68.689128081046192
 11
-442.326293629565040
 21
-90.338816670223650
  0
LINE
  8
0
  6
CONTINUOUS
 62
3
 10
-483.326293629565040
 20
-68.689128081046192
 11
-483.326293629565040
 21
-90.338816670223650
  0
ARC
  8
0
  6
CONTINUOUS
 62
3
 10
-462.826293629565040
 20
-668.338817483117050
 40
599.999999999999770
 50
87.075476210271731
 51
88.042013127606680
  0
ARC
  8
0
  6
CONTINUOUS
 62
3
 10
-487.826293629565500
 20
-178.976988158434550
 40
110.000000000000040
 50
92.924523789728156
 51
180.000000000000000
  0
ARC
  8
0
  6
CONTINUOUS
 62
3
 10
-462.826293629565040
 20
-668.338817483117050
 40
600.000000000000000
 50
91.957986872393320
 51
92.924523789728269
  0
ARC
  8
0
  6
CONTINUOUS
 62
3
 10
-452.326293629564130
 20
-43.338816670223423
 40
10.000000000000000
 50
0.000000000000000
 51
90.000000000000000
  0
LINE
  8
0
  6
CONTINUOUS
 62
3
 10
-442.326293629564130
 20
-43.338816670223423
 11
-442.326293629564130
 21
-68.689127268152333
  0
ARC
  8
0
  6
CONTINUOUS
 62
3
 10
-473.326293629564130
 20
-43.338816670223423
 40
10.000000000000000
 50
90.000000000000000
 51
180.000000000000000
  0
LINE
  8
0
  6
CONTINUOUS
 62
3
 10
-483.326293629564130
 20
-43.338816670223423
 11
-483.326293629564130
 21
-68.689127268152333
  0
LINE
  8
0
  6
CONTINUOUS
 62
3
 10
-452.326293629564130
 20
-33.338816670223423
 11
-473.326293629564130
 21
-33.338816670223423
  0
LINE
  8
0
  6
DASHDOT
 62
4
 10
-439.658380630682590
 20
-53.338816670223423
 11
-486.680894532217280
 21
-53.338816670223423
  0
CIRCLE
  8
0
  6
CONTINUOUS
 62
3
 10
-462.826293629564130
 20
-53.338816670223423
 40
10.000000000000000
  0
ARC
  8
0
  6
CONTINUOUS
 62
3
 10
-462.826293629565500
 20
-213.338816670223420
 40
35.000000000000000
 50
270.000000000000000
 51
304.496229465915290
  0
LINE
  8
0
  6
CONTINUOUS
 62
3
 10
-548.260441595441190
 20
-132.854416172654080
 11
-568.454495736181800
 21
-112.660362031913790
  0
LINE
  8
0
  6
CONTINUOUS
 62
3
 10
-544.279166391085710
 20
-126.936196440398020
 11
-564.266641902786890
 21
-106.948720928696950
  0
LINE
  8
0
  6
CONTINUOUS
 62
3
 10
-543.829163250145940
 20
-126.958696597445020
 11
-548.922800178422900
 21
-228.831435162985800
  0
LINE
  8
0
  6
CONTINUOUS
 62
3
 10
-548.922800178422900
 20
-228.831435162985800
 11
-550.520803920627490
 21
-228.751534975874820
  0
LINE
  8
0
  6
CONTINUOUS
 62
3
 10
-545.427166992350520
 20
-126.878796410334840
 11
-550.520803920627490
 21
-228.751534975874820
  0
ARC
  8
0
  6
CONTINUOUS
 62
3
 10
-546.544796094201050
 20
-129.626412006579670
 40
1.299999237060474
 50
87.137594090651831
 51
160.536063666412870
  0
ARC
  8
0
  6
CONTINUOUS
 62
3
 10
-546.764521684953020
 20
-134.020923821617400
 40
1.299999237060493
 50
193.739143184211430
 51
267.137612759980240
  0
LINE
  8
0
  6
CONTINUOUS
 62
3
 10
-545.502073417765810
 20
-128.376924918651500
 11
-546.479877230273360
 21
-128.328034728026150
  0
LINE
  8
0
  6
CONTINUOUS
 62
3
 10
-545.851636736372940
 20
-135.368191290796370
 11
-546.829440548880710
 21
-135.319301100171030
  0
LINE
  8
0
  6
CONTINUOUS
 62
3
 10
-545.502073417765810
 20
-128.376924918651500
 11
-545.851636736372940
 21
-135.368191290796370
  0
LINE
  8
0
  6
CONTINUOUS
 62
3
 10
-545.502073417765810
 20
-128.376924918651500
 11
-545.851636736372940
 21
-135.368191290796370
  0
POINT
  8
0
  6
CONTINUOUS
 62
3
 10
-545.676855077069380
 20
-131.872558104723880
  0
ARC
  8
0
  6
CONTINUOUS
 62
3
 10
-539.284840489244970
 20
-132.192158834115130
 40
9.000000000000060
 50
160.536063666407810
 51
193.739143184213500
  0
LINE
  8
0
  6
CONTINUOUS
 62
3
 10
-545.427166992350520
 20
-126.878796410334840
 11
-543.829163250145940
 21
-126.958696597445020
  0
ARC
  8
0
  6
CONTINUOUS
 62
3
 10
-546.126293629565000
 20
-156.881316670225230
 40
18.799999999999933
 50
144.191373186504250
 51
174.275189547776390
  0
ARC
  8
0
  6
CONTINUOUS
 62
3
 10
-546.126293629565000
 20
-156.881316670225230
 40
18.800000000000036
 50
94.873974813842736
 51
144.191373186504250
  0
LINE
  8
0
  6
CONTINUOUS
 62
3
 10
-568.822552981185940
 20
-194.806503702644220
 11
-564.832528043529920
 21
-155.006004949526950
  0
ARC
  8
0
  6
CONTINUOUS
 62
3
 10
-552.052759460897280
 20
-219.340676992268730
 40
2.000000000000154
 50
357.137594773887600
 51
80.083463391767268
  0
LINE
  8
0
  6
CONTINUOUS
 62
3
 10
-544.628165121248230
 20
-126.918746503889990
 11
-549.721802049525190
 21
-228.791485069430080
  0
ARC
  8
0
  6
CONTINUOUS
 62
3
 10
-546.459746363181470
 20
-219.620327647154540
 40
1.999999999999962
 50
94.191726156001650
 51
177.137594773887290
  0
ARC
  8
0
  6
CONTINUOUS
 62
3
 10
-547.893552093193880
 20
-136.156529638201700
 40
1.999999999999928
 50
274.873974813840960
 51
357.137594773887320
  0
ARC
  8
0
  6
CONTINUOUS
 62
3
 10
-542.300538995478060
 20
-136.436180293087520
 40
1.999999999999927
 50
177.137594773887290
 51
259.401214733934010
  0
ARC
  8
0
  6
CONTINUOUS
 62
3
 10
-548.126293629565000
 20
-196.881316670225230
 40
20.799999999999986
 50
174.275189547776620
 51
205.640070215894870
  0
ARC
  8
0
  6
CONTINUOUS
 62
3
 10
-548.126293629565000
 20
-196.881316670225230
 40
20.799999999999926
 50
205.640070215894870
 51
260.083463391769440
  0
ARC
  8
0
  6
CONTINUOUS
 62
3
 10
-548.126293629565000
 20
-196.881316670225230
 40
20.799999999999986
 50
174.275189547776620
 51
205.640070215894870
  0
ARC
  8
0
  6
CONTINUOUS
 62
3
 10
-546.126293629565000
 20
-156.881316670225230
 40
18.799999999999955
 50
0.000000000000000
 51
79.401214733933941
  0
POINT
  8
0
  6
DASHDOT
 62
4
 10
-527.326293629565040
 20
-182.852547163351200
  0
POINT
  8
0
  6
DASHDOT
 62
4
 10
-527.326293629565040
 20
-182.852547163351200
  0
LINE
  8
0
  6
CONTINUOUS
 62
3
 10
-527.326293629565040
 20
-165.508207909999810
 11
-527.326293629565040
 21
-156.881316670225230
  0
ARC
  8
0
  6
CONTINUOUS
 62
3
 10
-548.126293629565000
 20
-196.881316670225230
 40
20.800000000000082
 50
274.191726156007460
 51
354.952683218987430
  0
ARC
  8
0
  6
CONTINUOUS
 62
4
 10
-462.826293629564820
 20
57.761183329774724
 40
289.396999999999820
 50
262.102011327572200
 51
270.000000000000000
  0
ARC
  8
0
  6
CONTINUOUS
 62
4
 10
-501.767811584947140
 20
-222.947594210811960
 40
6.000000000000049
 50
225.000000000003070
 51
262.102011327574360
  0
LINE
  8
0
  6
CONTINUOUS
 62
4
 10
-506.010452272066230
 20
-227.190234897931500
 11
-510.586517664704840
 21
-222.614169505292890
  0
ARC
  8
0
  6
CONTINUOUS
 62
4
 10
-499.699194554775430
 20
-211.726846395363480
 40
15.397000000000052
 50
186.051985358668840
 51
225.000000000000000
  0
ARC
  8
0
  6
CONTINUOUS
 62
4
 10
-227.226293629564910
 20
-182.838816670225210
 40
289.397000000000160
 50
180.000000000000000
 51
186.051985358668500
  0
ARC
  8
0
  6
CONTINUOUS
 62
4
 10
-462.826293629565040
 20
57.761183329774724
 40
289.396999999999930
 50
270.000000000000000
 51
277.897988672427800
  0
ARC
  8
0
  6
CONTINUOUS
 62
4
 10
-423.884775674182720
 20
-222.947594210811960
 40
5.999999999999923
 50
277.897988672425640
 51
314.999999999996870
  0
LINE
  8
0
  6
CONTINUOUS
 62
4
 10
-419.642134987063630
 20
-227.190234897931500
 11
-415.066069594425020
 21
-222.614169505292890
  0
ARC
  8
0
  6
CONTINUOUS
 62
4
 10
-425.953392704354430
 20
-211.726846395363480
 40
15.396999999999876
 50
315.000000000000000
 51
353.948014641331160
  0
ARC
  8
0
  6
CONTINUOUS
 62
4
 10
-698.426293629564950
 20
-182.838816670225210
 40
289.397000000000160
 50
353.948014641331500
 51
0.000000000000000
  0
ARC
  8
0
  6
CONTINUOUS
 62
4
 10
-462.826293629565040
 20
-423.438816670225150
 40
289.396999999999820
 50
82.102011327572214
 51
90.000000000000000
  0
ARC
  8
0
  6
CONTINUOUS
 62
4
 10
-423.884775674182720
 20
-142.730039129638470
 40
6.000000000000049
 50
45.000000000003077
 51
82.102011327574374
  0
LINE
  8
0
  6
CONTINUOUS
 62
4
 10
-419.642134987063630
 20
-138.487398442518920
 11
-415.066069594425020
 21
-143.063463835157530
  0
ARC
  8
0
  6
CONTINUOUS
 62
4
 10
-425.953392704354430
 20
-153.950786945086950
 40
15.397000000000052
 50
6.051985358668849
 51
45.000000000000000
  0
ARC
  8
0
  6
CONTINUOUS
 62
4
 10
-698.426293629564950
 20
-182.838816670225210
 40
289.397000000000160
 50
0.000000000000000
 51
6.051985358668508
  0
ARC
  8
0
  6
CONTINUOUS
 62
4
 10
-499.699194554775430
 20
-153.950786945086950
 40
15.396999999999876
 50
135.000000000000000
 51
173.948014641331160
  0
ARC
  8
0
  6
CONTINUOUS
 62
3
 10
-425.953392704354430
 20
-211.726846395363480
 40
26.599999999999955
 50
315.000000000001020
 51
353.948014641331380
  0
ARC
  8
0
  6
CONTINUOUS
 62
3
 10
-499.699194554775430
 20
-211.726846395363480
 40
26.599999999999969
 50
186.051985358668590
 51
224.999999999998980
  0
ARC
  8
0
  6
CONTINUOUS
 62
3
 10
-499.699194554775430
 20
-153.950786945086950
 40
26.600000000000119
 50
135.000000000000000
 51
173.948014641331410
  0
ARC
  8
0
  6
CONTINUOUS
 62
3
 10
-425.953392704354660
 20
-153.950786945086950
 40
26.600000000000193
 50
6.051985358668552
 51
45.000000000000000
  0
LINE
  8
0
  6
CONTINUOUS
 62
3
 10
-511.441785815678710
 20
-128.075297446865730
 11
-518.508234934337680
 21
-135.141746565524700
  0
ARC
  8
0
  6
CONTINUOUS
 62
3
 10
-506.774881059847530
 20
-232.935431137753740
 40
6.599999999999957
 50
225.000000000000000
 51
261.402917762751090
  0
ARC
  8
0
  6
CONTINUOUS
 62
3
 10
-418.877706199282560
 20
-232.935431137753740
 40
6.599999999999747
 50
278.597082237248910
 51
315.000000000000000
  0
LINE
  8
0
  6
CONTINUOUS
 62
3
 10
-414.210801443451370
 20
-237.602335893584920
 11
-407.144352324791950
 21
-230.535886774925270
  0
ARC
  8
0
  6
CONTINUOUS
 62
3
 10
-698.426293629564950
 20
-182.838816670225210
 40
300.600000000000080
 50
353.948014641331500
 51
6.051985358668499
  0
ARC
  8
0
  6
CONTINUOUS
 62
3
 10
-462.826293629565040
 20
-423.438816670225150
 40
300.599999999999800
 50
81.402917762750931
 51
90.000000000000000
  0
ARC
  8
0
  6
CONTINUOUS
 62
3
 10
-418.877706199282560
 20
-132.742202202696920
 40
6.600000000000118
 50
45.000000000001400
 51
81.402917762751386
  0
ARC
  8
0
  6
CONTINUOUS
 62
3
 10
-462.826293629565040
 20
-423.438816670225150
 40
300.599999999999910
 50
90.000000000000000
 51
98.597082237249069
  0
ARC
  8
0
  6
CONTINUOUS
 62
3
 10
-227.226293629565130
 20
-182.838816670225210
 40
300.599999999999850
 50
173.948014641331500
 51
186.051985358668500
  0
LINE
  8
0
  6
CONTINUOUS
 62
3
 10
-414.210801443451370
 20
-128.075297446865730
 11
-407.144352324792410
 21
-135.141746565524700
  0
LINE
  8
0
  6
CONTINUOUS
 62
3
 10
-511.441785815678710
 20
-237.602335893584920
 11
-518.508234934337910
 21
-230.535886774925270
  0
ARC
  8
0
  6
CONTINUOUS
 62
3
 10
-458.826293629565040
 20
-141.532037565579660
 40
1.500000000000203
 50
84.468928475159132
 51
180.000000000000000
  0
ARC
  8
0
  6
CONTINUOUS
 62
3
 10
-466.826293629565040
 20
-141.532037565579430
 40
1.500000000000000
 50
0.000000000000000
 51
95.531071524841693
  0
ARC
  8
0
  6
CONTINUOUS
 62
3
 10
-462.826293629564820
 20
-182.838816670224760
 40
17.999999999999922
 50
41.837004155893325
 51
78.162995844107314
  0
ARC
  8
0
  6
CONTINUOUS
 62
3
 10
-462.826293629565270
 20
-182.838816670224760
 40
27.499999999999815
 50
97.928141766201691
 51
142.071858233797880
  0
LINE
  8
0
  6
CONTINUOUS
 62
3
 10
-460.326293629565040
 20
-141.532037565579660
 11
-460.326293629565040
 21
-144.547172673133640
  0
LINE
  8
0
  6
CONTINUOUS
 62
3
 10
-430.914757175414250
 20
-161.527931162218440
 11
-428.303573576430150
 21
-160.020363608441330
  0
LINE
  8
0
  6
CONTINUOUS
 62
3
 10
-460.326293629565040
 20
-151.089800937450240
 11
-460.326293629565040
 21
-154.116003437534770
  0
ARC
  8
0
  6
CONTINUOUS
 62
3
 10
-458.826293629565040
 20
-151.089800937450240
 40
1.499999999999998
 50
82.819244218541712
 51
180.000000000000000
  0
ARC
  8
0
  6
CONTINUOUS
 62
3
 10
-458.826293629565040
 20
-144.547172673133640
 40
1.500000000000000
 50
180.000000000000000
 51
264.036429881682580
  0
ARC
  8
0
  6
CONTINUOUS
 62
3
 10
-429.053573576430150
 20
-158.721325502764530
 40
1.500000000000123
 50
299.999999999997270
 51
35.531071524839192
  0
ARC
  8
0
  6
CONTINUOUS
 62
3
 10
-462.826293629565500
 20
-182.838816670225210
 40
42.999999999999908
 50
35.531071524839248
 51
84.468928475160212
  0
ARC
  8
0
  6
CONTINUOUS
 62
3
 10
-425.053573576429700
 20
-165.649528733040570
 40
1.500000000000034
 50
24.468928475159590
 51
119.999999999997270
  0
LINE
  8
0
  6
CONTINUOUS
 62
3
 10
-428.414757175414020
 20
-165.858058181140880
 11
-425.803573576429700
 21
-164.350490627363770
  0
ARC
  8
0
  6
CONTINUOUS
 62
3
 10
-427.664757175414020
 20
-167.157096286817680
 40
1.500000000000123
 50
119.999999999997270
 51
204.036429881680680
  0
ARC
  8
0
  6
CONTINUOUS
 62
3
 10
-462.826293629565270
 20
-182.838816670225670
 40
36.999999999999972
 50
335.963570118321740
 51
24.036429881678870
  0
ARC
  8
0
  6
CONTINUOUS
 62
3
 10
-462.826293629565270
 20
-182.838816670225670
 40
42.999999999999936
 50
335.531071524839770
 51
24.468928475160769
  0
ARC
  8
0
  6
CONTINUOUS
 62
3
 10
-425.053573576429700
 20
-200.028104607410090
 40
1.500000000000320
 50
240.000000000007050
 51
335.531071524832500
  0
LINE
  8
0
  6
CONTINUOUS
 62
3
 10
-425.803573576429700
 20
-201.327142713087110
 11
-428.414757175413800
 21
-199.819575159309780
  0
ARC
  8
0
  6
CONTINUOUS
 62
3
 10
-427.664757175413800
 20
-198.520537053633210
 40
1.500000000000063
 50
155.963570118322880
 51
239.999999999998410
  0
ARC
  8
0
  6
CONTINUOUS
 62
3
 10
-429.053573576429700
 20
-206.956307837685900
 40
1.499999999999844
 50
324.468928475167900
 51
59.999999999998380
  0
LINE
  8
0
  6
CONTINUOUS
 62
3
 10
-428.303573576429700
 20
-205.657269732009330
 11
-430.914757175413800
 21
-204.149702178231990
  0
LINE
  8
0
  6
CONTINUOUS
 62
3
 10
-465.326293629565040
 20
-141.532037565579430
 11
-465.326293629565040
 21
-144.547172673133640
  0
ARC
  8
0
  6
CONTINUOUS
 62
3
 10
-466.826293629565040
 20
-144.547172673133640
 40
1.499999999999933
 50
275.963570118318330
 51
0.000000000000000
  0
LINE
  8
0
  6
CONTINUOUS
 62
3
 10
-465.326293629565040
 20
-151.089800937450240
 11
-465.326293629565040
 21
-154.116003437534770
  0
ARC
  8
0
  6
CONTINUOUS
 62
3
 10
-466.826293629565040
 20
-151.089800937450240
 40
1.500000000000000
 50
0.000000000000000
 51
97.180755781458288
  0
ARC
  8
0
  6
CONTINUOUS
 62
3
 10
-462.826293629565500
 20
-182.838816670224760
 40
23.999999999999901
 50
100.240348321185670
 51
139.759651678813550
  0
ARC
  8
0
  6
CONTINUOUS
 62
3
 10
-480.001472898610020
 20
-168.303920142344820
 40
1.499999999999802
 50
139.759651678811420
 51
239.999999999998410
  0
LINE
  8
0
  6
CONTINUOUS
 62
3
 10
-478.104678305630840
 20
-171.131085818767560
 11
-480.751472898610020
 21
-169.602958248021390
  0
ARC
  8
0
  6
CONTINUOUS
 62
3
 10
-477.354678305630840
 20
-169.832047713090990
 40
1.499999999999926
 50
239.999999999998410
 51
318.162995844106720
  0
ARC
  8
0
  6
CONTINUOUS
 62
3
 10
-462.826293629565500
 20
-182.838816670224760
 40
17.999999999999829
 50
101.837004155891980
 51
138.162995844106210
  0
ARC
  8
0
  6
CONTINUOUS
 62
3
 10
-466.826293629565040
 20
-163.753481986232570
 40
1.499999999999954
 50
281.837004155896690
 51
0.000000000000000
  0
LINE
  8
0
  6
CONTINUOUS
 62
3
 10
-465.326293629565040
 20
-160.697226844740240
 11
-465.326293629565040
 21
-163.753481986232570
  0
ARC
  8
0
  6
CONTINUOUS
 62
3
 10
-466.826293629565040
 20
-160.697226844740240
 40
1.500000000000000
 50
0.000000000000000
 51
100.240348321194510
  0
ARC
  8
0
  6
CONTINUOUS
 62
3
 10
-462.826293629565500
 20
-182.838816670224760
 40
14.499999999999980
 50
107.920213139390830
 51
132.079786860607560
  0
ARC
  8
0
  6
CONTINUOUS
 62
3
 10
-471.538436272379610
 20
-173.190056616660480
 40
1.499999999999792
 50
132.079786860611680
 51
239.999999999998410
  0
LINE
  8
0
  6
CONTINUOUS
 62
3
 10
-469.513547562758960
 20
-176.091177465807930
 11
-472.288436272379610
 21
-174.489094722337060
  0
ARC
  8
0
  6
CONTINUOUS
 62
3
 10
-468.763547562758960
 20
-174.792139360131360
 40
1.499999999999926
 50
239.999999999998410
 51
306.421821521797600
  0
ARC
  8
0
  6
CONTINUOUS
 62
3
 10
-462.826293629565500
 20
-182.838816670224760
 40
8.499999999999879
 50
113.578178478199500
 51
126.421821521797340
  0
ARC
  8
0
  6
CONTINUOUS
 62
3
 10
-466.826293629565040
 20
-173.673665280312860
 40
1.500000000000139
 50
293.578178478195700
 51
0.000000000000000
  0
LINE
  8
0
  6
CONTINUOUS
 62
3
 10
-465.326293629565040
 20
-170.469499793371800
 11
-465.326293629565040
 21
-173.673665280312860
  0
ARC
  8
0
  6
CONTINUOUS
 62
3
 10
-466.826293629565040
 20
-170.469499793371800
 40
1.500000000000000
 50
0.000000000000000
 51
107.920213139394770
  0
ARC
  8
0
  6
CONTINUOUS
 62
3
 10
-462.826293629565040
 20
-182.838816670225210
 40
23.999999999999716
 50
280.240348321186270
 51
319.759651678814690
  0
ARC
  8
0
  6
CONTINUOUS
 62
3
 10
-458.826293629565040
 20
-204.980406495709730
 40
1.500000000000000
 50
180.000000000000000
 51
280.240348321187530
  0
LINE
  8
0
  6
CONTINUOUS
 62
3
 10
-460.326293629565040
 20
-201.924151354217400
 11
-460.326293629565040
 21
-204.980406495709730
  0
ARC
  8
0
  6
CONTINUOUS
 62
3
 10
-458.826293629565040
 20
-201.924151354217400
 40
1.499999999999731
 50
101.837004155898450
 51
180.000000000000000
  0
ARC
  8
0
  6
CONTINUOUS
 62
3
 10
-462.826293629565040
 20
-182.838816670225210
 40
18.000000000000146
 50
281.837004155893230
 51
318.162995844107680
  0
ARC
  8
0
  6
CONTINUOUS
 62
3
 10
-448.297908953499250
 20
-195.845585627358990
 40
1.499999999999926
 50
59.999999999998380
 51
138.162995844100240
  0
LINE
  8
0
  6
CONTINUOUS
 62
3
 10
-444.901114360520300
 20
-196.074675092428580
 11
-447.547908953499250
 21
-194.546547521682410
  0
ARC
  8
0
  6
CONTINUOUS
 62
3
 10
-445.651114360520300
 20
-197.373713198105150
 40
1.499999999999828
 50
319.759651678823670
 51
59.999999999998380
  0
ARC
  8
0
  6
CONTINUOUS
 62
3
 10
-462.826293629565040
 20
-182.838816670225210
 40
14.500000000000121
 50
287.920213139392560
 51
312.079786860608860
  0
ARC
  8
0
  6
CONTINUOUS
 62
3
 10
-458.826293629565040
 20
-195.208133547077950
 40
1.500000000000000
 50
180.000000000000000
 51
287.920213139392100
  0
LINE
  8
0
  6
CONTINUOUS
 62
3
 10
-460.326293629565040
 20
-192.003968060136660
 11
-460.326293629565040
 21
-195.208133547077950
  0
ARC
  8
0
  6
CONTINUOUS
 62
3
 10
-458.826293629565040
 20
-192.003968060137110
 40
1.500000000000139
 50
113.578178478195690
 51
179.999999999982630
  0
ARC
  8
0
  6
CONTINUOUS
 62
3
 10
-462.826293629565040
 20
-182.838816670225210
 40
8.500000000000060
 50
293.578178478202350
 51
306.421821521799190
  0
ARC
  8
0
  6
CONTINUOUS
 62
3
 10
-456.889039696371130
 20
-190.885493980318610
 40
1.499999999999926
 50
59.999999999998380
 51
126.421821521801260
  0
LINE
  8
0
  6
CONTINUOUS
 62
3
 10
-453.364150986750700
 20
-191.188538618112460
 11
-456.139039696371130
 21
-189.586455874642040
  0
ARC
  8
0
  6
CONTINUOUS
 62
3
 10
-454.114150986750700
 20
-192.487576723789490
 40
1.499999999999944
 50
312.079786860618130
 51
60.000000000007070
  0
ARC
  8
0
  6
CONTINUOUS
 62
3
 10
-462.826293629565040
 20
-182.838816670225210
 40
23.999999999999844
 50
220.240348321185340
 51
259.759651678813730
  0
ARC
  8
0
  6
CONTINUOUS
 62
3
 10
-466.826293629565040
 20
-204.980406495709730
 40
1.499999999999728
 50
259.759651678812470
 51
0.000000000000000
  0
LINE
  8
0
  6
CONTINUOUS
 62
3
 10
-465.326293629565040
 20
-201.924151354217400
 11
-465.326293629565040
 21
-204.980406495709730
  0
ARC
  8
0
  6
CONTINUOUS
 62
3
 10
-466.826293629565040
 20
-201.924151354217400
 40
1.500000000000000
 50
0.000000000000000
 51
78.162995844101530
  0
ARC
  8
0
  6
CONTINUOUS
 62
3
 10
-462.826293629565040
 20
-182.838816670225210
 40
17.999999999999940
 50
221.837004155892320
 51
258.162995844106770
  0
ARC
  8
0
  6
CONTINUOUS
 62
3
 10
-477.354678305630840
 20
-195.845585627358990
 40
1.500000000000118
 50
41.837004155899741
 51
120.000000000001620
  0
LINE
  8
0
  6
CONTINUOUS
 62
3
 10
-480.751472898609790
 20
-196.074675092428580
 11
-478.104678305630840
 21
-194.546547521682410
  0
ARC
  8
0
  6
CONTINUOUS
 62
3
 10
-480.001472898609790
 20
-197.373713198105150
 40
1.499999999999926
 50
120.000000000001620
 51
220.240348321176330
  0
ARC
  8
0
  6
CONTINUOUS
 62
3
 10
-462.826293629565040
 20
-182.838816670225210
 40
14.500000000000011
 50
227.920213139391080
 51
252.079786860607410
  0
ARC
  8
0
  6
CONTINUOUS
 62
3
 10
-466.826293629565040
 20
-195.208133547077950
 40
1.500000000000355
 50
252.079786860607900
 51
0.000000000000000
  0
LINE
  8
0
  6
CONTINUOUS
 62
3
 10
-465.326293629565040
 20
-192.003968060136660
 11
-465.326293629565040
 21
-195.208133547077950
  0
ARC
  8
0
  6
CONTINUOUS
 62
3
 10
-466.826293629565040
 20
-192.003968060137110
 40
1.500000000000000
 50
0.000000000017370
 51
66.421821521804304
  0
ARC
  8
0
  6
CONTINUOUS
 62
3
 10
-462.826293629565040
 20
-182.838816670225210
 40
8.499999999999870
 50
233.578178478199590
 51
246.421821521797680
  0
ARC
  8
0
  6
CONTINUOUS
 62
3
 10
-468.763547562758960
 20
-190.885493980318610
 40
1.500000000000059
 50
53.578178478205707
 51
120.000000000001620
  0
LINE
  8
0
  6
CONTINUOUS
 62
3
 10
-472.288436272379390
 20
-191.188538618112460
 11
-469.513547562758960
 21
-189.586455874642040
  0
ARC
  8
0
  6
CONTINUOUS
 62
3
 10
-471.538436272379390
 20
-192.487576723789490
 40
1.500000000000320
 50
119.999999999992930
 51
227.920213139381870
  0
ARC
  8
0
  6
CONTINUOUS
 62
3
 10
-462.826293629565500
 20
-182.838816670224760
 40
23.999999999999925
 50
160.240348321185910
 51
199.759651678814090
  0
ARC
  8
0
  6
CONTINUOUS
 62
3
 10
-484.001472898610020
 20
-175.232123372620180
 40
1.499999999999926
 50
59.999999999998380
 51
160.240348321185250
  0
LINE
  8
0
  6
CONTINUOUS
 62
3
 10
-480.604678305630840
 20
-175.461212837689770
 11
-483.251472898610020
 21
-173.933085266943610
  0
ARC
  8
0
  6
CONTINUOUS
 62
3
 10
-481.354678305630840
 20
-176.760250943366340
 40
1.500000000000038
 50
341.837004155895390
 51
59.999999999998380
  0
ARC
  8
0
  6
CONTINUOUS
 62
3
 10
-462.826293629565500
 20
-182.838816670224760
 40
17.999999999999726
 50
161.837004155893140
 51
198.162995844106860
  0
ARC
  8
0
  6
CONTINUOUS
 62
3
 10
-481.354678305630840
 20
-188.917382397083170
 40
1.500000000000320
 50
299.999999999992950
 51
18.162995844104589
  0
LINE
  8
0
  6
CONTINUOUS
 62
3
 10
-483.251472898609790
 20
-191.744548073505910
 11
-480.604678305630840
 21
-190.216420502760200
  0
ARC
  8
0
  6
CONTINUOUS
 62
3
 10
-484.001472898609790
 20
-190.445509967829340
 40
1.500000000000246
 50
199.759651678811820
 51
300.000000000001590
  0
ARC
  8
0
  6
CONTINUOUS
 62
3
 10
-462.826293629565500
 20
-182.838816670224760
 40
14.499999999999851
 50
167.920213139392840
 51
192.079786860608920
  0
ARC
  8
0
  6
CONTINUOUS
 62
3
 10
-475.538436272379610
 20
-180.118259846935840
 40
1.499999999999926
 50
59.999999999998380
 51
167.920213139405550
  0
LINE
  8
0
  6
CONTINUOUS
 62
3
 10
-472.013547562758960
 20
-180.421304484730140
 11
-474.788436272379610
 21
-178.819221741259270
  0
ARC
  8
0
  6
CONTINUOUS
 62
3
 10
-472.763547562758960
 20
-181.720342590406720
 40
1.499999999999873
 50
353.578178478198030
 51
59.999999999998380
  0
ARC
  8
0
  6
CONTINUOUS
 62
3
 10
-462.826293629565500
 20
-182.838816670224760
 40
8.499999999999813
 50
173.578178478202550
 51
186.421821521800500
  0
ARC
  8
0
  6
CONTINUOUS
 62
3
 10
-472.763547562758960
 20
-183.957290750043260
 40
1.499999999999926
 50
300.000000000001590
 51
6.421821521801967
  0
LINE
  8
0
  6
CONTINUOUS
 62
3
 10
-474.788436272379390
 20
-186.858411599190250
 11
-472.013547562758960
 21
-185.256328855719830
  0
ARC
  8
0
  6
CONTINUOUS
 62
3
 10
-475.538436272379390
 20
-185.559373493513680
 40
1.500000000000287
 50
192.079786860609600
 51
300.000000000001590
  0
ARC
  8
0
  6
CONTINUOUS
 62
3
 10
-462.826293629564820
 20
-182.838816670224760
 40
24.000000000000139
 50
340.240348321186050
 51
19.759651678813924
  0
ARC
  8
0
  6
CONTINUOUS
 62
3
 10
-441.651114360520300
 20
-175.232123372620180
 40
1.500000000000246
 50
19.759651678811824
 51
120.000000000001620
  0
LINE
  8
0
  6
CONTINUOUS
 62
3
 10
-445.047908953499250
 20
-175.461212837689770
 11
-442.401114360520300
 21
-173.933085266943610
  0
ARC
  8
0
  6
CONTINUOUS
 62
3
 10
-444.297908953499250
 20
-176.760250943366340
 40
1.499999999999926
 50
120.000000000001620
 51
198.162995844104590
  0
ARC
  8
0
  6
CONTINUOUS
 62
3
 10
-462.826293629564820
 20
-182.838816670224760
 40
17.999999999999943
 50
341.837004155893340
 51
18.162995844106646
  0
ARC
  8
0
  6
CONTINUOUS
 62
3
 10
-444.297908953499250
 20
-188.917382397083170
 40
1.500000000000038
 50
161.837004155895410
 51
240.000000000007050
  0
LINE
  8
0
  6
CONTINUOUS
 62
3
 10
-442.401114360520300
 20
-191.744548073505910
 11
-445.047908953499250
 21
-190.216420502760200
  0
ARC
  8
0
  6
CONTINUOUS
 62
3
 10
-441.651114360520300
 20
-190.445509967829340
 40
1.499999999999926
 50
239.999999999998410
 51
340.240348321188210
  0
ARC
  8
0
  6
CONTINUOUS
 62
3
 10
-462.826293629564820
 20
-182.838816670224760
 40
14.500000000000169
 50
347.920213139391310
 51
12.079786860606980
  0
ARC
  8
0
  6
CONTINUOUS
 62
3
 10
-450.114150986750700
 20
-180.118259846935840
 40
1.500000000000192
 50
12.079786860592611
 51
120.000000000001620
  0
LINE
  8
0
  6
CONTINUOUS
 62
3
 10
-453.639039696371130
 20
-180.421304484730140
 11
-450.864150986750700
 21
-178.819221741259270
  0
ARC
  8
0
  6
CONTINUOUS
 62
3
 10
-452.889039696371130
 20
-181.720342590406720
 40
1.499999999999926
 50
120.000000000001620
 51
186.421821521801010
  0
ARC
  8
0
  6
CONTINUOUS
 62
3
 10
-462.826293629564820
 20
-182.838816670224760
 40
8.499999999999865
 50
353.578178478199500
 51
6.421821521797448
  0
ARC
  8
0
  6
CONTINUOUS
 62
3
 10
-452.889039696371130
 20
-183.957290750043260
 40
1.500000000000099
 50
173.578178478198990
 51
239.999999999998410
  0
LINE
  8
0
  6
CONTINUOUS
 62
3
 10
-450.864150986750700
 20
-186.858411599190250
 11
-453.639039696371130
 21
-185.256328855719830
  0
ARC
  8
0
  6
CONTINUOUS
 62
3
 10
-450.114150986750700
 20
-185.559373493513680
 40
1.499999999999926
 50
239.999999999998410
 51
347.920213139390400
  0
ARC
  8
0
  6
CONTINUOUS
 62
3
 10
-462.826293629564820
 20
-182.838816670224760
 40
8.500000000000101
 50
53.578178478202659
 51
66.421821521799089
  0
ARC
  8
0
  6
CONTINUOUS
 62
3
 10
-462.826293629564820
 20
-182.838816670224760
 40
23.999999999999819
 50
40.240348321186090
 51
79.759651678814322
  0
LINE
  8
0
  6
CONTINUOUS
 62
3
 10
-456.139039696371130
 20
-176.091177465807930
 11
-453.364150986750700
 21
-174.489094722337060
  0
LINE
  8
0
  6
CONTINUOUS
 62
3
 10
-460.326293629565040
 20
-160.697226844740240
 11
-460.326293629565040
 21
-163.753481986232570
  0
LINE
  8
0
  6
CONTINUOUS
 62
3
 10
-460.326293629565040
 20
-170.469499793371800
 11
-460.326293629565040
 21
-173.673665280312860
  0
ARC
  8
0
  6
CONTINUOUS
 62
3
 10
-462.826293629564820
 20
-182.838816670224760
 40
14.499999999999860
 50
47.920213139391755
 51
72.079786860608309
  0
LINE
  8
0
  6
CONTINUOUS
 62
3
 10
-447.547908953499250
 20
-171.131085818767560
 11
-444.901114360520300
 21
-169.602958248021390
  0
ARC
  8
0
  6
CONTINUOUS
 62
3
 10
-454.114150986750700
 20
-173.190056616660480
 40
1.499999999999926
 50
300.000000000001590
 51
47.920213139381872
  0
ARC
  8
0
  6
CONTINUOUS
 62
3
 10
-458.826293629565040
 20
-160.697226844740240
 40
1.499999999999952
 50
79.759651678814024
 51
180.000000000000000
  0
ARC
  8
0
  6
CONTINUOUS
 62
3
 10
-448.297908953499250
 20
-169.832047713090990
 40
1.499999999999967
 50
221.837004155893280
 51
300.000000000001590
  0
ARC
  8
0
  6
CONTINUOUS
 62
3
 10
-458.826293629565040
 20
-163.753481986232570
 40
1.500000000000000
 50
180.000000000000000
 51
258.162995844103310
  0
ARC
  8
0
  6
CONTINUOUS
 62
3
 10
-458.826293629565040
 20
-170.469499793371800
 40
1.500000000000138
 50
72.079786860605225
 51
180.000000000000000
  0
ARC
  8
0
  6
CONTINUOUS
 62
3
 10
-445.651114360520300
 20
-168.303920142344820
 40
1.499999999999926
 50
300.000000000001590
 51
40.240348321182964
  0
ARC
  8
0
  6
CONTINUOUS
 62
3
 10
-458.826293629565040
 20
-173.673665280312860
 40
1.500000000000000
 50
180.000000000000000
 51
246.421821521804280
  0
ARC
  8
0
  6
CONTINUOUS
 62
3
 10
-456.889039696371130
 20
-174.792139360131360
 40
1.499999999999693
 50
233.578178478195410
 51
300.000000000001590
  0
CIRCLE
  8
0
  6
CONTINUOUS
 62
3
 10
-462.826293629565040
 20
-182.838816670224760
 40
5.000000000000000
  0
ARC
  8
0
  6
CONTINUOUS
 62
3
 10
-439.951607701899320
 20
-165.013308438742090
 40
1.499999999999843
 50
217.928141766204990
 51
300.000000000001590
  0
LINE
  8
0
  6
CONTINUOUS
 62
3
 10
-439.201607701899320
 20
-166.312346544418660
 11
-436.580839459830490
 21
-164.799245294376500
  0
ARC
  8
0
  6
CONTINUOUS
 62
3
 10
-458.826293629565040
 20
-154.116003437534770
 40
1.500000000000000
 50
180.000000000000000
 51
262.071858233795980
  0
ARC
  8
0
  6
CONTINUOUS
 62
3
 10
-462.826293629564820
 20
-182.838816670224760
 40
27.500000000000060
 50
37.928141766201819
 51
82.071858233798309
  0
ARC
  8
0
  6
CONTINUOUS
 62
3
 10
-437.330839459830490
 20
-163.500207188699930
 40
1.499999999999926
 50
300.000000000001590
 51
37.180755781457485
  0
ARC
  8
0
  6
CONTINUOUS
 62
3
 10
-431.664757175414250
 20
-160.228893056541640
 40
1.500000000000102
 50
215.963570118316280
 51
299.999999999997270
  0
ARC
  8
0
  6
CONTINUOUS
 62
3
 10
-462.826293629565500
 20
-182.838816670225210
 40
36.999999999999943
 50
35.963570118321194
 51
84.036429881678174
  0
ARC
  8
0
  6
CONTINUOUS
 62
3
 10
-462.826293629565500
 20
-182.838816670225210
 40
33.500000000000071
 50
37.180755781458259
 51
82.819244218540931
  0
LINE
  8
0
  6
CONTINUOUS
 62
3
 10
-436.701607701899090
 20
-170.642473563341330
 11
-434.080839459830260
 21
-169.129372313299170
  0
ARC
  8
0
  6
CONTINUOUS
 62
3
 10
-433.330839459830260
 20
-170.428410418975970
 40
1.499999999999948
 50
22.819244218550043
 51
119.999999999997270
  0
ARC
  8
0
  6
CONTINUOUS
 62
3
 10
-435.951607701899090
 20
-171.941511669017900
 40
1.499999999999926
 50
120.000000000001620
 51
202.071858233797370
  0
ARC
  8
0
  6
CONTINUOUS
 62
3
 10
-462.826293629564590
 20
-182.838816670225210
 40
27.499999999999886
 50
337.928141766202200
 51
22.071858233797812
  0
ARC
  8
0
  6
CONTINUOUS
 62
3
 10
-462.826293629565270
 20
-182.838816670225670
 40
33.500000000000128
 50
337.180755781459030
 51
22.819244218541968
  0
ARC
  8
0
  6
CONTINUOUS
 62
3
 10
-435.951607701899320
 20
-193.736121671432530
 40
1.499999999999899
 50
157.928141766199360
 51
240.000000000007050
  0
LINE
  8
0
  6
CONTINUOUS
 62
3
 10
-434.080839459830030
 20
-196.548261027151480
 11
-436.701607701899320
 21
-195.035159777109560
  0
ARC
  8
0
  6
CONTINUOUS
 62
3
 10
-433.330839459830030
 20
-195.249222921474910
 40
1.499999999999926
 50
239.999999999998410
 51
337.180755781453340
  0
ARC
  8
0
  6
CONTINUOUS
 62
3
 10
-458.826293629564820
 20
-224.145595774870320
 40
1.500000000000000
 50
180.000000000000000
 51
275.531071524831360
  0
LINE
  8
0
  6
CONTINUOUS
 62
3
 10
-460.326293629564820
 20
-221.130460667316100
 11
-460.326293629564820
 21
-224.145595774870320
  0
LINE
  8
0
  6
CONTINUOUS
 62
3
 10
-460.326293629564820
 20
-211.561629902915660
 11
-460.326293629564820
 21
-214.587832402999960
  0
ARC
  8
0
  6
CONTINUOUS
 62
3
 10
-458.826293629564820
 20
-221.130460667316560
 40
1.500000000000182
 50
95.963570118326047
 51
179.999999999982630
  0
ARC
  8
0
  6
CONTINUOUS
 62
3
 10
-458.826293629564820
 20
-214.587832402999960
 40
1.500000000000000
 50
180.000000000000000
 51
277.180755781458290
  0
ARC
  8
0
  6
CONTINUOUS
 62
3
 10
-458.826293629564820
 20
-211.561629902915660
 40
1.499999999999967
 50
97.928141766195438
 51
180.000000000000000
  0
ARC
  8
0
  6
CONTINUOUS
 62
3
 10
-462.826293629564820
 20
-182.838816670225670
 40
27.499999999999879
 50
277.928141766202600
 51
322.071858233798930
  0
ARC
  8
0
  6
CONTINUOUS
 62
3
 10
-462.826293629564820
 20
-182.838816670224760
 40
37.000000000000028
 50
275.963570118320770
 51
324.036429881678030
  0
ARC
  8
0
  6
CONTINUOUS
 62
3
 10
-462.826293629564820
 20
-182.838816670224760
 40
43.000000000000199
 50
275.531071524838860
 51
324.468928475160340
  0
ARC
  8
0
  6
CONTINUOUS
 62
3
 10
-462.826293629564820
 20
-182.838816670224760
 40
33.500000000000114
 50
277.180755781458230
 51
322.819244218540860
  0
ARC
  8
0
  6
CONTINUOUS
 62
3
 10
-439.951607701899320
 20
-200.664324901708340
 40
1.500000000000320
 50
60.000000000007070
 51
142.071858233781280
  0
ARC
  8
0
  6
CONTINUOUS
 62
3
 10
-431.664757175413800
 20
-205.448740283908560
 40
1.499999999999926
 50
59.999999999998380
 51
144.036429881690740
  0
LINE
  8
0
  6
CONTINUOUS
 62
3
 10
-436.580839459830030
 20
-200.878388046073700
 11
-439.201607701899320
 21
-199.365286796031310
  0
ARC
  8
0
  6
CONTINUOUS
 62
3
 10
-437.330839459830030
 20
-202.177426151750270
 40
1.500000000000240
 50
322.819244218535570
 51
59.999999999998380
  0
ARC
  8
0
  6
CONTINUOUS
 62
3
 10
-466.826293629565270
 20
-224.145595774870320
 40
1.500000000000430
 50
264.468928475160000
 51
0.000000000000000
  0
LINE
  8
0
  6
CONTINUOUS
 62
3
 10
-465.326293629565270
 20
-221.130460667316100
 11
-465.326293629565270
 21
-224.145595774870320
  0
LINE
  8
0
  6
CONTINUOUS
 62
3
 10
-465.326293629565270
 20
-211.561629902915660
 11
-465.326293629565270
 21
-214.587832402999960
  0
ARC
  8
0
  6
CONTINUOUS
 62
3
 10
-466.826293629565270
 20
-221.130460667316560
 40
1.500000000000000
 50
0.000000000017370
 51
84.036429881682594
  0
ARC
  8
0
  6
CONTINUOUS
 62
3
 10
-466.826293629565270
 20
-214.587832402999960
 40
1.499999999999998
 50
262.819244218541710
 51
0.000000000000000
  0
ARC
  8
0
  6
CONTINUOUS
 62
3
 10
-466.826293629565270
 20
-211.561629902915660
 40
1.500000000000000
 50
0.000000000000000
 51
82.071858233804562
  0
ARC
  8
0
  6
CONTINUOUS
 62
3
 10
-462.826293629565270
 20
-182.838816670225670
 40
27.499999999999780
 50
217.928141766201070
 51
262.071858233797400
  0
ARC
  8
0
  6
CONTINUOUS
 62
3
 10
-462.826293629565270
 20
-182.838816670224760
 40
37.000000000000021
 50
215.963570118321970
 51
264.036429881678940
  0
ARC
  8
0
  6
CONTINUOUS
 62
3
 10
-462.826293629565270
 20
-182.838816670224760
 40
42.999999999999858
 50
215.531071524839690
 51
264.468928475160850
  0
ARC
  8
0
  6
CONTINUOUS
 62
3
 10
-462.826293629565270
 20
-182.838816670224760
 40
33.500000000000163
 50
217.180755781459110
 51
262.819244218541770
  0
ARC
  8
0
  6
CONTINUOUS
 62
3
 10
-485.700979557230770
 20
-200.664324901708340
 40
1.500000000000122
 50
37.928141766218701
 51
119.999999999992930
  0
ARC
  8
0
  6
CONTINUOUS
 62
3
 10
-496.599013682700390
 20
-206.956307837685900
 40
1.499999999999926
 50
120.000000000001620
 51
215.531071524832130
  0
LINE
  8
0
  6
CONTINUOUS
 62
3
 10
-497.349013682700390
 20
-205.657269732009330
 11
-494.737830083716290
 21
-204.149702178231990
  0
ARC
  8
0
  6
CONTINUOUS
 62
3
 10
-493.987830083716290
 20
-205.448740283908560
 40
1.499999999999968
 50
35.963570118309242
 51
120.000000000001620
  0
LINE
  8
0
  6
CONTINUOUS
 62
3
 10
-489.071747799300060
 20
-200.878388046073700
 11
-486.450979557230770
 21
-199.365286796031310
  0
ARC
  8
0
  6
CONTINUOUS
 62
3
 10
-488.321747799300060
 20
-202.177426151750270
 40
1.499999999999926
 50
120.000000000001620
 51
217.180755781464400
  0
ARC
  8
0
  6
CONTINUOUS
 62
3
 10
-500.599013682700390
 20
-165.649528733040570
 40
1.499999999999926
 50
59.999999999998380
 51
155.531071524840400
  0
LINE
  8
0
  6
CONTINUOUS
 62
3
 10
-497.237830083715830
 20
-165.858058181141100
 11
-499.849013682700390
 21
-164.350490627364000
  0
LINE
  8
0
  6
CONTINUOUS
 62
3
 10
-488.950979557230990
 20
-170.642473563341330
 11
-491.571747799299830
 21
-169.129372313299170
  0
ARC
  8
0
  6
CONTINUOUS
 62
3
 10
-497.987830083716060
 20
-167.157096286817680
 40
1.499999999999855
 50
335.963570118319300
 51
59.999999999990862
  0
ARC
  8
0
  6
CONTINUOUS
 62
3
 10
-492.321747799299830
 20
-170.428410418975970
 40
1.500000000000123
 50
60.000000000002721
 51
157.180755781457980
  0
ARC
  8
0
  6
CONTINUOUS
 62
3
 10
-489.700979557230990
 20
-171.941511669017900
 40
1.500000000000110
 50
337.928141766202600
 51
59.999999999998380
  0
ARC
  8
0
  6
CONTINUOUS
 62
3
 10
-462.826293629565500
 20
-182.838816670225210
 40
27.499999999999886
 50
157.928141766202200
 51
202.071858233798680
  0
ARC
  8
0
  6
CONTINUOUS
 62
3
 10
-462.826293629564820
 20
-182.838816670225670
 40
37.000000000000156
 50
155.963570118321120
 51
204.036429881678230
  0
ARC
  8
0
  6
CONTINUOUS
 62
3
 10
-462.826293629564820
 20
-182.838816670225670
 40
43.000000000000121
 50
155.531071524839230
 51
204.468928475160200
  0
ARC
  8
0
  6
CONTINUOUS
 62
3
 10
-462.826293629564820
 20
-182.838816670225670
 40
33.499999999999794
 50
157.180755781458400
 51
202.819244218540940
  0
ARC
  8
0
  6
CONTINUOUS
 62
3
 10
-489.700979557230770
 20
-193.736121671432530
 40
1.500000000000320
 50
299.999999999992950
 51
22.071858233784546
  0
ARC
  8
0
  6
CONTINUOUS
 62
3
 10
-500.599013682700390
 20
-200.028104607410090
 40
1.500000000000128
 50
204.468928475167470
 51
299.999999999992950
  0
LINE
  8
0
  6
CONTINUOUS
 62
3
 10
-499.849013682700390
 20
-201.327142713087110
 11
-497.237830083716290
 21
-199.819575159309780
  0
ARC
  8
0
  6
CONTINUOUS
 62
3
 10
-497.987830083716290
 20
-198.520537053633210
 40
1.499999999999926
 50
300.000000000001590
 51
24.036429881677126
  0
LINE
  8
0
  6
CONTINUOUS
 62
3
 10
-491.571747799300060
 20
-196.548261027151480
 11
-488.950979557230770
 21
-195.035159777109560
  0
ARC
  8
0
  6
CONTINUOUS
 62
3
 10
-492.321747799300060
 20
-195.249222921474910
 40
1.500000000000157
 50
202.819244218546660
 51
300.000000000001590
  0
ARC
  8
0
  6
CONTINUOUS
 62
3
 10
-496.599013682699930
 20
-158.721325502764530
 40
1.499999999999976
 50
144.468928475160790
 51
240.000000000002730
  0
LINE
  8
0
  6
CONTINUOUS
 62
3
 10
-494.737830083715830
 20
-161.527931162218440
 11
-497.349013682699930
 21
-160.020363608441330
  0
LINE
  8
0
  6
CONTINUOUS
 62
3
 10
-486.450979557230770
 20
-166.312346544418660
 11
-489.071747799299600
 21
-164.799245294376500
  0
ARC
  8
0
  6
CONTINUOUS
 62
3
 10
-493.987830083715830
 20
-160.228893056541640
 40
1.500000000000123
 50
240.000000000002730
 51
324.036429881683720
  0
ARC
  8
0
  6
CONTINUOUS
 62
3
 10
-488.321747799299600
 20
-163.500207188699930
 40
1.500000000000103
 50
142.819244218542510
 51
239.999999999998410
  0
ARC
  8
0
  6
CONTINUOUS
 62
3
 10
-485.700979557230770
 20
-165.013308438742090
 40
1.499999999999926
 50
239.999999999998410
 51
322.071858233800300
  0
ARC
  8
0
  6
CONTINUOUS
 62
3
 10
-462.826293629564590
 20
-182.838816670225210
 40
37.000000000000099
 50
95.963570118321798
 51
144.036429881678830
  0
ARC
  8
0
  6
CONTINUOUS
 62
3
 10
-462.826293629564590
 20
-182.838816670225210
 40
43.000000000000043
 50
95.531071524839788
 51
144.468928475160770
  0
ARC
  8
0
  6
CONTINUOUS
 62
3
 10
-462.826293629564590
 20
-182.838816670225210
 40
33.499999999999950
 50
97.180755781459069
 51
142.819244218541740
  0
ARC
  8
0
  6
CONTINUOUS
 62
3
 10
-466.826293629565040
 20
-154.116003437534770
 40
1.499999999999998
 50
277.928141766204020
 51
0.000000000000000
  0
ARC
  8
0
  6
CONTINUOUS
 62
3
 10
-506.774881059847530
 20
-132.742202202696920
 40
6.599999999999971
 50
98.597082237248614
 51
134.999999999998610
  0
ARC
  8
0
  6
CONTINUOUS
 62
3
 10
-669.826293629565040
 20
-182.838816670224760
 40
300.000000000000170
 50
355.138594604201900
 51
0.000000000000000
  0
LINE
  8
0
  6
CONTINUOUS
 62
3
 10
-375.887524495583650
 20
-212.838816670224760
 11
-399.326293629565040
 21
-212.838816670224760
  0
ARC
  8
0
  6
CONTINUOUS
 62
3
 10
-375.887524495583650
 20
-207.838816670224760
 40
5.000000000000000
 50
270.000000000000000
 51
355.138594604199000
  0
ARC
  8
0
  6
CONTINUOUS
 62
3
 10
-375.887524495583650
 20
-157.838816670224990
 40
5.000000000000119
 50
4.861405395798401
 51
90.000000000000000
  0
ARC
  8
0
  6
CONTINUOUS
 62
3
 10
-669.826293629565040
 20
-182.838816670224760
 40
300.000000000000000
 50
0.000000000000000
 51
4.861405395797992
  0
LINE
  8
0
  6
CONTINUOUS
 62
3
 10
-369.326293629565040
 20
-180.338816670224760
 11
-369.836710477082760
 21
-180.338816670224760
  0
LINE
  8
0
  6
CONTINUOUS
 62
3
 10
-369.326293629565040
 20
-185.338816670224760
 11
-369.836710477082760
 21
-185.338816670224760
  0
LINE
  8
0
  6
CONTINUOUS
 62
3
 10
-369.326293629565040
 20
-185.338816670224760
 11
-369.326293629565040
 21
-180.338816670224760
  0
LINE
  8
0
  6
CONTINUOUS
 62
3
 10
-399.481298689024020
 20
-151.338816670224990
 11
-399.326293629565040
 21
-151.338816670224990
  0
LINE
  8
0
  6
CONTINUOUS
 62
3
 10
-375.887524495583650
 20
-152.838816670224990
 11
-399.327045887281200
 21
-152.838816670224990
  0
LINE
  8
0
  6
CONTINUOUS
 62
3
 10
-399.326293629565040
 20
-214.338816670225210
 11
-399.326293629565040
 21
-212.831315732491900
  0
LINE
  8
0
  6
CONTINUOUS
 62
3
 10
-399.326293629565040
 20
-152.846317607958300
 11
-399.326293629565040
 21
-151.338816670224990
  0
LINE
  8
0
  6
CONTINUOUS
 62
3
 10
-399.481298689024020
 20
-214.338816670225210
 11
-399.326293629565040
 21
-214.338816670225210
  0
ARC
  8
0
  6
CONTINUOUS
 62
4
 10
-227.226293629565130
 20
-182.838816670225210
 40
289.396999999999930
 50
173.948014641331470
 51
180.000000000000000
  0
LINE
  8
0
  6
CONTINUOUS
 62
4
 10
-506.010452272066230
 20
-138.487398442518920
 11
-510.586517664704840
 21
-143.063463835157530
  0
ARC
  8
0
  6
CONTINUOUS
 62
4
 10
-501.767811584947140
 20
-142.730039129638470
 40
5.999999999999923
 50
97.897988672425626
 51
134.999999999996930
  0
ARC
  8
0
  6
CONTINUOUS
 62
4
 10
-462.826293629565040
 20
-423.438816670225150
 40
289.396999999999930
 50
90.000000000000000
 51
97.897988672427743
  0
ARC
  8
0
  6
CONTINUOUS
 62
3
 10
-462.826293629565040
 20
57.761183329774951
 40
300.600000000000020
 50
261.402917762750920
 51
270.000000000000000
  0
ARC
  8
0
  6
CONTINUOUS
 62
3
 10
-462.826293629565040
 20
57.761183329774951
 40
300.600000000000140
 50
270.000000000000000
 51
278.597082237249080
  0
LINE
  8
0
  6
DASHDOT
 62
4
 10
-636.116467328534780
 20
-182.838816670225240
 11
-290.615222712309330
 21
-182.838816670225240
  0
LINE
  8
0
  6
DASHDOT
 62
4
 10
-493.292452021916690
 20
-173.338816670223650
 11
-431.618897650478170
 21
-173.338816670223650
  0
LINE
  8
0
  6
DASHDOT
 62
4
 10
343.706041864196100
 20
-52.777110477919450
 11
316.128877397920860
 21
-25.199946011643988
  0
LINE
  8
0
  6
CONTINUOUS
 62
3
 10
371.548406757068050
 20
-45.264136311463972
 11
343.587553209897120
 21
-17.303282764293044
  0
LINE
  8
0
  6
CONTINUOUS
 62
3
 10
336.193067697740620
 20
-80.619475370791406
 11
308.232214150569690
 21
-52.658621823620479
  0
LINE
  8
0
  6
CONTINUOUS
 62
3
 10
371.548406757068050
 20
-301.413497028987650
 11
343.587553209896900
 21
-329.374350576158580
  0
LINE
  8
0
  6
CONTINUOUS
 62
3
 10
336.193067697740620
 20
-266.058157969660210
 11
308.232214150569460
 21
-294.019011516831370
  0
LINE
  8
0
  6
DASHDOT
 62
4
 10
343.706041864195870
 20
-293.900522862532170
 11
316.128877397920630
 21
-321.477687328807630
  0
LINE
  8
0
  6
CONTINUOUS
 62
3
 10
606.767748056502340
 20
-330.838816670225920
 11
321.767748056502340
 21
-330.838816670225920
  0
LINE
  8
0
  6
CONTINUOUS
 62
3
 10
606.767748056502340
 20
-15.838816670225924
 11
321.767748056502340
 21
-15.838816670225924
  0
ARC
  8
0
  6
CONTINUOUS
 62
3
 10
361.775388403349100
 20
-250.015515951876750
 40
9.999999999999950
 50
216.800938413478920
 51
344.803706655300350
  0
ARC
  8
0
  6
CONTINUOUS
 62
3
 10
311.767748056502340
 20
-49.123087917687826
 40
5.000000000000000
 50
180.000000000000000
 51
225.000000000000000
  0
CIRCLE
  8
0
  6
CONTINUOUS
 62
3
 10
329.917459631058360
 20
-38.988528244781719
 40
12.000000000000000
  0
ARC
  8
0
  6
DASHDOT
 62
4
 10
464.267748056502340
 20
-173.338816670225920
 40
190.000000000000000
 50
129.119041968700370
 51
140.880958031302580
  0
ARC
  8
0
  6
CONTINUOUS
 62
3
 10
340.052019303964240
 20
-20.838816670225697
 40
5.000000000000041
 50
44.999999999998167
 51
90.000000000000000
  0
ARC
  8
0
  6
CONTINUOUS
 62
3
 10
329.121999885875080
 20
-87.690543182656938
 40
10.000000000000107
 50
327.635625093020340
 51
45.000000000000000
  0
ARC
  8
0
  6
CONTINUOUS
 62
3
 10
378.619474568933360
 20
-38.193068499598667
 40
9.999999999999758
 50
225.000000000000000
 51
302.364374906978530
  0
ARC
  8
0
  6
CONTINUOUS
 62
3
 10
329.121999885875310
 20
-258.987090157794910
 40
9.999999999999758
 50
315.000000000000000
 51
32.364374906979279
  0
ARC
  8
0
  6
CONTINUOUS
 62
3
 10
378.619474568933360
 20
-308.484564840853180
 40
10.000000000000107
 50
57.635625093020330
 51
134.999999999999090
  0
ARC
  8
0
  6
CONTINUOUS
 62
3
 10
340.052019303964240
 20
-325.838816670225920
 40
5.000000000000000
 50
270.000000000000000
 51
315.000000000000000
  0
ARC
  8
0
  6
CONTINUOUS
 62
3
 10
311.767748056502340
 20
-297.554545422764020
 40
5.000000000000041
 50
135.000000000001820
 51
180.000000000000000
  0
ARC
  8
0
  6
CONTINUOUS
 62
3
 10
321.767748056502340
 20
-315.838816670225920
 40
15.000000000000000
 50
180.000000000000000
 51
270.000000000000000
  0
ARC
  8
0
  6
CONTINUOUS
 62
3
 10
321.767748056502340
 20
-30.838816670225924
 40
15.000000000000000
 50
90.000000000000000
 51
180.000000000000000
  0
CIRCLE
  8
0
  6
CONTINUOUS
 62
3
 10
329.917459631058360
 20
-307.689105095669900
 40
12.000000000000000
  0
ARC
  8
0
  6
CONTINUOUS
 62
3
 10
366.792154069906020
 20
-333.275844326727110
 40
5.999999999999909
 50
2.984000447292837
 51
23.964546172534565
  0
ARC
  8
0
  6
CONTINUOUS
 62
3
 10
356.742569728440460
 20
-242.781858262011610
 40
10.000000000000092
 50
212.855608111867750
 51
339.806925700099780
  0
LINE
  8
0
  6
CONTINUOUS
 62
3
 10
306.767748056502340
 20
-30.838816670225924
 11
306.767748056502340
 21
-315.838816670225920
  0
ARC
  8
0
  6
DASHED
 62
3
 10
377.328978922521170
 20
-207.838816670211830
 40
5.000000000000119
 50
184.861405395798390
 51
270.000000000000000
  0
LINE
  8
0
  6
DASHED
 62
3
 10
370.767748056502570
 20
-180.338816670211830
 11
371.278164904020290
 21
-180.338816670211830
  0
LINE
  8
0
  6
DASHED
 62
3
 10
370.767748056502570
 20
-185.338816670211830
 11
371.278164904020290
 21
-185.338816670211830
  0
LINE
  8
0
  6
DASHED
 62
3
 10
370.767748056502570
 20
-185.338816670211830
 11
370.767748056502570
 21
-180.338816670211830
  0
ARC
  8
0
  6
DASHED
 62
3
 10
671.267748056502570
 20
-182.838816670211830
 40
300.000000000000000
 50
180.000000000000000
 51
184.861405395798040
  0
ARC
  8
0
  6
DASHED
 62
3
 10
377.328978922521170
 20
-157.838816670211830
 40
5.000000000000000
 50
90.000000000000000
 51
175.138594604201610
  0
ARC
  8
0
  6
DASHED
 62
3
 10
671.267748056502570
 20
-182.838816670211830
 40
300.000000000000170
 50
175.138594604201960
 51
180.000000000000000
  0
CIRCLE
  8
0
  6
CONTINUOUS
 62
3
 10
464.267748056502340
 20
-173.338816670225920
 40
145.000000000000000
  0
CIRCLE
  8
0
  6
CONTINUOUS
 62
3
 10
464.267748056502340
 20
-173.338816670225920
 40
138.000000000000000
  0
ARC
  8
0
  6
CONTINUOUS
 62
3
 10
336.928066466544580
 20
-181.838816670225920
 40
5.000000000000000
 50
90.000000000000000
 51
180.000000000000000
  0
ARC
  8
0
  6
CONTINUOUS
 62
3
 10
337.909663809063430
 20
-164.838816670225920
 40
4.999999999999872
 50
172.056783216977010
 51
270.000000000000000
  0
ARC
  8
0
  6
CONTINUOUS
 62
3
 10
439.236515505238910
 20
-178.976987345542510
 40
107.308449038694240
 50
92.924523789728326
 51
172.056783216978630
  0
ARC
  8
0
  6
CONTINUOUS
 62
3
 10
329.424320333828520
 20
-179.838816670225920
 40
3.000000000000000
 50
90.000000000000000
 51
182.759752678235600
  0
ARC
  8
0
  6
CONTINUOUS
 62
3
 10
329.424320333828520
 20
-166.838816670225920
 40
3.000000000000145
 50
177.240247321764400
 51
270.000000000000000
  0
ARC
  8
0
  6
CONTINUOUS
 62
3
 10
308.767748056502340
 20
-176.338816670225920
 40
2.000000000000000
 50
180.000000000000000
 51
270.000000000000000
  0
ARC
  8
0
  6
CONTINUOUS
 62
3
 10
308.767748056502340
 20
-170.338816670225920
 40
2.000000000000000
 50
90.000000000000000
 51
180.000000000000000
  0
ARC
  8
0
  6
CONTINUOUS
 62
3
 10
336.928066466544580
 20
-211.726386176098000
 40
5.000000000000000
 50
180.000000000000000
 51
196.775854678354560
  0
ARC
  8
0
  6
CONTINUOUS
 62
3
 10
311.477041532839620
 20
-165.338816670225920
 40
3.000000000000000
 50
270.000000000000000
 51
357.002775457333310
  0
ARC
  8
0
  6
CONTINUOUS
 62
3
 10
311.477041532839620
 20
-181.338816670225920
 40
3.000000000000193
 50
2.997224542666690
 51
90.000000000000000
  0
ARC
  8
0
  6
CONTINUOUS
 62
3
 10
464.267748056502340
 20
-173.338816670225920
 40
149.999999999999910
 50
182.997224542665240
 51
212.364374906978920
  0
ARC
  8
0
  6
CONTINUOUS
 62
3
 10
464.267748056502340
 20
-173.338816670225920
 40
149.999999999999910
 50
147.635625093021160
 51
177.002775457334760
  0
ARC
  8
0
  6
CONTINUOUS
 62
3
 10
417.747328755438280
 20
-265.218867333140450
 40
55.000000000000135
 50
114.115030123907000
 51
159.806925700100010
  0
ARC
  8
0
  6
CONTINUOUS
 62
3
 10
417.747328755438280
 20
-265.218867333140450
 40
48.000000000000021
 50
113.824470809971230
 51
164.803706655299460
  0
LINE
  8
0
  6
CONTINUOUS
 62
3
 10
331.928066466544580
 20
-181.838816670225920
 11
331.928066466544580
 21
-211.726386176098000
  0
LINE
  8
0
  6
CONTINUOUS
 62
3
 10
311.477041532839620
 20
-178.338816670225920
 11
308.767748056502340
 21
-178.338816670225920
  0
LINE
  8
0
  6
CONTINUOUS
 62
3
 10
311.477041532839620
 20
-168.338816670225920
 11
308.767748056502340
 21
-168.338816670225920
  0
LINE
  8
0
  6
CONTINUOUS
 62
3
 10
329.424320333828520
 20
-169.838816670225920
 11
391.557707484377720
 21
-169.838816670225920
  0
LINE
  8
0
  6
CONTINUOUS
 62
3
 10
329.424320333828520
 20
-176.838816670225920
 11
391.557707484377720
 21
-176.838816670225920
  0
LINE
  8
0
  6
DASHDOT
 62
4
 10
641.651900981734800
 20
-173.338816670225920
 11
288.637512188002570
 21
-173.338816670225920
  0
ARC
  8
0
  6
DASHDOT
 62
4
 10
464.267748056502340
 20
-173.338816670225920
 40
189.999999999999970
 50
218.898092988407310
 51
231.145724889904050
  0
LINE
  8
0
  6
DASHDOT
 62
4
 10
-462.826293629565040
 20
1.896538856413827
 11
-462.826293629565040
 21
-354.662555443046590
  0
TEXT
  8
0
  6
CONTINUOUS
 62
3
 10
-519.480468750000000
 20
217.669067382812500
 40
11.325599670410156
  1
Ｓ１５５
 50
0.000002504478167
 41
0.984848580536205
  7
STANDARD1
  0
TEXT
  8
0
  6
CONTINUOUS
 62
3
 10
-519.480468750000000
 20
199.479461669921880
 40
11.325599670410156
  1
三菱ギヤードモートル
 50
0.000002504478167
 41
0.984848580536205
  7
STANDARD1
  0
TEXT
  8
0
  6
CONTINUOUS
 62
3
 10
-519.480468750000000
 20
181.289871215820310
 40
11.325599670410156
  1
ＧＭ－ＳＦＳ
 50
0.000002504478167
 41
0.984848580536205
  7
STANDARD1
  0
TEXT
  8
0
  6
CONTINUOUS
 62
3
 10
-519.480468750000000
 20
163.100265502929690
 40
11.325599670410156
  1
０．４ｋＷ
 50
0.000002504478167
 41
0.984848580536205
  7
STANDARD1
  0
TEXT
  8
0
  6
CONTINUOUS
 62
3
 10
-519.480468750000000
 20
144.910659790039060
 40
11.325599670410156
  1
１／５４０～１／９００
 50
0.000002504478167
 41
0.984848580536205
  7
STANDARD1
  0
TEXT
  8
0
  6
CONTINUOUS
 62
3
 10
-519.480468750000000
 20
126.721061706542960
 40
11.325599670410156
  1
ＳＣＡＬＥ１／１
 50
0.000002504478167
 41
0.984848580536205
  7
STANDARD1
  0
INSERT
  8
0
  2
SYM22
 10
-0.435655530631038
 20
132.049386111163560
  0
INSERT
  8
0
  2
SYM23
 10
-0.435655530631038
 20
241.650937195078260
 41
-1.000000000000000
 50
180.000000000000000
  0
INSERT
  8
0
  2
SYM24
 10
31.064344469387152
 20
136.850161653120920
  0
INSERT
  8
0
  2
SYM25
 10
31.064344469387152
 20
65.850161653120921
  0
INSERT
  8
0
  2
SYM26
 10
14.564344469382831
 20
176.350161653119760
  0
INSERT
  8
0
  2
SYM27
 10
31.064344469387152
 20
236.850161653120890
 41
-1.000000000000000
 50
180.000000000000030
  0
INSERT
  8
0
  2
SYM28
 10
31.064344469386924
 20
307.850161653120890
 41
-1.000000000000000
 50
180.000000000000030
  0
INSERT
  8
0
  2
SYM29
 10
14.564344469382831
 20
197.350161653122030
 41
-1.000000000000000
 50
180.000000000000030
  0
ARC
  8
0
  6
DASHED
 62
4
 10
-206.435655530630920
 20
108.850161653121370
 40
7.000000000000000
 50
180.000000000000000
 51
0.000000000000000
  0
LINE
  8
0
  6
DASHED
 62
4
 10
-199.435655530630920
 20
108.850161653121370
 11
-199.435655530630920
 21
123.350161653121370
  0
LINE
  8
0
  6
DASHED
 62
4
 10
-213.435655530630920
 20
108.850161653121370
 11
-213.435655530630920
 21
123.350161653121370
  0
LINE
  8
0
  6
DASHDOT
 62
4
 10
-206.435655530630920
 20
99.906004395445251
 11
-206.435655530630920
 21
121.454493375977300
  0
LINE
  8
0
  6
DASHDOT
 62
4
 10
-215.521344637214500
 20
108.850161653121370
 11
-195.034756403505180
 21
108.850161653121370
  0
ARC
  8
0
  6
DASHED
 62
4
 10
-156.435655530630920
 20
108.850161653121370
 40
7.000000000000000
 50
180.000000000000000
 51
0.000000000000000
  0
CIRCLE
  8
0
  6
DASHED
 62
4
 10
-156.435655530630920
 20
108.850161653121370
 40
6.000000000000000
  0
LINE
  8
0
  6
DASHED
 62
4
 10
-163.435655530630920
 20
108.850161653121370
 11
-163.435655530630920
 21
123.350161653121370
  0
LINE
  8
0
  6
DASHED
 62
4
 10
-149.435655530630920
 20
108.850161653121370
 11
-149.435655530630920
 21
123.350161653121370
  0
LINE
  8
0
  6
DASHDOT
 62
4
 10
-156.435655530630920
 20
99.906004395445251
 11
-156.435655530630920
 21
121.885506527980590
  0
LINE
  8
0
  6
DASHDOT
 62
4
 10
-167.719184946357590
 20
108.850161653121370
 11
-145.952207537829280
 21
108.850161653121370
  0
POLYLINE
  8
0
  6
CONTINUOUS
 62
3
 66
1
 70
1
  0
VERTEX
  8
0
  6
CONTINUOUS
 62
3
 10
-217.235655530630370
 20
134.926636621061080
  0
VERTEX
  8
0
  6
CONTINUOUS
 62
3
 10
-217.325964712735190
 20
135.629593587261440
  0
VERTEX
  8
0
  6
CONTINUOUS
 62
3
 10
-217.593421727827320
 20
136.305536311473530
  0
VERTEX
  8
0
  6
CONTINUOUS
 62
3
 10
-218.027748352808400
 20
136.928488693878930
  0
VERTEX
  8
0
  6
CONTINUOUS
 62
3
 10
-218.612253659053580
 20
137.474511023777500
  0
VERTEX
  8
0
  6
CONTINUOUS
 62
3
 10
-219.324475435438250
 20
137.922619969244120
  0
VERTEX
  8
0
  6
CONTINUOUS
 62
3
 10
-220.137043398514440
 20
138.255594954806870
  0
VERTEX
  8
0
  6
CONTINUOUS
 62
3
 10
-221.018731017154550
 20
138.460639938505120
  0
VERTEX
  8
0
  6
CONTINUOUS
 62
3
 10
-221.935655530630360
 20
138.529875156605900
  0
VERTEX
  8
0
  6
CONTINUOUS
 62
3
 10
-222.852580044106160
 20
138.460639938505120
  0
VERTEX
  8
0
  6
CONTINUOUS
 62
3
 10
-223.734267662746280
 20
138.255594954806870
  0
VERTEX
  8
0
  6
CONTINUOUS
 62
3
 10
-224.546835625822470
 20
137.922619969244120
  0
VERTEX
  8
0
  6
CONTINUOUS
 62
3
 10
-225.259057402207130
 20
137.474511023777500
  0
VERTEX
  8
0
  6
CONTINUOUS
 62
3
 10
-225.843562708452310
 20
136.928488693878930
  0
VERTEX
  8
0
  6
CONTINUOUS
 62
3
 10
-226.277889333433390
 20
136.305536311473530
  0
VERTEX
  8
0
  6
CONTINUOUS
 62
3
 10
-226.545346348525530
 20
135.629593587261440
  0
VERTEX
  8
0
  6
CONTINUOUS
 62
3
 10
-226.635655530630340
 20
134.926636621061080
  0
VERTEX
  8
0
  6
CONTINUOUS
 62
3
 10
-226.545346348525530
 20
134.223679654860720
  0
VERTEX
  8
0
  6
CONTINUOUS
 62
3
 10
-226.277889333433390
 20
133.547736930648630
  0
VERTEX
  8
0
  6
CONTINUOUS
 62
3
 10
-225.843562708452310
 20
132.924784548243220
  0
VERTEX
  8
0
  6
CONTINUOUS
 62
3
 10
-225.259057402207110
 20
132.378762218344660
  0
VERTEX
  8
0
  6
CONTINUOUS
 62
3
 10
-224.546835625822470
 20
131.930653272878030
  0
VERTEX
  8
0
  6
CONTINUOUS
 62
3
 10
-223.734267662746280
 20
131.597678287315290
  0
VERTEX
  8
0
  6
CONTINUOUS
 62
3
 10
-222.852580044106160
 20
131.392633303617030
  0
VERTEX
  8
0
  6
CONTINUOUS
 62
3
 10
-221.935655530630360
 20
131.323398085516260
  0
VERTEX
  8
0
  6
CONTINUOUS
 62
3
 10
-221.018731017154550
 20
131.392633303617030
  0
VERTEX
  8
0
  6
CONTINUOUS
 62
3
 10
-220.137043398514440
 20
131.597678287315290
  0
VERTEX
  8
0
  6
CONTINUOUS
 62
3
 10
-219.324475435438250
 20
131.930653272878030
  0
VERTEX
  8
0
  6
CONTINUOUS
 62
3
 10
-218.612253659053610
 20
132.378762218344660
  0
VERTEX
  8
0
  6
CONTINUOUS
 62
3
 10
-218.027748352808400
 20
132.924784548243220
  0
VERTEX
  8
0
  6
CONTINUOUS
 62
3
 10
-217.593421727827320
 20
133.547736930648630
  0
VERTEX
  8
0
  6
CONTINUOUS
 62
3
 10
-217.325964712735190
 20
134.223679654860720
  0
SEQEND
  8
0
  6
CONTINUOUS
 62
3
  0
LINE
  8
0
  6
CONTINUOUS
 62
3
 10
-223.935655530630360
 20
131.934261067060760
 11
-221.935655530630360
 21
133.110046552683090
  0
LINE
  8
0
  6
CONTINUOUS
 62
3
 10
-221.935655530630360
 20
133.110046552683090
 11
-219.935655530630360
 21
134.762688191806520
  0
LINE
  8
0
  6
CONTINUOUS
 62
3
 10
-219.935655530630360
 20
131.934261067060760
 11
-221.935655530630360
 21
133.110046552683090
  0
LINE
  8
0
  6
CONTINUOUS
 62
3
 10
-221.935655530630360
 20
133.110046552683090
 11
-223.935655530630360
 21
134.762688191806520
  0
POLYLINE
  8
0
  6
CONTINUOUS
 62
3
 66
1
 70
1
  0
VERTEX
  8
0
  6
CONTINUOUS
 62
3
 10
-217.235655530630370
 20
238.773686685180960
  0
VERTEX
  8
0
  6
CONTINUOUS
 62
3
 10
-217.325964712735190
 20
239.476643651381320
  0
VERTEX
  8
0
  6
CONTINUOUS
 62
3
 10
-217.593421727827320
 20
240.152586375593420
  0
VERTEX
  8
0
  6
CONTINUOUS
 62
3
 10
-218.027748352808400
 20
240.775538757998820
  0
VERTEX
  8
0
  6
CONTINUOUS
 62
3
 10
-218.612253659053580
 20
241.321561087897410
  0
VERTEX
  8
0
  6
CONTINUOUS
 62
3
 10
-219.324475435438250
 20
241.769670033364040
  0
VERTEX
  8
0
  6
CONTINUOUS
 62
3
 10
-220.137043398514440
 20
242.102645018926780
  0
VERTEX
  8
0
  6
CONTINUOUS
 62
3
 10
-221.018731017154550
 20
242.307690002625040
  0
VERTEX
  8
0
  6
CONTINUOUS
 62
3
 10
-221.935655530630360
 20
242.376925220725810
  0
VERTEX
  8
0
  6
CONTINUOUS
 62
3
 10
-222.852580044106160
 20
242.307690002625040
  0
VERTEX
  8
0
  6
CONTINUOUS
 62
3
 10
-223.734267662746280
 20
242.102645018926780
  0
VERTEX
  8
0
  6
CONTINUOUS
 62
3
 10
-224.546835625822470
 20
241.769670033364040
  0
VERTEX
  8
0
  6
CONTINUOUS
 62
3
 10
-225.259057402207130
 20
241.321561087897410
  0
VERTEX
  8
0
  6
CONTINUOUS
 62
3
 10
-225.843562708452310
 20
240.775538757998820
  0
VERTEX
  8
0
  6
CONTINUOUS
 62
3
 10
-226.277889333433390
 20
240.152586375593420
  0
VERTEX
  8
0
  6
CONTINUOUS
 62
3
 10
-226.545346348525530
 20
239.476643651381320
  0
VERTEX
  8
0
  6
CONTINUOUS
 62
3
 10
-226.635655530630340
 20
238.773686685180960
  0
VERTEX
  8
0
  6
CONTINUOUS
 62
3
 10
-226.545346348525530
 20
238.070729718980600
  0
VERTEX
  8
0
  6
CONTINUOUS
 62
3
 10
-226.277889333433390
 20
237.394786994768510
  0
VERTEX
  8
0
  6
CONTINUOUS
 62
3
 10
-225.843562708452310
 20
236.771834612363110
  0
VERTEX
  8
0
  6
CONTINUOUS
 62
3
 10
-225.259057402207110
 20
236.225812282464520
  0
VERTEX
  8
0
  6
CONTINUOUS
 62
3
 10
-224.546835625822470
 20
235.777703336997890
  0
VERTEX
  8
0
  6
CONTINUOUS
 62
3
 10
-223.734267662746280
 20
235.444728351435150
  0
VERTEX
  8
0
  6
CONTINUOUS
 62
3
 10
-222.852580044106160
 20
235.239683367736890
  0
VERTEX
  8
0
  6
CONTINUOUS
 62
3
 10
-221.935655530630360
 20
235.170448149636120
  0
VERTEX
  8
0
  6
CONTINUOUS
 62
3
 10
-221.018731017154550
 20
235.239683367736890
  0
VERTEX
  8
0
  6
CONTINUOUS
 62
3
 10
-220.137043398514440
 20
235.444728351435150
  0
VERTEX
  8
0
  6
CONTINUOUS
 62
3
 10
-219.324475435438250
 20
235.777703336997890
  0
VERTEX
  8
0
  6
CONTINUOUS
 62
3
 10
-218.612253659053610
 20
236.225812282464520
  0
VERTEX
  8
0
  6
CONTINUOUS
 62
3
 10
-218.027748352808400
 20
236.771834612363110
  0
VERTEX
  8
0
  6
CONTINUOUS
 62
3
 10
-217.593421727827320
 20
237.394786994768510
  0
VERTEX
  8
0
  6
CONTINUOUS
 62
3
 10
-217.325964712735190
 20
238.070729718980600
  0
SEQEND
  8
0
  6
CONTINUOUS
 62
3
  0
LINE
  8
0
  6
CONTINUOUS
 62
3
 10
-223.935655530630360
 20
241.766062239181280
 11
-221.935655530630360
 21
240.590276753558500
  0
LINE
  8
0
  6
CONTINUOUS
 62
3
 10
-221.935655530630360
 20
240.590276753558500
 11
-219.935655530630360
 21
238.937635114435070
  0
LINE
  8
0
  6
CONTINUOUS
 62
3
 10
-219.935655530630360
 20
241.766062239181280
 11
-221.935655530630360
 21
240.590276753558500
  0
LINE
  8
0
  6
CONTINUOUS
 62
3
 10
-221.935655530630360
 20
240.590276753558500
 11
-223.935655530630360
 21
238.937635114435070
  0
LINE
  8
0
  6
CONTINUOUS
 62
3
 10
-210.935655530630920
 20
186.850161653120890
 11
-210.935655530630920
 21
251.850161653120890
  0
LINE
  8
0
  6
CONTINUOUS
 62
3
 10
-61.935655530631038
 20
246.350161653120670
 11
-61.935655530631038
 21
186.850161653120890
  0
LINE
  8
0
  6
CONTINUOUS
 62
3
 10
-210.935655530630920
 20
251.850161653120890
 11
-239.629679753051280
 21
251.850161653120890
  0
LINE
  8
0
  6
CONTINUOUS
 62
3
 10
-261.935655530580790
 20
186.850161653120890
 11
-261.935655530580790
 21
239.293366710366340
  0
ARC
  8
0
  6
CONTINUOUS
 62
3
 10
-239.629679753051280
 20
231.850161653120890
 40
20.000000000000000
 50
90.000000000000000
 51
125.000000000000240
  0
LINE
  8
0
  6
CONTINUOUS
 62
3
 10
-251.101208480072270
 20
248.233202538900680
 11
-260.826954265093260
 21
241.423162025517460
  0
ARC
  8
0
  6
CONTINUOUS
 62
3
 10
-259.335655530580650
 20
239.293366710366340
 40
2.599999999999721
 50
125.000000000001370
 51
180.000000000000000
  0
LINE
  8
0
  6
CONTINUOUS
 62
3
 10
-210.935655530630920
 20
186.850161653120890
 11
-210.935655530630920
 21
128.230940736248130
  0
LINE
  8
0
  6
CONTINUOUS
 62
3
 10
-61.935655530631038
 20
127.350161653120920
 11
-61.935655530631038
 21
186.850161653120890
  0
LINE
  8
0
  6
CONTINUOUS
 62
3
 10
-261.935655530580790
 20
186.850161653120890
 11
-261.935655530580790
 21
134.406956595875470
  0
LINE
  8
0
  6
CONTINUOUS
 62
3
 10
-251.101208480072270
 20
125.467120767341120
 11
-260.826954265093260
 21
132.277161280724360
  0
ARC
  8
0
  6
CONTINUOUS
 62
3
 10
-259.335655530580650
 20
134.406956595875470
 40
2.600000000000136
 50
180.000000000000000
 51
234.999999999998610
  0
LINE
  8
0
  6
CONTINUOUS
 62
3
 10
-220.935655530630810
 20
121.850161653120920
 11
-239.629679753051280
 21
121.850161653120920
  0
ARC
  8
0
  6
CONTINUOUS
 62
3
 10
-239.629679753051280
 20
141.850161653120920
 40
20.000000000000007
 50
234.999999999999740
 51
270.000000000000000
  0
LINE
  8
0
  6
CONTINUOUS
 62
3
 10
-218.935655530630810
 20
123.350161653121140
 11
-218.935655530630810
 21
125.059367860994340
  0
LINE
  8
0
  6
CONTINUOUS
 62
3
 10
-143.935655530630920
 20
128.350161653121150
 11
-210.935655530630920
 21
128.350161653121150
  0
LINE
  8
0
  6
CONTINUOUS
 62
3
 10
-143.935655530630920
 20
123.350161653121140
 11
-218.935655530630810
 21
123.350161653121140
  0
LINE
  8
0
  6
CONTINUOUS
 62
3
 10
-217.935655530630810
 20
94.850161653121376
 11
-217.935655530630810
 21
123.350161653121140
  0
LINE
  8
0
  6
CONTINUOUS
 62
3
 10
-144.935655530630920
 20
94.850161653121376
 11
-144.935655530630920
 21
123.350161653121140
  0
ARC
  8
0
  6
CONTINUOUS
 62
3
 10
-145.935655530630920
 20
94.850161653121376
 40
1.000000000000000
 50
270.000000000000000
 51
0.000000000000000
  0
ARC
  8
0
  6
CONTINUOUS
 62
3
 10
-216.935655530630810
 20
94.850161653121376
 40
1.000000000000000
 50
180.000000000000000
 51
270.000000000000000
  0
LINE
  8
0
  6
CONTINUOUS
 62
3
 10
-145.935655530630920
 20
93.850161653121376
 11
-216.935655530630810
 21
93.850161653121376
  0
LINE
  8
0
  6
CONTINUOUS
 62
3
 10
-151.935655530630920
 20
93.850161653121376
 11
-151.935655530630920
 21
93.350161653121376
  0
LINE
  8
0
  6
CONTINUOUS
 62
3
 10
-154.435655530630920
 20
93.850161653121376
 11
-154.435655530630920
 21
93.350161653121376
  0
LINE
  8
0
  6
CONTINUOUS
 62
3
 10
-159.935655530630920
 20
93.850161653121376
 11
-159.935655530630920
 21
93.350161653121376
  0
LINE
  8
0
  6
CONTINUOUS
 62
3
 10
-151.935655530630920
 20
93.350161653121376
 11
-159.935655530630920
 21
93.350161653121376
  0
LINE
  8
0
  6
CONTINUOUS
 62
3
 10
-143.935655530630920
 20
123.350161653121140
 11
-143.935655530630920
 21
128.350161653121150
  0
LINE
  8
0
  6
CONTINUOUS
 62
3
 10
-217.935655530630810
 20
125.230940736248120
 11
-213.935655530630920
 21
125.230940736248120
  0
LINE
  8
0
  6
CONTINUOUS
 62
3
 10
-220.935655530630810
 20
121.850161653120920
 11
-220.935655530630810
 21
122.230940736248120
  0
ARC
  8
0
  6
CONTINUOUS
 62
3
 10
-213.935655530630920
 20
128.230940736248130
 40
3.000000000000000
 50
270.000000000000000
 51
0.000000000000000
  0
ARC
  8
0
  6
CONTINUOUS
 62
3
 10
-217.935655530630810
 20
122.230940736248120
 40
3.000000000000000
 50
90.000000000000000
 51
180.000000000000000
  0
LINE
  8
0
  6
CONTINUOUS
 62
3
 10
-210.935655530630920
 20
246.350161653120670
 11
-61.935655530631038
 21
246.350161653120670
  0
LINE
  8
0
  6
CONTINUOUS
 62
3
 10
-143.935655530630920
 20
127.350161653120920
 11
-61.935655530631038
 21
127.350161653120920
  0
LINE
  8
0
  6
CONTINUOUS
 62
4
 10
-210.935655530630920
 20
129.850161653120920
 11
-61.935655530631038
 21
129.850161653120920
  0
LINE
  8
0
  6
CONTINUOUS
 62
4
 10
-210.935655530630920
 20
130.850161653120920
 11
-61.935655530631038
 21
130.850161653120920
  0
LINE
  8
0
  6
CONTINUOUS
 62
4
 10
-210.935655530630920
 20
131.850161653120920
 11
-61.935655530631038
 21
131.850161653120920
  0
LINE
  8
0
  6
CONTINUOUS
 62
4
 10
-210.935655530630920
 20
136.534627466345200
 11
-61.935655530631038
 21
136.534627466345200
  0
LINE
  8
0
  6
CONTINUOUS
 62
4
 10
-210.935655530630920
 20
141.484374934650960
 11
-61.935655530631038
 21
141.484374934650960
  0
LINE
  8
0
  6
CONTINUOUS
 62
4
 10
-210.935655530630920
 20
149.530976597384980
 11
-61.935655530631038
 21
149.530976597384980
  0
LINE
  8
0
  6
CONTINUOUS
 62
4
 10
-210.935655530630920
 20
151.135624512947030
 11
-61.935655530631038
 21
151.135624512947030
  0
LINE
  8
0
  6
CONTINUOUS
 62
4
 10
-210.935655530630920
 20
155.099369936746570
 11
-61.935655530631038
 21
155.099369936746570
  0
LINE
  8
0
  6
CONTINUOUS
 62
4
 10
-210.935655530630920
 20
156.567727326551190
 11
-61.935655530631038
 21
156.567727326551190
  0
LINE
  8
0
  6
CONTINUOUS
 62
4
 10
-210.935655530630920
 20
160.658227860641030
 11
-61.935655530631038
 21
160.658227860641030
  0
LINE
  8
0
  6
CONTINUOUS
 62
4
 10
-210.935655530630920
 20
162.020108195990300
 11
-61.935655530631038
 21
162.020108195990300
  0
LINE
  8
0
  6
CONTINUOUS
 62
4
 10
-210.935655530630920
 20
166.210661927532500
 11
-61.935655530631038
 21
166.210661927532500
  0
LINE
  8
0
  6
CONTINUOUS
 62
4
 10
-210.935655530630920
 20
167.476899843619720
 11
-61.935655530631038
 21
167.476899843619720
  0
LINE
  8
0
  6
CONTINUOUS
 62
4
 10
-210.935655530630920
 20
171.850161653120890
 11
-61.935655530631038
 21
171.850161653120890
  0
LINE
  8
0
  6
CONTINUOUS
 62
4
 10
-210.935655530630920
 20
224.169346708856840
 11
-61.935655530631038
 21
224.169346708856840
  0
LINE
  8
0
  6
CONTINUOUS
 62
4
 10
-210.935655530630920
 20
222.564698793294780
 11
-61.935655530631038
 21
222.564698793294780
  0
LINE
  8
0
  6
CONTINUOUS
 62
4
 10
-210.935655530630920
 20
218.600953369495240
 11
-61.935655530631038
 21
218.600953369495240
  0
LINE
  8
0
  6
CONTINUOUS
 62
4
 10
-210.935655530630920
 20
217.132595979690620
 11
-61.935655530631038
 21
217.132595979690620
  0
LINE
  8
0
  6
CONTINUOUS
 62
4
 10
-210.935655530630920
 20
213.042095445600750
 11
-61.935655530631038
 21
213.042095445600750
  0
LINE
  8
0
  6
CONTINUOUS
 62
4
 10
-210.935655530630920
 20
211.680215110251480
 11
-61.935655530631038
 21
211.680215110251480
  0
LINE
  8
0
  6
CONTINUOUS
 62
4
 10
-210.935655530630920
 20
207.489661378709290
 11
-61.935655530631038
 21
207.489661378709290
  0
LINE
  8
0
  6
CONTINUOUS
 62
4
 10
-210.935655530630920
 20
206.223423462622070
 11
-61.935655530631038
 21
206.223423462622070
  0
LINE
  8
0
  6
CONTINUOUS
 62
4
 10
-210.935655530630920
 20
201.850161653120890
 11
-61.935655530631038
 21
201.850161653120890
  0
LINE
  8
0
  6
CONTINUOUS
 62
4
 10
-210.935655530630920
 20
232.215948371590860
 11
-61.935655530631038
 21
232.215948371590860
  0
LINE
  8
0
  6
CONTINUOUS
 62
4
 10
-210.935655530630920
 20
237.165695839896610
 11
-61.935655530631038
 21
237.165695839896610
  0
LINE
  8
0
  6
CONTINUOUS
 62
4
 10
-210.935655530630920
 20
241.850161653120890
 11
-61.935655530631038
 21
241.850161653120890
  0
LINE
  8
0
  6
CONTINUOUS
 62
4
 10
-210.935655530630920
 20
242.850161653120890
 11
-61.935655530631038
 21
242.850161653120890
  0
LINE
  8
0
  6
CONTINUOUS
 62
4
 10
-210.935655530630920
 20
243.850161653120890
 11
-61.935655530631038
 21
243.850161653120890
  0
LINE
  8
0
  6
CONTINUOUS
 62
3
 10
-143.935655530630920
 20
246.350161653120890
 11
-61.935655530631038
 21
246.350161653120890
  0
LINE
  8
0
  6
CONTINUOUS
 62
3
 10
-86.435655530631038
 20
246.350161653120670
 11
-210.435655530631040
 21
246.350161653120670
  0
LINE
  8
0
  6
DASHDOT
 62
3
 10
-86.435655530631038
 20
246.350161653120670
 11
-86.435655530631038
 21
251.350161653120670
  0
LINE
  8
0
  6
CONTINUOUS
 62
3
 10
-210.435655530631040
 20
246.350161653120670
 11
-210.435655530631040
 21
251.350161653120670
  0
ARC
  8
0
  6
CONTINUOUS
 62
3
 10
-85.435655530631038
 20
269.853031273701560
 40
2.000000000000000
 50
270.000000000000000
 51
0.000000000000000
  0
ARC
  8
0
  6
CONTINUOUS
 62
3
 10
-85.435655530631038
 20
270.652033144820450
 40
2.000000000000000
 50
270.000000000000000
 51
0.000000000000000
  0
ARC
  8
0
  6
CONTINUOUS
 62
3
 10
-85.435655530631038
 20
271.451035015905690
 40
2.000000000000000
 50
270.000000000000000
 51
0.000000000000000
  0
ARC
  8
0
  6
CONTINUOUS
 62
3
 10
-85.435655530631038
 20
272.544671944182880
 40
2.000000000000000
 50
0.000000000000000
 51
90.000000000000000
  0
LINE
  8
0
  6
CONTINUOUS
 62
3
 10
-86.435655530631038
 20
274.544671944182880
 11
-85.435655530631038
 21
274.544671944182880
  0
LINE
  8
0
  6
CONTINUOUS
 62
3
 10
-85.435655530631038
 20
267.853031273701560
 11
-211.435655530631040
 21
267.853031273701560
  0
LINE
  8
0
  6
CONTINUOUS
 62
3
 10
-85.435655530631038
 20
268.652033144803620
 11
-211.435655530631040
 21
268.652033144803620
  0
LINE
  8
0
  6
CONTINUOUS
 62
3
 10
-83.435655530631038
 20
272.544671944182880
 11
-83.435655530631038
 21
269.853031273701560
  0
LINE
  8
0
  6
CONTINUOUS
 62
3
 10
-86.435655530631038
 20
256.350161653120670
 11
-86.435655530631038
 21
267.652033144820450
  0
LINE
  8
0
  6
CONTINUOUS
 62
3
 10
-205.435655530631040
 20
292.950161653120570
 11
-91.435655530631038
 21
292.950161653120570
  0
ARC
  8
0
  6
CONTINUOUS
 62
3
 10
-91.435655530631038
 20
287.950161653120570
 40
5.000000000000000
 50
0.000000000000000
 51
90.000000000000000
  0
LINE
  8
0
  6
CONTINUOUS
 62
3
 10
-210.435655530631040
 20
256.350161653120670
 11
-210.435655530631040
 21
267.853031273701560
  0
ARC
  8
0
  6
CONTINUOUS
 62
3
 10
-211.435655530631040
 20
269.853031273701560
 40
2.000000000000000
 50
180.000000000000000
 51
270.000000000000000
  0
LINE
  8
0
  6
CONTINUOUS
 62
3
 10
-213.435655530631040
 20
272.544671944182880
 11
-213.435655530631040
 21
269.853031273701560
  0
ARC
  8
0
  6
CONTINUOUS
 62
3
 10
-211.435655530631040
 20
270.652033144820450
 40
2.000000000000000
 50
180.000000000000000
 51
270.000000000000000
  0
ARC
  8
0
  6
CONTINUOUS
 62
3
 10
-211.435655530631040
 20
271.451035015905690
 40
2.000000000000000
 50
180.000000000000000
 51
270.000000000000000
  0
ARC
  8
0
  6
CONTINUOUS
 62
3
 10
-211.435655530631040
 20
272.544671944182880
 40
2.000000000000000
 50
90.000000000000000
 51
180.000000000000000
  0
ARC
  8
0
  6
CONTINUOUS
 62
3
 10
-205.435655530631040
 20
287.950161653120570
 40
5.000000000000000
 50
90.000000000000000
 51
180.000000000000000
  0
ARC
  8
0
  6
CONTINUOUS
 62
3
 10
-205.435655530631040
 20
256.350161653120670
 40
5.000000000000000
 50
180.000000000000000
 51
270.000000000000000
  0
LINE
  8
0
  6
CONTINUOUS
 62
3
 10
-85.435655530631038
 20
269.451035015905690
 11
-211.435655530631040
 21
269.451035015905690
  0
LINE
  8
0
  6
CONTINUOUS
 62
3
 10
-210.435655530631040
 20
274.544671944182880
 11
-211.435655530631040
 21
274.544671944182880
  0
LINE
  8
0
  6
CONTINUOUS
 62
3
 10
-210.435655530631040
 20
275.011186712807500
 11
-210.435655530631040
 21
287.950161653120570
  0
ARC
  8
0
  6
CONTINUOUS
 62
3
 10
-91.435655530631038
 20
256.350161653120670
 40
5.000000000000000
 50
270.000000000000000
 51
0.000000000000000
  0
LINE
  8
0
  6
CONTINUOUS
 62
3
 10
-86.435655530631038
 20
275.011186712807500
 11
-86.435655530631038
 21
287.950161653120570
  0
POLYLINE
  8
0
  6
CONTINUOUS
 62
3
 66
1
  0
VERTEX
  8
0
  6
CONTINUOUS
 62
3
 10
-206.935655530631040
 20
269.700723100625450
  0
VERTEX
  8
0
  6
CONTINUOUS
 62
3
 10
-206.868404012042330
 20
269.666624890429490
  0
VERTEX
  8
0
  6
CONTINUOUS
 62
3
 10
-206.669233894420530
 20
269.633837055328850
  0
VERTEX
  8
0
  6
CONTINUOUS
 62
3
 10
-206.345799173689950
 20
269.603619613438810
  0
VERTEX
  8
0
  6
CONTINUOUS
 62
3
 10
-205.910529264783950
 20
269.577133804105130
  0
VERTEX
  8
0
  6
CONTINUOUS
 62
3
 10
-205.380151346199650
 20
269.555397462127020
  0
VERTEX
  8
0
  6
CONTINUOUS
 62
3
 10
-204.775047543908840
 20
269.539245902936840
  0
VERTEX
  8
0
  6
CONTINUOUS
 62
3
 10
-204.118471657687480
 20
269.529299821896420
  0
VERTEX
  8
0
  6
CONTINUOUS
 62
3
 10
-203.435655530631040
 20
269.525941441322230
  0
VERTEX
  8
0
  6
CONTINUOUS
 62
3
 10
-202.752839403574600
 20
269.529299821896420
  0
VERTEX
  8
0
  6
CONTINUOUS
 62
3
 10
-202.096263517353240
 20
269.539245902936840
  0
VERTEX
  8
0
  6
CONTINUOUS
 62
3
 10
-201.491159715062420
 20
269.555397462127020
  0
VERTEX
  8
0
  6
CONTINUOUS
 62
3
 10
-200.960781796478130
 20
269.577133804105130
  0
VERTEX
  8
0
  6
CONTINUOUS
 62
3
 10
-200.525511887572120
 20
269.603619613438810
  0
VERTEX
  8
0
  6
CONTINUOUS
 62
3
 10
-200.202077166841550
 20
269.633837055328850
  0
VERTEX
  8
0
  6
CONTINUOUS
 62
3
 10
-200.002907049219740
 20
269.666624890429490
  0
VERTEX
  8
0
  6
CONTINUOUS
 62
3
 10
-199.935655530631040
 20
269.700723100625450
  0
SEQEND
  8
0
  6
CONTINUOUS
 62
3
  0
ARC
  8
0
  6
CONTINUOUS
 62
3
 10
-201.235655530631220
 20
270.687732838549830
 40
1.300000000000182
 50
0.000000000000000
 51
73.398450400977637
  0
ARC
  8
0
  6
CONTINUOUS
 62
3
 10
-203.435655530631040
 20
263.308708512800370
 40
9.000000000000123
 50
73.398450400980877
 51
106.601549599019120
  0
ARC
  8
0
  6
CONTINUOUS
 62
3
 10
-205.635655530630860
 20
270.687732838549830
 40
1.300000000000019
 50
106.601549599022360
 51
180.000000000000000
  0
LINE
  8
0
  6
CONTINUOUS
 62
3
 10
-199.935655530631040
 20
270.687732838549830
 11
-199.935655530631040
 21
269.700723100625450
  0
LINE
  8
0
  6
CONTINUOUS
 62
3
 10
-206.935655530631040
 20
270.687732838549830
 11
-206.935655530631040
 21
269.700723100625450
  0
ARC
  8
0
  6
CONTINUOUS
 62
3
 10
-205.435655530631040
 20
275.011186712807500
 40
5.000000000000000
 50
180.000000000000000
 51
252.542396876278160
  0
LINE
  8
0
  6
CONTINUOUS
 62
3
 10
-96.935655530631038
 20
270.687732838549830
 11
-96.935655530631038
 21
269.700723100625450
  0
POLYLINE
  8
0
  6
CONTINUOUS
 62
3
 66
1
  0
VERTEX
  8
0
  6
CONTINUOUS
 62
3
 10
-96.935655530631038
 20
269.700723100625450
  0
VERTEX
  8
0
  6
CONTINUOUS
 62
3
 10
-96.868404012042348
 20
269.666624890429490
  0
VERTEX
  8
0
  6
CONTINUOUS
 62
3
 10
-96.669233894420543
 20
269.633837055328850
  0
VERTEX
  8
0
  6
CONTINUOUS
 62
3
 10
-96.345799173689940
 20
269.603619613438810
  0
VERTEX
  8
0
  6
CONTINUOUS
 62
3
 10
-95.910529264783960
 20
269.577133804105130
  0
VERTEX
  8
0
  6
CONTINUOUS
 62
3
 10
-95.380151346199654
 20
269.555397462127020
  0
VERTEX
  8
0
  6
CONTINUOUS
 62
3
 10
-94.775047543908855
 20
269.539245902936840
  0
VERTEX
  8
0
  6
CONTINUOUS
 62
3
 10
-94.118471657687493
 20
269.529299821896420
  0
VERTEX
  8
0
  6
CONTINUOUS
 62
3
 10
-93.435655530631038
 20
269.525941441322230
  0
VERTEX
  8
0
  6
CONTINUOUS
 62
3
 10
-92.752839403574598
 20
269.529299821896420
  0
VERTEX
  8
0
  6
CONTINUOUS
 62
3
 10
-92.096263517353222
 20
269.539245902936840
  0
VERTEX
  8
0
  6
CONTINUOUS
 62
3
 10
-91.491159715062437
 20
269.555397462127020
  0
VERTEX
  8
0
  6
CONTINUOUS
 62
3
 10
-90.960781796478130
 20
269.577133804105130
  0
VERTEX
  8
0
  6
CONTINUOUS
 62
3
 10
-90.525511887572137
 20
269.603619613438810
  0
VERTEX
  8
0
  6
CONTINUOUS
 62
3
 10
-90.202077166841534
 20
269.633837055328850
  0
VERTEX
  8
0
  6
CONTINUOUS
 62
3
 10
-90.002907049219729
 20
269.666624890429490
  0
VERTEX
  8
0
  6
CONTINUOUS
 62
3
 10
-89.935655530631038
 20
269.700723100625450
  0
SEQEND
  8
0
  6
CONTINUOUS
 62
3
  0
LINE
  8
0
  6
CONTINUOUS
 62
3
 10
-89.935655530631038
 20
270.687732838549830
 11
-89.935655530631038
 21
269.700723100625450
  0
ARC
  8
0
  6
CONTINUOUS
 62
3
 10
-95.635655530630856
 20
270.687732838549830
 40
1.300000000000019
 50
106.601549599022360
 51
180.000000000000000
  0
ARC
  8
0
  6
CONTINUOUS
 62
3
 10
-93.435655530631038
 20
263.308708512800370
 40
9.000000000000123
 50
73.398450400980877
 51
106.601549599019120
  0
ARC
  8
0
  6
CONTINUOUS
 62
3
 10
-91.235655530631220
 20
270.687732838549830
 40
1.300000000000182
 50
0.000000000000000
 51
73.398450400977637
  0
ARC
  8
0
  6
CONTINUOUS
 62
3
 10
-91.435655530631038
 20
275.011186712807500
 40
5.000000000000072
 50
287.457603123721870
 51
0.000000000000000
  0
LINE
  8
0
  6
CONTINUOUS
 62
3
 10
-96.935655530631038
 20
270.011186712807500
 11
-199.935655530631040
 21
270.011186712807500
  0
LINE
  8
0
  6
CONTINUOUS
 62
3
 10
-210.435655530631040
 20
251.350161653120670
 11
-86.435655530631038
 21
251.350161653120670
  0
LINE
  8
0
  6
DASHDOT
 62
3
 10
-86.435655530631038
 20
246.350161653120670
 11
-86.435655530631038
 21
251.350161653120670
  0
LINE
  8
0
  6
CONTINUOUS
 62
3
 10
-0.435655530631038
 20
186.850161653120890
 11
-0.435655530631038
 21
106.596435672459590
  0
LINE
  8
0
  6
CONTINUOUS
 62
3
 10
2.459645979261268
 20
103.598263191402310
 11
9.564344469368962
 21
103.350161653120920
  0
ARC
  8
0
  6
CONTINUOUS
 62
3
 10
2.564344469368962
 20
106.596435672459590
 40
3.000000000000000
 50
180.000000000000000
 51
267.999999999996360
  0
ARC
  8
0
  6
CONTINUOUS
 62
3
 10
-5.435655530631038
 20
122.350161653120800
 40
5.000000000000000
 50
0.000000000000000
 51
52.171363151968755
  0
ARC
  8
0
  6
CONTINUOUS
 62
3
 10
-5.435655530631038
 20
251.350161653121120
 40
5.000000000000119
 50
307.828636848029650
 51
0.000000000000000
  0
LINE
  8
0
  6
CONTINUOUS
 62
3
 10
2.459645979261268
 20
270.102060114839500
 11
9.564344469368962
 21
270.350161653120890
  0
LINE
  8
0
  6
CONTINUOUS
 62
3
 10
-0.435655530631038
 20
186.850161653120890
 11
-0.435655530631038
 21
267.103887633782220
  0
ARC
  8
0
  6
CONTINUOUS
 62
3
 10
2.564344469368962
 20
267.103887633782220
 40
3.000000000000001
 50
92.000000000003652
 51
180.000000000000000
  0
ARC
  8
0
  6
CONTINUOUS
 62
3
 10
33.064344469387152
 20
53.850161653120921
 40
2.000000000000000
 50
180.000000000000000
 51
270.000000000000000
  0
LINE
  8
0
  6
CONTINUOUS
 62
3
 10
42.064344469387152
 20
186.850161653120890
 11
42.064344469387152
 21
51.850161653120921
  0
LINE
  8
0
  6
CONTINUOUS
 62
3
 10
31.064344469387152
 20
186.850161653120890
 11
31.064344469387152
 21
53.850161653120921
  0
ARC
  8
0
  6
CONTINUOUS
 62
3
 10
29.064344469387152
 20
74.892121761570905
 40
2.999999999999756
 50
99.594068226861253
 51
180.000000000000000
  0
ARC
  8
0
  6
CONTINUOUS
 62
3
 10
28.064344469387152
 20
53.850161653120921
 40
2.000000000000000
 50
180.000000000000000
 51
270.000000000000000
  0
ARC
  8
0
  6
CONTINUOUS
 62
3
 10
26.064344469387152
 20
160.997906236708960
 40
5.000000000000000
 50
0.000000000000000
 51
87.999999999998934
  0
LINE
  8
0
  6
CONTINUOUS
 62
3
 10
26.238841952899747
 20
165.994860371804350
 11
21.959645979279458
 21
166.144293188009390
  0
ARC
  8
0
  6
CONTINUOUS
 62
3
 10
22.064344469387152
 20
169.142465669066670
 40
3.000000000000000
 50
180.000000000000000
 51
267.999999999996360
  0
LINE
  8
0
  6
CONTINUOUS
 62
3
 10
19.064344469387152
 20
186.850161653120890
 11
19.064344469387152
 21
166.350161653120890
  0
LINE
  8
0
  6
CONTINUOUS
 62
3
 10
19.064344469387152
 20
166.350161653120890
 11
14.564344469383514
 21
166.350161653120890
  0
LINE
  8
0
  6
CONTINUOUS
 62
3
 10
14.564344469383514
 20
186.850161653120890
 11
14.564344469383514
 21
166.350161653120890
  0
LINE
  8
0
  6
CONTINUOUS
 62
3
 10
26.064344469387152
 20
53.850161653120921
 11
26.064344469387152
 21
59.350161653120921
  0
LINE
  8
0
  6
CONTINUOUS
 62
3
 10
26.064344469387152
 20
72.350161653120921
 11
26.064344469387152
 21
74.892121761570905
  0
ARC
  8
0
  6
CONTINUOUS
 62
3
 10
13.564344469391699
 20
105.248090786550810
 40
2.000000000000000
 50
180.000000000000000
 51
266.999999999993860
  0
ARC
  8
0
  6
CONTINUOUS
 62
3
 10
9.564344469390562
 20
113.850161653120690
 40
2.000000000000000
 50
0.000000000000000
 51
90.000000000000000
  0
LINE
  8
0
  6
CONTINUOUS
 62
3
 10
11.564344469391699
 20
186.850161653120890
 11
11.564344469391699
 21
182.850161653119760
  0
LINE
  8
0
  6
CONTINUOUS
 62
3
 10
11.564344469391699
 20
169.850161653119760
 11
11.564344469391699
 21
105.248090786550810
  0
LINE
  8
0
  6
CONTINUOUS
 62
3
 10
9.564344469373964
 20
169.850161653119760
 11
9.564344469394655
 21
103.350161653120920
  0
ARC
  8
0
  6
CONTINUOUS
 62
3
 10
28.064344469387152
 20
81.355343181322240
 40
3.000000000000000
 50
0.000000000000000
 51
20.345861640555512
  0
LINE
  8
0
  6
CONTINUOUS
 62
3
 10
15.290020280045383
 20
124.432530048910130
 11
30.877177271945811
 21
82.398401964348494
  0
ARC
  8
0
  6
CONTINUOUS
 62
3
 10
12.477187477486495
 20
123.389471265883880
 40
2.999999999999916
 50
20.345861640554002
 51
90.000000000000000
  0
LINE
  8
0
  6
CONTINUOUS
 62
3
 10
15.290020280045383
 20
126.389471265884110
 11
29.318897412799515
 21
126.389471265884110
  0
ARC
  8
0
  6
CONTINUOUS
 62
3
 10
12.477187477486495
 20
118.738293305739230
 40
2.999999999999916
 50
20.345861640554002
 51
90.000000000000000
  0
ARC
  8
0
  6
CONTINUOUS
 62
3
 10
28.064344469387152
 20
76.704165221177590
 40
3.000000000000000
 50
0.000000000000000
 51
20.345861640555512
  0
LINE
  8
0
  6
CONTINUOUS
 62
3
 10
15.290020280045383
 20
119.781352088765480
 11
30.877177271945811
 21
77.747224004203844
  0
ARC
  8
0
  6
CONTINUOUS
 62
3
 10
28.064344469387152
 20
80.808201544670936
 40
3.000000000000653
 50
279.594068226858330
 51
321.971096688727810
  0
LINE
  8
0
  6
CONTINUOUS
 62
3
 10
21.577656401500917
 20
102.825386211491800
 11
13.459672556905616
 21
103.250831717042010
  0
ARC
  8
0
  6
CONTINUOUS
 62
3
 10
33.064344469386924
 20
319.850161653120890
 40
2.000000000000000
 50
90.000000000000000
 51
180.000000000000000
  0
LINE
  8
0
  6
CONTINUOUS
 62
3
 10
42.064344469387152
 20
186.850161653120890
 11
42.064344469386924
 21
321.850161653120890
  0
LINE
  8
0
  6
CONTINUOUS
 62
3
 10
31.064344469387152
 20
186.850161653120890
 11
31.064344469386924
 21
319.850161653120890
  0
ARC
  8
0
  6
CONTINUOUS
 62
3
 10
29.064344469386924
 20
298.808201544670910
 40
3.000000000000000
 50
180.000000000000000
 51
260.405931773138780
  0
ARC
  8
0
  6
CONTINUOUS
 62
3
 10
28.064344469386924
 20
319.850161653120890
 40
2.000000000000000
 50
90.000000000000000
 51
180.000000000000000
  0
ARC
  8
0
  6
CONTINUOUS
 62
3
 10
26.064344469387152
 20
212.702417069532830
 40
4.999999999999918
 50
272.000000000001080
 51
0.000000000000000
  0
LINE
  8
0
  6
CONTINUOUS
 62
3
 10
26.238841952899747
 20
207.705462934437430
 11
21.959645979279458
 21
207.556030118232400
  0
ARC
  8
0
  6
CONTINUOUS
 62
3
 10
22.064344469387152
 20
204.557857637175120
 40
3.000000000000001
 50
92.000000000003652
 51
180.000000000000000
  0
LINE
  8
0
  6
CONTINUOUS
 62
3
 10
19.064344469387152
 20
186.850161653120890
 11
19.064344469387152
 21
207.350161653120890
  0
LINE
  8
0
  6
CONTINUOUS
 62
3
 10
19.064344469387152
 20
207.350161653120890
 11
14.564344469383514
 21
207.350161653120890
  0
LINE
  8
0
  6
CONTINUOUS
 62
3
 10
14.564344469383514
 20
186.850161653120890
 11
14.564344469383514
 21
207.350161653120890
  0
LINE
  8
0
  6
CONTINUOUS
 62
3
 10
26.064344469386924
 20
319.850161653120890
 11
26.064344469386924
 21
314.350161653120890
  0
LINE
  8
0
  6
CONTINUOUS
 62
3
 10
26.064344469386924
 20
301.350161653120890
 11
26.064344469386924
 21
298.808201544670910
  0
ARC
  8
0
  6
CONTINUOUS
 62
3
 10
13.564344469391699
 20
268.452232519690990
 40
1.999999999999663
 50
93.000000000006111
 51
180.000000000000000
  0
ARC
  8
0
  6
CONTINUOUS
 62
3
 10
9.564344469390562
 20
259.850161653121120
 40
2.000000000000000
 50
270.000000000000000
 51
0.000000000000000
  0
LINE
  8
0
  6
CONTINUOUS
 62
3
 10
11.564344469391699
 20
186.850161653120890
 11
11.564344469391699
 21
190.850161653122030
  0
LINE
  8
0
  6
CONTINUOUS
 62
3
 10
11.564344469391699
 20
203.850161653122030
 11
11.564344469391699
 21
268.452232519690990
  0
LINE
  8
0
  6
CONTINUOUS
 62
3
 10
9.564344469367825
 20
182.850161653119760
 11
9.564344469370099
 21
190.850161653122030
  0
LINE
  8
0
  6
CONTINUOUS
 62
3
 10
9.564344469373964
 20
203.850161653122030
 11
9.564344469394314
 21
270.350161653120890
  0
ARC
  8
0
  6
CONTINUOUS
 62
3
 10
28.064344469386924
 20
292.344980124919570
 40
2.999999999999916
 50
339.654138359445990
 51
0.000000000000000
  0
LINE
  8
0
  6
CONTINUOUS
 62
3
 10
15.290020280045383
 20
249.267793257331680
 11
30.877177271945811
 21
291.301921341893320
  0
ARC
  8
0
  6
CONTINUOUS
 62
3
 10
12.477187477486495
 20
250.310852040357930
 40
3.000000000000227
 50
270.000000000000000
 51
339.654138359445990
  0
LINE
  8
0
  6
CONTINUOUS
 62
3
 10
15.290020280045383
 20
247.310852040357700
 11
29.318897412799515
 21
247.310852040357700
  0
ARC
  8
0
  6
CONTINUOUS
 62
3
 10
12.477187477486495
 20
254.962030000502580
 40
3.000000000000227
 50
270.000000000000000
 51
339.654138359445990
  0
ARC
  8
0
  6
CONTINUOUS
 62
3
 10
28.064344469386924
 20
296.996158085064220
 40
2.999999999999916
 50
339.654138359445990
 51
0.000000000000000
  0
LINE
  8
0
  6
CONTINUOUS
 62
3
 10
15.290020280045383
 20
253.918971217476330
 11
30.877177271945811
 21
295.953099302037970
  0
ARC
  8
0
  6
CONTINUOUS
 62
3
 10
28.064344469386924
 20
292.892121761570880
 40
3.000000000000123
 50
38.028903311269509
 51
80.405931773141646
  0
LINE
  8
0
  6
CONTINUOUS
 62
3
 10
21.577656401500917
 20
270.874937094750010
 11
13.459672556905616
 21
270.449491589199790
  0
ARC
  8
0
  6
CONTINUOUS
 62
3
 10
119.701764325220210
 20
99.709579256157411
 40
4.999999999999703
 50
54.248856798881903
 51
90.000000000000000
  0
LINE
  8
0
  6
CONTINUOUS
 62
3
 10
122.623093617976330
 20
103.767390878606390
 11
156.485673762143510
 21
79.388795589413320
  0
ARC
  8
0
  6
CONTINUOUS
 62
3
 10
153.564344469386920
 20
75.330983966964112
 40
5.000000000000000
 50
0.000000000000000
 51
54.248856798879189
  0
ARC
  8
0
  6
CONTINUOUS
 62
3
 10
119.701764325220210
 20
90.869070353410251
 40
4.999999999999703
 50
54.248856798881903
 51
90.000000000000000
  0
ARC
  8
0
  6
CONTINUOUS
 62
3
 10
153.564344469386920
 20
66.490475064216952
 40
5.000000000000000
 50
0.000000000000000
 51
54.248856798877661
  0
LINE
  8
0
  6
CONTINUOUS
 62
3
 10
122.623093617976330
 20
94.926881975859231
 11
156.485673762143510
 21
70.548286686665932
  0
LINE
  8
0
  6
CONTINUOUS
 62
3
 10
153.814740381065350
 20
104.709579256157410
 11
126.342361748254910
 21
104.709579256157410
  0
ARC
  8
0
  6
CONTINUOUS
 62
3
 10
126.314366471590800
 20
178.350161653120890
 40
5.000000000000000
 50
90.000000000000000
 51
180.000000000000000
  0
ARC
  8
0
  6
CONTINUOUS
 62
3
 10
126.314366471590800
 20
195.350161653120890
 40
5.000000000000000
 50
180.000000000000000
 51
270.000000000000000
  0
LINE
  8
0
  6
CONTINUOUS
 62
3
 10
153.564344469386920
 20
190.350161653120890
 11
126.314366471590800
 21
190.350161653120890
  0
ARC
  8
0
  6
CONTINUOUS
 62
3
 10
153.564344469386920
 20
195.350161653120890
 40
5.000000000000000
 50
270.000000000000000
 51
0.000000000000000
  0
LINE
  8
0
  6
CONTINUOUS
 62
3
 10
153.564344469386920
 20
183.350161653120890
 11
126.314366471590800
 21
183.350161653120890
  0
ARC
  8
0
  6
CONTINUOUS
 62
3
 10
153.564344469386920
 20
178.350161653120890
 40
5.000000000000000
 50
0.000000000000000
 51
90.000000000000000
  0
ARC
  8
0
  6
CONTINUOUS
 62
3
 10
119.701764325220210
 20
273.990744050084400
 40
5.000000000000000
 50
270.000000000000000
 51
305.751143201118110
  0
LINE
  8
0
  6
CONTINUOUS
 62
3
 10
122.623093617976330
 20
269.932932427635420
 11
156.485673762143510
 21
294.311527716828490
  0
ARC
  8
0
  6
CONTINUOUS
 62
3
 10
153.564344469386920
 20
298.369339339277700
 40
5.000000000000155
 50
305.751143201120780
 51
0.000000000000000
  0
ARC
  8
0
  6
CONTINUOUS
 62
3
 10
119.701764325220210
 20
282.831252952831560
 40
5.000000000000000
 50
270.000000000000000
 51
305.751143201118110
  0
ARC
  8
0
  6
CONTINUOUS
 62
3
 10
153.564344469386920
 20
307.209848242024860
 40
4.999999999999970
 50
305.751143201122320
 51
0.000000000000000
  0
LINE
  8
0
  6
CONTINUOUS
 62
3
 10
122.623093617976330
 20
278.773441330382580
 11
156.485673762143510
 21
303.152036619575880
  0
LINE
  8
0
  6
CONTINUOUS
 62
3
 10
153.814740381065350
 20
268.990744050084400
 11
126.342361748254910
 21
268.990744050084400
  0
LINE
  8
0
  6
CONTINUOUS
 62
3
 10
187.064344469386920
 20
142.850161653120920
 11
188.064344469386920
 21
142.850161653120920
  0
LINE
  8
0
  6
CONTINUOUS
 62
3
 10
187.064344469386920
 20
230.850161653120890
 11
188.064344469386920
 21
230.850161653120670
  0
LINE
  8
0
  6
CONTINUOUS
 62
3
 10
182.564344469386920
 20
330.850161653120890
 11
181.564344469386920
 21
331.850161653120890
  0
LINE
  8
0
  6
CONTINUOUS
 62
3
 10
182.564344469386920
 20
42.850161653121376
 11
181.564344469386920
 21
41.850161653121376
  0
LINE
  8
0
  6
CONTINUOUS
 62
3
 10
188.064344469386920
 20
142.850161653120920
 11
188.064344469386920
 21
230.850161653120670
  0
LINE
  8
0
  6
CONTINUOUS
 62
3
 10
181.564344469386920
 20
331.850161653120890
 11
178.564344469386920
 21
331.850161653120890
  0
LINE
  8
0
  6
CONTINUOUS
 62
3
 10
178.564344469386920
 20
344.350161653120890
 11
161.564344469386920
 21
344.350161653120890
  0
LINE
  8
0
  6
CONTINUOUS
 62
3
 10
181.564344469386920
 20
41.850161653121376
 11
178.564344469386920
 21
41.850161653121376
  0
ARC
  8
0
  6
CONTINUOUS
 62
3
 10
181.064344469386920
 20
121.850161653120920
 40
4.999999999999939
 50
303.367012969232230
 51
0.000000000000000
  0
ARC
  8
0
  6
CONTINUOUS
 62
3
 10
161.564344469386920
 20
341.350161653120890
 40
3.000000000000000
 50
90.000000000000000
 51
180.000000000000000
  0
ARC
  8
0
  6
CONTINUOUS
 62
3
 10
187.064344469386920
 20
231.850161653120890
 40
1.000000000000000
 50
180.000000000000000
 51
270.000000000000000
  0
ARC
  8
0
  6
CONTINUOUS
 62
3
 10
187.064344469386920
 20
141.850161653120920
 40
1.000000000000000
 50
90.000000000000000
 51
180.000000000000000
  0
LINE
  8
0
  6
CONTINUOUS
 62
3
 10
178.564344469386920
 20
186.850161653120890
 11
178.564344469386920
 21
344.350161653120890
  0
LINE
  8
0
  6
CONTINUOUS
 62
3
 10
186.064344469387380
 20
186.850161653120890
 11
186.064344469386920
 21
252.105338819546380
  0
LINE
  8
0
  6
CONTINUOUS
 62
3
 10
182.564344469386920
 20
186.850161653120890
 11
182.564344469386920
 21
330.850161653120890
  0
ARC
  8
0
  6
CONTINUOUS
 62
3
 10
181.064344469386920
 20
252.105338819546380
 40
5.000000000000000
 50
0.000000000000000
 51
72.542396876278175
  0
ARC
  8
0
  6
CONTINUOUS
 62
3
 10
161.564344469386920
 20
32.350161653120921
 40
3.000000000000000
 50
180.000000000000000
 51
270.000000000000000
  0
LINE
  8
0
  6
CONTINUOUS
 62
3
 10
178.564344469386920
 20
29.350161653121148
 11
161.564344469386920
 21
29.350161653121148
  0
LINE
  8
0
  6
CONTINUOUS
 62
3
 10
186.064344469386920
 20
186.850161653120890
 11
186.064344469386920
 21
121.850161653120920
  0
LINE
  8
0
  6
CONTINUOUS
 62
3
 10
182.564344469386920
 20
186.850161653120890
 11
182.564344469386920
 21
42.850161653121376
  0
LINE
  8
0
  6
CONTINUOUS
 62
3
 10
178.564344469386920
 20
186.850161653120890
 11
178.564344469386920
 21
29.350161653121376
  0
ARC
  8
0
  6
CONTINUOUS
 62
3
 10
186.564344469386920
 20
113.498515108875800
 40
5.000000000000129
 50
123.367012969230780
 51
143.130102354155980
  0
LINE
  8
0
  6
DASHDOT
 62
4
 10
287.511450546287050
 20
186.850161653120890
 11
-293.483541296932340
 21
186.850161653120890
  0
LINE
  8
0
  6
CONTINUOUS
 62
3
 10
158.564344469386920
 20
32.350161653120921
 11
158.564344469386920
 21
341.350161653120890
  0
LINE
  8
0
  6
DASHDOT
 62
4
 10
196.702214100369020
 20
321.200450078565100
 11
144.547168978686390
 21
321.200450078565100
  0
LINE
  8
0
  6
DASHDOT
 62
4
 10
196.702214100369020
 20
52.499873227676943
 11
144.547168978686390
 21
52.499873227676943
  0
ARC
  8
0
  6
CONTINUOUS
 62
3
 10
153.564344469386920
 20
330.729414788198880
 40
5.000000000000153
 50
272.000000000003580
 51
0.000000000000000
  0
LINE
  8
0
  6
CONTINUOUS
 62
3
 10
153.738841952899750
 20
325.732460653103260
 11
42.564039882896623
 21
321.850151016726780
  0
ARC
  8
0
  6
CONTINUOUS
 62
3
 10
153.564344469386920
 20
42.970908518042933
 40
5.000000000000000
 50
0.000000000000000
 51
87.999999999996405
  0
LINE
  8
0
  6
CONTINUOUS
 62
3
 10
153.738841952899750
 20
47.967862653138553
 11
42.564039882896623
 21
51.850172289515029
  0
LINE
  8
0
  6
CONTINUOUS
 62
3
 10
42.564344469387152
 20
51.850161653120466
 11
42.564344469387152
 21
291.867622037866970
  0
LINE
  8
0
  6
CONTINUOUS
 62
3
 10
42.564344469387152
 20
51.850161653120466
 11
42.564344469387152
 21
321.850161653121570
  0
ARC
  8
0
  6
CONTINUOUS
 62
3
 10
173.564344469386920
 20
101.945327866025050
 40
2.000000000000000
 50
180.000000000000000
 51
270.000000000000000
  0
ARC
  8
0
  6
CONTINUOUS
 62
3
 10
173.564344469386920
 20
66.705500712448355
 40
2.000000000000000
 50
180.000000000000000
 51
270.000000000000000
  0
LINE
  8
0
  6
CONTINUOUS
 62
3
 10
178.564344469386920
 20
64.705500712448355
 11
173.564344469386920
 21
64.705500712448355
  0
LINE
  8
0
  6
CONTINUOUS
 62
3
 10
178.564344469386920
 20
99.945327866025053
 11
173.564344469386920
 21
99.945327866025053
  0
ARC
  8
0
  6
CONTINUOUS
 62
3
 10
173.564344469386920
 20
271.754995440216760
 40
2.000000000000000
 50
90.000000000000000
 51
180.000000000000000
  0
ARC
  8
0
  6
CONTINUOUS
 62
3
 10
173.564344469386920
 20
306.994822593793460
 40
2.000000000000000
 50
90.000000000000000
 51
180.000000000000000
  0
LINE
  8
0
  6
CONTINUOUS
 62
3
 10
178.564344469386920
 20
308.994822593793460
 11
173.564344469386920
 21
308.994822593793460
  0
LINE
  8
0
  6
CONTINUOUS
 62
3
 10
178.564344469386920
 20
273.754995440216760
 11
173.564344469386920
 21
273.754995440216760
  0
LINE
  8
0
  6
CONTINUOUS
 62
3
 10
171.564344469386920
 20
186.850161653120890
 11
171.564344469386920
 21
306.994822593793460
  0
LINE
  8
0
  6
CONTINUOUS
 62
3
 10
171.564344469386920
 20
186.850161653120890
 11
171.564344469386920
 21
66.705500712448355
  0
LINE
  8
0
  6
CONTINUOUS
 62
3
 10
195.064344469386920
 20
159.350161653120890
 11
195.064344469386920
 21
162.850161653120890
  0
LINE
  8
0
  6
CONTINUOUS
 62
3
 10
190.064344469386920
 20
186.850161653120890
 11
190.064344469386920
 21
211.500161653121440
  0
LINE
  8
0
  6
CONTINUOUS
 62
3
 10
189.864344469387110
 20
211.850161653120890
 11
188.064344469386920
 21
211.850161653120890
  0
LINE
  8
0
  6
CONTINUOUS
 62
3
 10
192.064344469386920
 20
210.700161653120350
 11
192.624152090522330
 21
210.850161653120890
  0
LINE
  8
0
  6
CONTINUOUS
 62
3
 10
192.064344469386920
 20
210.700161653120350
 11
190.864344469387110
 21
210.700161653120350
  0
LINE
  8
0
  6
CONTINUOUS
 62
3
 10
190.064344469386920
 20
211.500161653121440
 11
190.064344469386920
 21
211.650161653121070
  0
ARC
  8
0
  6
CONTINUOUS
 62
3
 10
190.864344469387110
 20
211.500161653121440
 40
0.800000000000182
 50
180.000000000000000
 51
270.000000000000000
  0
LINE
  8
0
  6
CONTINUOUS
 62
3
 10
190.064344469386920
 20
211.650161653121070
 11
189.864344469387110
 21
211.850161653120890
  0
LINE
  8
0
  6
CONTINUOUS
 62
3
 10
190.064344469386920
 20
186.850161653120890
 11
190.064344469386920
 21
162.200161653120350
  0
LINE
  8
0
  6
CONTINUOUS
 62
3
 10
189.864344469387110
 20
161.850161653120890
 11
188.064344469386920
 21
161.850161653120890
  0
LINE
  8
0
  6
CONTINUOUS
 62
3
 10
192.064344469386920
 20
163.000161653121440
 11
192.624152090522330
 21
162.850161653120890
  0
LINE
  8
0
  6
CONTINUOUS
 62
3
 10
192.064344469386920
 20
163.000161653121440
 11
190.864344469387110
 21
163.000161653121440
  0
LINE
  8
0
  6
CONTINUOUS
 62
3
 10
190.064344469386920
 20
162.200161653120350
 11
190.064344469386920
 21
162.050161653120710
  0
ARC
  8
0
  6
CONTINUOUS
 62
3
 10
190.864344469387110
 20
162.200161653120350
 40
0.800000000001091
 50
90.000000000000000
 51
180.000000000000000
  0
LINE
  8
0
  6
CONTINUOUS
 62
3
 10
190.064344469386920
 20
162.050161653120710
 11
189.864344469387110
 21
161.850161653120890
  0
LINE
  8
0
  6
CONTINUOUS
 62
3
 10
264.664344469387290
 20
210.850161653120890
 11
192.624152090522330
 21
210.850161653120890
  0
LINE
  8
0
  6
CONTINUOUS
 62
3
 10
265.064344469386920
 20
186.850161653120890
 11
265.064344469386920
 21
210.450161653120350
  0
ARC
  8
0
  6
CONTINUOUS
 62
3
 10
264.664344469387290
 20
210.450161653120350
 40
0.399999999999636
 50
0.000000000000000
 51
90.000000000000000
  0
LINE
  8
0
  6
CONTINUOUS
 62
3
 10
265.064344469386920
 20
159.350161653120890
 11
195.064344469386920
 21
159.350161653120890
  0
LINE
  8
0
  6
CONTINUOUS
 62
3
 10
265.064344469386920
 20
186.850161653120890
 11
265.064344469386920
 21
159.350161653120890
  0
LINE
  8
0
  6
CONTINUOUS
 62
3
 10
264.664344469387290
 20
162.850161653120890
 11
192.624152090522330
 21
162.850161653120890
  0
ARC
  8
0
  6
CONTINUOUS
 62
3
 10
264.664344469387290
 20
163.250161653121440
 40
0.400000000000546
 50
270.000000000000000
 51
0.000000000000000
  0
LINE
  8
0
  6
CONTINUOUS
 62
3
 10
28.064344469386924
 20
321.850161653120890
 11
42.564344469387152
 21
321.850161653120890
  0
LINE
  8
0
  6
CONTINUOUS
 62
3
 10
28.064344469387152
 20
51.850161653120921
 11
42.564344469387152
 21
51.850161653120921
  0
ARC
  8
0
  6
CONTINUOUS
 62
3
 10
-47.935655530638201
 20
241.350161653121120
 40
5.000000000000000
 50
0.000000000000000
 51
90.000000000000000
  0
ARC
  8
0
  6
CONTINUOUS
 62
3
 10
-39.935655530638201
 20
204.850161653121120
 40
3.000000000000000
 50
180.000000000000000
 51
270.000000000000000
  0
LINE
  8
0
  6
CONTINUOUS
 62
3
 10
-42.935655530638201
 20
241.350161653121120
 11
-42.935655530638201
 21
186.850161653121010
  0
LINE
  8
0
  6
CONTINUOUS
 62
3
 10
-42.935655530638201
 20
186.850161653121010
 11
-42.935655530638201
 21
132.350161653121030
  0
LINE
  8
0
  6
CONTINUOUS
 62
3
 10
-39.935655530638201
 20
201.850161653121120
 11
-3.435655530631038
 21
201.850161653121120
  0
CIRCLE
  8
0
  6
CONTINUOUS
 62
3
 10
-20.435655530631038
 20
186.850161653121010
 40
10.500000000000000
  0
LINE
  8
0
  6
CONTINUOUS
 62
3
 10
-61.935655530631038
 20
246.350161653121120
 11
-4.435669472528389
 21
246.350161653121120
  0
ARC
  8
0
  6
CONTINUOUS
 62
3
 10
-39.935655530638201
 20
168.850161653120890
 40
3.000000000000000
 50
90.000000000000000
 51
180.000000000000000
  0
LINE
  8
0
  6
DASHDOT
 62
4
 10
-20.435655530631038
 20
170.097823212223090
 11
-20.435655530631038
 21
201.620630548759150
  0
LINE
  8
0
  6
CONTINUOUS
 62
3
 10
-39.935655530638201
 20
171.850161653120890
 11
-3.435655530631038
 21
171.850161653120890
  0
ARC
  8
0
  6
CONTINUOUS
 62
3
 10
-3.435655530631038
 20
204.850161653121120
 40
3.000000000000000
 50
270.000000000000000
 51
0.000000000000000
  0
ARC
  8
0
  6
CONTINUOUS
 62
3
 10
-3.435655530631038
 20
168.850161653120890
 40
3.000000000000000
 50
0.000000000000000
 51
90.000000000000000
  0
ARC
  8
0
  6
CONTINUOUS
 62
3
 10
-47.935655530638201
 20
132.350161653121030
 40
5.000000000000000
 50
270.000000000000000
 51
0.000000000000000
  0
LINE
  8
0
  6
CONTINUOUS
 62
3
 10
-61.935655530631038
 20
127.350161653121030
 11
-4.435171517827712
 21
127.350161653121030
  0
LINE
  8
0
  6
CONTINUOUS
 62
3
 10
-61.935655530631038
 20
246.350161653121120
 11
-61.935655530631038
 21
186.850161653121010
  0
LINE
  8
0
  6
CONTINUOUS
 62
3
 10
-61.935655530631038
 20
127.350161653121030
 11
-61.935655530631038
 21
186.850161653121010
  0
ARC
  8
0
  6
CONTINUOUS
 62
3
 10
-452.326293629565040
 20
-81.338816670226834
 40
10.000000000000000
 50
270.000000000000000
 51
0.000000000000000
  0
LINE
  8
0
  6
CONTINUOUS
 62
3
 10
-473.326293629565040
 20
-91.338816670226834
 11
-452.326293629565040
 21
-91.338816670226834
  0
ARC
  8
0
  6
CONTINUOUS
 62
3
 10
-473.326293629565040
 20
-81.338816670226834
 40
10.000000000000000
 50
180.000000000000000
 51
270.000000000000000
  0
LINE
  8
0
  6
DASHDOT
 62
4
 10
464.267748056502340
 20
1.125854771049490
 11
464.267748056502340
 21
-363.824929554713890
  0
LINE
  8
0
  6
CONTINUOUS
 62
3
 10
436.767748056502340
 20
-166.370049221490490
 11
436.767748056502340
 21
-180.370049221490490
  0
LINE
  8
0
  6
CONTINUOUS
 62
3
 10
445.767748056502340
 20
-166.370049221490490
 11
445.767748056502340
 21
-180.370049221490490
  0
LINE
  8
0
  6
CONTINUOUS
 62
3
 10
436.767748056502340
 20
-166.370049221490490
 11
445.767748056502340
 21
-166.370049221490490
  0
LINE
  8
0
  6
CONTINUOUS
 62
3
 10
436.767748056502340
 20
-180.370049221490490
 11
445.767748056502340
 21
-180.370049221490490
  0
ARC
  8
0
  6
DASHED
 62
3
 10
404.467748056502610
 20
-209.138816670211780
 40
0.200000000000045
 50
180.000000000000000
 51
270.000000000000000
  0
ARC
  8
0
  6
CONTINUOUS
 62
3
 10
394.319038705924190
 20
-212.161207892152560
 40
10.000000000000089
 50
293.824470809970080
 51
29.030811683541202
  0
CIRCLE
  8
0
  6
CONTINUOUS
 62
3
 10
464.267748056502340
 20
-173.338816670226380
 40
44.000000000000000
  0
ARC
  8
0
  6
CONTINUOUS
 62
3
 10
391.557707484377720
 20
-179.838816670225920
 40
3.000000000000029
 50
5.108444450886473
 51
90.000000000000000
  0
ARC
  8
0
  6
CONTINUOUS
 62
3
 10
391.557707484377720
 20
-166.838816670225920
 40
3.000000000000000
 50
270.000000000000000
 51
354.891555549113550
  0
ARC
  8
0
  6
CONTINUOUS
 62
3
 10
391.190284885535450
 20
-205.891610352119870
 40
9.999999999999854
 50
294.115030123906250
 51
24.010868112054702
  0
CIRCLE
  8
0
  6
CONTINUOUS
 62
3
 10
464.267748056502340
 20
-173.338816670226380
 40
34.000000000000000
  0
ARC
  8
0
  6
CONTINUOUS
 62
3
 10
464.267748056502340
 20
-173.370049221490490
 40
23.999999999999723
 50
196.957763300004330
 51
163.042236699995670
  0
CIRCLE
  8
0
  6
CONTINUOUS
 62
4
 10
464.267748056502340
 20
-173.338816670226380
 40
4.000000000000000
  0
CIRCLE
  8
0
  6
CONTINUOUS
 62
3
 10
464.267748056502340
 20
-173.338816670226380
 40
3.324999999999989
  0
ARC
  8
0
  6
DASHED
 62
3
 10
549.567748056502300
 20
-196.881316670211850
 40
20.799999999999926
 50
334.359929784105190
 51
5.724810452223396
  0
ARC
  8
0
  6
CONTINUOUS
 62
3
 10
495.493909582681000
 20
-271.501316670225610
 40
48.000000000000185
 50
6.015134369631197
 51
56.987251938308155
  0
ARC
  8
0
  6
CONTINUOUS
 62
3
 10
527.093795663637370
 20
-222.865453362676820
 40
10.000000000000112
 50
141.750801860498630
 51
236.987251938307910
  0
ARC
  8
0
  6
CONTINUOUS
 62
3
 10
591.607429646460100
 20
-181.838816670225920
 40
5.000000000000000
 50
0.000000000000000
 51
90.000000000000000
  0
ARC
  8
0
  6
CONTINUOUS
 62
3
 10
590.625832303941250
 20
-164.838816670225920
 40
5.000000000000000
 50
270.000000000000000
 51
7.943216783020048
  0
ARC
  8
0
  6
CONTINUOUS
 62
3
 10
489.298980607765770
 20
-178.976987345542510
 40
107.308449038694430
 50
7.943216783021247
 51
87.075476210271674
  0
ARC
  8
0
  6
CONTINUOUS
 62
3
 10
536.977788628626970
 20
-179.838816670225920
 40
3.000000000000000
 50
90.000000000000000
 51
174.891555549113520
  0
ARC
  8
0
  6
CONTINUOUS
 62
3
 10
536.977788628626970
 20
-166.838816670225920
 40
3.000000000000029
 50
185.108444450886450
 51
270.000000000000000
  0
ARC
  8
0
  6
CONTINUOUS
 62
3
 10
599.111175779176160
 20
-179.838816670225920
 40
3.000000000000145
 50
357.240247321764400
 51
90.000000000000000
  0
ARC
  8
0
  6
CONTINUOUS
 62
3
 10
599.111175779176160
 20
-166.838816670225920
 40
3.000000000000000
 50
270.000000000000000
 51
2.759752678235591
  0
ARC
  8
0
  6
CONTINUOUS
 62
3
 10
619.767748056502340
 20
-176.338816670225920
 40
2.000000000000000
 50
270.000000000000000
 51
0.000000000000000
  0
ARC
  8
0
  6
CONTINUOUS
 62
3
 10
619.767748056502340
 20
-170.338816670225920
 40
2.000000000000000
 50
0.000000000000000
 51
90.000000000000000
  0
ARC
  8
0
  6
CONTINUOUS
 62
3
 10
591.607429646460100
 20
-211.726386176098000
 40
5.000000000000024
 50
343.224145321645440
 51
0.000000000000000
  0
ARC
  8
0
  6
CONTINUOUS
 62
3
 10
617.058454580165060
 20
-181.338816670225920
 40
3.000000000000000
 50
90.000000000000000
 51
177.002775457333090
  0
ARC
  8
0
  6
CONTINUOUS
 62
3
 10
617.058454580165060
 20
-165.338816670225920
 40
2.999999999999966
 50
182.997224542666910
 51
270.000000000000000
  0
ARC
  8
0
  6
CONTINUOUS
 62
3
 10
464.267748056502340
 20
-173.338816670225920
 40
149.999999999999910
 50
2.997224542665233
 51
32.364374906978924
  0
ARC
  8
0
  6
CONTINUOUS
 62
3
 10
464.267748056502340
 20
-173.338816670225920
 40
150.000000000000060
 50
327.635625093021080
 51
357.002775457334740
  0
ARC
  8
0
  6
CONTINUOUS
 62
3
 10
495.493909582681000
 20
-271.501316670225610
 40
40.999999999999964
 50
0.074478852621535
 51
58.061807908989444
  0
ARC
  8
0
  6
CONTINUOUS
 62
3
 10
522.473119850927790
 20
-228.221734725598250
 40
10.000000000000068
 50
136.682825299161440
 51
238.061807908989040
  0
CIRCLE
  8
0
  6
CONTINUOUS
 62
3
 10
464.267748056502340
 20
-173.338816670225920
 40
70.000000000000000
  0
LINE
  8
0
  6
CONTINUOUS
 62
3
 10
596.607429646460100
 20
-181.838816670225920
 11
596.607429646460100
 21
-211.726386176098000
  0
LINE
  8
0
  6
CONTINUOUS
 62
3
 10
599.111175779176160
 20
-176.838816670225920
 11
536.977788628626970
 21
-176.838816670225920
  0
LINE
  8
0
  6
CONTINUOUS
 62
3
 10
599.111175779176160
 20
-169.838816670225920
 11
536.977788628626970
 21
-169.838816670225920
  0
LINE
  8
0
  6
CONTINUOUS
 62
3
 10
617.058454580165060
 20
-178.338816670225920
 11
619.767748056502340
 21
-178.338816670225920
  0
LINE
  8
0
  6
CONTINUOUS
 62
3
 10
617.058454580165060
 20
-168.338816670225920
 11
619.767748056502340
 21
-168.338816670225920
  0
LINE
  8
0
  6
CONTINUOUS
 62
3
 10
621.767748056502340
 20
-30.838816670225924
 11
621.767748056502340
 21
-315.838816670225920
  0
LINE
  8
0
  6
DASHDOT
 62
4
 10
516.682406697422270
 20
-182.838816670211830
 11
412.397900032330650
 21
-182.838816670211830
  0
INSERT
  8
0
  2
SYM30
 10
551.712570262845700
 20
-223.757773281472280
 41
-1.000000000000000
 42
1.000000000000000
 43
1.000000000000000
 50
2.862405226113666
  0
LINE
  8
0
  6
DASHED
 62
3
 10
545.270617677083240
 20
-126.958696597431640
 11
550.364254605360200
 21
-228.831435162972410
  0
LINE
  8
0
  6
DASHED
 62
3
 10
550.364254605360200
 20
-228.831435162972410
 11
551.962258347564780
 21
-228.751534975861430
  0
LINE
  8
0
  6
DASHED
 62
3
 10
546.868621419287820
 20
-126.878796410321450
 11
551.962258347564780
 21
-228.751534975861430
  0
ARC
  8
0
  6
DASHED
 62
3
 10
553.494213887834580
 20
-219.340676992255340
 40
1.999999999999995
 50
99.916536608232732
 51
182.862405226112400
  0
LINE
  8
0
  6
DASHED
 62
3
 10
546.069619548185530
 20
-126.918746503876600
 11
551.163256476462490
 21
-228.791485069416690
  0
ARC
  8
0
  6
DASHED
 62
3
 10
547.901200790118760
 20
-219.620327647141150
 40
1.999999999999927
 50
2.862405226112724
 51
85.808273843998350
  0
ARC
  8
0
  6
DASHED
 62
3
 10
549.567748056502300
 20
-196.881316670211850
 40
20.800000000000040
 50
279.916536608230560
 51
334.359929784105190
  0
ARC
  8
0
  6
DASHED
 62
3
 10
549.567748056502300
 20
-196.881316670211850
 40
20.799999999999955
 50
180.000000000000000
 51
265.808273843992540
  0
LINE
  8
0
  6
DASHED
 62
3
 10
528.767748056502340
 20
-196.881316670211850
 11
528.767748056502340
 21
-156.881316670211850
  0
ARC
  8
0
  6
DASHED
 62
3
 10
547.567748056502300
 20
-156.881316670211850
 40
18.799999999999983
 50
100.598785266066050
 51
180.000000000000000
  0
ARC
  8
0
  6
DASHED
 62
3
 10
547.986250521138340
 20
-129.626412006566280
 40
1.299999237060645
 50
19.463936333587132
 51
92.862405909348169
  0
ARC
  8
0
  6
DASHED
 62
3
 10
548.205976111890320
 20
-134.020923821604010
 40
1.299999237060550
 50
272.862387240019760
 51
346.260856815788600
  0
LINE
  8
0
  6
DASHED
 62
3
 10
546.943527844703110
 20
-128.376924918638110
 11
547.921331657210660
 21
-128.328034728012770
  0
LINE
  8
0
  6
DASHED
 62
3
 10
547.293091163310240
 20
-135.368191290782990
 11
548.270894975818010
 21
-135.319301100157650
  0
LINE
  8
0
  6
DASHED
 62
3
 10
546.943527844703110
 20
-128.376924918638110
 11
547.293091163310240
 21
-135.368191290782990
  0
LINE
  8
0
  6
DASHED
 62
3
 10
546.943527844703110
 20
-128.376924918638110
 11
547.293091163310240
 21
-135.368191290782990
  0
ARC
  8
0
  6
DASHED
 62
3
 10
540.726294916182270
 20
-132.192158834101750
 40
8.999999999999948
 50
346.260856815786500
 51
19.463936333592187
  0
LINE
  8
0
  6
DASHED
 62
3
 10
546.868621419287820
 20
-132.878796410321460
 11
545.270617677083240
 21
-132.958696597431640
  0
ARC
  8
0
  6
DASHED
 62
3
 10
547.567748056502300
 20
-156.881316670211850
 40
18.799999999999933
 50
35.808626813495749
 51
85.126025186157264
  0
ARC
  8
0
  6
DASHED
 62
3
 10
549.335006520131170
 20
-136.156529638188320
 40
1.999999999999927
 50
182.862405226112710
 51
265.126025186159040
  0
ARC
  8
0
  6
DASHED
 62
3
 10
543.741993422415360
 20
-136.436180293074130
 40
1.999999999999958
 50
280.598785266065990
 51
2.862405226112724
  0
ARC
  8
0
  6
DASHED
 62
3
 10
547.567748056502300
 20
-156.881316670211850
 40
18.799999999999837
 50
5.724810452223617
 51
35.808626813495749
  0
LINE
  8
0
  6
DASHED
 62
3
 10
570.264007408123230
 20
-194.806503702630830
 11
566.273982470467220
 21
-155.006004949513570
  0
ARC
  8
0
  6
DASHED
 62
3
 10
549.567748056502300
 20
-196.881316670211850
 40
20.799999999999926
 50
334.359929784105190
 51
5.724810452223396
  0
LINE
  8
0
  6
DASHED
 62
3
 10
377.328978922521170
 20
-152.838816670211830
 11
400.767748056502570
 21
-152.838816670211830
  0
ARC
  8
0
  6
DASHED
 62
3
 10
404.467748056502610
 20
-162.538816670211870
 40
0.200000000000045
 50
90.000000000000000
 51
180.000000000000000
  0
LINE
  8
0
  6
DASHED
 62
3
 10
400.767748056502570
 20
-214.338816670211830
 11
400.767748056502570
 21
-151.338816670211830
  0
LINE
  8
0
  6
DASHED
 62
3
 10
405.767748056502570
 20
-151.338816670211830
 11
400.767748056502570
 21
-151.338816670211830
  0
LINE
  8
0
  6
DASHED
 62
3
 10
404.267748056502570
 20
-182.838816670211830
 11
404.267748056502570
 21
-162.538816670211870
  0
LINE
  8
0
  6
DASHED
 62
3
 10
405.767748056502570
 20
-162.338816670211830
 11
404.467748056502610
 21
-162.338816670211830
  0
LINE
  8
0
  6
DASHED
 62
3
 10
405.767748056502570
 20
-162.338816670211830
 11
405.767748056502570
 21
-151.338816670211830
  0
LINE
  8
0
  6
DASHED
 62
3
 10
377.328978922521170
 20
-212.838816670211830
 11
400.767748056502570
 21
-212.838816670211830
  0
LINE
  8
0
  6
DASHED
 62
3
 10
405.767748056502570
 20
-203.338816670211830
 11
405.767748056502570
 21
-214.338816670211830
  0
LINE
  8
0
  6
DASHED
 62
3
 10
404.267748056502570
 20
-182.838816670211830
 11
404.267748056502570
 21
-203.138816670211780
  0
LINE
  8
0
  6
DASHED
 62
3
 10
405.767748056502570
 20
-203.338816670211830
 11
404.467748056502610
 21
-203.338816670211830
  0
LINE
  8
0
  6
DASHED
 62
3
 10
405.767748056502570
 20
-214.338816670211830
 11
400.767748056502570
 21
-214.338816670211830
  0
ARC
  8
0
  6
CONTINUOUS
 62
3
 10
553.174576085376200
 20
-265.423429553401090
 40
9.999999999999867
 50
186.015134369631200
 51
313.994123956684400
  0
ARC
  8
0
  6
CONTINUOUS
 62
3
 10
455.767748056502340
 20
-76.090913524487974
 40
5.000000000000000
 50
0.000000000000000
 51
90.819237286262435
  0
ARC
  8
0
  6
CONTINUOUS
 62
3
 10
464.236515505239590
 20
-668.338816670225700
 40
597.308449038694790
 50
90.819237286262435
 51
92.924523789728312
  0
ARC
  8
0
  6
CONTINUOUS
 62
3
 10
472.767748056502340
 20
-76.090913524487974
 40
5.000000000000082
 50
89.180762713737565
 51
180.000000000000000
  0
ARC
  8
0
  6
CONTINUOUS
 62
3
 10
464.298980607765320
 20
-668.338816670225700
 40
597.308449038694680
 50
87.075476210271702
 51
89.180762713737593
  0
ARC
  8
0
  6
CONTINUOUS
 62
3
 10
470.767748056502340
 20
-100.628776098101290
 40
3.000000000000000
 50
180.000000000000000
 51
264.891555549113550
  0
ARC
  8
0
  6
CONTINUOUS
 62
3
 10
457.767748056502340
 20
-100.628776098101290
 40
3.000000000000029
 50
275.108444450886450
 51
0.000000000000000
  0
ARC
  8
0
  6
CONTINUOUS
 62
3
 10
457.767748056502340
 20
-38.495388947551987
 40
3.000000000000000
 50
0.000000000000000
 51
92.759752678235699
  0
ARC
  8
0
  6
CONTINUOUS
 62
3
 10
470.767748056502340
 20
-38.495388947551987
 40
3.000000000000043
 50
87.240247321759966
 51
180.000000000000000
  0
ARC
  8
0
  6
CONTINUOUS
 62
3
 10
561.743342043098660
 20
-333.275844326727110
 40
5.999999999999934
 50
156.035453827466310
 51
177.015999552707170
  0
ARC
  8
0
  6
CONTINUOUS
 62
3
 10
543.767748056502340
 20
-333.338816670225470
 40
12.000000000000000
 50
270.000000000000000
 51
2.865983982598435
  0
ARC
  8
0
  6
CONTINUOUS
 62
3
 10
384.767748056502340
 20
-333.338816670225470
 40
11.999999999999970
 50
177.134016017401560
 51
270.000000000000000
  0
ARC
  8
0
  6
CONTINUOUS
 62
3
 10
606.767748056502340
 20
-315.838816670225920
 40
15.000000000000000
 50
270.000000000000000
 51
0.000000000000000
  0
ARC
  8
0
  6
CONTINUOUS
 62
3
 10
606.767748056502340
 20
-30.838816670225924
 40
15.000000000000000
 50
0.000000000000000
 51
90.000000000000000
  0
ARC
  8
0
  6
CONTINUOUS
 62
3
 10
464.267748056502340
 20
-173.338816670225920
 40
149.999999999999910
 50
237.635625093021160
 51
302.364374906978870
  0
ARC
  8
0
  6
CONTINUOUS
 62
3
 10
549.916021544071330
 20
-308.484564840852950
 40
9.999999999999758
 50
45.000000000000000
 51
122.364374906979250
  0
ARC
  8
0
  6
CONTINUOUS
 62
3
 10
599.413496227129600
 20
-258.987090157794910
 40
9.999999999999984
 50
147.635625093021420
 51
224.999999999999090
  0
ARC
  8
0
  6
CONTINUOUS
 62
3
 10
588.483476809040440
 20
-325.838816670225920
 40
5.000000000000041
 50
225.000000000001850
 51
270.000000000000000
  0
ARC
  8
0
  6
DASHDOT
 62
4
 10
464.267748056502340
 20
-173.338816670225920
 40
190.000000000000140
 50
309.119041968700400
 51
320.880958031302550
  0
CIRCLE
  8
0
  6
CONTINUOUS
 62
3
 10
598.618036481946320
 20
-307.689105095669900
 40
12.000000000000000
  0
ARC
  8
0
  6
CONTINUOUS
 62
3
 10
616.767748056502340
 20
-297.554545422764250
 40
5.000000000000000
 50
0.000000000002606
 51
45.000000000001855
  0
ARC
  8
0
  6
CONTINUOUS
 62
3
 10
599.413496227129370
 20
-87.690543182656938
 40
9.999999999999758
 50
135.000000000000000
 51
212.364374906979260
  0
ARC
  8
0
  6
CONTINUOUS
 62
3
 10
464.267748056502340
 20
-173.338816670225920
 40
150.000000000000060
 50
57.635625093021090
 51
122.364374906978950
  0
ARC
  8
0
  6
CONTINUOUS
 62
3
 10
549.916021544071330
 20
-38.193068499598667
 40
9.999999999999984
 50
237.635625093021450
 51
314.999999999999090
  0
ARC
  8
0
  6
CONTINUOUS
 62
3
 10
616.767748056502340
 20
-49.123087917687826
 40
5.000000000000201
 50
315.000000000000000
 51
0.000000000000000
  0
CIRCLE
  8
0
  6
CONTINUOUS
 62
3
 10
598.618036481946320
 20
-38.988528244781946
 40
12.000000000000000
  0
ARC
  8
0
  6
CONTINUOUS
 62
3
 10
588.483476809040670
 20
-20.838816670225924
 40
5.000000000000000
 50
90.000000000000000
 51
135.000000000001820
  0
ARC
  8
0
  6
CONTINUOUS
 62
3
 10
546.493866494237180
 20
-271.435021727626690
 40
10.000000000000052
 50
180.074478852622290
 51
309.970383425430270
  0
ARC
  8
0
  6
DASHDOT
 62
4
 10
464.267748056502340
 20
-173.338816670225920
 40
190.000000000000000
 50
38.776675058794773
 51
51.697379200818425
  0
LINE
  8
0
  6
CONTINUOUS
 62
3
 10
467.767748056502340
 20
-38.495388947551987
 11
467.767748056502340
 21
-100.628776098101290
  0
LINE
  8
0
  6
CONTINUOUS
 62
3
 10
460.767748056502340
 20
-38.495388947551987
 11
460.767748056502340
 21
-100.628776098101290
  0
LINE
  8
0
  6
CONTINUOUS
 62
3
 10
543.767748056502340
 20
-345.338816670225920
 11
464.267748056502340
 21
-345.338816670225920
  0
LINE
  8
0
  6
CONTINUOUS
 62
3
 10
384.767748056502340
 20
-345.338816670225920
 11
464.267748056502340
 21
-345.338816670225920
  0
LINE
  8
0
  6
CONTINUOUS
 62
3
 10
592.342428415264070
 20
-266.058157969660210
 11
620.303281962434990
 21
-294.019011516831370
  0
LINE
  8
0
  6
CONTINUOUS
 62
3
 10
556.987089355936630
 20
-301.413497028987650
 11
584.947942903107790
 21
-329.374350576158800
  0
LINE
  8
0
  6
DASHDOT
 62
4
 10
584.829454248808590
 20
-293.900522862532400
 11
612.406618715084050
 21
-321.477687328807630
  0
LINE
  8
0
  6
CONTINUOUS
 62
3
 10
556.987089355936630
 20
-45.264136311464199
 11
584.947942903107790
 21
-17.303282764293272
  0
LINE
  8
0
  6
CONTINUOUS
 62
3
 10
592.342428415264070
 20
-80.619475370791633
 11
620.303281962435220
 21
-52.658621823620706
  0
LINE
  8
0
  6
DASHDOT
 62
4
 10
583.903074784799510
 20
-53.703489941928979
 11
612.406618715084050
 21
-25.199946011644442
  0
ENDSEC
  0
EOF
